  0
SECTION
  2
HEADER
  9
$ACADVER
  1
AC1009
  9
$INSBASE
 10
0.0
 20
0.0
 30
0.0
  9
$EXTMIN
 10
-180.01098548994739
 20
-271.68557005312488
 30
-0.0015258207003583
  9
$EXTMAX
 10
180.01098716632811
 20
263.54811651401701
 30
0.0000000349246037
  9
$LIMMIN
 10
0.0
 20
0.0
  9
$LIMMAX
 10
0.0
 20
0.0
  9
$ORTHOMODE
 70
     0
  9
$REGENMODE
 70
     1
  9
$FILLMODE
 70
     1
  9
$QTEXTMODE
 70
     0
  9
$MIRRTEXT
 70
     1
  9
$DRAGMODE
 70
     2
  9
$LTSCALE
 40
10.16
  9
$OSMODE
 70
   231
  9
$ATTMODE
 70
     1
  9
$TEXTSIZE
 40
0.0
  9
$TRACEWID
 40
1.0
  9
$TEXTSTYLE
  7
STANDARD
  9
$CLAYER
  8
DATA
  9
$CELTYPE
  6
BYLAYER
  9
$CECOLOR
 62
   256
  9
$DIMSCALE
 40
1.0
  9
$DIMASZ
 40
0.18
  9
$DIMEXO
 40
0.0625
  9
$DIMDLI
 40
0.38
  9
$DIMRND
 40
0.0
  9
$DIMDLE
 40
0.0
  9
$DIMEXE
 40
0.18
  9
$DIMTP
 40
0.0
  9
$DIMTM
 40
0.0
  9
$DIMTXT
 40
0.18
  9
$DIMCEN
 40
0.09
  9
$DIMTSZ
 40
0.0
  9
$DIMTOL
 70
     0
  9
$DIMLIM
 70
     0
  9
$DIMTIH
 70
     1
  9
$DIMTOH
 70
     1
  9
$DIMSE1
 70
     0
  9
$DIMSE2
 70
     0
  9
$DIMTAD
 70
     0
  9
$DIMZIN
 70
     0
  9
$DIMBLK
  1

  9
$DIMASO
 70
     1
  9
$DIMSHO
 70
     1
  9
$DIMPOST
  1

  9
$DIMAPOST
  1

  9
$DIMALT
 70
     0
  9
$DIMALTD
 70
     2
  9
$DIMALTF
 40
25.399999999999999
  9
$DIMLFAC
 40
1.0
  9
$DIMTOFL
 70
     0
  9
$DIMTVP
 40
0.0
  9
$DIMTIX
 70
     0
  9
$DIMSOXD
 70
     0
  9
$DIMSAH
 70
     0
  9
$DIMBLK1
  1

  9
$DIMBLK2
  1

  9
$DIMSTYLE
  2
STANDARD
  9
$DIMCLRD
 70
     0
  9
$DIMCLRE
 70
     0
  9
$DIMCLRT
 70
     0
  9
$DIMTFAC
 40
1.0
  9
$DIMGAP
 40
0.09
  9
$LUNITS
 70
     2
  9
$LUPREC
 70
     4
  9
$SKETCHINC
 40
0.1
  9
$FILLETRAD
 40
0.0
  9
$AUNITS
 70
     0
  9
$AUPREC
 70
     0
  9
$MENU
  1
acad
  9
$ELEVATION
 40
0.0
  9
$PELEVATION
 40
0.0
  9
$THICKNESS
 40
0.0
  9
$LIMCHECK
 70
     0
  9
$BLIPMODE
 70
     0
  9
$CHAMFERA
 40
0.0
  9
$CHAMFERB
 40
0.0
  9
$SKPOLY
 70
     0
  9
$TDCREATE
 40
2456136.7069328702
  9
$TDUPDATE
 40
2456136.7137446301
  9
$TDINDWG
 40
0.0003204398
  9
$TDUSRTIMER
 40
0.0003204398
  9
$USRTIMER
 70
     1
  9
$ANGBASE
 50
0.0
  9
$ANGDIR
 70
     0
  9
$PDMODE
 70
     1
  9
$PDSIZE
 40
-2.0
  9
$PLINEWID
 40
0.0
  9
$COORDS
 70
     2
  9
$SPLFRAME
 70
     0
  9
$SPLINETYPE
 70
     6
  9
$SPLINESEGS
 70
     8
  9
$ATTDIA
 70
     0
  9
$ATTREQ
 70
     1
  9
$HANDLING
 70
     1
  9
$HANDSEED
  5
283
  9
$SURFTAB1
 70
     6
  9
$SURFTAB2
 70
     6
  9
$SURFTYPE
 70
     6
  9
$SURFU
 70
     6
  9
$SURFV
 70
     6
  9
$UCSNAME
  2

  9
$UCSORG
 10
0.0
 20
0.0
 30
0.0
  9
$UCSXDIR
 10
1.0
 20
0.0
 30
0.0
  9
$UCSYDIR
 10
0.0
 20
1.0
 30
0.0
  9
$PUCSNAME
  2

  9
$PUCSORG
 10
0.0
 20
0.0
 30
0.0
  9
$PUCSXDIR
 10
1.0
 20
0.0
 30
0.0
  9
$PUCSYDIR
 10
0.0
 20
1.0
 30
0.0
  9
$USERI1
 70
     0
  9
$USERI2
 70
     0
  9
$USERI3
 70
     0
  9
$USERI4
 70
     0
  9
$USERI5
 70
     0
  9
$USERR1
 40
0.0
  9
$USERR2
 40
0.0
  9
$USERR3
 40
0.0
  9
$USERR4
 40
0.0
  9
$USERR5
 40
0.0
  9
$WORLDVIEW
 70
     1
  9
$SHADEDGE
 70
     3
  9
$SHADEDIF
 70
    70
  9
$TILEMODE
 70
     1
  9
$MAXACTVP
 70
    64
  9
$PLIMCHECK
 70
     0
  9
$PEXTMIN
 10
1.0000000000000000E+020
 20
1.0000000000000000E+020
 30
1.0000000000000000E+020
  9
$PEXTMAX
 10
-1.0000000000000000E+020
 20
-1.0000000000000000E+020
 30
-1.0000000000000000E+020
  9
$PLIMMIN
 10
0.0
 20
0.0
  9
$PLIMMAX
 10
12.0
 20
9.0
  9
$UNITMODE
 70
     0
  9
$VISRETAIN
 70
     0
  9
$PLINEGEN
 70
     1
  9
$PSLTSCALE
 70
     0
  0
ENDSEC
  0
SECTION
  2
TABLES
  0
TABLE
  2
VPORT
 70
     1
  0
VPORT
  2
*ACTIVE
 70
     0
 10
0.0
 20
0.0
 11
1.0
 21
1.0
 12
0.000000838190374
 22
-3.5318137563878049
 13
0.0
 23
0.0
 14
1.0
 24
1.0
 15
0.0
 25
0.0
 16
0.0
 26
0.0
 36
1.0
 17
0.0
 27
0.0
 37
0.0
 40
538.37137061077658
 41
2.1881578947368419
 42
50.0
 43
0.0
 44
0.0
 50
0.0
 51
0.0
 71
     0
 72
  2000
 73
     1
 74
     1
 75
     0
 76
     0
 77
     0
 78
     0
  0
ENDTAB
  0
TABLE
  2
LTYPE
 70
    12
  0
LTYPE
  2
CONTINUOUS
 70
     0
  3
Solid line
 72
    65
 73
     0
 40
0.0
  0
LTYPE
  2
PHANTOM2
 70
     0
  3
___ _ _ ___ _ _ ___ _ _ ___ _ _
 72
    65
 73
     6
 40
1.25
 49
0.625
 49
-0.125
 49
0.125
 49
-0.125
 49
0.125
 49
-0.125
  0
LTYPE
  2
STYLE_01
 70
     0
  3

 72
    65
 73
     2
 40
0.4166412353515625
 49
0.208282470703125
 49
-0.2083587646484375
  0
LTYPE
  2
STYLE_02
 70
     0
  3

 72
    65
 73
     2
 40
0.694427490234375
 49
0.4860687255859375
 49
-0.2083587646484375
  0
ENDTAB
  0
TABLE
  2
LAYER
 70
     5
  0
LAYER
  2
0
 70
     0
 62
     7
  6
CONTINUOUS
  0
LAYER
  2
DATA
 70
     0
 62
     7
  6
CONTINUOUS
  0
LAYER
  2
HIBINO-BASE
 70
     0
 62
     7
  6
CONTINUOUS
  0
LAYER
  2
SPEC
 70
     0
 62
     7
  6
CONTINUOUS
  0
LAYER
  2
DIMNSIONS
 70
     0
 62
     7
  6
CONTINUOUS
  0
ENDTAB
  0
TABLE
  2
STYLE
 70
     3
  0
STYLE
  2
STANDARD
 70
     0
 40
0.0
 41
1.0
 50
0.0
 71
     0
 42
0.0
  3
txt
  4
BIGFONT.SHX
  0
ENDTAB
  0
TABLE
  2
VIEW
 70
     0
  0
ENDTAB
  0
TABLE
  2
UCS
 70
     0
  0
ENDTAB
  0
TABLE
  2
APPID
 70
     4
  0
APPID
  2
ACAD
 70
     0
  0
APPID
  2
ACADANNOTATIVE
 70
     0
  0
APPID
  2
ACAD_NAV_VCDISPLAY
 70
     0
  0
APPID
  2
ACAD_MLEADERVER
 70
     0
  0
ENDTAB
  0
TABLE
  2
DIMSTYLE
 70
     2
  0
DIMSTYLE
  2
STANDARD
 70
     0
  3

  4

  5

  6

  7

 40
1.0
 41
0.18
 42
0.0625
 43
0.38
 44
0.18
 45
0.0
 46
0.0
 47
0.0
 48
0.0
140
0.18
141
0.09
142
0.0
143
25.399999999999999
144
1.0
145
0.0
146
1.0
147
0.09
 71
     0
 72
     0
 73
     1
 74
     1
 75
     0
 76
     0
 77
     0
 78
     0
170
     0
171
     2
172
     0
173
     0
174
     0
175
     0
176
     0
177
     0
178
     0
  0
ENDTAB
  0
ENDSEC
  0
SECTION
  2
BLOCKS
  0
BLOCK
  8
0
  2
$MODEL_SPACE
 70
     0
 10
0.0
 20
0.0
 30
0.0
  3
$MODEL_SPACE
  1

  0
ENDBLK
  5
216
  8
0
  0
BLOCK
 67
     1
  8
0
  2
$PAPER_SPACE
 70
     0
 10
0.0
 20
0.0
 30
0.0
  3
$PAPER_SPACE
  1

  0
ENDBLK
  5
212
 67
     1
  8
0
  0
ENDSEC
  0
SECTION
  2
ENTITIES
  0
LINE
  5
2C
  8
HIBINO-BASE
  6
CONTINUOUS
 62
     7
 10
-180.0
 20
263.53181499999999
 30
0.0
 11
180.0
 21
263.53181499999999
 31
0.0
  0
LINE
  5
2D
  8
HIBINO-BASE
  6
CONTINUOUS
 62
     7
 10
180.0
 20
-256.46818500000001
 30
0.0
 11
-180.0
 21
-256.46818500000001
 31
0.0
  0
LINE
  5
2E
  8
HIBINO-BASE
  6
CONTINUOUS
 62
     7
 10
-180.0
 20
-256.46818500000001
 30
0.0
 11
-180.0
 21
263.53181499999999
 31
0.0
  0
TEXT
  5
2F
  8
HIBINO-BASE
 62
     7
 10
-165.63199999999989
 20
-269.28554059999988
 30
0.0
 40
7.2000883593749991
  1
Hibino Corporation
 41
0.7
 11
-165.63199999999989
 21
-262.08545224062487
 31
0.0
 73
     3
  0
LINE
  5
30
  8
HIBINO-BASE
  6
CONTINUOUS
 62
     7
 10
180.0
 20
263.53181499999999
 30
0.0
 11
180.0
 21
-256.46818500000001
 31
0.0
  0
LINE
  5
31
  8
HIBINO-BASE
  6
CONTINUOUS
 62
     7
 10
0.0
 20
-211.46818500000001
 30
0.0
 11
180.0
 21
-211.46818500000001
 31
0.0
  0
LINE
  5
32
  8
HIBINO-BASE
  6
CONTINUOUS
 62
     7
 10
0.0
 20
-256.46818500000001
 30
0.0
 11
0.0
 21
-211.46818500000001
 31
0.0
  0
TEXT
  5
33
  8
HIBINO-BASE
 62
     7
 10
1.7999999999999989
 20
-216.48557166666669
 30
0.0
 40
3.2576822916666659
  1
NOTE
 41
0.7
 11
1.7999999999999989
 21
-213.22788937499999
 31
0.0
 73
     3
  0
LINE
  5
34
  8
HIBINO-BASE
  6
CONTINUOUS
 62
     7
 10
70.0
 20
-256.46818500000001
 30
0.0
 11
70.0
 21
-211.46818500000001
 31
0.0
  0
TEXT
  5
35
  8
HIBINO-BASE
 62
     7
 10
71.799999999999983
 20
-216.48557166666669
 30
0.0
 40
3.2576822916666659
  1
TITLE
 41
0.7
 11
71.799999999999983
 21
-213.22788937499999
 31
0.0
 73
     3
  0
TEXT
  5
36
  8
HIBINO-BASE
 62
     7
 10
100.13678
 20
-269.28554059999988
 30
0.0
 40
7.2000883593749991
  1
ヒビノ株式会社
 41
0.7
 11
100.13678
 21
-262.08545224062487
 31
0.0
 73
     3
  0
LINE
  5
37
  8
HIBINO-BASE
  6
CONTINUOUS
 62
     7
 10
0.0
 20
-236.46818500000001
 30
0.0
 11
180.0
 21
-236.46818500000001
 31
0.0
  0
TEXT
  5
38
  8
HIBINO-BASE
 62
     7
 10
96.799999999999983
 20
-241.37293166666669
 30
0.0
 40
3.2576822916666659
  1
DRAWN
 41
0.7
 11
96.799999999999983
 21
-238.11524937499999
 31
0.0
 73
     3
  0
TEXT
  5
39
  8
HIBINO-BASE
 62
     7
 10
46.79999999999999
 20
-241.37293166666669
 30
0.0
 40
3.2576822916666659
  1
DATE
 41
0.7
 11
46.79999999999999
 21
-238.11524937499999
 31
0.0
 73
     3
  0
TEXT
  5
3A
  8
HIBINO-BASE
 62
     7
 10
26.800000000000001
 20
-241.37293166666669
 30
0.0
 40
3.2576822916666659
  1
SCALE
 41
0.7
 11
26.800000000000001
 21
-238.11524937499999
 31
0.0
 73
     3
  0
TEXT
  5
3B
  8
HIBINO-BASE
 62
     7
 10
71.799999999999983
 20
-241.37293166666669
 30
0.0
 40
3.2576822916666659
  1
DESIGN
 41
0.7
 11
71.799999999999983
 21
-238.11524937499999
 31
0.0
 73
     3
  0
TEXT
  5
3C
  8
HIBINO-BASE
 62
     7
 10
146.7999999999999
 20
-241.37293166666669
 30
0.0
 40
3.2576822916666659
  1
DRAWING NO.
 41
0.7
 11
146.7999999999999
 21
-238.11524937499999
 31
0.0
 73
     3
  0
TEXT
  5
3D
  8
HIBINO-BASE
 62
     7
 10
121.7999999999999
 20
-241.37293166666669
 30
0.0
 40
3.2576822916666659
  1
CHECK
 41
0.7
 11
121.7999999999999
 21
-238.11524937499999
 31
0.0
 73
     3
  0
LINE
  5
3E
  8
HIBINO-BASE
  6
CONTINUOUS
 62
     7
 10
28.75
 20
-253.96818500000001
 30
0.0
 11
36.25
 21
-246.46818500000001
 31
0.0
  0
TEXT
  5
3F
  8
HIBINO-BASE
 62
     7
 10
27.5
 20
-248.68607166666661
 30
0.0
 40
3.2576822916666659
  1
1
 41
0.7
 11
27.5
 21
-245.42838937499999
 31
0.0
 73
     3
  0
LINE
  5
40
  8
HIBINO-BASE
  6
CONTINUOUS
 62
     7
 10
25.0
 20
-256.46818500000001
 30
0.0
 11
25.0
 21
-236.46818500000001
 31
0.0
  0
LINE
  5
41
  8
HIBINO-BASE
  6
CONTINUOUS
 62
     7
 10
44.999999999999993
 20
-256.46818500000001
 30
0.0
 11
44.999999999999993
 21
-236.46818500000001
 31
0.0
  0
LINE
  5
42
  8
HIBINO-BASE
  6
CONTINUOUS
 62
     7
 10
94.999999999999986
 20
-236.46818500000001
 30
0.0
 11
94.999999999999986
 21
-256.46818500000001
 31
0.0
  0
LINE
  5
43
  8
HIBINO-BASE
  6
CONTINUOUS
 62
     7
 10
145.0
 20
-236.46818500000001
 30
0.0
 11
145.0
 21
-256.46818500000001
 31
0.0
  0
LINE
  5
44
  8
HIBINO-BASE
  6
CONTINUOUS
 62
     7
 10
120.0
 20
-256.46818500000001
 30
0.0
 11
120.0
 21
-236.46818500000001
 31
0.0
  0
TEXT
  5
45
  8
HIBINO-BASE
 62
     7
 10
46.713079999999991
 20
-250.7408916666667
 30
0.0
 40
3.2576822916666659
  1
'12.07.
 41
0.7
 11
46.713079999999991
 21
-247.483209375
 31
0.0
 73
     3
  0
TEXT
  5
46
  8
HIBINO-BASE
 62
     7
 10
35.0
 20
-252.43607166666669
 30
0.0
 40
3.2576822916666659
  1
2
 41
0.7
 11
35.0
 21
-249.17838937499999
 31
0.0
 73
     3
  0
TEXT
  5
47
  8
HIBINO-BASE
 62
     7
 10
98.011620022069224
 20
-250.7408916666667
 30
0.0
 40
3.2576822916666659
  1
Ootake
 41
0.7
 11
98.011620022069224
 21
-247.483209375
 31
0.0
 73
     3
  0
TEXT
  5
48
  8
HIBINO-BASE
 62
     7
 10
7.7666666666666968
 20
-252.51618500000001
 30
0.0
 40
6.5153645833333318
  1
A4
 41
0.7
 11
7.7666666666666968
 21
-246.00082041666661
 31
0.0
 73
     3
  0
TEXT
  5
49
  8
HIBINO-BASE
 62
     7
 10
1.9166666666666641
 20
-241.7070949999999
 30
0.0
 40
3.2576822916666659
  1
PAPER SIZE
 41
0.7
 11
1.9166666666666641
 21
-238.44941270833331
 31
0.0
 73
     3
  0
TEXT
  5
4A
  8
SPEC
 62
     7
 10
-162.5
 20
246.318355
 30
0.0
 40
4.8865234375000002
  1
仕様
 41
0.7
 11
-162.5
 21
251.20487843750001
 31
0.0
 73
     3
  0
LINE
  5
4B
  8
SPEC
  6
CONTINUOUS
 62
     7
 10
-165.0
 20
243.531755
 30
0.0
 11
130.0
 21
243.531755
 31
0.0
  0
LINE
  5
4C
  8
SPEC
  6
CONTINUOUS
 62
     7
 10
-165.0
 20
236.031755
 30
0.0
 11
130.0
 21
236.031755
 31
0.0
  0
LINE
  5
4D
  8
SPEC
  6
CONTINUOUS
 62
     7
 10
-165.0
 20
228.531755
 30
0.0
 11
130.0
 21
228.531755
 31
0.0
  0
TEXT
  5
4E
  8
SPEC
 62
     7
 10
-98.776441149175056
 20
237.9672978524228
 30
0.0
 40
3.8006224999999989
  1
コンデンサー型 
 41
0.7
 11
-98.776441149175056
 21
241.76792035242289
 31
0.0
 73
     3
  0
LINE
  5
4F
  8
SPEC
  6
CONTINUOUS
 62
     7
 10
-165.0
 20
243.531755
 30
0.0
 11
-165.0
 21
183.53175500000009
 31
0.0
  0
LINE
  5
50
  8
SPEC
  6
CONTINUOUS
 62
     7
 10
-100.0
 20
243.531755
 30
0.0
 11
-100.0
 21
183.53175500000009
 31
0.0
  0
LINE
  5
51
  8
SPEC
  6
CONTINUOUS
 62
     7
 10
130.0
 20
243.531755
 30
0.0
 11
130.0
 21
183.53175500000009
 31
0.0
  0
TEXT
  5
52
  8
SPEC
 62
     7
 10
-163.25827698324451
 20
185.59680969688489
 30
0.0
 40
3.8006224999999989
  1
付属品
 41
0.7
 11
-163.25827698324451
 21
189.39743219688489
 31
0.0
 73
     3
  0
TEXT
  5
53
  8
SPEC
 62
     7
 10
-163.42948862545089
 20
200.63114945232221
 30
0.0
 40
3.8006224999999989
  1
寸法
 41
0.7
 11
-163.42948862545089
 21
204.43177195232221
 31
0.0
 73
     3
  0
TEXT
  5
54
  8
SPEC
 62
     7
 10
-163.3499599493866
 20
192.99842333631759
 30
0.0
 40
3.8006224999999989
  1
重量
 41
0.7
 11
-163.3499599493866
 21
196.79904583631759
 31
0.0
 73
     3
  0
TEXT
  5
55
  8
SPEC
 62
     7
 10
-163.34030159849789
 20
237.8706636971836
 30
0.0
 40
3.8006224999999989
  1
形式
 41
0.7
 11
-163.34030159849789
 21
241.6712861971836
 31
0.0
 73
     3
  0
TEXT
  5
56
  8
SPEC
 62
     7
 10
-163.23936559219419
 20
230.2650605687769
 30
0.0
 40
3.8006224999999989
  1
周波数特性
 41
0.7
 11
-163.23936559219419
 21
234.06568306877691
 31
0.0
 73
     3
  0
TEXT
  5
57
  8
SPEC
 62
     7
 10
-98.619267886577546
 20
185.42404507961689
 30
0.0
 40
3.8006224999999989
  1
ウインドスクリーン(W70)
 41
0.7
 11
-98.619267886577546
 21
189.22466757961689
 31
0.0
 73
     3
  0
TEXT
  5
58
  8
SPEC
 62
     7
 10
-98.471690679401704
 20
200.46899058150279
 30
0.0
 40
3.8006224999999989
  1
13.5\U+03A6\U+00D7152mm(突起部含まず)
 41
0.7
 11
-98.471690679401704
 21
204.2696130815028
 31
0.0
 73
     3
  0
TEXT
  5
59
  8
SPEC
 62
     7
 10
-98.238115262416201
 20
193.06318361982841
 30
0.0
 40
3.8006224999999989
  1
約40g
 41
0.7
 11
-98.238115262416201
 21
196.86380611982841
 31
0.0
 73
     3
  0
TEXT
  5
5A
  8
SPEC
 62
     7
 10
-98.217495818753051
 20
230.10759820000001
 30
0.0
 40
3.8006224999999989
  1
20Hz～20kHz
 41
0.7
 11
-98.217495818753051
 21
233.90822069999999
 31
0.0
 73
     3
  0
LINE
  5
5B
  8
SPEC
  6
CONTINUOUS
 62
     7
 10
-165.0
 20
221.031755
 30
0.0
 11
130.0
 21
221.031755
 31
0.0
  0
LINE
  5
5C
  8
SPEC
  6
CONTINUOUS
 62
     7
 10
-165.0
 20
213.531755
 30
0.0
 11
130.0
 21
213.531755
 31
0.0
  0
LINE
  5
5D
  8
SPEC
  6
CONTINUOUS
 62
     7
 10
-165.0
 20
206.031755
 30
0.0
 11
130.0
 21
206.031755
 31
0.0
  0
LINE
  5
5E
  8
SPEC
  6
CONTINUOUS
 62
     7
 10
-165.0
 20
198.531755
 30
0.0
 11
130.0
 21
198.531755
 31
0.0
  0
LINE
  5
5F
  8
SPEC
  6
CONTINUOUS
 62
     7
 10
-165.0
 20
191.031755
 30
0.0
 11
130.0
 21
191.031755
 31
0.0
  0
LINE
  5
60
  8
SPEC
  6
CONTINUOUS
 62
     7
 10
-165.0
 20
183.531755
 30
0.0
 11
130.0
 21
183.531755
 31
0.0
  0
TEXT
  5
61
  8
SPEC
 62
     7
 10
-163.46842769504619
 20
222.80288305654059
 30
0.0
 40
3.8006224999999989
  1
開回路感度
 41
0.7
 11
-163.46842769504619
 21
226.6035055565406
 31
0.0
 73
     3
  0
TEXT
  5
62
  8
SPEC
 62
     7
 10
-98.088875209075852
 20
222.78760856008549
 30
0.0
 40
3.8006224999999989
  1
-36dB re 1V/Pa   
 41
0.7
 11
-98.088875209075852
 21
226.58823106008549
 31
0.0
 73
     3
  0
TEXT
  5
63
  8
SPEC
 62
     7
 10
-163.23310119833661
 20
215.38305112071029
 30
0.0
 40
3.8006224999999989
  1
最大音圧レベル
 41
0.7
 11
-163.23310119833661
 21
219.18367362071029
 31
0.0
 73
     3
  0
TEXT
  5
64
  8
SPEC
 62
     7
 10
-98.456237046002229
 20
215.1641830977193
 30
0.0
 40
3.8006224999999989
  1
133dB SPL(THD 1%%%)
 41
0.7
 11
-98.456237046002229
 21
218.96480559771931
 31
0.0
 73
     3
  0
TEXT
  5
65
  8
SPEC
 62
     7
 10
-163.26001687099941
 20
207.85849775748321
 30
0.0
 40
3.8006224999999989
  1
等価雑音レベル
 41
0.7
 11
-163.26001687099941
 21
211.65912025748321
 31
0.0
 73
     3
  0
TEXT
  5
66
  8
SPEC
 62
     7
 10
-98.200000000000031
 20
207.79908799786051
 30
0.0
 40
3.8006224999999989
  1
20dB SPL(Aウェイト)
 41
0.7
 11
-98.200000000000031
 21
211.59971049786051
 31
0.0
 73
     3
  0
TEXT
  5
67
  8
DIMNSIONS
 62
     7
 10
-40.0
 20
-231.929205
 30
0.0
 40
4.8865234375000002
  1
(単位：mm)
 41
0.7
 11
-40.0
 21
-227.04268156250001
 31
0.0
 73
     3
  0
LINE
  5
68
  8
DIMNSIONS
  6
CONTINUOUS
 62
     7
 10
-53.249999999959101
 20
-99.999999999963919
 30
0.0
 11
-84.0
 21
-99.999999999963919
 31
0.0
  0
LINE
  5
69
  8
DIMNSIONS
  6
CONTINUOUS
 62
     7
 10
-47.857179588827982
 20
52.000000000035897
 30
0.0
 11
-84.0
 21
52.000000000035897
 31
0.0
  0
LINE
  5
6A
  8
DIMNSIONS
  6
CONTINUOUS
 62
     7
 10
-80.0
 20
-99.999999999963919
 30
0.0
 11
-80.0
 21
52.000000000035897
 31
0.0
  0
LINE
  5
6B
  8
DIMNSIONS
  6
CONTINUOUS
 62
     7
 10
-80.0
 20
-99.999999999963919
 30
0.0
 11
-81.340079590300505
 21
-94.99875488277641
 31
0.0
  0
LINE
  5
6C
  8
DIMNSIONS
  6
CONTINUOUS
 62
     7
 10
-80.0
 20
-99.999999999963919
 30
0.0
 11
-78.659920409699509
 21
-94.99875488277641
 31
0.0
  0
LINE
  5
6D
  8
DIMNSIONS
  6
CONTINUOUS
 62
     7
 10
-80.0
 20
52.000000000035897
 30
0.0
 11
-78.659920409699509
 21
46.998754882848388
 31
0.0
  0
LINE
  5
6E
  8
DIMNSIONS
  6
CONTINUOUS
 62
     7
 10
-80.0
 20
52.000000000035897
 30
0.0
 11
-81.340079590300505
 21
46.998754882848388
 31
0.0
  0
TEXT
  5
6F
  8
DIMNSIONS
 62
     7
 10
-81.987777792496814
 20
-29.291666666630672
 30
0.0
 40
5.4294705670165291
  1
152
 50
90.0
 41
0.7
 11
-87.417248359513337
 21
-29.291666666630672
 31
0.0
 73
     3
  0
LINE
  5
70
  8
DIMNSIONS
  6
CONTINUOUS
 62
     7
 10
-47.749999999959108
 20
-100.9999999999639
 30
0.0
 11
-84.0
 21
-100.9999999999639
 31
0.0
  0
LINE
  5
71
  8
DIMNSIONS
  6
CONTINUOUS
 62
     7
 10
-53.249999999959101
 20
-99.999999999963919
 30
0.0
 11
-84.0
 21
-99.999999999963919
 31
0.0
  0
LINE
  5
72
  8
DIMNSIONS
  6
CONTINUOUS
 62
     7
 10
-80.0
 20
-99.999999999963919
 30
0.0
 11
-80.0
 21
-100.9999999999639
 31
0.0
  0
LINE
  5
73
  8
DIMNSIONS
  6
CONTINUOUS
 62
     7
 10
-80.0
 20
-100.9999999999639
 30
0.0
 11
-80.0
 21
-111.7638888888889
 31
0.0
  0
LINE
  5
74
  8
DIMNSIONS
  6
CONTINUOUS
 62
     7
 10
-80.0
 20
-100.9999999999639
 30
0.0
 11
-78.659920409699509
 21
-106.0012451171514
 31
0.0
  0
LINE
  5
75
  8
DIMNSIONS
  6
CONTINUOUS
 62
     7
 10
-80.0
 20
-100.9999999999639
 30
0.0
 11
-81.340079590300505
 21
-106.0012451171514
 31
0.0
  0
LINE
  5
76
  8
DIMNSIONS
  6
CONTINUOUS
 62
     7
 10
-80.0
 20
-99.999999999963919
 30
0.0
 11
-80.0
 21
-89.999999999963919
 31
0.0
  0
LINE
  5
77
  8
DIMNSIONS
  6
CONTINUOUS
 62
     7
 10
-80.0
 20
-99.999999999963919
 30
0.0
 11
-81.340079590300505
 21
-94.99875488277641
 31
0.0
  0
LINE
  5
78
  8
DIMNSIONS
  6
CONTINUOUS
 62
     7
 10
-80.0
 20
-99.999999999963919
 30
0.0
 11
-78.659920409699509
 21
-94.99875488277641
 31
0.0
  0
TEXT
  5
79
  8
DIMNSIONS
 62
     7
 10
-82.459999962151045
 20
-111.7638888888889
 30
0.0
 40
5.4294705670165291
  1
1
 50
90.0
 41
0.7
 11
-87.889470529167596
 21
-111.7638888888889
 31
0.0
 73
     3
  0
LINE
  5
7A
  8
DIMNSIONS
  6
CONTINUOUS
 62
     7
 10
-48.390390880405683
 20
-124.37480074928079
 30
0.0
 11
-55.0
 21
-130.0
 31
0.0
  0
LINE
  5
7B
  8
DIMNSIONS
  6
CONTINUOUS
 62
     7
 10
-48.390390880405683
 20
-124.37480074928079
 30
0.0
 11
-51.285707168606891
 21
-128.6672836696672
 31
0.0
  0
LINE
  5
7C
  8
DIMNSIONS
  6
CONTINUOUS
 62
     7
 10
-48.390390880405683
 20
-124.37480074928079
 30
0.0
 11
-53.044049798171969
 21
-126.6445418595456
 31
0.0
  0
LINE
  5
7D
  8
DIMNSIONS
  6
CONTINUOUS
 62
     7
 10
-55.0
 20
-130.0
 30
0.0
 11
-80.166666666666671
 21
-130.0
 31
0.0
  0
TEXT
  5
7E
  8
DIMNSIONS
 62
     7
 10
-80.166666666666643
 20
-128.01222220750321
 30
0.0
 40
5.4294705670165291
  1
\U+03C613.5
 41
0.7
 11
-80.166666666666643
 21
-122.58275164048661
 31
0.0
 73
     3
  0
LINE
  5
7F
  8
DIMNSIONS
  6
CONTINUOUS
 62
     7
 10
-47.84999999995911
 20
49.839348471899036
 30
0.0
 11
-47.84999999995911
 21
89.0
 31
0.0
  0
LINE
  5
80
  8
DIMNSIONS
  6
CONTINUOUS
 62
     7
 10
-38.649999999959093
 20
49.839348471899036
 30
0.0
 11
-38.649999999959093
 21
89.0
 31
0.0
  0
LINE
  5
81
  8
DIMNSIONS
  6
CONTINUOUS
 62
     7
 10
-38.649999999959093
 20
85.0
 30
0.0
 11
-47.84999999995911
 21
85.0
 31
0.0
  0
LINE
  5
82
  8
DIMNSIONS
  6
CONTINUOUS
 62
     7
 10
-47.84999999995911
 20
85.0
 30
0.0
 11
-57.84999999995911
 21
85.0
 31
0.0
  0
LINE
  5
83
  8
DIMNSIONS
  6
CONTINUOUS
 62
     7
 10
-47.84999999995911
 20
85.0
 30
0.0
 11
-52.851245117146632
 21
83.659920409699509
 31
0.0
  0
LINE
  5
84
  8
DIMNSIONS
  6
CONTINUOUS
 62
     7
 10
-47.84999999995911
 20
85.0
 30
0.0
 11
-52.851245117146632
 21
86.340079590300505
 31
0.0
  0
LINE
  5
85
  8
DIMNSIONS
  6
CONTINUOUS
 62
     7
 10
-38.649999999959093
 20
85.0
 30
0.0
 11
-24.308333333333351
 21
85.0
 31
0.0
  0
LINE
  5
86
  8
DIMNSIONS
  6
CONTINUOUS
 62
     7
 10
-38.649999999959093
 20
85.0
 30
0.0
 11
-33.648754882771591
 21
86.340079590300505
 31
0.0
  0
LINE
  5
87
  8
DIMNSIONS
  6
CONTINUOUS
 62
     7
 10
-38.649999999959093
 20
85.0
 30
0.0
 11
-33.648754882771591
 21
83.659920409699509
 31
0.0
  0
TEXT
  5
88
  8
DIMNSIONS
 62
     7
 10
-34.89166666666668
 20
86.987777792496786
 30
0.0
 40
5.4294705670165291
  1
9.2
 41
0.7
 11
-34.89166666666668
 21
92.417248359513323
 31
0.0
 73
     3
  0
TEXT
  5
89
  8
DATA
 62
     7
 10
100.0
 20
-234.20640499999999
 30
0.0
 40
4.8865234375000002
  1
CK 47
 41
0.7
 11
100.0
 21
-229.3198815625
 31
0.0
 73
     3
  0
TEXT
  5
8A
  8
DATA
 62
     7
 10
100.0
 20
-219.70640499999999
 30
0.0
 40
4.8865234375000002
  1
AKG
 41
0.7
 11
100.0
 21
-214.8198815625
 31
0.0
 73
     3
  0
TEXT
  5
8B
  8
DATA
 62
     7
 10
96.970002468850993
 20
-226.6603174
 30
0.0
 40
3.257687421875
  1
Modular Series用カートリッジ
 41
0.7
 11
96.970002468850993
 21
-223.40262997812499
 31
0.0
 73
     3
  0
TEXT
  5
8C
  8
DATA
 62
     7
 10
-159.99999999999989
 20
-247.99218500000001
 30
0.0
 40
3.2576822916666659
  1
仕様および外観は予告なく変更されることがありますので、ご了承ください。
 41
0.7
 11
-159.99999999999989
 21
-244.73450270833331
 31
0.0
 73
     3
  0
ARC
  5
8D
  8
DATA
  6
CONTINUOUS
 62
     7
 10
-44.963883430005723
 20
-57.633323033369109
 30
0.0
 40
0.9499999999999317
 50
180.0
 51
2.778186171963426
  0
ARC
  5
8E
  8
DATA
  6
CONTINUOUS
 62
     7
 10
-44.963883430005723
 20
-54.781534025334651
 30
0.0
 40
0.9500000000000411
 50
357.22181382800773
 51
180.0
  0
LINE
  5
8F
  8
DATA
  6
CONTINUOUS
 62
     7
 10
-45.913883430005647
 20
-57.633323033369109
 30
0.0
 11
-45.913883430005711
 21
-54.781534025334651
 31
0.0
  0
LINE
  5
90
  8
DATA
  6
CONTINUOUS
 62
     7
 10
-44.014999999975849
 20
-57.679369056143557
 30
0.0
 11
-44.014999999975849
 21
-54.735488002544017
 31
0.0
  0
ARC
  5
91
  8
DATA
  6
CONTINUOUS
 62
     7
 10
-44.963883430005723
 20
-49.633323033369187
 30
0.0
 40
0.9499999999999317
 50
180.00000000000171
 51
2.778186171963454
  0
ARC
  5
92
  8
DATA
  6
CONTINUOUS
 62
     7
 10
-44.963883430005723
 20
-46.781534025334771
 30
0.0
 40
0.9500000000000428
 50
357.22181382800568
 51
180.00000000000171
  0
LINE
  5
93
  8
DATA
  6
CONTINUOUS
 62
     7
 10
-45.913883430005647
 20
-49.633323033369187
 30
0.0
 11
-45.913883430005711
 21
-46.781534025334771
 31
0.0
  0
LINE
  5
94
  8
DATA
  6
CONTINUOUS
 62
     7
 10
-44.014999999975849
 20
-49.679369056143649
 30
0.0
 11
-44.014999999975849
 21
-46.735488002544137
 31
0.0
  0
ARC
  5
95
  8
DATA
  6
CONTINUOUS
 62
     7
 10
-44.963883430005723
 20
-41.633323033369372
 30
0.0
 40
0.9499999999999317
 50
180.0
 51
2.778186171963426
  0
ARC
  5
96
  8
DATA
  6
CONTINUOUS
 62
     7
 10
-44.963883430005723
 20
-38.781534025334921
 30
0.0
 40
0.9500000000000428
 50
357.22181382800568
 51
180.00000000000171
  0
LINE
  5
97
  8
DATA
  6
CONTINUOUS
 62
     7
 10
-45.913883430005647
 20
-41.633323033369372
 30
0.0
 11
-45.913883430005711
 21
-38.781534025334921
 31
0.0
  0
LINE
  5
98
  8
DATA
  6
CONTINUOUS
 62
     7
 10
-44.014999999975849
 20
-41.679369056143813
 30
0.0
 11
-44.014999999975849
 21
-38.735488002544322
 31
0.0
  0
ARC
  5
99
  8
DATA
  6
CONTINUOUS
 62
     7
 10
-44.963883430005723
 20
-33.63332303336945
 30
0.0
 40
0.9499999999999317
 50
180.00000000000091
 51
2.778186171963454
  0
ARC
  5
9A
  8
DATA
  6
CONTINUOUS
 62
     7
 10
-44.963883430005723
 20
-30.781534025334981
 30
0.0
 40
0.9500000000000428
 50
357.22181382800568
 51
180.0000000000008
  0
LINE
  5
9B
  8
DATA
  6
CONTINUOUS
 62
     7
 10
-45.913883430005647
 20
-33.63332303336945
 30
0.0
 11
-45.913883430005711
 21
-30.781534025334981
 31
0.0
  0
LINE
  5
9C
  8
DATA
  6
CONTINUOUS
 62
     7
 10
-44.014999999975849
 20
-33.679369056143912
 30
0.0
 11
-44.014999999975849
 21
-30.735488002544351
 31
0.0
  0
ARC
  5
9D
  8
DATA
  6
CONTINUOUS
 62
     7
 10
-44.963883430005723
 20
-25.633323033369471
 30
0.0
 40
0.9499999999999317
 50
180.00000000000091
 51
2.778186171963454
  0
ARC
  5
9E
  8
DATA
  6
CONTINUOUS
 62
     7
 10
-44.963883430005723
 20
-22.78153402533502
 30
0.0
 40
0.9500000000000415
 50
357.22181382800699
 51
180.00000000000091
  0
LINE
  5
9F
  8
DATA
  6
CONTINUOUS
 62
     7
 10
-45.913883430005647
 20
-25.633323033369471
 30
0.0
 11
-45.913883430005711
 21
-22.78153402533502
 31
0.0
  0
LINE
  5
A0
  8
DATA
  6
CONTINUOUS
 62
     7
 10
-44.014999999975849
 20
-25.67936905614394
 30
0.0
 11
-44.014999999975849
 21
-22.73548800254439
 31
0.0
  0
ARC
  5
A1
  8
DATA
  6
CONTINUOUS
 62
     7
 10
-44.963883430005723
 20
-17.63332303336945
 30
0.0
 40
0.9499999999999317
 50
180.00000000000091
 51
2.778186171963454
  0
ARC
  5
A2
  8
DATA
  6
CONTINUOUS
 62
     7
 10
-44.963883430005723
 20
-14.78153402533496
 30
0.0
 40
0.950000000000042
 50
357.22181382800659
 51
180.0000000000008
  0
LINE
  5
A3
  8
DATA
  6
CONTINUOUS
 62
     7
 10
-45.913883430005647
 20
-17.63332303336945
 30
0.0
 11
-45.913883430005711
 21
-14.78153402533496
 31
0.0
  0
LINE
  5
A4
  8
DATA
  6
CONTINUOUS
 62
     7
 10
-44.014999999975849
 20
-17.679369056143919
 30
0.0
 11
-44.014999999975849
 21
-14.73548800254432
 31
0.0
  0
ARC
  5
A5
  8
DATA
  6
CONTINUOUS
 62
     7
 10
-44.963883430005723
 20
-9.6333230333694075
 30
0.0
 40
0.9499999999999317
 50
180.00000000000091
 51
2.778186171963454
  0
ARC
  5
A6
  8
DATA
  6
CONTINUOUS
 62
     7
 10
-44.963883430005723
 20
-6.7815340253349179
 30
0.0
 40
0.950000000000042
 50
357.22181382800659
 51
180.0000000000008
  0
LINE
  5
A7
  8
DATA
  6
CONTINUOUS
 62
     7
 10
-45.913883430005647
 20
-9.6333230333694075
 30
0.0
 11
-45.913883430005711
 21
-6.7815340253349179
 31
0.0
  0
LINE
  5
A8
  8
DATA
  6
CONTINUOUS
 62
     7
 10
-44.014999999975849
 20
-9.6793690561438712
 30
0.0
 11
-44.014999999975849
 21
-6.7354880025442787
 31
0.0
  0
ARC
  5
A9
  8
DATA
  6
CONTINUOUS
 62
     7
 10
-44.963883430005723
 20
-1.633323033369386
 30
0.0
 40
0.9499999999999317
 50
180.00000000000091
 51
2.778186171963454
  0
ARC
  5
AA
  8
DATA
  6
CONTINUOUS
 62
     7
 10
-44.963883430005723
 20
1.2184659746650901
 30
0.0
 40
0.950000000000042
 50
357.22181382800659
 51
180.0000000000008
  0
LINE
  5
AB
  8
DATA
  6
CONTINUOUS
 62
     7
 10
-45.913883430005647
 20
-1.633323033369386
 30
0.0
 11
-45.913883430005711
 21
1.2184659746650901
 31
0.0
  0
LINE
  5
AC
  8
DATA
  6
CONTINUOUS
 62
     7
 10
-44.014999999975849
 20
-1.679369056143847
 30
0.0
 11
-44.014999999975849
 21
1.264511997455724
 31
0.0
  0
ARC
  5
AD
  8
DATA
  6
CONTINUOUS
 62
     7
 10
-44.963883430005723
 20
6.3666769666306449
 30
0.0
 40
0.9499999999999317
 50
180.00000000000171
 51
2.7781861719617491
  0
ARC
  5
AE
  8
DATA
  6
CONTINUOUS
 62
     7
 10
-44.963883430005723
 20
9.2184659746651327
 30
0.0
 40
0.950000000000044
 50
357.22181382800397
 51
180.00000000000171
  0
LINE
  5
AF
  8
DATA
  6
CONTINUOUS
 62
     7
 10
-45.913883430005647
 20
6.3666769666306449
 30
0.0
 11
-45.913883430005711
 21
9.2184659746651327
 31
0.0
  0
LINE
  5
B0
  8
DATA
  6
CONTINUOUS
 62
     7
 10
-44.014999999975849
 20
6.3206309438561687
 30
0.0
 11
-44.014999999975849
 21
9.2645119974557524
 31
0.0
  0
ARC
  5
B1
  8
DATA
  6
CONTINUOUS
 62
     7
 10
-44.963883430005723
 20
14.36667696663064
 30
0.0
 40
0.9499999999999317
 50
180.00000000000171
 51
2.7781861719617491
  0
ARC
  5
B2
  8
DATA
  6
CONTINUOUS
 62
     7
 10
-44.963883430005723
 20
17.218465974665119
 30
0.0
 40
0.950000000000044
 50
357.22181382800397
 51
180.00000000000171
  0
LINE
  5
B3
  8
DATA
  6
CONTINUOUS
 62
     7
 10
-45.913883430005647
 20
14.36667696663064
 30
0.0
 11
-45.913883430005711
 21
17.218465974665119
 31
0.0
  0
LINE
  5
B4
  8
DATA
  6
CONTINUOUS
 62
     7
 10
-44.014999999975849
 20
14.320630943856161
 30
0.0
 11
-44.014999999975849
 21
17.264511997455742
 31
0.0
  0
ARC
  5
B5
  8
DATA
  6
CONTINUOUS
 62
     7
 10
-44.963883430005723
 20
22.366676966630681
 30
0.0
 40
0.9499999999999317
 50
180.00000000000171
 51
2.778186171962147
  0
ARC
  5
B6
  8
DATA
  6
CONTINUOUS
 62
     7
 10
-44.963883430005723
 20
25.218465974665161
 30
0.0
 40
0.950000000000044
 50
357.22181382800397
 51
180.00000000000171
  0
LINE
  5
B7
  8
DATA
  6
CONTINUOUS
 62
     7
 10
-45.913883430005647
 20
22.366676966630681
 30
0.0
 11
-45.913883430005711
 21
25.218465974665161
 31
0.0
  0
LINE
  5
B8
  8
DATA
  6
CONTINUOUS
 62
     7
 10
-44.014999999975849
 20
22.320630943856202
 30
0.0
 11
-44.014999999975849
 21
25.264511997455781
 31
0.0
  0
ARC
  5
B9
  8
DATA
  6
CONTINUOUS
 62
     7
 10
-44.963883430005723
 20
30.366676966630699
 30
0.0
 40
0.9499999999999317
 50
180.00000000000171
 51
2.7781861719617491
  0
ARC
  5
BA
  8
DATA
  6
CONTINUOUS
 62
     7
 10
-44.963883430005723
 20
33.2184659746652
 30
0.0
 40
0.950000000000044
 50
357.22181382800397
 51
180.00000000000171
  0
LINE
  5
BB
  8
DATA
  6
CONTINUOUS
 62
     7
 10
-45.913883430005647
 20
30.366676966630699
 30
0.0
 11
-45.913883430005711
 21
33.2184659746652
 31
0.0
  0
LINE
  5
BC
  8
DATA
  6
CONTINUOUS
 62
     7
 10
-44.014999999975849
 20
30.32063094385623
 30
0.0
 11
-44.014999999975849
 21
33.264511997455813
 31
0.0
  0
ARC
  5
BD
  8
DATA
  6
CONTINUOUS
 62
     7
 10
-44.963883430005723
 20
38.366676966630763
 30
0.0
 40
0.9499999999999317
 50
180.00000000000171
 51
2.7781861719617491
  0
ARC
  5
BE
  8
DATA
  6
CONTINUOUS
 62
     7
 10
-44.963883430005723
 20
41.218465974665257
 30
0.0
 40
0.950000000000044
 50
357.22181382800397
 51
180.00000000000171
  0
LINE
  5
BF
  8
DATA
  6
CONTINUOUS
 62
     7
 10
-45.913883430005647
 20
38.366676966630763
 30
0.0
 11
-45.913883430005647
 21
46.411546220647651
 31
0.0
  0
LINE
  5
C0
  8
DATA
  6
CONTINUOUS
 62
     7
 10
-44.014999999975849
 20
38.320630943856287
 30
0.0
 11
-44.014999999975849
 21
46.457592243438349
 31
0.0
  0
ARC
  5
C1
  8
DATA
  6
CONTINUOUS
 62
     7
 10
-41.540851209990343
 20
-57.633323033369109
 30
0.0
 40
0.9499999999999612
 50
177.2218138280364
 51
0.0
  0
ARC
  5
C2
  8
DATA
  6
CONTINUOUS
 62
     7
 10
-41.540851209990343
 20
-54.781534025334651
 30
0.0
 40
0.9500000000000456
 50
0.0
 51
182.7781861719927
  0
LINE
  5
C3
  8
DATA
  6
CONTINUOUS
 62
     7
 10
-40.590851209990362
 20
-57.633323033369109
 30
0.0
 11
-40.590851209990291
 21
-54.781534025334651
 31
0.0
  0
LINE
  5
C4
  8
DATA
  6
CONTINUOUS
 62
     7
 10
-42.489734640020139
 20
-57.679369056143557
 30
0.0
 11
-42.489734640020139
 21
-54.735488002544017
 31
0.0
  0
ARC
  5
C5
  8
DATA
  6
CONTINUOUS
 62
     7
 10
-41.540851209990343
 20
-49.633323033369187
 30
0.0
 40
0.9499999999999612
 50
177.2218138280364
 51
359.99999999999841
  0
ARC
  5
C6
  8
DATA
  6
CONTINUOUS
 62
     7
 10
-41.540851209990343
 20
-46.781534025334771
 30
0.0
 40
0.9500000000000456
 50
359.99999999999841
 51
182.77818617199441
  0
LINE
  5
C7
  8
DATA
  6
CONTINUOUS
 62
     7
 10
-40.590851209990362
 20
-49.633323033369187
 30
0.0
 11
-40.590851209990291
 21
-46.781534025334771
 31
0.0
  0
LINE
  5
C8
  8
DATA
  6
CONTINUOUS
 62
     7
 10
-42.489734640020139
 20
-49.679369056143649
 30
0.0
 11
-42.489734640020139
 21
-46.735488002544137
 31
0.0
  0
ARC
  5
C9
  8
DATA
  6
CONTINUOUS
 62
     7
 10
-41.540851209990343
 20
-41.633323033369372
 30
0.0
 40
0.9499999999999612
 50
177.2218138280364
 51
0.0
  0
ARC
  5
CA
  8
DATA
  6
CONTINUOUS
 62
     7
 10
-41.540851209990343
 20
-38.781534025334921
 30
0.0
 40
0.9500000000000456
 50
359.99999999999841
 51
182.77818617199441
  0
LINE
  5
CB
  8
DATA
  6
CONTINUOUS
 62
     7
 10
-40.590851209990362
 20
-41.633323033369372
 30
0.0
 11
-40.590851209990291
 21
-38.781534025334921
 31
0.0
  0
LINE
  5
CC
  8
DATA
  6
CONTINUOUS
 62
     7
 10
-42.489734640020139
 20
-41.679369056143813
 30
0.0
 11
-42.489734640020139
 21
-38.735488002544322
 31
0.0
  0
ARC
  5
CD
  8
DATA
  6
CONTINUOUS
 62
     7
 10
-41.540851209990343
 20
-33.63332303336945
 30
0.0
 40
0.9499999999999612
 50
177.2218138280364
 51
359.99999999999909
  0
ARC
  5
CE
  8
DATA
  6
CONTINUOUS
 62
     7
 10
-41.540851209990343
 20
-30.781534025334981
 30
0.0
 40
0.9500000000000456
 50
359.9999999999992
 51
182.77818617199441
  0
LINE
  5
CF
  8
DATA
  6
CONTINUOUS
 62
     7
 10
-40.590851209990362
 20
-33.63332303336945
 30
0.0
 11
-40.590851209990291
 21
-30.781534025334981
 31
0.0
  0
LINE
  5
D0
  8
DATA
  6
CONTINUOUS
 62
     7
 10
-42.489734640020139
 20
-33.679369056143912
 30
0.0
 11
-42.489734640020139
 21
-30.735488002544351
 31
0.0
  0
ARC
  5
D1
  8
DATA
  6
CONTINUOUS
 62
     7
 10
-41.540851209990343
 20
-25.633323033369471
 30
0.0
 40
0.9499999999999612
 50
177.2218138280364
 51
359.99999999999909
  0
ARC
  5
D2
  8
DATA
  6
CONTINUOUS
 62
     7
 10
-41.540851209990343
 20
-22.78153402533502
 30
0.0
 40
0.9500000000000456
 50
359.9999999999992
 51
182.77818617199321
  0
LINE
  5
D3
  8
DATA
  6
CONTINUOUS
 62
     7
 10
-40.590851209990362
 20
-25.633323033369471
 30
0.0
 11
-40.590851209990291
 21
-22.78153402533502
 31
0.0
  0
LINE
  5
D4
  8
DATA
  6
CONTINUOUS
 62
     7
 10
-42.489734640020139
 20
-25.67936905614394
 30
0.0
 11
-42.489734640020139
 21
-22.73548800254439
 31
0.0
  0
ARC
  5
D5
  8
DATA
  6
CONTINUOUS
 62
     7
 10
-41.540851209990343
 20
-17.63332303336945
 30
0.0
 40
0.9499999999999612
 50
177.2218138280364
 51
359.99999999999909
  0
ARC
  5
D6
  8
DATA
  6
CONTINUOUS
 62
     7
 10
-41.540851209990343
 20
-14.78153402533496
 30
0.0
 40
0.9500000000000456
 50
359.9999999999992
 51
182.77818617199361
  0
LINE
  5
D7
  8
DATA
  6
CONTINUOUS
 62
     7
 10
-40.590851209990362
 20
-17.63332303336945
 30
0.0
 11
-40.590851209990291
 21
-14.78153402533496
 31
0.0
  0
LINE
  5
D8
  8
DATA
  6
CONTINUOUS
 62
     7
 10
-42.489734640020139
 20
-17.679369056143919
 30
0.0
 11
-42.489734640020139
 21
-14.73548800254432
 31
0.0
  0
ARC
  5
D9
  8
DATA
  6
CONTINUOUS
 62
     7
 10
-41.540851209990343
 20
-9.6333230333694075
 30
0.0
 40
0.9499999999999612
 50
177.2218138280364
 51
359.99999999999909
  0
ARC
  5
DA
  8
DATA
  6
CONTINUOUS
 62
     7
 10
-41.540851209990343
 20
-6.7815340253349179
 30
0.0
 40
0.9500000000000456
 50
359.9999999999992
 51
182.77818617199361
  0
LINE
  5
DB
  8
DATA
  6
CONTINUOUS
 62
     7
 10
-40.590851209990362
 20
-9.6333230333694075
 30
0.0
 11
-40.590851209990291
 21
-6.7815340253349179
 31
0.0
  0
LINE
  5
DC
  8
DATA
  6
CONTINUOUS
 62
     7
 10
-42.489734640020139
 20
-9.6793690561438712
 30
0.0
 11
-42.489734640020139
 21
-6.7354880025442787
 31
0.0
  0
ARC
  5
DD
  8
DATA
  6
CONTINUOUS
 62
     7
 10
-41.540851209990343
 20
-1.633323033369386
 30
0.0
 40
0.9499999999999612
 50
177.2218138280364
 51
359.99999999999909
  0
ARC
  5
DE
  8
DATA
  6
CONTINUOUS
 62
     7
 10
-41.540851209990343
 20
1.2184659746650901
 30
0.0
 40
0.9500000000000456
 50
359.9999999999992
 51
182.77818617199361
  0
LINE
  5
DF
  8
DATA
  6
CONTINUOUS
 62
     7
 10
-40.590851209990362
 20
-1.633323033369386
 30
0.0
 11
-40.590851209990291
 21
1.2184659746650901
 31
0.0
  0
LINE
  5
E0
  8
DATA
  6
CONTINUOUS
 62
     7
 10
-42.489734640020139
 20
-1.679369056143847
 30
0.0
 11
-42.489734640020139
 21
1.264511997455724
 31
0.0
  0
ARC
  5
E1
  8
DATA
  6
CONTINUOUS
 62
     7
 10
-41.540851209990343
 20
6.3666769666306449
 30
0.0
 40
0.9499999999999598
 50
177.22181382803811
 51
359.99999999999841
  0
ARC
  5
E2
  8
DATA
  6
CONTINUOUS
 62
     7
 10
-41.540851209990343
 20
9.2184659746651327
 30
0.0
 40
0.9500000000000456
 50
359.99999999999841
 51
182.77818617199611
  0
LINE
  5
E3
  8
DATA
  6
CONTINUOUS
 62
     7
 10
-40.590851209990362
 20
6.3666769666306449
 30
0.0
 11
-40.590851209990291
 21
9.2184659746651327
 31
0.0
  0
LINE
  5
E4
  8
DATA
  6
CONTINUOUS
 62
     7
 10
-42.489734640020139
 20
6.3206309438561687
 30
0.0
 11
-42.489734640020139
 21
9.2645119974557524
 31
0.0
  0
ARC
  5
E5
  8
DATA
  6
CONTINUOUS
 62
     7
 10
-41.540851209990343
 20
14.36667696663064
 30
0.0
 40
0.9499999999999598
 50
177.22181382803811
 51
359.99999999999841
  0
ARC
  5
E6
  8
DATA
  6
CONTINUOUS
 62
     7
 10
-41.540851209990343
 20
17.218465974665119
 30
0.0
 40
0.9500000000000456
 50
359.99999999999841
 51
182.77818617199611
  0
LINE
  5
E7
  8
DATA
  6
CONTINUOUS
 62
     7
 10
-40.590851209990362
 20
14.36667696663064
 30
0.0
 11
-40.590851209990291
 21
17.218465974665119
 31
0.0
  0
LINE
  5
E8
  8
DATA
  6
CONTINUOUS
 62
     7
 10
-42.489734640020139
 20
14.320630943856161
 30
0.0
 11
-42.489734640020139
 21
17.264511997455742
 31
0.0
  0
ARC
  5
E9
  8
DATA
  6
CONTINUOUS
 62
     7
 10
-41.540851209990343
 20
22.366676966630681
 30
0.0
 40
0.94999999999996
 50
177.2218138280376
 51
359.99999999999841
  0
ARC
  5
EA
  8
DATA
  6
CONTINUOUS
 62
     7
 10
-41.540851209990343
 20
25.218465974665161
 30
0.0
 40
0.9500000000000456
 50
359.99999999999841
 51
182.77818617199611
  0
LINE
  5
EB
  8
DATA
  6
CONTINUOUS
 62
     7
 10
-40.590851209990362
 20
22.366676966630681
 30
0.0
 11
-40.590851209990291
 21
25.218465974665161
 31
0.0
  0
LINE
  5
EC
  8
DATA
  6
CONTINUOUS
 62
     7
 10
-42.489734640020139
 20
22.320630943856202
 30
0.0
 11
-42.489734640020139
 21
25.264511997455781
 31
0.0
  0
ARC
  5
ED
  8
DATA
  6
CONTINUOUS
 62
     7
 10
-41.540851209990343
 20
30.366676966630699
 30
0.0
 40
0.9499999999999598
 50
177.22181382803811
 51
359.99999999999841
  0
ARC
  5
EE
  8
DATA
  6
CONTINUOUS
 62
     7
 10
-41.540851209990343
 20
33.2184659746652
 30
0.0
 40
0.9500000000000456
 50
359.99999999999841
 51
182.77818617199611
  0
LINE
  5
EF
  8
DATA
  6
CONTINUOUS
 62
     7
 10
-40.590851209990362
 20
30.366676966630699
 30
0.0
 11
-40.590851209990291
 21
33.2184659746652
 31
0.0
  0
LINE
  5
F0
  8
DATA
  6
CONTINUOUS
 62
     7
 10
-42.489734640020139
 20
30.32063094385623
 30
0.0
 11
-42.489734640020139
 21
33.264511997455813
 31
0.0
  0
ARC
  5
F1
  8
DATA
  6
CONTINUOUS
 62
     7
 10
-41.540851209990343
 20
38.366676966630763
 30
0.0
 40
0.9499999999999598
 50
177.22181382803811
 51
359.99999999999841
  0
ARC
  5
F2
  8
DATA
  6
CONTINUOUS
 62
     7
 10
-41.540851209990343
 20
41.218465974665257
 30
0.0
 40
0.9500000000000456
 50
359.99999999999841
 51
182.77818617199611
  0
LINE
  5
F3
  8
DATA
  6
CONTINUOUS
 62
     7
 10
-40.590851209990362
 20
38.366676966630763
 30
0.0
 11
-40.590851209990362
 21
46.411546220647651
 31
0.0
  0
LINE
  5
F4
  8
DATA
  6
CONTINUOUS
 62
     7
 10
-42.489734640020139
 20
38.320630943856287
 30
0.0
 11
-42.489734640020139
 21
46.457592243438349
 31
0.0
  0
LINE
  5
F5
  8
DATA
  6
CONTINUOUS
 62
     7
 10
-44.014999999975849
 20
-54.735488002544017
 30
0.0
 11
-44.014999999975849
 21
38.465630943856269
 31
0.0
  0
LINE
  5
F6
  8
DATA
  6
CONTINUOUS
 62
     7
 10
-45.912367319998019
 20
38.313027079175441
 30
0.0
 11
-45.912367319998019
 21
-54.914369056143599
 31
0.0
  0
LINE
  5
F7
  8
DATA
  6
CONTINUOUS
 62
     7
 10
-42.489734640020139
 20
-54.934369056143581
 30
0.0
 11
-42.489734640020139
 21
38.605630943856291
 31
0.0
  0
LINE
  5
F8
  8
DATA
  6
CONTINUOUS
 62
     7
 10
-40.590851209990362
 20
38.366676966630763
 30
0.0
 11
-40.590851209990362
 21
-54.994369056143583
 31
0.0
  0
LINE
  5
F9
  8
DATA
  6
CONTINUOUS
 62
     7
 10
-49.249999999959087
 20
-99.999999999963919
 30
0.0
 11
-37.249999999959108
 21
-99.999999999963919
 31
0.0
  0
LINE
  5
FA
  8
DATA
  6
CONTINUOUS
 62
     7
 10
-38.649999999959093
 20
46.312561120857318
 30
0.0
 11
-38.649999999959142
 21
-60.199999999963921
 31
0.0
  0
LINE
  5
FB
  8
DATA
  6
CONTINUOUS
 62
     7
 10
-38.649999999959142
 20
-60.999999999963897
 30
0.0
 11
-38.649999999959142
 21
-84.999999999963848
 31
0.0
  0
LINE
  5
FC
  8
DATA
  6
CONTINUOUS
 62
     7
 10
-47.84999999995911
 20
-84.999999999963876
 30
0.0
 11
-47.84999999995911
 21
-60.999999999963897
 31
0.0
  0
LINE
  5
FD
  8
DATA
  6
CONTINUOUS
 62
     7
 10
-47.84999999995911
 20
-60.199999999963921
 30
0.0
 11
-47.84999999995911
 21
46.312561120857133
 31
0.0
  0
LINE
  5
FE
  8
DATA
  6
CONTINUOUS
 62
     7
 10
-49.249999999959087
 20
-99.999999999963919
 30
0.0
 11
-49.249999999959087
 21
-94.999999999963876
 31
0.0
  0
LINE
  5
FF
  8
DATA
  6
CONTINUOUS
 62
     7
 10
-37.249999999959108
 20
-94.999999999963876
 30
0.0
 11
-37.249999999959108
 21
-99.999999999963919
 31
0.0
  0
LINE
  5
100
  8
DATA
  6
CONTINUOUS
 62
     7
 10
-49.999999999959087
 20
-94.999999999963876
 30
0.0
 11
-36.499999999959108
 21
-94.999999999963876
 31
0.0
  0
LINE
  5
101
  8
DATA
  6
CONTINUOUS
 62
     7
 10
-47.84999999995911
 20
-83.999999999963876
 30
0.0
 11
-38.649999999959142
 21
-83.999999999963876
 31
0.0
  0
LINE
  5
102
  8
DATA
  6
CONTINUOUS
 62
     7
 10
-47.84999999995911
 20
-84.999999999963876
 30
0.0
 11
-38.649999999959093
 21
-84.999999999963876
 31
0.0
  0
LINE
  5
103
  8
DATA
  6
CONTINUOUS
 62
     7
 10
-43.749999999959101
 20
-100.9999999999639
 30
0.0
 11
-43.749999999959101
 21
-99.999999999963919
 31
0.0
  0
LINE
  5
104
  8
DATA
  6
CONTINUOUS
 62
     7
 10
-42.749999999959108
 20
-100.9999999999639
 30
0.0
 11
-43.749999999959101
 21
-100.9999999999639
 31
0.0
  0
LINE
  5
105
  8
DATA
  6
CONTINUOUS
 62
     7
 10
-42.749999999959108
 20
-99.999999999963919
 30
0.0
 11
-42.749999999959108
 21
-100.9999999999639
 31
0.0
  0
CIRCLE
  5
106
  8
DATA
  6
CONTINUOUS
 62
     7
 10
-43.249999999959108
 20
-82.499999999963876
 30
0.0
 40
1.0
  0
LINE
  5
107
  8
DATA
  6
CONTINUOUS
 62
     7
 10
-43.249999999959108
 20
-83.016958893636144
 30
0.0
 11
-43.249999999959108
 21
-81.983041106291623
 31
0.0
  0
LINE
  5
108
  8
DATA
  6
CONTINUOUS
 62
     7
 10
-43.766958893631369
 20
-82.499999999963876
 30
0.0
 11
-42.733041106286848
 21
-82.499999999963876
 31
0.0
  0
ARC
  5
109
  8
DATA
  6
CONTINUOUS
 62
     7
 10
-43.068382603925528
 20
48.319004333103578
 30
0.0
 40
3.6854733723792541
 50
92.824637579395983
 51
147.2893566452228
  0
ARC
  5
10A
  8
DATA
  6
CONTINUOUS
 62
     7
 10
-39.559416617047802
 20
45.179800512135188
 30
0.0
 40
8.3676113333302489
 50
142.1804715555476
 51
172.2197281299544
  0
ARC
  5
10B
  8
DATA
  6
CONTINUOUS
 62
     7
 10
-43.431617395992681
 20
48.319004333103578
 30
0.0
 40
3.6854733723792679
 50
32.710643354777147
 51
87.175362420604017
  0
ARC
  5
10C
  8
DATA
  6
CONTINUOUS
 62
     7
 10
-46.940583382870422
 20
45.179800512135188
 30
0.0
 40
8.3676113333303128
 50
7.7802718700455626
 51
37.819528444452352
  0
CIRCLE
  5
10D
  8
DATA
  6
CONTINUOUS
 62
     7
 10
-43.249999999959108
 20
-119.9999999999642
 30
0.0
 40
6.75
  0
CIRCLE
  5
10E
  8
DATA
  6
CONTINUOUS
 62
     7
 10
-43.249999999959108
 20
-119.9999999999642
 30
0.0
 40
6.0
  0
CIRCLE
  5
10F
  8
DATA
  6
CONTINUOUS
 62
     7
 10
-43.249999999959108
 20
-119.9999999999642
 30
0.0
 40
0.5
  0
CIRCLE
  5
110
  8
DATA
  6
CONTINUOUS
 62
     7
 10
-43.249999999959108
 20
-119.9999999999642
 30
0.0
 40
4.4499999999999877
  0
LINE
  5
111
  8
DATA
  6
CONTINUOUS
 62
     7
 10
-49.249999999959087
 20
-99.999999999963919
 30
0.0
 11
-37.249999999959108
 21
-99.807835887775397
 31
0.0
  0
LINE
  5
112
  8
DATA
  6
CONTINUOUS
 62
     7
 10
-49.249999999959087
 20
-99.199999999963879
 30
0.0
 11
-37.249999999959108
 21
-99.007835887775343
 31
0.0
  0
LINE
  5
113
  8
DATA
  6
CONTINUOUS
 62
     7
 10
-49.249999999959087
 20
-98.399999999963882
 30
0.0
 11
-37.249999999959108
 21
-98.207835887775374
 31
0.0
  0
LINE
  5
114
  8
DATA
  6
CONTINUOUS
 62
     7
 10
-49.249999999959087
 20
-97.599999999963885
 30
0.0
 11
-37.249999999959108
 21
-97.407835887775363
 31
0.0
  0
LINE
  5
115
  8
DATA
  6
CONTINUOUS
 62
     7
 10
-49.249999999959087
 20
-96.799999999963873
 30
0.0
 11
-37.249999999959108
 21
-96.607835887775309
 31
0.0
  0
LINE
  5
116
  8
DATA
  6
CONTINUOUS
 62
     7
 10
-49.249999999959087
 20
-95.999999999963876
 30
0.0
 11
-37.249999999959108
 21
-95.807835887775369
 31
0.0
  0
LINE
  5
117
  8
DATA
  6
CONTINUOUS
 62
     7
 10
-49.249999999959087
 20
-95.199999999963879
 30
0.0
 11
-37.249999999959108
 21
-95.007835887775343
 31
0.0
  0
LINE
  5
118
  8
DATA
  6
CONTINUOUS
 62
     7
 10
-47.84999999995911
 20
-60.999999999963897
 30
0.0
 11
-38.649999999959093
 21
-60.999999999963897
 31
0.0
  0
LINE
  5
119
  8
DATA
  6
CONTINUOUS
 62
     7
 10
-47.84999999995911
 20
-60.199999999963921
 30
0.0
 11
-38.649999999959093
 21
-60.199999999963921
 31
0.0
  0
TEXT
  5
11A
  8
DATA
 62
     7
 10
-45.421732309201353
 20
-78.055911114762281
 30
0.0
 40
1.6288411458333329
  1
CK47
 41
0.7
 11
-45.421732309201353
 21
-77.241490541845621
 31
0.0
 73
     2
  0
LINE
  5
11B
  8
DATA
  6
CONTINUOUS
 62
     7
 10
-47.84999999995911
 20
-67.99999999996389
 30
0.0
 11
-38.649999999959142
 21
-67.99999999996389
 31
0.0
  0
LINE
  5
11C
  8
DATA
  6
CONTINUOUS
 62
     7
 10
-47.84999999995911
 20
-66.99999999996389
 30
0.0
 11
-38.649999999959142
 21
-66.99999999996389
 31
0.0
  0
CIRCLE
  5
11D
  8
DATA
  6
CONTINUOUS
 62
     7
 10
-43.249999999959108
 20
-67.49999999996389
 30
0.0
 40
0.4499999999999886
  0
CIRCLE
  5
11E
  8
DATA
  6
CONTINUOUS
 62
     7
 10
-41.249999999959101
 20
-67.49999999996389
 30
0.0
 40
0.4499999999999886
  0
CIRCLE
  5
11F
  8
DATA
  6
CONTINUOUS
 62
     7
 10
-39.249999999959108
 20
-67.49999999996389
 30
0.0
 40
0.4499999999999886
  0
CIRCLE
  5
120
  8
DATA
  6
CONTINUOUS
 62
     7
 10
-45.249999999959087
 20
-67.49999999996389
 30
0.0
 40
0.4499999999999886
  0
CIRCLE
  5
121
  8
DATA
  6
CONTINUOUS
 62
     7
 10
-47.249999999959087
 20
-67.49999999996389
 30
0.0
 40
0.4499999999999886
  0
LINE
  5
122
  8
DATA
  6
CONTINUOUS
 62
     7
 10
-47.649999999959071
 20
-60.999999999963897
 30
0.0
 11
-47.649999999959071
 21
-60.199999999963921
 31
0.0
  0
LINE
  5
123
  8
DATA
  6
CONTINUOUS
 62
     7
 10
-38.849999999959138
 20
-60.999999999963897
 30
0.0
 11
-38.849999999959138
 21
-60.199999999963921
 31
0.0
  0
ARC
  5
124
  8
DATA
  6
CONTINUOUS
 62
     7
 10
-44.963883430005723
 20
46.411546220647651
 30
0.0
 40
0.950000000000044
 50
357.22181382800397
 51
180.00000000000171
  0
ARC
  5
125
  8
DATA
  6
CONTINUOUS
 62
     7
 10
-41.540851209990343
 20
46.411546220647651
 30
0.0
 40
0.9500000000000456
 50
359.99999999999841
 51
182.77818617199611
  0
LINE
  5
126
  8
DATA
  6
STYLE_01
 62
     7
 10
-58.34999999995911
 20
-79.999999999963876
 30
0.0
 11
-58.34999999995911
 21
63.831104263884733
 31
0.0
  0
LINE
  5
127
  8
DATA
  6
STYLE_01
 62
     7
 10
-27.749999999959108
 20
-79.999999999963876
 30
0.0
 11
-58.34999999995911
 21
-79.999999999963876
 31
0.0
  0
LINE
  5
128
  8
DATA
  6
STYLE_01
 62
     7
 10
-27.749999999959108
 20
64.201629461503146
 30
0.0
 11
-27.749999999959108
 21
-79.999999999963876
 31
0.0
  0
ARC
  5
129
  8
DATA
  6
STYLE_01
 62
     7
 10
-40.840604397328931
 20
56.216478029252038
 30
0.0
 40
18.937420225492481
 50
97.309516028397724
 51
129.89559402023821
  0
ARC
  5
12A
  8
DATA
  6
STYLE_01
 62
     7
 10
-43.742918475931248
 20
56.794840867406151
 30
0.0
 40
16.735382073513101
 50
123.52912858131199
 51
144.22062146235109
  0
ARC
  5
12B
  8
DATA
  6
STYLE_01
 62
     7
 10
-45.659395602589292
 20
56.216478029252038
 30
0.0
 40
18.93742022549246
 50
50.10440597976185
 51
82.690483971602291
  0
ARC
  5
12C
  8
DATA
  6
STYLE_01
 62
     7
 10
-42.757081523986962
 20
56.794840867406151
 30
0.0
 40
16.735382073513112
 50
26.268776431085449
 51
56.47087141868802
  0
ARC
  5
12D
  8
DATA
  6
STYLE_01
 62
     7
 10
-43.590408163224289
 20
59.866326530648053
 30
0.0
 40
15.282833953850909
 50
153.77403793518761
 51
164.96394280631301
  0
ARC
  5
12E
  8
DATA
  6
STYLE_02
 62
     7
 10
-42.40959183669392
 20
59.866326530648053
 30
0.0
 40
15.282833953850901
 50
16.419167634310959
 51
16.56944918558872
  0
ARC
  5
12F
  8
DATA
  6
STYLE_01
 62
     7
 10
-40.840604397328931
 20
67.218741578852914
 30
0.0
 40
18.937420225492438
 50
230.10440597976179
 51
262.6904839716023
  0
ARC
  5
130
  8
DATA
  6
STYLE_01
 62
     7
 10
-43.742918475931248
 20
66.640378740698793
 30
0.0
 40
16.735382073513119
 50
215.779378537649
 51
236.47087141868809
  0
ARC
  5
131
  8
DATA
  6
STYLE_01
 62
     7
 10
-45.659395602589292
 20
67.218741578852914
 30
0.0
 40
18.937420225492399
 50
277.3095160283977
 51
309.89559402023821
  0
ARC
  5
132
  8
DATA
  6
STYLE_01
 62
     7
 10
-42.757081523986962
 20
66.640378740698793
 30
0.0
 40
16.73538207351309
 50
303.52912858131202
 51
333.73122356891452
  0
ARC
  5
133
  8
DATA
  6
STYLE_01
 62
     7
 10
-43.590408163224289
 20
63.568893077456892
 30
0.0
 40
15.282833953850931
 50
195.03605719368699
 51
206.22596206481239
  0
ARC
  5
134
  8
DATA
  6
STYLE_02
 62
     7
 10
-42.40959183669392
 20
63.568893077456892
 30
0.0
 40
15.28283395385094
 50
343.43055081441139
 51
343.58083236568888
  0
ARC
  5
135
  8
DATA
  6
CONTINUOUS
 62
     7
 10
-43.068382603925528
 20
47.845791684145347
 30
0.0
 40
3.6854733723792541
 50
92.824637579395983
 51
147.2893566452228
  0
ARC
  5
136
  8
DATA
  6
CONTINUOUS
 62
     7
 10
-39.559416617047802
 20
44.706587863176949
 30
0.0
 40
8.3676113333302489
 50
142.1804715555476
 51
172.2197281299544
  0
ARC
  5
137
  8
DATA
  6
CONTINUOUS
 62
     7
 10
-43.431617395992681
 20
47.845791684145347
 30
0.0
 40
3.6854733723792679
 50
32.710643354777147
 51
87.175362420604017
  0
ARC
  5
138
  8
DATA
  6
CONTINUOUS
 62
     7
 10
-46.940583382870422
 20
44.706587863176949
 30
0.0
 40
8.3676113333303128
 50
7.7802718700455626
 51
37.819528444452352
  0
ARC
  5
139
  8
DATA
  6
CONTINUOUS
 62
     7
 10
39.24499601826593
 20
-57.633323033369109
 30
0.0
 40
0.9499999999999612
 50
177.2218138280364
 51
0.0
  0
ARC
  5
13A
  8
DATA
  6
CONTINUOUS
 62
     7
 10
39.24499601826593
 20
-54.781534025334651
 30
0.0
 40
0.9500000000000456
 50
0.0
 51
182.7781861719927
  0
LINE
  5
13B
  8
DATA
  6
CONTINUOUS
 62
     7
 10
40.194996018265911
 20
-57.633323033369109
 30
0.0
 11
40.194996018265982
 21
-54.781534025334651
 31
0.0
  0
LINE
  5
13C
  8
DATA
  6
CONTINUOUS
 62
     7
 10
38.29611258823612
 20
-57.679369056143557
 30
0.0
 11
38.29611258823612
 21
-54.735488002544017
 31
0.0
  0
ARC
  5
13D
  8
DATA
  6
CONTINUOUS
 62
     7
 10
39.24499601826593
 20
-49.633323033369187
 30
0.0
 40
0.9499999999999612
 50
177.2218138280364
 51
359.99999999999841
  0
ARC
  5
13E
  8
DATA
  6
CONTINUOUS
 62
     7
 10
39.24499601826593
 20
-46.781534025334771
 30
0.0
 40
0.9500000000000456
 50
359.99999999999841
 51
182.77818617199441
  0
LINE
  5
13F
  8
DATA
  6
CONTINUOUS
 62
     7
 10
40.194996018265911
 20
-49.633323033369187
 30
0.0
 11
40.194996018265982
 21
-46.781534025334771
 31
0.0
  0
LINE
  5
140
  8
DATA
  6
CONTINUOUS
 62
     7
 10
38.29611258823612
 20
-49.679369056143649
 30
0.0
 11
38.29611258823612
 21
-46.735488002544137
 31
0.0
  0
ARC
  5
141
  8
DATA
  6
CONTINUOUS
 62
     7
 10
39.24499601826593
 20
-41.633323033369372
 30
0.0
 40
0.9499999999999612
 50
177.2218138280364
 51
0.0
  0
ARC
  5
142
  8
DATA
  6
CONTINUOUS
 62
     7
 10
39.24499601826593
 20
-38.781534025334921
 30
0.0
 40
0.9500000000000456
 50
359.99999999999841
 51
182.77818617199441
  0
LINE
  5
143
  8
DATA
  6
CONTINUOUS
 62
     7
 10
40.194996018265911
 20
-41.633323033369372
 30
0.0
 11
40.194996018265982
 21
-38.781534025334921
 31
0.0
  0
LINE
  5
144
  8
DATA
  6
CONTINUOUS
 62
     7
 10
38.29611258823612
 20
-41.679369056143813
 30
0.0
 11
38.29611258823612
 21
-38.735488002544322
 31
0.0
  0
ARC
  5
145
  8
DATA
  6
CONTINUOUS
 62
     7
 10
39.24499601826593
 20
-33.63332303336945
 30
0.0
 40
0.9499999999999612
 50
177.2218138280364
 51
359.99999999999909
  0
ARC
  5
146
  8
DATA
  6
CONTINUOUS
 62
     7
 10
39.24499601826593
 20
-30.781534025334981
 30
0.0
 40
0.9500000000000456
 50
359.9999999999992
 51
182.77818617199441
  0
LINE
  5
147
  8
DATA
  6
CONTINUOUS
 62
     7
 10
40.194996018265911
 20
-33.63332303336945
 30
0.0
 11
40.194996018265982
 21
-30.781534025334981
 31
0.0
  0
LINE
  5
148
  8
DATA
  6
CONTINUOUS
 62
     7
 10
38.29611258823612
 20
-33.679369056143912
 30
0.0
 11
38.29611258823612
 21
-30.735488002544351
 31
0.0
  0
ARC
  5
149
  8
DATA
  6
CONTINUOUS
 62
     7
 10
39.24499601826593
 20
-25.633323033369471
 30
0.0
 40
0.9499999999999612
 50
177.2218138280364
 51
359.99999999999909
  0
ARC
  5
14A
  8
DATA
  6
CONTINUOUS
 62
     7
 10
39.24499601826593
 20
-22.78153402533502
 30
0.0
 40
0.9500000000000456
 50
359.9999999999992
 51
182.77818617199321
  0
LINE
  5
14B
  8
DATA
  6
CONTINUOUS
 62
     7
 10
40.194996018265911
 20
-25.633323033369471
 30
0.0
 11
40.194996018265982
 21
-22.78153402533502
 31
0.0
  0
LINE
  5
14C
  8
DATA
  6
CONTINUOUS
 62
     7
 10
38.29611258823612
 20
-25.67936905614394
 30
0.0
 11
38.29611258823612
 21
-22.73548800254439
 31
0.0
  0
ARC
  5
14D
  8
DATA
  6
CONTINUOUS
 62
     7
 10
39.24499601826593
 20
-17.63332303336945
 30
0.0
 40
0.9499999999999612
 50
177.2218138280364
 51
359.99999999999909
  0
ARC
  5
14E
  8
DATA
  6
CONTINUOUS
 62
     7
 10
39.24499601826593
 20
-14.78153402533496
 30
0.0
 40
0.9500000000000456
 50
359.9999999999992
 51
182.77818617199361
  0
LINE
  5
14F
  8
DATA
  6
CONTINUOUS
 62
     7
 10
40.194996018265911
 20
-17.63332303336945
 30
0.0
 11
40.194996018265982
 21
-14.78153402533496
 31
0.0
  0
LINE
  5
150
  8
DATA
  6
CONTINUOUS
 62
     7
 10
38.29611258823612
 20
-17.679369056143919
 30
0.0
 11
38.29611258823612
 21
-14.73548800254432
 31
0.0
  0
ARC
  5
151
  8
DATA
  6
CONTINUOUS
 62
     7
 10
39.24499601826593
 20
-9.6333230333694075
 30
0.0
 40
0.9499999999999612
 50
177.2218138280364
 51
359.99999999999909
  0
ARC
  5
152
  8
DATA
  6
CONTINUOUS
 62
     7
 10
39.24499601826593
 20
-6.7815340253349179
 30
0.0
 40
0.9500000000000456
 50
359.9999999999992
 51
182.77818617199361
  0
LINE
  5
153
  8
DATA
  6
CONTINUOUS
 62
     7
 10
40.194996018265911
 20
-9.6333230333694075
 30
0.0
 11
40.194996018265982
 21
-6.7815340253349179
 31
0.0
  0
LINE
  5
154
  8
DATA
  6
CONTINUOUS
 62
     7
 10
38.29611258823612
 20
-9.6793690561438712
 30
0.0
 11
38.29611258823612
 21
-6.7354880025442787
 31
0.0
  0
ARC
  5
155
  8
DATA
  6
CONTINUOUS
 62
     7
 10
39.24499601826593
 20
-1.633323033369386
 30
0.0
 40
0.9499999999999612
 50
177.2218138280364
 51
359.99999999999909
  0
ARC
  5
156
  8
DATA
  6
CONTINUOUS
 62
     7
 10
39.24499601826593
 20
1.2184659746650901
 30
0.0
 40
0.9500000000000456
 50
359.9999999999992
 51
182.77818617199361
  0
LINE
  5
157
  8
DATA
  6
CONTINUOUS
 62
     7
 10
40.194996018265911
 20
-1.633323033369386
 30
0.0
 11
40.194996018265982
 21
1.2184659746650901
 31
0.0
  0
LINE
  5
158
  8
DATA
  6
CONTINUOUS
 62
     7
 10
38.29611258823612
 20
-1.679369056143847
 30
0.0
 11
38.29611258823612
 21
1.264511997455724
 31
0.0
  0
ARC
  5
159
  8
DATA
  6
CONTINUOUS
 62
     7
 10
39.24499601826593
 20
6.3666769666306449
 30
0.0
 40
0.9499999999999598
 50
177.22181382803811
 51
359.99999999999841
  0
ARC
  5
15A
  8
DATA
  6
CONTINUOUS
 62
     7
 10
39.24499601826593
 20
9.2184659746651327
 30
0.0
 40
0.9500000000000456
 50
359.99999999999841
 51
182.77818617199611
  0
LINE
  5
15B
  8
DATA
  6
CONTINUOUS
 62
     7
 10
40.194996018265911
 20
6.3666769666306449
 30
0.0
 11
40.194996018265982
 21
9.2184659746651327
 31
0.0
  0
LINE
  5
15C
  8
DATA
  6
CONTINUOUS
 62
     7
 10
38.29611258823612
 20
6.3206309438561687
 30
0.0
 11
38.29611258823612
 21
9.2645119974557524
 31
0.0
  0
ARC
  5
15D
  8
DATA
  6
CONTINUOUS
 62
     7
 10
39.24499601826593
 20
14.36667696663064
 30
0.0
 40
0.9499999999999598
 50
177.22181382803811
 51
359.99999999999841
  0
ARC
  5
15E
  8
DATA
  6
CONTINUOUS
 62
     7
 10
39.24499601826593
 20
17.218465974665119
 30
0.0
 40
0.9500000000000456
 50
359.99999999999841
 51
182.77818617199611
  0
LINE
  5
15F
  8
DATA
  6
CONTINUOUS
 62
     7
 10
40.194996018265911
 20
14.36667696663064
 30
0.0
 11
40.194996018265982
 21
17.218465974665119
 31
0.0
  0
LINE
  5
160
  8
DATA
  6
CONTINUOUS
 62
     7
 10
38.29611258823612
 20
14.320630943856161
 30
0.0
 11
38.29611258823612
 21
17.264511997455742
 31
0.0
  0
ARC
  5
161
  8
DATA
  6
CONTINUOUS
 62
     7
 10
39.24499601826593
 20
22.366676966630681
 30
0.0
 40
0.94999999999996
 50
177.2218138280376
 51
359.99999999999841
  0
ARC
  5
162
  8
DATA
  6
CONTINUOUS
 62
     7
 10
39.24499601826593
 20
25.218465974665161
 30
0.0
 40
0.9500000000000456
 50
359.99999999999841
 51
182.77818617199611
  0
LINE
  5
163
  8
DATA
  6
CONTINUOUS
 62
     7
 10
40.194996018265911
 20
22.366676966630681
 30
0.0
 11
40.194996018265982
 21
25.218465974665161
 31
0.0
  0
LINE
  5
164
  8
DATA
  6
CONTINUOUS
 62
     7
 10
38.29611258823612
 20
22.320630943856202
 30
0.0
 11
38.29611258823612
 21
25.264511997455781
 31
0.0
  0
ARC
  5
165
  8
DATA
  6
CONTINUOUS
 62
     7
 10
39.24499601826593
 20
30.366676966630699
 30
0.0
 40
0.9499999999999598
 50
177.22181382803811
 51
359.99999999999841
  0
ARC
  5
166
  8
DATA
  6
CONTINUOUS
 62
     7
 10
39.24499601826593
 20
33.2184659746652
 30
0.0
 40
0.9500000000000456
 50
359.99999999999841
 51
182.77818617199611
  0
LINE
  5
167
  8
DATA
  6
CONTINUOUS
 62
     7
 10
40.194996018265911
 20
30.366676966630699
 30
0.0
 11
40.194996018265982
 21
33.2184659746652
 31
0.0
  0
LINE
  5
168
  8
DATA
  6
CONTINUOUS
 62
     7
 10
38.29611258823612
 20
30.32063094385623
 30
0.0
 11
38.29611258823612
 21
33.264511997455813
 31
0.0
  0
ARC
  5
169
  8
DATA
  6
CONTINUOUS
 62
     7
 10
39.24499601826593
 20
38.366676966630763
 30
0.0
 40
0.9499999999999598
 50
177.22181382803811
 51
359.99999999999841
  0
ARC
  5
16A
  8
DATA
  6
CONTINUOUS
 62
     7
 10
39.24499601826593
 20
41.218465974665257
 30
0.0
 40
0.9500000000000456
 50
359.99999999999841
 51
182.77818617199611
  0
LINE
  5
16B
  8
DATA
  6
CONTINUOUS
 62
     7
 10
40.194996018265911
 20
38.366676966630763
 30
0.0
 11
40.194996018265911
 21
41.218465974665257
 31
0.0
  0
LINE
  5
16C
  8
DATA
  6
CONTINUOUS
 62
     7
 10
38.29611258823612
 20
38.320630943856287
 30
0.0
 11
38.29611258823612
 21
41.264511997455983
 31
0.0
  0
LINE
  5
16D
  8
DATA
  6
CONTINUOUS
 62
     7
 10
38.29611258823612
 20
-54.934369056143581
 30
0.0
 11
38.29611258823612
 21
38.605630943856291
 31
0.0
  0
LINE
  5
16E
  8
DATA
  6
CONTINUOUS
 62
     7
 10
40.194996018265911
 20
38.366676966630763
 30
0.0
 11
40.194996018265911
 21
-54.994369056143583
 31
0.0
  0
LINE
  5
16F
  8
DATA
  6
CONTINUOUS
 62
     7
 10
30.750000000030091
 20
-99.999999999963919
 30
0.0
 11
42.750000000030091
 21
-99.999999999963919
 31
0.0
  0
LINE
  5
170
  8
DATA
  6
CONTINUOUS
 62
     7
 10
41.3500000000301
 20
41.000000000035961
 30
0.0
 11
41.350000000030057
 21
-60.199999999963921
 31
0.0
  0
LINE
  5
171
  8
DATA
  6
CONTINUOUS
 62
     7
 10
41.350000000030057
 20
-60.999999999963897
 30
0.0
 11
41.350000000030057
 21
-84.999999999963848
 31
0.0
  0
LINE
  5
172
  8
DATA
  6
CONTINUOUS
 62
     7
 10
32.150000000030069
 20
-84.999999999963876
 30
0.0
 11
32.150000000030069
 21
-60.999999999963897
 31
0.0
  0
LINE
  5
173
  8
DATA
  6
CONTINUOUS
 62
     7
 10
32.150000000030069
 20
-60.199999999963921
 30
0.0
 11
32.150000000030069
 21
52.000000000035897
 31
0.0
  0
LINE
  5
174
  8
DATA
  6
CONTINUOUS
 62
     7
 10
30.750000000030091
 20
-99.999999999963919
 30
0.0
 11
30.750000000030091
 21
-94.999999999963876
 31
0.0
  0
LINE
  5
175
  8
DATA
  6
CONTINUOUS
 62
     7
 10
42.750000000030091
 20
-94.999999999963876
 30
0.0
 11
42.750000000030091
 21
-99.999999999963919
 31
0.0
  0
LINE
  5
176
  8
DATA
  6
CONTINUOUS
 62
     7
 10
30.000000000030091
 20
-94.999999999963876
 30
0.0
 11
43.500000000030091
 21
-94.999999999963876
 31
0.0
  0
LINE
  5
177
  8
DATA
  6
CONTINUOUS
 62
     7
 10
32.150000000030069
 20
-83.999999999963876
 30
0.0
 11
41.350000000030057
 21
-83.999999999963876
 31
0.0
  0
LINE
  5
178
  8
DATA
  6
CONTINUOUS
 62
     7
 10
32.150000000030069
 20
-84.999999999963876
 30
0.0
 11
41.3500000000301
 21
-84.999999999963876
 31
0.0
  0
LINE
  5
179
  8
DATA
  6
CONTINUOUS
 62
     7
 10
36.250000000030091
 20
-100.9999999999639
 30
0.0
 11
36.250000000030091
 21
-99.999999999963919
 31
0.0
  0
LINE
  5
17A
  8
DATA
  6
CONTINUOUS
 62
     7
 10
37.250000000030091
 20
-100.9999999999639
 30
0.0
 11
36.250000000030091
 21
-100.9999999999639
 31
0.0
  0
LINE
  5
17B
  8
DATA
  6
CONTINUOUS
 62
     7
 10
37.250000000030091
 20
-99.999999999963919
 30
0.0
 11
37.250000000030091
 21
-100.9999999999639
 31
0.0
  0
CIRCLE
  5
17C
  8
DATA
  6
CONTINUOUS
 62
     7
 10
36.750000000030091
 20
-82.499999999963876
 30
0.0
 40
1.0
  0
LINE
  5
17D
  8
DATA
  6
CONTINUOUS
 62
     7
 10
36.750000000030091
 20
-83.016958893636144
 30
0.0
 11
36.750000000030091
 21
-81.983041106291623
 31
0.0
  0
LINE
  5
17E
  8
DATA
  6
CONTINUOUS
 62
     7
 10
36.233041106357817
 20
-82.499999999963876
 30
0.0
 11
37.266958893702359
 21
-82.499999999963876
 31
0.0
  0
LINE
  5
17F
  8
DATA
  6
CONTINUOUS
 62
     7
 10
30.750000000030091
 20
-99.999999999963919
 30
0.0
 11
42.750000000030091
 21
-99.807835887775397
 31
0.0
  0
LINE
  5
180
  8
DATA
  6
CONTINUOUS
 62
     7
 10
30.750000000030091
 20
-99.199999999963879
 30
0.0
 11
42.750000000030091
 21
-99.007835887775343
 31
0.0
  0
LINE
  5
181
  8
DATA
  6
CONTINUOUS
 62
     7
 10
30.750000000030091
 20
-98.399999999963882
 30
0.0
 11
42.750000000030091
 21
-98.207835887775374
 31
0.0
  0
LINE
  5
182
  8
DATA
  6
CONTINUOUS
 62
     7
 10
30.750000000030091
 20
-97.599999999963885
 30
0.0
 11
42.750000000030091
 21
-97.407835887775363
 31
0.0
  0
LINE
  5
183
  8
DATA
  6
CONTINUOUS
 62
     7
 10
30.750000000030091
 20
-96.799999999963873
 30
0.0
 11
42.750000000030091
 21
-96.607835887775309
 31
0.0
  0
LINE
  5
184
  8
DATA
  6
CONTINUOUS
 62
     7
 10
30.750000000030091
 20
-95.999999999963876
 30
0.0
 11
42.750000000030091
 21
-95.807835887775369
 31
0.0
  0
LINE
  5
185
  8
DATA
  6
CONTINUOUS
 62
     7
 10
30.750000000030091
 20
-95.199999999963879
 30
0.0
 11
42.750000000030091
 21
-95.007835887775343
 31
0.0
  0
LINE
  5
186
  8
DATA
  6
CONTINUOUS
 62
     7
 10
32.150000000030069
 20
-60.999999999963897
 30
0.0
 11
41.3500000000301
 21
-60.999999999963897
 31
0.0
  0
LINE
  5
187
  8
DATA
  6
CONTINUOUS
 62
     7
 10
32.150000000030069
 20
-60.199999999963921
 30
0.0
 11
41.3500000000301
 21
-60.199999999963921
 31
0.0
  0
LINE
  5
188
  8
DATA
  6
CONTINUOUS
 62
     7
 10
32.150000000030069
 20
-67.99999999996389
 30
0.0
 11
41.350000000030057
 21
-67.99999999996389
 31
0.0
  0
LINE
  5
189
  8
DATA
  6
CONTINUOUS
 62
     7
 10
32.150000000030069
 20
-66.99999999996389
 30
0.0
 11
41.350000000030057
 21
-66.99999999996389
 31
0.0
  0
CIRCLE
  5
18A
  8
DATA
  6
CONTINUOUS
 62
     7
 10
36.750000000030091
 20
-67.49999999996389
 30
0.0
 40
0.4499999999999886
  0
CIRCLE
  5
18B
  8
DATA
  6
CONTINUOUS
 62
     7
 10
38.750000000030091
 20
-67.49999999996389
 30
0.0
 40
0.4499999999999886
  0
CIRCLE
  5
18C
  8
DATA
  6
CONTINUOUS
 62
     7
 10
40.750000000030091
 20
-67.49999999996389
 30
0.0
 40
0.4499999999999886
  0
CIRCLE
  5
18D
  8
DATA
  6
CONTINUOUS
 62
     7
 10
34.750000000030091
 20
-67.49999999996389
 30
0.0
 40
0.4499999999999886
  0
CIRCLE
  5
18E
  8
DATA
  6
CONTINUOUS
 62
     7
 10
32.750000000030091
 20
-67.49999999996389
 30
0.0
 40
0.4499999999999886
  0
LINE
  5
18F
  8
DATA
  6
CONTINUOUS
 62
     7
 10
32.350000000030121
 20
-60.999999999963897
 30
0.0
 11
32.350000000030121
 21
-60.199999999963921
 31
0.0
  0
LINE
  5
190
  8
DATA
  6
CONTINUOUS
 62
     7
 10
41.150000000030062
 20
-60.999999999963897
 30
0.0
 11
41.150000000030062
 21
-60.199999999963921
 31
0.0
  0
LINE
  5
191
  8
DATA
  6
STYLE_01
 62
     7
 10
21.65000000003004
 20
-79.999999999963876
 30
0.0
 11
21.650000000030111
 21
75.000000000035882
 31
0.0
  0
LINE
  5
192
  8
DATA
  6
STYLE_01
 62
     7
 10
52.250000000030099
 20
-79.999999999963876
 30
0.0
 11
21.650000000030111
 21
-79.999999999963876
 31
0.0
  0
LINE
  5
193
  8
DATA
  6
STYLE_01
 62
     7
 10
52.250000000030099
 20
48.43521960806919
 30
0.0
 11
52.250000000030099
 21
-79.999999999963876
 31
0.0
  0
LINE
  5
194
  8
DATA
  6
STYLE_01
 62
     7
 10
52.250000000030099
 20
48.43521960806919
 30
0.0
 11
21.65000000003004
 21
75.000000000035854
 31
0.0
  0
LINE
  5
195
  8
DATA
  6
CONTINUOUS
 62
     7
 10
41.3500000000301
 20
41.000000000035953
 30
0.0
 11
32.150000000030069
 21
52.000000000035897
 31
0.0
  0
ARC
  5
196
  8
DATA
  6
CONTINUOUS
 62
     7
 10
-31.66267219253772
 20
-93.615681845917237
 30
0.0
 40
18.33738136200499
 50
151.97592401279439
 51
180.13847373321869
  0
LINE
  5
197
  8
DATA
  6
CONTINUOUS
 62
     7
 10
-49.999999999959087
 20
-94.999999999963876
 30
0.0
 11
-49.999999999959087
 21
-93.654999999963863
 31
0.0
  0
ARC
  5
198
  8
DATA
  6
CONTINUOUS
 62
     7
 10
-54.837327807380497
 20
-93.615681845917237
 30
0.0
 40
18.337381362004969
 50
359.8615262667812
 51
28.024075987205549
  0
LINE
  5
199
  8
DATA
  6
CONTINUOUS
 62
     7
 10
-36.499999999959108
 20
-94.999999999963876
 30
0.0
 11
-36.499999999959108
 21
-93.654999999963863
 31
0.0
  0
ARC
  5
19A
  8
DATA
  6
CONTINUOUS
 62
     7
 10
48.33732780745148
 20
-93.615681845917237
 30
0.0
 40
18.337381362005001
 50
151.97592401279439
 51
180.13847373321869
  0
LINE
  5
19B
  8
DATA
  6
CONTINUOUS
 62
     7
 10
30.000000000030091
 20
-94.999999999963876
 30
0.0
 11
30.000000000030091
 21
-93.654999999963863
 31
0.0
  0
ARC
  5
19C
  8
DATA
  6
CONTINUOUS
 62
     7
 10
25.162672192608699
 20
-93.615681845917237
 30
0.0
 40
18.33738136200499
 50
359.8615262667812
 51
28.024075987205549
  0
LINE
  5
19D
  8
DATA
  6
CONTINUOUS
 62
     7
 10
43.500000000030091
 20
-94.999999999963876
 30
0.0
 11
43.500000000030091
 21
-93.654999999963863
 31
0.0
  0
TEXT
  5
19E
  8
DATA
 62
     7
 10
-140.26946534685371
 20
81.914795003747273
 30
0.0
 40
5.4294704861111107
  1
ウインドスクリーン
 41
0.7
 11
-140.26946534685371
 21
84.62953024680283
 31
0.0
 73
     2
  0
LINE
  5
19F
  8
DATA
  6
CONTINUOUS
 62
     7
 10
-56.382417104442169
 20
67.763709886878218
 30
0.0
 11
-70.0
 21
79.581384585322567
 31
0.0
  0
LINE
  5
1A0
  8
DATA
  6
CONTINUOUS
 62
     7
 10
-56.382417104442169
 20
67.763709886878218
 30
0.0
 11
-62.291092531339487
 21
70.645563447834363
 31
0.0
  0
LINE
  5
1A1
  8
DATA
  6
CONTINUOUS
 62
     7
 10
-56.382417104442169
 20
67.763709886878218
 30
0.0
 11
-60.058553346374048
 21
73.213805994101534
 31
0.0
  0
LINE
  5
1A2
  8
DATA
  6
CONTINUOUS
 62
     7
 10
-70.0
 20
79.581384585322567
 30
0.0
 11
-145.0
 21
79.581384585322567
 31
0.0
  0
ENDSEC
  0
EOF
