  0
SECTION
  2
HEADER
  9
$ACADVER
  1
AC1009
  9
$INSBASE
 10
0.0
 20
0.0
 30
0.0
  9
$EXTMIN
 10
-180.01098548994739
 20
-271.68557005312488
 30
-0.0015258207003583
  9
$EXTMAX
 10
180.01098716632811
 20
263.54811651401701
 30
0.0000000349246037
  9
$LIMMIN
 10
0.0
 20
0.0
  9
$LIMMAX
 10
0.0
 20
0.0
  9
$ORTHOMODE
 70
     0
  9
$REGENMODE
 70
     1
  9
$FILLMODE
 70
     1
  9
$QTEXTMODE
 70
     0
  9
$MIRRTEXT
 70
     1
  9
$DRAGMODE
 70
     2
  9
$LTSCALE
 40
10.16
  9
$OSMODE
 70
   231
  9
$ATTMODE
 70
     1
  9
$TEXTSIZE
 40
0.0
  9
$TRACEWID
 40
1.0
  9
$TEXTSTYLE
  7
STANDARD
  9
$CLAYER
  8
DATA
  9
$CELTYPE
  6
BYLAYER
  9
$CECOLOR
 62
   256
  9
$DIMSCALE
 40
1.0
  9
$DIMASZ
 40
0.18
  9
$DIMEXO
 40
0.0625
  9
$DIMDLI
 40
0.38
  9
$DIMRND
 40
0.0
  9
$DIMDLE
 40
0.0
  9
$DIMEXE
 40
0.18
  9
$DIMTP
 40
0.0
  9
$DIMTM
 40
0.0
  9
$DIMTXT
 40
0.18
  9
$DIMCEN
 40
0.09
  9
$DIMTSZ
 40
0.0
  9
$DIMTOL
 70
     0
  9
$DIMLIM
 70
     0
  9
$DIMTIH
 70
     1
  9
$DIMTOH
 70
     1
  9
$DIMSE1
 70
     0
  9
$DIMSE2
 70
     0
  9
$DIMTAD
 70
     0
  9
$DIMZIN
 70
     0
  9
$DIMBLK
  1

  9
$DIMASO
 70
     1
  9
$DIMSHO
 70
     1
  9
$DIMPOST
  1

  9
$DIMAPOST
  1

  9
$DIMALT
 70
     0
  9
$DIMALTD
 70
     2
  9
$DIMALTF
 40
25.399999999999999
  9
$DIMLFAC
 40
1.0
  9
$DIMTOFL
 70
     0
  9
$DIMTVP
 40
0.0
  9
$DIMTIX
 70
     0
  9
$DIMSOXD
 70
     0
  9
$DIMSAH
 70
     0
  9
$DIMBLK1
  1

  9
$DIMBLK2
  1

  9
$DIMSTYLE
  2
STANDARD
  9
$DIMCLRD
 70
     0
  9
$DIMCLRE
 70
     0
  9
$DIMCLRT
 70
     0
  9
$DIMTFAC
 40
1.0
  9
$DIMGAP
 40
0.09
  9
$LUNITS
 70
     2
  9
$LUPREC
 70
     4
  9
$SKETCHINC
 40
0.1
  9
$FILLETRAD
 40
0.0
  9
$AUNITS
 70
     0
  9
$AUPREC
 70
     0
  9
$MENU
  1
acad
  9
$ELEVATION
 40
0.0
  9
$PELEVATION
 40
0.0
  9
$THICKNESS
 40
0.0
  9
$LIMCHECK
 70
     0
  9
$BLIPMODE
 70
     0
  9
$CHAMFERA
 40
0.0
  9
$CHAMFERB
 40
0.0
  9
$SKPOLY
 70
     0
  9
$TDCREATE
 40
2456136.707511574
  9
$TDUPDATE
 40
2456136.7142354161
  9
$TDINDWG
 40
0.0003339931
  9
$TDUSRTIMER
 40
0.0003338194
  9
$USRTIMER
 70
     1
  9
$ANGBASE
 50
0.0
  9
$ANGDIR
 70
     0
  9
$PDMODE
 70
     1
  9
$PDSIZE
 40
-2.0
  9
$PLINEWID
 40
0.0
  9
$COORDS
 70
     2
  9
$SPLFRAME
 70
     0
  9
$SPLINETYPE
 70
     6
  9
$SPLINESEGS
 70
     8
  9
$ATTDIA
 70
     0
  9
$ATTREQ
 70
     1
  9
$HANDLING
 70
     1
  9
$HANDSEED
  5
213
  9
$SURFTAB1
 70
     6
  9
$SURFTAB2
 70
     6
  9
$SURFTYPE
 70
     6
  9
$SURFU
 70
     6
  9
$SURFV
 70
     6
  9
$UCSNAME
  2

  9
$UCSORG
 10
0.0
 20
0.0
 30
0.0
  9
$UCSXDIR
 10
1.0
 20
0.0
 30
0.0
  9
$UCSYDIR
 10
0.0
 20
1.0
 30
0.0
  9
$PUCSNAME
  2

  9
$PUCSORG
 10
0.0
 20
0.0
 30
0.0
  9
$PUCSXDIR
 10
1.0
 20
0.0
 30
0.0
  9
$PUCSYDIR
 10
0.0
 20
1.0
 30
0.0
  9
$USERI1
 70
     0
  9
$USERI2
 70
     0
  9
$USERI3
 70
     0
  9
$USERI4
 70
     0
  9
$USERI5
 70
     0
  9
$USERR1
 40
0.0
  9
$USERR2
 40
0.0
  9
$USERR3
 40
0.0
  9
$USERR4
 40
0.0
  9
$USERR5
 40
0.0
  9
$WORLDVIEW
 70
     1
  9
$SHADEDGE
 70
     3
  9
$SHADEDIF
 70
    70
  9
$TILEMODE
 70
     1
  9
$MAXACTVP
 70
    64
  9
$PLIMCHECK
 70
     0
  9
$PEXTMIN
 10
1.0000000000000000E+020
 20
1.0000000000000000E+020
 30
1.0000000000000000E+020
  9
$PEXTMAX
 10
-1.0000000000000000E+020
 20
-1.0000000000000000E+020
 30
-1.0000000000000000E+020
  9
$PLIMMIN
 10
0.0
 20
0.0
  9
$PLIMMAX
 10
12.0
 20
9.0
  9
$UNITMODE
 70
     0
  9
$VISRETAIN
 70
     0
  9
$PLINEGEN
 70
     1
  9
$PSLTSCALE
 70
     0
  0
ENDSEC
  0
SECTION
  2
TABLES
  0
TABLE
  2
VPORT
 70
     1
  0
VPORT
  2
*ACTIVE
 70
     0
 10
0.0
 20
0.0
 11
1.0
 21
1.0
 12
0.000000838190374
 22
-3.5318137563878049
 13
0.0
 23
0.0
 14
1.0
 24
1.0
 15
0.0
 25
0.0
 16
0.0
 26
0.0
 36
1.0
 17
0.0
 27
0.0
 37
0.0
 40
538.37137061077658
 41
2.1881578947368419
 42
50.0
 43
0.0
 44
0.0
 50
0.0
 51
0.0
 71
     0
 72
  2000
 73
     1
 74
     1
 75
     0
 76
     0
 77
     0
 78
     0
  0
ENDTAB
  0
TABLE
  2
LTYPE
 70
    12
  0
LTYPE
  2
CONTINUOUS
 70
     0
  3
Solid line
 72
    65
 73
     0
 40
0.0
  0
LTYPE
  2
PHANTOM2
 70
     0
  3
___ _ _ ___ _ _ ___ _ _ ___ _ _
 72
    65
 73
     6
 40
1.25
 49
0.625
 49
-0.125
 49
0.125
 49
-0.125
 49
0.125
 49
-0.125
  0
LTYPE
  2
STYLE_01
 70
     0
  3

 72
    65
 73
     2
 40
0.4166412353515625
 49
0.208282470703125
 49
-0.2083587646484375
  0
ENDTAB
  0
TABLE
  2
LAYER
 70
     5
  0
LAYER
  2
0
 70
     0
 62
     7
  6
CONTINUOUS
  0
LAYER
  2
DATA
 70
     0
 62
     7
  6
CONTINUOUS
  0
LAYER
  2
HIBINO-BASE
 70
     0
 62
     7
  6
CONTINUOUS
  0
LAYER
  2
SPEC
 70
     0
 62
     7
  6
CONTINUOUS
  0
LAYER
  2
DIMNSIONS
 70
     0
 62
     7
  6
CONTINUOUS
  0
ENDTAB
  0
TABLE
  2
STYLE
 70
     3
  0
STYLE
  2
STANDARD
 70
     0
 40
0.0
 41
1.0
 50
0.0
 71
     0
 42
0.0
  3
txt
  4
BIGFONT.SHX
  0
ENDTAB
  0
TABLE
  2
VIEW
 70
     0
  0
ENDTAB
  0
TABLE
  2
UCS
 70
     0
  0
ENDTAB
  0
TABLE
  2
APPID
 70
     4
  0
APPID
  2
ACAD
 70
     0
  0
APPID
  2
ACADANNOTATIVE
 70
     0
  0
APPID
  2
ACAD_NAV_VCDISPLAY
 70
     0
  0
APPID
  2
ACAD_MLEADERVER
 70
     0
  0
ENDTAB
  0
TABLE
  2
DIMSTYLE
 70
     2
  0
DIMSTYLE
  2
STANDARD
 70
     0
  3

  4

  5

  6

  7

 40
1.0
 41
0.18
 42
0.0625
 43
0.38
 44
0.18
 45
0.0
 46
0.0
 47
0.0
 48
0.0
140
0.18
141
0.09
142
0.0
143
25.399999999999999
144
1.0
145
0.0
146
1.0
147
0.09
 71
     0
 72
     0
 73
     1
 74
     1
 75
     0
 76
     0
 77
     0
 78
     0
170
     0
171
     2
172
     0
173
     0
174
     0
175
     0
176
     0
177
     0
178
     0
  0
ENDTAB
  0
ENDSEC
  0
SECTION
  2
BLOCKS
  0
BLOCK
  8
0
  2
$MODEL_SPACE
 70
     0
 10
0.0
 20
0.0
 30
0.0
  3
$MODEL_SPACE
  1

  0
ENDBLK
  5
1A6
  8
0
  0
BLOCK
 67
     1
  8
0
  2
$PAPER_SPACE
 70
     0
 10
0.0
 20
0.0
 30
0.0
  3
$PAPER_SPACE
  1

  0
ENDBLK
  5
1A2
 67
     1
  8
0
  0
ENDSEC
  0
SECTION
  2
ENTITIES
  0
LINE
  5
2C
  8
HIBINO-BASE
  6
CONTINUOUS
 62
     7
 10
-180.0
 20
263.53181499999999
 30
0.0
 11
180.0
 21
263.53181499999999
 31
0.0
  0
LINE
  5
2D
  8
HIBINO-BASE
  6
CONTINUOUS
 62
     7
 10
180.0
 20
-256.46818500000001
 30
0.0
 11
-180.0
 21
-256.46818500000001
 31
0.0
  0
LINE
  5
2E
  8
HIBINO-BASE
  6
CONTINUOUS
 62
     7
 10
-180.0
 20
-256.46818500000001
 30
0.0
 11
-180.0
 21
263.53181499999999
 31
0.0
  0
TEXT
  5
2F
  8
HIBINO-BASE
 62
     7
 10
-165.63199999999989
 20
-269.28554059999988
 30
0.0
 40
7.2000883593749991
  1
Hibino Corporation
 41
0.7
 11
-165.63199999999989
 21
-262.08545224062487
 31
0.0
 73
     3
  0
LINE
  5
30
  8
HIBINO-BASE
  6
CONTINUOUS
 62
     7
 10
180.0
 20
263.53181499999999
 30
0.0
 11
180.0
 21
-256.46818500000001
 31
0.0
  0
LINE
  5
31
  8
HIBINO-BASE
  6
CONTINUOUS
 62
     7
 10
0.0
 20
-211.46818500000001
 30
0.0
 11
180.0
 21
-211.46818500000001
 31
0.0
  0
LINE
  5
32
  8
HIBINO-BASE
  6
CONTINUOUS
 62
     7
 10
0.0
 20
-256.46818500000001
 30
0.0
 11
0.0
 21
-211.46818500000001
 31
0.0
  0
TEXT
  5
33
  8
HIBINO-BASE
 62
     7
 10
1.7999999999999989
 20
-216.48557166666669
 30
0.0
 40
3.2576822916666659
  1
NOTE
 41
0.7
 11
1.7999999999999989
 21
-213.22788937499999
 31
0.0
 73
     3
  0
LINE
  5
34
  8
HIBINO-BASE
  6
CONTINUOUS
 62
     7
 10
70.0
 20
-256.46818500000001
 30
0.0
 11
70.0
 21
-211.46818500000001
 31
0.0
  0
TEXT
  5
35
  8
HIBINO-BASE
 62
     7
 10
71.799999999999983
 20
-216.48557166666669
 30
0.0
 40
3.2576822916666659
  1
TITLE
 41
0.7
 11
71.799999999999983
 21
-213.22788937499999
 31
0.0
 73
     3
  0
TEXT
  5
36
  8
HIBINO-BASE
 62
     7
 10
100.13678
 20
-269.28554059999988
 30
0.0
 40
7.2000883593749991
  1
ヒビノ株式会社
 41
0.7
 11
100.13678
 21
-262.08545224062487
 31
0.0
 73
     3
  0
LINE
  5
37
  8
HIBINO-BASE
  6
CONTINUOUS
 62
     7
 10
0.0
 20
-236.46818500000001
 30
0.0
 11
180.0
 21
-236.46818500000001
 31
0.0
  0
TEXT
  5
38
  8
HIBINO-BASE
 62
     7
 10
96.799999999999983
 20
-241.37293166666669
 30
0.0
 40
3.2576822916666659
  1
DRAWN
 41
0.7
 11
96.799999999999983
 21
-238.11524937499999
 31
0.0
 73
     3
  0
TEXT
  5
39
  8
HIBINO-BASE
 62
     7
 10
46.79999999999999
 20
-241.37293166666669
 30
0.0
 40
3.2576822916666659
  1
DATE
 41
0.7
 11
46.79999999999999
 21
-238.11524937499999
 31
0.0
 73
     3
  0
TEXT
  5
3A
  8
HIBINO-BASE
 62
     7
 10
26.800000000000001
 20
-241.37293166666669
 30
0.0
 40
3.2576822916666659
  1
SCALE
 41
0.7
 11
26.800000000000001
 21
-238.11524937499999
 31
0.0
 73
     3
  0
TEXT
  5
3B
  8
HIBINO-BASE
 62
     7
 10
71.799999999999983
 20
-241.37293166666669
 30
0.0
 40
3.2576822916666659
  1
DESIGN
 41
0.7
 11
71.799999999999983
 21
-238.11524937499999
 31
0.0
 73
     3
  0
TEXT
  5
3C
  8
HIBINO-BASE
 62
     7
 10
146.7999999999999
 20
-241.37293166666669
 30
0.0
 40
3.2576822916666659
  1
DRAWING NO.
 41
0.7
 11
146.7999999999999
 21
-238.11524937499999
 31
0.0
 73
     3
  0
TEXT
  5
3D
  8
HIBINO-BASE
 62
     7
 10
121.7999999999999
 20
-241.37293166666669
 30
0.0
 40
3.2576822916666659
  1
CHECK
 41
0.7
 11
121.7999999999999
 21
-238.11524937499999
 31
0.0
 73
     3
  0
LINE
  5
3E
  8
HIBINO-BASE
  6
CONTINUOUS
 62
     7
 10
28.75
 20
-253.96818500000001
 30
0.0
 11
36.25
 21
-246.46818500000001
 31
0.0
  0
TEXT
  5
3F
  8
HIBINO-BASE
 62
     7
 10
27.5
 20
-248.68607166666661
 30
0.0
 40
3.2576822916666659
  1
1
 41
0.7
 11
27.5
 21
-245.42838937499999
 31
0.0
 73
     3
  0
LINE
  5
40
  8
HIBINO-BASE
  6
CONTINUOUS
 62
     7
 10
25.0
 20
-256.46818500000001
 30
0.0
 11
25.0
 21
-236.46818500000001
 31
0.0
  0
LINE
  5
41
  8
HIBINO-BASE
  6
CONTINUOUS
 62
     7
 10
44.999999999999993
 20
-256.46818500000001
 30
0.0
 11
44.999999999999993
 21
-236.46818500000001
 31
0.0
  0
LINE
  5
42
  8
HIBINO-BASE
  6
CONTINUOUS
 62
     7
 10
94.999999999999986
 20
-236.46818500000001
 30
0.0
 11
94.999999999999986
 21
-256.46818500000001
 31
0.0
  0
LINE
  5
43
  8
HIBINO-BASE
  6
CONTINUOUS
 62
     7
 10
145.0
 20
-236.46818500000001
 30
0.0
 11
145.0
 21
-256.46818500000001
 31
0.0
  0
LINE
  5
44
  8
HIBINO-BASE
  6
CONTINUOUS
 62
     7
 10
120.0
 20
-256.46818500000001
 30
0.0
 11
120.0
 21
-236.46818500000001
 31
0.0
  0
TEXT
  5
45
  8
HIBINO-BASE
 62
     7
 10
46.713079999999991
 20
-250.7408916666667
 30
0.0
 40
3.2576822916666659
  1
'12.07.
 41
0.7
 11
46.713079999999991
 21
-247.483209375
 31
0.0
 73
     3
  0
TEXT
  5
46
  8
HIBINO-BASE
 62
     7
 10
35.0
 20
-252.43607166666669
 30
0.0
 40
3.2576822916666659
  1
2
 41
0.7
 11
35.0
 21
-249.17838937499999
 31
0.0
 73
     3
  0
TEXT
  5
47
  8
HIBINO-BASE
 62
     7
 10
98.011620022069224
 20
-250.7408916666667
 30
0.0
 40
3.2576822916666659
  1
Ootake
 41
0.7
 11
98.011620022069224
 21
-247.483209375
 31
0.0
 73
     3
  0
TEXT
  5
48
  8
HIBINO-BASE
 62
     7
 10
7.7666666666666968
 20
-252.51618500000001
 30
0.0
 40
6.5153645833333318
  1
A4
 41
0.7
 11
7.7666666666666968
 21
-246.00082041666661
 31
0.0
 73
     3
  0
TEXT
  5
49
  8
HIBINO-BASE
 62
     7
 10
1.9166666666666641
 20
-241.7070949999999
 30
0.0
 40
3.2576822916666659
  1
PAPER SIZE
 41
0.7
 11
1.9166666666666641
 21
-238.44941270833331
 31
0.0
 73
     3
  0
TEXT
  5
4A
  8
SPEC
 62
     7
 10
-162.5
 20
246.318355
 30
0.0
 40
4.8865234375000002
  1
仕様
 41
0.7
 11
-162.5
 21
251.20487843750001
 31
0.0
 73
     3
  0
LINE
  5
4B
  8
SPEC
  6
CONTINUOUS
 62
     7
 10
-165.0
 20
243.531755
 30
0.0
 11
130.0
 21
243.531755
 31
0.0
  0
LINE
  5
4C
  8
SPEC
  6
CONTINUOUS
 62
     7
 10
-165.0
 20
236.031755
 30
0.0
 11
130.0
 21
236.031755
 31
0.0
  0
LINE
  5
4D
  8
SPEC
  6
CONTINUOUS
 62
     7
 10
-165.0
 20
228.531755
 30
0.0
 11
130.0
 21
228.531755
 31
0.0
  0
TEXT
  5
4E
  8
SPEC
 62
     7
 10
-98.761174850166228
 20
237.9555920671414
 30
0.0
 40
3.8006224999999989
  1
コンデンサー型 
 41
0.7
 11
-98.761174850166228
 21
241.7562145671414
 31
0.0
 73
     3
  0
LINE
  5
4F
  8
SPEC
  6
CONTINUOUS
 62
     7
 10
-165.0
 20
243.531755
 30
0.0
 11
-165.0
 21
183.531755
 31
0.0
  0
LINE
  5
50
  8
SPEC
  6
CONTINUOUS
 62
     7
 10
-100.0
 20
243.531755
 30
0.0
 11
-100.0
 21
183.531755
 31
0.0
  0
LINE
  5
51
  8
SPEC
  6
CONTINUOUS
 62
     7
 10
130.0
 20
243.531755
 30
0.0
 11
130.0
 21
183.531755
 31
0.0
  0
TEXT
  5
52
  8
SPEC
 62
     7
 10
-163.25827698324451
 20
185.74338264022231
 30
0.0
 40
3.8006224999999989
  1
付属品
 41
0.7
 11
-163.25827698324451
 21
189.54400514022231
 31
0.0
 73
     3
  0
TEXT
  5
53
  8
SPEC
 62
     7
 10
-163.41494505608119
 20
200.51424904104999
 30
0.0
 40
3.8006224999999989
  1
寸法
 41
0.7
 11
-163.41494505608119
 21
204.31487154105
 31
0.0
 73
     3
  0
TEXT
  5
54
  8
SPEC
 62
     7
 10
-163.3415605925122
 20
192.90158349439881
 30
0.0
 40
3.8006224999999989
  1
重量
 41
0.7
 11
-163.3415605925122
 21
196.70220599439881
 31
0.0
 73
     3
  0
TEXT
  5
55
  8
SPEC
 62
     7
 10
-163.35058955344559
 20
237.8706636971836
 30
0.0
 40
3.8006224999999989
  1
形式
 41
0.7
 11
-163.35058955344559
 21
241.6712861971836
 31
0.0
 73
     3
  0
TEXT
  5
56
  8
SPEC
 62
     7
 10
-163.23936559219419
 20
230.2650605687769
 30
0.0
 40
3.8006224999999989
  1
周波数特性
 41
0.7
 11
-163.23936559219419
 21
234.06568306877691
 31
0.0
 73
     3
  0
TEXT
  5
57
  8
SPEC
 62
     7
 10
-98.619267886577546
 20
185.65143757358771
 30
0.0
 40
3.8006224999999989
  1
ウインドスクリーン(W80)
 41
0.7
 11
-98.619267886577546
 21
189.45206007358769
 31
0.0
 73
     3
  0
TEXT
  5
58
  8
SPEC
 62
     7
 10
-98.471690679401704
 20
200.3969659456302
 30
0.0
 40
3.8006224999999989
  1
13.5\U+03A6\U+00D7128mm(突起部含まず)
 41
0.7
 11
-98.471690679401704
 21
204.19758844563009
 31
0.0
 73
     3
  0
TEXT
  5
59
  8
SPEC
 62
     7
 10
-98.238115262416201
 20
192.88929424974259
 30
0.0
 40
3.8006224999999989
  1
約15g
 41
0.7
 11
-98.238115262416201
 21
196.68991674974259
 31
0.0
 73
     3
  0
TEXT
  5
5A
  8
SPEC
 62
     7
 10
-98.259410954030102
 20
230.10759820000001
 30
0.0
 40
3.8006224999999989
  1
60Hz～15kHz
 41
0.7
 11
-98.259410954030102
 21
233.90822069999999
 31
0.0
 73
     3
  0
LINE
  5
5B
  8
SPEC
  6
CONTINUOUS
 62
     7
 10
-165.0
 20
221.031755
 30
0.0
 11
130.0
 21
221.031755
 31
0.0
  0
LINE
  5
5C
  8
SPEC
  6
CONTINUOUS
 62
     7
 10
-165.0
 20
213.531755
 30
0.0
 11
130.0
 21
213.531755
 31
0.0
  0
LINE
  5
5D
  8
SPEC
  6
CONTINUOUS
 62
     7
 10
-165.0
 20
206.031755
 30
0.0
 11
130.0
 21
206.031755
 31
0.0
  0
LINE
  5
5E
  8
SPEC
  6
CONTINUOUS
 62
     7
 10
-165.0
 20
198.531755
 30
0.0
 11
130.0
 21
198.531755
 31
0.0
  0
LINE
  5
5F
  8
SPEC
  6
CONTINUOUS
 62
     7
 10
-165.0
 20
191.031755
 30
0.0
 11
130.0
 21
191.031755
 31
0.0
  0
LINE
  5
60
  8
SPEC
  6
CONTINUOUS
 62
     7
 10
-165.0
 20
183.531755
 30
0.0
 11
130.0
 21
183.531755
 31
0.0
  0
TEXT
  5
61
  8
SPEC
 62
     7
 10
-163.45717556649799
 20
222.76430940795089
 30
0.0
 40
3.8006224999999989
  1
開回路感度
 41
0.7
 11
-163.45717556649799
 21
226.56493190795089
 31
0.0
 73
     3
  0
TEXT
  5
62
  8
SPEC
 62
     7
 10
-98.093567507708954
 20
222.78760856008549
 30
0.0
 40
3.8006224999999989
  1
-30dB re 1V/Pa   
 41
0.7
 11
-98.093567507708954
 21
226.58823106008549
 31
0.0
 73
     3
  0
TEXT
  5
63
  8
SPEC
 62
     7
 10
-163.22196239866781
 20
215.46019841788959
 30
0.0
 40
3.8006224999999989
  1
最大音圧レベル
 41
0.7
 11
-163.22196239866781
 21
219.26082091788959
 31
0.0
 73
     3
  0
TEXT
  5
64
  8
SPEC
 62
     7
 10
-98.456237046002229
 20
215.39298920561569
 30
0.0
 40
3.8006224999999989
  1
125dB SPL(THD 1%%%)
 41
0.7
 11
-98.456237046002229
 21
219.19361170561569
 31
0.0
 73
     3
  0
TEXT
  5
65
  8
SPEC
 62
     7
 10
-163.26077583816209
 20
207.70443804191879
 30
0.0
 40
3.8006224999999989
  1
等価雑音レベル
 41
0.7
 11
-163.26077583816209
 21
211.50506054191879
 31
0.0
 73
     3
  0
TEXT
  5
66
  8
SPEC
 62
     7
 10
-98.398603482307294
 20
207.727063361988
 30
0.0
 40
3.8006224999999989
  1
17dB SPL(Aウェイト)
 41
0.7
 11
-98.398603482307294
 21
211.52768586198789
 31
0.0
 73
     3
  0
TEXT
  5
67
  8
DIMNSIONS
 62
     7
 10
-40.0
 20
-231.929205
 30
0.0
 40
4.8865234375000002
  1
(単位：mm)
 41
0.7
 11
-40.0
 21
-227.04268156250001
 31
0.0
 73
     3
  0
LINE
  5
68
  8
DIMNSIONS
  6
CONTINUOUS
 62
     7
 10
-53.25
 20
-105.0
 30
0.0
 11
-74.0
 21
-105.0
 31
0.0
  0
LINE
  5
69
  8
DIMNSIONS
  6
CONTINUOUS
 62
     7
 10
-53.25
 20
23.000000000000011
 30
0.0
 11
-74.0
 21
23.000000000000011
 31
0.0
  0
LINE
  5
6A
  8
DIMNSIONS
  6
CONTINUOUS
 62
     7
 10
-70.0
 20
-105.0
 30
0.0
 11
-70.0
 21
23.000000000000011
 31
0.0
  0
LINE
  5
6B
  8
DIMNSIONS
  6
CONTINUOUS
 62
     7
 10
-70.0
 20
-105.0
 30
0.0
 11
-71.340079590300491
 21
-99.998754882812506
 31
0.0
  0
LINE
  5
6C
  8
DIMNSIONS
  6
CONTINUOUS
 62
     7
 10
-70.0
 20
-105.0
 30
0.0
 11
-68.659920409699509
 21
-99.998754882812506
 31
0.0
  0
LINE
  5
6D
  8
DIMNSIONS
  6
CONTINUOUS
 62
     7
 10
-70.0
 20
23.000000000000011
 30
0.0
 11
-68.659920409699509
 21
17.998754882812499
 31
0.0
  0
LINE
  5
6E
  8
DIMNSIONS
  6
CONTINUOUS
 62
     7
 10
-70.0
 20
23.000000000000011
 30
0.0
 11
-71.340079590300491
 21
17.998754882812499
 31
0.0
  0
TEXT
  5
6F
  8
DIMNSIONS
 62
     7
 10
-75.291666666666671
 20
-43.539999999999999
 30
0.0
 40
5.4294704861111107
  1
128
 41
0.7
 11
-75.291666666666671
 21
-38.110529513888892
 31
0.0
 73
     3
  0
LINE
  5
70
  8
DIMNSIONS
  6
CONTINUOUS
 62
     7
 10
-49.095671475544968
 20
-123.375
 30
0.0
 11
-60.0
 21
-129.6706170089262
 31
0.0
  0
LINE
  5
71
  8
DIMNSIONS
  6
CONTINUOUS
 62
     7
 10
-49.095671475544968
 20
-123.375
 30
0.0
 11
-52.756837002431972
 21
-127.036165526887
 31
0.0
  0
LINE
  5
72
  8
DIMNSIONS
  6
CONTINUOUS
 62
     7
 10
-49.095671475544968
 20
-123.375
 30
0.0
 11
-54.09691659273247
 21
-124.7150795903005
 31
0.0
  0
LINE
  5
73
  8
DIMNSIONS
  6
CONTINUOUS
 62
     7
 10
-60.0
 20
-129.6706170089262
 30
0.0
 11
-85.166666666666671
 21
-129.6706170089262
 31
0.0
  0
TEXT
  5
74
  8
DIMNSIONS
 62
     7
 10
-85.166666666666643
 20
-127.68283920171029
 30
0.0
 40
5.4294706479219572
  1
\U+03C613.5
 41
0.7
 11
-85.166666666666643
 21
-122.25336855378841
 31
0.0
 73
     3
  0
LINE
  5
75
  8
DIMNSIONS
  6
CONTINUOUS
 62
     7
 10
-47.75
 20
-106.0
 30
0.0
 11
-74.0
 21
-106.0
 31
0.0
  0
LINE
  5
76
  8
DIMNSIONS
  6
CONTINUOUS
 62
     7
 10
-53.25
 20
-105.0
 30
0.0
 11
-74.0
 21
-105.0
 31
0.0
  0
LINE
  5
77
  8
DIMNSIONS
  6
CONTINUOUS
 62
     7
 10
-70.0
 20
-105.0
 30
0.0
 11
-70.0
 21
-106.0
 31
0.0
  0
LINE
  5
78
  8
DIMNSIONS
  6
CONTINUOUS
 62
     7
 10
-70.0
 20
-106.0
 30
0.0
 11
-70.0
 21
-115.0
 31
0.0
  0
LINE
  5
79
  8
DIMNSIONS
  6
CONTINUOUS
 62
     7
 10
-70.0
 20
-106.0
 30
0.0
 11
-68.659920409699509
 21
-111.00124511718739
 31
0.0
  0
LINE
  5
7A
  8
DIMNSIONS
  6
CONTINUOUS
 62
     7
 10
-70.0
 20
-106.0
 30
0.0
 11
-71.340079590300491
 21
-111.00124511718739
 31
0.0
  0
LINE
  5
7B
  8
DIMNSIONS
  6
CONTINUOUS
 62
     7
 10
-70.0
 20
-105.0
 30
0.0
 11
-70.0
 21
-95.0
 31
0.0
  0
LINE
  5
7C
  8
DIMNSIONS
  6
CONTINUOUS
 62
     7
 10
-70.0
 20
-105.0
 30
0.0
 11
-71.340079590300491
 21
-99.998754882812506
 31
0.0
  0
LINE
  5
7D
  8
DIMNSIONS
  6
CONTINUOUS
 62
     7
 10
-70.0
 20
-105.0
 30
0.0
 11
-68.659920409699509
 21
-99.998754882812506
 31
0.0
  0
TEXT
  5
7E
  8
DIMNSIONS
 62
     7
 10
-71.987777807215821
 20
-115.0
 30
0.0
 40
5.4294706479219572
  1
1
 50
90.0
 41
0.7
 11
-77.417248455137781
 21
-115.0
 31
0.0
 73
     3
  0
LINE
  5
7F
  8
DIMNSIONS
  6
CONTINUOUS
 62
     7
 10
-49.75
 20
18.189193949305281
 30
0.0
 11
-49.75
 21
69.0
 31
0.0
  0
LINE
  5
80
  8
DIMNSIONS
  6
CONTINUOUS
 62
     7
 10
-36.75
 20
18.189193949305281
 30
0.0
 11
-36.75
 21
69.0
 31
0.0
  0
LINE
  5
81
  8
DIMNSIONS
  6
CONTINUOUS
 62
     7
 10
-49.75
 20
65.0
 30
0.0
 11
-36.75
 21
65.0
 31
0.0
  0
LINE
  5
82
  8
DIMNSIONS
  6
CONTINUOUS
 62
     7
 10
-49.75
 20
65.0
 30
0.0
 11
-44.748754882812491
 21
66.340079590300491
 31
0.0
  0
LINE
  5
83
  8
DIMNSIONS
  6
CONTINUOUS
 62
     7
 10
-49.75
 20
65.0
 30
0.0
 11
-44.748754882812491
 21
63.659920409699531
 31
0.0
  0
LINE
  5
84
  8
DIMNSIONS
  6
CONTINUOUS
 62
     7
 10
-36.75
 20
65.0
 30
0.0
 11
-41.751245117187509
 21
63.659920409699509
 31
0.0
  0
LINE
  5
85
  8
DIMNSIONS
  6
CONTINUOUS
 62
     7
 10
-36.75
 20
65.0
 30
0.0
 11
-41.751245117187509
 21
66.340079590300491
 31
0.0
  0
TEXT
  5
86
  8
DIMNSIONS
 62
     7
 10
-46.777777777777779
 20
66.987777807215835
 30
0.0
 40
5.4294706479219572
  1
13
 41
0.7
 11
-46.777777777777779
 21
72.417248455137809
 31
0.0
 73
     3
  0
TEXT
  5
87
  8
DATA
 62
     7
 10
100.0
 20
-234.20640499999999
 30
0.0
 40
4.8865234375000002
  1
CK 80
 41
0.7
 11
100.0
 21
-229.3198815625
 31
0.0
 73
     3
  0
TEXT
  5
88
  8
DATA
 62
     7
 10
100.0
 20
-219.70640499999999
 30
0.0
 40
4.8865234375000002
  1
AKG
 41
0.7
 11
100.0
 21
-214.8198815625
 31
0.0
 73
     3
  0
TEXT
  5
89
  8
DATA
 62
     7
 10
96.970002468850993
 20
-226.6603174
 30
0.0
 40
3.257687421875
  1
Modular Series用カートリッジ
 41
0.7
 11
96.970002468850993
 21
-223.40262997812499
 31
0.0
 73
     3
  0
TEXT
  5
8A
  8
DATA
 62
     7
 10
-159.99999999999989
 20
-247.99218500000001
 30
0.0
 40
3.2576822916666659
  1
仕様および外観は予告なく変更されることがありますので、ご了承ください。
 41
0.7
 11
-159.99999999999989
 21
-244.73450270833331
 31
0.0
 73
     3
  0
TEXT
  5
8B
  8
DATA
 62
     7
 10
-146.92714619145821
 20
61.905924814611872
 30
0.0
 40
5.4294704861111107
  1
ウインドスクリーン
 41
0.7
 11
-146.92714619145821
 21
64.620660057667422
 31
0.0
 73
     2
  0
LINE
  5
8C
  8
DATA
  6
CONTINUOUS
 62
     7
 10
-49.25
 20
-105.0
 30
0.0
 11
-37.25
 21
-105.0
 31
0.0
  0
LINE
  5
8D
  8
DATA
  6
CONTINUOUS
 62
     7
 10
-49.25
 20
-105.0
 30
0.0
 11
-49.25
 21
-100.0
 31
0.0
  0
LINE
  5
8E
  8
DATA
  6
CONTINUOUS
 62
     7
 10
-37.25
 20
-100.0
 30
0.0
 11
-37.25
 21
-105.0
 31
0.0
  0
LINE
  5
8F
  8
DATA
  6
CONTINUOUS
 62
     7
 10
-50.0
 20
-100.0
 30
0.0
 11
-36.5
 21
-100.0
 31
0.0
  0
LINE
  5
90
  8
DATA
  6
CONTINUOUS
 62
     7
 10
-43.75
 20
-106.0
 30
0.0
 11
-43.75
 21
-105.0
 31
0.0
  0
LINE
  5
91
  8
DATA
  6
CONTINUOUS
 62
     7
 10
-42.75
 20
-106.0
 30
0.0
 11
-43.75
 21
-106.0
 31
0.0
  0
LINE
  5
92
  8
DATA
  6
CONTINUOUS
 62
     7
 10
-42.75
 20
-105.0
 30
0.0
 11
-42.75
 21
-106.0
 31
0.0
  0
CIRCLE
  5
93
  8
DATA
  6
CONTINUOUS
 62
     7
 10
-43.25
 20
-120.0
 30
0.0
 40
6.75
  0
CIRCLE
  5
94
  8
DATA
  6
CONTINUOUS
 62
     7
 10
-43.25
 20
-120.0
 30
0.0
 40
0.5
  0
CIRCLE
  5
95
  8
DATA
  6
CONTINUOUS
 62
     7
 10
-43.25
 20
-120.0
 30
0.0
 40
6.0
  0
LINE
  5
96
  8
DATA
  6
CONTINUOUS
 62
     7
 10
-49.25
 20
-105.0
 30
0.0
 11
-37.25
 21
-104.80783588781139
 31
0.0
  0
LINE
  5
97
  8
DATA
  6
CONTINUOUS
 62
     7
 10
-49.25
 20
-104.2
 30
0.0
 11
-37.25
 21
-104.0078358878115
 31
0.0
  0
LINE
  5
98
  8
DATA
  6
CONTINUOUS
 62
     7
 10
-49.25
 20
-103.40000000000001
 30
0.0
 11
-37.25
 21
-103.2078358878114
 31
0.0
  0
LINE
  5
99
  8
DATA
  6
CONTINUOUS
 62
     7
 10
-49.25
 20
-102.59999999999999
 30
0.0
 11
-37.25
 21
-102.4078358878114
 31
0.0
  0
LINE
  5
9A
  8
DATA
  6
CONTINUOUS
 62
     7
 10
-49.25
 20
-101.8
 30
0.0
 11
-37.25
 21
-101.6078358878114
 31
0.0
  0
LINE
  5
9B
  8
DATA
  6
CONTINUOUS
 62
     7
 10
-49.25
 20
-101.0
 30
0.0
 11
-37.25
 21
-100.80783588781139
 31
0.0
  0
LINE
  5
9C
  8
DATA
  6
CONTINUOUS
 62
     7
 10
-49.25
 20
-100.2
 30
0.0
 11
-37.25
 21
-100.0078358878115
 31
0.0
  0
LINE
  5
9D
  8
DATA
  6
CONTINUOUS
 62
     7
 10
-50.0
 20
-100.0
 30
0.0
 11
-50.0
 21
-97.0
 31
0.0
  0
LINE
  5
9E
  8
DATA
  6
CONTINUOUS
 62
     7
 10
-36.5
 20
-100.0
 30
0.0
 11
-36.5
 21
-97.0
 31
0.0
  0
LINE
  5
9F
  8
DATA
  6
CONTINUOUS
 62
     7
 10
-36.5
 20
-97.0
 30
0.0
 11
-50.0
 21
-97.0
 31
0.0
  0
LINE
  5
A0
  8
DATA
  6
CONTINUOUS
 62
     7
 10
-49.75
 20
-97.0
 30
0.0
 11
-49.75
 21
15.39740212724336
 31
0.0
  0
LINE
  5
A1
  8
DATA
  6
CONTINUOUS
 62
     7
 10
-36.75
 20
15.39740212724368
 30
0.0
 11
-36.75
 21
-97.0
 31
0.0
  0
LINE
  5
A2
  8
DATA
  6
CONTINUOUS
 62
     7
 10
-49.75
 20
-69.0
 30
0.0
 11
-36.75
 21
-69.0
 31
0.0
  0
LINE
  5
A3
  8
DATA
  6
CONTINUOUS
 62
     7
 10
-42.449999999999989
 20
-79.242575025462287
 30
0.0
 11
-42.449999999999989
 21
-74.942575025462347
 31
0.0
  0
LINE
  5
A4
  8
DATA
  6
CONTINUOUS
 62
     7
 10
-40.949999999999982
 20
-74.94257502546229
 30
0.0
 11
-40.949999999999982
 21
-79.242575025462287
 31
0.0
  0
ARC
  5
A5
  8
DATA
  6
CONTINUOUS
 62
     7
 10
-41.699999999999989
 20
-74.942575025462347
 30
0.0
 40
0.75
 50
0.0
 51
180.0
  0
ARC
  5
A6
  8
DATA
  6
CONTINUOUS
 62
     7
 10
-41.699999999999989
 20
-79.242575025462287
 30
0.0
 40
0.75
 50
180.0
 51
0.00000000000216
  0
LINE
  5
A7
  8
DATA
  6
CONTINUOUS
 62
     7
 10
-44.050000000000011
 20
-79.242575025462287
 30
0.0
 11
-44.050000000000011
 21
-74.942575025462347
 31
0.0
  0
LINE
  5
A8
  8
DATA
  6
CONTINUOUS
 62
     7
 10
-45.550000000000011
 20
-74.94257502546229
 30
0.0
 11
-45.550000000000011
 21
-79.242575025462287
 31
0.0
  0
ARC
  5
A9
  8
DATA
  6
CONTINUOUS
 62
     7
 10
-44.800000000000011
 20
-74.942575025462347
 30
0.0
 40
0.75
 50
0.0
 51
180.0
  0
ARC
  5
AA
  8
DATA
  6
CONTINUOUS
 62
     7
 10
-44.800000000000011
 20
-79.242575025462287
 30
0.0
 40
0.75
 50
179.99999999999781
 51
0.0
  0
LINE
  5
AB
  8
DATA
  6
CONTINUOUS
 62
     7
 10
-45.499999999999993
 20
-84.596062513502716
 30
0.0
 11
-45.499999999999993
 21
-82.397750317088693
 31
0.0
  0
LINE
  5
AC
  8
DATA
  6
CONTINUOUS
 62
     7
 10
-40.999999367191819
 20
-84.596062513502787
 30
0.0
 11
-40.999175002945137
 21
-82.397750317088693
 31
0.0
  0
LINE
  5
AD
  8
DATA
  6
CONTINUOUS
 62
     7
 10
-45.499999999999993
 20
-84.596062513502716
 30
0.0
 11
-40.999999367191819
 21
-84.596062513502716
 31
0.0
  0
LINE
  5
AE
  8
DATA
  6
CONTINUOUS
 62
     7
 10
-40.999175002945137
 20
-82.397750317088693
 30
0.0
 11
-45.499999999999993
 21
-82.397750317088693
 31
0.0
  0
LINE
  5
AF
  8
DATA
  6
CONTINUOUS
 62
     7
 10
-42.449999999999989
 20
-67.118819092229884
 30
0.0
 11
-42.449999999999989
 21
-62.818819092229887
 31
0.0
  0
LINE
  5
B0
  8
DATA
  6
CONTINUOUS
 62
     7
 10
-40.949999999999982
 20
-62.818819092229873
 30
0.0
 11
-40.949999999999982
 21
-67.11881909222987
 31
0.0
  0
ARC
  5
B1
  8
DATA
  6
CONTINUOUS
 62
     7
 10
-41.699999999999989
 20
-62.818819092229887
 30
0.0
 40
0.75
 50
0.0
 51
180.0
  0
ARC
  5
B2
  8
DATA
  6
CONTINUOUS
 62
     7
 10
-41.699999999999989
 20
-67.11881909222987
 30
0.0
 40
0.75
 50
180.0
 51
0.00000000000108
  0
LINE
  5
B3
  8
DATA
  6
CONTINUOUS
 62
     7
 10
-44.050000000000011
 20
-67.118819092229884
 30
0.0
 11
-44.050000000000011
 21
-62.818819092229887
 31
0.0
  0
LINE
  5
B4
  8
DATA
  6
CONTINUOUS
 62
     7
 10
-45.550000000000011
 20
-62.818819092229873
 30
0.0
 11
-45.550000000000011
 21
-67.11881909222987
 31
0.0
  0
ARC
  5
B5
  8
DATA
  6
CONTINUOUS
 62
     7
 10
-44.800000000000011
 20
-62.818819092229887
 30
0.0
 40
0.75
 50
0.0
 51
180.0
  0
ARC
  5
B6
  8
DATA
  6
CONTINUOUS
 62
     7
 10
-44.800000000000011
 20
-67.11881909222987
 30
0.0
 40
0.75
 50
179.99999999999889
 51
0.0
  0
LINE
  5
B7
  8
DATA
  6
CONTINUOUS
 62
     7
 10
-42.449999999999989
 20
-59.618819092229892
 30
0.0
 11
-42.449999999999989
 21
-55.318819092229887
 31
0.0
  0
LINE
  5
B8
  8
DATA
  6
CONTINUOUS
 62
     7
 10
-40.949999999999982
 20
-55.318819092229873
 30
0.0
 11
-40.949999999999982
 21
-59.61881909222987
 31
0.0
  0
ARC
  5
B9
  8
DATA
  6
CONTINUOUS
 62
     7
 10
-41.699999999999989
 20
-55.318819092229887
 30
0.0
 40
0.75
 50
0.0
 51
180.0
  0
ARC
  5
BA
  8
DATA
  6
CONTINUOUS
 62
     7
 10
-41.699999999999989
 20
-59.61881909222987
 30
0.0
 40
0.75
 50
180.0
 51
0.00000000000108
  0
LINE
  5
BB
  8
DATA
  6
CONTINUOUS
 62
     7
 10
-44.050000000000011
 20
-59.618819092229892
 30
0.0
 11
-44.050000000000011
 21
-55.318819092229887
 31
0.0
  0
LINE
  5
BC
  8
DATA
  6
CONTINUOUS
 62
     7
 10
-45.550000000000011
 20
-55.318819092229873
 30
0.0
 11
-45.550000000000011
 21
-59.61881909222987
 31
0.0
  0
ARC
  5
BD
  8
DATA
  6
CONTINUOUS
 62
     7
 10
-44.800000000000011
 20
-55.318819092229887
 30
0.0
 40
0.75
 50
0.0
 51
180.0
  0
ARC
  5
BE
  8
DATA
  6
CONTINUOUS
 62
     7
 10
-44.800000000000011
 20
-59.61881909222987
 30
0.0
 40
0.75
 50
179.99999999999889
 51
0.0
  0
LINE
  5
BF
  8
DATA
  6
CONTINUOUS
 62
     7
 10
-42.449999999999989
 20
-52.118819092229892
 30
0.0
 11
-42.449999999999989
 21
-47.818819092229887
 31
0.0
  0
LINE
  5
C0
  8
DATA
  6
CONTINUOUS
 62
     7
 10
-40.949999999999982
 20
-47.818819092229873
 30
0.0
 11
-40.949999999999982
 21
-52.11881909222987
 31
0.0
  0
ARC
  5
C1
  8
DATA
  6
CONTINUOUS
 62
     7
 10
-41.699999999999989
 20
-47.818819092229887
 30
0.0
 40
0.75
 50
0.0
 51
180.0
  0
ARC
  5
C2
  8
DATA
  6
CONTINUOUS
 62
     7
 10
-41.699999999999989
 20
-52.11881909222987
 30
0.0
 40
0.75
 50
180.0
 51
0.00000000000108
  0
LINE
  5
C3
  8
DATA
  6
CONTINUOUS
 62
     7
 10
-44.050000000000011
 20
-52.118819092229892
 30
0.0
 11
-44.050000000000011
 21
-47.818819092229887
 31
0.0
  0
LINE
  5
C4
  8
DATA
  6
CONTINUOUS
 62
     7
 10
-45.550000000000011
 20
-47.818819092229873
 30
0.0
 11
-45.550000000000011
 21
-52.11881909222987
 31
0.0
  0
ARC
  5
C5
  8
DATA
  6
CONTINUOUS
 62
     7
 10
-44.800000000000011
 20
-47.818819092229887
 30
0.0
 40
0.75
 50
0.0
 51
180.0
  0
ARC
  5
C6
  8
DATA
  6
CONTINUOUS
 62
     7
 10
-44.800000000000011
 20
-52.11881909222987
 30
0.0
 40
0.75
 50
179.99999999999889
 51
0.0
  0
LINE
  5
C7
  8
DATA
  6
CONTINUOUS
 62
     7
 10
-42.449999999999989
 20
-44.618819092229892
 30
0.0
 11
-42.449999999999989
 21
-40.318819092229887
 31
0.0
  0
LINE
  5
C8
  8
DATA
  6
CONTINUOUS
 62
     7
 10
-40.949999999999982
 20
-40.318819092229859
 30
0.0
 11
-40.949999999999982
 21
-44.61881909222987
 31
0.0
  0
ARC
  5
C9
  8
DATA
  6
CONTINUOUS
 62
     7
 10
-41.699999999999989
 20
-40.318819092229887
 30
0.0
 40
0.75
 50
0.0
 51
180.0
  0
ARC
  5
CA
  8
DATA
  6
CONTINUOUS
 62
     7
 10
-41.699999999999989
 20
-44.61881909222987
 30
0.0
 40
0.75
 50
180.0
 51
0.00000000000108
  0
LINE
  5
CB
  8
DATA
  6
CONTINUOUS
 62
     7
 10
-44.050000000000011
 20
-44.618819092229892
 30
0.0
 11
-44.050000000000011
 21
-40.318819092229887
 31
0.0
  0
LINE
  5
CC
  8
DATA
  6
CONTINUOUS
 62
     7
 10
-45.550000000000011
 20
-40.318819092229859
 30
0.0
 11
-45.550000000000011
 21
-44.61881909222987
 31
0.0
  0
ARC
  5
CD
  8
DATA
  6
CONTINUOUS
 62
     7
 10
-44.800000000000011
 20
-40.318819092229887
 30
0.0
 40
0.75
 50
0.0
 51
180.0
  0
ARC
  5
CE
  8
DATA
  6
CONTINUOUS
 62
     7
 10
-44.800000000000011
 20
-44.61881909222987
 30
0.0
 40
0.75
 50
179.99999999999889
 51
0.0
  0
LINE
  5
CF
  8
DATA
  6
CONTINUOUS
 62
     7
 10
-42.449999999999989
 20
-37.118819092229892
 30
0.0
 11
-42.449999999999989
 21
-32.818819092229901
 31
0.0
  0
LINE
  5
D0
  8
DATA
  6
CONTINUOUS
 62
     7
 10
-40.949999999999982
 20
-32.818819092229873
 30
0.0
 11
-40.949999999999982
 21
-37.11881909222987
 31
0.0
  0
ARC
  5
D1
  8
DATA
  6
CONTINUOUS
 62
     7
 10
-41.699999999999989
 20
-32.818819092229901
 30
0.0
 40
0.75
 50
0.0
 51
180.0
  0
ARC
  5
D2
  8
DATA
  6
CONTINUOUS
 62
     7
 10
-41.699999999999989
 20
-37.11881909222987
 30
0.0
 40
0.75
 50
180.0
 51
0.00000000000108
  0
LINE
  5
D3
  8
DATA
  6
CONTINUOUS
 62
     7
 10
-44.050000000000011
 20
-37.118819092229892
 30
0.0
 11
-44.050000000000011
 21
-32.818819092229901
 31
0.0
  0
LINE
  5
D4
  8
DATA
  6
CONTINUOUS
 62
     7
 10
-45.550000000000011
 20
-32.818819092229873
 30
0.0
 11
-45.550000000000011
 21
-37.11881909222987
 31
0.0
  0
ARC
  5
D5
  8
DATA
  6
CONTINUOUS
 62
     7
 10
-44.800000000000011
 20
-32.818819092229901
 30
0.0
 40
0.75
 50
0.0
 51
180.0
  0
ARC
  5
D6
  8
DATA
  6
CONTINUOUS
 62
     7
 10
-44.800000000000011
 20
-37.11881909222987
 30
0.0
 40
0.75
 50
179.99999999999889
 51
0.0
  0
LINE
  5
D7
  8
DATA
  6
CONTINUOUS
 62
     7
 10
-42.449999999999989
 20
-29.618819092229881
 30
0.0
 11
-42.449999999999989
 21
-25.318819092229891
 31
0.0
  0
LINE
  5
D8
  8
DATA
  6
CONTINUOUS
 62
     7
 10
-40.949999999999982
 20
-25.31881909222988
 30
0.0
 11
-40.949999999999982
 21
-29.61881909222987
 31
0.0
  0
ARC
  5
D9
  8
DATA
  6
CONTINUOUS
 62
     7
 10
-41.699999999999989
 20
-25.318819092229891
 30
0.0
 40
0.75
 50
0.0
 51
180.0
  0
ARC
  5
DA
  8
DATA
  6
CONTINUOUS
 62
     7
 10
-41.699999999999989
 20
-29.61881909222987
 30
0.0
 40
0.75
 50
180.0
 51
0.00000000000108
  0
LINE
  5
DB
  8
DATA
  6
CONTINUOUS
 62
     7
 10
-44.050000000000011
 20
-29.618819092229881
 30
0.0
 11
-44.050000000000011
 21
-25.318819092229891
 31
0.0
  0
LINE
  5
DC
  8
DATA
  6
CONTINUOUS
 62
     7
 10
-45.550000000000011
 20
-25.31881909222988
 30
0.0
 11
-45.550000000000011
 21
-29.61881909222987
 31
0.0
  0
ARC
  5
DD
  8
DATA
  6
CONTINUOUS
 62
     7
 10
-44.800000000000011
 20
-25.318819092229891
 30
0.0
 40
0.75
 50
0.0
 51
180.0
  0
ARC
  5
DE
  8
DATA
  6
CONTINUOUS
 62
     7
 10
-44.800000000000011
 20
-29.61881909222987
 30
0.0
 40
0.75
 50
179.99999999999889
 51
0.0
  0
LINE
  5
DF
  8
DATA
  6
CONTINUOUS
 62
     7
 10
-42.449999999999989
 20
-22.118819092229881
 30
0.0
 11
-42.449999999999989
 21
-17.81881909222988
 31
0.0
  0
LINE
  5
E0
  8
DATA
  6
CONTINUOUS
 62
     7
 10
-40.949999999999982
 20
-17.818819092229859
 30
0.0
 11
-40.949999999999982
 21
-22.11881909222987
 31
0.0
  0
ARC
  5
E1
  8
DATA
  6
CONTINUOUS
 62
     7
 10
-41.699999999999989
 20
-17.81881909222988
 30
0.0
 40
0.75
 50
0.0
 51
180.0
  0
ARC
  5
E2
  8
DATA
  6
CONTINUOUS
 62
     7
 10
-41.699999999999989
 20
-22.11881909222987
 30
0.0
 40
0.75
 50
180.0
 51
0.00000000000108
  0
LINE
  5
E3
  8
DATA
  6
CONTINUOUS
 62
     7
 10
-44.050000000000011
 20
-22.118819092229881
 30
0.0
 11
-44.050000000000011
 21
-17.81881909222988
 31
0.0
  0
LINE
  5
E4
  8
DATA
  6
CONTINUOUS
 62
     7
 10
-45.550000000000011
 20
-17.818819092229859
 30
0.0
 11
-45.550000000000011
 21
-22.11881909222987
 31
0.0
  0
ARC
  5
E5
  8
DATA
  6
CONTINUOUS
 62
     7
 10
-44.800000000000011
 20
-17.81881909222988
 30
0.0
 40
0.75
 50
0.0
 51
180.0
  0
ARC
  5
E6
  8
DATA
  6
CONTINUOUS
 62
     7
 10
-44.800000000000011
 20
-22.11881909222987
 30
0.0
 40
0.75
 50
179.99999999999889
 51
0.0
  0
LINE
  5
E7
  8
DATA
  6
CONTINUOUS
 62
     7
 10
-42.449999999999989
 20
-14.61881909222987
 30
0.0
 11
-42.449999999999989
 21
-10.31881909222988
 31
0.0
  0
LINE
  5
E8
  8
DATA
  6
CONTINUOUS
 62
     7
 10
-40.949999999999982
 20
-10.318819092229861
 30
0.0
 11
-40.949999999999982
 21
-14.61881909222986
 31
0.0
  0
ARC
  5
E9
  8
DATA
  6
CONTINUOUS
 62
     7
 10
-41.699999999999989
 20
-10.31881909222988
 30
0.0
 40
0.75
 50
0.0
 51
180.0
  0
ARC
  5
EA
  8
DATA
  6
CONTINUOUS
 62
     7
 10
-41.699999999999989
 20
-14.61881909222986
 30
0.0
 40
0.75
 50
180.0
 51
0.00000000000108
  0
LINE
  5
EB
  8
DATA
  6
CONTINUOUS
 62
     7
 10
-44.050000000000011
 20
-14.61881909222987
 30
0.0
 11
-44.050000000000011
 21
-10.31881909222988
 31
0.0
  0
LINE
  5
EC
  8
DATA
  6
CONTINUOUS
 62
     7
 10
-45.550000000000011
 20
-10.318819092229861
 30
0.0
 11
-45.550000000000011
 21
-14.61881909222986
 31
0.0
  0
ARC
  5
ED
  8
DATA
  6
CONTINUOUS
 62
     7
 10
-44.800000000000011
 20
-10.31881909222988
 30
0.0
 40
0.75
 50
0.0
 51
180.0
  0
ARC
  5
EE
  8
DATA
  6
CONTINUOUS
 62
     7
 10
-44.800000000000011
 20
-14.61881909222986
 30
0.0
 40
0.75
 50
179.99999999999889
 51
0.0
  0
LINE
  5
EF
  8
DATA
  6
CONTINUOUS
 62
     7
 10
-42.449999999999989
 20
-7.1188190922298764
 30
0.0
 11
-42.449999999999989
 21
-2.8188190922298841
 31
0.0
  0
LINE
  5
F0
  8
DATA
  6
CONTINUOUS
 62
     7
 10
-40.949999999999982
 20
-2.818819092229869
 30
0.0
 11
-40.949999999999982
 21
-7.1188190922298631
 31
0.0
  0
ARC
  5
F1
  8
DATA
  6
CONTINUOUS
 62
     7
 10
-41.699999999999989
 20
-2.8188190922298841
 30
0.0
 40
0.75
 50
0.0
 51
180.0
  0
ARC
  5
F2
  8
DATA
  6
CONTINUOUS
 62
     7
 10
-41.699999999999989
 20
-7.1188190922298631
 30
0.0
 40
0.75
 50
180.0
 51
0.00000000000108
  0
LINE
  5
F3
  8
DATA
  6
CONTINUOUS
 62
     7
 10
-44.050000000000011
 20
-7.1188190922298764
 30
0.0
 11
-44.050000000000011
 21
-2.8188190922298841
 31
0.0
  0
LINE
  5
F4
  8
DATA
  6
CONTINUOUS
 62
     7
 10
-45.550000000000011
 20
-2.818819092229869
 30
0.0
 11
-45.550000000000011
 21
-7.1188190922298631
 31
0.0
  0
ARC
  5
F5
  8
DATA
  6
CONTINUOUS
 62
     7
 10
-44.800000000000011
 20
-2.8188190922298841
 30
0.0
 40
0.75
 50
0.0
 51
180.0
  0
ARC
  5
F6
  8
DATA
  6
CONTINUOUS
 62
     7
 10
-44.800000000000011
 20
-7.1188190922298631
 30
0.0
 40
0.75
 50
179.99999999999889
 51
0.0
  0
LINE
  5
F7
  8
DATA
  6
CONTINUOUS
 62
     7
 10
-42.449999999999989
 20
0.3811809077701156
 30
0.0
 11
-42.449999999999989
 21
4.6811809077701119
 31
0.0
  0
LINE
  5
F8
  8
DATA
  6
CONTINUOUS
 62
     7
 10
-40.949999999999982
 20
4.6811809077701261
 30
0.0
 11
-40.949999999999982
 21
0.3811809077701298
 31
0.0
  0
ARC
  5
F9
  8
DATA
  6
CONTINUOUS
 62
     7
 10
-41.699999999999989
 20
4.6811809077701119
 30
0.0
 40
0.75
 50
0.0
 51
180.0
  0
ARC
  5
FA
  8
DATA
  6
CONTINUOUS
 62
     7
 10
-41.699999999999989
 20
0.3811809077701298
 30
0.0
 40
0.75
 50
180.0
 51
0.00000000000108
  0
LINE
  5
FB
  8
DATA
  6
CONTINUOUS
 62
     7
 10
-44.050000000000011
 20
0.3811809077701156
 30
0.0
 11
-44.050000000000011
 21
4.6811809077701119
 31
0.0
  0
LINE
  5
FC
  8
DATA
  6
CONTINUOUS
 62
     7
 10
-45.550000000000011
 20
4.6811809077701261
 30
0.0
 11
-45.550000000000011
 21
0.3811809077701298
 31
0.0
  0
ARC
  5
FD
  8
DATA
  6
CONTINUOUS
 62
     7
 10
-44.800000000000011
 20
4.6811809077701119
 30
0.0
 40
0.75
 50
0.0
 51
180.0
  0
ARC
  5
FE
  8
DATA
  6
CONTINUOUS
 62
     7
 10
-44.800000000000011
 20
0.3811809077701298
 30
0.0
 40
0.75
 50
179.99999999999889
 51
0.0
  0
CIRCLE
  5
FF
  8
DATA
  6
CONTINUOUS
 62
     7
 10
-43.25
 20
-120.0
 30
0.0
 40
4.5
  0
ARC
  5
100
  8
DATA
  6
CONTINUOUS
 62
     7
 10
-42.713901362607771
 20
16.70880482153505
 30
0.0
 40
6.3139954484109788
 50
94.870642656962076
 51
153.30913603793169
  0
ARC
  5
101
  8
DATA
  6
CONTINUOUS
 62
     7
 10
-40.52742067953141
 20
14.603949382288301
 30
0.0
 40
9.2566482368518272
 50
147.73922459968969
 51
175.08273967116921
  0
ARC
  5
102
  8
DATA
  6
CONTINUOUS
 62
     7
 10
-43.786098637392229
 20
16.70880482153505
 30
0.0
 40
6.3139954484109726
 50
26.69086396206826
 51
85.129357343037924
  0
ARC
  5
103
  8
DATA
  6
CONTINUOUS
 62
     7
 10
-45.972579320468569
 20
14.603949382288301
 30
0.0
 40
9.2566482368517953
 50
4.9172603288308956
 51
32.260775400310251
  0
ARC
  5
104
  8
DATA
  6
CONTINUOUS
 62
     7
 10
-42.713901362607771
 20
12.87779125501361
 30
0.0
 40
6.3139954484109726
 50
206.69086396206819
 51
265.1293573430379
  0
ARC
  5
105
  8
DATA
  6
CONTINUOUS
 62
     7
 10
-40.52742067953141
 20
14.98264669426036
 30
0.0
 40
9.2566482368517953
 50
184.91726032883091
 51
212.26077540031031
  0
ARC
  5
106
  8
DATA
  6
CONTINUOUS
 62
     7
 10
-43.786098637392229
 20
12.87779125501361
 30
0.0
 40
6.3139954484109788
 50
274.8706426569621
 51
333.30913603793181
  0
ARC
  5
107
  8
DATA
  6
CONTINUOUS
 62
     7
 10
-45.972579320468569
 20
14.98264669426036
 30
0.0
 40
9.2566482368518308
 50
327.73922459968981
 51
355.08273967116912
  0
LINE
  5
108
  8
DATA
  6
STYLE_01
 62
     7
 10
-58.25
 20
-98.895913524449881
 30
0.0
 11
-28.25
 21
-98.895913524449881
 31
0.0
  0
LINE
  5
109
  8
DATA
  6
STYLE_01
 62
     7
 10
-58.25
 20
41.426438626795388
 30
0.0
 11
-58.25
 21
-98.895913524449924
 31
0.0
  0
LINE
  5
10A
  8
DATA
  6
STYLE_01
 62
     7
 10
-28.25
 20
41.426438626795388
 30
0.0
 11
-28.25
 21
-98.895913524449924
 31
0.0
  0
ARC
  5
10B
  8
DATA
  6
STYLE_01
 62
     7
 10
-38.90016734367515
 20
34.250167343675152
 30
0.0
 40
22.282612628696839
 50
111.3861001297718
 51
139.7853199483053
  0
ARC
  5
10C
  8
DATA
  6
STYLE_01
 62
     7
 10
-40.630464082746812
 20
39.705869152258551
 30
0.0
 40
17.703344465272181
 50
149.7025652576568
 51
174.422679414063
  0
ARC
  5
10D
  8
DATA
  6
STYLE_01
 62
     7
 10
-38.90016734367515
 20
47.88026858022377
 30
0.0
 40
22.282612628696828
 50
220.21468005169459
 51
244.8897416673442
  0
ARC
  5
10E
  8
DATA
  6
STYLE_01
 62
     7
 10
-40.630464082746812
 20
42.424566771640357
 30
0.0
 40
17.703344465272181
 50
185.57732058593689
 51
210.2974347423432
  0
ARC
  5
10F
  8
DATA
  6
STYLE_01
 62
     7
 10
-47.59983265632485
 20
34.250167343675152
 30
0.0
 40
22.282612628696828
 50
40.2146800516946
 51
69.926654458528247
  0
ARC
  5
110
  8
DATA
  6
STYLE_01
 62
     7
 10
-45.869535917253181
 20
39.705869152258551
 30
0.0
 40
17.703344465272181
 50
5.5773205859369854
 51
30.297434742343171
  0
ARC
  5
111
  8
DATA
  6
STYLE_01
 62
     7
 10
-47.59983265632485
 20
47.88026858022377
 30
0.0
 40
22.282612628696839
 50
293.38829822671602
 51
319.7853199483053
  0
ARC
  5
112
  8
DATA
  6
STYLE_01
 62
     7
 10
-45.869535917253181
 20
42.424566771640357
 30
0.0
 40
17.703344465272181
 50
329.70256525765689
 51
354.42267941406311
  0
ARC
  5
113
  8
DATA
  6
STYLE_01
 62
     7
 10
-43.234657071230572
 20
45.143040705133593
 30
0.0
 40
10.559393612007099
 50
71.887611868957023
 51
111.03916001249659
  0
ARC
  5
114
  8
DATA
  6
STYLE_01
 62
     7
 10
-43.194240177543172
 20
40.170284984780402
 30
0.0
 40
13.49312646851217
 50
247.50820269791541
 51
289.21027052644752
  0
LINE
  5
115
  8
DATA
  6
CONTINUOUS
 62
     7
 10
30.75
 20
-105.0
 30
0.0
 11
42.75
 21
-105.0
 31
0.0
  0
LINE
  5
116
  8
DATA
  6
CONTINUOUS
 62
     7
 10
30.75
 20
-105.0
 30
0.0
 11
30.75
 21
-100.0
 31
0.0
  0
LINE
  5
117
  8
DATA
  6
CONTINUOUS
 62
     7
 10
42.75
 20
-100.0
 30
0.0
 11
42.75
 21
-105.0
 31
0.0
  0
LINE
  5
118
  8
DATA
  6
CONTINUOUS
 62
     7
 10
30.0
 20
-100.0
 30
0.0
 11
43.5
 21
-100.0
 31
0.0
  0
LINE
  5
119
  8
DATA
  6
CONTINUOUS
 62
     7
 10
36.25
 20
-106.0
 30
0.0
 11
36.25
 21
-105.0
 31
0.0
  0
LINE
  5
11A
  8
DATA
  6
CONTINUOUS
 62
     7
 10
37.25
 20
-106.0
 30
0.0
 11
36.25
 21
-106.0
 31
0.0
  0
LINE
  5
11B
  8
DATA
  6
CONTINUOUS
 62
     7
 10
37.25
 20
-105.0
 30
0.0
 11
37.25
 21
-106.0
 31
0.0
  0
LINE
  5
11C
  8
DATA
  6
CONTINUOUS
 62
     7
 10
30.75
 20
-105.0
 30
0.0
 11
42.75
 21
-104.80783588781139
 31
0.0
  0
LINE
  5
11D
  8
DATA
  6
CONTINUOUS
 62
     7
 10
30.75
 20
-104.2
 30
0.0
 11
42.75
 21
-104.0078358878115
 31
0.0
  0
LINE
  5
11E
  8
DATA
  6
CONTINUOUS
 62
     7
 10
30.75
 20
-103.40000000000001
 30
0.0
 11
42.75
 21
-103.2078358878114
 31
0.0
  0
LINE
  5
11F
  8
DATA
  6
CONTINUOUS
 62
     7
 10
30.75
 20
-102.59999999999999
 30
0.0
 11
42.75
 21
-102.4078358878114
 31
0.0
  0
LINE
  5
120
  8
DATA
  6
CONTINUOUS
 62
     7
 10
30.75
 20
-101.8
 30
0.0
 11
42.75
 21
-101.6078358878114
 31
0.0
  0
LINE
  5
121
  8
DATA
  6
CONTINUOUS
 62
     7
 10
30.75
 20
-101.0
 30
0.0
 11
42.75
 21
-100.80783588781139
 31
0.0
  0
LINE
  5
122
  8
DATA
  6
CONTINUOUS
 62
     7
 10
30.75
 20
-100.2
 30
0.0
 11
42.75
 21
-100.0078358878115
 31
0.0
  0
LINE
  5
123
  8
DATA
  6
CONTINUOUS
 62
     7
 10
30.0
 20
-100.0
 30
0.0
 11
30.0
 21
-97.0
 31
0.0
  0
LINE
  5
124
  8
DATA
  6
CONTINUOUS
 62
     7
 10
43.5
 20
-100.0
 30
0.0
 11
43.5
 21
-97.0
 31
0.0
  0
LINE
  5
125
  8
DATA
  6
CONTINUOUS
 62
     7
 10
43.5
 20
-97.0
 30
0.0
 11
30.0
 21
-97.0
 31
0.0
  0
LINE
  5
126
  8
DATA
  6
CONTINUOUS
 62
     7
 10
30.25
 20
-97.0
 30
0.0
 11
30.25
 21
23.0
 31
0.0
  0
LINE
  5
127
  8
DATA
  6
CONTINUOUS
 62
     7
 10
43.25
 20
6.586596076548652
 30
0.0
 11
43.25
 21
-97.0
 31
0.0
  0
LINE
  5
128
  8
DATA
  6
CONTINUOUS
 62
     7
 10
36.75
 20
-69.0
 30
0.0
 11
43.25
 21
-69.0
 31
0.0
  0
LINE
  5
129
  8
DATA
  6
STYLE_01
 62
     7
 10
21.75
 20
-98.895913524449881
 30
0.0
 11
51.75
 21
-98.895913524449881
 31
0.0
  0
LINE
  5
12A
  8
DATA
  6
STYLE_01
 62
     7
 10
21.75
 20
55.698990358985583
 30
0.0
 11
21.75
 21
-98.895913524449924
 31
0.0
  0
LINE
  5
12B
  8
DATA
  6
STYLE_01
 62
     7
 10
51.75
 20
26.68269073782211
 30
0.0
 11
51.75
 21
-98.895913524449924
 31
0.0
  0
LINE
  5
12C
  8
DATA
  6
CONTINUOUS
 62
     7
 10
43.25
 20
6.586596076548652
 30
0.0
 11
30.25
 21
23.000000000000011
 31
0.0
  0
LINE
  5
12D
  8
DATA
  6
STYLE_01
 62
     7
 10
51.75
 20
26.68269073782211
 30
0.0
 11
21.75
 21
55.698990358985583
 31
0.0
  0
LINE
  5
12E
  8
DATA
  6
CONTINUOUS
 62
     7
 10
36.75
 20
14.79329803827433
 30
0.0
 11
36.75
 21
-68.999999999999986
 31
0.0
  0
LINE
  5
12F
  8
DATA
  6
CONTINUOUS
 62
     7
 10
-80.0
 20
60.0
 30
0.0
 11
-56.907540923697397
 21
46.667562536046212
 31
0.0
  0
LINE
  5
130
  8
DATA
  6
CONTINUOUS
 62
     7
 10
-56.907540923697397
 20
46.667562536046212
 30
0.0
 11
-63.22687891330159
 21
48.479603545615532
 31
0.0
  0
LINE
  5
131
  8
DATA
  6
CONTINUOUS
 62
     7
 10
-56.907540923697397
 20
46.667562536046212
 30
0.0
 11
-61.474227653010033
 21
51.39650507783454
 31
0.0
  0
LINE
  5
132
  8
DATA
  6
CONTINUOUS
 62
     7
 10
-80.0
 20
60.0
 30
0.0
 11
-150.0
 21
60.0
 31
0.0
  0
ENDSEC
  0
EOF
