  0
SECTION
  2
HEADER
  9
$ACADVER
  1
AC1009
  9
$INSBASE
 10
0.0
 20
0.0
 30
0.0
  9
$EXTMIN
 10
-35.008239117460562
 20
-64.666962959333432
 30
-0.0015258207003583
  9
$EXTMAX
 10
235.00824037474621
 20
336.77813363551252
 30
0.0000000349246037
  9
$LIMMIN
 10
0.0
 20
0.0
  9
$LIMMAX
 10
0.0
 20
0.0
  9
$ORTHOMODE
 70
     0
  9
$REGENMODE
 70
     1
  9
$FILLMODE
 70
     1
  9
$QTEXTMODE
 70
     0
  9
$MIRRTEXT
 70
     1
  9
$DRAGMODE
 70
     2
  9
$LTSCALE
 40
7.6199999999999983
  9
$OSMODE
 70
   231
  9
$ATTMODE
 70
     1
  9
$TEXTSIZE
 40
0.0
  9
$TRACEWID
 40
1.0
  9
$TEXTSTYLE
  7
STANDARD
  9
$CLAYER
  8
DATA
  9
$CELTYPE
  6
BYLAYER
  9
$CECOLOR
 62
   256
  9
$DIMSCALE
 40
1.0
  9
$DIMASZ
 40
0.18
  9
$DIMEXO
 40
0.0625
  9
$DIMDLI
 40
0.38
  9
$DIMRND
 40
0.0
  9
$DIMDLE
 40
0.0
  9
$DIMEXE
 40
0.18
  9
$DIMTP
 40
0.0
  9
$DIMTM
 40
0.0
  9
$DIMTXT
 40
0.18
  9
$DIMCEN
 40
0.09
  9
$DIMTSZ
 40
0.0
  9
$DIMTOL
 70
     0
  9
$DIMLIM
 70
     0
  9
$DIMTIH
 70
     1
  9
$DIMTOH
 70
     1
  9
$DIMSE1
 70
     0
  9
$DIMSE2
 70
     0
  9
$DIMTAD
 70
     0
  9
$DIMZIN
 70
     0
  9
$DIMBLK
  1

  9
$DIMASO
 70
     1
  9
$DIMSHO
 70
     1
  9
$DIMPOST
  1

  9
$DIMAPOST
  1

  9
$DIMALT
 70
     0
  9
$DIMALTD
 70
     2
  9
$DIMALTF
 40
25.399999999999999
  9
$DIMLFAC
 40
1.0
  9
$DIMTOFL
 70
     0
  9
$DIMTVP
 40
0.0
  9
$DIMTIX
 70
     0
  9
$DIMSOXD
 70
     0
  9
$DIMSAH
 70
     0
  9
$DIMBLK1
  1

  9
$DIMBLK2
  1

  9
$DIMSTYLE
  2
STANDARD
  9
$DIMCLRD
 70
     0
  9
$DIMCLRE
 70
     0
  9
$DIMCLRT
 70
     0
  9
$DIMTFAC
 40
1.0
  9
$DIMGAP
 40
0.09
  9
$LUNITS
 70
     2
  9
$LUPREC
 70
     4
  9
$SKETCHINC
 40
0.1
  9
$FILLETRAD
 40
0.0
  9
$AUNITS
 70
     0
  9
$AUPREC
 70
     0
  9
$MENU
  1
acad
  9
$ELEVATION
 40
0.0
  9
$PELEVATION
 40
0.0
  9
$THICKNESS
 40
0.0
  9
$LIMCHECK
 70
     0
  9
$BLIPMODE
 70
     0
  9
$CHAMFERA
 40
0.0
  9
$CHAMFERB
 40
0.0
  9
$SKPOLY
 70
     0
  9
$TDCREATE
 40
2455037.702326389
  9
$TDUPDATE
 40
2455037.7243598262
  9
$TDINDWG
 40
0.0006741667
  9
$TDUSRTIMER
 40
0.0006674769
  9
$USRTIMER
 70
     1
  9
$ANGBASE
 50
0.0
  9
$ANGDIR
 70
     0
  9
$PDMODE
 70
     1
  9
$PDSIZE
 40
-2.0
  9
$PLINEWID
 40
0.0
  9
$COORDS
 70
     0
  9
$SPLFRAME
 70
     0
  9
$SPLINETYPE
 70
     6
  9
$SPLINESEGS
 70
     8
  9
$ATTDIA
 70
     0
  9
$ATTREQ
 70
     1
  9
$HANDLING
 70
     1
  9
$HANDSEED
  5
291
  9
$SURFTAB1
 70
     6
  9
$SURFTAB2
 70
     6
  9
$SURFTYPE
 70
     6
  9
$SURFU
 70
     6
  9
$SURFV
 70
     6
  9
$UCSNAME
  2

  9
$UCSORG
 10
0.0
 20
0.0
 30
0.0
  9
$UCSXDIR
 10
1.0
 20
0.0
 30
0.0
  9
$UCSYDIR
 10
0.0
 20
1.0
 30
0.0
  9
$PUCSNAME
  2

  9
$PUCSORG
 10
0.0
 20
0.0
 30
0.0
  9
$PUCSXDIR
 10
1.0
 20
0.0
 30
0.0
  9
$PUCSYDIR
 10
0.0
 20
1.0
 30
0.0
  9
$USERI1
 70
     0
  9
$USERI2
 70
     0
  9
$USERI3
 70
     0
  9
$USERI4
 70
     0
  9
$USERI5
 70
     0
  9
$USERR1
 40
0.0
  9
$USERR2
 40
0.0
  9
$USERR3
 40
0.0
  9
$USERR4
 40
0.0
  9
$USERR5
 40
0.0
  9
$WORLDVIEW
 70
     1
  9
$SHADEDGE
 70
     3
  9
$SHADEDIF
 70
    70
  9
$TILEMODE
 70
     1
  9
$MAXACTVP
 70
    64
  9
$PLIMCHECK
 70
     0
  9
$PEXTMIN
 10
1.0000000000000000E+020
 20
1.0000000000000000E+020
 30
1.0000000000000000E+020
  9
$PEXTMAX
 10
-1.0000000000000000E+020
 20
-1.0000000000000000E+020
 30
-1.0000000000000000E+020
  9
$PLIMMIN
 10
0.0
 20
0.0
  9
$PLIMMAX
 10
12.0
 20
9.0
  9
$UNITMODE
 70
     0
  9
$VISRETAIN
 70
     0
  9
$PLINEGEN
 70
     1
  9
$PSLTSCALE
 70
     0
  0
ENDSEC
  0
SECTION
  2
TABLES
  0
TABLE
  2
VPORT
 70
     1
  0
VPORT
  2
*ACTIVE
 70
     0
 10
0.0
 20
0.0
 11
1.0
 21
1.0
 12
100.00000062864279
 22
136.05558533808949
 13
0.0
 23
0.0
 14
1.0
 24
1.0
 15
0.0
 25
0.0
 16
0.0
 26
0.0
 36
1.0
 17
0.0
 27
0.0
 37
0.0
 40
404.40415136090132
 41
1.964329643296433
 42
50.0
 43
0.0
 44
0.0
 50
0.0
 51
0.0
 71
     0
 72
  2000
 73
     1
 74
     1
 75
     0
 76
     0
 77
     0
 78
     0
  0
ENDTAB
  0
TABLE
  2
LTYPE
 70
    11
  0
LTYPE
  2
CONTINUOUS
 70
     0
  3
Solid line
 72
    65
 73
     0
 40
0.0
  0
LTYPE
  2
STYLE_01
 70
     0
  3

 72
    65
 73
     2
 40
0.4166412353515625
 49
0.208282470703125
 49
-0.2083587646484375
  0
ENDTAB
  0
TABLE
  2
LAYER
 70
     5
  0
LAYER
  2
0
 70
     0
 62
     7
  6
CONTINUOUS
  0
LAYER
  2
DATA
 70
     0
 62
     7
  6
CONTINUOUS
  0
LAYER
  2
HIBINO-BASE
 70
     0
 62
     7
  6
CONTINUOUS
  0
LAYER
  2
SPEC
 70
     0
 62
     7
  6
CONTINUOUS
  0
LAYER
  2
DIMNSIONS
 70
     0
 62
     7
  6
CONTINUOUS
  0
ENDTAB
  0
TABLE
  2
STYLE
 70
     3
  0
STYLE
  2
STANDARD
 70
     0
 40
0.0
 41
1.0
 50
0.0
 71
     0
 42
0.0
  3
txt
  4
BIGFONT.SHX
  0
ENDTAB
  0
TABLE
  2
VIEW
 70
     0
  0
ENDTAB
  0
TABLE
  2
UCS
 70
     0
  0
ENDTAB
  0
TABLE
  2
APPID
 70
     3
  0
APPID
  2
ACAD
 70
     0
  0
APPID
  2
ACADANNOTATIVE
 70
     0
  0
APPID
  2
ACAD_MLEADERVER
 70
     0
  0
ENDTAB
  0
TABLE
  2
DIMSTYLE
 70
     2
  0
DIMSTYLE
  2
STANDARD
 70
     0
  3

  4

  5

  6

  7

 40
1.0
 41
0.18
 42
0.0625
 43
0.38
 44
0.18
 45
0.0
 46
0.0
 47
0.0
 48
0.0
140
0.18
141
0.09
142
0.0
143
25.399999999999999
144
1.0
145
0.0
146
1.0
147
0.09
 71
     0
 72
     0
 73
     1
 74
     1
 75
     0
 76
     0
 77
     0
 78
     0
170
     0
171
     2
172
     0
173
     0
174
     0
175
     0
176
     0
177
     0
178
     0
  0
ENDTAB
  0
ENDSEC
  0
SECTION
  2
BLOCKS
  0
BLOCK
  8
0
  2
$MODEL_SPACE
 70
     0
 10
0.0
 20
0.0
 30
0.0
  3
$MODEL_SPACE
  1

  0
ENDBLK
  5
1EC
  8
0
  0
BLOCK
 67
     1
  8
0
  2
$PAPER_SPACE
 70
     0
 10
0.0
 20
0.0
 30
0.0
  3
$PAPER_SPACE
  1

  0
ENDBLK
  5
1E8
 67
     1
  8
0
  0
ENDSEC
  0
SECTION
  2
ENTITIES
  0
LINE
  5
2C
  8
HIBINO-BASE
  6
CONTINUOUS
 62
     7
 10
-34.999999999999993
 20
336.76590750000008
 30
0.0
 11
235.0
 21
336.76590750000008
 31
0.0
  0
LINE
  5
2D
  8
HIBINO-BASE
  6
CONTINUOUS
 62
     7
 10
235.0
 20
-53.234092500000003
 30
0.0
 11
-34.999999999999993
 21
-53.234092500000003
 31
0.0
  0
LINE
  5
2E
  8
HIBINO-BASE
  6
CONTINUOUS
 62
     7
 10
-34.999999999999993
 20
-53.234092500000003
 30
0.0
 11
-34.999999999999993
 21
336.76590750000008
 31
0.0
  0
TEXT
  5
2F
  8
HIBINO-BASE
 62
     7
 10
-24.224
 20
-62.847109199999991
 30
0.0
 40
5.4000662695312487
  1
Hibino Corporation
 41
0.7
 11
-24.224
 21
-57.44704293046874
 31
0.0
 73
     3
  0
LINE
  5
30
  8
HIBINO-BASE
  6
CONTINUOUS
 62
     7
 10
235.0
 20
336.76590750000008
 30
0.0
 11
235.0
 21
-53.234092500000003
 31
0.0
  0
LINE
  5
31
  8
HIBINO-BASE
  6
CONTINUOUS
 62
     7
 10
100.0
 20
-19.484092499999971
 30
0.0
 11
235.0
 21
-19.484092499999971
 31
0.0
  0
LINE
  5
32
  8
HIBINO-BASE
  6
CONTINUOUS
 62
     7
 10
100.0
 20
-53.234092500000003
 30
0.0
 11
100.0
 21
-19.484092499999971
 31
0.0
  0
TEXT
  5
33
  8
HIBINO-BASE
 62
     7
 10
101.34999999999999
 20
-23.247132499999999
 30
0.0
 40
2.4432617187500001
  1
NOTE
 41
0.7
 11
101.34999999999999
 21
-20.803870781250001
 31
0.0
 73
     3
  0
LINE
  5
34
  8
HIBINO-BASE
  6
CONTINUOUS
 62
     7
 10
152.5
 20
-53.234092500000003
 30
0.0
 11
152.5
 21
-19.484092499999971
 31
0.0
  0
TEXT
  5
35
  8
HIBINO-BASE
 62
     7
 10
153.84999999999991
 20
-23.247132499999999
 30
0.0
 40
2.4432617187500001
  1
TITLE
 41
0.7
 11
153.84999999999991
 21
-20.803870781250001
 31
0.0
 73
     3
  0
TEXT
  5
36
  8
HIBINO-BASE
 62
     7
 10
175.10258499999989
 20
-62.847109199999991
 30
0.0
 40
5.4000662695312487
  1
ヒビノ株式会社
 41
0.7
 11
175.10258499999989
 21
-57.44704293046874
 31
0.0
 73
     3
  0
LINE
  5
37
  8
HIBINO-BASE
  6
CONTINUOUS
 62
     7
 10
100.0
 20
-38.234092499999967
 30
0.0
 11
235.0
 21
-38.234092499999967
 31
0.0
  0
TEXT
  5
38
  8
HIBINO-BASE
 62
     7
 10
172.59999999999991
 20
-41.912652499999979
 30
0.0
 40
2.4432617187500001
  1
DRAWN
 41
0.7
 11
172.59999999999991
 21
-39.469390781249977
 31
0.0
 73
     3
  0
TEXT
  5
39
  8
HIBINO-BASE
 62
     7
 10
135.09999999999991
 20
-41.912652499999979
 30
0.0
 40
2.4432617187500001
  1
DATE
 41
0.7
 11
135.09999999999991
 21
-39.469390781249977
 31
0.0
 73
     3
  0
TEXT
  5
3A
  8
HIBINO-BASE
 62
     7
 10
120.09999999999999
 20
-41.912652499999979
 30
0.0
 40
2.4432617187500001
  1
SCALE
 41
0.7
 11
120.09999999999999
 21
-39.469390781249977
 31
0.0
 73
     3
  0
TEXT
  5
3B
  8
HIBINO-BASE
 62
     7
 10
153.84999999999991
 20
-41.912652499999979
 30
0.0
 40
2.4432617187500001
  1
DESIGN
 41
0.7
 11
153.84999999999991
 21
-39.469390781249977
 31
0.0
 73
     3
  0
TEXT
  5
3C
  8
HIBINO-BASE
 62
     7
 10
210.09999999999999
 20
-41.912652499999979
 30
0.0
 40
2.4432617187500001
  1
DRAWING NO.
 41
0.7
 11
210.09999999999999
 21
-39.469390781249977
 31
0.0
 73
     3
  0
TEXT
  5
3D
  8
HIBINO-BASE
 62
     7
 10
191.34999999999999
 20
-41.912652499999979
 30
0.0
 40
2.4432617187500001
  1
CHECK
 41
0.7
 11
191.34999999999999
 21
-39.469390781249977
 31
0.0
 73
     3
  0
LINE
  5
3E
  8
HIBINO-BASE
  6
CONTINUOUS
 62
     7
 10
121.5625
 20
-51.359092500000003
 30
0.0
 11
127.1875
 21
-45.734092499999967
 31
0.0
  0
TEXT
  5
3F
  8
HIBINO-BASE
 62
     7
 10
120.625
 20
-47.397507500000003
 30
0.0
 40
2.4432617187500001
  1
1
 41
0.7
 11
120.625
 21
-44.954245781250002
 31
0.0
 73
     3
  0
LINE
  5
40
  8
HIBINO-BASE
  6
CONTINUOUS
 62
     7
 10
118.75
 20
-53.234092500000003
 30
0.0
 11
118.75
 21
-38.234092499999967
 31
0.0
  0
LINE
  5
41
  8
HIBINO-BASE
  6
CONTINUOUS
 62
     7
 10
133.74999999999989
 20
-53.234092500000003
 30
0.0
 11
133.74999999999989
 21
-38.234092499999967
 31
0.0
  0
LINE
  5
42
  8
HIBINO-BASE
  6
CONTINUOUS
 62
     7
 10
171.24999999999989
 20
-38.234092499999967
 30
0.0
 11
171.24999999999989
 21
-53.234092500000003
 31
0.0
  0
LINE
  5
43
  8
HIBINO-BASE
  6
CONTINUOUS
 62
     7
 10
208.75
 20
-38.234092499999967
 30
0.0
 11
208.75
 21
-53.234092500000003
 31
0.0
  0
LINE
  5
44
  8
HIBINO-BASE
  6
CONTINUOUS
 62
     7
 10
190.0
 20
-53.234092500000003
 30
0.0
 11
190.0
 21
-38.234092499999967
 31
0.0
  0
TEXT
  5
45
  8
HIBINO-BASE
 62
     7
 10
135.03480999999999
 20
-48.938622500000022
 30
0.0
 40
2.4432617187500001
  1
'09.07.
 41
0.7
 11
135.03480999999999
 21
-46.495360781250007
 31
0.0
 73
     3
  0
TEXT
  5
46
  8
HIBINO-BASE
 62
     7
 10
126.25
 20
-50.210007500000003
 30
0.0
 40
2.4432617187500001
  1
1.5
 41
0.7
 11
126.25
 21
-47.766745781250002
 31
0.0
 73
     3
  0
TEXT
  5
47
  8
HIBINO-BASE
 62
     7
 10
173.508715016552
 20
-48.938622500000022
 30
0.0
 40
2.4432617187500001
  1
N.Sasaki
 41
0.7
 11
173.508715016552
 21
-46.495360781250007
 31
0.0
 73
     3
  0
TEXT
  5
48
  8
HIBINO-BASE
 62
     7
 10
105.825
 20
-50.270092499999983
 30
0.0
 40
4.8865234374999993
  1
A4
 41
0.7
 11
105.825
 21
-45.38356906249998
 31
0.0
 73
     3
  0
TEXT
  5
49
  8
HIBINO-BASE
 62
     7
 10
101.4375
 20
-42.163274999999999
 30
0.0
 40
2.4432617187500001
  1
PAPER SIZE
 41
0.7
 11
101.4375
 21
-39.720013281249997
 31
0.0
 73
     3
  0
LINE
  5
4A
  8
SPEC
  6
CONTINUOUS
 62
     7
 10
-23.749999999999989
 20
321.76590750000003
 30
0.0
 11
197.5
 21
321.76590750000003
 31
0.0
  0
LINE
  5
4B
  8
SPEC
  6
CONTINUOUS
 62
     7
 10
-23.749999999999989
 20
316.14090750000003
 30
0.0
 11
197.5
 21
316.14090750000003
 31
0.0
  0
LINE
  5
4C
  8
SPEC
  6
CONTINUOUS
 62
     7
 10
-23.749999999999989
 20
299.26590750000003
 30
0.0
 11
197.5
 21
299.26590750000003
 31
0.0
  0
LINE
  5
4D
  8
SPEC
  6
CONTINUOUS
 62
     7
 10
-23.749999999999989
 20
310.51590750000003
 30
0.0
 11
197.5
 21
310.51590750000003
 31
0.0
  0
LINE
  5
4E
  8
SPEC
  6
CONTINUOUS
 62
     7
 10
-23.749999999999989
 20
282.39090750000008
 30
0.0
 11
197.5
 21
282.39090750000008
 31
0.0
  0
LINE
  5
4F
  8
SPEC
  6
CONTINUOUS
 62
     7
 10
-23.749999999999989
 20
288.01590750000003
 30
0.0
 11
197.5
 21
288.01590750000003
 31
0.0
  0
LINE
  5
50
  8
SPEC
  6
CONTINUOUS
 62
     7
 10
-23.749999999999989
 20
321.76590750000003
 30
0.0
 11
-23.749999999999989
 21
282.39090750000008
 31
0.0
  0
TEXT
  5
51
  8
SPEC
 62
     7
 10
-21.874999999999989
 20
323.85581250000013
 30
0.0
 40
3.664892578124999
  1
仕様
 41
0.7
 11
-21.874999999999989
 21
327.5207050781251
 31
0.0
 73
     3
  0
LINE
  5
52
  8
SPEC
  6
CONTINUOUS
 62
     7
 10
25.0
 20
321.76590750000003
 30
0.0
 11
25.0
 21
282.39090750000008
 31
0.0
  0
LINE
  5
53
  8
SPEC
  6
CONTINUOUS
 62
     7
 10
197.5
 20
321.76590750000003
 30
0.0
 11
197.5
 21
282.39090750000008
 31
0.0
  0
TEXT
  5
54
  8
SPEC
 62
     7
 10
-22.48795677188237
 20
289.55461125419617
 30
0.0
 40
2.8504720052083319
  1
寸法
 41
0.7
 11
-22.48795677188237
 21
292.40508325940459
 31
0.0
 73
     3
  0
TEXT
  5
55
  8
SPEC
 62
     7
 10
-22.43903036080636
 20
283.96808777473012
 30
0.0
 40
2.8504720052083319
  1
重量
 41
0.7
 11
-22.43903036080636
 21
286.81855977993848
 31
0.0
 73
     3
  0
TEXT
  5
56
  8
SPEC
 62
     7
 10
-22.458869251927162
 20
295.14656505226588
 30
0.0
 40
2.8504720052083319
  1
電源
 41
0.7
 11
-22.458869251927162
 21
297.9970370574743
 31
0.0
 73
     3
  0
TEXT
  5
57
  8
SPEC
 62
     7
 10
26.42702237056622
 20
294.82278416666662
 30
0.0
 40
2.8504720052083319
  1
DC8V ※アンテナ分配器(PS 4000 W)またはリモートパワーサプライ(ASU 4000)から供給
 41
0.7
 11
26.42702237056622
 21
297.67325617187493
 31
0.0
 73
     3
  0
TEXT
  5
58
  8
SPEC
 62
     7
 10
26.436923618877799
 20
306.36252956292577
 30
0.0
 40
2.8504720052083319
  1
RF入力:BNC(50\U+03A9)\U+00D71
 41
0.7
 11
26.436923618877799
 21
309.21300156813419
 31
0.0
 73
     3
  0
TEXT
  5
59
  8
SPEC
 62
     7
 10
26.362796677799349
 20
283.94888782284761
 30
0.0
 40
2.8504720052083319
  1
約160g
 41
0.7
 11
26.362796677799349
 21
286.79935982805591
 31
0.0
 73
     3
  0
TEXT
  5
5A
  8
SPEC
 62
     7
 10
26.446126404060539
 20
289.20278416666662
 30
0.0
 40
2.8504720052083319
  1
50(W)\U+00D750(H)\U+00D753(D)mm(突起部含まず)
 41
0.7
 11
26.446126404060539
 21
292.05325617187492
 31
0.0
 73
     3
  0
TEXT
  5
5B
  8
SPEC
 62
     7
 10
-22.400000000000009
 20
317.47042174781541
 30
0.0
 40
2.8504720052083319
  1
対応周波数帯域
 41
0.7
 11
-22.400000000000009
 21
320.32089375302382
 31
0.0
 73
     3
  0
TEXT
  5
5C
  8
SPEC
 62
     7
 10
26.427448243593151
 20
317.374416329062
 30
0.0
 40
2.8504720052083319
  1
500～865MHz(B型 ・A型・A2型)
 41
0.7
 11
26.427448243593151
 21
320.22488833427042
 31
0.0
 73
     3
  0
TEXT
  5
5D
  8
SPEC
 62
     7
 10
-22.488582548689291
 20
311.87494926404531
 30
0.0
 40
2.8504720052083319
  1
ゲイン
 41
0.7
 11
-22.488582548689291
 21
314.72542126925362
 31
0.0
 73
     3
  0
TEXT
  5
5E
  8
SPEC
 62
     7
 10
-22.694810345112931
 20
306.07278416666662
 30
0.0
 40
2.8504720052083319
  1
コネクター
 41
0.7
 11
-22.694810345112931
 21
308.92325617187493
 31
0.0
 73
     3
  0
TEXT
  5
5F
  8
SPEC
 62
     7
 10
26.466172365389781
 20
312.01725817148838
 30
0.0
 40
2.8504720052083319
  1
3.5～17.5dB,8段階切り替え
 41
0.7
 11
26.466172365389781
 21
314.8677301766968
 31
0.0
 73
     3
  0
TEXT
  5
60
  8
SPEC
 62
     7
 10
26.48038542831668
 20
301.24682059587491
 30
0.0
 40
2.8504720052083319
  1
RF出力:BNC(50\U+03A9)\U+00D71
 41
0.7
 11
26.48038542831668
 21
304.09729260108332
 31
0.0
 73
     3
  0
LINE
  5
61
  8
SPEC
  6
CONTINUOUS
 62
     7
 10
-23.749999999999989
 20
293.64590750000002
 30
0.0
 11
197.5
 21
293.64590750000002
 31
0.0
  0
TEXT
  5
62
  8
DIMNSIONS
 62
     7
 10
69.999999999999986
 20
-34.829857500000003
 30
0.0
 40
3.664892578124999
  1
(単位：mm)
 41
0.7
 11
69.999999999999986
 21
-31.164964921875001
 31
0.0
 73
     3
  0
LINE
  5
63
  8
DIMNSIONS
  6
CONTINUOUS
 62
     7
 10
25.0
 20
22.0
 30
0.0
 11
25.0
 21
9.5
 31
0.0
  0
LINE
  5
64
  8
DIMNSIONS
  6
CONTINUOUS
 62
     7
 10
75.0
 20
22.0
 30
0.0
 11
75.0
 21
9.5
 31
0.0
  0
LINE
  5
65
  8
DIMNSIONS
  6
CONTINUOUS
 62
     7
 10
25.0
 20
12.5
 30
0.0
 11
75.0
 21
12.5
 31
0.0
  0
LINE
  5
66
  8
DIMNSIONS
  6
CONTINUOUS
 62
     7
 10
25.0
 20
12.5
 30
0.0
 11
28.750933837890631
 21
13.50505969272537
 31
0.0
  0
LINE
  5
67
  8
DIMNSIONS
  6
CONTINUOUS
 62
     7
 10
25.0
 20
12.5
 30
0.0
 11
28.750933837890631
 21
11.494940307274639
 31
0.0
  0
LINE
  5
68
  8
DIMNSIONS
  6
CONTINUOUS
 62
     7
 10
75.0
 20
12.5
 30
0.0
 11
71.249066162109372
 21
11.494940307274639
 31
0.0
  0
LINE
  5
69
  8
DIMNSIONS
  6
CONTINUOUS
 62
     7
 10
75.0
 20
12.5
 30
0.0
 11
71.249066162109372
 21
13.50505969272537
 31
0.0
  0
TEXT
  5
6A
  8
DIMNSIONS
 62
     7
 10
47.35416666666665
 20
13.99083333333334
 30
0.0
 40
4.072102864583333
  1
50
 41
0.7
 11
47.35416666666665
 21
18.06293619791667
 31
0.0
 73
     3
  0
LINE
  5
6B
  8
DIMNSIONS
  6
CONTINUOUS
 62
     7
 10
22.0
 20
25.0
 30
0.0
 11
9.5
 21
25.0
 31
0.0
  0
LINE
  5
6C
  8
DIMNSIONS
  6
CONTINUOUS
 62
     7
 10
22.0
 20
75.0
 30
0.0
 11
9.5
 21
75.0
 31
0.0
  0
LINE
  5
6D
  8
DIMNSIONS
  6
CONTINUOUS
 62
     7
 10
12.5
 20
25.0
 30
0.0
 11
12.5
 21
75.0
 31
0.0
  0
LINE
  5
6E
  8
DIMNSIONS
  6
CONTINUOUS
 62
     7
 10
12.5
 20
25.0
 30
0.0
 11
11.49494030727463
 21
28.750933837890631
 31
0.0
  0
LINE
  5
6F
  8
DIMNSIONS
  6
CONTINUOUS
 62
     7
 10
12.5
 20
25.0
 30
0.0
 11
13.50505969272537
 21
28.750933837890631
 31
0.0
  0
LINE
  5
70
  8
DIMNSIONS
  6
CONTINUOUS
 62
     7
 10
12.5
 20
75.0
 30
0.0
 11
13.50505969272537
 21
71.249066162109372
 31
0.0
  0
LINE
  5
71
  8
DIMNSIONS
  6
CONTINUOUS
 62
     7
 10
12.5
 20
75.0
 30
0.0
 11
11.49494030727463
 21
71.249066162109372
 31
0.0
  0
TEXT
  5
72
  8
DIMNSIONS
 62
     7
 10
11.009166666666671
 20
47.354166666666671
 30
0.0
 40
4.072102864583333
  1
50
 50
90.0
 41
0.7
 11
6.9370638020833431
 21
47.354166666666671
 31
0.0
 73
     3
  0
LINE
  5
73
  8
DIMNSIONS
  6
CONTINUOUS
 62
     7
 10
22.0
 20
100.0
 30
0.0
 11
9.5
 21
100.0
 31
0.0
  0
LINE
  5
74
  8
DIMNSIONS
  6
CONTINUOUS
 62
     7
 10
22.0
 20
153.0
 30
0.0
 11
9.5
 21
153.0
 31
0.0
  0
LINE
  5
75
  8
DIMNSIONS
  6
CONTINUOUS
 62
     7
 10
12.5
 20
100.0
 30
0.0
 11
12.5
 21
153.0
 31
0.0
  0
LINE
  5
76
  8
DIMNSIONS
  6
CONTINUOUS
 62
     7
 10
12.5
 20
100.0
 30
0.0
 11
11.49494030727463
 21
103.7509338378906
 31
0.0
  0
LINE
  5
77
  8
DIMNSIONS
  6
CONTINUOUS
 62
     7
 10
12.5
 20
100.0
 30
0.0
 11
13.50505969272537
 21
103.7509338378906
 31
0.0
  0
LINE
  5
78
  8
DIMNSIONS
  6
CONTINUOUS
 62
     7
 10
12.5
 20
153.0
 30
0.0
 11
13.50505969272537
 21
149.24906616210939
 31
0.0
  0
LINE
  5
79
  8
DIMNSIONS
  6
CONTINUOUS
 62
     7
 10
12.5
 20
153.0
 30
0.0
 11
11.49494030727463
 21
149.24906616210939
 31
0.0
  0
TEXT
  5
7A
  8
DIMNSIONS
 62
     7
 10
11.009166666666671
 20
123.8541666666667
 30
0.0
 40
4.072102864583333
  1
53
 50
90.0
 41
0.7
 11
6.9370638020833431
 21
123.8541666666667
 31
0.0
 73
     3
  0
LINE
  5
7B
  8
DIMNSIONS
  6
CONTINUOUS
 62
     7
 10
50.219999999999999
 20
84.0
 30
0.0
 11
9.5
 21
84.0
 31
0.0
  0
LINE
  5
7C
  8
DIMNSIONS
  6
CONTINUOUS
 62
     7
 10
22.0
 20
100.0
 30
0.0
 11
9.5
 21
100.0
 31
0.0
  0
LINE
  5
7D
  8
DIMNSIONS
  6
CONTINUOUS
 62
     7
 10
12.5
 20
84.0
 30
0.0
 11
12.5
 21
100.0
 31
0.0
  0
LINE
  5
7E
  8
DIMNSIONS
  6
CONTINUOUS
 62
     7
 10
12.5
 20
84.0
 30
0.0
 11
11.49494030727463
 21
87.750933837890614
 31
0.0
  0
LINE
  5
7F
  8
DIMNSIONS
  6
CONTINUOUS
 62
     7
 10
12.5
 20
84.0
 30
0.0
 11
13.50505969272537
 21
87.750933837890614
 31
0.0
  0
LINE
  5
80
  8
DIMNSIONS
  6
CONTINUOUS
 62
     7
 10
12.5
 20
100.0
 30
0.0
 11
13.50505969272537
 21
96.249066162109344
 31
0.0
  0
LINE
  5
81
  8
DIMNSIONS
  6
CONTINUOUS
 62
     7
 10
12.5
 20
100.0
 30
0.0
 11
11.49494030727463
 21
96.249066162109344
 31
0.0
  0
TEXT
  5
82
  8
DIMNSIONS
 62
     7
 10
11.009166666666671
 20
89.354166666666657
 30
0.0
 40
4.072102864583333
  1
16
 50
90.0
 41
0.7
 11
6.9370638020833431
 21
89.354166666666657
 31
0.0
 73
     3
  0
LINE
  5
83
  8
DIMNSIONS
  6
CONTINUOUS
 62
     7
 10
22.0
 20
153.0
 30
0.0
 11
9.5
 21
153.0
 31
0.0
  0
LINE
  5
84
  8
DIMNSIONS
  6
CONTINUOUS
 62
     7
 10
42.219999999999999
 20
169.0
 30
0.0
 11
9.5
 21
169.0
 31
0.0
  0
LINE
  5
85
  8
DIMNSIONS
  6
CONTINUOUS
 62
     7
 10
12.5
 20
153.0
 30
0.0
 11
12.5
 21
169.0
 31
0.0
  0
LINE
  5
86
  8
DIMNSIONS
  6
CONTINUOUS
 62
     7
 10
12.5
 20
153.0
 30
0.0
 11
11.49494030727463
 21
156.75093383789061
 31
0.0
  0
LINE
  5
87
  8
DIMNSIONS
  6
CONTINUOUS
 62
     7
 10
12.5
 20
153.0
 30
0.0
 11
13.50505969272537
 21
156.75093383789061
 31
0.0
  0
LINE
  5
88
  8
DIMNSIONS
  6
CONTINUOUS
 62
     7
 10
12.5
 20
169.0
 30
0.0
 11
13.50505969272537
 21
165.24906616210939
 31
0.0
  0
LINE
  5
89
  8
DIMNSIONS
  6
CONTINUOUS
 62
     7
 10
12.5
 20
169.0
 30
0.0
 11
11.49494030727463
 21
165.24906616210939
 31
0.0
  0
TEXT
  5
8A
  8
DIMNSIONS
 62
     7
 10
11.009166666666671
 20
158.3541666666666
 30
0.0
 40
4.072102864583333
  1
16
 50
90.0
 41
0.7
 11
6.9370638020833431
 21
158.3541666666666
 31
0.0
 73
     3
  0
LINE
  5
8B
  8
DIMNSIONS
  6
CONTINUOUS
 62
     7
 10
22.0
 20
100.0
 30
0.0
 11
15.75
 21
100.0
 31
0.0
  0
LINE
  5
8C
  8
DIMNSIONS
  6
CONTINUOUS
 62
     7
 10
22.0
 20
102.0
 30
0.0
 11
15.75
 21
102.0
 31
0.0
  0
LINE
  5
8D
  8
DIMNSIONS
  6
CONTINUOUS
 62
     7
 10
18.75
 20
102.0
 30
0.0
 11
18.75
 21
100.0
 31
0.0
  0
LINE
  5
8E
  8
DIMNSIONS
  6
CONTINUOUS
 62
     7
 10
18.75
 20
100.0
 30
0.0
 11
18.75
 21
92.5
 31
0.0
  0
LINE
  5
8F
  8
DIMNSIONS
  6
CONTINUOUS
 62
     7
 10
18.75
 20
100.0
 30
0.0
 11
19.755059692725371
 21
96.249066162109344
 31
0.0
  0
LINE
  5
90
  8
DIMNSIONS
  6
CONTINUOUS
 62
     7
 10
18.75
 20
100.0
 30
0.0
 11
17.744940307274629
 21
96.249066162109344
 31
0.0
  0
LINE
  5
91
  8
DIMNSIONS
  6
CONTINUOUS
 62
     7
 10
18.75
 20
102.0
 30
0.0
 11
18.75
 21
108.8958333333333
 31
0.0
  0
LINE
  5
92
  8
DIMNSIONS
  6
CONTINUOUS
 62
     7
 10
18.75
 20
102.0
 30
0.0
 11
17.744940307274629
 21
105.7509338378906
 31
0.0
  0
LINE
  5
93
  8
DIMNSIONS
  6
CONTINUOUS
 62
     7
 10
18.75
 20
102.0
 30
0.0
 11
19.755059692725371
 21
105.7509338378906
 31
0.0
  0
TEXT
  5
94
  8
DIMNSIONS
 62
     7
 10
17.259166666666658
 20
106.25
 30
0.0
 40
4.072102864583333
  1
2
 50
90.0
 41
0.7
 11
13.18706380208333
 21
106.25
 31
0.0
 73
     3
  0
LINE
  5
95
  8
DIMNSIONS
  6
CONTINUOUS
 62
     7
 10
22.0
 20
151.0
 30
0.0
 11
15.75
 21
151.0
 31
0.0
  0
LINE
  5
96
  8
DIMNSIONS
  6
CONTINUOUS
 62
     7
 10
22.0
 20
153.0
 30
0.0
 11
15.75
 21
153.0
 31
0.0
  0
LINE
  5
97
  8
DIMNSIONS
  6
CONTINUOUS
 62
     7
 10
18.75
 20
153.0
 30
0.0
 11
18.75
 21
151.0
 31
0.0
  0
LINE
  5
98
  8
DIMNSIONS
  6
CONTINUOUS
 62
     7
 10
18.75
 20
151.0
 30
0.0
 11
18.75
 21
141.1041666666666
 31
0.0
  0
LINE
  5
99
  8
DIMNSIONS
  6
CONTINUOUS
 62
     7
 10
18.75
 20
151.0
 30
0.0
 11
19.755059692725371
 21
147.24906616210939
 31
0.0
  0
LINE
  5
9A
  8
DIMNSIONS
  6
CONTINUOUS
 62
     7
 10
18.75
 20
151.0
 30
0.0
 11
17.744940307274629
 21
147.24906616210939
 31
0.0
  0
LINE
  5
9B
  8
DIMNSIONS
  6
CONTINUOUS
 62
     7
 10
18.75
 20
153.0
 30
0.0
 11
18.75
 21
160.5
 31
0.0
  0
LINE
  5
9C
  8
DIMNSIONS
  6
CONTINUOUS
 62
     7
 10
18.75
 20
153.0
 30
0.0
 11
17.744940307274629
 21
156.75093383789061
 31
0.0
  0
LINE
  5
9D
  8
DIMNSIONS
  6
CONTINUOUS
 62
     7
 10
18.75
 20
153.0
 30
0.0
 11
19.755059692725371
 21
156.75093383789061
 31
0.0
  0
TEXT
  5
9E
  8
DIMNSIONS
 62
     7
 10
17.259166666666658
 20
141.1041666666666
 30
0.0
 40
4.072102864583333
  1
2
 50
90.0
 41
0.7
 11
13.18706380208333
 21
141.1041666666666
 31
0.0
 73
     3
  0
TEXT
  5
9F
  8
DATA
 62
     7
 10
175.0
 20
-36.537757499999991
 30
0.0
 40
3.664892578124999
  1
AB 4000
 41
0.7
 11
175.0
 21
-32.872864921874999
 31
0.0
 73
     3
  0
TEXT
  5
A0
  8
DATA
 62
     7
 10
175.0
 20
-25.662757499999991
 30
0.0
 40
3.664892578124999
  1
AKG
 41
0.7
 11
175.0
 21
-21.997864921874989
 31
0.0
 73
     3
  0
TEXT
  5
A1
  8
DATA
 62
     7
 10
171.24999999999989
 20
-30.878191799999978
 30
0.0
 40
2.4432655664062488
  1
アンテナブースター
 41
0.7
 11
171.24999999999989
 21
-28.434926233593728
 31
0.0
 73
     3
  0
TEXT
  5
A2
  8
DATA
 62
     7
 10
-19.999999999999979
 20
-46.87709250000001
 30
0.0
 40
2.4432617187500001
  1
仕様および外観は予告なく変更されることがありますので、ご了承ください。
 41
0.7
 11
-19.999999999999979
 21
-44.433830781250009
 31
0.0
 73
     3
  0
LINE
  5
A3
  8
DATA
  6
CONTINUOUS
 62
     7
 10
25.0
 20
28.0
 30
0.0
 11
25.0
 21
72.0
 31
0.0
  0
LINE
  5
A4
  8
DATA
  6
CONTINUOUS
 62
     7
 10
72.0
 20
25.0
 30
0.0
 11
28.0
 21
25.0
 31
0.0
  0
LINE
  5
A5
  8
DATA
  6
CONTINUOUS
 62
     7
 10
75.0
 20
72.0
 30
0.0
 11
75.0
 21
28.0
 31
0.0
  0
LINE
  5
A6
  8
DATA
  6
CONTINUOUS
 62
     7
 10
28.0
 20
75.0
 30
0.0
 11
72.0
 21
75.0
 31
0.0
  0
CIRCLE
  5
A7
  8
DATA
  6
CONTINUOUS
 62
     7
 10
58.0
 20
50.0
 30
0.0
 40
8.0
  0
CIRCLE
  5
A8
  8
DATA
  6
CONTINUOUS
 62
     7
 10
58.0
 20
50.0
 30
0.0
 40
4.7800000000000011
  0
CIRCLE
  5
A9
  8
DATA
  6
CONTINUOUS
 62
     7
 10
42.17116164065353
 20
54.0
 30
0.0
 40
7.9999999999999769
  0
CIRCLE
  5
AA
  8
DATA
  6
CONTINUOUS
 62
     7
 10
58.0
 20
50.0
 30
0.0
 40
2.5
  0
CIRCLE
  5
AB
  8
DATA
  6
CONTINUOUS
 62
     7
 10
58.0
 20
50.0
 30
0.0
 40
0.5
  0
CIRCLE
  5
AC
  8
DATA
  6
CONTINUOUS
 62
     7
 10
68.309114429115425
 20
50.0
 30
0.0
 40
2.0
  0
LINE
  5
AD
  8
DATA
  6
CONTINUOUS
 62
     7
 10
66.907943459314026
 20
50.0
 30
0.0
 11
69.71028539891681
 21
50.0
 31
0.0
  0
LINE
  5
AE
  8
DATA
  6
CONTINUOUS
 62
     7
 10
68.309114429115425
 20
48.598829030198573
 30
0.0
 11
68.309114429115425
 21
51.401170969801413
 31
0.0
  0
POLYLINE
  5
AF
  8
DATA
  6
CONTINUOUS
 62
     7
 66
     1
 10
0.0
 20
0.0
 30
0.0
  0
VERTEX
  5
218
  8
DATA
  6
CONTINUOUS
 62
     7
 10
53.325772791145098
 20
49.0
 30
0.0
  0
VERTEX
  5
219
  8
DATA
  6
CONTINUOUS
 62
     7
 10
52.5
 20
49.0
 30
0.0
  0
VERTEX
  5
21A
  8
DATA
  6
CONTINUOUS
 62
     7
 10
52.5
 20
51.0
 30
0.0
  0
VERTEX
  5
21B
  8
DATA
  6
CONTINUOUS
 62
     7
 10
53.325772791145098
 20
51.0
 30
0.0
  0
SEQEND
  5
21C
  8
DATA
  6
CONTINUOUS
 62
     7
  0
POLYLINE
  5
B6
  8
DATA
  6
CONTINUOUS
 62
     7
 66
     1
 10
0.0
 20
0.0
 30
0.0
  0
VERTEX
  5
21D
  8
DATA
  6
CONTINUOUS
 62
     7
 10
62.674227208854887
 20
51.0
 30
0.0
  0
VERTEX
  5
21E
  8
DATA
  6
CONTINUOUS
 62
     7
 10
63.5
 20
51.0
 30
0.0
  0
VERTEX
  5
21F
  8
DATA
  6
CONTINUOUS
 62
     7
 10
63.5
 20
49.0
 30
0.0
  0
VERTEX
  5
220
  8
DATA
  6
CONTINUOUS
 62
     7
 10
62.674227208854887
 20
49.0
 30
0.0
  0
SEQEND
  5
221
  8
DATA
  6
CONTINUOUS
 62
     7
  0
CIRCLE
  5
BD
  8
DATA
  6
CONTINUOUS
 62
     7
 10
31.0
 20
51.0
 30
0.0
 40
2.0
  0
LINE
  5
BE
  8
DATA
  6
CONTINUOUS
 62
     7
 10
29.598829030198591
 20
51.0
 30
0.0
 11
32.401170969801413
 21
51.0
 31
0.0
  0
LINE
  5
BF
  8
DATA
  6
CONTINUOUS
 62
     7
 10
31.0
 20
49.598829030198573
 30
0.0
 11
31.0
 21
52.401170969801399
 31
0.0
  0
CIRCLE
  5
C0
  8
DATA
  6
CONTINUOUS
 62
     7
 10
49.0
 20
61.0
 30
0.0
 40
1.2999999999999969
  0
ARC
  5
C1
  8
DATA
  6
CONTINUOUS
 62
     7
 10
28.0
 20
72.0
 30
0.0
 40
3.0
 50
90.0
 51
180.0
  0
ARC
  5
C2
  8
DATA
  6
CONTINUOUS
 62
     7
 10
72.0
 20
72.0
 30
0.0
 40
3.0
 50
0.0
 51
90.0
  0
ARC
  5
C3
  8
DATA
  6
CONTINUOUS
 62
     7
 10
28.0
 20
28.0
 30
0.0
 40
3.0
 50
180.0
 51
270.0
  0
ARC
  5
C4
  8
DATA
  6
CONTINUOUS
 62
     7
 10
72.0
 20
28.0
 30
0.0
 40
3.0
 50
270.0
 51
0.0
  0
LINE
  5
C5
  8
DATA
  6
CONTINUOUS
 62
     7
 10
25.0
 20
100.0
 30
0.0
 11
75.0
 21
100.0
 31
0.0
  0
LINE
  5
C6
  8
DATA
  6
CONTINUOUS
 62
     7
 10
25.0
 20
153.0
 30
0.0
 11
75.0
 21
153.0
 31
0.0
  0
LINE
  5
C7
  8
DATA
  6
CONTINUOUS
 62
     7
 10
25.0
 20
100.0
 30
0.0
 11
25.0
 21
153.0
 31
0.0
  0
LINE
  5
C8
  8
DATA
  6
CONTINUOUS
 62
     7
 10
75.0
 20
100.0
 30
0.0
 11
75.0
 21
153.0
 31
0.0
  0
LINE
  5
C9
  8
DATA
  6
CONTINUOUS
 62
     7
 10
25.0
 20
102.0
 30
0.0
 11
75.0
 21
102.0
 31
0.0
  0
LINE
  5
CA
  8
DATA
  6
CONTINUOUS
 62
     7
 10
25.0
 20
151.0
 30
0.0
 11
75.0
 21
151.0
 31
0.0
  0
LINE
  5
CB
  8
DATA
  6
CONTINUOUS
 62
     7
 10
66.0
 20
95.5
 30
0.0
 11
66.0
 21
100.0
 31
0.0
  0
LINE
  5
CC
  8
DATA
  6
CONTINUOUS
 62
     7
 10
50.0
 20
95.5
 30
0.0
 11
50.0
 21
99.268072267711005
 31
0.0
  0
LINE
  5
CD
  8
DATA
  6
CONTINUOUS
 62
     7
 10
50.0
 20
95.5
 30
0.0
 11
66.0
 21
95.5
 31
0.0
  0
LINE
  5
CE
  8
DATA
  6
CONTINUOUS
 62
     7
 10
53.219999999999999
 20
84.0
 30
0.0
 11
53.219999999999999
 21
95.5
 31
0.0
  0
LINE
  5
CF
  8
DATA
  6
CONTINUOUS
 62
     7
 10
62.780000000000001
 20
84.0
 30
0.0
 11
62.780000000000001
 21
95.5
 31
0.0
  0
LINE
  5
D0
  8
DATA
  6
CONTINUOUS
 62
     7
 10
62.780000000000001
 20
84.0
 30
0.0
 11
53.219999999999999
 21
84.0
 31
0.0
  0
LINE
  5
D1
  8
DATA
  6
CONTINUOUS
 62
     7
 10
45.219999999999999
 20
169.0
 30
0.0
 11
54.780000000000001
 21
169.0
 31
0.0
  0
LINE
  5
D2
  8
DATA
  6
CONTINUOUS
 62
     7
 10
42.0
 20
153.0
 30
0.0
 11
42.0
 21
157.5
 31
0.0
  0
LINE
  5
D3
  8
DATA
  6
CONTINUOUS
 62
     7
 10
58.0
 20
157.5
 30
0.0
 11
58.0
 21
153.0
 31
0.0
  0
LINE
  5
D4
  8
DATA
  6
CONTINUOUS
 62
     7
 10
42.0
 20
157.5
 30
0.0
 11
58.0
 21
157.5
 31
0.0
  0
LINE
  5
D5
  8
DATA
  6
CONTINUOUS
 62
     7
 10
45.219999999999999
 20
157.5
 30
0.0
 11
45.219999999999999
 21
169.0
 31
0.0
  0
LINE
  5
D6
  8
DATA
  6
CONTINUOUS
 62
     7
 10
54.780000000000001
 20
169.0
 30
0.0
 11
54.780000000000001
 21
157.5
 31
0.0
  0
ARC
  5
D7
  8
DATA
  6
CONTINUOUS
 62
     7
 10
49.0
 20
100.11971414341021
 30
0.0
 40
1.313504428787529
 50
185.22925296244941
 51
354.7707470375496
  0
LINE
  5
D8
  8
DATA
  6
CONTINUOUS
 62
     7
 10
25.0
 20
178.0
 30
0.0
 11
25.0
 21
222.0
 31
0.0
  0
LINE
  5
D9
  8
DATA
  6
CONTINUOUS
 62
     7
 10
72.0
 20
175.0
 30
0.0
 11
28.0
 21
175.0
 31
0.0
  0
LINE
  5
DA
  8
DATA
  6
CONTINUOUS
 62
     7
 10
75.0
 20
222.0
 30
0.0
 11
75.0
 21
178.0
 31
0.0
  0
CIRCLE
  5
DB
  8
DATA
  6
CONTINUOUS
 62
     7
 10
50.0
 20
200.0
 30
0.0
 40
8.0
  0
CIRCLE
  5
DC
  8
DATA
  6
CONTINUOUS
 62
     7
 10
50.0
 20
200.0
 30
0.0
 40
4.7800000000000011
  0
CIRCLE
  5
DD
  8
DATA
  6
CONTINUOUS
 62
     7
 10
50.0
 20
200.0
 30
0.0
 40
2.5
  0
CIRCLE
  5
DE
  8
DATA
  6
CONTINUOUS
 62
     7
 10
50.0
 20
200.0
 30
0.0
 40
0.5
  0
POLYLINE
  5
DF
  8
DATA
  6
CONTINUOUS
 62
     7
 66
     1
 10
0.0
 20
0.0
 30
0.0
  0
VERTEX
  5
222
  8
DATA
  6
CONTINUOUS
 62
     7
 10
45.325772791145098
 20
199.0
 30
0.0
  0
VERTEX
  5
223
  8
DATA
  6
CONTINUOUS
 62
     7
 10
44.5
 20
199.0
 30
0.0
  0
VERTEX
  5
224
  8
DATA
  6
CONTINUOUS
 62
     7
 10
44.5
 20
201.0
 30
0.0
  0
VERTEX
  5
225
  8
DATA
  6
CONTINUOUS
 62
     7
 10
45.325772791145098
 20
201.0
 30
0.0
  0
SEQEND
  5
226
  8
DATA
  6
CONTINUOUS
 62
     7
  0
POLYLINE
  5
E6
  8
DATA
  6
CONTINUOUS
 62
     7
 66
     1
 10
0.0
 20
0.0
 30
0.0
  0
VERTEX
  5
227
  8
DATA
  6
CONTINUOUS
 62
     7
 10
54.674227208854887
 20
201.0
 30
0.0
  0
VERTEX
  5
228
  8
DATA
  6
CONTINUOUS
 62
     7
 10
55.5
 20
201.0
 30
0.0
  0
VERTEX
  5
229
  8
DATA
  6
CONTINUOUS
 62
     7
 10
55.5
 20
199.0
 30
0.0
  0
VERTEX
  5
22A
  8
DATA
  6
CONTINUOUS
 62
     7
 10
54.674227208854887
 20
199.0
 30
0.0
  0
SEQEND
  5
22B
  8
DATA
  6
CONTINUOUS
 62
     7
  0
ARC
  5
ED
  8
DATA
  6
CONTINUOUS
 62
     7
 10
28.0
 20
222.0
 30
0.0
 40
3.0
 50
90.0
 51
180.0
  0
ARC
  5
EE
  8
DATA
  6
CONTINUOUS
 62
     7
 10
72.0
 20
222.0
 30
0.0
 40
3.0
 50
0.0
 51
90.0
  0
ARC
  5
EF
  8
DATA
  6
CONTINUOUS
 62
     7
 10
28.0
 20
178.0
 30
0.0
 40
3.0
 50
180.0
 51
270.0
  0
ARC
  5
F0
  8
DATA
  6
CONTINUOUS
 62
     7
 10
72.0
 20
178.0
 30
0.0
 40
3.0
 50
270.0
 51
0.0
  0
LINE
  5
F1
  8
DATA
  6
CONTINUOUS
 62
     7
 10
28.0
 20
225.0
 30
0.0
 11
72.0
 21
225.0
 31
0.0
  0
CIRCLE
  5
F2
  8
DATA
  6
CONTINUOUS
 62
     7
 10
50.0
 20
200.0
 30
0.0
 40
10.0
  0
CIRCLE
  5
F3
  8
DATA
  6
CONTINUOUS
 62
     7
 10
37.0
 20
213.0
 30
0.0
 40
2.0
  0
LINE
  5
F4
  8
DATA
  6
CONTINUOUS
 62
     7
 10
35.598829030198601
 20
213.0
 30
0.0
 11
38.401170969801399
 21
213.0
 31
0.0
  0
LINE
  5
F5
  8
DATA
  6
CONTINUOUS
 62
     7
 10
37.0
 20
211.5988290301986
 30
0.0
 11
37.0
 21
214.4011709698014
 31
0.0
  0
CIRCLE
  5
F6
  8
DATA
  6
CONTINUOUS
 62
     7
 10
63.0
 20
213.0
 30
0.0
 40
2.0
  0
LINE
  5
F7
  8
DATA
  6
CONTINUOUS
 62
     7
 10
61.598829030198573
 20
213.0
 30
0.0
 11
64.401170969801413
 21
213.0
 31
0.0
  0
LINE
  5
F8
  8
DATA
  6
CONTINUOUS
 62
     7
 10
63.0
 20
211.5988290301986
 30
0.0
 11
63.0
 21
214.4011709698014
 31
0.0
  0
CIRCLE
  5
F9
  8
DATA
  6
CONTINUOUS
 62
     7
 10
37.0
 20
187.0
 30
0.0
 40
2.0
  0
LINE
  5
FA
  8
DATA
  6
CONTINUOUS
 62
     7
 10
35.598829030198601
 20
187.0
 30
0.0
 11
38.401170969801399
 21
187.0
 31
0.0
  0
LINE
  5
FB
  8
DATA
  6
CONTINUOUS
 62
     7
 10
37.0
 20
185.5988290301986
 30
0.0
 11
37.0
 21
188.4011709698014
 31
0.0
  0
CIRCLE
  5
FC
  8
DATA
  6
CONTINUOUS
 62
     7
 10
63.0
 20
187.0
 30
0.0
 40
2.0
  0
LINE
  5
FD
  8
DATA
  6
CONTINUOUS
 62
     7
 10
61.598829030198573
 20
187.0
 30
0.0
 11
64.401170969801413
 21
187.0
 31
0.0
  0
LINE
  5
FE
  8
DATA
  6
CONTINUOUS
 62
     7
 10
63.0
 20
185.5988290301986
 30
0.0
 11
63.0
 21
188.4011709698014
 31
0.0
  0
POLYLINE
  5
FF
  8
DATA
  6
CONTINUOUS
 62
     7
 66
     1
 10
0.0
 20
0.0
 30
0.0
  0
VERTEX
  5
22C
  8
DATA
  6
CONTINUOUS
 62
     7
 10
62.780000000000001
 20
89.500000000000014
 30
0.0
  0
VERTEX
  5
22D
  8
DATA
  6
CONTINUOUS
 62
     7
 10
63.5
 20
89.500000000000014
 30
0.0
  0
VERTEX
  5
22E
  8
DATA
  6
CONTINUOUS
 62
     7
 10
63.5
 20
87.5
 30
0.0
  0
VERTEX
  5
22F
  8
DATA
  6
CONTINUOUS
 62
     7
 10
62.780000000000001
 20
87.5
 30
0.0
  0
SEQEND
  5
230
  8
DATA
  6
CONTINUOUS
 62
     7
  0
POLYLINE
  5
106
  8
DATA
  6
CONTINUOUS
 62
     7
 66
     1
 10
0.0
 20
0.0
 30
0.0
  0
VERTEX
  5
231
  8
DATA
  6
CONTINUOUS
 62
     7
 10
53.219999999999999
 20
87.5
 30
0.0
  0
VERTEX
  5
232
  8
DATA
  6
CONTINUOUS
 62
     7
 10
52.5
 20
87.5
 30
0.0
  0
VERTEX
  5
233
  8
DATA
  6
CONTINUOUS
 62
     7
 10
52.5
 20
89.500000000000014
 30
0.0
  0
VERTEX
  5
234
  8
DATA
  6
CONTINUOUS
 62
     7
 10
53.219999999999999
 20
89.500000000000014
 30
0.0
  0
SEQEND
  5
235
  8
DATA
  6
CONTINUOUS
 62
     7
  0
POLYLINE
  5
10D
  8
DATA
  6
CONTINUOUS
 62
     7
 66
     1
 10
0.0
 20
0.0
 30
0.0
  0
VERTEX
  5
236
  8
DATA
  6
CONTINUOUS
 62
     7
 10
54.780000000000001
 20
165.5
 30
0.0
  0
VERTEX
  5
237
  8
DATA
  6
CONTINUOUS
 62
     7
 10
55.5
 20
165.5
 30
0.0
  0
VERTEX
  5
238
  8
DATA
  6
CONTINUOUS
 62
     7
 10
55.5
 20
163.5
 30
0.0
  0
VERTEX
  5
239
  8
DATA
  6
CONTINUOUS
 62
     7
 10
54.780000000000001
 20
163.5
 30
0.0
  0
SEQEND
  5
23A
  8
DATA
  6
CONTINUOUS
 62
     7
  0
POLYLINE
  5
114
  8
DATA
  6
CONTINUOUS
 62
     7
 66
     1
 10
0.0
 20
0.0
 30
0.0
  0
VERTEX
  5
23B
  8
DATA
  6
CONTINUOUS
 62
     7
 10
45.219999999999999
 20
163.5
 30
0.0
  0
VERTEX
  5
23C
  8
DATA
  6
CONTINUOUS
 62
     7
 10
44.5
 20
163.5
 30
0.0
  0
VERTEX
  5
23D
  8
DATA
  6
CONTINUOUS
 62
     7
 10
44.5
 20
165.5
 30
0.0
  0
VERTEX
  5
23E
  8
DATA
  6
CONTINUOUS
 62
     7
 10
45.219999999999999
 20
165.5
 30
0.0
  0
SEQEND
  5
23F
  8
DATA
  6
CONTINUOUS
 62
     7
  0
LINE
  5
11B
  8
DATA
  6
CONTINUOUS
 62
     7
 10
123.5
 20
74.999999999780684
 30
0.0
 11
123.5
 21
24.999999999780691
 31
0.0
  0
LINE
  5
11C
  8
DATA
  6
CONTINUOUS
 62
     7
 10
176.49999999999989
 20
74.999999999780684
 30
0.0
 11
176.49999999999989
 21
24.999999999780691
 31
0.0
  0
LINE
  5
11D
  8
DATA
  6
CONTINUOUS
 62
     7
 10
123.5
 20
74.999999999780684
 30
0.0
 11
176.49999999999989
 21
74.999999999780684
 31
0.0
  0
LINE
  5
11E
  8
DATA
  6
CONTINUOUS
 62
     7
 10
123.5
 20
24.999999999780691
 30
0.0
 11
176.49999999999989
 21
24.999999999780691
 31
0.0
  0
LINE
  5
11F
  8
DATA
  6
CONTINUOUS
 62
     7
 10
125.5000000000001
 20
74.999999999780684
 30
0.0
 11
125.5000000000001
 21
24.999999999780691
 31
0.0
  0
LINE
  5
120
  8
DATA
  6
CONTINUOUS
 62
     7
 10
174.49999999999989
 20
74.999999999780684
 30
0.0
 11
174.49999999999989
 21
24.999999999780691
 31
0.0
  0
LINE
  5
121
  8
DATA
  6
CONTINUOUS
 62
     7
 10
192.5
 20
54.779999999780699
 30
0.0
 11
192.5
 21
45.219999999780697
 31
0.0
  0
LINE
  5
122
  8
DATA
  6
CONTINUOUS
 62
     7
 10
176.49999999999989
 20
57.999999999780698
 30
0.0
 11
181.0
 21
57.999999999780698
 31
0.0
  0
LINE
  5
123
  8
DATA
  6
CONTINUOUS
 62
     7
 10
181.0
 20
41.999999999780691
 30
0.0
 11
176.49999999999989
 21
41.999999999780691
 31
0.0
  0
LINE
  5
124
  8
DATA
  6
CONTINUOUS
 62
     7
 10
181.0
 20
57.999999999780698
 30
0.0
 11
181.0
 21
41.999999999780691
 31
0.0
  0
LINE
  5
125
  8
DATA
  6
CONTINUOUS
 62
     7
 10
181.0
 20
54.779999999780699
 30
0.0
 11
192.5
 21
54.779999999780699
 31
0.0
  0
LINE
  5
126
  8
DATA
  6
CONTINUOUS
 62
     7
 10
192.5
 20
45.219999999780697
 30
0.0
 11
181.0
 21
45.219999999780697
 31
0.0
  0
LINE
  5
127
  8
DATA
  6
CONTINUOUS
 62
     7
 10
107.5
 20
54.779999999780699
 30
0.0
 11
107.5
 21
45.219999999780697
 31
0.0
  0
LINE
  5
128
  8
DATA
  6
CONTINUOUS
 62
     7
 10
123.5
 20
57.999999999780698
 30
0.0
 11
119.0000000000001
 21
57.999999999780698
 31
0.0
  0
LINE
  5
129
  8
DATA
  6
CONTINUOUS
 62
     7
 10
119.0000000000001
 20
41.999999999780691
 30
0.0
 11
123.5
 21
41.999999999780691
 31
0.0
  0
LINE
  5
12A
  8
DATA
  6
CONTINUOUS
 62
     7
 10
119.0000000000001
 20
57.999999999780698
 30
0.0
 11
119.0000000000001
 21
41.999999999780691
 31
0.0
  0
LINE
  5
12B
  8
DATA
  6
CONTINUOUS
 62
     7
 10
119.0000000000001
 20
54.779999999780699
 30
0.0
 11
107.5
 21
54.779999999780699
 31
0.0
  0
LINE
  5
12C
  8
DATA
  6
CONTINUOUS
 62
     7
 10
107.5
 20
45.219999999780697
 30
0.0
 11
119.0000000000001
 21
45.219999999780697
 31
0.0
  0
CIRCLE
  5
12D
  8
DATA
  6
CONTINUOUS
 62
     7
 10
112.0
 20
50.0
 30
0.0
 40
1.0
  0
CIRCLE
  5
12E
  8
DATA
  6
CONTINUOUS
 62
     7
 10
187.99999999999989
 20
50.0
 30
0.0
 40
1.0
  0
TEXT
  5
12F
  8
DATA
 62
     7
 10
29.353132758305321
 20
146.67211361370579
 30
0.0
 40
2.8504720052083319
  1
RF Input(from Antenna)
 41
0.7
 11
29.353132758305321
 21
149.52258561891421
 31
0.0
 73
     3
  0
TEXT
  5
130
  8
DATA
 62
     7
 10
34.86341975374674
 20
104.11858333333331
 30
0.0
 40
2.8504720052083319
  1
RF Output(to SR)
 41
0.7
 11
34.86341975374674
 21
106.96905533854159
 31
0.0
 73
     3
  0
TEXT
  5
131
  8
DATA
 62
     7
 10
29.659677725038691
 20
114.97976110781489
 30
0.0
 40
2.8504720052083319
  1
AB 4000/BNC
 50
90.0
 41
0.7
 11
26.809205719830359
 21
114.97976110781489
 31
0.0
 73
     3
  0
TEXT
  5
132
  8
DATA
 62
     7
 10
33.285386107814922
 20
120.64031383285359
 30
0.0
 40
2.0360514322916661
  1
500-865MHz
 50
90.0
 41
0.7
 11
31.249334675523251
 21
120.64031383285359
 31
0.0
 73
     3
  0
TEXT
  5
133
  8
DATA
 62
     7
 10
149.09999999999999
 20
127.4749566368499
 30
0.0
 40
4.072102864583333
  1
デップスイッチ拡大図
 41
0.7
 11
149.09999999999999
 21
131.54705950143321
 31
0.0
 73
     3
  0
POLYLINE
  5
134
  8
DATA
  6
CONTINUOUS
 62
     7
 66
     1
 10
0.0
 20
0.0
 30
0.0
 70
     1
  0
VERTEX
  5
240
  8
DATA
  6
CONTINUOUS
 62
     7
 10
41.74616164065354
 20
55.59041666666667
 30
0.0
  0
VERTEX
  5
241
  8
DATA
  6
CONTINUOUS
 62
     7
 10
42.596161640653548
 20
55.59041666666667
 30
0.0
  0
VERTEX
  5
242
  8
DATA
  6
CONTINUOUS
 62
     7
 10
42.596161640653548
 20
52.59041666666667
 30
0.0
  0
VERTEX
  5
243
  8
DATA
  6
CONTINUOUS
 62
     7
 10
41.74616164065354
 20
52.59041666666667
 30
0.0
  0
SEQEND
  5
244
  8
DATA
  6
CONTINUOUS
 62
     7
  0
POLYLINE
  5
13B
  8
DATA
  6
CONTINUOUS
 62
     7
 66
     1
 10
0.0
 20
0.0
 30
0.0
 70
     1
  0
VERTEX
  5
245
  8
DATA
  6
CONTINUOUS
 62
     7
 10
39.74616164065354
 20
55.59041666666667
 30
0.0
  0
VERTEX
  5
246
  8
DATA
  6
CONTINUOUS
 62
     7
 10
40.596161640653548
 20
55.59041666666667
 30
0.0
  0
VERTEX
  5
247
  8
DATA
  6
CONTINUOUS
 62
     7
 10
40.596161640653548
 20
52.59041666666667
 30
0.0
  0
VERTEX
  5
248
  8
DATA
  6
CONTINUOUS
 62
     7
 10
39.74616164065354
 20
52.59041666666667
 30
0.0
  0
SEQEND
  5
249
  8
DATA
  6
CONTINUOUS
 62
     7
  0
POLYLINE
  5
142
  8
DATA
  6
CONTINUOUS
 62
     7
 66
     1
 10
0.0
 20
0.0
 30
0.0
 70
     1
  0
VERTEX
  5
24A
  8
DATA
  6
CONTINUOUS
 62
     7
 10
43.74616164065354
 20
55.59041666666667
 30
0.0
  0
VERTEX
  5
24B
  8
DATA
  6
CONTINUOUS
 62
     7
 10
44.596161640653541
 20
55.59041666666667
 30
0.0
  0
VERTEX
  5
24C
  8
DATA
  6
CONTINUOUS
 62
     7
 10
44.596161640653541
 20
52.59041666666667
 30
0.0
  0
VERTEX
  5
24D
  8
DATA
  6
CONTINUOUS
 62
     7
 10
43.74616164065354
 20
52.59041666666667
 30
0.0
  0
SEQEND
  5
24E
  8
DATA
  6
CONTINUOUS
 62
     7
  0
LINE
  5
149
  8
DATA
  6
CONTINUOUS
 62
     7
 10
39.74616164065354
 20
53.909283477710581
 30
0.0
 11
40.596161640653548
 21
53.909283477710581
 31
0.0
  0
LINE
  5
14A
  8
DATA
  6
CONTINUOUS
 62
     7
 10
41.74616164065354
 20
53.909283477710581
 30
0.0
 11
42.596161640653548
 21
53.909283477710581
 31
0.0
  0
LINE
  5
14B
  8
DATA
  6
CONTINUOUS
 62
     7
 10
43.74616164065354
 20
53.909283477710581
 30
0.0
 11
44.596161640653541
 21
53.909283477710581
 31
0.0
  0
TEXT
  5
14C
  8
DATA
 62
     7
 10
40.456414153660091
 20
56.109416666666682
 30
0.0
 40
0.8144205729166666
  1
ON
 41
0.7
 11
40.456414153660091
 21
56.923837239583349
 31
0.0
 73
     3
  0
TEXT
  5
14D
  8
DATA
 62
     7
 10
39.915580820326781
 20
51.490250000000017
 30
0.0
 40
0.8144205729166666
  1
1
 41
0.7
 11
39.915580820326781
 21
52.304670572916692
 31
0.0
 73
     3
  0
TEXT
  5
14E
  8
DATA
 62
     7
 10
41.915580820326781
 20
51.490250000000017
 30
0.0
 40
0.8144205729166666
  1
2
 41
0.7
 11
41.915580820326781
 21
52.304670572916692
 31
0.0
 73
     3
  0
TEXT
  5
14F
  8
DATA
 62
     7
 10
43.915580820326767
 20
51.490250000000017
 30
0.0
 40
0.8144205729166666
  1
3
 41
0.7
 11
43.915580820326767
 21
52.304670572916692
 31
0.0
 73
     3
  0
LINE
  5
150
  8
DATA
  6
CONTINUOUS
 62
     7
 10
137.5
 20
125.0
 30
0.0
 11
212.5
 21
125.0
 31
0.0
  0
LINE
  5
151
  8
DATA
  6
CONTINUOUS
 62
     7
 10
34.211262143800603
 20
97.0
 30
0.0
 11
50.0
 21
97.0
 31
0.0
  0
LINE
  5
152
  8
DATA
  6
CONTINUOUS
 62
     7
 10
34.211262143800603
 20
97.0
 30
0.0
 11
34.211262143800603
 21
100.0
 31
0.0
  0
CIRCLE
  5
153
  8
DATA
  6
CONTINUOUS
 62
     7
 10
42.17116164065353
 20
54.0
 30
0.0
 40
4.0
  0
POLYLINE
  5
154
  8
DATA
  6
CONTINUOUS
 62
     7
 66
     1
 10
0.0
 20
0.0
 30
0.0
 70
     1
  0
VERTEX
  5
24F
  8
DATA
  6
CONTINUOUS
 62
     7
 10
172.2136616406535
 20
159.0028323098453
 30
0.0
  0
VERTEX
  5
250
  8
DATA
  6
CONTINUOUS
 62
     7
 10
175.52866164065361
 20
159.0028323098453
 30
0.0
  0
VERTEX
  5
251
  8
DATA
  6
CONTINUOUS
 62
     7
 10
175.52866164065361
 20
147.30283230984529
 30
0.0
  0
VERTEX
  5
252
  8
DATA
  6
CONTINUOUS
 62
     7
 10
172.2136616406535
 20
147.30283230984529
 30
0.0
  0
SEQEND
  5
253
  8
DATA
  6
CONTINUOUS
 62
     7
  0
POLYLINE
  5
15B
  8
DATA
  6
CONTINUOUS
 62
     7
 66
     1
 10
0.0
 20
0.0
 30
0.0
 70
     1
  0
VERTEX
  5
254
  8
DATA
  6
CONTINUOUS
 62
     7
 10
164.41366164065349
 20
159.0028323098453
 30
0.0
  0
VERTEX
  5
255
  8
DATA
  6
CONTINUOUS
 62
     7
 10
167.72866164065351
 20
159.0028323098453
 30
0.0
  0
VERTEX
  5
256
  8
DATA
  6
CONTINUOUS
 62
     7
 10
167.72866164065351
 20
147.30283230984529
 30
0.0
  0
VERTEX
  5
257
  8
DATA
  6
CONTINUOUS
 62
     7
 10
164.41366164065349
 20
147.30283230984529
 30
0.0
  0
SEQEND
  5
258
  8
DATA
  6
CONTINUOUS
 62
     7
  0
POLYLINE
  5
162
  8
DATA
  6
CONTINUOUS
 62
     7
 66
     1
 10
0.0
 20
0.0
 30
0.0
 70
     1
  0
VERTEX
  5
259
  8
DATA
  6
CONTINUOUS
 62
     7
 10
180.01366164065351
 20
159.0028323098453
 30
0.0
  0
VERTEX
  5
25A
  8
DATA
  6
CONTINUOUS
 62
     7
 10
183.32866164065351
 20
159.0028323098453
 30
0.0
  0
VERTEX
  5
25B
  8
DATA
  6
CONTINUOUS
 62
     7
 10
183.32866164065351
 20
147.30283230984529
 30
0.0
  0
VERTEX
  5
25C
  8
DATA
  6
CONTINUOUS
 62
     7
 10
180.01366164065351
 20
147.30283230984529
 30
0.0
  0
SEQEND
  5
25D
  8
DATA
  6
CONTINUOUS
 62
     7
  0
LINE
  5
169
  8
DATA
  6
CONTINUOUS
 62
     7
 10
164.41366164065349
 20
152.4464128729166
 30
0.0
 11
167.72866164065351
 21
152.4464128729166
 31
0.0
  0
LINE
  5
16A
  8
DATA
  6
CONTINUOUS
 62
     7
 10
172.2136616406535
 20
152.4464128729166
 30
0.0
 11
175.52866164065361
 21
152.4464128729166
 31
0.0
  0
LINE
  5
16B
  8
DATA
  6
CONTINUOUS
 62
     7
 10
180.01366164065351
 20
152.4464128729166
 30
0.0
 11
183.32866164065351
 21
152.4464128729166
 31
0.0
  0
TEXT
  5
16C
  8
DATA
 62
     7
 10
167.1836464413791
 20
161.02693230984531
 30
0.0
 40
3.1762402343749989
  1
ON
 41
0.7
 11
167.1836464413791
 21
164.20317254422019
 31
0.0
 73
     3
  0
TEXT
  5
16D
  8
DATA
 62
     7
 10
165.07439644137909
 20
142.76551227885301
 30
0.0
 40
3.1762402343749989
  1
1
 41
0.7
 11
165.07439644137909
 21
145.94175251322801
 31
0.0
 73
     3
  0
TEXT
  5
16E
  8
DATA
 62
     7
 10
172.8743964413791
 20
142.76551227885301
 30
0.0
 40
3.1762402343749989
  1
2
 41
0.7
 11
172.8743964413791
 21
145.94175251322801
 31
0.0
 73
     3
  0
TEXT
  5
16F
  8
DATA
 62
     7
 10
180.6743964413792
 20
142.76551227885301
 30
0.0
 40
3.1762402343749989
  1
3
 41
0.7
 11
180.6743964413792
 21
145.94175251322801
 31
0.0
 73
     3
  0
CIRCLE
  5
170
  8
DATA
  6
CONTINUOUS
 62
     7
 10
173.8711616406535
 20
152.8002073098454
 30
0.0
 40
15.599999999999991
  0
CIRCLE
  5
171
  8
DATA
  6
STYLE_01
 62
     7
 10
50.0
 20
50.0
 30
0.0
 40
25.000000000000011
  0
CIRCLE
  5
172
  8
DATA
  6
STYLE_01
 62
     7
 10
50.0
 20
200.0
 30
0.0
 40
25.000000000000011
  0
ENDSEC
  0
EOF
