  0
SECTION
  2
HEADER
  9
$ACADVER
  1
AC1009
  9
$INSBASE
 10
0.0
 20
0.0
 30
0.0
  9
$EXTMIN
 10
-35.0
 20
-64.647131289843742
 30
0.0
  9
$EXTMAX
 10
235.0
 20
336.76590750000008
 30
0.0
  9
$LIMMIN
 10
0.0
 20
0.0
  9
$LIMMAX
 10
0.0
 20
0.0
  9
$ORTHOMODE
 70
     0
  9
$REGENMODE
 70
     1
  9
$FILLMODE
 70
     1
  9
$QTEXTMODE
 70
     0
  9
$MIRRTEXT
 70
     1
  9
$DRAGMODE
 70
     2
  9
$LTSCALE
 40
7.6199999999999983
  9
$OSMODE
 70
   231
  9
$ATTMODE
 70
     1
  9
$TEXTSIZE
 40
0.0
  9
$TRACEWID
 40
1.0
  9
$TEXTSTYLE
  7
STANDARD
  9
$CLAYER
  8
DATA
  9
$CELTYPE
  6
BYLAYER
  9
$CECOLOR
 62
   256
  9
$DIMSCALE
 40
1.0
  9
$DIMASZ
 40
0.18
  9
$DIMEXO
 40
0.0625
  9
$DIMDLI
 40
0.38
  9
$DIMRND
 40
0.0
  9
$DIMDLE
 40
0.0
  9
$DIMEXE
 40
0.18
  9
$DIMTP
 40
0.0
  9
$DIMTM
 40
0.0
  9
$DIMTXT
 40
0.18
  9
$DIMCEN
 40
0.09
  9
$DIMTSZ
 40
0.0
  9
$DIMTOL
 70
     0
  9
$DIMLIM
 70
     0
  9
$DIMTIH
 70
     1
  9
$DIMTOH
 70
     1
  9
$DIMSE1
 70
     0
  9
$DIMSE2
 70
     0
  9
$DIMTAD
 70
     0
  9
$DIMZIN
 70
     0
  9
$DIMBLK
  1

  9
$DIMASO
 70
     1
  9
$DIMSHO
 70
     1
  9
$DIMPOST
  1

  9
$DIMAPOST
  1

  9
$DIMALT
 70
     0
  9
$DIMALTD
 70
     2
  9
$DIMALTF
 40
25.399999999999999
  9
$DIMLFAC
 40
1.0
  9
$DIMTOFL
 70
     0
  9
$DIMTVP
 40
0.0
  9
$DIMTIX
 70
     0
  9
$DIMSOXD
 70
     0
  9
$DIMSAH
 70
     0
  9
$DIMBLK1
  1

  9
$DIMBLK2
  1

  9
$DIMSTYLE
  2
STANDARD
  9
$DIMCLRD
 70
     0
  9
$DIMCLRE
 70
     0
  9
$DIMCLRT
 70
     0
  9
$DIMTFAC
 40
1.0
  9
$DIMGAP
 40
0.09
  9
$LUNITS
 70
     2
  9
$LUPREC
 70
     4
  9
$SKETCHINC
 40
0.1
  9
$FILLETRAD
 40
0.0
  9
$AUNITS
 70
     0
  9
$AUPREC
 70
     0
  9
$MENU
  1
acad
  9
$ELEVATION
 40
0.0
  9
$PELEVATION
 40
0.0
  9
$THICKNESS
 40
0.0
  9
$LIMCHECK
 70
     0
  9
$BLIPMODE
 70
     0
  9
$CHAMFERA
 40
0.0
  9
$CHAMFERB
 40
0.0
  9
$SKPOLY
 70
     0
  9
$TDCREATE
 40
2455027.5740856482
  9
$TDUPDATE
 40
2455027.591540949
  9
$TDINDWG
 40
0.0005799306
  9
$TDUSRTIMER
 40
0.0005734259
  9
$USRTIMER
 70
     1
  9
$ANGBASE
 50
0.0
  9
$ANGDIR
 70
     0
  9
$PDMODE
 70
     1
  9
$PDSIZE
 40
-2.0
  9
$PLINEWID
 40
0.0
  9
$COORDS
 70
     0
  9
$SPLFRAME
 70
     0
  9
$SPLINETYPE
 70
     6
  9
$SPLINESEGS
 70
     8
  9
$ATTDIA
 70
     0
  9
$ATTREQ
 70
     1
  9
$HANDLING
 70
     1
  9
$HANDSEED
  5
366
  9
$SURFTAB1
 70
     6
  9
$SURFTAB2
 70
     6
  9
$SURFTYPE
 70
     6
  9
$SURFU
 70
     6
  9
$SURFV
 70
     6
  9
$UCSNAME
  2

  9
$UCSORG
 10
0.0
 20
0.0
 30
0.0
  9
$UCSXDIR
 10
1.0
 20
0.0
 30
0.0
  9
$UCSYDIR
 10
0.0
 20
1.0
 30
0.0
  9
$PUCSNAME
  2

  9
$PUCSORG
 10
0.0
 20
0.0
 30
0.0
  9
$PUCSXDIR
 10
1.0
 20
0.0
 30
0.0
  9
$PUCSYDIR
 10
0.0
 20
1.0
 30
0.0
  9
$USERI1
 70
     0
  9
$USERI2
 70
     0
  9
$USERI3
 70
     0
  9
$USERI4
 70
     0
  9
$USERI5
 70
     0
  9
$USERR1
 40
0.0
  9
$USERR2
 40
0.0
  9
$USERR3
 40
0.0
  9
$USERR4
 40
0.0
  9
$USERR5
 40
0.0
  9
$WORLDVIEW
 70
     1
  9
$SHADEDGE
 70
     3
  9
$SHADEDIF
 70
    70
  9
$TILEMODE
 70
     1
  9
$MAXACTVP
 70
    64
  9
$PLIMCHECK
 70
     0
  9
$PEXTMIN
 10
1.0000000000000000E+020
 20
1.0000000000000000E+020
 30
1.0000000000000000E+020
  9
$PEXTMAX
 10
-1.0000000000000000E+020
 20
-1.0000000000000000E+020
 30
-1.0000000000000000E+020
  9
$PLIMMIN
 10
0.0
 20
0.0
  9
$PLIMMAX
 10
12.0
 20
9.0
  9
$UNITMODE
 70
     0
  9
$VISRETAIN
 70
     0
  9
$PLINEGEN
 70
     1
  9
$PSLTSCALE
 70
     0
  0
ENDSEC
  0
SECTION
  2
TABLES
  0
TABLE
  2
VPORT
 70
     1
  0
VPORT
  2
*ACTIVE
 70
     0
 10
0.0
 20
0.0
 11
1.0
 21
1.0
 12
100.00000062864279
 22
136.05558533808949
 13
0.0
 23
0.0
 14
1.0
 24
1.0
 15
0.0
 25
0.0
 16
0.0
 26
0.0
 36
1.0
 17
0.0
 27
0.0
 37
0.0
 40
404.40415136090132
 41
1.964329643296433
 42
50.0
 43
0.0
 44
0.0
 50
0.0
 51
0.0
 71
     0
 72
  2000
 73
     1
 74
     1
 75
     0
 76
     0
 77
     0
 78
     0
  0
ENDTAB
  0
TABLE
  2
LTYPE
 70
     3
  0
LTYPE
  2
CONTINUOUS
 70
     0
  3
Solid line
 72
    65
 73
     0
 40
0.0
  0
LTYPE
  2
STYLE_01
 70
     0
  3

 72
    65
 73
     2
 40
0.4166412353515625
 49
0.208282470703125
 49
-0.2083587646484375
  0
LTYPE
  2
STYLE_05
 70
     0
  3

 72
    65
 73
     2
 40
0.208282470703125
 49
0.069427490234375
 49
-0.13885498046875
  0
ENDTAB
  0
TABLE
  2
LAYER
 70
     5
  0
LAYER
  2
0
 70
     0
 62
     7
  6
CONTINUOUS
  0
LAYER
  2
DATA
 70
     0
 62
     7
  6
CONTINUOUS
  0
LAYER
  2
HIBINO-BASE
 70
     0
 62
     7
  6
CONTINUOUS
  0
LAYER
  2
SPEC
 70
     0
 62
     7
  6
CONTINUOUS
  0
LAYER
  2
DIMNSIONS
 70
     0
 62
     7
  6
CONTINUOUS
  0
ENDTAB
  0
TABLE
  2
STYLE
 70
     2
  0
STYLE
  2
STANDARD
 70
     0
 40
0.0
 41
1.0
 50
0.0
 71
     0
 42
0.0
  3
txt
  4
BIGFONT.SHX
  0
STYLE
  2
ANNOTATIVE
 70
     0
 40
0.0
 41
1.0
 50
0.0
 71
     0
 42
0.2
  3
txt
  4

  0
ENDTAB
  0
TABLE
  2
VIEW
 70
     0
  0
ENDTAB
  0
TABLE
  2
UCS
 70
     0
  0
ENDTAB
  0
TABLE
  2
APPID
 70
     3
  0
APPID
  2
ACAD
 70
     0
  0
APPID
  2
ACADANNOTATIVE
 70
     0
  0
APPID
  2
ACAD_MLEADERVER
 70
     0
  0
ENDTAB
  0
TABLE
  2
DIMSTYLE
 70
     2
  0
DIMSTYLE
  2
STANDARD
 70
     0
  3

  4

  5

  6

  7

 40
1.0
 41
0.18
 42
0.0625
 43
0.38
 44
0.18
 45
0.0
 46
0.0
 47
0.0
 48
0.0
140
0.18
141
0.09
142
0.0
143
25.399999999999999
144
1.0
145
0.0
146
1.0
147
0.09
 71
     0
 72
     0
 73
     1
 74
     1
 75
     0
 76
     0
 77
     0
 78
     0
170
     0
171
     2
172
     0
173
     0
174
     0
175
     0
176
     0
177
     0
178
     0
  0
DIMSTYLE
  2
ANNOTATIVE
 70
     0
  3

  4

  5

  6

  7

 40
1.0
 41
0.18
 42
0.0625
 43
0.38
 44
0.18
 45
0.0
 46
0.0
 47
0.0
 48
0.0
140
0.18
141
0.09
142
0.0
143
25.399999999999999
144
1.0
145
0.0
146
1.0
147
0.09
 71
     0
 72
     0
 73
     1
 74
     1
 75
     0
 76
     0
 77
     0
 78
     0
170
     0
171
     2
172
     0
173
     0
174
     0
175
     0
176
     0
177
     0
178
     0
  0
ENDTAB
  0
ENDSEC
  0
SECTION
  2
BLOCKS
  0
BLOCK
  8
0
  2
$MODEL_SPACE
 70
     0
 10
0.0
 20
0.0
 30
0.0
  3
$MODEL_SPACE
  1

  0
ENDBLK
  5
2DE
  8
0
  0
BLOCK
 67
     1
  8
0
  2
$PAPER_SPACE
 70
     0
 10
0.0
 20
0.0
 30
0.0
  3
$PAPER_SPACE
  1

  0
ENDBLK
  5
2DA
 67
     1
  8
0
  0
ENDSEC
  0
SECTION
  2
ENTITIES
  0
LINE
  5
2C
  8
HIBINO-BASE
  6
CONTINUOUS
 62
     7
 10
-35.0
 20
336.76590750000008
 30
0.0
 11
235.0
 21
336.76590750000008
 31
0.0
  0
LINE
  5
2D
  8
HIBINO-BASE
  6
CONTINUOUS
 62
     7
 10
235.0
 20
-53.234092500000003
 30
0.0
 11
-35.0
 21
-53.234092500000003
 31
0.0
  0
LINE
  5
2E
  8
HIBINO-BASE
  6
CONTINUOUS
 62
     7
 10
-35.0
 20
-53.234092500000003
 30
0.0
 11
-35.0
 21
336.76590750000008
 31
0.0
  0
TEXT
  5
2F
  8
HIBINO-BASE
 62
     7
 10
-24.224
 20
-62.847109199999991
 30
0.0
 40
5.4000662695312478
  1
Hibino Corporation
 41
0.7
 11
-24.224
 21
-57.44704293046874
 31
0.0
 73
     3
  0
LINE
  5
30
  8
HIBINO-BASE
  6
CONTINUOUS
 62
     7
 10
235.0
 20
336.76590750000008
 30
0.0
 11
235.0
 21
-53.234092500000003
 31
0.0
  0
LINE
  5
31
  8
HIBINO-BASE
  6
CONTINUOUS
 62
     7
 10
100.0
 20
-19.484092499999971
 30
0.0
 11
235.0
 21
-19.484092499999971
 31
0.0
  0
LINE
  5
32
  8
HIBINO-BASE
  6
CONTINUOUS
 62
     7
 10
100.0
 20
-53.234092500000003
 30
0.0
 11
100.0
 21
-19.484092499999971
 31
0.0
  0
TEXT
  5
33
  8
HIBINO-BASE
 62
     7
 10
101.34999999999999
 20
-23.247132499999999
 30
0.0
 40
2.4432617187500001
  1
NOTE
 41
0.7
 11
101.34999999999999
 21
-20.803870781250001
 31
0.0
 73
     3
  0
LINE
  5
34
  8
HIBINO-BASE
  6
CONTINUOUS
 62
     7
 10
152.5
 20
-53.234092500000003
 30
0.0
 11
152.5
 21
-19.484092499999971
 31
0.0
  0
TEXT
  5
35
  8
HIBINO-BASE
 62
     7
 10
153.84999999999991
 20
-23.247132499999999
 30
0.0
 40
2.4432617187500001
  1
TITLE
 41
0.7
 11
153.84999999999991
 21
-20.803870781250001
 31
0.0
 73
     3
  0
TEXT
  5
36
  8
HIBINO-BASE
 62
     7
 10
175.10258499999989
 20
-62.847109199999991
 30
0.0
 40
5.4000662695312478
  1
ヒビノ株式会社
 41
0.7
 11
175.10258499999989
 21
-57.44704293046874
 31
0.0
 73
     3
  0
LINE
  5
37
  8
HIBINO-BASE
  6
CONTINUOUS
 62
     7
 10
100.0
 20
-38.234092499999967
 30
0.0
 11
235.0
 21
-38.234092499999967
 31
0.0
  0
TEXT
  5
38
  8
HIBINO-BASE
 62
     7
 10
172.59999999999991
 20
-41.912652499999979
 30
0.0
 40
2.4432617187500001
  1
DRAWN
 41
0.7
 11
172.59999999999991
 21
-39.469390781249977
 31
0.0
 73
     3
  0
TEXT
  5
39
  8
HIBINO-BASE
 62
     7
 10
135.09999999999991
 20
-41.912652499999979
 30
0.0
 40
2.4432617187500001
  1
DATE
 41
0.7
 11
135.09999999999991
 21
-39.469390781249977
 31
0.0
 73
     3
  0
TEXT
  5
3A
  8
HIBINO-BASE
 62
     7
 10
120.09999999999999
 20
-41.912652499999979
 30
0.0
 40
2.4432617187500001
  1
SCALE
 41
0.7
 11
120.09999999999999
 21
-39.469390781249977
 31
0.0
 73
     3
  0
TEXT
  5
3B
  8
HIBINO-BASE
 62
     7
 10
153.84999999999991
 20
-41.912652499999979
 30
0.0
 40
2.4432617187500001
  1
DESIGN
 41
0.7
 11
153.84999999999991
 21
-39.469390781249977
 31
0.0
 73
     3
  0
TEXT
  5
3C
  8
HIBINO-BASE
 62
     7
 10
210.09999999999999
 20
-41.912652499999979
 30
0.0
 40
2.4432617187500001
  1
DRAWING NO.
 41
0.7
 11
210.09999999999999
 21
-39.469390781249977
 31
0.0
 73
     3
  0
TEXT
  5
3D
  8
HIBINO-BASE
 62
     7
 10
191.34999999999999
 20
-41.912652499999979
 30
0.0
 40
2.4432617187500001
  1
CHECK
 41
0.7
 11
191.34999999999999
 21
-39.469390781249977
 31
0.0
 73
     3
  0
LINE
  5
3E
  8
HIBINO-BASE
  6
CONTINUOUS
 62
     7
 10
121.5625
 20
-51.359092500000003
 30
0.0
 11
127.1875
 21
-45.734092499999967
 31
0.0
  0
TEXT
  5
3F
  8
HIBINO-BASE
 62
     7
 10
120.625
 20
-47.397507500000003
 30
0.0
 40
2.4432617187500001
  1
1
 41
0.7
 11
120.625
 21
-44.954245781250002
 31
0.0
 73
     3
  0
LINE
  5
40
  8
HIBINO-BASE
  6
CONTINUOUS
 62
     7
 10
118.75
 20
-53.234092500000003
 30
0.0
 11
118.75
 21
-38.234092499999967
 31
0.0
  0
LINE
  5
41
  8
HIBINO-BASE
  6
CONTINUOUS
 62
     7
 10
133.7499999999998
 20
-53.234092500000003
 30
0.0
 11
133.7499999999998
 21
-38.234092499999967
 31
0.0
  0
LINE
  5
42
  8
HIBINO-BASE
  6
CONTINUOUS
 62
     7
 10
171.2499999999998
 20
-38.234092499999967
 30
0.0
 11
171.2499999999998
 21
-53.234092500000003
 31
0.0
  0
LINE
  5
43
  8
HIBINO-BASE
  6
CONTINUOUS
 62
     7
 10
208.75
 20
-38.234092499999967
 30
0.0
 11
208.75
 21
-53.234092500000003
 31
0.0
  0
LINE
  5
44
  8
HIBINO-BASE
  6
CONTINUOUS
 62
     7
 10
190.0
 20
-53.234092500000003
 30
0.0
 11
190.0
 21
-38.234092499999967
 31
0.0
  0
TEXT
  5
45
  8
HIBINO-BASE
 62
     7
 10
135.03480999999999
 20
-48.938622500000008
 30
0.0
 40
2.4432617187500001
  1
'09.07.
 41
0.7
 11
135.03480999999999
 21
-46.495360781250007
 31
0.0
 73
     3
  0
TEXT
  5
46
  8
HIBINO-BASE
 62
     7
 10
126.25
 20
-50.210007500000003
 30
0.0
 40
2.4432617187500001
  1
1.5
 41
0.7
 11
126.25
 21
-47.766745781250002
 31
0.0
 73
     3
  0
TEXT
  5
47
  8
HIBINO-BASE
 62
     7
 10
173.508715016552
 20
-48.938622500000008
 30
0.0
 40
2.4432617187500001
  1
N.Sasaki
 41
0.7
 11
173.508715016552
 21
-46.495360781250007
 31
0.0
 73
     3
  0
TEXT
  5
48
  8
HIBINO-BASE
 62
     7
 10
105.825
 20
-50.270092499999983
 30
0.0
 40
4.8865234374999993
  1
A4
 41
0.7
 11
105.825
 21
-45.383569062499973
 31
0.0
 73
     3
  0
TEXT
  5
49
  8
HIBINO-BASE
 62
     7
 10
101.4375
 20
-42.163274999999999
 30
0.0
 40
2.4432617187500001
  1
PAPER SIZE
 41
0.7
 11
101.4375
 21
-39.720013281249997
 31
0.0
 73
     3
  0
LINE
  5
4A
  8
SPEC
  6
CONTINUOUS
 62
     7
 10
-23.749999999999989
 20
321.76590750000008
 30
0.0
 11
197.5
 21
321.76590750000008
 31
0.0
  0
LINE
  5
4B
  8
SPEC
  6
CONTINUOUS
 62
     7
 10
-23.749999999999989
 20
316.14090750000008
 30
0.0
 11
197.5
 21
316.14090750000008
 31
0.0
  0
LINE
  5
4C
  8
SPEC
  6
CONTINUOUS
 62
     7
 10
-23.749999999999989
 20
293.64090750000008
 30
0.0
 11
197.5
 21
293.64090750000008
 31
0.0
  0
LINE
  5
4D
  8
SPEC
  6
CONTINUOUS
 62
     7
 10
-23.749999999999989
 20
304.89090750000008
 30
0.0
 11
197.5
 21
304.89090750000008
 31
0.0
  0
LINE
  5
4E
  8
SPEC
  6
CONTINUOUS
 62
     7
 10
-23.749999999999989
 20
288.01590750000008
 30
0.0
 11
197.5
 21
288.01590750000008
 31
0.0
  0
LINE
  5
4F
  8
SPEC
  6
CONTINUOUS
 62
     7
 10
-23.749999999999989
 20
276.76590750000003
 30
0.0
 11
197.5
 21
276.76590750000003
 31
0.0
  0
LINE
  5
50
  8
SPEC
  6
CONTINUOUS
 62
     7
 10
-23.749999999999989
 20
282.39090750000008
 30
0.0
 11
197.5
 21
282.39090750000008
 31
0.0
  0
LINE
  5
51
  8
SPEC
  6
CONTINUOUS
 62
     7
 10
-23.749999999999989
 20
271.14090750000003
 30
0.0
 11
197.5
 21
271.14090750000003
 31
0.0
  0
LINE
  5
52
  8
SPEC
  6
CONTINUOUS
 62
     7
 10
-23.749999999999989
 20
310.51590750000008
 30
0.0
 11
197.5
 21
310.51590750000008
 31
0.0
  0
LINE
  5
53
  8
SPEC
  6
CONTINUOUS
 62
     7
 10
-23.749999999999989
 20
321.76590750000008
 30
0.0
 11
-23.749999999999989
 21
271.14090750000003
 31
0.0
  0
TEXT
  5
54
  8
SPEC
 62
     7
 10
-21.874999999999989
 20
323.8558124999999
 30
0.0
 40
3.664892578124999
  1
仕様
 41
0.7
 11
-21.874999999999989
 21
327.52070507812488
 31
0.0
 73
     3
  0
LINE
  5
55
  8
SPEC
  6
CONTINUOUS
 62
     7
 10
25.0
 20
321.76590750000008
 30
0.0
 11
25.0
 21
271.14090750000003
 31
0.0
  0
LINE
  5
56
  8
SPEC
  6
CONTINUOUS
 62
     7
 10
197.5
 20
321.76590750000008
 30
0.0
 11
197.5
 21
271.14090750000003
 31
0.0
  0
TEXT
  5
57
  8
SPEC
 62
     7
 10
-22.48720142828893
 20
317.62136646767021
 30
0.0
 40
2.850466875
  1
形式
 41
0.7
 11
-22.48720142828893
 21
320.4718333426701
 31
0.0
 73
     3
  0
TEXT
  5
58
  8
SPEC
 62
     7
 10
26.30386956742689
 20
278.30060078020477
 30
0.0
 40
2.850472005208331
  1
約160g
 41
0.7
 11
26.30386956742689
 21
281.15107278541319
 31
0.0
 73
     3
  0
TEXT
  5
59
  8
SPEC
 62
     7
 10
-22.5501137915615
 20
283.93416658708202
 30
0.0
 40
2.850472005208331
  1
寸法
 41
0.7
 11
-22.5501137915615
 21
286.78463859229038
 31
0.0
 73
     3
  0
TEXT
  5
5A
  8
SPEC
 62
     7
 10
-22.469228814142902
 20
278.12985850649568
 30
0.0
 40
2.850472005208331
  1
重量
 41
0.7
 11
-22.469228814142902
 21
280.9803305117041
 31
0.0
 73
     3
  0
TEXT
  5
5B
  8
SPEC
 62
     7
 10
26.334805428715239
 20
283.78728905463601
 30
0.0
 40
2.850472005208331
  1
50(W)\U+00D750(H)\U+00D753(D)mm(突起部含まず)
 41
0.7
 11
26.334805428715239
 21
286.63776105984442
 31
0.0
 73
     3
  0
TEXT
  5
5C
  8
SPEC
 62
     7
 10
26.141964477609552
 20
317.60260673734462
 30
0.0
 40
2.850472005208331
  1
アンテナネットワーク/リモートパワーサプライ
 41
0.7
 11
26.141964477609552
 21
320.45307874255298
 31
0.0
 73
     3
  0
TEXT
  5
5D
  8
SPEC
 62
     7
 10
-22.487168153970689
 20
311.89740696962571
 30
0.0
 40
2.850466875
  1
対応周波数帯域
 41
0.7
 11
-22.487168153970689
 21
314.7478738446257
 31
0.0
 73
     3
  0
TEXT
  5
5E
  8
SPEC
 62
     7
 10
26.361704854396571
 20
311.81669654587142
 30
0.0
 40
2.850472005208331
  1
500～865MHz(B型 ・A型・A2型)
 41
0.7
 11
26.361704854396571
 21
314.66716855107973
 31
0.0
 73
     3
  0
TEXT
  5
5F
  8
SPEC
 62
     7
 10
-22.42107101768153
 20
306.32419469609681
 30
0.0
 40
2.850466875
  1
供給電源
 41
0.7
 11
-22.42107101768153
 21
309.17466157109681
 31
0.0
 73
     3
  0
TEXT
  5
60
  8
SPEC
 62
     7
 10
26.37609824960338
 20
306.25775693984048
 30
0.0
 40
2.850472005208331
  1
DC8V
 41
0.7
 11
26.37609824960338
 21
309.10822894504889
 31
0.0
 73
     3
  0
TEXT
  5
61
  8
SPEC
 62
     7
 10
-22.793583300335431
 20
300.81212876741381
 30
0.0
 40
2.850466875
  1
コネクター
 41
0.7
 11
-22.793583300335431
 21
303.66259564241381
 31
0.0
 73
     3
  0
TEXT
  5
62
  8
SPEC
 62
     7
 10
26.354911439640329
 20
300.61716353485878
 30
0.0
 40
2.850472005208331
  1
RF入力：BNC(50\U+03A9)\U+00D71
 41
0.7
 11
26.354911439640329
 21
303.46763554006719
 31
0.0
 73
     3
  0
TEXT
  5
63
  8
SPEC
 62
     7
 10
26.29074519176827
 20
294.95508041092279
 30
0.0
 40
2.850472005208331
  1
RF出力：BNC(50\U+03A9)\U+00D71
 41
0.7
 11
26.29074519176827
 21
297.80555241613121
 31
0.0
 73
     3
  0
TEXT
  5
64
  8
SPEC
 62
     7
 10
-22.46686390087503
 20
289.45411143937582
 30
0.0
 40
2.850466875
  1
電源
 41
0.7
 11
-22.46686390087503
 21
292.30457831437582
 31
0.0
 73
     3
  0
TEXT
  5
65
  8
SPEC
 62
     7
 10
26.33359013613908
 20
289.4750377162207
 30
0.0
 40
2.850472005208331
  1
DC12V,付属のACアダプター(AC100V,50/60Hz,80mA)
 41
0.7
 11
26.33359013613908
 21
292.325509721429
 31
0.0
 73
     3
  0
TEXT
  5
66
  8
SPEC
 62
     7
 10
26.446955901258718
 20
272.71249378694972
 30
0.0
 40
2.850472005208331
  1
ACアダプター
 41
0.7
 11
26.446955901258718
 21
275.56296579215802
 31
0.0
 73
     3
  0
TEXT
  5
67
  8
SPEC
 62
     7
 10
-22.435209804272361
 20
272.62797572730221
 30
0.0
 40
2.850472005208331
  1
付属品
 41
0.7
 11
-22.435209804272361
 21
275.47844773251057
 31
0.0
 73
     3
  0
TEXT
  5
68
  8
DIMNSIONS
 62
     7
 10
69.999999999999986
 20
-34.829857500000003
 30
0.0
 40
3.664892578124999
  1
(単位：mm)
 41
0.7
 11
69.999999999999986
 21
-31.164964921875001
 31
0.0
 73
     3
  0
LINE
  5
69
  8
DIMNSIONS
  6
CONTINUOUS
 62
     7
 10
12.5
 20
9.5
 30
0.0
 11
12.5
 21
-3.0
 31
0.0
  0
LINE
  5
6A
  8
DIMNSIONS
  6
CONTINUOUS
 62
     7
 10
62.5
 20
9.5
 30
0.0
 11
62.5
 21
-3.0
 31
0.0
  0
LINE
  5
6B
  8
DIMNSIONS
  6
CONTINUOUS
 62
     7
 10
12.5
 20
0.0
 30
0.0
 11
62.5
 21
0.0
 31
0.0
  0
LINE
  5
6C
  8
DIMNSIONS
  6
CONTINUOUS
 62
     7
 10
12.5
 20
0.0
 30
0.0
 11
16.250933837890631
 21
1.005059692725353
 31
0.0
  0
LINE
  5
6D
  8
DIMNSIONS
  6
CONTINUOUS
 62
     7
 10
12.5
 20
0.0
 30
0.0
 11
16.250933837890631
 21
-1.005059692725353
 31
0.0
  0
LINE
  5
6E
  8
DIMNSIONS
  6
CONTINUOUS
 62
     7
 10
62.5
 20
0.0
 30
0.0
 11
58.749066162109351
 21
-1.005059692725353
 31
0.0
  0
LINE
  5
6F
  8
DIMNSIONS
  6
CONTINUOUS
 62
     7
 10
62.5
 20
0.0
 30
0.0
 11
58.749066162109351
 21
1.005059692725353
 31
0.0
  0
TEXT
  5
70
  8
DIMNSIONS
 62
     7
 10
34.854166666666671
 20
1.490833333333323
 30
0.0
 40
4.072102864583333
  1
50
 41
0.7
 11
34.854166666666671
 21
5.5629361979166561
 31
0.0
 73
     3
  0
LINE
  5
71
  8
DIMNSIONS
  6
CONTINUOUS
 62
     7
 10
9.5
 20
12.5
 30
0.0
 11
-3.0
 21
12.5
 31
0.0
  0
LINE
  5
72
  8
DIMNSIONS
  6
CONTINUOUS
 62
     7
 10
9.5
 20
62.5
 30
0.0
 11
-3.0
 21
62.5
 31
0.0
  0
LINE
  5
73
  8
DIMNSIONS
  6
CONTINUOUS
 62
     7
 10
0.0
 20
12.5
 30
0.0
 11
0.0
 21
62.5
 31
0.0
  0
LINE
  5
74
  8
DIMNSIONS
  6
CONTINUOUS
 62
     7
 10
0.0
 20
12.5
 30
0.0
 11
-1.0050596927253681
 21
16.250933837890631
 31
0.0
  0
LINE
  5
75
  8
DIMNSIONS
  6
CONTINUOUS
 62
     7
 10
0.0
 20
12.5
 30
0.0
 11
1.0050596927253681
 21
16.250933837890631
 31
0.0
  0
LINE
  5
76
  8
DIMNSIONS
  6
CONTINUOUS
 62
     7
 10
0.0
 20
62.5
 30
0.0
 11
1.0050596927253681
 21
58.749066162109351
 31
0.0
  0
LINE
  5
77
  8
DIMNSIONS
  6
CONTINUOUS
 62
     7
 10
0.0
 20
62.5
 30
0.0
 11
-1.0050596927253681
 21
58.749066162109351
 31
0.0
  0
TEXT
  5
78
  8
DIMNSIONS
 62
     7
 10
-1.490833333333323
 20
34.854166666666671
 30
0.0
 40
4.072102864583333
  1
50
 50
90.0
 41
0.7
 11
-5.5629361979166561
 21
34.854166666666671
 31
0.0
 73
     3
  0
LINE
  5
79
  8
DIMNSIONS
  6
CONTINUOUS
 62
     7
 10
9.5
 20
100.0
 30
0.0
 11
-3.0
 21
100.0
 31
0.0
  0
LINE
  5
7A
  8
DIMNSIONS
  6
CONTINUOUS
 62
     7
 10
9.5
 20
153.0
 30
0.0
 11
-3.0
 21
153.0
 31
0.0
  0
LINE
  5
7B
  8
DIMNSIONS
  6
CONTINUOUS
 62
     7
 10
0.0
 20
100.0
 30
0.0
 11
0.0
 21
153.0
 31
0.0
  0
LINE
  5
7C
  8
DIMNSIONS
  6
CONTINUOUS
 62
     7
 10
0.0
 20
100.0
 30
0.0
 11
-1.0050596927253681
 21
103.7509338378906
 31
0.0
  0
LINE
  5
7D
  8
DIMNSIONS
  6
CONTINUOUS
 62
     7
 10
0.0
 20
100.0
 30
0.0
 11
1.0050596927253681
 21
103.7509338378906
 31
0.0
  0
LINE
  5
7E
  8
DIMNSIONS
  6
CONTINUOUS
 62
     7
 10
0.0
 20
153.0
 30
0.0
 11
1.0050596927253681
 21
149.24906616210939
 31
0.0
  0
LINE
  5
7F
  8
DIMNSIONS
  6
CONTINUOUS
 62
     7
 10
0.0
 20
153.0
 30
0.0
 11
-1.0050596927253681
 21
149.24906616210939
 31
0.0
  0
TEXT
  5
80
  8
DIMNSIONS
 62
     7
 10
-1.490833333333323
 20
123.8541666666667
 30
0.0
 40
4.072102864583333
  1
53
 50
90.0
 41
0.7
 11
-5.5629361979166561
 21
123.8541666666667
 31
0.0
 73
     3
  0
LINE
  5
81
  8
DIMNSIONS
  6
CONTINUOUS
 62
     7
 10
37.719999999999999
 20
84.0
 30
0.0
 11
-3.0
 21
84.0
 31
0.0
  0
LINE
  5
82
  8
DIMNSIONS
  6
CONTINUOUS
 62
     7
 10
9.5
 20
100.0
 30
0.0
 11
-3.0
 21
100.0
 31
0.0
  0
LINE
  5
83
  8
DIMNSIONS
  6
CONTINUOUS
 62
     7
 10
0.0
 20
84.0
 30
0.0
 11
0.0
 21
100.0
 31
0.0
  0
LINE
  5
84
  8
DIMNSIONS
  6
CONTINUOUS
 62
     7
 10
0.0
 20
84.0
 30
0.0
 11
-1.0050596927253681
 21
87.750933837890614
 31
0.0
  0
LINE
  5
85
  8
DIMNSIONS
  6
CONTINUOUS
 62
     7
 10
0.0
 20
84.0
 30
0.0
 11
1.0050596927253681
 21
87.750933837890614
 31
0.0
  0
LINE
  5
86
  8
DIMNSIONS
  6
CONTINUOUS
 62
     7
 10
0.0
 20
100.0
 30
0.0
 11
1.0050596927253681
 21
96.249066162109344
 31
0.0
  0
LINE
  5
87
  8
DIMNSIONS
  6
CONTINUOUS
 62
     7
 10
0.0
 20
100.0
 30
0.0
 11
-1.0050596927253681
 21
96.249066162109344
 31
0.0
  0
TEXT
  5
88
  8
DIMNSIONS
 62
     7
 10
-1.490833333333323
 20
89.354166666666657
 30
0.0
 40
4.072102864583333
  1
16
 50
90.0
 41
0.7
 11
-5.5629361979166561
 21
89.354166666666657
 31
0.0
 73
     3
  0
LINE
  5
89
  8
DIMNSIONS
  6
CONTINUOUS
 62
     7
 10
9.5
 20
153.0
 30
0.0
 11
-3.0
 21
153.0
 31
0.0
  0
LINE
  5
8A
  8
DIMNSIONS
  6
CONTINUOUS
 62
     7
 10
29.719999999999999
 20
169.0
 30
0.0
 11
-3.0
 21
169.0
 31
0.0
  0
LINE
  5
8B
  8
DIMNSIONS
  6
CONTINUOUS
 62
     7
 10
0.0
 20
153.0
 30
0.0
 11
0.0
 21
169.0
 31
0.0
  0
LINE
  5
8C
  8
DIMNSIONS
  6
CONTINUOUS
 62
     7
 10
0.0
 20
153.0
 30
0.0
 11
-1.0050596927253681
 21
156.75093383789061
 31
0.0
  0
LINE
  5
8D
  8
DIMNSIONS
  6
CONTINUOUS
 62
     7
 10
0.0
 20
153.0
 30
0.0
 11
1.0050596927253681
 21
156.75093383789061
 31
0.0
  0
LINE
  5
8E
  8
DIMNSIONS
  6
CONTINUOUS
 62
     7
 10
0.0
 20
169.0
 30
0.0
 11
1.0050596927253681
 21
165.24906616210939
 31
0.0
  0
LINE
  5
8F
  8
DIMNSIONS
  6
CONTINUOUS
 62
     7
 10
0.0
 20
169.0
 30
0.0
 11
-1.0050596927253681
 21
165.24906616210939
 31
0.0
  0
TEXT
  5
90
  8
DIMNSIONS
 62
     7
 10
-1.490833333333323
 20
158.3541666666666
 30
0.0
 40
4.072102864583333
  1
16
 50
90.0
 41
0.7
 11
-5.5629361979166561
 21
158.3541666666666
 31
0.0
 73
     3
  0
LINE
  5
91
  8
DIMNSIONS
  6
CONTINUOUS
 62
     7
 10
9.5
 20
100.0
 30
0.0
 11
3.25
 21
100.0
 31
0.0
  0
LINE
  5
92
  8
DIMNSIONS
  6
CONTINUOUS
 62
     7
 10
9.5
 20
102.0
 30
0.0
 11
3.25
 21
102.0
 31
0.0
  0
LINE
  5
93
  8
DIMNSIONS
  6
CONTINUOUS
 62
     7
 10
6.25
 20
102.0
 30
0.0
 11
6.25
 21
100.0
 31
0.0
  0
LINE
  5
94
  8
DIMNSIONS
  6
CONTINUOUS
 62
     7
 10
6.25
 20
100.0
 30
0.0
 11
6.25
 21
92.5
 31
0.0
  0
LINE
  5
95
  8
DIMNSIONS
  6
CONTINUOUS
 62
     7
 10
6.25
 20
100.0
 30
0.0
 11
7.255059692725367
 21
96.249066162109344
 31
0.0
  0
LINE
  5
96
  8
DIMNSIONS
  6
CONTINUOUS
 62
     7
 10
6.25
 20
100.0
 30
0.0
 11
5.2449403072746321
 21
96.249066162109344
 31
0.0
  0
LINE
  5
97
  8
DIMNSIONS
  6
CONTINUOUS
 62
     7
 10
6.25
 20
102.0
 30
0.0
 11
6.25
 21
108.8958333333333
 31
0.0
  0
LINE
  5
98
  8
DIMNSIONS
  6
CONTINUOUS
 62
     7
 10
6.25
 20
102.0
 30
0.0
 11
5.2449403072746321
 21
105.7509338378906
 31
0.0
  0
LINE
  5
99
  8
DIMNSIONS
  6
CONTINUOUS
 62
     7
 10
6.25
 20
102.0
 30
0.0
 11
7.255059692725367
 21
105.7509338378906
 31
0.0
  0
TEXT
  5
9A
  8
DIMNSIONS
 62
     7
 10
4.7591666666666619
 20
106.25
 30
0.0
 40
4.072102864583333
  1
2
 50
90.0
 41
0.7
 11
0.68706380208333
 21
106.25
 31
0.0
 73
     3
  0
LINE
  5
9B
  8
DIMNSIONS
  6
CONTINUOUS
 62
     7
 10
9.5
 20
151.0
 30
0.0
 11
3.25
 21
151.0
 31
0.0
  0
LINE
  5
9C
  8
DIMNSIONS
  6
CONTINUOUS
 62
     7
 10
9.5
 20
153.0
 30
0.0
 11
3.25
 21
153.0
 31
0.0
  0
LINE
  5
9D
  8
DIMNSIONS
  6
CONTINUOUS
 62
     7
 10
6.25
 20
153.0
 30
0.0
 11
6.25
 21
151.0
 31
0.0
  0
LINE
  5
9E
  8
DIMNSIONS
  6
CONTINUOUS
 62
     7
 10
6.25
 20
151.0
 30
0.0
 11
6.25
 21
141.1041666666666
 31
0.0
  0
LINE
  5
9F
  8
DIMNSIONS
  6
CONTINUOUS
 62
     7
 10
6.25
 20
151.0
 30
0.0
 11
7.255059692725367
 21
147.24906616210939
 31
0.0
  0
LINE
  5
A0
  8
DIMNSIONS
  6
CONTINUOUS
 62
     7
 10
6.25
 20
151.0
 30
0.0
 11
5.2449403072746321
 21
147.24906616210939
 31
0.0
  0
LINE
  5
A1
  8
DIMNSIONS
  6
CONTINUOUS
 62
     7
 10
6.25
 20
153.0
 30
0.0
 11
6.25
 21
160.5
 31
0.0
  0
LINE
  5
A2
  8
DIMNSIONS
  6
CONTINUOUS
 62
     7
 10
6.25
 20
153.0
 30
0.0
 11
5.2449403072746321
 21
156.75093383789061
 31
0.0
  0
LINE
  5
A3
  8
DIMNSIONS
  6
CONTINUOUS
 62
     7
 10
6.25
 20
153.0
 30
0.0
 11
7.255059692725367
 21
156.75093383789061
 31
0.0
  0
TEXT
  5
A4
  8
DIMNSIONS
 62
     7
 10
4.7591666666666619
 20
141.1041666666666
 30
0.0
 40
4.072102864583333
  1
2
 50
90.0
 41
0.7
 11
0.68706380208333
 21
141.1041666666666
 31
0.0
 73
     3
  0
TEXT
  5
A5
  8
DATA
 62
     7
 10
175.0
 20
-36.537757499999998
 30
0.0
 40
3.664892578124999
  1
ASU 4000
 41
0.7
 11
175.0
 21
-32.872864921874999
 31
0.0
 73
     3
  0
TEXT
  5
A6
  8
DATA
 62
     7
 10
175.0
 20
-25.662757499999991
 30
0.0
 40
3.664892578124999
  1
AKG
 41
0.7
 11
175.0
 21
-21.997864921874989
 31
0.0
 73
     3
  0
TEXT
  5
A7
  8
DATA
 62
     7
 10
161.51799028487011
 20
-30.673367699109981
 30
0.0
 40
2.4432655664062479
  1
アンテナネットワーク/リモートパワーサプライ
 41
0.7
 11
161.51799028487011
 21
-28.230102132703731
 31
0.0
 73
     3
  0
TEXT
  5
A8
  8
DATA
 62
     7
 10
-19.999999999999972
 20
-46.87709250000001
 30
0.0
 40
2.4432617187500001
  1
仕様および外観は予告なく変更されることがありますので、ご了承ください。
 41
0.7
 11
-19.999999999999972
 21
-44.433830781250009
 31
0.0
 73
     3
  0
LINE
  5
A9
  8
DATA
  6
CONTINUOUS
 62
     7
 10
12.5
 20
15.5
 30
0.0
 11
12.5
 21
59.5
 31
0.0
  0
LINE
  5
AA
  8
DATA
  6
CONTINUOUS
 62
     7
 10
59.5
 20
12.5
 30
0.0
 11
15.5
 21
12.5
 31
0.0
  0
LINE
  5
AB
  8
DATA
  6
CONTINUOUS
 62
     7
 10
62.5
 20
59.5
 30
0.0
 11
62.5
 21
15.5
 31
0.0
  0
LINE
  5
AC
  8
DATA
  6
CONTINUOUS
 62
     7
 10
15.5
 20
62.5
 30
0.0
 11
59.5
 21
62.5
 31
0.0
  0
CIRCLE
  5
AD
  8
DATA
  6
CONTINUOUS
 62
     7
 10
45.499999999999993
 20
37.5
 30
0.0
 40
8.0
  0
CIRCLE
  5
AE
  8
DATA
  6
CONTINUOUS
 62
     7
 10
45.499999999999993
 20
37.5
 30
0.0
 40
4.7800000000000011
  0
CIRCLE
  5
AF
  8
DATA
  6
CONTINUOUS
 62
     7
 10
45.499999999999993
 20
37.5
 30
0.0
 40
2.5
  0
CIRCLE
  5
B0
  8
DATA
  6
CONTINUOUS
 62
     7
 10
45.499999999999993
 20
37.5
 30
0.0
 40
0.5
  0
CIRCLE
  5
B1
  8
DATA
  6
CONTINUOUS
 62
     7
 10
55.809114429115432
 20
37.5
 30
0.0
 40
2.0
  0
LINE
  5
B2
  8
DATA
  6
CONTINUOUS
 62
     7
 10
54.407943459314019
 20
37.5
 30
0.0
 11
57.210285398916817
 21
37.5
 31
0.0
  0
LINE
  5
B3
  8
DATA
  6
CONTINUOUS
 62
     7
 10
55.809114429115432
 20
36.098829030198587
 30
0.0
 11
55.809114429115432
 21
38.901170969801413
 31
0.0
  0
POLYLINE
  5
B4
  8
DATA
  6
CONTINUOUS
 62
     7
 66
     1
 10
0.0
 20
0.0
 30
0.0
  0
VERTEX
  5
305
  8
DATA
  6
CONTINUOUS
 62
     7
 10
40.825772791145113
 20
36.5
 30
0.0
  0
VERTEX
  5
306
  8
DATA
  6
CONTINUOUS
 62
     7
 10
40.0
 20
36.5
 30
0.0
  0
VERTEX
  5
307
  8
DATA
  6
CONTINUOUS
 62
     7
 10
40.0
 20
38.5
 30
0.0
  0
VERTEX
  5
308
  8
DATA
  6
CONTINUOUS
 62
     7
 10
40.825772791145113
 20
38.5
 30
0.0
  0
SEQEND
  5
309
  8
DATA
  6
CONTINUOUS
 62
     7
  0
POLYLINE
  5
BB
  8
DATA
  6
CONTINUOUS
 62
     7
 66
     1
 10
0.0
 20
0.0
 30
0.0
  0
VERTEX
  5
30A
  8
DATA
  6
CONTINUOUS
 62
     7
 10
50.174227208854887
 20
38.5
 30
0.0
  0
VERTEX
  5
30B
  8
DATA
  6
CONTINUOUS
 62
     7
 10
51.0
 20
38.5
 30
0.0
  0
VERTEX
  5
30C
  8
DATA
  6
CONTINUOUS
 62
     7
 10
51.0
 20
36.5
 30
0.0
  0
VERTEX
  5
30D
  8
DATA
  6
CONTINUOUS
 62
     7
 10
50.174227208854887
 20
36.5
 30
0.0
  0
SEQEND
  5
30E
  8
DATA
  6
CONTINUOUS
 62
     7
  0
CIRCLE
  5
C2
  8
DATA
  6
CONTINUOUS
 62
     7
 10
18.5
 20
38.5
 30
0.0
 40
2.0
  0
LINE
  5
C3
  8
DATA
  6
CONTINUOUS
 62
     7
 10
17.098829030198591
 20
38.5
 30
0.0
 11
19.901170969801399
 21
38.5
 31
0.0
  0
LINE
  5
C4
  8
DATA
  6
CONTINUOUS
 62
     7
 10
18.5
 20
37.098829030198587
 30
0.0
 11
18.5
 21
39.901170969801413
 31
0.0
  0
CIRCLE
  5
C5
  8
DATA
  6
CONTINUOUS
 62
     7
 10
36.5
 20
48.5
 30
0.0
 40
1.299999999999996
  0
ARC
  5
C6
  8
DATA
  6
CONTINUOUS
 62
     7
 10
15.5
 20
59.5
 30
0.0
 40
3.0
 50
90.0
 51
180.0
  0
ARC
  5
C7
  8
DATA
  6
CONTINUOUS
 62
     7
 10
59.5
 20
59.5
 30
0.0
 40
3.0
 50
0.0
 51
90.0
  0
ARC
  5
C8
  8
DATA
  6
CONTINUOUS
 62
     7
 10
15.5
 20
15.5
 30
0.0
 40
3.0
 50
180.0
 51
270.0
  0
ARC
  5
C9
  8
DATA
  6
CONTINUOUS
 62
     7
 10
59.5
 20
15.5
 30
0.0
 40
3.0
 50
270.0
 51
0.0
  0
LINE
  5
CA
  8
DATA
  6
CONTINUOUS
 62
     7
 10
12.5
 20
100.0
 30
0.0
 11
62.5
 21
100.0
 31
0.0
  0
LINE
  5
CB
  8
DATA
  6
CONTINUOUS
 62
     7
 10
12.5
 20
153.0
 30
0.0
 11
62.5
 21
153.0
 31
0.0
  0
LINE
  5
CC
  8
DATA
  6
CONTINUOUS
 62
     7
 10
12.5
 20
100.0
 30
0.0
 11
12.5
 21
153.0
 31
0.0
  0
LINE
  5
CD
  8
DATA
  6
CONTINUOUS
 62
     7
 10
62.5
 20
100.0
 30
0.0
 11
62.5
 21
153.0
 31
0.0
  0
LINE
  5
CE
  8
DATA
  6
CONTINUOUS
 62
     7
 10
12.5
 20
102.0
 30
0.0
 11
62.5
 21
102.0
 31
0.0
  0
LINE
  5
CF
  8
DATA
  6
CONTINUOUS
 62
     7
 10
12.5
 20
151.0
 30
0.0
 11
62.5
 21
151.0
 31
0.0
  0
LINE
  5
D0
  8
DATA
  6
CONTINUOUS
 62
     7
 10
53.5
 20
95.5
 30
0.0
 11
53.5
 21
100.0
 31
0.0
  0
LINE
  5
D1
  8
DATA
  6
CONTINUOUS
 62
     7
 10
37.5
 20
95.5
 30
0.0
 11
37.5
 21
99.268072267710991
 31
0.0
  0
LINE
  5
D2
  8
DATA
  6
CONTINUOUS
 62
     7
 10
37.5
 20
95.5
 30
0.0
 11
53.5
 21
95.5
 31
0.0
  0
LINE
  5
D3
  8
DATA
  6
CONTINUOUS
 62
     7
 10
40.719999999999999
 20
84.0
 30
0.0
 11
40.719999999999999
 21
95.5
 31
0.0
  0
LINE
  5
D4
  8
DATA
  6
CONTINUOUS
 62
     7
 10
50.280000000000001
 20
84.0
 30
0.0
 11
50.280000000000001
 21
95.5
 31
0.0
  0
LINE
  5
D5
  8
DATA
  6
CONTINUOUS
 62
     7
 10
50.280000000000001
 20
84.0
 30
0.0
 11
40.719999999999999
 21
84.0
 31
0.0
  0
LINE
  5
D6
  8
DATA
  6
CONTINUOUS
 62
     7
 10
32.719999999999999
 20
169.0
 30
0.0
 11
42.280000000000001
 21
169.0
 31
0.0
  0
LINE
  5
D7
  8
DATA
  6
CONTINUOUS
 62
     7
 10
29.5
 20
153.0
 30
0.0
 11
29.5
 21
157.5
 31
0.0
  0
LINE
  5
D8
  8
DATA
  6
CONTINUOUS
 62
     7
 10
45.499999999999993
 20
157.5
 30
0.0
 11
45.499999999999993
 21
153.0
 31
0.0
  0
LINE
  5
D9
  8
DATA
  6
CONTINUOUS
 62
     7
 10
29.5
 20
157.5
 30
0.0
 11
45.499999999999993
 21
157.5
 31
0.0
  0
LINE
  5
DA
  8
DATA
  6
CONTINUOUS
 62
     7
 10
32.719999999999999
 20
157.5
 30
0.0
 11
32.719999999999999
 21
169.0
 31
0.0
  0
LINE
  5
DB
  8
DATA
  6
CONTINUOUS
 62
     7
 10
42.280000000000001
 20
169.0
 30
0.0
 11
42.280000000000001
 21
157.5
 31
0.0
  0
ARC
  5
DC
  8
DATA
  6
CONTINUOUS
 62
     7
 10
36.5
 20
100.11971414341021
 30
0.0
 40
1.313504428787529
 50
185.22925296244941
 51
354.7707470375496
  0
LINE
  5
DD
  8
DATA
  6
CONTINUOUS
 62
     7
 10
12.5
 20
190.5
 30
0.0
 11
12.5
 21
234.5
 31
0.0
  0
LINE
  5
DE
  8
DATA
  6
CONTINUOUS
 62
     7
 10
59.5
 20
187.5
 30
0.0
 11
15.5
 21
187.5
 31
0.0
  0
LINE
  5
DF
  8
DATA
  6
CONTINUOUS
 62
     7
 10
62.5
 20
234.5
 30
0.0
 11
62.5
 21
190.5
 31
0.0
  0
CIRCLE
  5
E0
  8
DATA
  6
CONTINUOUS
 62
     7
 10
37.5
 20
212.5
 30
0.0
 40
8.0
  0
CIRCLE
  5
E1
  8
DATA
  6
CONTINUOUS
 62
     7
 10
37.5
 20
212.5
 30
0.0
 40
4.7800000000000011
  0
CIRCLE
  5
E2
  8
DATA
  6
CONTINUOUS
 62
     7
 10
37.5
 20
212.5
 30
0.0
 40
2.5
  0
CIRCLE
  5
E3
  8
DATA
  6
CONTINUOUS
 62
     7
 10
37.5
 20
212.5
 30
0.0
 40
0.5
  0
POLYLINE
  5
E4
  8
DATA
  6
CONTINUOUS
 62
     7
 66
     1
 10
0.0
 20
0.0
 30
0.0
  0
VERTEX
  5
30F
  8
DATA
  6
CONTINUOUS
 62
     7
 10
32.825772791145113
 20
211.5
 30
0.0
  0
VERTEX
  5
310
  8
DATA
  6
CONTINUOUS
 62
     7
 10
32.0
 20
211.5
 30
0.0
  0
VERTEX
  5
311
  8
DATA
  6
CONTINUOUS
 62
     7
 10
32.0
 20
213.5
 30
0.0
  0
VERTEX
  5
312
  8
DATA
  6
CONTINUOUS
 62
     7
 10
32.825772791145113
 20
213.5
 30
0.0
  0
SEQEND
  5
313
  8
DATA
  6
CONTINUOUS
 62
     7
  0
POLYLINE
  5
EB
  8
DATA
  6
CONTINUOUS
 62
     7
 66
     1
 10
0.0
 20
0.0
 30
0.0
  0
VERTEX
  5
314
  8
DATA
  6
CONTINUOUS
 62
     7
 10
42.174227208854887
 20
213.5
 30
0.0
  0
VERTEX
  5
315
  8
DATA
  6
CONTINUOUS
 62
     7
 10
43.0
 20
213.5
 30
0.0
  0
VERTEX
  5
316
  8
DATA
  6
CONTINUOUS
 62
     7
 10
43.0
 20
211.5
 30
0.0
  0
VERTEX
  5
317
  8
DATA
  6
CONTINUOUS
 62
     7
 10
42.174227208854887
 20
211.5
 30
0.0
  0
SEQEND
  5
318
  8
DATA
  6
CONTINUOUS
 62
     7
  0
ARC
  5
F2
  8
DATA
  6
CONTINUOUS
 62
     7
 10
15.5
 20
234.5
 30
0.0
 40
3.0
 50
90.0
 51
180.0
  0
ARC
  5
F3
  8
DATA
  6
CONTINUOUS
 62
     7
 10
59.5
 20
234.5
 30
0.0
 40
3.0
 50
0.0
 51
90.0
  0
ARC
  5
F4
  8
DATA
  6
CONTINUOUS
 62
     7
 10
15.5
 20
190.5
 30
0.0
 40
3.0
 50
180.0
 51
270.0
  0
ARC
  5
F5
  8
DATA
  6
CONTINUOUS
 62
     7
 10
59.5
 20
190.5
 30
0.0
 40
3.0
 50
270.0
 51
0.0
  0
LINE
  5
F6
  8
DATA
  6
CONTINUOUS
 62
     7
 10
15.5
 20
237.5
 30
0.0
 11
59.5
 21
237.5
 31
0.0
  0
CIRCLE
  5
F7
  8
DATA
  6
CONTINUOUS
 62
     7
 10
37.5
 20
212.5
 30
0.0
 40
10.0
  0
CIRCLE
  5
F8
  8
DATA
  6
CONTINUOUS
 62
     7
 10
24.5
 20
225.5
 30
0.0
 40
2.0
  0
LINE
  5
F9
  8
DATA
  6
CONTINUOUS
 62
     7
 10
23.098829030198591
 20
225.5
 30
0.0
 11
25.901170969801409
 21
225.5
 31
0.0
  0
LINE
  5
FA
  8
DATA
  6
CONTINUOUS
 62
     7
 10
24.5
 20
224.0988290301986
 30
0.0
 11
24.5
 21
226.9011709698014
 31
0.0
  0
CIRCLE
  5
FB
  8
DATA
  6
CONTINUOUS
 62
     7
 10
50.5
 20
225.5
 30
0.0
 40
2.0
  0
LINE
  5
FC
  8
DATA
  6
CONTINUOUS
 62
     7
 10
49.098829030198573
 20
225.5
 30
0.0
 11
51.901170969801413
 21
225.5
 31
0.0
  0
LINE
  5
FD
  8
DATA
  6
CONTINUOUS
 62
     7
 10
50.5
 20
224.0988290301986
 30
0.0
 11
50.5
 21
226.9011709698014
 31
0.0
  0
CIRCLE
  5
FE
  8
DATA
  6
CONTINUOUS
 62
     7
 10
24.5
 20
199.5
 30
0.0
 40
2.0
  0
LINE
  5
FF
  8
DATA
  6
CONTINUOUS
 62
     7
 10
23.098829030198591
 20
199.5
 30
0.0
 11
25.901170969801409
 21
199.5
 31
0.0
  0
LINE
  5
100
  8
DATA
  6
CONTINUOUS
 62
     7
 10
24.5
 20
198.0988290301986
 30
0.0
 11
24.5
 21
200.9011709698014
 31
0.0
  0
CIRCLE
  5
101
  8
DATA
  6
CONTINUOUS
 62
     7
 10
50.5
 20
199.5
 30
0.0
 40
2.0
  0
LINE
  5
102
  8
DATA
  6
CONTINUOUS
 62
     7
 10
49.098829030198573
 20
199.5
 30
0.0
 11
51.901170969801413
 21
199.5
 31
0.0
  0
LINE
  5
103
  8
DATA
  6
CONTINUOUS
 62
     7
 10
50.5
 20
198.0988290301986
 30
0.0
 11
50.5
 21
200.9011709698014
 31
0.0
  0
POLYLINE
  5
104
  8
DATA
  6
CONTINUOUS
 62
     7
 66
     1
 10
0.0
 20
0.0
 30
0.0
  0
VERTEX
  5
319
  8
DATA
  6
CONTINUOUS
 62
     7
 10
50.280000000000001
 20
89.500000000000014
 30
0.0
  0
VERTEX
  5
31A
  8
DATA
  6
CONTINUOUS
 62
     7
 10
51.0
 20
89.500000000000014
 30
0.0
  0
VERTEX
  5
31B
  8
DATA
  6
CONTINUOUS
 62
     7
 10
51.0
 20
87.5
 30
0.0
  0
VERTEX
  5
31C
  8
DATA
  6
CONTINUOUS
 62
     7
 10
50.280000000000001
 20
87.5
 30
0.0
  0
SEQEND
  5
31D
  8
DATA
  6
CONTINUOUS
 62
     7
  0
POLYLINE
  5
10B
  8
DATA
  6
CONTINUOUS
 62
     7
 66
     1
 10
0.0
 20
0.0
 30
0.0
  0
VERTEX
  5
31E
  8
DATA
  6
CONTINUOUS
 62
     7
 10
40.719999999999999
 20
87.5
 30
0.0
  0
VERTEX
  5
31F
  8
DATA
  6
CONTINUOUS
 62
     7
 10
40.0
 20
87.5
 30
0.0
  0
VERTEX
  5
320
  8
DATA
  6
CONTINUOUS
 62
     7
 10
40.0
 20
89.500000000000014
 30
0.0
  0
VERTEX
  5
321
  8
DATA
  6
CONTINUOUS
 62
     7
 10
40.719999999999999
 20
89.500000000000014
 30
0.0
  0
SEQEND
  5
322
  8
DATA
  6
CONTINUOUS
 62
     7
  0
POLYLINE
  5
112
  8
DATA
  6
CONTINUOUS
 62
     7
 66
     1
 10
0.0
 20
0.0
 30
0.0
  0
VERTEX
  5
323
  8
DATA
  6
CONTINUOUS
 62
     7
 10
42.280000000000001
 20
165.5
 30
0.0
  0
VERTEX
  5
324
  8
DATA
  6
CONTINUOUS
 62
     7
 10
43.0
 20
165.5
 30
0.0
  0
VERTEX
  5
325
  8
DATA
  6
CONTINUOUS
 62
     7
 10
43.0
 20
163.5
 30
0.0
  0
VERTEX
  5
326
  8
DATA
  6
CONTINUOUS
 62
     7
 10
42.280000000000001
 20
163.5
 30
0.0
  0
SEQEND
  5
327
  8
DATA
  6
CONTINUOUS
 62
     7
  0
POLYLINE
  5
119
  8
DATA
  6
CONTINUOUS
 62
     7
 66
     1
 10
0.0
 20
0.0
 30
0.0
  0
VERTEX
  5
328
  8
DATA
  6
CONTINUOUS
 62
     7
 10
32.719999999999999
 20
163.5
 30
0.0
  0
VERTEX
  5
329
  8
DATA
  6
CONTINUOUS
 62
     7
 10
32.0
 20
163.5
 30
0.0
  0
VERTEX
  5
32A
  8
DATA
  6
CONTINUOUS
 62
     7
 10
32.0
 20
165.5
 30
0.0
  0
VERTEX
  5
32B
  8
DATA
  6
CONTINUOUS
 62
     7
 10
32.719999999999999
 20
165.5
 30
0.0
  0
SEQEND
  5
32C
  8
DATA
  6
CONTINUOUS
 62
     7
  0
LINE
  5
120
  8
DATA
  6
CONTINUOUS
 62
     7
 10
112.49999999970871
 20
62.499999999780698
 30
0.0
 11
112.49999999970871
 21
12.4999999997807
 31
0.0
  0
LINE
  5
121
  8
DATA
  6
CONTINUOUS
 62
     7
 10
165.49999999970859
 20
62.499999999780698
 30
0.0
 11
165.49999999970859
 21
12.4999999997807
 31
0.0
  0
LINE
  5
122
  8
DATA
  6
CONTINUOUS
 62
     7
 10
112.49999999970871
 20
62.499999999780698
 30
0.0
 11
165.49999999970859
 21
62.499999999780698
 31
0.0
  0
LINE
  5
123
  8
DATA
  6
CONTINUOUS
 62
     7
 10
112.49999999970871
 20
12.4999999997807
 30
0.0
 11
165.49999999970859
 21
12.4999999997807
 31
0.0
  0
LINE
  5
124
  8
DATA
  6
CONTINUOUS
 62
     7
 10
114.49999999970871
 20
62.499999999780698
 30
0.0
 11
114.49999999970871
 21
12.4999999997807
 31
0.0
  0
LINE
  5
125
  8
DATA
  6
CONTINUOUS
 62
     7
 10
163.49999999970859
 20
62.499999999780698
 30
0.0
 11
163.49999999970859
 21
12.4999999997807
 31
0.0
  0
LINE
  5
126
  8
DATA
  6
CONTINUOUS
 62
     7
 10
181.49999999970839
 20
42.279999999780678
 30
0.0
 11
181.49999999970839
 21
32.71999999978069
 31
0.0
  0
LINE
  5
127
  8
DATA
  6
CONTINUOUS
 62
     7
 10
165.49999999970859
 20
45.499999999780698
 30
0.0
 11
169.99999999970859
 21
45.499999999780698
 31
0.0
  0
LINE
  5
128
  8
DATA
  6
CONTINUOUS
 62
     7
 10
169.99999999970859
 20
29.499999999780702
 30
0.0
 11
165.49999999970859
 21
29.499999999780702
 31
0.0
  0
LINE
  5
129
  8
DATA
  6
CONTINUOUS
 62
     7
 10
169.99999999970859
 20
45.499999999780698
 30
0.0
 11
169.99999999970859
 21
29.499999999780702
 31
0.0
  0
LINE
  5
12A
  8
DATA
  6
CONTINUOUS
 62
     7
 10
169.99999999970859
 20
42.279999999780678
 30
0.0
 11
181.49999999970839
 21
42.279999999780678
 31
0.0
  0
LINE
  5
12B
  8
DATA
  6
CONTINUOUS
 62
     7
 10
181.49999999970839
 20
32.71999999978069
 30
0.0
 11
169.99999999970859
 21
32.71999999978069
 31
0.0
  0
LINE
  5
12C
  8
DATA
  6
CONTINUOUS
 62
     7
 10
96.499999999708706
 20
42.279999999780678
 30
0.0
 11
96.499999999708706
 21
32.71999999978069
 31
0.0
  0
LINE
  5
12D
  8
DATA
  6
CONTINUOUS
 62
     7
 10
112.49999999970871
 20
45.499999999780698
 30
0.0
 11
107.99999999970871
 21
45.499999999780698
 31
0.0
  0
LINE
  5
12E
  8
DATA
  6
CONTINUOUS
 62
     7
 10
107.99999999970871
 20
29.499999999780702
 30
0.0
 11
112.49999999970871
 21
29.499999999780702
 31
0.0
  0
LINE
  5
12F
  8
DATA
  6
CONTINUOUS
 62
     7
 10
107.99999999970871
 20
45.499999999780698
 30
0.0
 11
107.99999999970871
 21
29.499999999780702
 31
0.0
  0
LINE
  5
130
  8
DATA
  6
CONTINUOUS
 62
     7
 10
107.99999999970871
 20
42.279999999780678
 30
0.0
 11
96.499999999708706
 21
42.279999999780678
 31
0.0
  0
LINE
  5
131
  8
DATA
  6
CONTINUOUS
 62
     7
 10
96.499999999708706
 20
32.71999999978069
 30
0.0
 11
107.99999999970871
 21
32.71999999978069
 31
0.0
  0
CIRCLE
  5
132
  8
DATA
  6
CONTINUOUS
 62
     7
 10
100.99999999970871
 20
37.5
 30
0.0
 40
1.0
  0
CIRCLE
  5
133
  8
DATA
  6
CONTINUOUS
 62
     7
 10
176.99999999970859
 20
37.5
 30
0.0
 40
1.0
  0
TEXT
  5
134
  8
DATA
 62
     7
 10
56.909179193245897
 20
149.6032624831916
 30
0.0
 40
2.850472005208331
  1
RF Input(from Antenna)
 50
180.0
 41
0.7
 11
56.909179193245897
 21
146.7527904779833
 31
0.0
 73
     3
  0
TEXT
  5
135
  8
DATA
 62
     7
 10
50.937048338562143
 20
106.0052339636633
 30
0.0
 40
2.850472005208331
  1
RF Output(to SR)
 50
180.0
 41
0.7
 11
50.937048338562143
 21
103.154761958455
 31
0.0
 73
     3
  0
TEXT
  5
136
  8
DATA
 62
     7
 10
17.054404461954292
 20
115.32665713467701
 30
0.0
 40
2.850472005208331
  1
ASU 4000/BNC
 50
90.0
 41
0.7
 11
14.20393245674596
 21
115.32665713467701
 31
0.0
 73
     3
  0
CIRCLE
  5
137
  8
DATA
  6
STYLE_01
 62
     7
 10
37.5
 20
37.5
 30
0.0
 40
25.0
  0
CIRCLE
  5
138
  8
DATA
  6
STYLE_01
 62
     7
 10
37.5
 20
212.5
 30
0.0
 40
25.0
  0
TEXT
  5
139
  8
DATA
 62
     7
 10
23.02112069688738
 20
113.74363518041849
 30
0.0
 40
2.0360514322916661
  1
DC
 50
90.0
 41
0.7
 11
20.985069264595712
 21
113.74363518041849
 31
0.0
 73
     3
  0
LINE
  5
13A
  8
DATA
  6
CONTINUOUS
 62
     7
 10
21.29706895466893
 20
117.51531007160609
 30
0.0
 11
21.29706895466893
 21
123.3
 31
0.0
  0
LINE
  5
13B
  8
DATA
  6
STYLE_05
 62
     7
 10
22.70017243910581
 20
117.51531007160609
 30
0.0
 11
22.70017243910581
 21
123.3
 31
0.0
  0
TEXT
  5
13C
  8
DATA
 62
     7
 10
23.02112069688738
 20
124.19587625959301
 30
0.0
 40
2.0360514322916661
  1
Input
 50
90.0
 41
0.7
 11
20.985069264595712
 21
124.19587625959301
 31
0.0
 73
     3
  0
TEXT
  5
13D
  8
DATA
 62
     7
 10
22.697416666666658
 20
133.27811775823449
 30
0.0
 40
1.6288411458333321
  1
12V/500mA
 50
90.0
 41
0.7
 11
21.068575520833331
 21
133.27811775823449
 31
0.0
 73
     3
  0
TEXT
  5
13E
  8
DATA
 62
     7
 10
28.021120696887369
 20
113.74363518041849
 30
0.0
 40
2.0360514322916661
  1
DC
 50
90.0
 41
0.7
 11
25.985069264595712
 21
113.74363518041849
 31
0.0
 73
     3
  0
LINE
  5
13F
  8
DATA
  6
CONTINUOUS
 62
     7
 10
26.297068954668941
 20
117.51531007160609
 30
0.0
 11
26.297068954668941
 21
123.3
 31
0.0
  0
LINE
  5
140
  8
DATA
  6
STYLE_05
 62
     7
 10
27.70017243910581
 20
117.51531007160609
 30
0.0
 11
27.70017243910581
 21
123.3
 31
0.0
  0
TEXT
  5
141
  8
DATA
 62
     7
 10
28.021120696887369
 20
124.19587625959301
 30
0.0
 40
2.0360514322916661
  1
Output
 50
90.0
 41
0.7
 11
25.985069264595712
 21
124.19587625959301
 31
0.0
 73
     3
  0
TEXT
  5
142
  8
DATA
 62
     7
 10
27.697416666666658
 20
133.27811775823449
 30
0.0
 40
1.6288411458333321
  1
8V/500mA
 50
90.0
 41
0.7
 11
26.068575520833331
 21
133.27811775823449
 31
0.0
 73
     3
  0
CIRCLE
  5
143
  8
DATA
  6
CONTINUOUS
 62
     7
 10
35.156281619224728
 20
122.85742490434581
 30
0.0
 40
1.1999999999999751
  0
ARC
  5
144
  8
DATA
  6
CONTINUOUS
 62
     7
 10
35.156281619224707
 20
122.85742490434581
 30
0.0
 40
2.0784609690826712
 50
122.7698542454978
 51
57.230145754501997
  0
LINE
  5
145
  8
DATA
  6
CONTINUOUS
 62
     7
 10
35.156281619224728
 20
124.05742490434579
 30
0.0
 11
35.156281619224728
 21
126.1084663150093
 31
0.0
  0
LINE
  5
146
  8
DATA
  6
STYLE_05
 62
     7
 10
35.156281619224728
 20
120.60742490434581
 30
0.0
 11
35.156281619224728
 21
117.7084663150093
 31
0.0
  0
TEXT
  5
147
  8
DATA
 62
     7
 10
33.879450647434801
 20
126.2781291607677
 30
0.0
 40
4.072102864583333
  1
+
 41
0.7
 11
33.879450647434801
 21
130.35023202535109
 31
0.0
 73
     3
  0
TEXT
  5
148
  8
DATA
 62
     7
 10
37.107367314101459
 20
113.8027190383977
 30
0.0
 40
4.072102864583333
  1
-
 50
90.0
 41
0.7
 11
33.035264449518117
 21
113.8027190383977
 31
0.0
 73
     3
  0
CIRCLE
  5
149
  8
DATA
  6
CONTINUOUS
 62
     7
 10
29.671161640653541
 20
41.5
 30
0.0
 40
3.9000000000000039
  0
CIRCLE
  5
14A
  8
DATA
  6
CONTINUOUS
 62
     7
 10
29.671161640653541
 20
41.5
 30
0.0
 40
5.75
  0
CIRCLE
  5
14B
  8
DATA
  6
CONTINUOUS
 62
     7
 10
29.671161640653541
 20
41.5
 30
0.0
 40
1.0
  0
POLYLINE
  5
14C
  8
DATA
  6
CONTINUOUS
 62
     7
 66
     1
 10
0.0
 20
0.0
 30
0.0
 70
     1
  0
VERTEX
  5
32D
  8
DATA
  6
CONTINUOUS
 62
     7
 10
24.615285614911318
 20
43.626370368881972
 30
0.0
  0
VERTEX
  5
32E
  8
DATA
  6
CONTINUOUS
 62
     7
 10
25.301732870476162
 20
38.1846681077635
 30
0.0
  0
VERTEX
  5
32F
  8
DATA
  6
CONTINUOUS
 62
     7
 10
30.35760889621838
 20
36.058297738881528
 30
0.0
  0
VERTEX
  5
330
  8
DATA
  6
CONTINUOUS
 62
     7
 10
34.727037666395759
 20
39.373629631118042
 30
0.0
  0
VERTEX
  5
331
  8
DATA
  6
CONTINUOUS
 62
     7
 10
34.04059041083093
 20
44.815331892236493
 30
0.0
  0
VERTEX
  5
332
  8
DATA
  6
CONTINUOUS
 62
     7
 10
28.984714385088679
 20
46.941702261118451
 30
0.0
  0
SEQEND
  5
333
  8
DATA
  6
CONTINUOUS
 62
     7
  0
LINE
  5
155
  8
DATA
  6
CONTINUOUS
 62
     7
 10
33.57116164065355
 20
94.0
 30
0.0
 11
25.771161640653531
 21
94.0
 31
0.0
  0
LINE
  5
156
  8
DATA
  6
CONTINUOUS
 62
     7
 10
25.771161640653531
 20
94.0
 30
0.0
 11
25.771161640653531
 21
96.5
 31
0.0
  0
LINE
  5
157
  8
DATA
  6
CONTINUOUS
 62
     7
 10
33.57116164065355
 20
94.0
 30
0.0
 11
33.57116164065355
 21
96.5
 31
0.0
  0
LINE
  5
158
  8
DATA
  6
CONTINUOUS
 62
     7
 10
23.92116164065353
 20
96.5
 30
0.0
 11
35.42116164065353
 21
96.5
 31
0.0
  0
LINE
  5
159
  8
DATA
  6
CONTINUOUS
 62
     7
 10
23.92116164065353
 20
100.0
 30
0.0
 11
23.92116164065353
 21
96.5
 31
0.0
  0
LINE
  5
15A
  8
DATA
  6
CONTINUOUS
 62
     7
 10
35.42116164065353
 20
96.5
 30
0.0
 11
35.42116164065353
 21
99.370446715286604
 31
0.0
  0
LINE
  5
15B
  8
DATA
  6
CONTINUOUS
 62
     7
 10
109.49999999970871
 20
47.24544454374864
 30
0.0
 11
112.47553181722979
 21
47.24544454374864
 31
0.0
  0
LINE
  5
15C
  8
DATA
  6
CONTINUOUS
 62
     7
 10
106.49999999970871
 20
45.386753812704697
 30
0.0
 11
107.99999999970871
 21
45.386753812704697
 31
0.0
  0
LINE
  5
15D
  8
DATA
  6
CONTINUOUS
 62
     7
 10
106.49999999970871
 20
42.279999999780678
 30
0.0
 11
106.49999999970871
 21
45.386753812704697
 31
0.0
  0
LINE
  5
15E
  8
DATA
  6
CONTINUOUS
 62
     7
 10
109.49999999970871
 20
45.499999999780698
 30
0.0
 11
109.49999999970871
 21
47.24544454374864
 31
0.0
  0
ARC
  5
15F
  8
DATA
  6
CONTINUOUS
 62
     7
 10
112.8162525345189
 20
48.5
 30
0.0
 40
1.299999999999996
 50
104.079688868679
 51
255.9203111313208
  0
ENDSEC
  0
EOF
