  0
SECTION
  2
HEADER
  9
$ACADVER
  1
AC1009
  9
$DWGCODEPAGE
  3
ansi_932
  9
$INSBASE
 10
0.0
 20
0.0
 30
0.0
  9
$EXTMIN
 10
-180.000000009
 20
-272.9954744665982
 30
0.0
  9
$EXTMAX
 10
180.000000009
 20
263.5318150133531
 30
0.0
  9
$LIMMIN
 10
0.0
 20
0.0
  9
$LIMMAX
 10
0.0
 20
0.0
  9
$ORTHOMODE
 70
     0
  9
$REGENMODE
 70
     1
  9
$FILLMODE
 70
     1
  9
$QTEXTMODE
 70
     0
  9
$MIRRTEXT
 70
     1
  9
$DRAGMODE
 70
     2
  9
$LTSCALE
 40
10.16
  9
$OSMODE
 70
    37
  9
$ATTMODE
 70
     1
  9
$TEXTSIZE
 40
0.0
  9
$TRACEWID
 40
1.0
  9
$TEXTSTYLE
  7
STANDARD
  9
$CLAYER
  8
DATA
  9
$CELTYPE
  6
BYLAYER
  9
$CECOLOR
 62
   256
  9
$DIMSCALE
 40
1.0
  9
$DIMASZ
 40
0.18
  9
$DIMEXO
 40
0.0625
  9
$DIMDLI
 40
0.38
  9
$DIMRND
 40
0.0
  9
$DIMDLE
 40
0.0
  9
$DIMEXE
 40
0.18
  9
$DIMTP
 40
0.0
  9
$DIMTM
 40
0.0
  9
$DIMTXT
 40
0.18
  9
$DIMCEN
 40
0.09
  9
$DIMTSZ
 40
0.0
  9
$DIMTOL
 70
     0
  9
$DIMLIM
 70
     0
  9
$DIMTIH
 70
     1
  9
$DIMTOH
 70
     1
  9
$DIMSE1
 70
     0
  9
$DIMSE2
 70
     0
  9
$DIMTAD
 70
     0
  9
$DIMZIN
 70
     0
  9
$DIMBLK
  1

  9
$DIMASO
 70
     1
  9
$DIMSHO
 70
     1
  9
$DIMPOST
  1

  9
$DIMAPOST
  1

  9
$DIMALT
 70
     0
  9
$DIMALTD
 70
     2
  9
$DIMALTF
 40
25.4
  9
$DIMLFAC
 40
1.0
  9
$DIMTOFL
 70
     0
  9
$DIMTVP
 40
0.0
  9
$DIMTIX
 70
     0
  9
$DIMSOXD
 70
     0
  9
$DIMSAH
 70
     0
  9
$DIMBLK1
  1

  9
$DIMBLK2
  1

  9
$DIMSTYLE
  2
STANDARD
  9
$DIMCLRD
 70
     0
  9
$DIMCLRE
 70
     0
  9
$DIMCLRT
 70
     0
  9
$DIMTFAC
 40
1.0
  9
$DIMGAP
 40
0.09
  9
$LUNITS
 70
     2
  9
$LUPREC
 70
     2
  9
$SKETCHINC
 40
0.1
  9
$FILLETRAD
 40
0.0
  9
$AUNITS
 70
     0
  9
$AUPREC
 70
     0
  9
$MENU
  1
acad
  9
$ELEVATION
 40
0.0
  9
$PELEVATION
 40
0.0
  9
$THICKNESS
 40
0.0
  9
$LIMCHECK
 70
     0
  9
$CHAMFERA
 40
0.0
  9
$CHAMFERB
 40
0.0
  9
$SKPOLY
 70
     0
  9
$TDCREATE
 40
2459342.411247592
  9
$TDUPDATE
 40
2459342.411910011
  9
$TDINDWG
 40
2459342.036910636
  9
$TDUSRTIMER
 40
0.000663044
  9
$USRTIMER
 70
     1
  9
$ANGBASE
 50
0.0
  9
$ANGDIR
 70
     0
  9
$PDMODE
 70
     1
  9
$PDSIZE
 40
-2.0
  9
$PLINEWID
 40
0.0
  9
$COORDS
 70
     1
  9
$SPLFRAME
 70
     0
  9
$SPLINETYPE
 70
     6
  9
$SPLINESEGS
 70
     8
  9
$ATTDIA
 70
     1
  9
$ATTREQ
 70
     1
  9
$HANDLING
 70
     1
  9
$HANDSEED
  5
480
  9
$SURFTAB1
 70
     6
  9
$SURFTAB2
 70
     6
  9
$SURFTYPE
 70
     6
  9
$SURFU
 70
     6
  9
$SURFV
 70
     6
  9
$UCSNAME
  2

  9
$UCSORG
 10
0.0
 20
0.0
 30
0.0
  9
$UCSXDIR
 10
1.0
 20
0.0
 30
0.0
  9
$UCSYDIR
 10
0.0
 20
1.0
 30
0.0
  9
$PUCSNAME
  2

  9
$PUCSORG
 10
0.0
 20
0.0
 30
0.0
  9
$PUCSXDIR
 10
1.0
 20
0.0
 30
0.0
  9
$PUCSYDIR
 10
0.0
 20
1.0
 30
0.0
  9
$USERI1
 70
     0
  9
$USERI2
 70
     0
  9
$USERI3
 70
     0
  9
$USERI4
 70
     0
  9
$USERI5
 70
     0
  9
$USERR1
 40
0.0
  9
$USERR2
 40
0.0
  9
$USERR3
 40
0.0
  9
$USERR4
 40
0.0
  9
$USERR5
 40
0.0
  9
$WORLDVIEW
 70
     1
  9
$SHADEDGE
 70
     3
  9
$SHADEDIF
 70
    70
  9
$TILEMODE
 70
     1
  9
$MAXACTVP
 70
    64
  9
$PLIMCHECK
 70
     0
  9
$PEXTMIN
 10
1.000000000000000E+20
 20
1.000000000000000E+20
 30
1.000000000000000E+20
  9
$PEXTMAX
 10
-1.000000000000000E+20
 20
-1.000000000000000E+20
 30
-1.000000000000000E+20
  9
$PLIMMIN
 10
0.0
 20
0.0
  9
$PLIMMAX
 10
12.0
 20
9.0
  9
$UNITMODE
 70
     0
  9
$VISRETAIN
 70
     0
  9
$PLINEGEN
 70
     1
  9
$PSLTSCALE
 70
     0
  0
ENDSEC
  0
SECTION
  2
TABLES
  0
TABLE
  2
VPORT
 70
     1
  0
VPORT
  2
*ACTIVE
 70
     0
 10
0.0
 20
0.0
 11
1.0
 21
1.0
 12
0.0
 22
-3.531814999999995
 13
0.0
 23
0.0
 14
1.0
 24
1.0
 15
0.0
 25
0.0
 16
0.0
 26
0.0
 36
1.0
 17
0.0
 27
0.0
 37
0.0
 40
534.1272600267066
 41
2.794721407624633
 42
50.0
 43
0.0
 44
0.0
 50
0.0
 51
0.0
 71
     0
 72
  2000
 73
     1
 74
     1
 75
     0
 76
     0
 77
     0
 78
     0
  0
ENDTAB
  0
TABLE
  2
LTYPE
 70
    13
  0
LTYPE
  2
CONTINUOUS
 70
     0
  3
Solid line
 72
    65
 73
     0
 40
0.0
  0
LTYPE
  2
STYLE_12
 70
     0
  3

 72
    65
 73
     2
 40
0.694427490234375
 49
0.4860687255859375
 49
-0.2083587646484375
  0
ENDTAB
  0
TABLE
  2
LAYER
 70
     6
  0
LAYER
  2
0
 70
     0
 62
     7
  6
CONTINUOUS
  0
LAYER
  2
HIBINO-BASE
 70
     0
 62
     7
  6
CONTINUOUS
  0
LAYER
  2
PATTERN_FILL
 70
     0
 62
     7
  6
CONTINUOUS
  0
LAYER
  2
SPEC
 70
     0
 62
     7
  6
CONTINUOUS
  0
LAYER
  2
DIMNSIONS
 70
     0
 62
     7
  6
CONTINUOUS
  0
LAYER
  2
DATA
 70
     0
 62
     7
  6
CONTINUOUS
  0
ENDTAB
  0
TABLE
  2
STYLE
 70
     2
  0
STYLE
  2
STANDARD
 70
     0
 40
0.0
 41
1.0
 50
0.0
 71
     0
 42
0.0
  3
txt
  4
BIGFONT.SHX
  0
ENDTAB
  0
TABLE
  2
VIEW
 70
     0
  0
ENDTAB
  0
TABLE
  2
UCS
 70
     0
  0
ENDTAB
  0
TABLE
  2
APPID
 70
     3
  0
APPID
  2
ACAD
 70
     0
  0
APPID
  2
ACAD_MLEADERVER
 70
     0
  0
APPID
  2
ACADANNOPO
 70
     0
  0
ENDTAB
  0
TABLE
  2
DIMSTYLE
 70
     1
  0
DIMSTYLE
  2
STANDARD
 70
     0
  3

  4

  5

  6

  7

 40
1.0
 41
0.18
 42
0.0625
 43
0.38
 44
0.18
 45
0.0
 46
0.0
 47
0.0
 48
0.0
140
0.18
141
0.09
142
0.0
143
25.4
144
1.0
145
0.0
146
1.0
147
0.09
 71
     0
 72
     0
 73
     1
 74
     1
 75
     0
 76
     0
 77
     0
 78
     0
170
     0
171
     2
172
     0
173
     0
174
     0
175
     0
176
     0
177
     0
178
     0
  0
ENDTAB
  0
ENDSEC
  0
SECTION
  2
BLOCKS
  0
BLOCK
  8
DATA
  2
$MODEL_SPACE
 70
     0
 10
0.0
 20
0.0
 30
0.0
  3
$MODEL_SPACE
  1

  0
ENDBLK
  5
425
  8
DATA
  0
BLOCK
 67
     1
  8
DATA
  2
$PAPER_SPACE
 70
     0
 10
0.0
 20
0.0
 30
0.0
  3
$PAPER_SPACE
  1

  0
ENDBLK
  5
423
 67
     1
  8
DATA
  0
ENDSEC
  0
SECTION
  2
ENTITIES
  0
LINE
  5
2F
  8
HIBINO-BASE
  6
CONTINUOUS
 62
     7
 10
-180.000000009
 20
263.5318150133531
 30
0.0
 11
180.000000009
 21
263.5318150133531
 31
0.0
  0
LINE
  5
30
  8
HIBINO-BASE
  6
CONTINUOUS
 62
     7
 10
180.000000009
 20
-256.4681850126468
 30
0.0
 11
-180.000000009
 21
-256.4681850126468
 31
0.0
  0
LINE
  5
31
  8
HIBINO-BASE
  6
CONTINUOUS
 62
     7
 10
-180.000000009
 20
-256.4681850126468
 30
0.0
 11
-180.000000009
 21
263.5318150133531
 31
0.0
  0
LINE
  5
32
  8
HIBINO-BASE
  6
CONTINUOUS
 62
     7
 10
180.000000009
 20
263.5318150133531
 30
0.0
 11
180.000000009
 21
-256.4681850126468
 31
0.0
  0
LINE
  5
33
  8
HIBINO-BASE
  6
CONTINUOUS
 62
     7
 10
0.0000000000000284
 20
-211.4681850103968
 30
0.0
 11
180.000000009
 21
-211.4681850103968
 31
0.0
  0
LINE
  5
34
  8
HIBINO-BASE
  6
CONTINUOUS
 62
     7
 10
0.0000000000000284
 20
-256.4681850126468
 30
0.0
 11
0.0000000000000284
 21
-211.4681850103968
 31
0.0
  0
TEXT
  5
35
  8
HIBINO-BASE
 62
     7
 10
1.80000000009004
 20
-216.4855716773143
 30
0.0
 40
3.25768229182955
  1
NOTE
 41
0.7
 11
1.80000000009004
 21
-213.2278893854847
 31
0.0
 73
     3
  0
LINE
  5
36
  8
HIBINO-BASE
  6
CONTINUOUS
 62
     7
 10
70.00000000350002
 20
-256.4681850126468
 30
0.0
 11
70.00000000350002
 21
-211.4681850103968
 31
0.0
  0
TEXT
  5
37
  8
HIBINO-BASE
 62
     7
 10
71.80000000358997
 20
-216.4855716773143
 30
0.0
 40
3.25768229182955
  1
TITLE
 41
0.7
 11
71.80000000358997
 21
-213.2278893854847
 31
0.0
 73
     3
  0
LINE
  5
38
  8
HIBINO-BASE
  6
CONTINUOUS
 62
     7
 10
0.0000000000000284
 20
-236.4681850116467
 30
0.0
 11
180.000000009
 21
-236.4681850116467
 31
0.0
  0
TEXT
  5
39
  8
HIBINO-BASE
 62
     7
 10
96.80000000483997
 20
-241.3729316785587
 30
0.0
 40
3.25768229182955
  1
DRAWN
 41
0.7
 11
96.80000000483997
 21
-238.1152493867291
 31
0.0
 73
     3
  0
TEXT
  5
3A
  8
HIBINO-BASE
 62
     7
 10
46.80000000233998
 20
-241.3729316785587
 30
0.0
 40
3.25768229182955
  1
DATE
 41
0.7
 11
46.80000000233998
 21
-238.1152493867291
 31
0.0
 73
     3
  0
TEXT
  5
3B
  8
HIBINO-BASE
 62
     7
 10
26.80000000133998
 20
-241.3729316785587
 30
0.0
 40
3.25768229182955
  1
SCALE
 41
0.7
 11
26.80000000133998
 21
-238.1152493867291
 31
0.0
 73
     3
  0
TEXT
  5
3C
  8
HIBINO-BASE
 62
     7
 10
71.80000000358997
 20
-241.3729316785587
 30
0.0
 40
3.25768229182955
  1
DESIGN
 41
0.7
 11
71.80000000358997
 21
-238.1152493867291
 31
0.0
 73
     3
  0
TEXT
  5
3D
  8
HIBINO-BASE
 62
     7
 10
146.80000000734
 20
-241.3729316785587
 30
0.0
 40
3.25768229182955
  1
DRAWING NO.
 41
0.7
 11
146.80000000734
 21
-238.1152493867291
 31
0.0
 73
     3
  0
TEXT
  5
3E
  8
HIBINO-BASE
 62
     7
 10
121.80000000609
 20
-241.3729316785587
 30
0.0
 40
3.25768229182955
  1
CHECK
 41
0.7
 11
121.80000000609
 21
-238.1152493867291
 31
0.0
 73
     3
  0
LINE
  5
3F
  8
HIBINO-BASE
  6
CONTINUOUS
 62
     7
 10
28.75000000143753
 20
-253.9681850125218
 30
0.0
 11
36.25000000181252
 21
-246.4681850121467
 31
0.0
  0
TEXT
  5
40
  8
HIBINO-BASE
 62
     7
 10
27.50000000137503
 20
-248.6860716789243
 30
0.0
 40
3.25768229182955
  1
1
 41
0.7
 11
27.50000000137503
 21
-245.4283893870948
 31
0.0
 73
     3
  0
LINE
  5
41
  8
HIBINO-BASE
  6
CONTINUOUS
 62
     7
 10
25.00000000125003
 20
-256.4681850126468
 30
0.0
 11
25.00000000125003
 21
-236.4681850116467
 31
0.0
  0
LINE
  5
42
  8
HIBINO-BASE
  6
CONTINUOUS
 62
     7
 10
45.00000000224997
 20
-256.4681850126468
 30
0.0
 11
45.00000000224997
 21
-236.4681850116467
 31
0.0
  0
LINE
  5
43
  8
HIBINO-BASE
  6
CONTINUOUS
 62
     7
 10
95.00000000474998
 20
-236.4681850116467
 30
0.0
 11
95.00000000474998
 21
-256.4681850126468
 31
0.0
  0
LINE
  5
44
  8
HIBINO-BASE
  6
CONTINUOUS
 62
     7
 10
145.00000000725
 20
-236.4681850116467
 30
0.0
 11
145.00000000725
 21
-256.4681850126468
 31
0.0
  0
LINE
  5
45
  8
HIBINO-BASE
  6
CONTINUOUS
 62
     7
 10
120.000000006
 20
-256.4681850126468
 30
0.0
 11
120.000000006
 21
-236.4681850116467
 31
0.0
  0
TEXT
  5
46
  8
HIBINO-BASE
 62
     7
 10
46.71308000233567
 20
-250.740891679027
 30
0.0
 40
3.25768229182955
  1
'21.04.
 41
0.7
 11
46.71308000233567
 21
-247.4832093871974
 31
0.0
 73
     3
  0
TEXT
  5
47
  8
HIBINO-BASE
 62
     7
 10
35.00000000175002
 20
-252.4360716791118
 30
0.0
 40
3.25768229182955
  1
2
 41
0.7
 11
35.00000000175002
 21
-249.1783893872823
 31
0.0
 73
     3
  0
TEXT
  5
48
  8
HIBINO-BASE
 62
     7
 10
98.01162002696982
 20
-250.740891679027
 30
0.0
 40
3.25768229182955
  1
N.Sasaki
 41
0.7
 11
98.01162002696982
 21
-247.4832093871974
 31
0.0
 73
     3
  0
TEXT
  5
49
  8
HIBINO-BASE
 62
     7
 10
7.76666666705507
 20
-252.5161850124491
 30
0.0
 40
6.515364583659101
  1
A4
 41
0.7
 11
7.76666666705507
 21
-246.00082042879
 31
0.0
 73
     3
  0
TEXT
  5
4A
  8
HIBINO-BASE
 62
     7
 10
1.916666666762491
 20
-241.7070950119087
 30
0.0
 40
3.25768229182955
  1
PAPER SIZE
 41
0.7
 11
1.916666666762491
 21
-238.4494127200792
 31
0.0
 73
     3
  0
TEXT
  5
4B
  8
HIBINO-BASE
 62
     7
 10
-165.6320000082816
 20
-269.2855406132877
 30
0.0
 40
7.200088359735004
  1
Hibino Corporation
 41
0.7
 11
-165.6320000082816
 21
-262.0854522535527
 31
0.0
 73
     3
  0
TEXT
  5
4C
  8
HIBINO-BASE
 62
     7
 10
100.1367800050069
 20
-269.2855406132877
 30
0.0
 40
7.200088359735004
  1
ヒビノ株式会社
 41
0.7
 11
100.1367800050069
 21
-262.0854522535527
 31
0.0
 73
     3
  0
LINE
  5
4D
  8
PATTERN_FILL
  6
CONTINUOUS
 62
     7
 10
-112.4048328056505
 20
16.09516719434954
 30
0.0
 11
-108.1800364321391
 21
20.31996356786089
 31
0.0
  0
LINE
  5
4E
  8
PATTERN_FILL
  6
CONTINUOUS
 62
     7
 10
-112.4600213813764
 20
13.53997861862369
 30
0.0
 11
-105.4368702364242
 21
20.56312976357585
 31
0.0
  0
LINE
  5
4F
  8
PATTERN_FILL
  6
CONTINUOUS
 62
     7
 10
-112.5152099571021
 20
10.98479004289783
 30
0.0
 11
-102.7310727444925
 21
20.76892725550746
 31
0.0
  0
LINE
  5
50
  8
PATTERN_FILL
  6
CONTINUOUS
 62
     7
 10
-112.570398532828
 20
8.429601467171985
 30
0.0
 11
-100.0610575596256
 21
20.93894244037441
 31
0.0
  0
LINE
  5
51
  8
PATTERN_FILL
  6
CONTINUOUS
 62
     7
 10
-112.6255871085539
 20
5.87441289144612
 30
0.0
 11
-97.42536266214665
 21
21.07463733785338
 31
0.0
  0
LINE
  5
52
  8
PATTERN_FILL
  6
CONTINUOUS
 62
     7
 10
-112.6807756842798
 20
3.31922431572027
 30
0.0
 11
-94.8226371874731
 21
21.17736281252686
 31
0.0
  0
LINE
  5
53
  8
PATTERN_FILL
  6
CONTINUOUS
 62
     7
 10
-112.7359642600055
 20
0.7640357399944193
 30
0.0
 11
-92.25162996722474
 21
21.24837003277521
 31
0.0
  0
LINE
  5
54
  8
PATTERN_FILL
  6
CONTINUOUS
 62
     7
 10
-112.7911528357314
 20
-1.791152835731424
 30
0.0
 11
-89.71117955388888
 21
21.28882044611111
 31
0.0
  0
LINE
  5
55
  8
PATTERN_FILL
  6
CONTINUOUS
 62
     7
 10
-112.8463414114573
 20
-4.346341411457274
 30
0.0
 11
-87.20020550049719
 21
21.29979449950276
 31
0.0
  0
LINE
  5
56
  8
PATTERN_FILL
  6
CONTINUOUS
 62
     7
 10
-112.9015299871832
 20
-6.901529987183125
 30
0.0
 11
-84.71770070728701
 21
21.28229929271294
 31
0.0
  0
LINE
  5
57
  8
PATTERN_FILL
  6
CONTINUOUS
 62
     7
 10
-112.9567185629089
 20
-9.456718562908975
 30
0.0
 11
-82.26272467976435
 21
21.23727532023566
 31
0.0
  0
LINE
  5
58
  8
PATTERN_FILL
  6
CONTINUOUS
 62
     7
 10
-113.0119071386348
 20
-12.01190713863483
 30
0.0
 11
-79.83439756873781
 21
21.16560243126219
 31
0.0
  0
LINE
  5
59
  8
PATTERN_FILL
  6
CONTINUOUS
 62
     7
 10
-113.0670957143607
 20
-14.56709571436069
 30
0.0
 11
-77.43189488409132
 21
21.06810511590871
 31
0.0
  0
LINE
  5
5A
  8
PATTERN_FILL
  6
CONTINUOUS
 62
     7
 10
-113.1222842900866
 20
-17.12228429008653
 30
0.0
 11
-75.05444279135554
 21
20.94555720864447
 31
0.0
  0
LINE
  5
5B
  8
PATTERN_FILL
  6
CONTINUOUS
 62
     7
 10
-113.1774728658124
 20
-19.6774728658124
 30
0.0
 11
-72.70131391431573
 21
20.79868608568425
 31
0.0
  0
LINE
  5
5C
  8
PATTERN_FILL
  6
CONTINUOUS
 62
     7
 10
-113.2326614415382
 20
-22.23266144153826
 30
0.0
 11
-70.3718235785775
 21
20.6281764214225
 31
0.0
  0
LINE
  5
5D
  8
PATTERN_FILL
  6
CONTINUOUS
 62
     7
 10
-113.2878500172641
 20
-24.78785001726411
 30
0.0
 11
-68.06532644069216
 21
20.43467355930786
 31
0.0
  0
LINE
  5
5E
  8
PATTERN_FILL
  6
CONTINUOUS
 62
     7
 10
-113.34303859299
 20
-27.34303859298996
 30
0.0
 11
-65.78121345549482
 21
20.21878654450513
 31
0.0
  0
LINE
  5
5F
  8
PATTERN_FILL
  6
CONTINUOUS
 62
     7
 10
-113.3982271687158
 20
-29.89822716871581
 30
0.0
 11
-63.76535191839662
 21
19.73464808160337
 31
0.0
  0
LINE
  5
60
  8
PATTERN_FILL
  6
CONTINUOUS
 62
     7
 10
-113.4534157444416
 20
-32.45341574444166
 30
0.0
 11
-62.71413888924405
 21
18.28586111075594
 31
0.0
  0
LINE
  5
61
  8
PATTERN_FILL
  6
CONTINUOUS
 62
     7
 10
-113.5086043201675
 20
-35.00860432016751
 30
0.0
 11
-62.59114314601686
 21
15.90885685398313
 31
0.0
  0
LINE
  5
62
  8
PATTERN_FILL
  6
CONTINUOUS
 62
     7
 10
-113.5637928958934
 20
-37.56379289589336
 30
0.0
 11
-62.53828816326541
 21
13.46171183673453
 31
0.0
  0
LINE
  5
63
  8
PATTERN_FILL
  6
CONTINUOUS
 62
     7
 10
-113.6189814716192
 20
-40.11898147161921
 30
0.0
 11
-62.48543318051406
 21
11.01456681948594
 31
0.0
  0
LINE
  5
64
  8
PATTERN_FILL
  6
CONTINUOUS
 62
     7
 10
-113.674170047345
 20
-42.67417004734506
 30
0.0
 11
-62.43257819776261
 21
8.567421802237341
 31
0.0
  0
LINE
  5
65
  8
PATTERN_FILL
  6
CONTINUOUS
 62
     7
 10
-113.7293586230709
 20
-45.22935862307091
 30
0.0
 11
-62.37972321501127
 21
6.120276784988754
 31
0.0
  0
LINE
  5
66
  8
PATTERN_FILL
  6
CONTINUOUS
 62
     7
 10
-113.7845471987968
 20
-47.78454719879676
 30
0.0
 11
-62.32686823225981
 21
3.673131767740138
 31
0.0
  0
LINE
  5
67
  8
PATTERN_FILL
  6
CONTINUOUS
 62
     7
 10
-112.0
 20
-48.5
 30
0.0
 11
-62.27401324950847
 21
1.225986750491543
 31
0.0
  0
LINE
  5
68
  8
PATTERN_FILL
  6
CONTINUOUS
 62
     7
 10
-109.5
 20
-48.5
 30
0.0
 11
-62.22115826675702
 21
-1.221158266757072
 31
0.0
  0
LINE
  5
69
  8
PATTERN_FILL
  6
CONTINUOUS
 62
     7
 10
-104.5
 20
-48.5
 30
0.0
 11
-62.11544830125422
 21
-6.115448301254276
 31
0.0
  0
LINE
  5
6A
  8
PATTERN_FILL
  6
CONTINUOUS
 62
     7
 10
-102.0
 20
-48.5
 30
0.0
 11
-62.06259331850288
 21
-8.562593318502863
 31
0.0
  0
LINE
  5
6B
  8
PATTERN_FILL
  6
CONTINUOUS
 62
     7
 10
-99.5
 20
-48.5
 30
0.0
 11
-62.00973833575142
 21
-11.00973833575145
 31
0.0
  0
LINE
  5
6C
  8
PATTERN_FILL
  6
CONTINUOUS
 62
     7
 10
-97.0
 20
-48.5
 30
0.0
 11
-61.95688335300008
 21
-13.45688335300005
 31
0.0
  0
LINE
  5
6D
  8
PATTERN_FILL
  6
CONTINUOUS
 62
     7
 10
-94.5
 20
-48.5
 30
0.0
 11
-61.90402837024862
 21
-15.90402837024865
 31
0.0
  0
LINE
  5
6E
  8
PATTERN_FILL
  6
CONTINUOUS
 62
     7
 10
-92.0
 20
-48.5
 30
0.0
 11
-61.85117338749728
 21
-18.35117338749725
 31
0.0
  0
LINE
  5
6F
  8
PATTERN_FILL
  6
CONTINUOUS
 62
     7
 10
-89.5
 20
-48.5
 30
0.0
 11
-61.79831840474583
 21
-20.79831840474586
 31
0.0
  0
LINE
  5
70
  8
PATTERN_FILL
  6
CONTINUOUS
 62
     7
 10
-87.0
 20
-48.5
 30
0.0
 11
-61.74546342199449
 21
-23.24546342199446
 31
0.0
  0
LINE
  5
71
  8
PATTERN_FILL
  6
CONTINUOUS
 62
     7
 10
-84.5
 20
-48.5
 30
0.0
 11
-61.69260843924303
 21
-25.69260843924306
 31
0.0
  0
LINE
  5
72
  8
PATTERN_FILL
  6
CONTINUOUS
 62
     7
 10
-82.0
 20
-48.5
 30
0.0
 11
-61.63975345649169
 21
-28.13975345649166
 31
0.0
  0
LINE
  5
73
  8
PATTERN_FILL
  6
CONTINUOUS
 62
     7
 10
-79.5
 20
-48.5
 30
0.0
 11
-61.58689847374023
 21
-30.58689847374026
 31
0.0
  0
LINE
  5
74
  8
PATTERN_FILL
  6
CONTINUOUS
 62
     7
 10
-77.0
 20
-48.5
 30
0.0
 11
-61.53404349098889
 21
-33.03404349098886
 31
0.0
  0
LINE
  5
75
  8
PATTERN_FILL
  6
CONTINUOUS
 62
     7
 10
-74.5
 20
-48.5
 30
0.0
 11
-61.48118850823744
 21
-35.48118850823747
 31
0.0
  0
LINE
  5
76
  8
PATTERN_FILL
  6
CONTINUOUS
 62
     7
 10
-72.0
 20
-48.5
 30
0.0
 11
-61.4283335254861
 21
-37.92833352548607
 31
0.0
  0
LINE
  5
77
  8
PATTERN_FILL
  6
CONTINUOUS
 62
     7
 10
-69.5
 20
-48.5
 30
0.0
 11
-61.37547854273464
 21
-40.37547854273467
 31
0.0
  0
LINE
  5
78
  8
PATTERN_FILL
  6
CONTINUOUS
 62
     7
 10
-67.0
 20
-48.5
 30
0.0
 11
-61.3226235599833
 21
-42.82262355998327
 31
0.0
  0
LINE
  5
79
  8
PATTERN_FILL
  6
CONTINUOUS
 62
     7
 10
-64.5
 20
-48.5
 30
0.0
 11
-61.26976857723184
 21
-45.26976857723187
 31
0.0
  0
LINE
  5
7A
  8
PATTERN_FILL
  6
CONTINUOUS
 62
     7
 10
-62.0
 20
-48.5
 30
0.0
 11
-61.21691359448039
 21
-47.71691359448045
 31
0.0
  0
LINE
  5
7B
  8
PATTERN_FILL
  6
CONTINUOUS
 62
     7
 10
-66.2666968376941
 20
20.26669683769405
 30
0.0
 11
-62.60620490949475
 21
16.6062049094947
 31
0.0
  0
LINE
  5
7C
  8
PATTERN_FILL
  6
CONTINUOUS
 62
     7
 10
-69.01753913921493
 20
20.51753913921498
 30
0.0
 11
-62.55101633376887
 21
14.05101633376884
 31
0.0
  0
LINE
  5
7D
  8
PATTERN_FILL
  6
CONTINUOUS
 62
     7
 10
-71.73067922497466
 20
20.73067922497467
 30
0.0
 11
-62.49582775804299
 21
11.49582775804299
 31
0.0
  0
LINE
  5
7E
  8
PATTERN_FILL
  6
CONTINUOUS
 62
     7
 10
-74.407730132246
 20
20.90773013224602
 30
0.0
 11
-62.44063918231711
 21
8.940639182317135
 31
0.0
  0
LINE
  5
7F
  8
PATTERN_FILL
  6
CONTINUOUS
 62
     7
 10
-77.05017763634783
 20
21.05017763634788
 30
0.0
 11
-62.38545060659123
 21
6.385450606591284
 31
0.0
  0
LINE
  5
80
  8
PATTERN_FILL
  6
CONTINUOUS
 62
     7
 10
-79.65939386414107
 20
21.15939386414107
 30
0.0
 11
-62.33026203086547
 21
3.830262030865434
 31
0.0
  0
LINE
  5
81
  8
PATTERN_FILL
  6
CONTINUOUS
 62
     7
 10
-82.23664908132514
 20
21.2366490813251
 30
0.0
 11
-62.27507345513959
 21
1.275073455139584
 31
0.0
  0
LINE
  5
82
  8
PATTERN_FILL
  6
CONTINUOUS
 62
     7
 10
-84.78312194473779
 20
21.28312194473775
 30
0.0
 11
-62.21988487941371
 21
-1.28011512058626
 31
0.0
  0
LINE
  5
83
  8
PATTERN_FILL
  6
CONTINUOUS
 62
     7
 10
-87.29990845747068
 20
21.29990845747066
 30
0.0
 11
-62.16469630368783
 21
-3.83530369631211
 31
0.0
  0
LINE
  5
84
  8
PATTERN_FILL
  6
CONTINUOUS
 62
     7
 10
-89.78802982222123
 20
21.28802982222125
 30
0.0
 11
-62.10950772796207
 21
-6.39049227203796
 31
0.0
  0
LINE
  5
85
  8
PATTERN_FILL
  6
CONTINUOUS
 62
     7
 10
-92.24843935439685
 20
21.24843935439687
 30
0.0
 11
-62.05431915223619
 21
-8.94568084776381
 31
0.0
  0
LINE
  5
86
  8
PATTERN_FILL
  6
CONTINUOUS
 62
     7
 10
-94.68202858920051
 20
21.18202858920056
 30
0.0
 11
-61.99913057651031
 21
-11.50086942348966
 31
0.0
  0
LINE
  5
87
  8
PATTERN_FILL
  6
CONTINUOUS
 62
     7
 10
-97.08963269482672
 20
21.08963269482673
 30
0.0
 11
-61.94394200078443
 21
-14.05605799921554
 31
0.0
  0
LINE
  5
88
  8
PATTERN_FILL
  6
CONTINUOUS
 62
     7
 10
-99.4720352858941
 20
20.97203528589413
 30
0.0
 11
-61.88875342505867
 21
-16.61124657494139
 31
0.0
  0
LINE
  5
89
  8
PATTERN_FILL
  6
CONTINUOUS
 62
     7
 10
-101.8299727164969
 20
20.82997271649688
 30
0.0
 11
-61.83356484933279
 21
-19.16643515066724
 31
0.0
  0
LINE
  5
8A
  8
PATTERN_FILL
  6
CONTINUOUS
 62
     7
 10
-104.1641379201141
 20
20.66413792011408
 30
0.0
 11
-61.77837627360691
 21
-21.72162372639309
 31
0.0
  0
LINE
  5
8B
  8
PATTERN_FILL
  6
CONTINUOUS
 62
     7
 10
-106.4751838535718
 20
20.47518385357187
 30
0.0
 11
-61.72318769788103
 21
-24.27681230211894
 31
0.0
  0
LINE
  5
8C
  8
PATTERN_FILL
  6
CONTINUOUS
 62
     7
 10
-108.7637265938999
 20
20.2637265939
 30
0.0
 11
-61.66799912215515
 21
-26.83200087784479
 31
0.0
  0
LINE
  5
8D
  8
PATTERN_FILL
  6
CONTINUOUS
 62
     7
 10
-110.9121908997295
 20
19.91219089972943
 30
0.0
 11
-61.61281054642939
 21
-29.38718945357064
 31
0.0
  0
LINE
  5
8E
  8
PATTERN_FILL
  6
CONTINUOUS
 62
     7
 10
-112.1552080108059
 20
18.6552080108059
 30
0.0
 11
-61.55762197070351
 21
-31.94237802929649
 31
0.0
  0
LINE
  5
8F
  8
PATTERN_FILL
  6
CONTINUOUS
 62
     7
 10
-112.3982858574328
 20
16.39828585743286
 30
0.0
 11
-61.50243339497763
 21
-34.49756660502234
 31
0.0
  0
LINE
  5
90
  8
PATTERN_FILL
  6
CONTINUOUS
 62
     7
 10
-112.4511408401843
 20
13.95114084018424
 30
0.0
 11
-61.44724481925175
 21
-37.05275518074819
 31
0.0
  0
LINE
  5
91
  8
PATTERN_FILL
  6
CONTINUOUS
 62
     7
 10
-112.5039958229356
 20
11.50399582293564
 30
0.0
 11
-61.39205624352599
 21
-39.60794375647401
 31
0.0
  0
LINE
  5
92
  8
PATTERN_FILL
  6
CONTINUOUS
 62
     7
 10
-112.5568508056871
 20
9.056850805687056
 30
0.0
 11
-61.33686766780011
 21
-42.16313233219989
 31
0.0
  0
LINE
  5
93
  8
PATTERN_FILL
  6
CONTINUOUS
 62
     7
 10
-112.6097057884384
 20
6.609705788438454
 30
0.0
 11
-61.28167909207423
 21
-44.71832090792577
 31
0.0
  0
LINE
  5
94
  8
PATTERN_FILL
  6
CONTINUOUS
 62
     7
 10
-112.6625607711899
 20
4.162560771189852
 30
0.0
 11
-61.22649051634835
 21
-47.27350948365162
 31
0.0
  0
LINE
  5
95
  8
PATTERN_FILL
  6
CONTINUOUS
 62
     7
 10
-112.7154157539412
 20
1.715415753941251
 30
0.0
 11
-62.5
 21
-48.5
 31
0.0
  0
LINE
  5
96
  8
PATTERN_FILL
  6
CONTINUOUS
 62
     7
 10
-112.7682707366927
 20
-0.7317292633073578
 30
0.0
 11
-65.0
 21
-48.5
 31
0.0
  0
LINE
  5
97
  8
PATTERN_FILL
  6
CONTINUOUS
 62
     7
 10
-112.821125719444
 20
-3.178874280555959
 30
0.0
 11
-67.5
 21
-48.5
 31
0.0
  0
LINE
  5
98
  8
PATTERN_FILL
  6
CONTINUOUS
 62
     7
 10
-112.8739807021955
 20
-5.626019297804532
 30
0.0
 11
-70.0
 21
-48.5
 31
0.0
  0
LINE
  5
99
  8
PATTERN_FILL
  6
CONTINUOUS
 62
     7
 10
-112.9268356849468
 20
-8.073164315053162
 30
0.0
 11
-72.5
 21
-48.5
 31
0.0
  0
LINE
  5
9A
  8
PATTERN_FILL
  6
CONTINUOUS
 62
     7
 10
-112.9796906676983
 20
-10.52030933230174
 30
0.0
 11
-75.0
 21
-48.5
 31
0.0
  0
LINE
  5
9B
  8
PATTERN_FILL
  6
CONTINUOUS
 62
     7
 10
-113.0325456504497
 20
-12.96745434955034
 30
0.0
 11
-77.5
 21
-48.5
 31
0.0
  0
LINE
  5
9C
  8
PATTERN_FILL
  6
CONTINUOUS
 62
     7
 10
-113.0854006332011
 20
-15.41459936679894
 30
0.0
 11
-80.0
 21
-48.5
 31
0.0
  0
LINE
  5
9D
  8
PATTERN_FILL
  6
CONTINUOUS
 62
     7
 10
-113.1382556159524
 20
-17.86174438404754
 30
0.0
 11
-82.5
 21
-48.5
 31
0.0
  0
LINE
  5
9E
  8
PATTERN_FILL
  6
CONTINUOUS
 62
     7
 10
-113.1911105987039
 20
-20.30888940129614
 30
0.0
 11
-85.0
 21
-48.5
 31
0.0
  0
LINE
  5
9F
  8
PATTERN_FILL
  6
CONTINUOUS
 62
     7
 10
-113.2439655814553
 20
-22.75603441854474
 30
0.0
 11
-87.5
 21
-48.5
 31
0.0
  0
LINE
  5
A0
  8
PATTERN_FILL
  6
CONTINUOUS
 62
     7
 10
-113.2968205642067
 20
-25.20317943579334
 30
0.0
 11
-90.0
 21
-48.5
 31
0.0
  0
LINE
  5
A1
  8
PATTERN_FILL
  6
CONTINUOUS
 62
     7
 10
-113.3496755469581
 20
-27.65032445304195
 30
0.0
 11
-92.5
 21
-48.5
 31
0.0
  0
LINE
  5
A2
  8
PATTERN_FILL
  6
CONTINUOUS
 62
     7
 10
-113.4025305297095
 20
-30.09746947029052
 30
0.0
 11
-95.0
 21
-48.5
 31
0.0
  0
LINE
  5
A3
  8
PATTERN_FILL
  6
CONTINUOUS
 62
     7
 10
-113.4553855124609
 20
-32.54461448753915
 30
0.0
 11
-97.5
 21
-48.5
 31
0.0
  0
LINE
  5
A4
  8
PATTERN_FILL
  6
CONTINUOUS
 62
     7
 10
-113.5082404952122
 20
-34.99175950478772
 30
0.0
 11
-100.0
 21
-48.5
 31
0.0
  0
LINE
  5
A5
  8
PATTERN_FILL
  6
CONTINUOUS
 62
     7
 10
-113.5610954779637
 20
-37.43890452203635
 30
0.0
 11
-102.5
 21
-48.5
 31
0.0
  0
LINE
  5
A6
  8
PATTERN_FILL
  6
CONTINUOUS
 62
     7
 10
-113.613950460715
 20
-39.88604953928495
 30
0.0
 11
-105.0
 21
-48.5
 31
0.0
  0
LINE
  5
A7
  8
PATTERN_FILL
  6
CONTINUOUS
 62
     7
 10
-113.6668054434664
 20
-42.33319455653356
 30
0.0
 11
-107.5
 21
-48.5
 31
0.0
  0
LINE
  5
A8
  8
PATTERN_FILL
  6
CONTINUOUS
 62
     7
 10
-113.7196604262178
 20
-44.78033957378213
 30
0.0
 11
-110.0
 21
-48.5
 31
0.0
  0
LINE
  5
A9
  8
PATTERN_FILL
  6
CONTINUOUS
 62
     7
 10
-113.7725154089693
 20
-47.22748459103073
 30
0.0
 11
-112.5
 21
-48.49999999999997
 31
0.0
  0
LINE
  5
AA
  8
PATTERN_FILL
  6
CONTINUOUS
 62
     7
 10
-107.0
 20
-48.5
 30
0.0
 11
-62.16830328400567
 21
-3.668303284005674
 31
0.0
  0
LINE
  5
AB
  8
PATTERN_FILL
  6
CONTINUOUS
 62
     7
 10
31.34516719434953
 20
16.09516719434954
 30
0.0
 11
35.5699635678609
 21
20.31996356786089
 31
0.0
  0
LINE
  5
AC
  8
PATTERN_FILL
  6
CONTINUOUS
 62
     7
 10
31.28997861862376
 20
13.53997861862369
 30
0.0
 11
38.31312976357594
 21
20.56312976357585
 31
0.0
  0
LINE
  5
AD
  8
PATTERN_FILL
  6
CONTINUOUS
 62
     7
 10
31.23479004289788
 20
10.98479004289783
 30
0.0
 11
41.01892725550749
 21
20.76892725550746
 31
0.0
  0
LINE
  5
AE
  8
PATTERN_FILL
  6
CONTINUOUS
 62
     7
 10
31.17960146717201
 20
8.429601467171985
 30
0.0
 11
43.68894244037449
 21
20.93894244037441
 31
0.0
  0
LINE
  5
AF
  8
PATTERN_FILL
  6
CONTINUOUS
 62
     7
 10
31.12441289144613
 20
5.87441289144612
 30
0.0
 11
46.32463733785346
 21
21.07463733785338
 31
0.0
  0
LINE
  5
B0
  8
PATTERN_FILL
  6
CONTINUOUS
 62
     7
 10
31.06922431572025
 20
3.31922431572027
 30
0.0
 11
48.92736281252689
 21
21.17736281252686
 31
0.0
  0
LINE
  5
B1
  8
PATTERN_FILL
  6
CONTINUOUS
 62
     7
 10
31.01403573999448
 20
0.7640357399944193
 30
0.0
 11
51.49837003277526
 21
21.24837003277521
 31
0.0
  0
LINE
  5
B2
  8
PATTERN_FILL
  6
CONTINUOUS
 62
     7
 10
30.9588471642686
 20
-1.791152835731424
 30
0.0
 11
54.03882044611112
 21
21.28882044611111
 31
0.0
  0
LINE
  5
B3
  8
PATTERN_FILL
  6
CONTINUOUS
 62
     7
 10
30.90365858854273
 20
-4.346341411457274
 30
0.0
 11
56.54979449950281
 21
21.29979449950276
 31
0.0
  0
LINE
  5
B4
  8
PATTERN_FILL
  6
CONTINUOUS
 62
     7
 10
30.84847001281696
 20
-6.901529987183125
 30
0.0
 11
59.03229929271299
 21
21.28229929271294
 31
0.0
  0
LINE
  5
B5
  8
PATTERN_FILL
  6
CONTINUOUS
 62
     7
 10
30.79328143709108
 20
-9.456718562908975
 30
0.0
 11
61.48727532023577
 21
21.23727532023566
 31
0.0
  0
LINE
  5
B6
  8
PATTERN_FILL
  6
CONTINUOUS
 62
     7
 10
30.7380928613652
 20
-12.01190713863483
 30
0.0
 11
63.91560243126219
 21
21.16560243126219
 31
0.0
  0
LINE
  5
B7
  8
PATTERN_FILL
  6
CONTINUOUS
 62
     7
 10
30.68290428563932
 20
-14.56709571436069
 30
0.0
 11
66.31810511590879
 21
21.06810511590871
 31
0.0
  0
LINE
  5
B8
  8
PATTERN_FILL
  6
CONTINUOUS
 62
     7
 10
30.62771570991345
 20
-17.12228429008653
 30
0.0
 11
68.69555720864446
 21
20.94555720864447
 31
0.0
  0
LINE
  5
B9
  8
PATTERN_FILL
  6
CONTINUOUS
 62
     7
 10
30.57252713418768
 20
-19.6774728658124
 30
0.0
 11
71.04868608568427
 21
20.79868608568425
 31
0.0
  0
LINE
  5
BA
  8
PATTERN_FILL
  6
CONTINUOUS
 62
     7
 10
30.5173385584618
 20
-22.23266144153826
 30
0.0
 11
73.3781764214225
 21
20.6281764214225
 31
0.0
  0
LINE
  5
BB
  8
PATTERN_FILL
  6
CONTINUOUS
 62
     7
 10
30.46214998273592
 20
-24.78785001726411
 30
0.0
 11
75.68467355930784
 21
20.43467355930786
 31
0.0
  0
LINE
  5
BC
  8
PATTERN_FILL
  6
CONTINUOUS
 62
     7
 10
30.40696140701004
 20
-27.34303859298996
 30
0.0
 11
77.96878654450518
 21
20.21878654450513
 31
0.0
  0
LINE
  5
BD
  8
PATTERN_FILL
  6
CONTINUOUS
 62
     7
 10
30.35177283128428
 20
-29.89822716871581
 30
0.0
 11
79.98464808160338
 21
19.73464808160337
 31
0.0
  0
LINE
  5
BE
  8
PATTERN_FILL
  6
CONTINUOUS
 62
     7
 10
30.2965842555584
 20
-32.45341574444166
 30
0.0
 11
81.03586111075595
 21
18.28586111075594
 31
0.0
  0
LINE
  5
BF
  8
PATTERN_FILL
  6
CONTINUOUS
 62
     7
 10
30.24139567983252
 20
-35.00860432016751
 30
0.0
 11
81.15885685398314
 21
15.90885685398313
 31
0.0
  0
LINE
  5
C0
  8
PATTERN_FILL
  6
CONTINUOUS
 62
     7
 10
30.18620710410664
 20
-37.56379289589336
 30
0.0
 11
81.2117118367346
 21
13.46171183673453
 31
0.0
  0
LINE
  5
C1
  8
PATTERN_FILL
  6
CONTINUOUS
 62
     7
 10
30.13101852838088
 20
-40.11898147161921
 30
0.0
 11
81.26456681948594
 21
11.01456681948594
 31
0.0
  0
LINE
  5
C2
  8
PATTERN_FILL
  6
CONTINUOUS
 62
     7
 10
30.075829952655
 20
-42.67417004734506
 30
0.0
 11
81.31742180223739
 21
8.567421802237341
 31
0.0
  0
LINE
  5
C3
  8
PATTERN_FILL
  6
CONTINUOUS
 62
     7
 10
30.02064137692912
 20
-45.22935862307091
 30
0.0
 11
81.37027678498885
 21
6.120276784988754
 31
0.0
  0
LINE
  5
C4
  8
PATTERN_FILL
  6
CONTINUOUS
 62
     7
 10
29.96545280120324
 20
-47.78454719879676
 30
0.0
 11
81.42313176774019
 21
3.673131767740138
 31
0.0
  0
LINE
  5
C5
  8
PATTERN_FILL
  6
CONTINUOUS
 62
     7
 10
31.75
 20
-48.5
 30
0.0
 11
81.47598675049153
 21
1.225986750491543
 31
0.0
  0
LINE
  5
C6
  8
PATTERN_FILL
  6
CONTINUOUS
 62
     7
 10
34.25
 20
-48.5
 30
0.0
 11
81.52884173324298
 21
-1.221158266757072
 31
0.0
  0
LINE
  5
C7
  8
PATTERN_FILL
  6
CONTINUOUS
 62
     7
 10
39.25
 20
-48.5
 30
0.0
 11
81.63455169874578
 21
-6.115448301254276
 31
0.0
  0
LINE
  5
C8
  8
PATTERN_FILL
  6
CONTINUOUS
 62
     7
 10
41.75
 20
-48.5
 30
0.0
 11
81.68740668149712
 21
-8.562593318502863
 31
0.0
  0
LINE
  5
C9
  8
PATTERN_FILL
  6
CONTINUOUS
 62
     7
 10
44.25
 20
-48.5
 30
0.0
 11
81.74026166424858
 21
-11.00973833575145
 31
0.0
  0
LINE
  5
CA
  8
PATTERN_FILL
  6
CONTINUOUS
 62
     7
 10
46.75
 20
-48.5
 30
0.0
 11
81.79311664700003
 21
-13.45688335300005
 31
0.0
  0
LINE
  5
CB
  8
PATTERN_FILL
  6
CONTINUOUS
 62
     7
 10
49.25
 20
-48.5
 30
0.0
 11
81.84597162975138
 21
-15.90402837024865
 31
0.0
  0
LINE
  5
CC
  8
PATTERN_FILL
  6
CONTINUOUS
 62
     7
 10
51.75
 20
-48.5
 30
0.0
 11
81.89882661250272
 21
-18.35117338749725
 31
0.0
  0
LINE
  5
CD
  8
PATTERN_FILL
  6
CONTINUOUS
 62
     7
 10
54.25
 20
-48.5
 30
0.0
 11
81.95168159525417
 21
-20.79831840474586
 31
0.0
  0
LINE
  5
CE
  8
PATTERN_FILL
  6
CONTINUOUS
 62
     7
 10
56.75
 20
-48.5
 30
0.0
 11
82.00453657800563
 21
-23.24546342199446
 31
0.0
  0
LINE
  5
CF
  8
PATTERN_FILL
  6
CONTINUOUS
 62
     7
 10
59.25
 20
-48.5
 30
0.0
 11
82.05739156075697
 21
-25.69260843924306
 31
0.0
  0
LINE
  5
D0
  8
PATTERN_FILL
  6
CONTINUOUS
 62
     7
 10
61.75
 20
-48.5
 30
0.0
 11
82.11024654350831
 21
-28.13975345649166
 31
0.0
  0
LINE
  5
D1
  8
PATTERN_FILL
  6
CONTINUOUS
 62
     7
 10
64.25
 20
-48.5
 30
0.0
 11
82.16310152625977
 21
-30.58689847374026
 31
0.0
  0
LINE
  5
D2
  8
PATTERN_FILL
  6
CONTINUOUS
 62
     7
 10
66.75
 20
-48.5
 30
0.0
 11
82.21595650901122
 21
-33.03404349098886
 31
0.0
  0
LINE
  5
D3
  8
PATTERN_FILL
  6
CONTINUOUS
 62
     7
 10
69.25
 20
-48.5
 30
0.0
 11
82.26881149176256
 21
-35.48118850823747
 31
0.0
  0
LINE
  5
D4
  8
PATTERN_FILL
  6
CONTINUOUS
 62
     7
 10
71.75
 20
-48.5
 30
0.0
 11
82.3216664745139
 21
-37.92833352548607
 31
0.0
  0
LINE
  5
D5
  8
PATTERN_FILL
  6
CONTINUOUS
 62
     7
 10
74.25
 20
-48.5
 30
0.0
 11
82.37452145726536
 21
-40.37547854273467
 31
0.0
  0
LINE
  5
D6
  8
PATTERN_FILL
  6
CONTINUOUS
 62
     7
 10
76.75
 20
-48.5
 30
0.0
 11
82.42737644001681
 21
-42.82262355998327
 31
0.0
  0
LINE
  5
D7
  8
PATTERN_FILL
  6
CONTINUOUS
 62
     7
 10
79.25
 20
-48.5
 30
0.0
 11
82.48023142276816
 21
-45.26976857723187
 31
0.0
  0
LINE
  5
D8
  8
PATTERN_FILL
  6
CONTINUOUS
 62
     7
 10
81.75
 20
-48.5
 30
0.0
 11
82.53308640551961
 21
-47.71691359448045
 31
0.0
  0
LINE
  5
D9
  8
PATTERN_FILL
  6
CONTINUOUS
 62
     7
 10
77.4833031623059
 20
20.26669683769405
 30
0.0
 11
81.14379509050536
 21
16.6062049094947
 31
0.0
  0
LINE
  5
DA
  8
PATTERN_FILL
  6
CONTINUOUS
 62
     7
 10
74.73246086078507
 20
20.51753913921498
 30
0.0
 11
81.19898366623124
 21
14.05101633376884
 31
0.0
  0
LINE
  5
DB
  8
PATTERN_FILL
  6
CONTINUOUS
 62
     7
 10
72.01932077502534
 20
20.73067922497467
 30
0.0
 11
81.25417224195701
 21
11.49582775804299
 31
0.0
  0
LINE
  5
DC
  8
PATTERN_FILL
  6
CONTINUOUS
 62
     7
 10
69.342269867754
 20
20.90773013224602
 30
0.0
 11
81.30936081768289
 21
8.940639182317135
 31
0.0
  0
LINE
  5
DD
  8
PATTERN_FILL
  6
CONTINUOUS
 62
     7
 10
66.69982236365217
 20
21.05017763634788
 30
0.0
 11
81.36454939340877
 21
6.385450606591284
 31
0.0
  0
LINE
  5
DE
  8
PATTERN_FILL
  6
CONTINUOUS
 62
     7
 10
64.09060613585893
 20
21.15939386414107
 30
0.0
 11
81.41973796913453
 21
3.830262030865434
 31
0.0
  0
LINE
  5
DF
  8
PATTERN_FILL
  6
CONTINUOUS
 62
     7
 10
61.51335091867486
 20
21.2366490813251
 30
0.0
 11
81.47492654486041
 21
1.275073455139584
 31
0.0
  0
LINE
  5
E0
  8
PATTERN_FILL
  6
CONTINUOUS
 62
     7
 10
58.96687805526221
 20
21.28312194473775
 30
0.0
 11
81.53011512058629
 21
-1.28011512058626
 31
0.0
  0
LINE
  5
E1
  8
PATTERN_FILL
  6
CONTINUOUS
 62
     7
 10
56.45009154252944
 20
21.29990845747066
 30
0.0
 11
81.58530369631217
 21
-3.83530369631211
 31
0.0
  0
LINE
  5
E2
  8
PATTERN_FILL
  6
CONTINUOUS
 62
     7
 10
53.96197017777877
 20
21.28802982222125
 30
0.0
 11
81.64049227203805
 21
-6.39049227203796
 31
0.0
  0
LINE
  5
E3
  8
PATTERN_FILL
  6
CONTINUOUS
 62
     7
 10
51.50156064560315
 20
21.24843935439687
 30
0.0
 11
81.69568084776381
 21
-8.94568084776381
 31
0.0
  0
LINE
  5
E4
  8
PATTERN_FILL
  6
CONTINUOUS
 62
     7
 10
49.06797141079949
 20
21.18202858920056
 30
0.0
 11
81.75086942348969
 21
-11.50086942348966
 31
0.0
  0
LINE
  5
E5
  8
PATTERN_FILL
  6
CONTINUOUS
 62
     7
 10
46.66036730517328
 20
21.08963269482673
 30
0.0
 11
81.80605799921557
 21
-14.05605799921554
 31
0.0
  0
LINE
  5
E6
  8
PATTERN_FILL
  6
CONTINUOUS
 62
     7
 10
44.27796471410591
 20
20.97203528589413
 30
0.0
 11
81.86124657494133
 21
-16.61124657494139
 31
0.0
  0
LINE
  5
E7
  8
PATTERN_FILL
  6
CONTINUOUS
 62
     7
 10
41.92002728350315
 20
20.82997271649688
 30
0.0
 11
81.91643515066721
 21
-19.16643515066724
 31
0.0
  0
LINE
  5
E8
  8
PATTERN_FILL
  6
CONTINUOUS
 62
     7
 10
39.58586207988594
 20
20.66413792011408
 30
0.0
 11
81.97162372639309
 21
-21.72162372639309
 31
0.0
  0
LINE
  5
E9
  8
PATTERN_FILL
  6
CONTINUOUS
 62
     7
 10
37.27481614642818
 20
20.47518385357187
 30
0.0
 11
82.02681230211897
 21
-24.27681230211894
 31
0.0
  0
LINE
  5
EA
  8
PATTERN_FILL
  6
CONTINUOUS
 62
     7
 10
34.98627340610005
 20
20.2637265939
 30
0.0
 11
82.08200087784485
 21
-26.83200087784479
 31
0.0
  0
LINE
  5
EB
  8
PATTERN_FILL
  6
CONTINUOUS
 62
     7
 10
32.83780910027053
 20
19.91219089972943
 30
0.0
 11
82.13718945357073
 21
-29.38718945357064
 31
0.0
  0
LINE
  5
EC
  8
PATTERN_FILL
  6
CONTINUOUS
 62
     7
 10
31.59479198919416
 20
18.6552080108059
 30
0.0
 11
82.19237802929649
 21
-31.94237802929649
 31
0.0
  0
LINE
  5
ED
  8
PATTERN_FILL
  6
CONTINUOUS
 62
     7
 10
31.35171414256718
 20
16.39828585743286
 30
0.0
 11
82.24756660502237
 21
-34.49756660502234
 31
0.0
  0
LINE
  5
EE
  8
PATTERN_FILL
  6
CONTINUOUS
 62
     7
 10
31.29885915981572
 20
13.95114084018424
 30
0.0
 11
82.30275518074825
 21
-37.05275518074819
 31
0.0
  0
LINE
  5
EF
  8
PATTERN_FILL
  6
CONTINUOUS
 62
     7
 10
31.24600417706438
 20
11.50399582293564
 30
0.0
 11
82.35794375647401
 21
-39.60794375647401
 31
0.0
  0
LINE
  5
F0
  8
PATTERN_FILL
  6
CONTINUOUS
 62
     7
 10
31.19314919431292
 20
9.056850805687056
 30
0.0
 11
82.4131323321999
 21
-42.16313233219989
 31
0.0
  0
LINE
  5
F1
  8
PATTERN_FILL
  6
CONTINUOUS
 62
     7
 10
31.14029421156158
 20
6.609705788438454
 30
0.0
 11
82.46832090792577
 21
-44.71832090792577
 31
0.0
  0
LINE
  5
F2
  8
PATTERN_FILL
  6
CONTINUOUS
 62
     7
 10
31.08743922881013
 20
4.162560771189852
 30
0.0
 11
82.52350948365165
 21
-47.27350948365162
 31
0.0
  0
LINE
  5
F3
  8
PATTERN_FILL
  6
CONTINUOUS
 62
     7
 10
31.03458424605878
 20
1.715415753941251
 30
0.0
 11
81.25
 21
-48.5
 31
0.0
  0
LINE
  5
F4
  8
PATTERN_FILL
  6
CONTINUOUS
 62
     7
 10
30.98172926330733
 20
-0.7317292633073578
 30
0.0
 11
78.75
 21
-48.5
 31
0.0
  0
LINE
  5
F5
  8
PATTERN_FILL
  6
CONTINUOUS
 62
     7
 10
30.92887428055599
 20
-3.178874280555959
 30
0.0
 11
76.25
 21
-48.5
 31
0.0
  0
LINE
  5
F6
  8
PATTERN_FILL
  6
CONTINUOUS
 62
     7
 10
30.87601929780453
 20
-5.626019297804532
 30
0.0
 11
73.75
 21
-48.5
 31
0.0
  0
LINE
  5
F7
  8
PATTERN_FILL
  6
CONTINUOUS
 62
     7
 10
30.82316431505319
 20
-8.073164315053162
 30
0.0
 11
71.25
 21
-48.5
 31
0.0
  0
LINE
  5
F8
  8
PATTERN_FILL
  6
CONTINUOUS
 62
     7
 10
30.77030933230174
 20
-10.52030933230174
 30
0.0
 11
68.75
 21
-48.5
 31
0.0
  0
LINE
  5
F9
  8
PATTERN_FILL
  6
CONTINUOUS
 62
     7
 10
30.71745434955039
 20
-12.96745434955034
 30
0.0
 11
66.25
 21
-48.5
 31
0.0
  0
LINE
  5
FA
  8
PATTERN_FILL
  6
CONTINUOUS
 62
     7
 10
30.66459936679894
 20
-15.41459936679894
 30
0.0
 11
63.75
 21
-48.5
 31
0.0
  0
LINE
  5
FB
  8
PATTERN_FILL
  6
CONTINUOUS
 62
     7
 10
30.6117443840476
 20
-17.86174438404754
 30
0.0
 11
61.25
 21
-48.5
 31
0.0
  0
LINE
  5
FC
  8
PATTERN_FILL
  6
CONTINUOUS
 62
     7
 10
30.55888940129614
 20
-20.30888940129614
 30
0.0
 11
58.75
 21
-48.5
 31
0.0
  0
LINE
  5
FD
  8
PATTERN_FILL
  6
CONTINUOUS
 62
     7
 10
30.5060344185448
 20
-22.75603441854474
 30
0.0
 11
56.25
 21
-48.5
 31
0.0
  0
LINE
  5
FE
  8
PATTERN_FILL
  6
CONTINUOUS
 62
     7
 10
30.45317943579334
 20
-25.20317943579334
 30
0.0
 11
53.75
 21
-48.5
 31
0.0
  0
LINE
  5
FF
  8
PATTERN_FILL
  6
CONTINUOUS
 62
     7
 10
30.400324453042
 20
-27.65032445304195
 30
0.0
 11
51.25
 21
-48.5
 31
0.0
  0
LINE
  5
100
  8
PATTERN_FILL
  6
CONTINUOUS
 62
     7
 10
30.34746947029055
 20
-30.09746947029052
 30
0.0
 11
48.75
 21
-48.5
 31
0.0
  0
LINE
  5
101
  8
PATTERN_FILL
  6
CONTINUOUS
 62
     7
 10
30.29461448753921
 20
-32.54461448753915
 30
0.0
 11
46.25
 21
-48.5
 31
0.0
  0
LINE
  5
102
  8
PATTERN_FILL
  6
CONTINUOUS
 62
     7
 10
30.24175950478775
 20
-34.99175950478772
 30
0.0
 11
43.75
 21
-48.5
 31
0.0
  0
LINE
  5
103
  8
PATTERN_FILL
  6
CONTINUOUS
 62
     7
 10
30.18890452203641
 20
-37.43890452203635
 30
0.0
 11
41.25
 21
-48.5
 31
0.0
  0
LINE
  5
104
  8
PATTERN_FILL
  6
CONTINUOUS
 62
     7
 10
30.13604953928495
 20
-39.88604953928495
 30
0.0
 11
38.75
 21
-48.5
 31
0.0
  0
LINE
  5
105
  8
PATTERN_FILL
  6
CONTINUOUS
 62
     7
 10
30.08319455653361
 20
-42.33319455653356
 30
0.0
 11
36.25
 21
-48.5
 31
0.0
  0
LINE
  5
106
  8
PATTERN_FILL
  6
CONTINUOUS
 62
     7
 10
30.03033957378216
 20
-44.78033957378213
 30
0.0
 11
33.75
 21
-48.5
 31
0.0
  0
LINE
  5
107
  8
PATTERN_FILL
  6
CONTINUOUS
 62
     7
 10
29.97748459103082
 20
-47.22748459103073
 30
0.0
 11
31.25
 21
-48.49999999999997
 31
0.0
  0
LINE
  5
108
  8
PATTERN_FILL
  6
CONTINUOUS
 62
     7
 10
36.75
 20
-48.5
 30
0.0
 11
81.58169671599444
 21
-3.668303284005674
 31
0.0
  0
CIRCLE
  5
109
  8
PATTERN_FILL
  6
CONTINUOUS
 62
     7
 10
-87.5
 20
-13.58848446586452
 30
0.0
 40
16.0
  0
CIRCLE
  5
10A
  8
PATTERN_FILL
  6
CONTINUOUS
 62
     7
 10
-87.5
 20
-13.58848446586452
 30
0.0
 40
14.5
  0
LINE
  5
10B
  8
PATTERN_FILL
  6
CONTINUOUS
 62
     7
 10
-24.25454043802165
 20
19.29058510878979
 30
0.0
 11
-22.29373283020448
 21
21.25139271660694
 31
0.0
  0
LINE
  5
10C
  8
PATTERN_FILL
  6
CONTINUOUS
 62
     7
 10
-24.34893574933801
 20
16.69618979747349
 30
0.0
 11
-19.74512554681144
 21
21.3
 31
0.0
  0
LINE
  5
10D
  8
PATTERN_FILL
  6
CONTINUOUS
 62
     7
 10
-24.40384058096311
 20
14.14128496584831
 30
0.0
 11
-17.24512554681144
 21
21.3
 31
0.0
  0
LINE
  5
10E
  8
PATTERN_FILL
  6
CONTINUOUS
 62
     7
 10
-24.45874541258831
 20
11.58638013422315
 30
0.0
 11
-14.74512554681144
 21
21.3
 31
0.0
  0
LINE
  5
10F
  8
PATTERN_FILL
  6
CONTINUOUS
 62
     7
 10
-24.51365024421352
 20
9.031475302597954
 30
0.0
 11
-13.18159568514432
 21
20.3635298616671
 31
0.0
  0
LINE
  5
110
  8
PATTERN_FILL
  6
CONTINUOUS
 62
     7
 10
-24.56855507583873
 20
6.476570470972774
 30
0.0
 11
-13.21912249000491
 21
17.8260030568065
 31
0.0
  0
LINE
  5
111
  8
PATTERN_FILL
  6
CONTINUOUS
 62
     7
 10
-24.62345990746383
 20
3.921665639347594
 30
0.0
 11
-13.25664929486561
 21
15.28847625194589
 31
0.0
  0
LINE
  5
112
  8
PATTERN_FILL
  6
CONTINUOUS
 62
     7
 10
-24.67836473908903
 20
1.366760807722386
 30
0.0
 11
-13.2941760997262
 21
12.75094944708525
 31
0.0
  0
LINE
  5
113
  8
PATTERN_FILL
  6
CONTINUOUS
 62
     7
 10
-24.73326957071424
 20
-1.188144023902794
 30
0.0
 11
-13.33170290458679
 21
10.21342264222464
 31
0.0
  0
LINE
  5
114
  8
PATTERN_FILL
  6
CONTINUOUS
 62
     7
 10
-24.78817440233945
 20
-3.743048855527974
 30
0.0
 11
-13.36922970944738
 21
7.675895837364024
 31
0.0
  0
LINE
  5
115
  8
PATTERN_FILL
  6
CONTINUOUS
 62
     7
 10
-24.84307923396466
 20
-6.297953687153154
 30
0.0
 11
-13.40675651430797
 21
5.138369032503405
 31
0.0
  0
LINE
  5
116
  8
PATTERN_FILL
  6
CONTINUOUS
 62
     7
 10
0.6981626394982641
 20
19.24328818630969
 30
0.0
 11
2.754874453188563
 21
21.3
 31
0.0
  0
LINE
  5
117
  8
PATTERN_FILL
  6
CONTINUOUS
 62
     7
 10
-24.89798406558975
 20
-8.852858518778334
 30
0.0
 11
-13.44428331916868
 21
2.600842227642815
 31
0.0
  0
LINE
  5
118
  8
PATTERN_FILL
  6
CONTINUOUS
 62
     7
 10
0.7345956721145512
 20
16.77972121892595
 30
0.0
 11
5.254874453188563
 21
21.3
 31
0.0
  0
LINE
  5
119
  8
PATTERN_FILL
  6
CONTINUOUS
 62
     7
 10
-24.95288889721496
 20
-11.40776335040353
 30
0.0
 11
-13.48181012402927
 21
0.0633154227821819
 31
0.0
  0
LINE
  5
11A
  8
PATTERN_FILL
  6
CONTINUOUS
 62
     7
 10
0.7710287047307247
 20
14.31615425154217
 30
0.0
 11
7.754874453188563
 21
21.3
 31
0.0
  0
LINE
  5
11B
  8
PATTERN_FILL
  6
CONTINUOUS
 62
     7
 10
-25.00779372884017
 20
-13.96266818202872
 30
0.0
 11
-13.51933692888986
 21
-2.474211382078437
 31
0.0
  0
LINE
  5
11C
  8
PATTERN_FILL
  6
CONTINUOUS
 62
     7
 10
0.8074617373470119
 20
11.85258728415842
 30
0.0
 11
10.11826011490052
 21
21.163385661712
 31
0.0
  0
LINE
  5
11D
  8
PATTERN_FILL
  6
CONTINUOUS
 62
     7
 10
-25.06269856046538
 20
-16.51757301365402
 30
0.0
 11
-13.55686373375045
 21
-5.011738186939141
 31
0.0
  0
LINE
  5
11E
  8
PATTERN_FILL
  6
CONTINUOUS
 62
     7
 10
0.8438947699631854
 20
9.389020316774605
 30
0.0
 11
11.48152512748072
 21
20.02665067429214
 31
0.0
  0
LINE
  5
11F
  8
PATTERN_FILL
  6
CONTINUOUS
 62
     7
 10
-25.11760339209047
 20
-19.0724778452792
 30
0.0
 11
-13.59439053861104
 21
-7.549264991799745
 31
0.0
  0
LINE
  5
120
  8
PATTERN_FILL
  6
CONTINUOUS
 62
     7
 10
0.8803278025794725
 20
6.925453349390857
 30
0.0
 11
11.82373508667297
 21
17.86886063348443
 31
0.0
  0
LINE
  5
121
  8
PATTERN_FILL
  6
CONTINUOUS
 62
     7
 10
-25.17250822371568
 20
-21.62738267690438
 30
0.0
 11
-13.63191734347174
 21
-10.08679179666038
 31
0.0
  0
LINE
  5
122
  8
PATTERN_FILL
  6
CONTINUOUS
 62
     7
 10
0.916760835195646
 20
4.46188638200708
 30
0.0
 11
11.8763297570797
 21
15.42145530389114
 31
0.0
  0
LINE
  5
123
  8
PATTERN_FILL
  6
CONTINUOUS
 62
     7
 10
-25.22741305534089
 20
-24.18228750852955
 30
0.0
 11
-13.66944414833233
 21
-12.62431860152098
 31
0.0
  0
LINE
  5
124
  8
PATTERN_FILL
  6
CONTINUOUS
 62
     7
 10
0.9531938678119332
 20
1.998319414623325
 30
0.0
 11
11.92892442748644
 21
12.97404997429788
 31
0.0
  0
LINE
  5
125
  8
PATTERN_FILL
  6
CONTINUOUS
 62
     7
 10
-25.2823178869661
 20
-26.73719234015473
 30
0.0
 11
-13.70697095319292
 21
-15.1618454063816
 31
0.0
  0
LINE
  5
126
  8
PATTERN_FILL
  6
CONTINUOUS
 62
     7
 10
0.9896269004282203
 20
-0.4652475527604452
 30
0.0
 11
11.98151909789317
 21
10.52664464470461
 31
0.0
  0
LINE
  5
127
  8
PATTERN_FILL
  6
CONTINUOUS
 62
     7
 10
-25.33722271859131
 20
-29.29209717177993
 30
0.0
 11
-13.74449775805351
 21
-17.69937221124222
 31
0.0
  0
LINE
  5
128
  8
PATTERN_FILL
  6
CONTINUOUS
 62
     7
 10
1.026059933044394
 20
-2.928814520144201
 30
0.0
 11
12.0341137682999
 21
8.079239315111337
 31
0.0
  0
LINE
  5
129
  8
PATTERN_FILL
  6
CONTINUOUS
 62
     7
 10
-25.3921275502164
 20
-31.84700200340511
 30
0.0
 11
-13.7820245629141
 21
-20.23689901610283
 31
0.0
  0
LINE
  5
12A
  8
PATTERN_FILL
  6
CONTINUOUS
 62
     7
 10
1.062492965660681
 20
-5.39238148752797
 30
0.0
 11
12.08670843870664
 21
5.631833985518057
 31
0.0
  0
LINE
  5
12B
  8
PATTERN_FILL
  6
CONTINUOUS
 62
     7
 10
-25.44703238184161
 20
-34.4019068350303
 30
0.0
 11
-13.81955136777481
 21
-22.77442582096346
 31
0.0
  0
LINE
  5
12C
  8
PATTERN_FILL
  6
CONTINUOUS
 62
     7
 10
1.098925998276854
 20
-7.855948454911754
 30
0.0
 11
12.13930310911337
 21
3.184428655924776
 31
0.0
  0
LINE
  5
12D
  8
PATTERN_FILL
  6
CONTINUOUS
 62
     7
 10
-25.50193721346682
 20
-36.95681166665548
 30
0.0
 11
-13.8570781726354
 21
-25.31195262582406
 31
0.0
  0
LINE
  5
12E
  8
PATTERN_FILL
  6
CONTINUOUS
 62
     7
 10
1.135359030893142
 20
-10.31951542229551
 30
0.0
 11
12.1918977795201
 21
0.7370233263315171
 31
0.0
  0
LINE
  5
12F
  8
PATTERN_FILL
  6
CONTINUOUS
 62
     7
 10
-25.55684204509203
 20
-39.51171649828066
 30
0.0
 11
-13.89460497749599
 21
-27.84947943068468
 31
0.0
  0
LINE
  5
130
  8
PATTERN_FILL
  6
CONTINUOUS
 62
     7
 10
1.171792063509429
 20
-12.78308238967925
 30
0.0
 11
12.24449244992684
 21
-1.710382003261728
 31
0.0
  0
LINE
  5
131
  8
PATTERN_FILL
  6
CONTINUOUS
 62
     7
 10
-25.61174687671712
 20
-42.06662132990584
 30
0.0
 11
-13.93213178235658
 21
-30.3870062355453
 31
0.0
  0
LINE
  5
132
  8
PATTERN_FILL
  6
CONTINUOUS
 62
     7
 10
1.208225096125602
 20
-15.24664935706302
 30
0.0
 11
12.29708712033357
 21
-4.157787332855008
 31
0.0
  0
LINE
  5
133
  8
PATTERN_FILL
  6
CONTINUOUS
 62
     7
 10
-25.66665170834233
 20
-44.62152616153102
 30
0.0
 11
-13.96965858721728
 21
-32.92453304040592
 31
0.0
  0
LINE
  5
134
  8
PATTERN_FILL
  6
CONTINUOUS
 62
     7
 10
1.244658128741889
 20
-17.71021632444678
 30
0.0
 11
12.34968179074031
 21
-6.605192662448275
 31
0.0
  0
LINE
  5
135
  8
PATTERN_FILL
  6
CONTINUOUS
 62
     7
 10
-25.72155653996754
 20
-47.17643099315623
 30
0.0
 11
-14.00718539207787
 21
-35.46205984526654
 31
0.0
  0
LINE
  5
136
  8
PATTERN_FILL
  6
CONTINUOUS
 62
     7
 10
1.281091161358063
 20
-20.17378329183055
 30
0.0
 11
12.40227646114704
 21
-9.052597992041541
 31
0.0
  0
LINE
  5
137
  8
PATTERN_FILL
  6
CONTINUOUS
 62
     7
 10
-22.0444050047148
 20
-48.4992794579035
 30
0.0
 11
-14.08223900179905
 21
-40.53711345498778
 31
0.0
  0
LINE
  5
138
  8
PATTERN_FILL
  6
CONTINUOUS
 62
     7
 10
1.353957226590524
 20
-25.10091722659809
 30
0.0
 11
12.50746580196051
 21
-13.9474086512281
 31
0.0
  0
LINE
  5
139
  8
PATTERN_FILL
  6
CONTINUOUS
 62
     7
 10
-19.5444050047148
 20
-48.4992794579035
 30
0.0
 11
-14.11976580665964
 21
-43.07464025984839
 31
0.0
  0
LINE
  5
13A
  8
PATTERN_FILL
  6
CONTINUOUS
 62
     7
 10
1.390390259206811
 20
-27.56448419398184
 30
0.0
 11
12.56006047236724
 21
-16.39481398082135
 31
0.0
  0
LINE
  5
13B
  8
PATTERN_FILL
  6
CONTINUOUS
 62
     7
 10
-17.0444050047148
 20
-48.4992794579035
 30
0.0
 11
-14.15729261152035
 21
-45.61216706470903
 31
0.0
  0
LINE
  5
13C
  8
PATTERN_FILL
  6
CONTINUOUS
 62
     7
 10
1.426823291822984
 20
-30.0280511613656
 30
0.0
 11
12.61265514277397
 21
-18.84221931041462
 31
0.0
  0
LINE
  5
13D
  8
PATTERN_FILL
  6
CONTINUOUS
 62
     7
 10
-14.5444050047148
 20
-48.4992794579035
 30
0.0
 11
-14.19481941638094
 21
-48.14969386956966
 31
0.0
  0
LINE
  5
13E
  8
PATTERN_FILL
  6
CONTINUOUS
 62
     7
 10
1.463256324439271
 20
-32.49161812874938
 30
0.0
 11
12.66524981318071
 21
-21.2896246400079
 31
0.0
  0
LINE
  5
13F
  8
PATTERN_FILL
  6
CONTINUOUS
 62
     7
 10
1.499689357055559
 20
-34.95518509613314
 30
0.0
 11
12.71784448358744
 21
-23.73702996960117
 31
0.0
  0
LINE
  5
140
  8
PATTERN_FILL
  6
CONTINUOUS
 62
     7
 10
1.536122389671732
 20
-37.41875206351691
 30
0.0
 11
12.77043915399418
 21
-26.18443529919443
 31
0.0
  0
LINE
  5
141
  8
PATTERN_FILL
  6
CONTINUOUS
 62
     7
 10
1.572555422288019
 20
-39.88231903090073
 30
0.0
 11
12.82303382440091
 21
-28.6318406287878
 31
0.0
  0
LINE
  5
142
  8
PATTERN_FILL
  6
CONTINUOUS
 62
     7
 10
1.608988454904193
 20
-42.34588599828449
 30
0.0
 11
12.87562849480764
 21
-31.07924595838108
 31
0.0
  0
LINE
  5
143
  8
PATTERN_FILL
  6
CONTINUOUS
 62
     7
 10
1.64542148752048
 20
-44.80945296566824
 30
0.0
 11
12.92822316521438
 21
-33.52665128797435
 31
0.0
  0
LINE
  5
144
  8
PATTERN_FILL
  6
CONTINUOUS
 62
     7
 10
1.681854520136767
 20
-47.27301993305201
 30
0.0
 11
12.98081783562111
 21
-35.97405661756761
 31
0.0
  0
LINE
  5
145
  8
PATTERN_FILL
  6
CONTINUOUS
 62
     7
 10
2.955594995285196
 20
-48.4992794579035
 30
0.0
 11
13.03341250602784
 21
-38.42146194716088
 31
0.0
  0
LINE
  5
146
  8
PATTERN_FILL
  6
CONTINUOUS
 62
     7
 10
5.455594995285196
 20
-48.4992794579035
 30
0.0
 11
13.08600717643458
 21
-40.86886727675414
 31
0.0
  0
LINE
  5
147
  8
PATTERN_FILL
  6
CONTINUOUS
 62
     7
 10
7.955594995285196
 20
-48.4992794579035
 30
0.0
 11
13.13860184684131
 21
-43.31627260634741
 31
0.0
  0
LINE
  5
148
  8
PATTERN_FILL
  6
CONTINUOUS
 62
     7
 10
10.4555949952852
 20
-48.4992794579035
 30
0.0
 11
13.19119651724804
 21
-45.76367793594068
 31
0.0
  0
LINE
  5
149
  8
PATTERN_FILL
  6
CONTINUOUS
 62
     7
 10
12.9555949952852
 20
-48.4992794579035
 30
0.0
 11
13.24379118765478
 21
-48.21108326553394
 31
0.0
  0
LINE
  5
14A
  8
PATTERN_FILL
  6
CONTINUOUS
 62
     7
 10
10.41931535599917
 20
21.03700018138271
 30
0.0
 11
11.54014790279746
 21
19.91616763458441
 31
0.0
  0
LINE
  5
14B
  8
PATTERN_FILL
  6
CONTINUOUS
 62
     7
 10
7.656315537381829
 20
21.3
 30
0.0
 11
11.8399052224587
 21
17.11641031492318
 31
0.0
  0
LINE
  5
14C
  8
PATTERN_FILL
  6
CONTINUOUS
 62
     7
 10
5.156315537381943
 20
21.3
 30
0.0
 11
11.89481005408391
 21
14.56150548329801
 31
0.0
  0
LINE
  5
14D
  8
PATTERN_FILL
  6
CONTINUOUS
 62
     7
 10
2.656315537381829
 20
21.3
 30
0.0
 11
11.94971488570911
 21
12.00660065167283
 31
0.0
  0
LINE
  5
14E
  8
PATTERN_FILL
  6
CONTINUOUS
 62
     7
 10
0.6754234265297328
 20
20.78089211085221
 30
0.0
 11
12.00461971733421
 21
9.451695820047647
 31
0.0
  0
LINE
  5
14F
  8
PATTERN_FILL
  6
CONTINUOUS
 62
     7
 10
0.7129502313903231
 20
18.2433653059916
 30
0.0
 11
12.05952454895942
 21
6.89679098842246
 31
0.0
  0
LINE
  5
150
  8
PATTERN_FILL
  6
CONTINUOUS
 62
     7
 10
0.7504770362509134
 20
15.70583850113098
 30
0.0
 11
12.11442938058462
 21
4.341886156797273
 31
0.0
  0
LINE
  5
151
  8
PATTERN_FILL
  6
CONTINUOUS
 62
     7
 10
0.7880038411115038
 20
13.16831169627036
 30
0.0
 11
12.16933421220983
 21
1.786981325172079
 31
0.0
  0
LINE
  5
152
  8
PATTERN_FILL
  6
CONTINUOUS
 62
     7
 10
0.8255306459720941
 20
10.63078489140975
 30
0.0
 11
12.22423904383493
 21
-0.7679235064531014
 31
0.0
  0
LINE
  5
153
  8
PATTERN_FILL
  6
CONTINUOUS
 62
     7
 10
0.8630574508327982
 20
8.093258086549127
 30
0.0
 11
12.27914387546014
 21
-3.322828338078281
 31
0.0
  0
LINE
  5
154
  8
PATTERN_FILL
  6
CONTINUOUS
 62
     7
 10
-14.84368446261806
 20
21.3
 30
0.0
 11
-13.19217028016305
 21
19.64848581754492
 31
0.0
  0
LINE
  5
155
  8
PATTERN_FILL
  6
CONTINUOUS
 62
     7
 10
0.9005842556933885
 20
5.555731281688523
 30
0.0
 11
12.33404870708534
 21
-5.877733169703461
 31
0.0
  0
LINE
  5
156
  8
PATTERN_FILL
  6
CONTINUOUS
 62
     7
 10
-17.34368446261817
 20
21.3
 30
0.0
 11
-13.22860331277923
 21
17.18491885016116
 31
0.0
  0
LINE
  5
157
  8
PATTERN_FILL
  6
CONTINUOUS
 62
     7
 10
0.9381110605539789
 20
3.01820447682789
 30
0.0
 11
12.38895353871055
 21
-8.432638001328655
 31
0.0
  0
LINE
  5
158
  8
PATTERN_FILL
  6
CONTINUOUS
 62
     7
 10
-19.84368446261806
 20
21.3
 30
0.0
 11
-13.26503634539552
 21
14.7213518827774
 31
0.0
  0
LINE
  5
159
  8
PATTERN_FILL
  6
CONTINUOUS
 62
     7
 10
0.9756378654145692
 20
0.4806776719672854
 30
0.0
 11
12.44385837033576
 21
-10.98754283295384
 31
0.0
  0
LINE
  5
15A
  8
PATTERN_FILL
  6
CONTINUOUS
 62
     7
 10
-22.29485278258676
 20
21.25116831996858
 30
0.0
 11
-14.686610915801
 21
13.64292645318287
 31
0.0
  0
LINE
  5
15B
  8
PATTERN_FILL
  6
CONTINUOUS
 62
     7
 10
1.013164670275273
 20
-2.056849132893419
 30
0.0
 11
12.49876320196086
 21
-13.54244766457916
 31
0.0
  0
LINE
  5
15C
  8
PATTERN_FILL
  6
CONTINUOUS
 62
     7
 10
-23.82040063912962
 20
20.27671617651147
 30
0.0
 11
-13.33790241062798
 21
9.794217948009852
 31
0.0
  0
LINE
  5
15D
  8
PATTERN_FILL
  6
CONTINUOUS
 62
     7
 10
1.050691475135864
 20
-4.594375937754023
 30
0.0
 11
12.55366803358606
 21
-16.09735249620431
 31
0.0
  0
LINE
  5
15E
  8
PATTERN_FILL
  6
CONTINUOUS
 62
     7
 10
-24.31508452586149
 20
18.27140006324341
 30
0.0
 11
-13.37433544324426
 21
7.330650980626082
 31
0.0
  0
LINE
  5
15F
  8
PATTERN_FILL
  6
CONTINUOUS
 62
     7
 10
1.088218279996454
 20
-7.131902742614642
 30
0.0
 11
12.60857286521127
 21
-18.6522573278295
 31
0.0
  0
LINE
  5
160
  8
PATTERN_FILL
  6
CONTINUOUS
 62
     7
 10
-24.36767919626823
 20
15.82399473365012
 30
0.0
 11
-13.41076847586044
 21
4.867084013242319
 31
0.0
  0
LINE
  5
161
  8
PATTERN_FILL
  6
CONTINUOUS
 62
     7
 10
1.125745084857044
 20
-9.66942954747526
 30
0.0
 11
12.66347769683648
 21
-21.20716215945467
 31
0.0
  0
LINE
  5
162
  8
PATTERN_FILL
  6
CONTINUOUS
 62
     7
 10
-24.42027386667496
 20
13.37658940405684
 30
0.0
 11
-13.44720150847672
 21
2.40351704585855
 31
0.0
  0
LINE
  5
163
  8
PATTERN_FILL
  6
CONTINUOUS
 62
     7
 10
1.163271889717635
 20
-12.20695635233589
 30
0.0
 11
12.71838252846158
 21
-23.76206699107988
 31
0.0
  0
LINE
  5
164
  8
PATTERN_FILL
  6
CONTINUOUS
 62
     7
 10
-24.47286853708169
 20
10.92918407446358
 30
0.0
 11
-13.4836345410929
 21
-0.0600499215252057
 31
0.0
  0
LINE
  5
165
  8
PATTERN_FILL
  6
CONTINUOUS
 62
     7
 10
1.200798694578225
 20
-14.7444831571965
 30
0.0
 11
12.77328736008678
 21
-26.31697182270506
 31
0.0
  0
LINE
  5
166
  8
PATTERN_FILL
  6
CONTINUOUS
 62
     7
 10
-24.52546320748843
 20
8.481778744870297
 30
0.0
 11
-13.52006757370918
 21
-2.52361688890899
 31
0.0
  0
LINE
  5
167
  8
PATTERN_FILL
  6
CONTINUOUS
 62
     7
 10
1.238325499438929
 20
-17.28200996205712
 30
0.0
 11
12.82819219171199
 21
-28.87187665433024
 31
0.0
  0
LINE
  5
168
  8
PATTERN_FILL
  6
CONTINUOUS
 62
     7
 10
-24.57805787789516
 20
6.034373415277031
 30
0.0
 11
-13.55650060632547
 21
-4.987183856292745
 31
0.0
  0
LINE
  5
169
  8
PATTERN_FILL
  6
CONTINUOUS
 62
     7
 10
1.275852304299519
 20
-19.81953676691774
 30
0.0
 11
12.8830970233372
 21
-31.42678148595542
 31
0.0
  0
LINE
  5
16A
  8
PATTERN_FILL
  6
CONTINUOUS
 62
     7
 10
-24.6306525483019
 20
3.586968085683765
 30
0.0
 11
-13.59293363894164
 21
-7.450750823676515
 31
0.0
  0
LINE
  5
16B
  8
PATTERN_FILL
  6
CONTINUOUS
 62
     7
 10
1.31337910916011
 20
-22.35706357177835
 30
0.0
 11
12.93800185496241
 21
-33.98168631758061
 31
0.0
  0
LINE
  5
16C
  8
PATTERN_FILL
  6
CONTINUOUS
 62
     7
 10
-24.68324721870863
 20
1.139562756090513
 30
0.0
 11
-13.62936667155793
 21
-9.914317791060256
 31
0.0
  0
LINE
  5
16D
  8
PATTERN_FILL
  6
CONTINUOUS
 62
     7
 10
1.3509059140207
 20
-24.89459037663894
 30
0.0
 11
12.9929066865875
 21
-36.53659114920579
 31
0.0
  0
LINE
  5
16E
  8
PATTERN_FILL
  6
CONTINUOUS
 62
     7
 10
-24.73584188911536
 20
-1.307842573502768
 30
0.0
 11
-13.66579970417411
 21
-12.37788475844403
 31
0.0
  0
LINE
  5
16F
  8
PATTERN_FILL
  6
CONTINUOUS
 62
     7
 10
1.388432718881404
 20
-27.43211718149956
 30
0.0
 11
13.04781151821271
 21
-39.09149598083098
 31
0.0
  0
LINE
  5
170
  8
PATTERN_FILL
  6
CONTINUOUS
 62
     7
 10
-24.7884365595221
 20
-3.755247903096034
 30
0.0
 11
-13.70223273679039
 21
-14.84145172582778
 31
0.0
  0
LINE
  5
171
  8
PATTERN_FILL
  6
CONTINUOUS
 62
     7
 10
1.425959523741994
 20
-29.96964398636018
 30
0.0
 11
13.10271634983792
 21
-41.64640081245616
 31
0.0
  0
LINE
  5
172
  8
PATTERN_FILL
  6
CONTINUOUS
 62
     7
 10
-24.84103122992883
 20
-6.2026532326893
 30
0.0
 11
-13.73866576940668
 21
-17.30501869321154
 31
0.0
  0
LINE
  5
173
  8
PATTERN_FILL
  6
CONTINUOUS
 62
     7
 10
1.463486328602585
 20
-32.50717079122082
 30
0.0
 11
13.15762118146313
 21
-44.20130564408136
 31
0.0
  0
LINE
  5
174
  8
PATTERN_FILL
  6
CONTINUOUS
 62
     7
 10
-24.89362590033556
 20
-8.650058562282567
 30
0.0
 11
-13.77509880202285
 21
-19.76858566059531
 31
0.0
  0
LINE
  5
175
  8
PATTERN_FILL
  6
CONTINUOUS
 62
     7
 10
1.501013133463175
 20
-35.04469759608145
 30
0.0
 11
13.21252601308822
 21
-46.75621047570654
 31
0.0
  0
LINE
  5
176
  8
PATTERN_FILL
  6
CONTINUOUS
 62
     7
 10
-24.9462205707423
 20
-11.09746389187585
 30
0.0
 11
-13.81153183463914
 21
-22.23215262797908
 31
0.0
  0
LINE
  5
177
  8
PATTERN_FILL
  6
CONTINUOUS
 62
     7
 10
1.538539938323765
 20
-37.58222440094207
 30
0.0
 11
12.4555949952852
 21
-48.4992794579035
 31
0.0
  0
LINE
  5
178
  8
PATTERN_FILL
  6
CONTINUOUS
 62
     7
 10
-24.99881524114903
 20
-13.54486922146913
 30
0.0
 11
-13.84796486725531
 21
-24.69571959536285
 31
0.0
  0
LINE
  5
179
  8
PATTERN_FILL
  6
CONTINUOUS
 62
     7
 10
1.576066743184469
 20
-40.11975120580269
 30
0.0
 11
9.955594995285196
 21
-48.4992794579035
 31
0.0
  0
LINE
  5
17A
  8
PATTERN_FILL
  6
CONTINUOUS
 62
     7
 10
-25.05140991155577
 20
-15.99227455106239
 30
0.0
 11
-13.8843978998716
 21
-27.15928656274662
 31
0.0
  0
LINE
  5
17B
  8
PATTERN_FILL
  6
CONTINUOUS
 62
     7
 10
1.61359354804506
 20
-42.6572780106633
 30
0.0
 11
7.455594995285196
 21
-48.4992794579035
 31
0.0
  0
LINE
  5
17C
  8
PATTERN_FILL
  6
CONTINUOUS
 62
     7
 10
-25.1040045819625
 20
-18.43967988065566
 30
0.0
 11
-13.92083093248777
 21
-29.62285353013039
 31
0.0
  0
LINE
  5
17D
  8
PATTERN_FILL
  6
CONTINUOUS
 62
     7
 10
1.65112035290565
 20
-45.19480481552392
 30
0.0
 11
4.955594995285196
 21
-48.4992794579035
 31
0.0
  0
LINE
  5
17E
  8
PATTERN_FILL
  6
CONTINUOUS
 62
     7
 10
-25.15659925236923
 20
-20.88708521024893
 30
0.0
 11
-13.95726396510406
 21
-32.08642049751414
 31
0.0
  0
LINE
  5
17F
  8
PATTERN_FILL
  6
CONTINUOUS
 62
     7
 10
1.688647157766241
 20
-47.73233162038454
 30
0.0
 11
2.455594995285196
 21
-48.4992794579035
 31
0.0
  0
LINE
  5
180
  8
PATTERN_FILL
  6
CONTINUOUS
 62
     7
 10
-25.20919392277597
 20
-23.33449053984219
 30
0.0
 11
-13.99369699772024
 21
-34.54998746489792
 31
0.0
  0
LINE
  5
181
  8
PATTERN_FILL
  6
CONTINUOUS
 62
     7
 10
-25.2617885931827
 20
-25.78189586943554
 30
0.0
 11
-14.03013003033652
 21
-37.01355443228172
 31
0.0
  0
LINE
  5
182
  8
PATTERN_FILL
  6
CONTINUOUS
 62
     7
 10
-25.31438326358943
 20
-28.22930119902885
 30
0.0
 11
-14.06656306295281
 21
-39.47712139966552
 31
0.0
  0
LINE
  5
183
  8
PATTERN_FILL
  6
CONTINUOUS
 62
     7
 10
-25.36697793399617
 20
-30.67670652862213
 30
0.0
 11
-14.10299609556898
 21
-41.94068836704926
 31
0.0
  0
LINE
  5
184
  8
PATTERN_FILL
  6
CONTINUOUS
 62
     7
 10
-25.4195726044029
 20
-33.1241118582154
 30
0.0
 11
-14.13942912818527
 21
-44.40425533443303
 31
0.0
  0
LINE
  5
185
  8
PATTERN_FILL
  6
CONTINUOUS
 62
     7
 10
-25.47216727480964
 20
-35.57151718780867
 30
0.0
 11
-14.17586216080144
 21
-46.8678223018168
 31
0.0
  0
LINE
  5
186
  8
PATTERN_FILL
  6
CONTINUOUS
 62
     7
 10
-25.52476194521637
 20
-38.01892251740193
 30
0.0
 11
-15.0444050047148
 21
-48.4992794579035
 31
0.0
  0
LINE
  5
187
  8
PATTERN_FILL
  6
CONTINUOUS
 62
     7
 10
-25.5773566156231
 20
-40.4663278469952
 30
0.0
 11
-17.5444050047148
 21
-48.4992794579035
 31
0.0
  0
LINE
  5
188
  8
PATTERN_FILL
  6
CONTINUOUS
 62
     7
 10
-25.62995128602984
 20
-42.91373317658847
 30
0.0
 11
-20.0444050047148
 21
-48.4992794579035
 31
0.0
  0
LINE
  5
189
  8
PATTERN_FILL
  6
CONTINUOUS
 62
     7
 10
-25.68254595643657
 20
-45.36113850618173
 30
0.0
 11
-22.5444050047148
 21
-48.4992794579035
 31
0.0
  0
LINE
  5
18A
  8
PATTERN_FILL
  6
CONTINUOUS
 62
     7
 10
-25.7351406268433
 20
-47.808543835775
 30
0.0
 11
-25.0444050047148
 21
-48.4992794579035
 31
0.0
  0
LINE
  5
18B
  8
PATTERN_FILL
  6
CONTINUOUS
 62
     7
 10
-24.5444050047148
 20
-48.4992794579035
 30
0.0
 11
-14.04471219693846
 21
-37.99958665012716
 31
0.0
  0
LINE
  5
18C
  8
PATTERN_FILL
  6
CONTINUOUS
 62
     7
 10
1.31752419397435
 20
-22.63735025921432
 30
0.0
 11
12.45487113155377
 21
-11.50000332163484
 31
0.0
  0
LINE
  5
18D
  8
PATTERN_FILL
  6
CONTINUOUS
 62
     7
 10
100.7454595619784
 20
19.29058510878979
 30
0.0
 11
102.7062671697955
 21
21.25139271660694
 31
0.0
  0
LINE
  5
18E
  8
PATTERN_FILL
  6
CONTINUOUS
 62
     7
 10
100.6510642506621
 20
16.69618979747349
 30
0.0
 11
105.2548744531886
 21
21.3
 31
0.0
  0
LINE
  5
18F
  8
PATTERN_FILL
  6
CONTINUOUS
 62
     7
 10
100.5961594190369
 20
14.14128496584831
 30
0.0
 11
107.7548744531886
 21
21.3
 31
0.0
  0
LINE
  5
190
  8
PATTERN_FILL
  6
CONTINUOUS
 62
     7
 10
100.5412545874117
 20
11.58638013422315
 30
0.0
 11
110.2548744531886
 21
21.3
 31
0.0
  0
LINE
  5
191
  8
PATTERN_FILL
  6
CONTINUOUS
 62
     7
 10
100.4863497557865
 20
9.031475302597954
 30
0.0
 11
111.8184043148557
 21
20.3635298616671
 31
0.0
  0
LINE
  5
192
  8
PATTERN_FILL
  6
CONTINUOUS
 62
     7
 10
100.4314449241613
 20
6.476570470972774
 30
0.0
 11
111.7808775099951
 21
17.8260030568065
 31
0.0
  0
LINE
  5
193
  8
PATTERN_FILL
  6
CONTINUOUS
 62
     7
 10
100.3765400925362
 20
3.921665639347594
 30
0.0
 11
111.7433507051344
 21
15.28847625194589
 31
0.0
  0
LINE
  5
194
  8
PATTERN_FILL
  6
CONTINUOUS
 62
     7
 10
100.321635260911
 20
1.366760807722386
 30
0.0
 11
111.7058239002738
 21
12.75094944708525
 31
0.0
  0
LINE
  5
195
  8
PATTERN_FILL
  6
CONTINUOUS
 62
     7
 10
100.2667304292858
 20
-1.188144023902794
 30
0.0
 11
111.6682970954132
 21
10.21342264222464
 31
0.0
  0
LINE
  5
196
  8
PATTERN_FILL
  6
CONTINUOUS
 62
     7
 10
100.2118255976607
 20
-3.743048855527974
 30
0.0
 11
111.6307702905526
 21
7.675895837364024
 31
0.0
  0
LINE
  5
197
  8
PATTERN_FILL
  6
CONTINUOUS
 62
     7
 10
100.1569207660355
 20
-6.297953687153154
 30
0.0
 11
111.593243485692
 21
5.138369032503405
 31
0.0
  0
LINE
  5
198
  8
PATTERN_FILL
  6
CONTINUOUS
 62
     7
 10
125.6981626394983
 20
19.24328818630969
 30
0.0
 11
127.7548744531886
 21
21.3
 31
0.0
  0
LINE
  5
199
  8
PATTERN_FILL
  6
CONTINUOUS
 62
     7
 10
100.1020159344102
 20
-8.852858518778334
 30
0.0
 11
111.5557166808314
 21
2.600842227642815
 31
0.0
  0
LINE
  5
19A
  8
PATTERN_FILL
  6
CONTINUOUS
 62
     7
 10
125.7345956721144
 20
16.77972121892595
 30
0.0
 11
130.2548744531886
 21
21.3
 31
0.0
  0
LINE
  5
19B
  8
PATTERN_FILL
  6
CONTINUOUS
 62
     7
 10
100.047111102785
 20
-11.40776335040353
 30
0.0
 11
111.5181898759707
 21
0.0633154227821819
 31
0.0
  0
LINE
  5
19C
  8
PATTERN_FILL
  6
CONTINUOUS
 62
     7
 10
125.7710287047307
 20
14.31615425154217
 30
0.0
 11
132.7548744531886
 21
21.3
 31
0.0
  0
LINE
  5
19D
  8
PATTERN_FILL
  6
CONTINUOUS
 62
     7
 10
99.99220627115983
 20
-13.96266818202872
 30
0.0
 11
111.4806630711101
 21
-2.474211382078437
 31
0.0
  0
LINE
  5
19E
  8
PATTERN_FILL
  6
CONTINUOUS
 62
     7
 10
125.807461737347
 20
11.85258728415842
 30
0.0
 11
135.1182601149005
 21
21.163385661712
 31
0.0
  0
LINE
  5
19F
  8
PATTERN_FILL
  6
CONTINUOUS
 62
     7
 10
99.93730143953462
 20
-16.51757301365402
 30
0.0
 11
111.4431362662496
 21
-5.011738186939141
 31
0.0
  0
LINE
  5
1A0
  8
PATTERN_FILL
  6
CONTINUOUS
 62
     7
 10
125.8438947699632
 20
9.389020316774605
 30
0.0
 11
136.4815251274807
 21
20.02665067429214
 31
0.0
  0
LINE
  5
1A1
  8
PATTERN_FILL
  6
CONTINUOUS
 62
     7
 10
99.88239660790953
 20
-19.0724778452792
 30
0.0
 11
111.4056094613888
 21
-7.549264991799745
 31
0.0
  0
LINE
  5
1A2
  8
PATTERN_FILL
  6
CONTINUOUS
 62
     7
 10
125.8803278025795
 20
6.925453349390857
 30
0.0
 11
136.823735086673
 21
17.86886063348443
 31
0.0
  0
LINE
  5
1A3
  8
PATTERN_FILL
  6
CONTINUOUS
 62
     7
 10
99.82749177628432
 20
-21.62738267690438
 30
0.0
 11
111.3680826565283
 21
-10.08679179666038
 31
0.0
  0
LINE
  5
1A4
  8
PATTERN_FILL
  6
CONTINUOUS
 62
     7
 10
125.9167608351956
 20
4.46188638200708
 30
0.0
 11
136.8763297570797
 21
15.42145530389114
 31
0.0
  0
LINE
  5
1A5
  8
PATTERN_FILL
  6
CONTINUOUS
 62
     7
 10
99.77258694465911
 20
-24.18228750852955
 30
0.0
 11
111.3305558516677
 21
-12.62431860152098
 31
0.0
  0
LINE
  5
1A6
  8
PATTERN_FILL
  6
CONTINUOUS
 62
     7
 10
125.9531938678119
 20
1.998319414623325
 30
0.0
 11
136.9289244274864
 21
12.97404997429788
 31
0.0
  0
LINE
  5
1A7
  8
PATTERN_FILL
  6
CONTINUOUS
 62
     7
 10
99.71768211303402
 20
-26.73719234015473
 30
0.0
 11
111.2930290468071
 21
-15.1618454063816
 31
0.0
  0
LINE
  5
1A8
  8
PATTERN_FILL
  6
CONTINUOUS
 62
     7
 10
125.9896269004282
 20
-0.4652475527604452
 30
0.0
 11
136.9815190978932
 21
10.52664464470461
 31
0.0
  0
LINE
  5
1A9
  8
PATTERN_FILL
  6
CONTINUOUS
 62
     7
 10
99.66277728140881
 20
-29.29209717177993
 30
0.0
 11
111.2555022419465
 21
-17.69937221124222
 31
0.0
  0
LINE
  5
1AA
  8
PATTERN_FILL
  6
CONTINUOUS
 62
     7
 10
126.0260599330444
 20
-2.928814520144201
 30
0.0
 11
137.0341137682999
 21
8.079239315111337
 31
0.0
  0
LINE
  5
1AB
  8
PATTERN_FILL
  6
CONTINUOUS
 62
     7
 10
99.6078724497836
 20
-31.84700200340511
 30
0.0
 11
111.2179754370859
 21
-20.23689901610283
 31
0.0
  0
LINE
  5
1AC
  8
PATTERN_FILL
  6
CONTINUOUS
 62
     7
 10
126.0624929656607
 20
-5.39238148752797
 30
0.0
 11
137.0867084387066
 21
5.631833985518057
 31
0.0
  0
LINE
  5
1AD
  8
PATTERN_FILL
  6
CONTINUOUS
 62
     7
 10
99.55296761815839
 20
-34.4019068350303
 30
0.0
 11
111.1804486322252
 21
-22.77442582096346
 31
0.0
  0
LINE
  5
1AE
  8
PATTERN_FILL
  6
CONTINUOUS
 62
     7
 10
126.0989259982769
 20
-7.855948454911754
 30
0.0
 11
137.1393031091134
 21
3.184428655924776
 31
0.0
  0
LINE
  5
1AF
  8
PATTERN_FILL
  6
CONTINUOUS
 62
     7
 10
99.49806278653318
 20
-36.95681166665548
 30
0.0
 11
111.1429218273646
 21
-25.31195262582406
 31
0.0
  0
LINE
  5
1B0
  8
PATTERN_FILL
  6
CONTINUOUS
 62
     7
 10
126.1353590308931
 20
-10.31951542229551
 30
0.0
 11
137.1918977795201
 21
0.7370233263315171
 31
0.0
  0
LINE
  5
1B1
  8
PATTERN_FILL
  6
CONTINUOUS
 62
     7
 10
99.44315795490797
 20
-39.51171649828066
 30
0.0
 11
111.105395022504
 21
-27.84947943068468
 31
0.0
  0
LINE
  5
1B2
  8
PATTERN_FILL
  6
CONTINUOUS
 62
     7
 10
126.1717920635094
 20
-12.78308238967925
 30
0.0
 11
137.2444924499268
 21
-1.710382003261728
 31
0.0
  0
LINE
  5
1B3
  8
PATTERN_FILL
  6
CONTINUOUS
 62
     7
 10
99.38825312328288
 20
-42.06662132990584
 30
0.0
 11
111.0678682176434
 21
-30.3870062355453
 31
0.0
  0
LINE
  5
1B4
  8
PATTERN_FILL
  6
CONTINUOUS
 62
     7
 10
126.2082250961256
 20
-15.24664935706302
 30
0.0
 11
137.2970871203336
 21
-4.157787332855008
 31
0.0
  0
LINE
  5
1B5
  8
PATTERN_FILL
  6
CONTINUOUS
 62
     7
 10
99.33334829165767
 20
-44.62152616153102
 30
0.0
 11
111.0303414127827
 21
-32.92453304040592
 31
0.0
  0
LINE
  5
1B6
  8
PATTERN_FILL
  6
CONTINUOUS
 62
     7
 10
126.2446581287418
 20
-17.71021632444678
 30
0.0
 11
137.3496817907403
 21
-6.605192662448275
 31
0.0
  0
LINE
  5
1B7
  8
PATTERN_FILL
  6
CONTINUOUS
 62
     7
 10
99.27844346003246
 20
-47.17643099315623
 30
0.0
 11
110.9928146079221
 21
-35.46205984526654
 31
0.0
  0
LINE
  5
1B8
  8
PATTERN_FILL
  6
CONTINUOUS
 62
     7
 10
126.2810911613581
 20
-20.17378329183055
 30
0.0
 11
137.402276461147
 21
-9.052597992041541
 31
0.0
  0
LINE
  5
1B9
  8
PATTERN_FILL
  6
CONTINUOUS
 62
     7
 10
102.9555949952852
 20
-48.4992794579035
 30
0.0
 11
110.9177609982009
 21
-40.53711345498778
 31
0.0
  0
LINE
  5
1BA
  8
PATTERN_FILL
  6
CONTINUOUS
 62
     7
 10
126.3539572265905
 20
-25.10091722659809
 30
0.0
 11
137.5074658019605
 21
-13.9474086512281
 31
0.0
  0
LINE
  5
1BB
  8
PATTERN_FILL
  6
CONTINUOUS
 62
     7
 10
105.4555949952852
 20
-48.4992794579035
 30
0.0
 11
110.8802341933404
 21
-43.07464025984839
 31
0.0
  0
LINE
  5
1BC
  8
PATTERN_FILL
  6
CONTINUOUS
 62
     7
 10
126.3903902592068
 20
-27.56448419398184
 30
0.0
 11
137.5600604723672
 21
-16.39481398082135
 31
0.0
  0
LINE
  5
1BD
  8
PATTERN_FILL
  6
CONTINUOUS
 62
     7
 10
107.9555949952852
 20
-48.4992794579035
 30
0.0
 11
110.8427073884797
 21
-45.61216706470903
 31
0.0
  0
LINE
  5
1BE
  8
PATTERN_FILL
  6
CONTINUOUS
 62
     7
 10
126.426823291823
 20
-30.0280511613656
 30
0.0
 11
137.612655142774
 21
-18.84221931041462
 31
0.0
  0
LINE
  5
1BF
  8
PATTERN_FILL
  6
CONTINUOUS
 62
     7
 10
110.4555949952852
 20
-48.4992794579035
 30
0.0
 11
110.8051805836191
 21
-48.14969386956966
 31
0.0
  0
LINE
  5
1C0
  8
PATTERN_FILL
  6
CONTINUOUS
 62
     7
 10
126.4632563244393
 20
-32.49161812874938
 30
0.0
 11
137.6652498131807
 21
-21.2896246400079
 31
0.0
  0
LINE
  5
1C1
  8
PATTERN_FILL
  6
CONTINUOUS
 62
     7
 10
126.4996893570556
 20
-34.95518509613314
 30
0.0
 11
137.7178444835874
 21
-23.73702996960117
 31
0.0
  0
LINE
  5
1C2
  8
PATTERN_FILL
  6
CONTINUOUS
 62
     7
 10
126.5361223896717
 20
-37.41875206351691
 30
0.0
 11
137.7704391539942
 21
-26.18443529919443
 31
0.0
  0
LINE
  5
1C3
  8
PATTERN_FILL
  6
CONTINUOUS
 62
     7
 10
126.572555422288
 20
-39.88231903090073
 30
0.0
 11
137.8230338244009
 21
-28.6318406287878
 31
0.0
  0
LINE
  5
1C4
  8
PATTERN_FILL
  6
CONTINUOUS
 62
     7
 10
126.6089884549042
 20
-42.34588599828449
 30
0.0
 11
137.8756284948076
 21
-31.07924595838108
 31
0.0
  0
LINE
  5
1C5
  8
PATTERN_FILL
  6
CONTINUOUS
 62
     7
 10
126.6454214875205
 20
-44.80945296566824
 30
0.0
 11
137.9282231652144
 21
-33.52665128797435
 31
0.0
  0
LINE
  5
1C6
  8
PATTERN_FILL
  6
CONTINUOUS
 62
     7
 10
126.6818545201368
 20
-47.27301993305201
 30
0.0
 11
137.9808178356211
 21
-35.97405661756761
 31
0.0
  0
LINE
  5
1C7
  8
PATTERN_FILL
  6
CONTINUOUS
 62
     7
 10
127.9555949952852
 20
-48.4992794579035
 30
0.0
 11
138.0334125060278
 21
-38.42146194716088
 31
0.0
  0
LINE
  5
1C8
  8
PATTERN_FILL
  6
CONTINUOUS
 62
     7
 10
130.4555949952852
 20
-48.4992794579035
 30
0.0
 11
138.0860071764346
 21
-40.86886727675414
 31
0.0
  0
LINE
  5
1C9
  8
PATTERN_FILL
  6
CONTINUOUS
 62
     7
 10
132.9555949952852
 20
-48.4992794579035
 30
0.0
 11
138.1386018468413
 21
-43.31627260634741
 31
0.0
  0
LINE
  5
1CA
  8
PATTERN_FILL
  6
CONTINUOUS
 62
     7
 10
135.4555949952852
 20
-48.4992794579035
 30
0.0
 11
138.191196517248
 21
-45.76367793594068
 31
0.0
  0
LINE
  5
1CB
  8
PATTERN_FILL
  6
CONTINUOUS
 62
     7
 10
137.9555949952852
 20
-48.4992794579035
 30
0.0
 11
138.2437911876548
 21
-48.21108326553394
 31
0.0
  0
LINE
  5
1CC
  8
PATTERN_FILL
  6
CONTINUOUS
 62
     7
 10
135.4193153559992
 20
21.03700018138271
 30
0.0
 11
136.5401479027975
 21
19.91616763458441
 31
0.0
  0
LINE
  5
1CD
  8
PATTERN_FILL
  6
CONTINUOUS
 62
     7
 10
132.6563155373819
 20
21.3
 30
0.0
 11
136.8399052224587
 21
17.11641031492318
 31
0.0
  0
LINE
  5
1CE
  8
PATTERN_FILL
  6
CONTINUOUS
 62
     7
 10
130.1563155373819
 20
21.3
 30
0.0
 11
136.8948100540839
 21
14.56150548329801
 31
0.0
  0
LINE
  5
1CF
  8
PATTERN_FILL
  6
CONTINUOUS
 62
     7
 10
127.6563155373819
 20
21.3
 30
0.0
 11
136.949714885709
 21
12.00660065167283
 31
0.0
  0
LINE
  5
1D0
  8
PATTERN_FILL
  6
CONTINUOUS
 62
     7
 10
125.6754234265297
 20
20.78089211085221
 30
0.0
 11
137.0046197173342
 21
9.451695820047647
 31
0.0
  0
LINE
  5
1D1
  8
PATTERN_FILL
  6
CONTINUOUS
 62
     7
 10
125.7129502313903
 20
18.2433653059916
 30
0.0
 11
137.0595245489594
 21
6.89679098842246
 31
0.0
  0
LINE
  5
1D2
  8
PATTERN_FILL
  6
CONTINUOUS
 62
     7
 10
125.7504770362509
 20
15.70583850113098
 30
0.0
 11
137.1144293805846
 21
4.341886156797273
 31
0.0
  0
LINE
  5
1D3
  8
PATTERN_FILL
  6
CONTINUOUS
 62
     7
 10
125.7880038411115
 20
13.16831169627036
 30
0.0
 11
137.1693342122098
 21
1.786981325172079
 31
0.0
  0
LINE
  5
1D4
  8
PATTERN_FILL
  6
CONTINUOUS
 62
     7
 10
125.8255306459721
 20
10.63078489140975
 30
0.0
 11
137.224239043835
 21
-0.7679235064531014
 31
0.0
  0
LINE
  5
1D5
  8
PATTERN_FILL
  6
CONTINUOUS
 62
     7
 10
125.8630574508327
 20
8.093258086549127
 30
0.0
 11
137.2791438754601
 21
-3.322828338078281
 31
0.0
  0
LINE
  5
1D6
  8
PATTERN_FILL
  6
CONTINUOUS
 62
     7
 10
110.1563155373819
 20
21.3
 30
0.0
 11
111.8078297198369
 21
19.64848581754492
 31
0.0
  0
LINE
  5
1D7
  8
PATTERN_FILL
  6
CONTINUOUS
 62
     7
 10
125.9005842556934
 20
5.555731281688523
 30
0.0
 11
137.3340487070853
 21
-5.877733169703461
 31
0.0
  0
LINE
  5
1D8
  8
PATTERN_FILL
  6
CONTINUOUS
 62
     7
 10
107.6563155373819
 20
21.3
 30
0.0
 11
111.7713966872207
 21
17.18491885016116
 31
0.0
  0
LINE
  5
1D9
  8
PATTERN_FILL
  6
CONTINUOUS
 62
     7
 10
125.938111060554
 20
3.01820447682789
 30
0.0
 11
137.3889535387106
 21
-8.432638001328655
 31
0.0
  0
LINE
  5
1DA
  8
PATTERN_FILL
  6
CONTINUOUS
 62
     7
 10
105.1563155373819
 20
21.3
 30
0.0
 11
111.7349636546045
 21
14.7213518827774
 31
0.0
  0
LINE
  5
1DB
  8
PATTERN_FILL
  6
CONTINUOUS
 62
     7
 10
125.9756378654146
 20
0.4806776719672854
 30
0.0
 11
137.4438583703356
 21
-10.98754283295384
 31
0.0
  0
LINE
  5
1DC
  8
PATTERN_FILL
  6
CONTINUOUS
 62
     7
 10
102.7051472174132
 20
21.25116831996858
 30
0.0
 11
110.313389084199
 21
13.64292645318287
 31
0.0
  0
LINE
  5
1DD
  8
PATTERN_FILL
  6
CONTINUOUS
 62
     7
 10
126.0131646702753
 20
-2.056849132893419
 30
0.0
 11
137.4987632019609
 21
-13.54244766457916
 31
0.0
  0
LINE
  5
1DE
  8
PATTERN_FILL
  6
CONTINUOUS
 62
     7
 10
101.1795993608704
 20
20.27671617651147
 30
0.0
 11
111.662097589372
 21
9.794217948009852
 31
0.0
  0
LINE
  5
1DF
  8
PATTERN_FILL
  6
CONTINUOUS
 62
     7
 10
126.0506914751359
 20
-4.594375937754023
 30
0.0
 11
137.5536680335861
 21
-16.09735249620431
 31
0.0
  0
LINE
  5
1E0
  8
PATTERN_FILL
  6
CONTINUOUS
 62
     7
 10
100.6849154741385
 20
18.27140006324341
 30
0.0
 11
111.6256645567557
 21
7.330650980626082
 31
0.0
  0
LINE
  5
1E1
  8
PATTERN_FILL
  6
CONTINUOUS
 62
     7
 10
126.0882182799965
 20
-7.131902742614642
 30
0.0
 11
137.6085728652113
 21
-18.6522573278295
 31
0.0
  0
LINE
  5
1E2
  8
PATTERN_FILL
  6
CONTINUOUS
 62
     7
 10
100.6323208037318
 20
15.82399473365012
 30
0.0
 11
111.5892315241396
 21
4.867084013242319
 31
0.0
  0
LINE
  5
1E3
  8
PATTERN_FILL
  6
CONTINUOUS
 62
     7
 10
126.125745084857
 20
-9.66942954747526
 30
0.0
 11
137.6634776968365
 21
-21.20716215945467
 31
0.0
  0
LINE
  5
1E4
  8
PATTERN_FILL
  6
CONTINUOUS
 62
     7
 10
100.579726133325
 20
13.37658940405684
 30
0.0
 11
111.5527984915233
 21
2.40351704585855
 31
0.0
  0
LINE
  5
1E5
  8
PATTERN_FILL
  6
CONTINUOUS
 62
     7
 10
126.1632718897176
 20
-12.20695635233589
 30
0.0
 11
137.7183825284617
 21
-23.76206699107988
 31
0.0
  0
LINE
  5
1E6
  8
PATTERN_FILL
  6
CONTINUOUS
 62
     7
 10
100.5271314629183
 20
10.92918407446358
 30
0.0
 11
111.5163654589071
 21
-0.0600499215252057
 31
0.0
  0
LINE
  5
1E7
  8
PATTERN_FILL
  6
CONTINUOUS
 62
     7
 10
126.2007986945782
 20
-14.7444831571965
 30
0.0
 11
137.7732873600868
 21
-26.31697182270506
 31
0.0
  0
LINE
  5
1E8
  8
PATTERN_FILL
  6
CONTINUOUS
 62
     7
 10
100.4745367925116
 20
8.481778744870297
 30
0.0
 11
111.4799324262908
 21
-2.52361688890899
 31
0.0
  0
LINE
  5
1E9
  8
PATTERN_FILL
  6
CONTINUOUS
 62
     7
 10
126.2383254994389
 20
-17.28200996205712
 30
0.0
 11
137.828192191712
 21
-28.87187665433024
 31
0.0
  0
LINE
  5
1EA
  8
PATTERN_FILL
  6
CONTINUOUS
 62
     7
 10
100.4219421221048
 20
6.034373415277031
 30
0.0
 11
111.4434993936745
 21
-4.987183856292745
 31
0.0
  0
LINE
  5
1EB
  8
PATTERN_FILL
  6
CONTINUOUS
 62
     7
 10
126.2758523042995
 20
-19.81953676691774
 30
0.0
 11
137.8830970233372
 21
-31.42678148595542
 31
0.0
  0
LINE
  5
1EC
  8
PATTERN_FILL
  6
CONTINUOUS
 62
     7
 10
100.3693474516981
 20
3.586968085683765
 30
0.0
 11
111.4070663610584
 21
-7.450750823676515
 31
0.0
  0
LINE
  5
1ED
  8
PATTERN_FILL
  6
CONTINUOUS
 62
     7
 10
126.3133791091601
 20
-22.35706357177835
 30
0.0
 11
137.9380018549623
 21
-33.98168631758061
 31
0.0
  0
LINE
  5
1EE
  8
PATTERN_FILL
  6
CONTINUOUS
 62
     7
 10
100.3167527812914
 20
1.139562756090513
 30
0.0
 11
111.3706333284421
 21
-9.914317791060256
 31
0.0
  0
LINE
  5
1EF
  8
PATTERN_FILL
  6
CONTINUOUS
 62
     7
 10
126.3509059140207
 20
-24.89459037663894
 30
0.0
 11
137.9929066865875
 21
-36.53659114920579
 31
0.0
  0
LINE
  5
1F0
  8
PATTERN_FILL
  6
CONTINUOUS
 62
     7
 10
100.2641581108846
 20
-1.307842573502768
 30
0.0
 11
111.3342002958259
 21
-12.37788475844403
 31
0.0
  0
LINE
  5
1F1
  8
PATTERN_FILL
  6
CONTINUOUS
 62
     7
 10
126.3884327188814
 20
-27.43211718149956
 30
0.0
 11
138.0478115182127
 21
-39.09149598083098
 31
0.0
  0
LINE
  5
1F2
  8
PATTERN_FILL
  6
CONTINUOUS
 62
     7
 10
100.2115634404779
 20
-3.755247903096034
 30
0.0
 11
111.2977672632096
 21
-14.84145172582778
 31
0.0
  0
LINE
  5
1F3
  8
PATTERN_FILL
  6
CONTINUOUS
 62
     7
 10
126.425959523742
 20
-29.96964398636018
 30
0.0
 11
138.1027163498379
 21
-41.64640081245616
 31
0.0
  0
LINE
  5
1F4
  8
PATTERN_FILL
  6
CONTINUOUS
 62
     7
 10
100.1589687700712
 20
-6.2026532326893
 30
0.0
 11
111.2613342305933
 21
-17.30501869321154
 31
0.0
  0
LINE
  5
1F5
  8
PATTERN_FILL
  6
CONTINUOUS
 62
     7
 10
126.4634863286026
 20
-32.50717079122082
 30
0.0
 11
138.1576211814631
 21
-44.20130564408136
 31
0.0
  0
LINE
  5
1F6
  8
PATTERN_FILL
  6
CONTINUOUS
 62
     7
 10
100.1063740996644
 20
-8.650058562282567
 30
0.0
 11
111.2249011979771
 21
-19.76858566059531
 31
0.0
  0
LINE
  5
1F7
  8
PATTERN_FILL
  6
CONTINUOUS
 62
     7
 10
126.5010131334632
 20
-35.04469759608145
 30
0.0
 11
138.2125260130883
 21
-46.75621047570654
 31
0.0
  0
LINE
  5
1F8
  8
PATTERN_FILL
  6
CONTINUOUS
 62
     7
 10
100.0537794292577
 20
-11.09746389187585
 30
0.0
 11
111.188468165361
 21
-22.23215262797908
 31
0.0
  0
LINE
  5
1F9
  8
PATTERN_FILL
  6
CONTINUOUS
 62
     7
 10
126.5385399383238
 20
-37.58222440094207
 30
0.0
 11
137.4555949952852
 21
-48.4992794579035
 31
0.0
  0
LINE
  5
1FA
  8
PATTERN_FILL
  6
CONTINUOUS
 62
     7
 10
100.001184758851
 20
-13.54486922146913
 30
0.0
 11
111.1520351327447
 21
-24.69571959536285
 31
0.0
  0
LINE
  5
1FB
  8
PATTERN_FILL
  6
CONTINUOUS
 62
     7
 10
126.5760667431845
 20
-40.11975120580269
 30
0.0
 11
134.9555949952852
 21
-48.4992794579035
 31
0.0
  0
LINE
  5
1FC
  8
PATTERN_FILL
  6
CONTINUOUS
 62
     7
 10
99.94859008844423
 20
-15.99227455106239
 30
0.0
 11
111.1156021001284
 21
-27.15928656274662
 31
0.0
  0
LINE
  5
1FD
  8
PATTERN_FILL
  6
CONTINUOUS
 62
     7
 10
126.6135935480451
 20
-42.6572780106633
 30
0.0
 11
132.4555949952852
 21
-48.4992794579035
 31
0.0
  0
LINE
  5
1FE
  8
PATTERN_FILL
  6
CONTINUOUS
 62
     7
 10
99.8959954180375
 20
-18.43967988065566
 30
0.0
 11
111.0791690675122
 21
-29.62285353013039
 31
0.0
  0
LINE
  5
1FF
  8
PATTERN_FILL
  6
CONTINUOUS
 62
     7
 10
126.6511203529057
 20
-45.19480481552392
 30
0.0
 11
129.9555949952852
 21
-48.4992794579035
 31
0.0
  0
LINE
  5
200
  8
PATTERN_FILL
  6
CONTINUOUS
 62
     7
 10
99.84340074763077
 20
-20.88708521024893
 30
0.0
 11
111.0427360348959
 21
-32.08642049751414
 31
0.0
  0
LINE
  5
201
  8
PATTERN_FILL
  6
CONTINUOUS
 62
     7
 10
126.6886471577662
 20
-47.73233162038454
 30
0.0
 11
127.4555949952852
 21
-48.4992794579035
 31
0.0
  0
LINE
  5
202
  8
PATTERN_FILL
  6
CONTINUOUS
 62
     7
 10
99.79080607722403
 20
-23.33449053984219
 30
0.0
 11
111.0063030022798
 21
-34.54998746489792
 31
0.0
  0
LINE
  5
203
  8
PATTERN_FILL
  6
CONTINUOUS
 62
     7
 10
99.7382114068173
 20
-25.78189586943554
 30
0.0
 11
110.9698699696635
 21
-37.01355443228172
 31
0.0
  0
LINE
  5
204
  8
PATTERN_FILL
  6
CONTINUOUS
 62
     7
 10
99.68561673641057
 20
-28.22930119902885
 30
0.0
 11
110.9334369370472
 21
-39.47712139966552
 31
0.0
  0
LINE
  5
205
  8
PATTERN_FILL
  6
CONTINUOUS
 62
     7
 10
99.63302206600383
 20
-30.67670652862213
 30
0.0
 11
110.897003904431
 21
-41.94068836704926
 31
0.0
  0
LINE
  5
206
  8
PATTERN_FILL
  6
CONTINUOUS
 62
     7
 10
99.5804273955971
 20
-33.1241118582154
 30
0.0
 11
110.8605708718147
 21
-44.40425533443303
 31
0.0
  0
LINE
  5
207
  8
PATTERN_FILL
  6
CONTINUOUS
 62
     7
 10
99.52783272519036
 20
-35.57151718780867
 30
0.0
 11
110.8241378391986
 21
-46.8678223018168
 31
0.0
  0
LINE
  5
208
  8
PATTERN_FILL
  6
CONTINUOUS
 62
     7
 10
99.47523805478363
 20
-38.01892251740193
 30
0.0
 11
109.9555949952852
 21
-48.4992794579035
 31
0.0
  0
LINE
  5
209
  8
PATTERN_FILL
  6
CONTINUOUS
 62
     7
 10
99.4226433843769
 20
-40.4663278469952
 30
0.0
 11
107.4555949952852
 21
-48.4992794579035
 31
0.0
  0
LINE
  5
20A
  8
PATTERN_FILL
  6
CONTINUOUS
 62
     7
 10
99.37004871397016
 20
-42.91373317658847
 30
0.0
 11
104.9555949952852
 21
-48.4992794579035
 31
0.0
  0
LINE
  5
20B
  8
PATTERN_FILL
  6
CONTINUOUS
 62
     7
 10
99.31745404356343
 20
-45.36113850618173
 30
0.0
 11
102.4555949952852
 21
-48.4992794579035
 31
0.0
  0
LINE
  5
20C
  8
PATTERN_FILL
  6
CONTINUOUS
 62
     7
 10
99.2648593731567
 20
-47.808543835775
 30
0.0
 11
99.9555949952852
 21
-48.4992794579035
 31
0.0
  0
LINE
  5
20D
  8
PATTERN_FILL
  6
CONTINUOUS
 62
     7
 10
100.4555949952852
 20
-48.4992794579035
 30
0.0
 11
110.9552878030615
 21
-37.99958665012716
 31
0.0
  0
LINE
  5
20E
  8
PATTERN_FILL
  6
CONTINUOUS
 62
     7
 10
126.3175241939744
 20
-22.63735025921432
 30
0.0
 11
137.4548711315538
 21
-11.50000332163484
 31
0.0
  0
LINE
  5
20F
  8
PATTERN_FILL
  6
CONTINUOUS
 62
     7
 10
-65.30076679966578
 20
94.00947608750027
 30
0.0
 11
-61.81403101439946
 21
90.52274030223404
 31
0.0
  0
LINE
  5
210
  8
PATTERN_FILL
  6
CONTINUOUS
 62
     7
 10
-68.10723124155868
 20
94.31594052939315
 30
0.0
 11
-61.43820247941244
 21
87.64691176724693
 31
0.0
  0
LINE
  5
211
  8
PATTERN_FILL
  6
CONTINUOUS
 62
     7
 10
-70.86796062847657
 20
94.57666991631109
 30
0.0
 11
-61.14778522539928
 21
84.85649451323377
 31
0.0
  0
LINE
  5
212
  8
PATTERN_FILL
  6
CONTINUOUS
 62
     7
 10
-73.58529506013235
 20
94.79400434796688
 30
0.0
 11
-60.93498767239521
 21
82.1436969602297
 31
0.0
  0
LINE
  5
213
  8
PATTERN_FILL
  6
CONTINUOUS
 62
     7
 10
-76.26135695012863
 20
94.97006623796318
 30
0.0
 11
-63.29129071216551
 21
82.0
 31
0.0
  0
LINE
  5
214
  8
PATTERN_FILL
  6
CONTINUOUS
 62
     7
 10
-78.89807835786746
 20
95.10678764570204
 30
0.0
 11
-65.7912907121655
 21
82.0
 31
0.0
  0
LINE
  5
215
  8
PATTERN_FILL
  6
CONTINUOUS
 62
     7
 10
-81.49722404072259
 20
95.20593332855714
 30
0.0
 11
-68.2912907121655
 21
82.0
 31
0.0
  0
LINE
  5
216
  8
PATTERN_FILL
  6
CONTINUOUS
 62
     7
 10
-84.06041101920346
 20
95.26912030703795
 30
0.0
 11
-70.7912907121655
 21
82.0
 31
0.0
  0
LINE
  5
217
  8
PATTERN_FILL
  6
CONTINUOUS
 62
     7
 10
-86.58912527978953
 20
95.29783456762411
 30
0.0
 11
-73.2912907121655
 21
82.0
 31
0.0
  0
LINE
  5
218
  8
PATTERN_FILL
  6
CONTINUOUS
 62
     7
 10
-89.08473611189743
 20
95.29344539973198
 30
0.0
 11
-75.7912907121655
 21
82.0
 31
0.0
  0
LINE
  5
219
  8
PATTERN_FILL
  6
CONTINUOUS
 62
     7
 10
-61.79129071216551
 20
68.0
 30
0.0
 11
-60.98095113612817
 21
67.18966042396269
 31
0.0
  0
LINE
  5
21A
  8
PATTERN_FILL
  6
CONTINUOUS
 62
     7
 10
-93.98161372860557
 20
95.19032301644003
 30
0.0
 11
-80.7912907121655
 21
82.0
 31
0.0
  0
LINE
  5
21B
  8
PATTERN_FILL
  6
CONTINUOUS
 62
     7
 10
-66.7912907121655
 20
68.0
 30
0.0
 11
-61.40768440982197
 21
62.61639369765652
 31
0.0
  0
LINE
  5
21C
  8
PATTERN_FILL
  6
CONTINUOUS
 62
     7
 10
-96.38513895062772
 20
95.09384823846227
 30
0.0
 11
-83.2912907121655
 21
82.0
 31
0.0
  0
LINE
  5
21D
  8
PATTERN_FILL
  6
CONTINUOUS
 62
     7
 10
-69.2912907121655
 20
68.0
 30
0.0
 11
-61.68569275862058
 21
60.39440204645513
 31
0.0
  0
LINE
  5
21E
  8
PATTERN_FILL
  6
CONTINUOUS
 62
     7
 10
-98.76009511625193
 20
94.96880440408648
 30
0.0
 11
-85.7912907121655
 21
82.0
 31
0.0
  0
LINE
  5
21F
  8
PATTERN_FILL
  6
CONTINUOUS
 62
     7
 10
-71.7912907121655
 20
68.0
 30
0.0
 11
-62.00406724191998
 21
58.21277652975454
 31
0.0
  0
LINE
  5
220
  8
PATTERN_FILL
  6
CONTINUOUS
 62
     7
 10
-101.1074242540376
 20
94.81613354187218
 30
0.0
 11
-88.2912907121655
 21
82.0
 31
0.0
  0
LINE
  5
221
  8
PATTERN_FILL
  6
CONTINUOUS
 62
     7
 10
-74.2912907121655
 20
68.0
 30
0.0
 11
-62.67967616012822
 21
56.38838544796272
 31
0.0
  0
LINE
  5
222
  8
PATTERN_FILL
  6
CONTINUOUS
 62
     7
 10
-103.4280057598072
 20
94.63671504764173
 30
0.0
 11
-90.7912907121655
 21
82.0
 31
0.0
  0
LINE
  5
223
  8
PATTERN_FILL
  6
CONTINUOUS
 62
     7
 10
-76.7912907121655
 20
68.0
 30
0.0
 11
-64.83654558154512
 21
56.04525486937959
 31
0.0
  0
LINE
  5
224
  8
PATTERN_FILL
  6
CONTINUOUS
 62
     7
 10
-105.7226619774458
 20
94.43137126528035
 30
0.0
 11
-93.2912907121655
 21
82.0
 31
0.0
  0
LINE
  5
225
  8
PATTERN_FILL
  6
CONTINUOUS
 62
     7
 10
-79.2912907121655
 20
68.0
 30
0.0
 11
-67.08241025082657
 21
55.79111953866106
 31
0.0
  0
LINE
  5
226
  8
PATTERN_FILL
  6
CONTINUOUS
 62
     7
 10
-107.9921631493928
 20
94.20087243722736
 30
0.0
 11
-95.7912907121655
 21
82.0
 31
0.0
  0
LINE
  5
227
  8
PATTERN_FILL
  6
CONTINUOUS
 62
     7
 10
-81.7912907121655
 20
68.0
 30
0.0
 11
-69.35273056781534
 21
55.56143985564987
 31
0.0
  0
LINE
  5
228
  8
PATTERN_FILL
  6
CONTINUOUS
 62
     7
 10
-110.2372318217908
 20
93.94594110962532
 30
0.0
 11
-98.2912907121655
 21
82.0
 31
0.0
  0
LINE
  5
229
  8
PATTERN_FILL
  6
CONTINUOUS
 62
     7
 10
-84.2912907121655
 20
68.0
 30
0.0
 11
-71.6482305889665
 21
55.35693987680099
 31
0.0
  0
LINE
  5
22A
  8
PATTERN_FILL
  6
CONTINUOUS
 62
     7
 10
-112.3717856689254
 20
93.58049495675999
 30
0.0
 11
-100.7912907121655
 21
82.0
 31
0.0
  0
LINE
  5
22B
  8
PATTERN_FILL
  6
CONTINUOUS
 62
     7
 10
-86.7912907121655
 20
68.0
 30
0.0
 11
-73.96968220461883
 21
55.17839149245341
 31
0.0
  0
LINE
  5
22C
  8
PATTERN_FILL
  6
CONTINUOUS
 62
     7
 10
-113.0070749134088
 20
91.71578420124331
 30
0.0
 11
-103.2912907121655
 21
82.0
 31
0.0
  0
LINE
  5
22D
  8
PATTERN_FILL
  6
CONTINUOUS
 62
     7
 10
-89.2912907121655
 20
68.0
 30
0.0
 11
-76.3179095609463
 21
55.02661884878077
 31
0.0
  0
LINE
  5
22E
  8
PATTERN_FILL
  6
CONTINUOUS
 62
     7
 10
-113.6007878022283
 20
87.30949709006282
 30
0.0
 11
-108.2912907121655
 21
82.0
 31
0.0
  0
LINE
  5
22F
  8
PATTERN_FILL
  6
CONTINUOUS
 62
     7
 10
-94.2912907121655
 20
68.0
 30
0.0
 11
-81.09827981211993
 21
54.80698909995442
 31
0.0
  0
LINE
  5
230
  8
PATTERN_FILL
  6
CONTINUOUS
 62
     7
 10
-113.8350053350476
 20
85.04371462288216
 30
0.0
 11
-110.7912907121655
 21
82.0
 31
0.0
  0
LINE
  5
231
  8
PATTERN_FILL
  6
CONTINUOUS
 62
     7
 10
-96.7912907121655
 20
68.0
 30
0.0
 11
-83.53238027591806
 21
54.74108956375255
 31
0.0
  0
LINE
  5
232
  8
PATTERN_FILL
  6
CONTINUOUS
 62
     7
 10
-114.0245723327099
 20
82.73328162054449
 30
0.0
 11
-113.2912907121655
 21
82.0
 31
0.0
  0
LINE
  5
233
  8
PATTERN_FILL
  6
CONTINUOUS
 62
     7
 10
-99.2912907121655
 20
68.0
 30
0.0
 11
-85.99718515159157
 21
54.70589443942615
 31
0.0
  0
LINE
  5
234
  8
PATTERN_FILL
  6
CONTINUOUS
 62
     7
 10
-101.7912907121655
 20
68.0
 30
0.0
 11
-88.49386872958814
 21
54.7025780174227
 31
0.0
  0
LINE
  5
235
  8
PATTERN_FILL
  6
CONTINUOUS
 62
     7
 10
-104.2912907121655
 20
68.0
 30
0.0
 11
-91.02369923776484
 21
54.73240852559934
 31
0.0
  0
LINE
  5
236
  8
PATTERN_FILL
  6
CONTINUOUS
 62
     7
 10
-106.7912907121655
 20
68.0
 30
0.0
 11
-93.58804961292185
 21
54.79675890075634
 31
0.0
  0
LINE
  5
237
  8
PATTERN_FILL
  6
CONTINUOUS
 62
     7
 10
-109.2912907121655
 20
68.0
 30
0.0
 11
-96.18840992911794
 21
54.89711921695243
 31
0.0
  0
LINE
  5
238
  8
PATTERN_FILL
  6
CONTINUOUS
 62
     7
 10
-111.7912907121655
 20
68.0
 30
0.0
 11
-98.82640180595877
 21
55.03511109379332
 31
0.0
  0
LINE
  5
239
  8
PATTERN_FILL
  6
CONTINUOUS
 62
     7
 10
-114.0591512844662
 20
67.76786057230075
 30
0.0
 11
-101.5037951974377
 21
55.21250448527226
 31
0.0
  0
LINE
  5
23A
  8
PATTERN_FILL
  6
CONTINUOUS
 62
     7
 10
-113.8439003290889
 20
65.05260961692343
 30
0.0
 11
-104.2225280615041
 21
55.43123734933872
 31
0.0
  0
LINE
  5
23B
  8
PATTERN_FILL
  6
CONTINUOUS
 62
     7
 10
-113.5507938978733
 20
62.25950318570784
 30
0.0
 11
-106.9847295398895
 21
55.69343882772407
 31
0.0
  0
LINE
  5
23C
  8
PATTERN_FILL
  6
CONTINUOUS
 62
     7
 10
-113.1719936943157
 20
59.38070298215018
 30
0.0
 11
-109.7927474473016
 21
56.00145673513612
 31
0.0
  0
LINE
  5
23D
  8
PATTERN_FILL
  6
CONTINUOUS
 62
     7
 10
-62.08796658938434
 20
57.68453881051943
 30
0.0
 11
-63.57238001782514
 21
56.20012538207862
 31
0.0
  0
LINE
  5
23E
  8
PATTERN_FILL
  6
CONTINUOUS
 62
     7
 10
-61.65578118751318
 20
60.61672421239064
 30
0.0
 11
-66.40787649688446
 21
55.86462890301934
 31
0.0
  0
LINE
  5
23F
  8
PATTERN_FILL
  6
CONTINUOUS
 62
     7
 10
-61.31449759550435
 20
63.45800780439939
 30
0.0
 11
-69.19609639280395
 21
55.57640900709987
 31
0.0
  0
LINE
  5
240
  8
PATTERN_FILL
  6
CONTINUOUS
 62
     7
 10
-61.05539805287981
 20
66.21710734702401
 30
0.0
 11
-71.93952759535341
 21
55.33297780455032
 31
0.0
  0
LINE
  5
241
  8
PATTERN_FILL
  6
CONTINUOUS
 62
     7
 10
-61.77250539990382
 20
68.0
 30
0.0
 11
-74.64042119436772
 21
55.13208420553602
 31
0.0
  0
LINE
  5
242
  8
PATTERN_FILL
  6
CONTINUOUS
 62
     7
 10
-64.27250539990382
 20
68.0
 30
0.0
 11
-77.30082189034067
 21
54.97168350956306
 31
0.0
  0
LINE
  5
243
  8
PATTERN_FILL
  6
CONTINUOUS
 62
     7
 10
-66.77250539990382
 20
68.0
 30
0.0
 11
-79.92259353929296
 21
54.84991186061083
 31
0.0
  0
LINE
  5
244
  8
PATTERN_FILL
  6
CONTINUOUS
 62
     7
 10
-69.27250539990382
 20
68.0
 30
0.0
 11
-82.5074407521646
 21
54.76506464773914
 31
0.0
  0
LINE
  5
245
  8
PATTERN_FILL
  6
CONTINUOUS
 62
     7
 10
-71.77250539990382
 20
68.0
 30
0.0
 11
-85.0569272699355
 21
54.71557812996829
 31
0.0
  0
LINE
  5
246
  8
PATTERN_FILL
  6
CONTINUOUS
 62
     7
 10
-74.27250539990382
 20
68.0
 30
0.0
 11
-87.57249168473129
 21
54.7000137151725
 31
0.0
  0
LINE
  5
247
  8
PATTERN_FILL
  6
CONTINUOUS
 62
     7
 10
-61.05048112832537
 20
83.72202427157836
 30
0.0
 11
-62.77250539990382
 21
82.0
 31
0.0
  0
LINE
  5
248
  8
PATTERN_FILL
  6
CONTINUOUS
 62
     7
 10
-76.77250539990382
 20
68.0
 30
0.0
 11
-90.05546096156979
 21
54.71704443833394
 31
0.0
  0
LINE
  5
249
  8
PATTERN_FILL
  6
CONTINUOUS
 62
     7
 10
-61.25933601330041
 20
86.01316938660341
 30
0.0
 11
-65.27250539990382
 21
82.0
 31
0.0
  0
LINE
  5
24A
  8
PATTERN_FILL
  6
CONTINUOUS
 62
     7
 10
-79.27250539990382
 20
68.0
 30
0.0
 11
-92.50706212603632
 21
54.7654432738675
 31
0.0
  0
LINE
  5
24B
  8
PATTERN_FILL
  6
CONTINUOUS
 62
     7
 10
-61.5118639568135
 20
88.26064144309024
 30
0.0
 11
-67.77250539990382
 21
82.0
 31
0.0
  0
LINE
  5
24C
  8
PATTERN_FILL
  6
CONTINUOUS
 62
     7
 10
-81.77250539990382
 20
68.0
 30
0.0
 11
-94.92843241349681
 21
54.84407298640693
 31
0.0
  0
LINE
  5
24D
  8
PATTERN_FILL
  6
CONTINUOUS
 62
     7
 10
-61.80594100940652
 20
90.46656439049727
 30
0.0
 11
-70.27250539990382
 21
82.0
 31
0.0
  0
LINE
  5
24E
  8
PATTERN_FILL
  6
CONTINUOUS
 62
     7
 10
-84.27250539990371
 20
68.0
 30
0.0
 11
-97.3206281206908
 21
54.95187727921299
 31
0.0
  0
LINE
  5
24F
  8
PATTERN_FILL
  6
CONTINUOUS
 62
     7
 10
-62.1396591020582
 20
92.63284629784556
 30
0.0
 11
-72.77250539990382
 21
82.0
 31
0.0
  0
LINE
  5
250
  8
PATTERN_FILL
  6
CONTINUOUS
 62
     7
 10
-86.77250539990382
 20
68.0
 30
0.0
 11
-99.68463235716263
 21
55.08787304274111
 31
0.0
  0
LINE
  5
251
  8
PATTERN_FILL
  6
CONTINUOUS
 62
     7
 10
-63.48380222274
 20
93.78870317716377
 30
0.0
 11
-75.27250539990382
 21
82.0
 31
0.0
  0
LINE
  5
252
  8
PATTERN_FILL
  6
CONTINUOUS
 62
     7
 10
-89.27250539990382
 20
68.0
 30
0.0
 11
-102.0213618593968
 21
55.25114354050692
 31
0.0
  0
LINE
  5
253
  8
PATTERN_FILL
  6
CONTINUOUS
 62
     7
 10
-65.71514451493624
 20
94.05736088496758
 30
0.0
 11
-77.77250539990382
 21
82.0
 31
0.0
  0
LINE
  5
254
  8
PATTERN_FILL
  6
CONTINUOUS
 62
     7
 10
-91.77250539990382
 20
68.0
 30
0.0
 11
-104.3316730027327
 21
55.44083239717102
 31
0.0
  0
LINE
  5
255
  8
PATTERN_FILL
  6
CONTINUOUS
 62
     7
 10
-67.9705242446015
 20
94.30198115530229
 30
0.0
 11
-80.27250539990382
 21
82.0
 31
0.0
  0
LINE
  5
256
  8
PATTERN_FILL
  6
CONTINUOUS
 62
     7
 10
-94.27250539990382
 20
68.0
 30
0.0
 11
-106.6163671236892
 21
55.65613827621453
 31
0.0
  0
LINE
  5
257
  8
PATTERN_FILL
  6
CONTINUOUS
 62
     7
 10
-70.2506383630506
 20
94.5218670368532
 30
0.0
 11
-82.77250539990382
 21
82.0
 31
0.0
  0
LINE
  5
258
  8
PATTERN_FILL
  6
CONTINUOUS
 62
     7
 10
-96.77250539990382
 20
68.0
 30
0.0
 11
-108.8761952470775
 21
55.89631015282635
 31
0.0
  0
LINE
  5
259
  8
PATTERN_FILL
  6
CONTINUOUS
 62
     7
 10
-72.55622920553776
 20
94.71627619436606
 30
0.0
 11
-85.27250539990382
 21
82.0
 31
0.0
  0
LINE
  5
25A
  8
PATTERN_FILL
  6
CONTINUOUS
 62
     7
 10
-99.27250539990382
 20
68.0
 30
0.0
 11
-111.1118622973624
 21
56.16064310254131
 31
0.0
  0
LINE
  5
25B
  8
PATTERN_FILL
  6
CONTINUOUS
 62
     7
 10
-74.88808861630537
 20
94.88441678359843
 30
0.0
 11
-87.77250539990382
 21
82.0
 31
0.0
  0
LINE
  5
25C
  8
PATTERN_FILL
  6
CONTINUOUS
 62
     7
 10
-101.7725053999038
 20
68.0
 30
0.0
 11
-112.7898212105797
 21
56.98268418932406
 31
0.0
  0
LINE
  5
25D
  8
PATTERN_FILL
  6
CONTINUOUS
 62
     7
 10
-77.24706257630885
 20
95.02544282359497
 30
0.0
 11
-90.27250539990382
 21
82.0
 31
0.0
  0
LINE
  5
25E
  8
PATTERN_FILL
  6
CONTINUOUS
 62
     7
 10
-104.2725053999038
 20
68.0
 30
0.0
 11
-113.1362216719353
 21
59.13628372796842
 31
0.0
  0
LINE
  5
25F
  8
PATTERN_FILL
  6
CONTINUOUS
 62
     7
 10
-79.6340564106672
 20
95.1384489892366
 30
0.0
 11
-92.77250539990382
 21
82.0
 31
0.0
  0
LINE
  5
260
  8
PATTERN_FILL
  6
CONTINUOUS
 62
     7
 10
-106.7725053999038
 20
68.0
 30
0.0
 11
-113.4376494089543
 21
61.33485599094956
 31
0.0
  0
LINE
  5
261
  8
PATTERN_FILL
  6
CONTINUOUS
 62
     7
 10
-82.05004066727827
 20
95.22246473262555
 30
0.0
 11
-95.27250539990382
 21
82.0
 31
0.0
  0
LINE
  5
262
  8
PATTERN_FILL
  6
CONTINUOUS
 62
     7
 10
-109.2725053999038
 20
68.0
 30
0.0
 11
-113.6978904574038
 21
63.57461494250003
 31
0.0
  0
LINE
  5
263
  8
PATTERN_FILL
  6
CONTINUOUS
 62
     7
 10
-84.49605777561897
 20
95.27644762428483
 30
0.0
 11
-97.77250539990382
 21
82.0
 31
0.0
  0
LINE
  5
264
  8
PATTERN_FILL
  6
CONTINUOUS
 62
     7
 10
-111.7725053999038
 20
68.0
 30
0.0
 11
-113.9148625336846
 21
65.85764286621918
 31
0.0
  0
LINE
  5
265
  8
PATTERN_FILL
  6
CONTINUOUS
 62
     7
 10
-86.97322961636758
 20
95.29927578353616
 30
0.0
 11
-100.2725053999038
 21
82.0
 31
0.0
  0
LINE
  5
266
  8
PATTERN_FILL
  6
CONTINUOUS
 62
     7
 10
-89.48276615919121
 20
95.28973924071252
 30
0.0
 11
-102.7725053999038
 21
82.0
 31
0.0
  0
LINE
  5
267
  8
PATTERN_FILL
  6
CONTINUOUS
 62
     7
 10
-92.02597535927737
 20
95.2465300406264
 30
0.0
 11
-105.2725053999038
 21
82.0
 31
0.0
  0
LINE
  5
268
  8
PATTERN_FILL
  6
CONTINUOUS
 62
     7
 10
-94.60427454479361
 20
95.16823085511015
 30
0.0
 11
-107.7725053999038
 21
82.0
 31
0.0
  0
LINE
  5
269
  8
PATTERN_FILL
  6
CONTINUOUS
 62
     7
 10
-97.21920357992349
 20
95.05330181998025
 30
0.0
 11
-110.2725053999038
 21
82.0
 31
0.0
  0
LINE
  5
26A
  8
PATTERN_FILL
  6
CONTINUOUS
 62
     7
 10
-99.87244015478336
 20
94.90006524512046
 30
0.0
 11
-112.7725053999038
 21
82.0
 31
0.0
  0
LINE
  5
26B
  8
PATTERN_FILL
  6
CONTINUOUS
 62
     7
 10
-102.5658176388744
 20
94.70668776102937
 30
0.0
 11
-113.9835053725922
 21
83.28900002731166
 31
0.0
  0
LINE
  5
26C
  8
PATTERN_FILL
  6
CONTINUOUS
 62
     7
 10
-105.3013460449708
 20
94.47115935493292
 30
0.0
 11
-113.7385446002917
 21
86.03396079961209
 31
0.0
  0
LINE
  5
26D
  8
PATTERN_FILL
  6
CONTINUOUS
 62
     7
 10
-108.081236794024
 20
94.19126860587977
 30
0.0
 11
-113.4128194308025
 21
88.85968596910126
 31
0.0
  0
LINE
  5
26E
  8
PATTERN_FILL
  6
CONTINUOUS
 62
     7
 10
-110.9079321608
 20
93.86457323910375
 30
0.0
 11
-112.9979050932161
 21
91.77460030668766
 31
0.0
  0
LINE
  5
26F
  8
PATTERN_FILL
  6
CONTINUOUS
 62
     7
 10
-113.3241456203357
 20
89.53285490817021
 30
0.0
 11
-105.7912907121655
 21
82.0
 31
0.0
  0
LINE
  5
270
  8
PATTERN_FILL
  6
CONTINUOUS
 62
     7
 10
-91.7912907121655
 20
68.0
 30
0.0
 11
-78.6937940298327
 21
54.90250331766725
 31
0.0
  0
LINE
  5
271
  8
PATTERN_FILL
  6
CONTINUOUS
 62
     7
 10
-91.5485084766799
 20
95.25721776451431
 30
0.0
 11
-78.29129071216562
 21
82.0
 31
0.0
  0
LINE
  5
272
  8
PATTERN_FILL
  6
CONTINUOUS
 62
     7
 10
-64.2912907121655
 20
68.0
 30
0.0
 11
-61.17203128978781
 21
64.8807405776223
 31
0.0
  0
CIRCLE
  5
273
  8
PATTERN_FILL
  6
CONTINUOUS
 62
     7
 10
56.25
 20
-13.58848446586452
 30
0.0
 40
16.0
  0
CIRCLE
  5
274
  8
PATTERN_FILL
  6
CONTINUOUS
 62
     7
 10
56.25
 20
-13.58848446586452
 30
0.0
 40
14.5
  0
LINE
  5
275
  8
SPEC
  6
CONTINUOUS
 62
     7
 10
-165.0000000082499
 20
243.5318150123531
 30
0.0
 11
130.0000000065
 21
243.5318150123531
 31
0.0
  0
LINE
  5
276
  8
SPEC
  6
CONTINUOUS
 62
     7
 10
-165.0000000082499
 20
236.0318150119782
 30
0.0
 11
130.0000000065
 21
236.0318150119782
 31
0.0
  0
LINE
  5
277
  8
SPEC
  6
CONTINUOUS
 62
     7
 10
-165.0000000082499
 20
206.0318150104782
 30
0.0
 11
130.0000000065
 21
206.0318150104782
 31
0.0
  0
LINE
  5
278
  8
SPEC
  6
CONTINUOUS
 62
     7
 10
-165.0000000082499
 20
213.5318150108532
 30
0.0
 11
130.0000000065
 21
213.5318150108532
 31
0.0
  0
LINE
  5
279
  8
SPEC
  6
CONTINUOUS
 62
     7
 10
-165.0000000082499
 20
221.0318150112282
 30
0.0
 11
130.0000000065
 21
221.0318150112282
 31
0.0
  0
LINE
  5
27A
  8
SPEC
  6
CONTINUOUS
 62
     7
 10
-165.0000000082499
 20
198.5318150101031
 30
0.0
 11
130.0000000065
 21
198.5318150101031
 31
0.0
  0
LINE
  5
27B
  8
SPEC
  6
CONTINUOUS
 62
     7
 10
-165.0000000082499
 20
183.5318150093532
 30
0.0
 11
130.0000000065
 21
183.5318150093532
 31
0.0
  0
LINE
  5
27C
  8
SPEC
  6
CONTINUOUS
 62
     7
 10
-165.0000000082499
 20
191.0318150097281
 30
0.0
 11
130.0000000065
 21
191.0318150097281
 31
0.0
  0
LINE
  5
27D
  8
SPEC
  6
CONTINUOUS
 62
     7
 10
-165.0000000082499
 20
176.0318150089782
 30
0.0
 11
130.0000000065
 21
176.0318150089782
 31
0.0
  0
LINE
  5
27E
  8
SPEC
  6
CONTINUOUS
 62
     7
 10
-165.0000000082499
 20
168.5318150086032
 30
0.0
 11
130.0000000065
 21
168.5318150086032
 31
0.0
  0
LINE
  5
27F
  8
SPEC
  6
CONTINUOUS
 62
     7
 10
-165.0000000082499
 20
228.5318150116032
 30
0.0
 11
130.0000000065
 21
228.5318150116032
 31
0.0
  0
TEXT
  5
280
  8
SPEC
 62
     7
 10
-98.52371170177987
 20
237.9529506887181
 30
0.0
 40
3.80062250019003
  1
コンデンサー型
 41
0.7
 11
-98.52371170177987
 21
241.7535731889082
 31
0.0
 73
     3
  0
LINE
  5
281
  8
SPEC
  6
CONTINUOUS
 62
     7
 10
-165.0000000082499
 20
153.5318150078532
 30
0.0
 11
130.0000000065
 21
153.5318150078532
 31
0.0
  0
LINE
  5
282
  8
SPEC
  6
CONTINUOUS
 62
     7
 10
-165.0000000082499
 20
243.5318150123531
 30
0.0
 11
-165.0000000082499
 21
138.5238150071029
 31
0.0
  0
TEXT
  5
283
  8
SPEC
 62
     7
 10
-162.5000000081249
 20
246.3183550124925
 30
0.0
 40
4.886523437744327
  1
仕様
 41
0.7
 11
-162.5000000081249
 21
251.2048784502369
 31
0.0
 73
     3
  0
LINE
  5
284
  8
SPEC
  6
CONTINUOUS
 62
     7
 10
-100.0000000049999
 20
243.5318150123531
 30
0.0
 11
-100.0000000049999
 21
138.5238150071029
 31
0.0
  0
LINE
  5
285
  8
SPEC
  6
CONTINUOUS
 62
     7
 10
130.0000000065
 20
243.5318150123531
 30
0.0
 11
130.0000000065
 21
138.5238150071029
 31
0.0
  0
TEXT
  5
286
  8
SPEC
 62
     7
 10
-162.9383651144391
 20
208.0873221823784
 30
0.0
 40
3.80062250019003
  1
最大音圧レベル
 41
0.7
 11
-162.9383651144391
 21
211.8879446825685
 31
0.0
 73
     3
  0
TEXT
  5
287
  8
SPEC
 62
     7
 10
-163.0907275483827
 20
237.9354755913887
 30
0.0
 40
3.80062250019003
  1
形式
 41
0.7
 11
-163.0907275483827
 21
241.7360980915788
 31
0.0
 73
     3
  0
TEXT
  5
288
  8
SPEC
 62
     7
 10
-163.5002221481536
 20
163.127658208333
 30
0.0
 40
3.80062250019003
  1
コネクター
 41
0.7
 11
-163.5002221481536
 21
166.928280708523
 31
0.0
 73
     3
  0
TEXT
  5
289
  8
SPEC
 62
     7
 10
-162.9819709300593
 20
193.1091250894385
 30
0.0
 40
3.80062250019003
  1
パッド
 41
0.7
 11
-162.9819709300593
 21
196.9097475896286
 31
0.0
 73
     3
  0
TEXT
  5
28A
  8
SPEC
 62
     7
 10
-163.6746454106341
 20
185.4096291313573
 30
0.0
 40
3.80062250019003
  1
ローカットフィルター
 41
0.7
 11
-163.6746454106341
 21
189.2102516315474
 31
0.0
 73
     3
  0
TEXT
  5
28B
  8
SPEC
 62
     7
 10
-163.1563941925398
 20
215.5873221827534
 30
0.0
 40
3.80062250019003
  1
開回路感度
 41
0.7
 11
-163.1563941925398
 21
219.3879446829435
 31
0.0
 73
     3
  0
TEXT
  5
28C
  8
SPEC
 62
     7
 10
-163.0037738378693
 20
200.4783076429531
 30
0.0
 40
3.80062250019003
  1
等価雑音レベル
 41
0.7
 11
-163.0037738378693
 21
204.2789301431431
 31
0.0
 73
     3
  0
TEXT
  5
28D
  8
SPEC
 62
     7
 10
-163.1016547943604
 20
230.4026938530807
 30
0.0
 40
3.80062250019003
  1
指向特性
 41
0.7
 11
-163.1016547943604
 21
234.2033163532707
 31
0.0
 73
     3
  0
TEXT
  5
28E
  8
SPEC
 62
     7
 10
-162.9601680222492
 20
223.0437163675083
 30
0.0
 40
3.80062250019003
  1
周波数特性
 41
0.7
 11
-162.9601680222492
 21
226.8443388676984
 31
0.0
 73
     3
  0
TEXT
  5
28F
  8
SPEC
 62
     7
 10
-163.20000000816
 20
178.0655192730684
 30
0.0
 40
3.80062250019003
  1
インピーダンス
 41
0.7
 11
-163.20000000816
 21
181.8661417732584
 31
0.0
 73
     3
  0
TEXT
  5
290
  8
SPEC
 62
     7
 10
-163.0691825612996
 20
170.5873221805035
 30
0.0
 40
3.80062250019003
  1
電源
 41
0.7
 11
-163.0691825612996
 21
174.3879446806936
 31
0.0
 73
     3
  0
TEXT
  5
291
  8
SPEC
 62
     7
 10
-163.0944232706265
 20
148.0581396262309
 30
0.0
 40
3.80062250019003
  1
質量
 41
0.7
 11
-163.0944232706265
 21
151.858762126421
 31
0.0
 73
     3
  0
TEXT
  5
292
  8
SPEC
 62
     7
 10
-98.35082765875018
 20
230.5345943655104
 30
0.0
 40
3.80062250019003
  1
カーディオイド
 41
0.7
 11
-98.35082765875018
 21
234.3352168657005
 31
0.0
 73
     3
  0
TEXT
  5
293
  8
SPEC
 62
     7
 10
-98.00638400328098
 20
222.9438644364245
 30
0.0
 40
3.80062250019003
  1
20Hz～20kHz
 41
0.7
 11
-98.00638400328098
 21
226.7444869366146
 31
0.0
 73
     3
  0
TEXT
  5
294
  8
SPEC
 62
     7
 10
-97.85633562343088
 20
215.4178435685679
 30
0.0
 40
3.80062250019003
  1
-34dBV re 1V/Pa
 41
0.7
 11
-97.85633562343088
 21
219.2184660687579
 31
0.0
 73
     3
  0
TEXT
  5
295
  8
SPEC
 62
     7
 10
-98.22859362081
 20
207.6774390582564
 30
0.0
 40
3.80062250019003
  1
136B SPL(パッドOFF、THD 0.5%%%)
 41
0.7
 11
-98.22859362081
 21
211.4780615584464
 31
0.0
 73
     3
  0
TEXT
  5
296
  8
SPEC
 62
     7
 10
-98.22854860922172
 20
200.4730643683899
 30
0.0
 40
3.80062250019003
  1
13dB SPL(Aウェイト)
 41
0.7
 11
-98.22854860922172
 21
204.2736868685799
 31
0.0
 73
     3
  0
TEXT
  5
297
  8
SPEC
 62
     7
 10
-97.90047569140414
 20
192.947366304777
 30
0.0
 40
3.80062250019003
  1
0/20dB
 41
0.7
 11
-97.90047569140414
 21
196.747988804967
 31
0.0
 73
     3
  0
TEXT
  5
298
  8
SPEC
 62
     7
 10
-97.97553365421771
 20
185.4323910462327
 30
0.0
 40
3.80062250019003
  1
Flat/160Hz(6dB/oct)
 41
0.7
 11
-97.97553365421771
 21
189.2330135464227
 31
0.0
 73
     3
  0
TEXT
  5
299
  8
SPEC
 62
     7
 10
-97.91162765493735
 20
178.1524029090006
 30
0.0
 40
3.80062250019003
  1
200Ω以下
 41
0.7
 11
-97.91162765493735
 21
181.9530254091906
 31
0.0
 73
     3
  0
TEXT
  5
29A
  8
SPEC
 62
     7
 10
-98.56261282150187
 20
170.5194205032681
 30
0.0
 40
3.80062250019003
  1
ファンタム DC12～52V(48V推奨)/2mA以下
 41
0.7
 11
-98.56261282150187
 21
174.3200430034582
 31
0.0
 73
     3
  0
TEXT
  5
29B
  8
SPEC
 62
     7
 10
-97.81731648494743
 20
162.8865611416071
 30
0.0
 40
3.80062250019003
  1
XLR(3P)
 41
0.7
 11
-97.81731648494743
 21
166.6871836417971
 31
0.0
 73
     3
  0
TEXT
  5
29C
  8
SPEC
 62
     7
 10
-97.96650599567911
 20
155.2334720328249
 30
0.0
 40
3.80062250019003
  1
56×160×43mm
 41
0.7
 11
-97.96650599567911
 21
159.034094533015
 31
0.0
 73
     3
  0
TEXT
  5
29D
  8
SPEC
 62
     7
 10
-97.99178997492928
 20
148.0817585072836
 30
0.0
 40
3.80062250019003
  1
280g
 41
0.7
 11
-97.99178997492928
 21
151.8823810074736
 31
0.0
 73
     3
  0
TEXT
  5
29E
  8
SPEC
 62
     7
 10
-98.00941037355685
 20
140.2462401943005
 30
0.0
 40
3.800629340277778
  1
ショックマウント(H85)、ウインドスクリーン、キャリングハードケース
 41
0.7
 11
-98.00941037355685
 21
144.0468695345782
 31
0.0
 73
     3
  0
LINE
  5
29F
  8
SPEC
  6
CONTINUOUS
 62
     7
 10
-165.0000000082499
 20
161.027815008228
 30
0.0
 11
130.0000000065
 21
161.027815008228
 31
0.0
  0
LINE
  5
2A0
  8
SPEC
  6
CONTINUOUS
 62
     7
 10
-165.0000000082499
 20
146.027815007478
 30
0.0
 11
130.0000000065
 21
146.027815007478
 31
0.0
  0
TEXT
  5
2A1
  8
SPEC
 62
     7
 10
-163.0037738378693
 20
140.1036582071818
 30
0.0
 40
3.80062250019003
  1
付属品
 41
0.7
 11
-163.0037738378693
 21
143.9042807073718
 31
0.0
 73
     3
  0
LINE
  5
2A2
  8
SPEC
  6
CONTINUOUS
 62
     7
 10
-165.0000000082499
 20
138.5238150071029
 30
0.0
 11
130.0000000065
 21
138.5238150071029
 31
0.0
  0
TEXT
  5
2A3
  8
SPEC
 62
     7
 10
-163.1345912847298
 20
155.5833100898422
 30
0.0
 40
3.800648343424479
  1
寸法(W×H×D)
 41
0.7
 11
-163.1345912847298
 21
159.3839584332667
 31
0.0
 73
     3
  0
TEXT
  5
2A4
  8
DIMNSIONS
 62
     7
 10
-40.00000000199999
 20
-231.9292050114198
 30
0.0
 40
4.886523437744327
  1
(単位：mm)
 41
0.7
 11
-40.00000000199999
 21
-227.0426815736754
 31
0.0
 73
     3
  0
TEXT
  5
2A5
  8
DIMNSIONS
 62
     7
 10
-40.00020000000001
 20
-231.9303469869499
 30
0.0
 40
4.886547870117188
  1
(単位：mm)
 41
0.7
 11
-40.00020000000001
 21
-227.0437991168327
 31
0.0
 73
     3
  0
LINE
  5
2A6
  8
DIMNSIONS
  6
CONTINUOUS
 62
     7
 10
-115.25
 20
-51.39999999999998
 30
0.0
 11
-115.25
 21
-164.5
 31
0.0
  0
LINE
  5
2A7
  8
DIMNSIONS
  6
CONTINUOUS
 62
     7
 10
-59.75
 20
-51.39999999999998
 30
0.0
 11
-59.75
 21
-164.5
 31
0.0
  0
LINE
  5
2A8
  8
DIMNSIONS
  6
CONTINUOUS
 62
     7
 10
-115.25
 20
-162.5
 30
0.0
 11
-59.75
 21
-162.5
 31
0.0
  0
LINE
  5
2A9
  8
DIMNSIONS
  6
CONTINUOUS
 62
     7
 10
-115.25
 20
-162.5
 30
0.0
 11
-111.250244140625
 21
-161.4282686475588
 31
0.0
  0
LINE
  5
2AA
  8
DIMNSIONS
  6
CONTINUOUS
 62
     7
 10
-115.25
 20
-162.5
 30
0.0
 11
-111.250244140625
 21
-163.5717313524412
 31
0.0
  0
LINE
  5
2AB
  8
DIMNSIONS
  6
CONTINUOUS
 62
     7
 10
-59.75
 20
-162.5
 30
0.0
 11
-63.749755859375
 21
-163.5717313524412
 31
0.0
  0
LINE
  5
2AC
  8
DIMNSIONS
  6
CONTINUOUS
 62
     7
 10
-59.75
 20
-162.5
 30
0.0
 11
-63.749755859375
 21
-161.4282686475588
 31
0.0
  0
TEXT
  5
2AD
  8
DIMNSIONS
 62
     7
 10
-94.55555555555559
 20
-160.5122222222222
 30
0.0
 40
5.429470486111112
  1
55.5
 41
0.7
 11
-94.55555555555559
 21
-155.0827517361111
 31
0.0
 73
     3
  0
LINE
  5
2AE
  8
DIMNSIONS
  6
CONTINUOUS
 62
     7
 10
-89.65
 20
53.74999999999997
 30
0.0
 11
-133.25
 21
53.74999999999997
 31
0.0
  0
LINE
  5
2AF
  8
DIMNSIONS
  6
CONTINUOUS
 62
     7
 10
-89.6822132252992
 20
96.2499931286264
 30
0.0
 11
-133.25
 21
96.2499931286264
 31
0.0
  0
LINE
  5
2B0
  8
DIMNSIONS
  6
CONTINUOUS
 62
     7
 10
-131.25
 20
53.74999999999997
 30
0.0
 11
-131.25
 21
96.2499931286264
 31
0.0
  0
LINE
  5
2B1
  8
DIMNSIONS
  6
CONTINUOUS
 62
     7
 10
-131.25
 20
53.74999999999997
 30
0.0
 11
-132.3217313524412
 21
57.74975585937497
 31
0.0
  0
LINE
  5
2B2
  8
DIMNSIONS
  6
CONTINUOUS
 62
     7
 10
-131.25
 20
53.74999999999997
 30
0.0
 11
-130.1782686475588
 21
57.74975585937497
 31
0.0
  0
LINE
  5
2B3
  8
DIMNSIONS
  6
CONTINUOUS
 62
     7
 10
-131.25
 20
96.2499931286264
 30
0.0
 11
-130.1782686475588
 21
92.2502372692514
 31
0.0
  0
LINE
  5
2B4
  8
DIMNSIONS
  6
CONTINUOUS
 62
     7
 10
-131.25
 20
96.2499931286264
 30
0.0
 11
-132.3217313524412
 21
92.2502372692514
 31
0.0
  0
TEXT
  5
2B5
  8
DIMNSIONS
 62
     7
 10
-133.2377777777778
 20
67.94444100875765
 30
0.0
 40
5.429470486111112
  1
42.5
 50
90.0
 41
0.7
 11
-138.6672482638889
 21
67.94444100875765
 31
0.0
 73
     3
  0
LINE
  5
2B6
  8
DIMNSIONS
  6
CONTINUOUS
 62
     7
 10
-99.4
 20
-137.5
 30
0.0
 11
-133.25
 21
-137.5
 31
0.0
  0
LINE
  5
2B7
  8
DIMNSIONS
  6
CONTINUOUS
 62
     7
 10
-89.65
 20
22.50000000000001
 30
0.0
 11
-133.25
 21
22.50000000000001
 31
0.0
  0
LINE
  5
2B8
  8
DIMNSIONS
  6
CONTINUOUS
 62
     7
 10
-131.25
 20
-137.5
 30
0.0
 11
-131.25
 21
22.50000000000001
 31
0.0
  0
LINE
  5
2B9
  8
DIMNSIONS
  6
CONTINUOUS
 62
     7
 10
-131.25
 20
-137.5
 30
0.0
 11
-132.3217313524412
 21
-133.500244140625
 31
0.0
  0
LINE
  5
2BA
  8
DIMNSIONS
  6
CONTINUOUS
 62
     7
 10
-131.25
 20
-137.5
 30
0.0
 11
-130.1782686475588
 21
-133.500244140625
 31
0.0
  0
LINE
  5
2BB
  8
DIMNSIONS
  6
CONTINUOUS
 62
     7
 10
-131.25
 20
22.50000000000001
 30
0.0
 11
-130.1782686475588
 21
18.50024414062501
 31
0.0
  0
LINE
  5
2BC
  8
DIMNSIONS
  6
CONTINUOUS
 62
     7
 10
-131.25
 20
22.50000000000001
 30
0.0
 11
-132.3217313524412
 21
18.50024414062501
 31
0.0
  0
TEXT
  5
2BD
  8
DIMNSIONS
 62
     7
 10
-133.2377777777778
 20
-62.79166666666666
 30
0.0
 40
5.429470486111112
  1
160
 50
90.0
 41
0.7
 11
-138.6672482638889
 21
-62.79166666666666
 31
0.0
 73
     3
  0
LINE
  5
2BE
  8
DIMNSIONS
  6
CONTINUOUS
 62
     7
 10
-99.4
 20
-137.5
 30
0.0
 11
-120.75
 21
-137.5
 31
0.0
  0
LINE
  5
2BF
  8
DIMNSIONS
  6
CONTINUOUS
 62
     7
 10
-111.9
 20
-93.0
 30
0.0
 11
-120.75
 21
-93.0
 31
0.0
  0
LINE
  5
2C0
  8
DIMNSIONS
  6
CONTINUOUS
 62
     7
 10
-118.75
 20
-137.5
 30
0.0
 11
-118.75
 21
-93.0
 31
0.0
  0
LINE
  5
2C1
  8
DIMNSIONS
  6
CONTINUOUS
 62
     7
 10
-118.75
 20
-137.5
 30
0.0
 11
-119.8217313524412
 21
-133.500244140625
 31
0.0
  0
LINE
  5
2C2
  8
DIMNSIONS
  6
CONTINUOUS
 62
     7
 10
-118.75
 20
-137.5
 30
0.0
 11
-117.6782686475588
 21
-133.500244140625
 31
0.0
  0
LINE
  5
2C3
  8
DIMNSIONS
  6
CONTINUOUS
 62
     7
 10
-118.75
 20
-93.0
 30
0.0
 11
-117.6782686475588
 21
-96.999755859375
 31
0.0
  0
LINE
  5
2C4
  8
DIMNSIONS
  6
CONTINUOUS
 62
     7
 10
-118.75
 20
-93.0
 30
0.0
 11
-119.8217313524412
 21
-96.999755859375
 31
0.0
  0
TEXT
  5
2C5
  8
DIMNSIONS
 62
     7
 10
-120.7377777777778
 20
-122.3055555555555
 30
0.0
 40
5.429470486111112
  1
44.5
 50
90.0
 41
0.7
 11
-126.1672482638889
 21
-122.3055555555555
 31
0.0
 73
     3
  0
LINE
  5
2C6
  8
DIMNSIONS
  6
CONTINUOUS
 62
     7
 10
-98.64999999999998
 20
-137.4000000000001
 30
0.0
 11
-98.64999999999998
 21
-153.7222222222223
 31
0.0
  0
LINE
  5
2C7
  8
DIMNSIONS
  6
CONTINUOUS
 62
     7
 10
-76.35000000000002
 20
-137.4
 30
0.0
 11
-76.35000000000002
 21
-153.7222222222223
 31
0.0
  0
LINE
  5
2C8
  8
DIMNSIONS
  6
CONTINUOUS
 62
     7
 10
-98.64999999999998
 20
-151.7222222222223
 30
0.0
 11
-76.35000000000002
 21
-151.7222222222223
 31
0.0
  0
LINE
  5
2C9
  8
DIMNSIONS
  6
CONTINUOUS
 62
     7
 10
-98.64999999999998
 20
-151.7222222222223
 30
0.0
 11
-94.65024414062498
 21
-150.6504908697811
 31
0.0
  0
LINE
  5
2CA
  8
DIMNSIONS
  6
CONTINUOUS
 62
     7
 10
-98.64999999999998
 20
-151.7222222222223
 30
0.0
 11
-94.65024414062498
 21
-152.7939535746635
 31
0.0
  0
LINE
  5
2CB
  8
DIMNSIONS
  6
CONTINUOUS
 62
     7
 10
-76.35000000000002
 20
-151.7222222222223
 30
0.0
 11
-80.34975585937502
 21
-152.7939535746635
 31
0.0
  0
LINE
  5
2CC
  8
DIMNSIONS
  6
CONTINUOUS
 62
     7
 10
-76.35000000000002
 20
-151.7222222222223
 30
0.0
 11
-80.34975585937502
 21
-150.6504908697811
 31
0.0
  0
TEXT
  5
2CD
  8
DIMNSIONS
 62
     7
 10
-94.55555555555556
 20
-149.7344444444445
 30
0.0
 40
5.429470486111112
  1
22.3
 41
0.7
 11
-94.55555555555556
 21
-144.3049739583334
 31
0.0
 73
     3
  0
TEXT
  5
2CE
  8
DATA
 62
     7
 10
-176.0000000088
 20
-240.7156294563036
 30
0.0
 40
3.800629340467809
  1
※仕様及び外観は予告なく変更されることがあります。
 41
0.7
 11
-176.0000000088
 21
-236.9150001158357
 31
0.0
 73
     3
  0
TEXT
  5
2CF
  8
DATA
 62
     7
 10
-176.0000000088
 20
-245.6545183454394
 30
0.0
 40
3.800629340467809
  1
　また、同一商品でも若干の個体差があることがあります。ご了承ください。
 41
0.7
 11
-176.0000000088
 21
-241.8538890049716
 31
0.0
 73
     3
  0
TEXT
  5
2D0
  8
DATA
 62
     7
 10
100.000000005
 20
-234.2064050115336
 30
0.0
 40
4.886523437744327
  1
C214
 41
0.7
 11
100.000000005
 21
-229.3198815737893
 31
0.0
 73
     3
  0
TEXT
  5
2D1
  8
DATA
 62
     7
 10
100.000000005
 20
-219.7064050108086
 30
0.0
 40
4.886523437744327
  1
AKG
 41
0.7
 11
100.000000005
 21
-214.8198815730643
 31
0.0
 73
     3
  0
TEXT
  5
2D2
  8
DATA
 62
     7
 10
-176.00088
 20
-240.7168153635166
 30
0.0
 40
3.80064834342448
  1
※仕様及び外観は予告なく変更されることがあります。
 41
0.7
 11
-176.00088
 21
-236.9161670200922
 31
0.0
 73
     3
  0
TEXT
  5
2D3
  8
DATA
 62
     7
 10
-176.00088
 20
-245.65572894685
 30
0.0
 40
3.80064834342448
  1
　また、同一商品でも若干の個体差があることがあります。ご了承ください。
 41
0.7
 11
-176.00088
 21
-241.8550806034255
 31
0.0
 73
     3
  0
TEXT
  5
2D4
  8
DATA
 62
     7
 10
-43.89206225814786
 20
40.7481098463191
 30
0.0
 40
5.429470486111112
  1
ウインドスクリーン
 41
0.7
 11
-43.89206225814786
 21
46.17758033243021
 31
0.0
 73
     3
  0
LINE
  5
2D5
  8
DATA
  6
CONTINUOUS
 62
     7
 10
-97.0
 20
-137.5
 30
0.0
 11
-78.0
 21
-137.5
 31
0.0
  0
LINE
  5
2D6
  8
DATA
  6
CONTINUOUS
 62
     7
 10
-98.64999999999998
 20
-135.0000000000001
 30
0.0
 11
-99.85000000000002
 21
-95.0
 31
0.0
  0
LINE
  5
2D7
  8
DATA
  6
CONTINUOUS
 62
     7
 10
-76.35000000000002
 20
-135.0
 30
0.0
 11
-75.14999999999998
 21
-95.0
 31
0.0
  0
LINE
  5
2D8
  8
DATA
  6
CONTINUOUS
 62
     7
 10
-99.85000000000002
 20
-95.0
 30
0.0
 11
-75.14999999999998
 21
-95.0
 31
0.0
  0
LINE
  5
2D9
  8
DATA
  6
CONTINUOUS
 62
     7
 10
-78.0
 20
-137.5
 30
0.0
 11
-76.35000000000002
 21
-135.0
 31
0.0
  0
LINE
  5
2DA
  8
DATA
  6
CONTINUOUS
 62
     7
 10
-98.64999999999998
 20
-135.0000000000001
 30
0.0
 11
-76.35000000000002
 21
-135.0
 31
0.0
  0
LINE
  5
2DB
  8
DATA
  6
CONTINUOUS
 62
     7
 10
-65.5
 20
-93.0
 30
0.0
 11
-109.5
 21
-93.0
 31
0.0
  0
CIRCLE
  5
2DC
  8
DATA
  6
CONTINUOUS
 62
     7
 10
-87.5
 20
-121.0
 30
0.0
 40
2.25
  0
LINE
  5
2DD
  8
DATA
  6
CONTINUOUS
 62
     7
 10
-88.55481024942753
 20
-121.0
 30
0.0
 11
-86.44518975057247
 21
-121.0
 31
0.0
  0
LINE
  5
2DE
  8
DATA
  6
CONTINUOUS
 62
     7
 10
-87.5
 20
-122.0548102494275
 30
0.0
 11
-87.5
 21
-119.9451897505725
 31
0.0
  0
LINE
  5
2DF
  8
DATA
  6
CONTINUOUS
 62
     7
 10
-115.25
 20
-47.99988473118178
 30
0.0
 11
-59.75
 21
-47.99988473118178
 31
0.0
  0
LINE
  5
2E0
  8
DATA
  6
CONTINUOUS
 62
     7
 10
-114.75
 20
-57.89988473118179
 30
0.0
 11
-60.25
 21
-57.89988473118179
 31
0.0
  0
LINE
  5
2E1
  8
DATA
  6
CONTINUOUS
 62
     7
 10
-114.75
 20
-59.39988473118177
 30
0.0
 11
-60.25
 21
-59.39988473118177
 31
0.0
  0
LINE
  5
2E2
  8
DATA
  6
CONTINUOUS
 62
     7
 10
-62.5
 20
-90.0
 30
0.0
 11
-112.5
 21
-90.0
 31
0.0
  0
LINE
  5
2E3
  8
DATA
  6
CONTINUOUS
 62
     7
 10
-109.5
 20
-93.0
 30
0.0
 11
-112.5
 21
-90.0
 31
0.0
  0
LINE
  5
2E4
  8
DATA
  6
CONTINUOUS
 62
     7
 10
-112.5
 20
-90.0
 30
0.0
 11
-114.75
 21
-59.39988473118177
 31
0.0
  0
LINE
  5
2E5
  8
DATA
  6
CONTINUOUS
 62
     7
 10
-65.5
 20
-93.0
 30
0.0
 11
-62.5
 21
-90.0
 31
0.0
  0
LINE
  5
2E6
  8
DATA
  6
CONTINUOUS
 62
     7
 10
-62.5
 20
-90.0
 30
0.0
 11
-60.25
 21
-59.39988473118177
 31
0.0
  0
LINE
  5
2E7
  8
DATA
  6
CONTINUOUS
 62
     7
 10
-115.05
 20
-47.99988473118178
 30
0.0
 11
-113.6061585992842
 21
17.67161123685894
 31
0.0
  0
LINE
  5
2E8
  8
DATA
  6
CONTINUOUS
 62
     7
 10
-59.95000000000005
 20
-47.99988473118178
 30
0.0
 11
-61.39384140071525
 21
17.67161123683346
 31
0.0
  0
ARC
  5
2E9
  8
DATA
  6
CONTINUOUS
 62
     7
 10
-87.50000000000011
 20
-248.6053505643819
 30
0.0
 40
271.1054658332001
 50
85.25245375975025
 51
94.74754624024914
  0
ARC
  5
2EA
  8
DATA
  6
CONTINUOUS
 62
     7
 10
-109.6071250011576
 20
17.58368922158097
 30
0.0
 40
3.999999999964584
 50
94.74754623974427
 51
178.7405084666826
  0
ARC
  5
2EB
  8
DATA
  6
CONTINUOUS
 62
     7
 10
-65.39287499887018
 20
17.58368922155488
 30
0.0
 40
3.999999999992834
 50
1.259491533317288
 51
85.25245375985148
  0
CIRCLE
  5
2EC
  8
DATA
  6
CONTINUOUS
 62
     7
 10
-87.5
 20
-73.39999999999998
 30
0.0
 40
8.0
  0
LINE
  5
2ED
  8
DATA
  6
CONTINUOUS
 62
     7
 10
-114.05
 20
-47.99988473118178
 30
0.0
 11
-112.6263953376776
 21
16.75116603896497
 31
0.0
  0
LINE
  5
2EE
  8
DATA
  6
CONTINUOUS
 62
     7
 10
-60.95000000000005
 20
-47.99988473118178
 30
0.0
 11
-62.37360466232224
 21
16.75116603895678
 31
0.0
  0
ARC
  5
2EF
  8
DATA
  6
CONTINUOUS
 62
     7
 10
-87.50000000000011
 20
-249.6053505643819
 30
0.0
 40
271.1054658332001
 50
85.46331086022606
 51
94.53668913977373
  0
ARC
  5
2F0
  8
DATA
  6
CONTINUOUS
 62
     7
 10
-108.6273617395291
 20
16.66324402368653
 30
0.0
 40
3.999999999986418
 50
94.53668913958143
 51
178.7405084666827
  0
ARC
  5
2F1
  8
DATA
  6
CONTINUOUS
 62
     7
 10
-66.37263826047979
 20
16.66324402367813
 30
0.0
 40
3.99999999999545
 50
1.259491533317483
 51
85.46331086029006
  0
LINE
  5
2F2
  8
DATA
  6
CONTINUOUS
 62
     7
 10
10.25
 20
-93.0
 30
0.0
 11
-22.75
 21
-93.0
 31
0.0
  0
LINE
  5
2F3
  8
DATA
  6
CONTINUOUS
 62
     7
 10
13.25
 20
-90.0
 30
0.0
 11
-25.75
 21
-90.0
 31
0.0
  0
LINE
  5
2F4
  8
DATA
  6
CONTINUOUS
 62
     7
 10
10.25
 20
-93.0
 30
0.0
 11
13.25
 21
-90.0
 31
0.0
  0
LINE
  5
2F5
  8
DATA
  6
CONTINUOUS
 62
     7
 10
-22.75
 20
-93.0
 30
0.0
 11
-25.75
 21
-90.0
 31
0.0
  0
LINE
  5
2F6
  8
DATA
  6
CONTINUOUS
 62
     7
 10
34.24999999999994
 20
-93.0
 30
0.0
 11
78.24999999999994
 21
-93.0
 31
0.0
  0
LINE
  5
2F7
  8
DATA
  6
CONTINUOUS
 62
     7
 10
83.99999999999994
 20
-47.99988473118178
 30
0.0
 11
28.49999999999994
 21
-47.99988473118178
 31
0.0
  0
LINE
  5
2F8
  8
DATA
  6
CONTINUOUS
 62
     7
 10
83.49999999999994
 20
-57.89988473118179
 30
0.0
 11
28.99999999999994
 21
-57.89988473118179
 31
0.0
  0
LINE
  5
2F9
  8
DATA
  6
CONTINUOUS
 62
     7
 10
83.49999999999994
 20
-59.39988473118177
 30
0.0
 11
28.99999999999994
 21
-59.39988473118177
 31
0.0
  0
LINE
  5
2FA
  8
DATA
  6
CONTINUOUS
 62
     7
 10
31.25000000000006
 20
-90.0
 30
0.0
 11
81.24999999999994
 21
-90.0
 31
0.0
  0
LINE
  5
2FB
  8
DATA
  6
CONTINUOUS
 62
     7
 10
78.24999999999994
 20
-93.0
 30
0.0
 11
81.24999999999994
 21
-90.0
 31
0.0
  0
LINE
  5
2FC
  8
DATA
  6
CONTINUOUS
 62
     7
 10
81.24999999999994
 20
-90.0
 30
0.0
 11
83.49999999999994
 21
-59.39988473118177
 31
0.0
  0
LINE
  5
2FD
  8
DATA
  6
CONTINUOUS
 62
     7
 10
34.24999999999994
 20
-93.0
 30
0.0
 11
31.24999999999994
 21
-90.0
 31
0.0
  0
LINE
  5
2FE
  8
DATA
  6
CONTINUOUS
 62
     7
 10
31.24999999999994
 20
-90.0
 30
0.0
 11
28.99999999999994
 21
-59.39988473118177
 31
0.0
  0
LINE
  5
2FF
  8
DATA
  6
CONTINUOUS
 62
     7
 10
83.80000000000001
 20
-47.99988473118178
 30
0.0
 11
82.35615859928413
 21
17.67161123685894
 31
0.0
  0
LINE
  5
300
  8
DATA
  6
CONTINUOUS
 62
     7
 10
28.69999999999987
 20
-47.99988473118178
 30
0.0
 11
30.14384140071519
 21
17.67161123683346
 31
0.0
  0
ARC
  5
301
  8
DATA
  6
CONTINUOUS
 62
     7
 10
56.25000000000006
 20
-248.6053505643819
 30
0.0
 40
271.1054658332001
 50
85.25245375975088
 51
94.74754624024973
  0
ARC
  5
302
  8
DATA
  6
CONTINUOUS
 62
     7
 10
78.3571250011575
 20
17.58368922158097
 30
0.0
 40
3.99999999996452
 50
1.25949153331745
 51
85.25245376025573
  0
ARC
  5
303
  8
DATA
  6
CONTINUOUS
 62
     7
 10
34.14287499887024
 20
17.58368922155488
 30
0.0
 40
3.999999999992881
 50
94.74754624014852
 51
178.7405084666828
  0
LINE
  5
304
  8
DATA
  6
CONTINUOUS
 62
     7
 10
82.80000000000001
 20
-47.99988473118178
 30
0.0
 11
81.3763953376776
 21
16.75116603896497
 31
0.0
  0
LINE
  5
305
  8
DATA
  6
CONTINUOUS
 62
     7
 10
29.69999999999999
 20
-47.99988473118178
 30
0.0
 11
31.12360466232218
 21
16.75116603895678
 31
0.0
  0
ARC
  5
306
  8
DATA
  6
CONTINUOUS
 62
     7
 10
56.25000000000006
 20
-249.6053505643819
 30
0.0
 40
271.1054658332001
 50
85.46331086022627
 51
94.53668913977394
  0
ARC
  5
307
  8
DATA
  6
CONTINUOUS
 62
     7
 10
77.37736173952914
 20
16.66324402368653
 30
0.0
 40
3.999999999986353
 50
1.259491533317293
 51
85.46331086042022
  0
ARC
  5
308
  8
DATA
  6
CONTINUOUS
 62
     7
 10
35.12263826047973
 20
16.66324402367813
 30
0.0
 40
3.999999999995499
 50
94.53668913970998
 51
178.7405084666825
  0
LINE
  5
309
  8
DATA
  6
CONTINUOUS
 62
     7
 10
102.25
 20
-93.0
 30
0.0
 11
135.25
 21
-93.0
 31
0.0
  0
LINE
  5
30A
  8
DATA
  6
CONTINUOUS
 62
     7
 10
99.25
 20
-90.0
 30
0.0
 11
138.25
 21
-90.0
 31
0.0
  0
LINE
  5
30B
  8
DATA
  6
CONTINUOUS
 62
     7
 10
102.25
 20
-93.0
 30
0.0
 11
99.25
 21
-90.0
 31
0.0
  0
LINE
  5
30C
  8
DATA
  6
CONTINUOUS
 62
     7
 10
135.25
 20
-93.0
 30
0.0
 11
138.25
 21
-90.0
 31
0.0
  0
ARC
  5
30D
  8
DATA
  6
CONTINUOUS
 62
     7
 10
-87.25
 20
20.74166666666662
 30
0.0
 40
75.50833333333334
 50
72.53702047502104
 51
107.5118663651105
  0
ARC
  5
30E
  8
DATA
  6
CONTINUOUS
 62
     7
 10
-87.25
 20
129.2583333333333
 30
0.0
 40
75.50833333333328
 50
252.4881336348895
 51
287.462979524979
  0
ARC
  5
30F
  8
DATA
  6
CONTINUOUS
 62
     7
 10
-100.0312499999999
 20
74.99999999999997
 30
0.0
 40
40.28124999999994
 50
335.5212126301429
 51
24.47878736985706
  0
ARC
  5
310
  8
DATA
  6
CONTINUOUS
 62
     7
 10
-78.97222222222217
 20
74.99999999999997
 30
0.0
 40
36.27777777777783
 50
152.4707603281819
 51
207.5292396718181
  0
LINE
  5
311
  8
DATA
  6
CONTINUOUS
 62
     7
 10
-114.1681917737662
 20
82.94999999999996
 30
0.0
 11
-60.74230722404684
 21
82.94999999999996
 31
0.0
  0
LINE
  5
312
  8
DATA
  6
CONTINUOUS
 62
     7
 10
-114.1681917737662
 20
67.04999999999997
 30
0.0
 11
-60.74230722404684
 21
67.04999999999997
 31
0.0
  0
LINE
  5
313
  8
DATA
  6
CONTINUOUS
 62
     7
 10
-114.3780456292694
 20
81.94999999999996
 30
0.0
 11
-60.55409534442401
 21
81.94999999999996
 31
0.0
  0
LINE
  5
314
  8
DATA
  6
CONTINUOUS
 62
     7
 10
-114.3780456292694
 20
68.04999999999997
 30
0.0
 11
-60.55409534442401
 21
68.04999999999997
 31
0.0
  0
ARC
  5
315
  8
DATA
  6
CONTINUOUS
 62
     7
 10
-87.25
 20
18.74166666666662
 30
0.0
 40
75.50833333333335
 50
73.60852740661004
 51
106.5305181441259
  0
ARC
  5
316
  8
DATA
  6
CONTINUOUS
 62
     7
 10
-87.25
 20
131.2583333333333
 30
0.0
 40
75.5083333333333
 50
253.4694818558741
 51
286.39147259339
  0
ARC
  5
317
  8
DATA
  6
CONTINUOUS
 62
     7
 10
-76.97222222222217
 20
74.99999999999997
 30
0.0
 40
36.27777777777777
 50
155.5054843392793
 51
167.3413318238906
  0
ARC
  5
318
  8
DATA
  6
CONTINUOUS
 62
     7
 10
-76.97222222222217
 20
74.99999999999997
 30
0.0
 40
36.27777777777781
 50
192.6586681761094
 51
204.4945156607207
  0
ARC
  5
319
  8
DATA
  6
CONTINUOUS
 62
     7
 10
-102.0312499999999
 20
74.99999999999997
 30
0.0
 40
40.28124999999996
 50
338.12598868342
 51
348.6172444780423
  0
ARC
  5
31A
  8
DATA
  6
CONTINUOUS
 62
     7
 10
-102.0312499999999
 20
74.99999999999997
 30
0.0
 40
40.28124999999986
 50
11.38275552195763
 51
21.87401131658
  0
ARC
  5
31B
  8
DATA
  6
CONTINUOUS
 62
     7
 10
-78.77222222222224
 20
74.99999999999997
 30
0.0
 40
36.27777777777781
 50
167.3413318238906
 51
192.6586681761093
  0
ARC
  5
31C
  8
DATA
  6
CONTINUOUS
 62
     7
 10
-100.2312499999998
 20
74.99999999999997
 30
0.0
 40
40.28124999999986
 50
348.6172444780423
 51
11.38275552195762
  0
ARC
  5
31D
  8
DATA
  6
CONTINUOUS
 62
     7
 10
-109.368901154038
 20
90.84323070900697
 30
0.0
 40
1.999999999999971
 50
107.5118663651098
 51
152.4707603281828
  0
ARC
  5
31E
  8
DATA
  6
CONTINUOUS
 62
     7
 10
-108.1650329427555
 20
89.21177711391867
 30
0.0
 40
1.999999999999999
 50
106.5305181441265
 51
155.5054843392782
  0
ARC
  5
31F
  8
DATA
  6
CONTINUOUS
 62
     7
 10
-109.368901154038
 20
59.15676929099308
 30
0.0
 40
2.000000000000068
 50
207.5292396718197
 51
252.4881336348911
  0
ARC
  5
320
  8
DATA
  6
CONTINUOUS
 62
     7
 10
-108.1650329427555
 20
60.78822288608129
 30
0.0
 40
2.00000000000002
 50
204.4945156607205
 51
253.4694818558735
  0
ARC
  5
321
  8
DATA
  6
CONTINUOUS
 62
     7
 10
-66.50604552977711
 20
89.26232620968116
 30
0.0
 40
2.000000000000021
 50
21.87401131657996
 51
73.60852740661075
  0
ARC
  5
322
  8
DATA
  6
CONTINUOUS
 62
     7
 10
-65.19092009073256
 20
90.86207783917045
 30
0.0
 40
2.000000000000058
 50
24.47878736985642
 51
72.53702047502088
  0
ARC
  5
323
  8
DATA
  6
CONTINUOUS
 62
     7
 10
-66.50604552977711
 20
60.73767379031872
 30
0.0
 40
1.99999999999994
 50
286.3914725933897
 51
338.1259886834216
  0
ARC
  5
324
  8
DATA
  6
CONTINUOUS
 62
     7
 10
-65.19092009073267
 20
59.13792216082965
 30
0.0
 40
2.00000000000018
 50
287.4629795249809
 51
335.5212126301409
  0
ARC
  5
325
  8
DATA
  6
STYLE_12
 62
     7
 10
-87.25
 20
-44.40000000000003
 30
0.0
 40
146.9
 50
77.61485731775934
 51
102.3851426822406
  0
ARC
  5
326
  8
DATA
  6
STYLE_12
 62
     7
 10
-87.25
 20
194.3999999999999
 30
0.0
 40
146.9
 50
257.6148573177593
 51
282.3851426822407
  0
ARC
  5
327
  8
DATA
  6
STYLE_12
 62
     7
 10
-47.125
 20
74.99999999999997
 30
0.0
 40
78.12499999999997
 50
164.7796118257337
 51
195.2203881742663
  0
ARC
  5
328
  8
DATA
  6
STYLE_12
 62
     7
 10
-127.375
 20
74.99999999999997
 30
0.0
 40
78.12500000000009
 50
344.7796118257338
 51
15.22038817426625
  0
ARC
  5
329
  8
DATA
  6
STYLE_12
 62
     7
 10
-117.6850043038208
 20
94.19769302923625
 30
0.0
 40
5.000000000000014
 50
102.3851426822406
 51
164.7796118257334
  0
ARC
  5
32A
  8
DATA
  6
STYLE_12
 62
     7
 10
-56.81499569617915
 20
94.19769302923626
 30
0.0
 40
5.00000000000006
 50
15.22038817426617
 51
77.61485731775943
  0
ARC
  5
32B
  8
DATA
  6
STYLE_12
 62
     7
 10
-117.6850043038207
 20
55.80230697076371
 30
0.0
 40
5.00000000000006
 50
195.2203881742662
 51
257.6148573177582
  0
ARC
  5
32C
  8
DATA
  6
STYLE_12
 62
     7
 10
-56.81499569617915
 20
55.80230697076374
 30
0.0
 40
5.000000000000028
 50
282.3851426822405
 51
344.7796118257335
  0
LINE
  5
32D
  8
DATA
  6
CONTINUOUS
 62
     7
 10
-49.74999999999756
 20
38.50011526881822
 30
0.0
 11
25.0
 21
38.50011526881822
 31
0.0
  0
LINE
  5
32E
  8
DATA
  6
CONTINUOUS
 62
     7
 10
-49.74999999999756
 20
37.50000000000001
 30
0.0
 11
-60.26389246297248
 21
50.00000000000001
 31
0.0
  0
LINE
  5
32F
  8
DATA
  6
CONTINUOUS
 62
     7
 10
-60.26389246297248
 20
50.00000000000001
 30
0.0
 11
-54.81379635574916
 21
46.32386375806814
 31
0.0
  0
LINE
  5
330
  8
DATA
  6
CONTINUOUS
 62
     7
 10
-60.26389246297248
 20
50.00000000000001
 30
0.0
 11
-57.38203890201635
 21
44.09132457310269
 31
0.0
  0
LINE
  5
331
  8
DATA
  6
CONTINUOUS
 62
     7
 10
-27.0
 20
-57.89988473118179
 30
0.0
 11
14.5
 21
-57.89988473118179
 31
0.0
  0
LINE
  5
332
  8
DATA
  6
CONTINUOUS
 62
     7
 10
-114.75
 20
-57.89988473118179
 30
0.0
 11
-115.25
 21
-47.99988473118178
 31
0.0
  0
LINE
  5
333
  8
DATA
  6
CONTINUOUS
 62
     7
 10
-60.25
 20
-57.89988473118179
 30
0.0
 11
-59.75
 21
-47.99988473118178
 31
0.0
  0
LINE
  5
334
  8
DATA
  6
CONTINUOUS
 62
     7
 10
-27.0
 20
-59.39988473118177
 30
0.0
 11
14.5
 21
-59.39988473118177
 31
0.0
  0
LINE
  5
335
  8
DATA
  6
CONTINUOUS
 62
     7
 10
-25.75
 20
-90.0
 30
0.0
 11
-27.0
 21
-59.39988473118177
 31
0.0
  0
LINE
  5
336
  8
DATA
  6
CONTINUOUS
 62
     7
 10
13.25
 20
-90.0
 30
0.0
 11
14.5
 21
-59.39988473118177
 31
0.0
  0
LINE
  5
337
  8
DATA
  6
CONTINUOUS
 62
     7
 10
-26.5
 20
-57.89988473118179
 30
0.0
 11
-26.5
 21
-59.39988473118177
 31
0.0
  0
LINE
  5
338
  8
DATA
  6
CONTINUOUS
 62
     7
 10
14.0
 20
-57.89988473118179
 30
0.0
 11
14.0
 21
-59.39988473118177
 31
0.0
  0
LINE
  5
339
  8
DATA
  6
CONTINUOUS
 62
     7
 10
-114.25
 20
-57.89988473118179
 30
0.0
 11
-114.25
 21
-59.39988473118177
 31
0.0
  0
LINE
  5
33A
  8
DATA
  6
CONTINUOUS
 62
     7
 10
-60.75
 20
-57.89988473118179
 30
0.0
 11
-60.75
 21
-59.39988473118177
 31
0.0
  0
LINE
  5
33B
  8
DATA
  6
CONTINUOUS
 62
     7
 10
-14.20000000000005
 20
-48.05510843778187
 30
0.0
 11
-13.2076234591982
 21
21.96224039967322
 31
0.0
  0
LINE
  5
33C
  8
DATA
  6
CONTINUOUS
 62
     7
 10
1.700000000000045
 20
-47.99988473118178
 30
0.0
 11
0.7076294307680655
 21
21.96224039967325
 31
0.0
  0
LINE
  5
33D
  8
DATA
  6
CONTINUOUS
 62
     7
 10
-24.75
 20
-47.99988473118178
 30
0.0
 11
-24.51768019748943
 21
17.514299576799
 31
0.0
  0
LINE
  5
33E
  8
DATA
  6
CONTINUOUS
 62
     7
 10
12.25
 20
-47.99988473118178
 30
0.0
 11
12.01768019748943
 21
17.514299576799
 31
0.0
  0
LINE
  5
33F
  8
DATA
  6
CONTINUOUS
 62
     7
 10
-20.51770534689263
 20
21.50011526881816
 30
0.0
 11
-13.21417329500878
 21
21.50011526881816
 31
0.0
  0
LINE
  5
340
  8
DATA
  6
CONTINUOUS
 62
     7
 10
0.7141843971630806
 20
21.50011526881816
 30
0.0
 11
8.017705346892626
 21
21.50011526881816
 31
0.0
  0
ARC
  5
341
  8
DATA
  6
CONTINUOUS
 62
     7
 10
-6.249997014215069
 20
-22.76866183559964
 30
0.0
 40
45.26877710441791
 50
81.1588281466588
 51
98.84117185334121
  0
ARC
  5
342
  8
DATA
  6
CONTINUOUS
 62
     7
 10
-20.51770534689263
 20
17.50011526881816
 30
0.0
 40
4.0
 50
90.0
 51
179.7968243285336
  0
ARC
  5
343
  8
DATA
  6
CONTINUOUS
 62
     7
 10
8.017705346892626
 20
17.50011526881816
 30
0.0
 40
3.999999999999973
 50
0.2031756714663999
 51
90.0
  0
ARC
  5
344
  8
DATA
  6
CONTINUOUS
 62
     7
 10
181.9166128657926
 20
-1.06359680144152
 30
0.0
 40
203.6879335960387
 50
173.6399558676764
 51
177.8718992816158
  0
ARC
  5
345
  8
DATA
  6
CONTINUOUS
 62
     7
 10
-194.4166128657926
 20
-1.06359680144152
 30
0.0
 40
203.6879335960386
 50
2.128100718384207
 51
6.360044132323624
  0
LINE
  5
346
  8
DATA
  6
CONTINUOUS
 62
     7
 10
-21.63083750473515
 20
6.50011526881822
 30
0.0
 11
-21.82409991608256
 21
-47.99988473118178
 31
0.0
  0
LINE
  5
347
  8
DATA
  6
CONTINUOUS
 62
     7
 10
9.130837504735155
 20
6.50011526881822
 30
0.0
 11
9.32409991608256
 21
-47.99988473118178
 31
0.0
  0
LINE
  5
348
  8
DATA
  6
CONTINUOUS
 62
     7
 10
-27.5
 20
-47.99988473118178
 30
0.0
 11
15.0
 21
-47.99988473118178
 31
0.0
  0
LINE
  5
349
  8
DATA
  6
CONTINUOUS
 62
     7
 10
-27.0
 20
-57.89988473118179
 30
0.0
 11
-27.5
 21
-47.99988473118178
 31
0.0
  0
LINE
  5
34A
  8
DATA
  6
CONTINUOUS
 62
     7
 10
14.5
 20
-57.89988473118179
 30
0.0
 11
15.0
 21
-47.99988473118178
 31
0.0
  0
LINE
  5
34B
  8
DATA
  6
CONTINUOUS
 62
     7
 10
83.49999999999994
 20
-57.89988473118179
 30
0.0
 11
83.99999999999994
 21
-47.99988473118178
 31
0.0
  0
LINE
  5
34C
  8
DATA
  6
CONTINUOUS
 62
     7
 10
28.99999999999994
 20
-57.89988473118179
 30
0.0
 11
28.49999999999994
 21
-47.99988473118178
 31
0.0
  0
LINE
  5
34D
  8
DATA
  6
CONTINUOUS
 62
     7
 10
82.99999999999994
 20
-57.89988473118179
 30
0.0
 11
82.99999999999994
 21
-59.39988473118177
 31
0.0
  0
LINE
  5
34E
  8
DATA
  6
CONTINUOUS
 62
     7
 10
29.49999999999994
 20
-57.89988473118179
 30
0.0
 11
29.49999999999994
 21
-59.39988473118177
 31
0.0
  0
LINE
  5
34F
  8
DATA
  6
CONTINUOUS
 62
     7
 10
139.5
 20
-57.89988473118179
 30
0.0
 11
98.0
 21
-57.89988473118179
 31
0.0
  0
LINE
  5
350
  8
DATA
  6
CONTINUOUS
 62
     7
 10
139.5
 20
-57.89988473118179
 30
0.0
 11
140.0
 21
-47.99988473118178
 31
0.0
  0
LINE
  5
351
  8
DATA
  6
CONTINUOUS
 62
     7
 10
98.0
 20
-57.89988473118179
 30
0.0
 11
97.5
 21
-47.99988473118178
 31
0.0
  0
LINE
  5
352
  8
DATA
  6
CONTINUOUS
 62
     7
 10
139.5
 20
-59.39988473118177
 30
0.0
 11
98.0
 21
-59.39988473118177
 31
0.0
  0
LINE
  5
353
  8
DATA
  6
CONTINUOUS
 62
     7
 10
138.25
 20
-90.0
 30
0.0
 11
139.5
 21
-59.39988473118177
 31
0.0
  0
LINE
  5
354
  8
DATA
  6
CONTINUOUS
 62
     7
 10
99.25
 20
-90.0
 30
0.0
 11
98.0
 21
-59.39988473118177
 31
0.0
  0
LINE
  5
355
  8
DATA
  6
CONTINUOUS
 62
     7
 10
139.0
 20
-57.89988473118179
 30
0.0
 11
139.0
 21
-59.39988473118177
 31
0.0
  0
LINE
  5
356
  8
DATA
  6
CONTINUOUS
 62
     7
 10
98.5
 20
-57.89988473118179
 30
0.0
 11
98.5
 21
-59.39988473118177
 31
0.0
  0
LINE
  5
357
  8
DATA
  6
CONTINUOUS
 62
     7
 10
140.0
 20
-47.99988473118178
 30
0.0
 11
97.5
 21
-47.99988473118178
 31
0.0
  0
LINE
  5
358
  8
DATA
  6
CONTINUOUS
 62
     7
 10
126.7
 20
-48.05510843778187
 30
0.0
 11
125.7076234591982
 21
21.96224039967322
 31
0.0
  0
LINE
  5
359
  8
DATA
  6
CONTINUOUS
 62
     7
 10
110.8
 20
-47.99988473118178
 30
0.0
 11
111.7923705692319
 21
21.96224039967325
 31
0.0
  0
LINE
  5
35A
  8
DATA
  6
CONTINUOUS
 62
     7
 10
137.25
 20
-47.99988473118178
 30
0.0
 11
137.0176801974894
 21
17.514299576799
 31
0.0
  0
LINE
  5
35B
  8
DATA
  6
CONTINUOUS
 62
     7
 10
100.25
 20
-47.99988473118178
 30
0.0
 11
100.4823198025106
 21
17.514299576799
 31
0.0
  0
ARC
  5
35C
  8
DATA
  6
CONTINUOUS
 62
     7
 10
-69.41661286579256
 20
-1.06359680144152
 30
0.0
 40
203.6879335960386
 50
2.128100718384207
 51
6.360044132323624
  0
ARC
  5
35D
  8
DATA
  6
CONTINUOUS
 62
     7
 10
306.9166128657926
 20
-1.06359680144152
 30
0.0
 40
203.6879335960387
 50
173.6399558676764
 51
177.8718992816158
  0
LINE
  5
35E
  8
DATA
  6
CONTINUOUS
 62
     7
 10
133.0177053468926
 20
21.50011526881816
 30
0.0
 11
125.7141732950088
 21
21.50011526881816
 31
0.0
  0
LINE
  5
35F
  8
DATA
  6
CONTINUOUS
 62
     7
 10
111.7858156028369
 20
21.50011526881816
 30
0.0
 11
104.4822946531074
 21
21.50011526881816
 31
0.0
  0
ARC
  5
360
  8
DATA
  6
CONTINUOUS
 62
     7
 10
118.7499970142151
 20
-22.76866183559964
 30
0.0
 40
45.26877710441791
 50
81.1588281466588
 51
98.84117185334121
  0
ARC
  5
361
  8
DATA
  6
CONTINUOUS
 62
     7
 10
133.0177053468926
 20
17.50011526881816
 30
0.0
 40
3.999999999999973
 50
0.2031756714663999
 51
90.0
  0
ARC
  5
362
  8
DATA
  6
CONTINUOUS
 62
     7
 10
104.4822946531074
 20
17.50011526881816
 30
0.0
 40
4.0
 50
90.0
 51
179.7968243285336
  0
LINE
  5
363
  8
DATA
  6
CONTINUOUS
 62
     7
 10
134.1308375047352
 20
6.50011526881822
 30
0.0
 11
134.3240999160826
 21
-47.99988473118178
 31
0.0
  0
LINE
  5
364
  8
DATA
  6
CONTINUOUS
 62
     7
 10
103.3691624952648
 20
6.50011526881822
 30
0.0
 11
103.1759000839174
 21
-47.99988473118178
 31
0.0
  0
LINE
  5
365
  8
DATA
  6
CONTINUOUS
 62
     7
 10
-109.05
 20
-47.99988473118178
 30
0.0
 11
-107.6847452565239
 21
14.09718585916603
 31
0.0
  0
LINE
  5
366
  8
DATA
  6
CONTINUOUS
 62
     7
 10
-65.95000000000005
 20
-47.99988473118178
 30
0.0
 11
-67.31525474347654
 21
14.09718585920329
 31
0.0
  0
ARC
  5
367
  8
DATA
  6
CONTINUOUS
 62
     7
 10
-87.50000000000011
 20
-252.6053505643819
 30
0.0
 40
271.1054658332001
 50
86.52593611435134
 51
93.4740638856492
  0
ARC
  5
368
  8
DATA
  6
CONTINUOUS
 62
     7
 10
-103.6857116583351
 20
14.00926384388669
 30
0.0
 40
4.000000000026771
 50
93.47406388602984
 51
178.7405084666824
  0
ARC
  5
369
  8
DATA
  6
CONTINUOUS
 62
     7
 10
-71.31428834162489
 20
14.00926384392486
 30
0.0
 40
3.999999999986239
 50
1.259491533317329
 51
86.52593611454837
  0
LINE
  5
36A
  8
DATA
  6
CONTINUOUS
 62
     7
 10
34.70000000001102
 20
-47.99988473118178
 30
0.0
 11
36.06525474348706
 21
14.09718585916603
 31
0.0
  0
LINE
  5
36B
  8
DATA
  6
CONTINUOUS
 62
     7
 10
77.80000000001093
 20
-47.99988473118178
 30
0.0
 11
76.43474525653443
 21
14.09718585920329
 31
0.0
  0
ARC
  5
36C
  8
DATA
  6
CONTINUOUS
 62
     7
 10
56.25000000001086
 20
-252.6053505643819
 30
0.0
 40
271.1054658332001
 50
86.52593611435134
 51
93.4740638856492
  0
ARC
  5
36D
  8
DATA
  6
CONTINUOUS
 62
     7
 10
40.06428834167588
 20
14.00926384388669
 30
0.0
 40
4.000000000026771
 50
93.47406388602984
 51
178.7405084666824
  0
ARC
  5
36E
  8
DATA
  6
CONTINUOUS
 62
     7
 10
72.43571165838608
 20
14.00926384392486
 30
0.0
 40
3.999999999986239
 50
1.259491533317329
 51
86.52593611454837
  0
ARC
  5
36F
  8
DATA
  6
CONTINUOUS
 62
     7
 10
-87.25
 20
-133.2416666666667
 30
0.0
 40
75.50833333333331
 50
252.4881336348895
 51
287.4629795249788
  0
ARC
  5
370
  8
DATA
  6
CONTINUOUS
 62
     7
 10
-87.25
 20
-241.7583333333333
 30
0.0
 40
75.50833333333334
 50
72.53702047502104
 51
107.5118663651105
  0
ARC
  5
371
  8
DATA
  6
CONTINUOUS
 62
     7
 10
-100.0312499999999
 20
-187.5
 30
0.0
 40
40.28124999999995
 50
335.5212126301429
 51
24.47878736985712
  0
ARC
  5
372
  8
DATA
  6
CONTINUOUS
 62
     7
 10
-78.97222222222217
 20
-187.5
 30
0.0
 40
36.27777777777781
 50
152.470760328182
 51
207.5292396718181
  0
ARC
  5
373
  8
DATA
  6
CONTINUOUS
 62
     7
 10
-109.368901154038
 20
-203.343230709007
 30
0.0
 40
2.000000000000036
 50
207.5292396718179
 51
252.4881336348903
  0
ARC
  5
374
  8
DATA
  6
CONTINUOUS
 62
     7
 10
-109.368901154038
 20
-171.6567692909931
 30
0.0
 40
2.00000000000008
 50
107.5118663651088
 51
152.4707603281807
  0
ARC
  5
375
  8
DATA
  6
CONTINUOUS
 62
     7
 10
-65.19092009073256
 20
-203.3620778391705
 30
0.0
 40
2.000000000000037
 50
287.4629795249787
 51
335.5212126301425
  0
ARC
  5
376
  8
DATA
  6
CONTINUOUS
 62
     7
 10
-65.19092009073267
 20
-171.6379221608297
 30
0.0
 40
2.00000000000025
 50
24.47878736986063
 51
72.53702047501962
  0
CIRCLE
  5
377
  8
DATA
  6
CONTINUOUS
 62
     7
 10
-87.25
 20
-187.5
 30
0.0
 40
9.75
  0
ARC
  5
378
  8
DATA
  6
CONTINUOUS
 62
     7
 10
-87.25
 20
-245.5583333333333
 30
0.0
 40
75.50833333333337
 50
74.62486563798218
 51
105.5779638571717
  0
ARC
  5
379
  8
DATA
  6
CONTINUOUS
 62
     7
 10
-87.25
 20
-129.4416666666667
 30
0.0
 40
75.50833333333335
 50
254.4220361428283
 51
285.3751343620178
  0
ARC
  5
37A
  8
DATA
  6
CONTINUOUS
 62
     7
 10
-75.17222222222222
 20
-187.5
 30
0.0
 40
36.27777777777773
 50
158.1638551149797
 51
201.8361448850202
  0
ARC
  5
37B
  8
DATA
  6
CONTINUOUS
 62
     7
 10
-103.8312499999998
 20
-187.5
 30
0.0
 40
40.28124999999986
 50
340.435469019355
 51
19.56453098064492
  0
ARC
  5
37C
  8
DATA
  6
CONTINUOUS
 62
     7
 10
-106.9906162598068
 20
-174.7502607771092
 30
0.0
 40
1.999999999999984
 50
105.5779638571711
 51
158.16385511498
  0
ARC
  5
37D
  8
DATA
  6
CONTINUOUS
 62
     7
 10
-67.76017049718223
 20
-174.680821981738
 30
0.0
 40
2.000000000000118
 50
19.56453098064625
 51
74.6248656379789
  0
ARC
  5
37E
  8
DATA
  6
CONTINUOUS
 62
     7
 10
-106.9906162598068
 20
-200.2497392228908
 30
0.0
 40
1.999999999999954
 50
201.8361448850201
 51
254.4220361428285
  0
ARC
  5
37F
  8
DATA
  6
CONTINUOUS
 62
     7
 10
-67.76017049718212
 20
-200.3191780182621
 30
0.0
 40
2.000000000000038
 50
285.3751343620185
 51
340.4354690193542
  0
CIRCLE
  5
380
  8
DATA
  6
CONTINUOUS
 62
     7
 10
-103.2500000000007
 20
-195.9250000000001
 30
0.0
 40
2.5
  0
LINE
  5
381
  8
DATA
  6
CONTINUOUS
 62
     7
 10
-104.3999999999999
 20
-195.9250000000001
 30
0.0
 11
-102.1
 21
-195.9250000000001
 31
0.0
  0
LINE
  5
382
  8
DATA
  6
CONTINUOUS
 62
     7
 10
-103.2500000000007
 20
-197.0750000000004
 30
0.0
 11
-103.2500000000007
 21
-194.7750000000004
 31
0.0
  0
CIRCLE
  5
383
  8
DATA
  6
CONTINUOUS
 62
     7
 10
-87.25
 20
-187.5
 30
0.0
 40
12.35000000000002
  0
ARC
  5
384
  8
DATA
  6
CONTINUOUS
 62
     7
 10
-87.25
 20
-187.5
 30
0.0
 40
7.999999999999927
 50
51.10045644322414
 51
43.93731780590855
  0
CIRCLE
  5
385
  8
DATA
  6
CONTINUOUS
 62
     7
 10
-83.34999999999991
 20
-187.5
 30
0.0
 40
1.200000000000045
  0
ARC
  5
386
  8
DATA
  6
CONTINUOUS
 62
     7
 10
-81.84722293630387
 20
-181.6000000000001
 30
0.0
 40
0.5000000000000435
 50
315.7281024652361
 51
139.3096717838995
  0
CIRCLE
  5
387
  8
DATA
  6
CONTINUOUS
 62
     7
 10
-87.24999999999989
 20
-190.8500540753542
 30
0.0
 40
1.200000000000045
  0
CIRCLE
  5
388
  8
DATA
  6
CONTINUOUS
 62
     7
 10
-91.14999999999998
 20
-187.5
 30
0.0
 40
1.199999999999989
  0
CIRCLE
  5
389
  8
DATA
  6
CONTINUOUS
 62
     7
 10
-71.24999999999994
 20
-177.9249999999998
 30
0.0
 40
2.5
  0
LINE
  5
38A
  8
DATA
  6
CONTINUOUS
 62
     7
 10
-72.39999999999912
 20
-177.9249999999998
 30
0.0
 11
-70.09999999999917
 21
-177.9249999999998
 31
0.0
  0
LINE
  5
38B
  8
DATA
  6
CONTINUOUS
 62
     7
 10
-71.24999999999994
 20
-179.0750000000001
 30
0.0
 11
-71.24999999999994
 21
-176.7750000000001
 31
0.0
  0
CIRCLE
  5
38C
  8
DATA
  6
CONTINUOUS
 62
     7
 10
-87.25
 20
-187.5
 30
0.0
 40
11.14999999999998
  0
CIRCLE
  5
38D
  8
DATA
  6
CONTINUOUS
 62
     7
 10
-87.25
 20
-187.5
 30
0.0
 40
13.0
  0
ARC
  5
38E
  8
DATA
  6
CONTINUOUS
 62
     7
 10
-70.728301886792
 20
-95.33142688679257
 30
0.0
 40
4.434101711241648
 50
148.2782469527532
 51
175.7134298354207
  0
LINE
  5
38F
  8
DATA
  6
CONTINUOUS
 62
     7
 10
-49.74999999999756
 20
38.50011526881822
 30
0.0
 11
-59.72819538290065
 21
28.66750194359
 31
0.0
  0
LINE
  5
390
  8
DATA
  6
CONTINUOUS
 62
     7
 10
-59.72819538290065
 20
28.66750194359
 30
0.0
 11
-56.34233314931327
 21
34.30252298901498
 31
0.0
  0
LINE
  5
391
  8
DATA
  6
CONTINUOUS
 62
     7
 10
-59.72819538290065
 20
28.66750194359
 30
0.0
 11
-53.97844215218716
 21
31.85464220299429
 31
0.0
  0
LINE
  5
392
  8
DATA
  6
STYLE_12
 62
     7
 10
-125.5
 20
24.41567118025016
 30
0.0
 11
-125.5
 21
-43.49988473118178
 31
0.0
  0
LINE
  5
393
  8
DATA
  6
STYLE_12
 62
     7
 10
-49.5
 20
24.41567118025016
 30
0.0
 11
-49.5
 21
-43.49988473118178
 31
0.0
  0
LINE
  5
394
  8
DATA
  6
STYLE_12
 62
     7
 10
-123.5426547937088
 20
-46.99988473118178
 30
0.0
 11
-51.45734520629105
 21
-46.99988473118178
 31
0.0
  0
LINE
  5
395
  8
DATA
  6
STYLE_12
 62
     7
 10
-125.5
 20
-43.49988473118178
 30
0.0
 11
-49.5
 21
-43.49988473118178
 31
0.0
  0
ARC
  5
396
  8
DATA
  6
STYLE_12
 62
     7
 10
-87.5
 20
-260.0498847311819
 30
0.0
 40
290.0500000000001
 50
83.08493660806954
 51
96.91506339193046
  0
LINE
  5
397
  8
DATA
  6
STYLE_12
 62
     7
 10
-125.5
 20
-43.49988473118178
 30
0.0
 11
-123.5426547937088
 21
-46.99988473118181
 31
0.0
  0
LINE
  5
398
  8
DATA
  6
STYLE_12
 62
     7
 10
-49.5
 20
-43.49988473118178
 30
0.0
 11
-51.45734520629105
 21
-46.99988473118181
 31
0.0
  0
ARC
  5
399
  8
DATA
  6
STYLE_12
 62
     7
 10
-122.0
 20
24.41567118025016
 30
0.0
 40
3.500000000000008
 50
96.91506339192942
 51
180.0
  0
ARC
  5
39A
  8
DATA
  6
STYLE_12
 62
     7
 10
-53.0
 20
24.41567118025016
 30
0.0
 40
3.5
 50
0.0
 51
83.08493660806874
  0
LINE
  5
39B
  8
DATA
  6
STYLE_12
 62
     7
 10
-33.04265479370895
 20
-46.99988473118181
 30
0.0
 11
20.04265479370895
 21
-46.99988473118181
 31
0.0
  0
LINE
  5
39C
  8
DATA
  6
STYLE_12
 62
     7
 10
-35.0
 20
25.40747197906312
 30
0.0
 11
-35.0
 21
-43.49988473118178
 31
0.0
  0
LINE
  5
39D
  8
DATA
  6
STYLE_12
 62
     7
 10
22.0
 20
25.40747197906312
 30
0.0
 11
22.0
 21
-43.49988473118181
 31
0.0
  0
LINE
  5
39E
  8
DATA
  6
STYLE_12
 62
     7
 10
-35.0
 20
-43.49988473118178
 30
0.0
 11
22.0
 21
-43.49988473118178
 31
0.0
  0
LINE
  5
39F
  8
DATA
  6
STYLE_12
 62
     7
 10
22.0
 20
-43.49988473118178
 30
0.0
 11
20.04265479370895
 21
-46.99988473118181
 31
0.0
  0
LINE
  5
3A0
  8
DATA
  6
STYLE_12
 62
     7
 10
-35.0
 20
-43.49988473118178
 30
0.0
 11
-33.04265479370895
 21
-46.99988473118181
 31
0.0
  0
ARC
  5
3A1
  8
DATA
  6
STYLE_12
 62
     7
 10
-6.5
 20
-260.0498847311819
 30
0.0
 40
290.0500000000001
 50
84.99487737031495
 51
95.00512262968506
  0
ARC
  5
3A2
  8
DATA
  6
STYLE_12
 62
     7
 10
-31.5
 20
25.40747197906312
 30
0.0
 40
3.499999999999959
 50
95.00512262968559
 51
180.0
  0
ARC
  5
3A3
  8
DATA
  6
STYLE_12
 62
     7
 10
18.5
 20
25.40747197906312
 30
0.0
 40
3.5
 50
0.0
 51
84.99487737031438
  0
LINE
  5
3A4
  8
DATA
  6
CONTINUOUS
 62
     7
 10
-97.0
 20
-137.5
 30
0.0
 11
-98.64999999999998
 21
-135.0
 31
0.0
  0
ARC
  5
3A5
  8
DATA
  6
CONTINUOUS
 62
     7
 10
-104.271698113208
 20
-95.33142688679257
 30
0.0
 40
4.434101711241639
 50
4.286570164579294
 51
31.72175304724677
  0
LINE
  5
3A6
  8
DATA
  6
CONTINUOUS
 62
     7
 10
-15.75
 20
-137.5
 30
0.0
 11
3.25
 21
-137.5
 31
0.0
  0
LINE
  5
3A7
  8
DATA
  6
CONTINUOUS
 62
     7
 10
-17.39999999999998
 20
-135.0000000000001
 30
0.0
 11
-18.60000000000002
 21
-95.0
 31
0.0
  0
LINE
  5
3A8
  8
DATA
  6
CONTINUOUS
 62
     7
 10
4.899999999999977
 20
-135.0
 30
0.0
 11
6.100000000000023
 21
-95.0
 31
0.0
  0
LINE
  5
3A9
  8
DATA
  6
CONTINUOUS
 62
     7
 10
-18.60000000000002
 20
-95.0
 30
0.0
 11
6.100000000000023
 21
-95.0
 31
0.0
  0
LINE
  5
3AA
  8
DATA
  6
CONTINUOUS
 62
     7
 10
3.25
 20
-137.5
 30
0.0
 11
4.899999999999977
 21
-135.0
 31
0.0
  0
LINE
  5
3AB
  8
DATA
  6
CONTINUOUS
 62
     7
 10
-17.39999999999998
 20
-135.0000000000001
 30
0.0
 11
4.899999999999977
 21
-135.0
 31
0.0
  0
ARC
  5
3AC
  8
DATA
  6
CONTINUOUS
 62
     7
 10
10.521698113208
 20
-95.33142688679257
 30
0.0
 40
4.434101711241648
 50
148.2782469527532
 51
175.7134298354207
  0
LINE
  5
3AD
  8
DATA
  6
CONTINUOUS
 62
     7
 10
-15.75
 20
-137.5
 30
0.0
 11
-17.39999999999998
 21
-135.0
 31
0.0
  0
ARC
  5
3AE
  8
DATA
  6
CONTINUOUS
 62
     7
 10
-23.021698113208
 20
-95.33142688679257
 30
0.0
 40
4.434101711241639
 50
4.286570164579294
 51
31.72175304724677
  0
LINE
  5
3AF
  8
DATA
  6
CONTINUOUS
 62
     7
 10
46.75
 20
-137.5
 30
0.0
 11
65.75
 21
-137.5
 31
0.0
  0
LINE
  5
3B0
  8
DATA
  6
CONTINUOUS
 62
     7
 10
45.10000000000002
 20
-135.0000000000001
 30
0.0
 11
43.89999999999998
 21
-95.0
 31
0.0
  0
LINE
  5
3B1
  8
DATA
  6
CONTINUOUS
 62
     7
 10
67.39999999999998
 20
-135.0
 30
0.0
 11
68.60000000000002
 21
-95.0
 31
0.0
  0
LINE
  5
3B2
  8
DATA
  6
CONTINUOUS
 62
     7
 10
43.89999999999998
 20
-95.0
 30
0.0
 11
68.60000000000002
 21
-95.0
 31
0.0
  0
LINE
  5
3B3
  8
DATA
  6
CONTINUOUS
 62
     7
 10
65.75
 20
-137.5
 30
0.0
 11
67.39999999999998
 21
-135.0
 31
0.0
  0
LINE
  5
3B4
  8
DATA
  6
CONTINUOUS
 62
     7
 10
45.10000000000002
 20
-135.0000000000001
 30
0.0
 11
67.39999999999998
 21
-135.0
 31
0.0
  0
ARC
  5
3B5
  8
DATA
  6
CONTINUOUS
 62
     7
 10
73.021698113208
 20
-95.33142688679257
 30
0.0
 40
4.434101711241648
 50
148.2782469527532
 51
175.7134298354207
  0
LINE
  5
3B6
  8
DATA
  6
CONTINUOUS
 62
     7
 10
46.75
 20
-137.5
 30
0.0
 11
45.10000000000002
 21
-135.0
 31
0.0
  0
ARC
  5
3B7
  8
DATA
  6
CONTINUOUS
 62
     7
 10
39.478301886792
 20
-95.33142688679257
 30
0.0
 40
4.434101711241639
 50
4.286570164579294
 51
31.72175304724677
  0
LINE
  5
3B8
  8
DATA
  6
CONTINUOUS
 62
     7
 10
109.25
 20
-137.5
 30
0.0
 11
128.25
 21
-137.5
 31
0.0
  0
LINE
  5
3B9
  8
DATA
  6
CONTINUOUS
 62
     7
 10
107.6
 20
-135.0000000000001
 30
0.0
 11
106.4
 21
-95.0
 31
0.0
  0
LINE
  5
3BA
  8
DATA
  6
CONTINUOUS
 62
     7
 10
129.9
 20
-135.0
 30
0.0
 11
131.1
 21
-95.0
 31
0.0
  0
LINE
  5
3BB
  8
DATA
  6
CONTINUOUS
 62
     7
 10
106.4
 20
-95.0
 30
0.0
 11
131.1
 21
-95.0
 31
0.0
  0
LINE
  5
3BC
  8
DATA
  6
CONTINUOUS
 62
     7
 10
128.25
 20
-137.5
 30
0.0
 11
129.9
 21
-135.0
 31
0.0
  0
LINE
  5
3BD
  8
DATA
  6
CONTINUOUS
 62
     7
 10
107.6
 20
-135.0000000000001
 30
0.0
 11
129.9
 21
-135.0
 31
0.0
  0
ARC
  5
3BE
  8
DATA
  6
CONTINUOUS
 62
     7
 10
135.521698113208
 20
-95.33142688679257
 30
0.0
 40
4.434101711241648
 50
148.2782469527532
 51
175.7134298354207
  0
LINE
  5
3BF
  8
DATA
  6
CONTINUOUS
 62
     7
 10
109.25
 20
-137.5
 30
0.0
 11
107.6
 21
-135.0
 31
0.0
  0
ARC
  5
3C0
  8
DATA
  6
CONTINUOUS
 62
     7
 10
101.978301886792
 20
-95.33142688679257
 30
0.0
 40
4.434101711241639
 50
4.286570164579294
 51
31.72175304724677
  0
TEXT
  5
3C1
  8
DATA
 62
     7
 10
-93.34759296047969
 20
-87.59020509770612
 30
0.0
 40
4.072102864583333
  1
C214
 41
0.7
 11
-93.34759296047969
 21
-83.51810223312279
 31
0.0
 73
     3
  0
POLYLINE
  5
3C2
  8
DATA
  6
CONTINUOUS
 62
     7
 66
     1
 10
0.0
 20
0.0
 30
0.0
 70
   129
  0
VERTEX
  5
462
  8
DATA
  6
CONTINUOUS
 62
     7
 10
115.45
 20
-73.14108623051065
 30
0.0
 42
-0.414213562373095
  0
VERTEX
  5
463
  8
DATA
  6
CONTINUOUS
 62
     7
 10
116.75
 20
-71.84108623051065
 30
0.0
  0
VERTEX
  5
464
  8
DATA
  6
CONTINUOUS
 62
     7
 10
120.7500000000001
 20
-71.84108623051065
 30
0.0
 42
-0.414213562373095
  0
VERTEX
  5
465
  8
DATA
  6
CONTINUOUS
 62
     7
 10
122.0500000000001
 20
-73.14108623051065
 30
0.0
  0
VERTEX
  5
466
  8
DATA
  6
CONTINUOUS
 62
     7
 10
122.0500000000001
 20
-80.54108623051066
 30
0.0
 42
-0.414213562373095
  0
VERTEX
  5
467
  8
DATA
  6
CONTINUOUS
 62
     7
 10
120.7500000000001
 20
-81.84108623051065
 30
0.0
  0
VERTEX
  5
468
  8
DATA
  6
CONTINUOUS
 62
     7
 10
116.75
 20
-81.84108623051065
 30
0.0
 42
-0.414213562373095
  0
VERTEX
  5
469
  8
DATA
  6
CONTINUOUS
 62
     7
 10
115.45
 20
-80.54108623051066
 30
0.0
  0
SEQEND
  5
47C
  8
DATA
  6
CONTINUOUS
 62
     7
  0
POLYLINE
  5
3CC
  8
DATA
  6
CONTINUOUS
 62
     7
 66
     1
 10
0.0
 20
0.0
 30
0.0
 70
     1
  0
VERTEX
  5
46A
  8
DATA
  6
CONTINUOUS
 62
     7
 10
117.25
 20
-72.9186164136926
 30
0.0
  0
VERTEX
  5
46B
  8
DATA
  6
CONTINUOUS
 62
     7
 10
120.25
 20
-72.9186164136926
 30
0.0
  0
VERTEX
  5
46C
  8
DATA
  6
CONTINUOUS
 62
     7
 10
120.25
 20
-80.9186164136926
 30
0.0
  0
VERTEX
  5
46D
  8
DATA
  6
CONTINUOUS
 62
     7
 10
117.25
 20
-80.9186164136926
 30
0.0
  0
SEQEND
  5
47D
  8
DATA
  6
CONTINUOUS
 62
     7
  0
LINE
  5
3D3
  8
DATA
  6
CONTINUOUS
 62
     7
 10
117.25
 20
-77.45031191358831
 30
0.0
 11
120.25
 21
-77.45031191358831
 31
0.0
  0
LINE
  5
3D4
  8
DATA
  6
CONTINUOUS
 62
     7
 10
117.25
 20
-75.45031191358831
 30
0.0
 11
120.25
 21
-75.45031191358831
 31
0.0
  0
TEXT
  5
3D5
  8
DATA
 62
     7
 10
108.4148168940409
 20
-79.58713482392818
 30
0.0
 40
1.628841145833333
  1
-20 dB
 41
0.7
 11
108.4148168940409
 21
-77.95829367809485
 31
0.0
 73
     3
  0
TEXT
  5
3D6
  8
DATA
 62
     7
 10
110.5104595721119
 20
-77.34989225659942
 30
0.0
 40
1.628841145833333
  1
0 dB
 41
0.7
 11
110.5104595721119
 21
-75.72105111076608
 31
0.0
 73
     3
  0
POLYLINE
  5
3D7
  8
DATA
  6
CONTINUOUS
 62
     7
 66
     1
 10
0.0
 20
0.0
 30
0.0
 70
   129
  0
VERTEX
  5
46E
  8
DATA
  6
CONTINUOUS
 62
     7
 10
-9.549999999999955
 20
-73.14108623051065
 30
0.0
 42
-0.414213562373095
  0
VERTEX
  5
46F
  8
DATA
  6
CONTINUOUS
 62
     7
 10
-8.249999999999954
 20
-71.84108623051065
 30
0.0
  0
VERTEX
  5
470
  8
DATA
  6
CONTINUOUS
 62
     7
 10
-4.249999999999932
 20
-71.84108623051065
 30
0.0
 42
-0.4142135623730952
  0
VERTEX
  5
471
  8
DATA
  6
CONTINUOUS
 62
     7
 10
-2.949999999999932
 20
-73.14108623051065
 30
0.0
  0
VERTEX
  5
472
  8
DATA
  6
CONTINUOUS
 62
     7
 10
-2.949999999999932
 20
-80.54108623051066
 30
0.0
 42
-0.414213562373095
  0
VERTEX
  5
473
  8
DATA
  6
CONTINUOUS
 62
     7
 10
-4.249999999999932
 20
-81.84108623051065
 30
0.0
  0
VERTEX
  5
474
  8
DATA
  6
CONTINUOUS
 62
     7
 10
-8.249999999999954
 20
-81.84108623051065
 30
0.0
 42
-0.4142135623730959
  0
VERTEX
  5
475
  8
DATA
  6
CONTINUOUS
 62
     7
 10
-9.549999999999955
 20
-80.54108623051066
 30
0.0
  0
SEQEND
  5
47E
  8
DATA
  6
CONTINUOUS
 62
     7
  0
POLYLINE
  5
3E1
  8
DATA
  6
CONTINUOUS
 62
     7
 66
     1
 10
0.0
 20
0.0
 30
0.0
 70
     1
  0
VERTEX
  5
476
  8
DATA
  6
CONTINUOUS
 62
     7
 10
-7.75
 20
-72.9186164136926
 30
0.0
  0
VERTEX
  5
477
  8
DATA
  6
CONTINUOUS
 62
     7
 10
-4.75
 20
-72.9186164136926
 30
0.0
  0
VERTEX
  5
478
  8
DATA
  6
CONTINUOUS
 62
     7
 10
-4.75
 20
-80.9186164136926
 30
0.0
  0
VERTEX
  5
479
  8
DATA
  6
CONTINUOUS
 62
     7
 10
-7.75
 20
-80.9186164136926
 30
0.0
  0
SEQEND
  5
47F
  8
DATA
  6
CONTINUOUS
 62
     7
  0
LINE
  5
3E8
  8
DATA
  6
CONTINUOUS
 62
     7
 10
-7.75
 20
-77.45031191358831
 30
0.0
 11
-4.75
 21
-77.45031191358831
 31
0.0
  0
LINE
  5
3E9
  8
DATA
  6
CONTINUOUS
 62
     7
 10
-7.75
 20
-75.45031191358831
 30
0.0
 11
-4.75
 21
-75.45031191358831
 31
0.0
  0
LINE
  5
3EA
  8
DATA
  6
CONTINUOUS
 62
     7
 10
-2.173993608655451
 20
-76.38459929041676
 30
0.0
 11
0.8260063913445492
 21
-76.38459929041676
 31
0.0
  0
LINE
  5
3EB
  8
DATA
  6
CONTINUOUS
 62
     7
 10
-1.223993608655519
 20
-78.38459929041676
 30
0.0
 11
0.8260063913445492
 21
-78.38459929041676
 31
0.0
  0
LINE
  5
3EC
  8
DATA
  6
CONTINUOUS
 62
     7
 10
-1.223993608655519
 20
-78.38459929041676
 30
0.0
 11
-2.173993608655451
 21
-79.33459929041675
 31
0.0
  0
TEXT
  5
3ED
  8
DATA
 62
     7
 10
93.75
 20
-226.778
 30
0.0
 40
3.800629340277778
  1
サイドアドレス型マイクロホン
 41
0.7
 11
93.75
 21
-222.9773706597222
 31
0.0
 73
     3
  0
ENDSEC
  0
EOF
