  0
SECTION
  2
HEADER
  9
$ACADVER
  1
AC1009
  9
$INSBASE
 10
0.0
 20
0.0
 30
0.0
  9
$EXTMIN
 10
-90.005492744973765
 20
-137.60869252656241
 30
-0.0015258207003583
  9
$EXTMAX
 10
90.005493583164025
 20
130.00815075700859
 30
0.0000000349246037
  9
$LIMMIN
 10
0.0
 20
0.0
  9
$LIMMAX
 10
0.0
 20
0.0
  9
$ORTHOMODE
 70
     0
  9
$REGENMODE
 70
     1
  9
$FILLMODE
 70
     1
  9
$QTEXTMODE
 70
     0
  9
$MIRRTEXT
 70
     1
  9
$DRAGMODE
 70
     2
  9
$LTSCALE
 40
5.0800000000000001
  9
$OSMODE
 70
   231
  9
$ATTMODE
 70
     1
  9
$TEXTSIZE
 40
0.0
  9
$TRACEWID
 40
1.0
  9
$TEXTSTYLE
  7
STANDARD
  9
$CLAYER
  8
DATA
  9
$CELTYPE
  6
BYLAYER
  9
$CECOLOR
 62
   256
  9
$DIMSCALE
 40
1.0
  9
$DIMASZ
 40
0.18
  9
$DIMEXO
 40
0.0625
  9
$DIMDLI
 40
0.38
  9
$DIMRND
 40
0.0
  9
$DIMDLE
 40
0.0
  9
$DIMEXE
 40
0.18
  9
$DIMTP
 40
0.0
  9
$DIMTM
 40
0.0
  9
$DIMTXT
 40
0.18
  9
$DIMCEN
 40
0.09
  9
$DIMTSZ
 40
0.0
  9
$DIMTOL
 70
     0
  9
$DIMLIM
 70
     0
  9
$DIMTIH
 70
     1
  9
$DIMTOH
 70
     1
  9
$DIMSE1
 70
     0
  9
$DIMSE2
 70
     0
  9
$DIMTAD
 70
     0
  9
$DIMZIN
 70
     0
  9
$DIMBLK
  1

  9
$DIMASO
 70
     1
  9
$DIMSHO
 70
     1
  9
$DIMPOST
  1

  9
$DIMAPOST
  1

  9
$DIMALT
 70
     0
  9
$DIMALTD
 70
     2
  9
$DIMALTF
 40
25.399999999999999
  9
$DIMLFAC
 40
1.0
  9
$DIMTOFL
 70
     0
  9
$DIMTVP
 40
0.0
  9
$DIMTIX
 70
     0
  9
$DIMSOXD
 70
     0
  9
$DIMSAH
 70
     0
  9
$DIMBLK1
  1

  9
$DIMBLK2
  1

  9
$DIMSTYLE
  2
STANDARD
  9
$DIMCLRD
 70
     0
  9
$DIMCLRE
 70
     0
  9
$DIMCLRT
 70
     0
  9
$DIMTFAC
 40
1.0
  9
$DIMGAP
 40
0.09
  9
$LUNITS
 70
     2
  9
$LUPREC
 70
     4
  9
$SKETCHINC
 40
0.1
  9
$FILLETRAD
 40
0.0
  9
$AUNITS
 70
     0
  9
$AUPREC
 70
     0
  9
$MENU
  1
acad
  9
$ELEVATION
 40
0.0
  9
$PELEVATION
 40
0.0
  9
$THICKNESS
 40
0.0
  9
$LIMCHECK
 70
     0
  9
$BLIPMODE
 70
     0
  9
$CHAMFERA
 40
0.0
  9
$CHAMFERB
 40
0.0
  9
$SKPOLY
 70
     0
  9
$TDCREATE
 40
2456279.497476852
  9
$TDUPDATE
 40
2456279.5018115048
  9
$TDINDWG
 40
0.0007407639
  9
$TDUSRTIMER
 40
0.0007380671
  9
$USRTIMER
 70
     1
  9
$ANGBASE
 50
0.0
  9
$ANGDIR
 70
     0
  9
$PDMODE
 70
     1
  9
$PDSIZE
 40
-2.0
  9
$PLINEWID
 40
0.0
  9
$COORDS
 70
     2
  9
$SPLFRAME
 70
     0
  9
$SPLINETYPE
 70
     6
  9
$SPLINESEGS
 70
     8
  9
$ATTDIA
 70
     0
  9
$ATTREQ
 70
     1
  9
$HANDLING
 70
     1
  9
$HANDSEED
  5
273
  9
$SURFTAB1
 70
     6
  9
$SURFTAB2
 70
     6
  9
$SURFTYPE
 70
     6
  9
$SURFU
 70
     6
  9
$SURFV
 70
     6
  9
$UCSNAME
  2

  9
$UCSORG
 10
0.0
 20
0.0
 30
0.0
  9
$UCSXDIR
 10
1.0
 20
0.0
 30
0.0
  9
$UCSYDIR
 10
0.0
 20
1.0
 30
0.0
  9
$PUCSNAME
  2

  9
$PUCSORG
 10
0.0
 20
0.0
 30
0.0
  9
$PUCSXDIR
 10
1.0
 20
0.0
 30
0.0
  9
$PUCSYDIR
 10
0.0
 20
1.0
 30
0.0
  9
$USERI1
 70
     0
  9
$USERI2
 70
     0
  9
$USERI3
 70
     0
  9
$USERI4
 70
     0
  9
$USERI5
 70
     0
  9
$USERR1
 40
0.0
  9
$USERR2
 40
0.0
  9
$USERR3
 40
0.0
  9
$USERR4
 40
0.0
  9
$USERR5
 40
0.0
  9
$WORLDVIEW
 70
     1
  9
$SHADEDGE
 70
     3
  9
$SHADEDIF
 70
    70
  9
$TILEMODE
 70
     1
  9
$MAXACTVP
 70
    64
  9
$PLIMCHECK
 70
     0
  9
$PEXTMIN
 10
1.0000000000000000E+020
 20
1.0000000000000000E+020
 30
1.0000000000000000E+020
  9
$PEXTMAX
 10
-1.0000000000000000E+020
 20
-1.0000000000000000E+020
 30
-1.0000000000000000E+020
  9
$PLIMMIN
 10
0.0
 20
0.0
  9
$PLIMMAX
 10
12.0
 20
9.0
  9
$UNITMODE
 70
     0
  9
$VISRETAIN
 70
     0
  9
$PLINEGEN
 70
     1
  9
$PSLTSCALE
 70
     0
  0
ENDSEC
  0
SECTION
  2
TABLES
  0
TABLE
  2
VPORT
 70
     1
  0
VPORT
  2
*ACTIVE
 70
     0
 10
0.0
 20
0.0
 11
1.0
 21
1.0
 12
0.0000004190951302
 22
-3.5318143781938138
 13
0.0
 23
0.0
 14
1.0
 24
1.0
 15
0.0
 25
0.0
 16
0.0
 26
0.0
 36
1.0
 17
0.0
 27
0.0
 37
0.0
 40
269.65626400291683
 41
2.5684380032206109
 42
50.0
 43
0.0
 44
0.0
 50
0.0
 51
0.0
 71
     0
 72
  2000
 73
     1
 74
     1
 75
     0
 76
     0
 77
     0
 78
     0
  0
ENDTAB
  0
TABLE
  2
LTYPE
 70
    12
  0
LTYPE
  2
CONTINUOUS
 70
     0
  3
Solid line
 72
    65
 73
     0
 40
0.0
  0
LTYPE
  2
PHANTOM2
 70
     0
  3
___ _ _ ___ _ _ ___ _ _ ___ _ _
 72
    65
 73
     6
 40
1.25
 49
0.625
 49
-0.125
 49
0.125
 49
-0.125
 49
0.125
 49
-0.125
  0
LTYPE
  2
STYLE_01
 70
     0
  3

 72
    65
 73
     2
 40
0.4166412353515625
 49
0.208282470703125
 49
-0.2083587646484375
  0
ENDTAB
  0
TABLE
  2
LAYER
 70
     6
  0
LAYER
  2
0
 70
     0
 62
     7
  6
CONTINUOUS
  0
LAYER
  2
DATA
 70
     0
 62
     7
  6
CONTINUOUS
  0
LAYER
  2
HIBINO-BASE
 70
     0
 62
     7
  6
CONTINUOUS
  0
LAYER
  2
PATTERN_FILL
 70
     0
 62
     7
  6
CONTINUOUS
  0
LAYER
  2
SPEC
 70
     0
 62
     7
  6
CONTINUOUS
  0
LAYER
  2
DIMNSIONS
 70
     0
 62
     7
  6
CONTINUOUS
  0
ENDTAB
  0
TABLE
  2
STYLE
 70
     3
  0
STYLE
  2
STANDARD
 70
     0
 40
0.0
 41
1.0
 50
0.0
 71
     0
 42
0.0
  3
txt
  4
BIGFONT.SHX
  0
ENDTAB
  0
TABLE
  2
VIEW
 70
     0
  0
ENDTAB
  0
TABLE
  2
UCS
 70
     0
  0
ENDTAB
  0
TABLE
  2
APPID
 70
     4
  0
APPID
  2
ACAD
 70
     0
  0
APPID
  2
ACADANNOTATIVE
 70
     0
  0
APPID
  2
ACAD_NAV_VCDISPLAY
 70
     0
  0
APPID
  2
ACAD_MLEADERVER
 70
     0
  0
ENDTAB
  0
TABLE
  2
DIMSTYLE
 70
     2
  0
DIMSTYLE
  2
STANDARD
 70
     0
  3

  4

  5

  6

  7

 40
1.0
 41
0.18
 42
0.0625
 43
0.38
 44
0.18
 45
0.0
 46
0.0
 47
0.0
 48
0.0
140
0.18
141
0.09
142
0.0
143
25.399999999999999
144
1.0
145
0.0
146
1.0
147
0.09
 71
     0
 72
     0
 73
     1
 74
     1
 75
     0
 76
     0
 77
     0
 78
     0
170
     0
171
     2
172
     0
173
     0
174
     0
175
     0
176
     0
177
     0
178
     0
  0
ENDTAB
  0
ENDSEC
  0
SECTION
  2
BLOCKS
  0
BLOCK
  8
0
  2
$MODEL_SPACE
 70
     0
 10
0.0
 20
0.0
 30
0.0
  3
$MODEL_SPACE
  1

  0
ENDBLK
  5
1A3
  8
0
  0
BLOCK
 67
     1
  8
0
  2
$PAPER_SPACE
 70
     0
 10
0.0
 20
0.0
 30
0.0
  3
$PAPER_SPACE
  1

  0
ENDBLK
  5
19F
 67
     1
  8
0
  0
ENDSEC
  0
SECTION
  2
ENTITIES
  0
LINE
  5
2D
  8
HIBINO-BASE
  6
CONTINUOUS
 62
     7
 10
-90.0
 20
130.0
 30
0.0
 11
90.0
 21
130.0
 31
0.0
  0
LINE
  5
2E
  8
HIBINO-BASE
  6
CONTINUOUS
 62
     7
 10
90.0
 20
-130.0
 30
0.0
 11
-90.0
 21
-130.0
 31
0.0
  0
LINE
  5
2F
  8
HIBINO-BASE
  6
CONTINUOUS
 62
     7
 10
-90.0
 20
-130.0
 30
0.0
 11
-90.0
 21
130.0
 31
0.0
  0
LINE
  5
30
  8
HIBINO-BASE
  6
CONTINUOUS
 62
     7
 10
90.0
 20
130.0
 30
0.0
 11
90.0
 21
-130.0
 31
0.0
  0
LINE
  5
31
  8
HIBINO-BASE
  6
CONTINUOUS
 62
     7
 10
0.0
 20
-107.4999999999999
 30
0.0
 11
90.0
 21
-107.4999999999999
 31
0.0
  0
LINE
  5
32
  8
HIBINO-BASE
  6
CONTINUOUS
 62
     7
 10
0.0
 20
-130.0
 30
0.0
 11
0.0
 21
-107.4999999999999
 31
0.0
  0
TEXT
  5
33
  8
HIBINO-BASE
 62
     7
 10
0.9000000000000339
 20
-110.0086933333333
 30
0.0
 40
1.6288411458333329
  1
NOTE
 41
0.7
 11
0.9000000000000341
 21
-108.37985218749991
 31
0.0
 73
     3
  0
LINE
  5
34
  8
HIBINO-BASE
  6
CONTINUOUS
 62
     7
 10
35.0
 20
-130.0
 30
0.0
 11
35.0
 21
-107.4999999999999
 31
0.0
  0
TEXT
  5
35
  8
HIBINO-BASE
 62
     7
 10
35.899999999999977
 20
-110.0086933333333
 30
0.0
 40
1.6288411458333329
  1
TITLE
 41
0.7
 11
35.899999999999977
 21
-108.37985218749991
 31
0.0
 73
     3
  0
LINE
  5
36
  8
HIBINO-BASE
  6
CONTINUOUS
 62
     7
 10
0.0
 20
-119.9999999999999
 30
0.0
 11
90.0
 21
-119.9999999999999
 31
0.0
  0
TEXT
  5
37
  8
HIBINO-BASE
 62
     7
 10
48.399999999999977
 20
-122.4523733333333
 30
0.0
 40
1.6288411458333329
  1
DRAWN
 41
0.7
 11
48.399999999999977
 21
-120.82353218749989
 31
0.0
 73
     3
  0
TEXT
  5
38
  8
HIBINO-BASE
 62
     7
 10
23.399999999999981
 20
-122.4523733333333
 30
0.0
 40
1.6288411458333329
  1
DATE
 41
0.7
 11
23.399999999999981
 21
-120.82353218749989
 31
0.0
 73
     3
  0
TEXT
  5
39
  8
HIBINO-BASE
 62
     7
 10
13.39999999999997
 20
-122.4523733333333
 30
0.0
 40
1.6288411458333329
  1
SCALE
 41
0.7
 11
13.39999999999997
 21
-120.82353218749989
 31
0.0
 73
     3
  0
TEXT
  5
3A
  8
HIBINO-BASE
 62
     7
 10
35.899999999999977
 20
-122.4523733333333
 30
0.0
 40
1.6288411458333329
  1
DESIGN
 41
0.7
 11
35.899999999999977
 21
-120.82353218749989
 31
0.0
 73
     3
  0
TEXT
  5
3B
  8
HIBINO-BASE
 62
     7
 10
73.399999999999977
 20
-122.4523733333333
 30
0.0
 40
1.6288411458333329
  1
DRAWING NO.
 41
0.7
 11
73.399999999999977
 21
-120.82353218749989
 31
0.0
 73
     3
  0
TEXT
  5
3C
  8
HIBINO-BASE
 62
     7
 10
60.899999999999977
 20
-122.4523733333333
 30
0.0
 40
1.6288411458333329
  1
CHECK
 41
0.7
 11
60.899999999999977
 21
-120.82353218749989
 31
0.0
 73
     3
  0
LINE
  5
3D
  8
HIBINO-BASE
  6
CONTINUOUS
 62
     7
 10
14.375
 20
-128.74999999999989
 30
0.0
 11
18.125
 21
-124.9999999999999
 31
0.0
  0
TEXT
  5
3E
  8
HIBINO-BASE
 62
     7
 10
13.75
 20
-126.1089433333333
 30
0.0
 40
1.6288411458333329
  1
1
 41
0.7
 11
13.75
 21
-124.48010218749999
 31
0.0
 73
     3
  0
LINE
  5
3F
  8
HIBINO-BASE
  6
CONTINUOUS
 62
     7
 10
12.5
 20
-130.0
 30
0.0
 11
12.5
 21
-119.9999999999999
 31
0.0
  0
LINE
  5
40
  8
HIBINO-BASE
  6
CONTINUOUS
 62
     7
 10
22.5
 20
-130.0
 30
0.0
 11
22.5
 21
-119.9999999999999
 31
0.0
  0
LINE
  5
41
  8
HIBINO-BASE
  6
CONTINUOUS
 62
     7
 10
47.5
 20
-119.9999999999999
 30
0.0
 11
47.5
 21
-130.0
 31
0.0
  0
LINE
  5
42
  8
HIBINO-BASE
  6
CONTINUOUS
 62
     7
 10
72.5
 20
-119.9999999999999
 30
0.0
 11
72.5
 21
-130.0
 31
0.0
  0
LINE
  5
43
  8
HIBINO-BASE
  6
CONTINUOUS
 62
     7
 10
60.0
 20
-130.0
 30
0.0
 11
60.0
 21
-119.9999999999999
 31
0.0
  0
TEXT
  5
44
  8
HIBINO-BASE
 62
     7
 10
23.356539999999988
 20
-127.1363533333333
 30
0.0
 40
1.6288411458333329
  1
'12.12.
 41
0.7
 11
23.356539999999988
 21
-125.5075121874999
 31
0.0
 73
     3
  0
TEXT
  5
45
  8
HIBINO-BASE
 62
     7
 10
17.5
 20
-127.9839433333333
 30
0.0
 40
1.6288411458333329
  1
1
 41
0.7
 11
17.5
 21
-126.35510218749999
 31
0.0
 73
     3
  0
TEXT
  5
46
  8
HIBINO-BASE
 62
     7
 10
49.005810011034612
 20
-127.1363533333333
 30
0.0
 40
1.6288411458333329
  1
N.Sasaki
 41
0.7
 11
49.005810011034612
 21
-125.5075121874999
 31
0.0
 73
     3
  0
TEXT
  5
47
  8
HIBINO-BASE
 62
     7
 10
3.8833333333333822
 20
-128.02399999999989
 30
0.0
 40
3.2576822916666659
  1
A4
 41
0.7
 11
3.8833333333333822
 21
-124.7663177083333
 31
0.0
 73
     3
  0
TEXT
  5
48
  8
HIBINO-BASE
 62
     7
 10
0.9583333333333142
 20
-122.6194549999999
 30
0.0
 40
1.6288411458333329
  1
PAPER SIZE
 41
0.7
 11
0.9583333333333143
 21
-120.9906138541666
 31
0.0
 73
     3
  0
TEXT
  5
49
  8
HIBINO-BASE
 62
     7
 10
-82.815999999999974
 20
-136.40867779999991
 30
0.0
 40
3.6000441796875
  1
Hibino Corporation
 41
0.7
 11
-82.815999999999974
 21
-132.80863362031241
 31
0.0
 73
     3
  0
TEXT
  5
4A
  8
HIBINO-BASE
 62
     7
 10
50.068390000000022
 20
-136.40867779999991
 30
0.0
 40
3.6000441796875
  1
ヒビノ株式会社
 41
0.7
 11
50.068390000000022
 21
-132.80863362031241
 31
0.0
 73
     3
  0
LINE
  5
4B
  8
PATTERN_FILL
  6
STYLE_01
 62
     7
 10
-30.0
 20
46.999999999999993
 30
0.0
 11
-30.0
 21
52.999999999999993
 31
0.0
  0
LINE
  5
4C
  8
PATTERN_FILL
  6
STYLE_01
 62
     7
 10
-29.0
 20
47.171572875253801
 30
0.0
 11
-29.0
 21
52.828427124746177
 31
0.0
  0
LINE
  5
4D
  8
PATTERN_FILL
  6
STYLE_01
 62
     7
 10
-28.0
 20
47.763932022500192
 30
0.0
 11
-28.0
 21
52.236067977499779
 31
0.0
  0
LINE
  5
4E
  8
PATTERN_FILL
  6
STYLE_01
 62
     7
 10
-31.0
 20
47.171572875253801
 30
0.0
 11
-31.0
 21
52.828427124746177
 31
0.0
  0
LINE
  5
4F
  8
PATTERN_FILL
  6
STYLE_01
 62
     7
 10
-32.0
 20
47.763932022500192
 30
0.0
 11
-32.0
 21
52.236067977499779
 31
0.0
  0
LINE
  5
50
  8
PATTERN_FILL
  6
STYLE_01
 62
     7
 10
-32.236067977499793
 20
51.999999999999993
 30
0.0
 11
-27.76393202250021
 21
51.999999999999993
 31
0.0
  0
LINE
  5
51
  8
PATTERN_FILL
  6
STYLE_01
 62
     7
 10
-32.236067977499793
 20
47.999999999999993
 30
0.0
 11
-27.76393202250021
 21
47.999999999999993
 31
0.0
  0
LINE
  5
52
  8
PATTERN_FILL
  6
STYLE_01
 62
     7
 10
-33.0
 20
50.0
 30
0.0
 11
-27.0
 21
50.0
 31
0.0
  0
LINE
  5
53
  8
PATTERN_FILL
  6
STYLE_01
 62
     7
 10
-32.828427124746177
 20
50.999999999999993
 30
0.0
 11
-27.171572875253808
 21
50.999999999999993
 31
0.0
  0
LINE
  5
54
  8
PATTERN_FILL
  6
STYLE_01
 62
     7
 10
-32.828427124746177
 20
48.999999999999993
 30
0.0
 11
-27.171572875253808
 21
48.999999999999993
 31
0.0
  0
LINE
  5
55
  8
SPEC
  6
CONTINUOUS
 62
     7
 10
-82.499999999999986
 20
120.0
 30
0.0
 11
65.000000000000014
 21
120.0
 31
0.0
  0
LINE
  5
56
  8
SPEC
  6
CONTINUOUS
 62
     7
 10
-82.499999999999986
 20
116.25
 30
0.0
 11
65.000000000000014
 21
116.25
 31
0.0
  0
LINE
  5
57
  8
SPEC
  6
CONTINUOUS
 62
     7
 10
-82.499999999999986
 20
101.25
 30
0.0
 11
65.000000000000014
 21
101.25
 31
0.0
  0
LINE
  5
58
  8
SPEC
  6
CONTINUOUS
 62
     7
 10
-82.499999999999986
 20
105.0
 30
0.0
 11
65.000000000000014
 21
105.0
 31
0.0
  0
LINE
  5
59
  8
SPEC
  6
CONTINUOUS
 62
     7
 10
-82.499999999999986
 20
108.75
 30
0.0
 11
65.000000000000014
 21
108.75
 31
0.0
  0
LINE
  5
5A
  8
SPEC
  6
CONTINUOUS
 62
     7
 10
-82.499999999999986
 20
112.5
 30
0.0
 11
65.000000000000014
 21
112.5
 31
0.0
  0
TEXT
  5
5B
  8
SPEC
 62
     7
 10
-49.099999999999987
 20
117.0379216
 30
0.0
 40
1.900311249999999
  1
コンデンサー型 
 41
0.7
 11
-49.099999999999987
 21
118.93823285000001
 31
0.0
 73
     3
  0
LINE
  5
5C
  8
SPEC
  6
CONTINUOUS
 62
     7
 10
-82.499999999999986
 20
120.0
 30
0.0
 11
-82.499999999999986
 21
86.250000000000014
 31
0.0
  0
TEXT
  5
5D
  8
SPEC
 62
     7
 10
-81.249999999999986
 20
121.39327
 30
0.0
 40
2.4432617187500001
  1
仕様
 41
0.7
 11
-81.249999999999986
 21
123.83653171875
 31
0.0
 73
     3
  0
LINE
  5
5E
  8
SPEC
  6
CONTINUOUS
 62
     7
 10
-50.0
 20
120.0
 30
0.0
 11
-50.0
 21
86.250000000000014
 31
0.0
  0
LINE
  5
5F
  8
SPEC
  6
CONTINUOUS
 62
     7
 10
65.000000000000014
 20
120.0
 30
0.0
 11
65.000000000000014
 21
86.250000000000014
 31
0.0
  0
TEXT
  5
60
  8
SPEC
 62
     7
 10
-81.59999999999998
 20
87.037921600000047
 30
0.0
 40
1.900311249999999
  1
付属品
 41
0.7
 11
-81.59999999999998
 21
88.938232850000034
 31
0.0
 73
     3
  0
TEXT
  5
61
  8
SPEC
 62
     7
 10
-81.59999999999998
 20
94.537917777777821
 30
0.0
 40
1.900314670138888
  1
寸法(\U+03C6\U+00D7全長)
 41
0.7
 11
-81.59999999999998
 21
96.438232447916704
 31
0.0
 73
     3
  0
TEXT
  5
62
  8
SPEC
 62
     7
 10
-81.59999999999998
 20
90.787921600000047
 30
0.0
 40
1.900311249999999
  1
質量
 41
0.7
 11
-81.59999999999998
 21
92.688232850000034
 31
0.0
 73
     3
  0
TEXT
  5
63
  8
SPEC
 62
     7
 10
-81.59999999999998
 20
117.0379216
 30
0.0
 40
1.900311249999999
  1
形式
 41
0.7
 11
-81.59999999999998
 21
118.93823285000001
 31
0.0
 73
     3
  0
TEXT
  5
64
  8
SPEC
 62
     7
 10
-81.59999999999998
 20
113.2879216
 30
0.0
 40
1.900311249999999
  1
指向特性
 41
0.7
 11
-81.59999999999998
 21
115.18823285000001
 31
0.0
 73
     3
  0
TEXT
  5
65
  8
SPEC
 62
     7
 10
-49.099999999999987
 20
87.037921600000047
 30
0.0
 40
1.900311249999999
  1
ウインドスクリーン
 41
0.7
 11
-49.099999999999987
 21
88.938232850000034
 31
0.0
 73
     3
  0
TEXT
  5
66
  8
SPEC
 62
     7
 10
-49.099999999999987
 20
94.537917777777821
 30
0.0
 40
1.900314670138888
  1
\U+03C69.1\U+00D720.0mm
 41
0.7
 11
-49.099999999999987
 21
96.438232447916704
 31
0.0
 73
     3
  0
TEXT
  5
67
  8
SPEC
 62
     7
 10
-49.099999999999987
 20
90.787921600000047
 30
0.0
 40
1.900311249999999
  1
4g
 41
0.7
 11
-49.099999999999987
 21
92.688232850000034
 31
0.0
 73
     3
  0
TEXT
  5
68
  8
SPEC
 62
     7
 10
-49.099999999999987
 20
113.2879216
 30
0.0
 40
1.900311249999999
  1
カーディオイド
 41
0.7
 11
-49.099999999999987
 21
115.18823285000001
 31
0.0
 73
     3
  0
LINE
  5
69
  8
SPEC
  6
CONTINUOUS
 62
     7
 10
-82.499999999999986
 20
97.5
 30
0.0
 11
65.000000000000014
 21
97.5
 31
0.0
  0
LINE
  5
6A
  8
SPEC
  6
CONTINUOUS
 62
     7
 10
-82.499999999999986
 20
93.75
 30
0.0
 11
65.000000000000014
 21
93.75
 31
0.0
  0
LINE
  5
6B
  8
SPEC
  6
CONTINUOUS
 62
     7
 10
-82.499999999999986
 20
90.000000000000014
 30
0.0
 11
65.000000000000014
 21
90.000000000000014
 31
0.0
  0
LINE
  5
6C
  8
SPEC
  6
CONTINUOUS
 62
     7
 10
-82.499999999999986
 20
86.250000000000014
 30
0.0
 11
65.000000000000014
 21
86.250000000000014
 31
0.0
  0
TEXT
  5
6D
  8
SPEC
 62
     7
 10
-81.59999999999998
 20
109.5379216
 30
0.0
 40
1.900311249999999
  1
周波数特性
 41
0.7
 11
-81.59999999999998
 21
111.43823285000001
 31
0.0
 73
     3
  0
TEXT
  5
6E
  8
SPEC
 62
     7
 10
-49.099999999999987
 20
109.5379216
 30
0.0
 40
1.900311249999999
  1
60Hz～22kHz
 41
0.7
 11
-49.099999999999987
 21
111.43823285000001
 31
0.0
 73
     3
  0
TEXT
  5
6F
  8
SPEC
 62
     7
 10
-81.59999999999998
 20
105.7879216
 30
0.0
 40
1.900311249999999
  1
開回路感度
 41
0.7
 11
-81.59999999999998
 21
107.68823285000001
 31
0.0
 73
     3
  0
TEXT
  5
70
  8
SPEC
 62
     7
 10
-49.099999999999987
 20
105.7879216
 30
0.0
 40
1.900311249999999
  1
-46dB re 1V/Pa
 41
0.7
 11
-49.099999999999987
 21
107.68823285000001
 31
0.0
 73
     3
  0
TEXT
  5
71
  8
SPEC
 62
     7
 10
-81.59999999999998
 20
102.0379216
 30
0.0
 40
1.900311249999999
  1
最大音圧レベル
 41
0.7
 11
-81.59999999999998
 21
103.93823285000001
 31
0.0
 73
     3
  0
TEXT
  5
72
  8
SPEC
 62
     7
 10
-49.099999999999987
 20
102.0379216
 30
0.0
 40
1.900311249999999
  1
142dB SPL(THD 3%%%)
 41
0.7
 11
-49.099999999999987
 21
103.93823285000001
 31
0.0
 73
     3
  0
TEXT
  5
73
  8
SPEC
 62
     7
 10
-81.59999999999998
 20
98.287921600000018
 30
0.0
 40
1.900311249999999
  1
等価雑音レベル
 41
0.7
 11
-81.59999999999998
 21
100.18823285000001
 31
0.0
 73
     3
  0
TEXT
  5
74
  8
SPEC
 62
     7
 10
-49.099999999999987
 20
98.287921600000018
 30
0.0
 40
1.900311249999999
  1
21dB SPL(Aウェイト）
 41
0.7
 11
-49.099999999999987
 21
100.18823285000001
 31
0.0
 73
     3
  0
TEXT
  5
75
  8
DIMNSIONS
 62
     7
 10
-20.0
 20
-117.7305099999999
 30
0.0
 40
2.4432617187500001
  1
(単位：mm)
 41
0.7
 11
-20.0
 21
-115.2872482812499
 31
0.0
 73
     3
  0
LINE
  5
76
  8
DIMNSIONS
  6
CONTINUOUS
 62
     7
 10
-35.349999999999987
 20
20.0
 30
0.0
 11
-47.0
 21
20.0
 31
0.0
  0
LINE
  5
77
  8
DIMNSIONS
  6
CONTINUOUS
 62
     7
 10
-36.52500000000002
 20
0.0
 30
0.0
 11
-47.0
 21
0.0
 31
0.0
  0
LINE
  5
78
  8
DIMNSIONS
  6
CONTINUOUS
 62
     7
 10
-45.0
 20
20.0
 30
0.0
 11
-45.0
 21
0.0
 31
0.0
  0
LINE
  5
79
  8
DIMNSIONS
  6
CONTINUOUS
 62
     7
 10
-45.0
 20
20.0
 30
0.0
 11
-44.329960204849748
 21
17.499377441406249
 31
0.0
  0
LINE
  5
7A
  8
DIMNSIONS
  6
CONTINUOUS
 62
     7
 10
-45.0
 20
20.0
 30
0.0
 11
-45.670039795150252
 21
17.499377441406249
 31
0.0
  0
LINE
  5
7B
  8
DIMNSIONS
  6
CONTINUOUS
 62
     7
 10
-45.0
 20
0.0
 30
0.0
 11
-45.670039795150252
 21
2.5006225585937489
 31
0.0
  0
LINE
  5
7C
  8
DIMNSIONS
  6
CONTINUOUS
 62
     7
 10
-45.0
 20
0.0
 30
0.0
 11
-44.329960204849748
 21
2.5006225585937489
 31
0.0
  0
TEXT
  5
7D
  8
DIMNSIONS
 62
     7
 10
-45.99388888888889
 20
6.4722222222222197
 30
0.0
 40
2.7147352430555549
  1
20.0
 50
90.0
 41
0.7
 11
-48.708624131944447
 21
6.4722222222222197
 31
0.0
 73
     3
  0
LINE
  5
7E
  8
DIMNSIONS
  6
CONTINUOUS
 62
     7
 10
8.6537476591751101
 20
0.0
 30
0.0
 11
-2.0000000000000031
 21
0.0
 31
0.0
  0
LINE
  5
7F
  8
DIMNSIONS
  6
CONTINUOUS
 62
     7
 10
10.74277840227745
 20
31.0
 30
0.0
 11
-2.0000000000000031
 21
31.0
 31
0.0
  0
LINE
  5
80
  8
DIMNSIONS
  6
CONTINUOUS
 62
     7
 10
-0.0000000000000036
 20
0.0
 30
0.0
 11
-0.0000000000000036
 21
31.0
 31
0.0
  0
LINE
  5
81
  8
DIMNSIONS
  6
CONTINUOUS
 62
     7
 10
-0.0000000000000036
 20
0.0
 30
0.0
 11
-0.670039795150247
 21
2.5006225585937489
 31
0.0
  0
LINE
  5
82
  8
DIMNSIONS
  6
CONTINUOUS
 62
     7
 10
-0.0000000000000036
 20
0.0
 30
0.0
 11
0.6700397951502395
 21
2.5006225585937489
 31
0.0
  0
LINE
  5
83
  8
DIMNSIONS
  6
CONTINUOUS
 62
     7
 10
-0.0000000000000036
 20
31.0
 30
0.0
 11
0.6700397951502395
 21
28.499377441406249
 31
0.0
  0
LINE
  5
84
  8
DIMNSIONS
  6
CONTINUOUS
 62
     7
 10
-0.0000000000000036
 20
31.0
 30
0.0
 11
-0.670039795150247
 21
28.499377441406249
 31
0.0
  0
TEXT
  5
85
  8
DIMNSIONS
 62
     7
 10
-0.9938888888888929
 20
13.736111111111111
 30
0.0
 40
2.7147352430555549
  1
31
 50
90.0
 41
0.7
 11
-3.7086241319444482
 21
13.736111111111111
 31
0.0
 73
     3
  0
LINE
  5
86
  8
DIMNSIONS
  6
CONTINUOUS
 62
     7
 10
28.838834764831841
 20
-38.838834764831837
 30
0.0
 11
34.999999999999993
 21
-44.999999999999993
 31
0.0
  0
LINE
  5
87
  8
DIMNSIONS
  6
CONTINUOUS
 62
     7
 10
28.838834764831841
 20
-38.838834764831837
 30
0.0
 11
31.103080849094731
 21
-40.09392686405527
 31
0.0
  0
LINE
  5
88
  8
DIMNSIONS
  6
CONTINUOUS
 62
     7
 10
28.838834764831841
 20
-38.838834764831837
 30
0.0
 11
30.172183344611241
 21
-41.057899448979917
 31
0.0
  0
LINE
  5
89
  8
DIMNSIONS
  6
CONTINUOUS
 62
     7
 10
34.999999999999993
 20
-44.999999999999993
 30
0.0
 11
44.055555555555543
 21
-44.999999999999993
 31
0.0
  0
TEXT
  5
8A
  8
DIMNSIONS
 62
     7
 10
36.999999999999993
 20
-44.006111111111103
 30
0.0
 40
2.7147352430555549
  1
\U+03C625
 41
0.7
 11
36.999999999999993
 21
-41.291375868055539
 31
0.0
 73
     3
  0
LINE
  5
8B
  8
DIMNSIONS
  6
CONTINUOUS
 62
     7
 10
-26.78266414560121
 20
-33.217335854398797
 30
0.0
 11
-20.0
 21
-40.0
 31
0.0
  0
LINE
  5
8C
  8
DIMNSIONS
  6
CONTINUOUS
 62
     7
 10
-26.78266414560121
 20
-33.217335854398797
 30
0.0
 11
-24.540667294415929
 21
-34.511753339952911
 31
0.0
  0
LINE
  5
8D
  8
DIMNSIONS
  6
CONTINUOUS
 62
     7
 10
-26.78266414560121
 20
-33.217335854398797
 30
0.0
 11
-25.488246660047089
 21
-35.459332705584067
 31
0.0
  0
LINE
  5
8E
  8
DIMNSIONS
  6
CONTINUOUS
 62
     7
 10
-20.0
 20
-40.0
 30
0.0
 11
-9.1805548826853478
 21
-40.0
 31
0.0
  0
TEXT
  5
8F
  8
DIMNSIONS
 62
     7
 10
-18.0
 20
-39.006111066953999
 30
0.0
 40
2.7147354857718322
  1
\U+03C69.1
 41
0.7
 11
-18.0
 21
-36.291375581182173
 31
0.0
 73
     3
  0
TEXT
  5
90
  8
DATA
 62
     7
 10
50.0
 20
-119.1724988888888
 30
0.0
 40
2.7147352430555549
  1
CK41
 41
0.7
 11
50.0
 21
-116.4577636458333
 31
0.0
 73
     3
  0
TEXT
  5
91
  8
DATA
 62
     7
 10
50.0
 20
-111.9224988888888
 30
0.0
 40
2.7147352430555549
  1
AKG
 41
0.7
 11
50.0
 21
-109.2077636458333
 31
0.0
 73
     3
  0
TEXT
  5
92
  8
DATA
 62
     7
 10
-87.499999999999986
 20
-122.1237222222222
 30
0.0
 40
1.900314670138888
  1
※仕様及び外観は予告なく変更されることがあります。
 41
0.7
 11
-87.499999999999986
 21
-120.2234075520833
 31
0.0
 73
     3
  0
TEXT
  5
93
  8
DATA
 62
     7
 10
-87.499999999999986
 20
-124.5931666666666
 30
0.0
 40
1.900314670138888
  1
　また、同一商品でも若干の個体差があることがあります。ご了承ください。
 41
0.7
 11
-87.499999999999986
 21
-122.69285199652769
 31
0.0
 73
     3
  0
LINE
  5
94
  8
DATA
  6
CONTINUOUS
 62
     7
 10
-34.549999999999997
 20
0.0
 30
0.0
 11
-34.549999999999997
 21
12.00000000000005
 31
0.0
  0
LINE
  5
95
  8
DATA
  6
CONTINUOUS
 62
     7
 10
-25.45000000000001
 20
0.0
 30
0.0
 11
-34.549999999999997
 21
0.0
 31
0.0
  0
LINE
  5
96
  8
DATA
  6
CONTINUOUS
 62
     7
 10
-25.45000000000001
 20
11.99999999999997
 30
0.0
 11
-25.45000000000001
 21
0.0
 31
0.0
  0
CIRCLE
  5
97
  8
DATA
  6
CONTINUOUS
 62
     7
 10
-30.0
 20
-30.0
 30
0.0
 40
4.5499999999999998
  0
CIRCLE
  5
98
  8
DATA
  6
CONTINUOUS
 62
     7
 10
-30.0
 20
50.0
 30
0.0
 40
4.5499999999999998
  0
CIRCLE
  5
99
  8
DATA
  6
CONTINUOUS
 62
     7
 10
-30.0
 20
50.0
 30
0.0
 40
3.0
  0
CIRCLE
  5
9A
  8
DATA
  6
CONTINUOUS
 62
     7
 10
-30.0
 20
50.0
 30
0.0
 40
3.350000000000001
  0
LINE
  5
9B
  8
DATA
  6
CONTINUOUS
 62
     7
 10
-34.549999999999997
 20
12.00000000000005
 30
0.0
 11
-34.450000000000003
 21
14.0
 31
0.0
  0
LINE
  5
9C
  8
DATA
  6
CONTINUOUS
 62
     7
 10
-25.45000000000001
 20
11.99999999999997
 30
0.0
 11
-25.550000000000001
 21
14.0
 31
0.0
  0
LINE
  5
9D
  8
DATA
  6
CONTINUOUS
 62
     7
 10
-34.450000000000003
 20
14.0
 30
0.0
 11
-33.349999999999987
 21
20.0
 31
0.0
  0
LINE
  5
9E
  8
DATA
  6
CONTINUOUS
 62
     7
 10
-26.649999999999999
 20
20.0
 30
0.0
 11
-25.550000000000001
 21
14.0
 31
0.0
  0
LINE
  5
9F
  8
DATA
  6
CONTINUOUS
 62
     7
 10
-33.349999999999987
 20
20.0
 30
0.0
 11
-26.649999999999999
 21
20.0
 31
0.0
  0
TEXT
  5
A0
  8
DATA
 62
     7
 10
-33.437345369314947
 20
4.8355888841394901
 30
0.0
 40
3.0868055555555549
  1
CK41
 41
0.7
 72
     1
 11
-29.836072221166798
 21
6.3789916619172669
 31
0.0
 73
     2
  0
LINE
  5
A1
  8
DATA
  6
CONTINUOUS
 62
     7
 10
-33.899999999999999
 20
17.0
 30
0.0
 11
-26.100000000000001
 21
17.0
 31
0.0
  0
CIRCLE
  5
A2
  8
DATA
  6
CONTINUOUS
 62
     7
 10
-30.0
 20
-30.0
 30
0.0
 40
4.0999999999999934
  0
CIRCLE
  5
A3
  8
DATA
  6
CONTINUOUS
 62
     7
 10
-30.0
 20
-30.0
 30
0.0
 40
1.5
  0
CIRCLE
  5
A4
  8
DATA
  6
CONTINUOUS
 62
     7
 10
-30.0
 20
-30.0
 30
0.0
 40
0.5
  0
CIRCLE
  5
A5
  8
DATA
  6
CONTINUOUS
 62
     7
 10
-32.799999999999997
 20
-30.0
 30
0.0
 40
0.5
  0
CIRCLE
  5
A6
  8
DATA
  6
CONTINUOUS
 62
     7
 10
-27.20000000000001
 20
-30.0
 30
0.0
 40
0.5
  0
LINE
  5
A7
  8
DATA
  6
CONTINUOUS
 62
     7
 10
7.6574906425415739
 20
3.1498128508316761
 30
0.0
 11
8.4999999999999911
 21
20.0
 31
0.0
  0
LINE
  5
A8
  8
DATA
  6
CONTINUOUS
 62
     7
 10
29.346252340824879
 20
0.0000000000000067
 30
0.0
 11
10.65374765917511
 21
0.0
 31
0.0
  0
LINE
  5
A9
  8
DATA
  6
CONTINUOUS
 62
     7
 10
31.5
 20
20.0
 30
0.0
 11
32.342509357458411
 21
3.1498128508316841
 31
0.0
  0
LINE
  5
AA
  8
DATA
  6
CONTINUOUS
 62
     7
 10
12.74277840227745
 20
31.0
 30
0.0
 11
27.257221597722531
 21
31.0
 31
0.0
  0
LINE
  5
AB
  8
DATA
  6
CONTINUOUS
 62
     7
 10
8.4999999999999911
 20
20.0
 30
0.0
 11
9.7764458366398372
 21
28.448186467932452
 31
0.0
  0
LINE
  5
AC
  8
DATA
  6
CONTINUOUS
 62
     7
 10
30.223554163360149
 20
28.448186467932452
 30
0.0
 11
31.5
 21
20.0
 31
0.0
  0
ARC
  5
AD
  8
DATA
  6
CONTINUOUS
 62
     7
 10
12.74277840227745
 20
28.0
 30
0.0
 40
3.0
 50
90.0
 51
171.40810408513059
  0
ARC
  5
AE
  8
DATA
  6
CONTINUOUS
 62
     7
 10
27.257221597722531
 20
28.0
 30
0.0
 40
2.9999999999999978
 50
8.5918959148694167
 51
90.0
  0
POLYLINE
  5
AF
  8
DATA
  6
CONTINUOUS
 62
     7
 66
     1
 10
0.0
 20
0.0
 30
0.0
 70
     1
  0
VERTEX
  5
1D6
  8
DATA
  6
CONTINUOUS
 62
     7
 10
22.5
 20
6.6980226388577071
 30
0.0
  0
VERTEX
  5
1D7
  8
DATA
  6
CONTINUOUS
 62
     7
 10
21.08024691358025
 20
7.3405448955804431
 30
0.0
  0
VERTEX
  5
1D8
  8
DATA
  6
CONTINUOUS
 62
     7
 10
21.08024691358025
 20
9.1746713975297673
 30
0.0
  0
VERTEX
  5
1D9
  8
DATA
  6
CONTINUOUS
 62
     7
 10
22.5
 20
9.7728817744785648
 30
0.0
  0
VERTEX
  5
1DA
  8
DATA
  6
CONTINUOUS
 62
     7
 10
22.5
 20
11.08015210462086
 30
0.0
  0
VERTEX
  5
1DB
  8
DATA
  6
CONTINUOUS
 62
     7
 10
17.499999999999989
 20
8.7296259963214489
 30
0.0
  0
VERTEX
  5
1DC
  8
DATA
  6
CONTINUOUS
 62
     7
 10
17.499999999999989
 20
7.7412784170147901
 30
0.0
  0
VERTEX
  5
1DD
  8
DATA
  6
CONTINUOUS
 62
     7
 10
22.5
 20
5.4900422641495652
 30
0.0
  0
SEQEND
  5
1DE
  8
DATA
  6
CONTINUOUS
 62
     7
  0
POLYLINE
  5
BA
  8
DATA
  6
CONTINUOUS
 62
     7
 66
     1
 10
0.0
 20
0.0
 30
0.0
 70
     1
  0
VERTEX
  5
1DF
  8
DATA
  6
CONTINUOUS
 62
     7
 10
20.161835786663922
 20
7.5684493549629606
 30
0.0
  0
VERTEX
  5
1E0
  8
DATA
  6
CONTINUOUS
 62
     7
 10
20.161835786663922
 20
8.7877005420466965
 30
0.0
  0
VERTEX
  5
1E1
  8
DATA
  6
CONTINUOUS
 62
     7
 10
19.190123456790079
 20
8.1998472911313112
 30
0.0
  0
SEQEND
  5
1E2
  8
DATA
  6
CONTINUOUS
 62
     7
  0
POLYLINE
  5
C0
  8
DATA
  6
CONTINUOUS
 62
     7
 66
     1
 10
0.0
 20
0.0
 30
0.0
 70
     1
  0
VERTEX
  5
1E3
  8
DATA
  6
CONTINUOUS
 62
     7
 10
19.515057207108072
 20
14.467933074086391
 30
0.0
  0
VERTEX
  5
1E4
  8
DATA
  6
CONTINUOUS
 62
     7
 10
22.5
 20
16.927481614186771
 30
0.0
  0
VERTEX
  5
1E5
  8
DATA
  6
CONTINUOUS
 62
     7
 10
22.5
 20
15.65494698930857
 30
0.0
  0
VERTEX
  5
1E6
  8
DATA
  6
CONTINUOUS
 62
     7
 10
20.1223806316634
 20
13.78245668338247
 30
0.0
  0
VERTEX
  5
1E7
  8
DATA
  6
CONTINUOUS
 62
     7
 10
20.667820024744959
 20
13.16682782501757
 30
0.0
  0
VERTEX
  5
1E8
  8
DATA
  6
CONTINUOUS
 62
     7
 10
22.496870362062339
 20
13.16682782501757
 30
0.0
  0
VERTEX
  5
1E9
  8
DATA
  6
CONTINUOUS
 62
     7
 10
22.496870362062339
 20
11.927481614186769
 30
0.0
  0
VERTEX
  5
1EA
  8
DATA
  6
CONTINUOUS
 62
     7
 10
17.499999999999989
 20
11.927481614186769
 30
0.0
  0
VERTEX
  5
1EB
  8
DATA
  6
CONTINUOUS
 62
     7
 10
17.499999999999989
 20
13.16682782501757
 30
0.0
  0
VERTEX
  5
1EC
  8
DATA
  6
CONTINUOUS
 62
     7
 10
19.576537890715318
 20
13.16682782501757
 30
0.0
  0
VERTEX
  5
1ED
  8
DATA
  6
CONTINUOUS
 62
     7
 10
17.499999999999989
 20
15.472455159160299
 30
0.0
  0
VERTEX
  5
1EE
  8
DATA
  6
CONTINUOUS
 62
     7
 10
17.499999999999989
 20
16.742296429001559
 30
0.0
  0
SEQEND
  5
1EF
  8
DATA
  6
CONTINUOUS
 62
     7
  0
POLYLINE
  5
CF
  8
DATA
  6
CONTINUOUS
 62
     7
 66
     1
 10
0.0
 20
0.0
 30
0.0
 70
   129
  0
VERTEX
  5
1F0
  8
DATA
  6
CONTINUOUS
 62
     7
 10
22.5
 20
22.034870138278869
 30
0.0
  0
VERTEX
  5
1F1
  8
DATA
  6
CONTINUOUS
 62
     7
 10
22.5
 20
22.98316633962116
 30
0.0
  0
VERTEX
  5
1F2
  8
DATA
  6
CONTINUOUS
 62
     7
 10
19.738564189902629
 20
22.991583169810561
 30
0.0
  0
VERTEX
  5
1F3
  8
DATA
  6
CONTINUOUS
 62
     7
 10
19.738564189902629
 20
20.45250606266627
 30
0.0
  0
VERTEX
  5
1F4
  8
DATA
  6
CONTINUOUS
 62
     7
 10
20.321330900497081
 20
20.45250606266627
 30
0.0
  0
VERTEX
  5
1F5
  8
DATA
  6
CONTINUOUS
 62
     7
 10
20.321330900497081
 20
21.86653353449028
 30
0.0
  0
VERTEX
  5
1F6
  8
DATA
  6
CONTINUOUS
 62
     7
 10
20.836262332609639
 20
21.86653353449028
 30
0.0
  0
VERTEX
  5
1F7
  8
DATA
  6
CONTINUOUS
 62
     7
 10
21.123020555283102
 20
21.832866213732519
 30
0.0
  0
VERTEX
  5
1F8
  8
DATA
  6
CONTINUOUS
 62
     7
 10
21.418447614077721
 20
21.697138844237511
 30
0.0
  0
VERTEX
  5
1F9
  8
DATA
  6
CONTINUOUS
 62
     7
 10
21.58803581028242
 20
21.518958674465878
 30
0.0
  0
VERTEX
  5
1FA
  8
DATA
  6
CONTINUOUS
 62
     7
 10
21.750496881240672
 20
21.302605911798508
 30
0.0
  0
VERTEX
  5
1FB
  8
DATA
  6
CONTINUOUS
 62
     7
 10
21.82141558147169
 20
21.117435647631108
 30
0.0
  0
VERTEX
  5
1FC
  8
DATA
  6
CONTINUOUS
 62
     7
 10
21.86304177508557
 20
20.860434638535871
 30
0.0
  0
VERTEX
  5
1FD
  8
DATA
  6
CONTINUOUS
 62
     7
 10
21.893875992577339
 20
20.598397785949661
 30
0.0
  0
VERTEX
  5
1FE
  8
DATA
  6
CONTINUOUS
 62
     7
 10
21.866125196834801
 20
20.373948980898181
 30
0.0
  0
VERTEX
  5
1FF
  8
DATA
  6
CONTINUOUS
 62
     7
 10
21.81679044884795
 20
20.159032122750109
 30
0.0
  0
VERTEX
  5
200
  8
DATA
  6
CONTINUOUS
 62
     7
 10
21.724287796372639
 20
19.9811635720582
 30
0.0
  0
VERTEX
  5
201
  8
DATA
  6
CONTINUOUS
 62
     7
 10
21.600950926405549
 20
19.756714767006802
 30
0.0
  0
VERTEX
  5
202
  8
DATA
  6
CONTINUOUS
 62
     7
 10
21.431362730200831
 20
19.578534597235141
 30
0.0
  0
VERTEX
  5
203
  8
DATA
  6
CONTINUOUS
 62
     7
 10
21.123020555283102
 20
19.420041559429571
 30
0.0
  0
VERTEX
  5
204
  8
DATA
  6
CONTINUOUS
 62
     7
 10
20.722175727890061
 20
19.27976105627247
 30
0.0
  0
VERTEX
  5
205
  8
DATA
  6
CONTINUOUS
 62
     7
 10
19.612143898186311
 20
19.27976105627247
 30
0.0
  0
VERTEX
  5
206
  8
DATA
  6
CONTINUOUS
 62
     7
 10
19.134213527063881
 20
19.391985458798171
 30
0.0
  0
VERTEX
  5
207
  8
DATA
  6
CONTINUOUS
 62
     7
 10
18.671700264687288
 20
19.672546465112461
 30
0.0
  0
VERTEX
  5
208
  8
DATA
  6
CONTINUOUS
 62
     7
 10
18.486694959736639
 20
19.866924832136039
 30
0.0
  0
VERTEX
  5
209
  8
DATA
  6
CONTINUOUS
 62
     7
 10
18.271152029881971
 20
20.093387974583969
 30
0.0
  0
VERTEX
  5
20A
  8
DATA
  6
CONTINUOUS
 62
     7
 10
18.187058709449861
 20
20.26172457837248
 30
0.0
  0
VERTEX
  5
20B
  8
DATA
  6
CONTINUOUS
 62
     7
 10
18.116980942423108
 20
20.542285584686809
 30
0.0
  0
VERTEX
  5
20C
  8
DATA
  6
CONTINUOUS
 62
     7
 10
18.09818381934037
 20
20.744289509233049
 30
0.0
  0
VERTEX
  5
20D
  8
DATA
  6
CONTINUOUS
 62
     7
 10
18.117063202457182
 20
20.988377584726528
 30
0.0
  0
VERTEX
  5
20E
  8
DATA
  6
CONTINUOUS
 62
     7
 10
18.21497499318734
 20
21.296994691672261
 30
0.0
  0
VERTEX
  5
20F
  8
DATA
  6
CONTINUOUS
 62
     7
 10
18.351024402772929
 20
21.524249106786861
 30
0.0
  0
VERTEX
  5
210
  8
DATA
  6
CONTINUOUS
 62
     7
 10
18.486694959736639
 20
21.636473509312559
 30
0.0
  0
VERTEX
  5
211
  8
DATA
  6
CONTINUOUS
 62
     7
 10
18.671700264687288
 20
21.737475471585689
 30
0.0
  0
VERTEX
  5
212
  8
DATA
  6
CONTINUOUS
 62
     7
 10
18.805216342955699
 20
21.776754012469699
 30
0.0
  0
VERTEX
  5
213
  8
DATA
  6
CONTINUOUS
 62
     7
 10
19.152714057558939
 20
21.821643773479959
 30
0.0
  0
VERTEX
  5
214
  8
DATA
  6
CONTINUOUS
 62
     7
 10
19.152714057558939
 20
22.994388779873749
 30
0.0
  0
VERTEX
  5
215
  8
DATA
  6
CONTINUOUS
 62
     7
 10
18.936874535116541
 20
23.0
 30
0.0
  0
VERTEX
  5
216
  8
DATA
  6
CONTINUOUS
 62
     7
 10
18.7950371346544
 20
22.98316633962116
 30
0.0
  0
VERTEX
  5
217
  8
DATA
  6
CONTINUOUS
 62
     7
 10
18.517529177228418
 20
22.870941937095449
 30
0.0
  0
VERTEX
  5
218
  8
DATA
  6
CONTINUOUS
 62
     7
 10
18.255438328548369
 20
22.730661433938309
 30
0.0
  0
VERTEX
  5
219
  8
DATA
  6
CONTINUOUS
 62
     7
 10
18.02418169736012
 20
22.487688475158858
 30
0.0
  0
VERTEX
  5
21A
  8
DATA
  6
CONTINUOUS
 62
     7
 10
17.805258753168559
 20
22.208817962193731
 30
0.0
  0
VERTEX
  5
21B
  8
DATA
  6
CONTINUOUS
 62
     7
 10
17.631720426495502
 20
21.802004503037988
 30
0.0
  0
VERTEX
  5
21C
  8
DATA
  6
CONTINUOUS
 62
     7
 10
17.52274690096111
 20
21.224048830030561
 30
0.0
  0
VERTEX
  5
21D
  8
DATA
  6
CONTINUOUS
 62
     7
 10
17.499999999999989
 20
20.65450998721251
 30
0.0
  0
VERTEX
  5
21E
  8
DATA
  6
CONTINUOUS
 62
     7
 10
17.530834217491758
 20
20.19438993685711
 30
0.0
  0
VERTEX
  5
21F
  8
DATA
  6
CONTINUOUS
 62
     7
 10
17.678233752369341
 20
19.668051698658491
 30
0.0
  0
VERTEX
  5
220
  8
DATA
  6
CONTINUOUS
 62
     7
 10
17.96718825626397
 20
19.03344007343448
 30
0.0
  0
VERTEX
  5
221
  8
DATA
  6
CONTINUOUS
 62
     7
 10
18.190686471815649
 20
18.735472704022769
 30
0.0
  0
VERTEX
  5
222
  8
DATA
  6
CONTINUOUS
 62
     7
 10
18.45586074224488
 20
18.505412678845051
 30
0.0
  0
VERTEX
  5
223
  8
DATA
  6
CONTINUOUS
 62
     7
 10
18.839371256266869
 20
18.252907773162171
 30
0.0
  0
VERTEX
  5
224
  8
DATA
  6
CONTINUOUS
 62
     7
 10
19.205132227294961
 20
18.112627270004989
 30
0.0
  0
VERTEX
  5
225
  8
DATA
  6
CONTINUOUS
 62
     7
 10
19.535058354456911
 20
18.03407018823701
 30
0.0
  0
VERTEX
  5
226
  8
DATA
  6
CONTINUOUS
 62
     7
 10
19.781732094391021
 20
18.0
 30
0.0
  0
VERTEX
  5
227
  8
DATA
  6
CONTINUOUS
 62
     7
 10
20.265829309011849
 20
18.0
 30
0.0
  0
VERTEX
  5
228
  8
DATA
  6
CONTINUOUS
 62
     7
 10
20.70367519739505
 20
18.03887567340475
 30
0.0
  0
VERTEX
  5
229
  8
DATA
  6
CONTINUOUS
 62
     7
 10
21.089102916042169
 20
18.151905810889041
 30
0.0
  0
VERTEX
  5
22A
  8
DATA
  6
CONTINUOUS
 62
     7
 10
21.431362730200831
 20
18.29779753417246
 30
0.0
  0
VERTEX
  5
22B
  8
DATA
  6
CONTINUOUS
 62
     7
 10
21.83837440109221
 20
18.595192200865551
 30
0.0
  0
VERTEX
  5
22C
  8
DATA
  6
CONTINUOUS
 62
     7
 10
22.16213368475583
 20
19.02164493046331
 30
0.0
  0
VERTEX
  5
22D
  8
DATA
  6
CONTINUOUS
 62
     7
 10
22.376703562948531
 20
19.529460351892201
 30
0.0
  0
VERTEX
  5
22E
  8
DATA
  6
CONTINUOUS
 62
     7
 10
22.43347479868341
 20
19.77915964751195
 30
0.0
  0
VERTEX
  5
22F
  8
DATA
  6
CONTINUOUS
 62
     7
 10
22.49051810104314
 20
20.206008013442968
 30
0.0
  0
VERTEX
  5
230
  8
DATA
  6
CONTINUOUS
 62
     7
 10
22.499768366290681
 20
20.710226552142
 30
0.0
  0
VERTEX
  5
231
  8
DATA
  6
CONTINUOUS
 62
     7
 10
22.43347479868341
 20
21.119449985027501
 30
0.0
  0
VERTEX
  5
232
  8
DATA
  6
CONTINUOUS
 62
     7
 10
22.290792394636959
 20
21.528376560869781
 30
0.0
  0
VERTEX
  5
233
  8
DATA
  6
CONTINUOUS
 62
     7
 10
22.16524172745709
 20
21.756854040713989
 30
0.0
  0
VERTEX
  5
234
  8
DATA
  6
CONTINUOUS
 62
     7
 10
22.05113050178544
 20
21.90020085524797
 30
0.0
  0
SEQEND
  5
235
  8
DATA
  6
CONTINUOUS
 62
     7
  0
TEXT
  5
116
  8
DATA
 62
     7
 10
4.124998654259568
 20
-68.033888888888896
 30
0.0
 40
2.7147352430555549
  1
ウインドスクリーン
 41
0.7
 11
4.124998654259568
 21
-65.319153645833325
 31
0.0
 73
     3
  0
CIRCLE
  5
117
  8
DATA
  6
CONTINUOUS
 62
     7
 10
20.0
 20
-30.0
 30
0.0
 40
12.5
  0
ARC
  5
118
  8
DATA
  6
CONTINUOUS
 62
     7
 10
10.65374765917511
 20
3.0
 30
0.0
 40
3.0000000000000009
 50
177.13759477388831
 51
270.0
  0
ARC
  5
119
  8
DATA
  6
CONTINUOUS
 62
     7
 10
29.346252340824879
 20
3.0000000000000062
 30
0.0
 40
3.0
 50
270.0
 51
2.8624052261117181
  0
CIRCLE
  5
11A
  8
DATA
  6
CONTINUOUS
 62
     7
 10
20.0
 20
-30.0
 30
0.0
 40
4.5
  0
CIRCLE
  5
11B
  8
DATA
  6
CONTINUOUS
 62
     7
 10
20.0
 20
50.0
 30
0.0
 40
12.5
  0
TEXT
  5
11C
  8
DATA
 62
     7
 10
-36.651101345486111
 20
-68.121256510416671
 30
0.0
 40
2.7147352430555549
  1
カートリッジ
 41
0.7
 72
     1
 11
-30.0
 21
-66.7638888888889
 31
0.0
 73
     2
  0
LINE
  5
11D
  8
DATA
  6
CONTINUOUS
 62
     7
 10
-42.5
 20
-70.0
 30
0.0
 11
-17.5
 21
-70.0
 31
0.0
  0
LINE
  5
11E
  8
DATA
  6
CONTINUOUS
 62
     7
 10
2.5
 20
-70.0
 30
0.0
 11
37.5
 21
-70.0
 31
0.0
  0
TEXT
  5
11F
  8
DATA
 62
     7
 10
47.499999999999993
 20
-114.9033796417708
 30
0.0
 40
1.6288411458333329
  1
カートリッジ(コンデンサー型 )
 41
0.7
 11
47.499999999999993
 21
-113.27453849593741
 31
0.0
 73
     3
  0
CIRCLE
  5
120
  8
DATA
  6
CONTINUOUS
 62
     7
 10
-34.0
 20
10.5
 30
0.0
 40
0.5
  0
CIRCLE
  5
121
  8
DATA
  6
CONTINUOUS
 62
     7
 10
-33.0
 20
11.5
 30
0.0
 40
0.5
  0
CIRCLE
  5
122
  8
DATA
  6
CONTINUOUS
 62
     7
 10
-32.0
 20
10.5
 30
0.0
 40
0.5
  0
CIRCLE
  5
123
  8
DATA
  6
CONTINUOUS
 62
     7
 10
-31.0
 20
11.5
 30
0.0
 40
0.5
  0
CIRCLE
  5
124
  8
DATA
  6
CONTINUOUS
 62
     7
 10
-30.0
 20
10.5
 30
0.0
 40
0.5
  0
CIRCLE
  5
125
  8
DATA
  6
CONTINUOUS
 62
     7
 10
-29.0
 20
11.5
 30
0.0
 40
0.5
  0
CIRCLE
  5
126
  8
DATA
  6
CONTINUOUS
 62
     7
 10
-28.0
 20
10.5
 30
0.0
 40
0.5
  0
CIRCLE
  5
127
  8
DATA
  6
CONTINUOUS
 62
     7
 10
-27.0
 20
11.5
 30
0.0
 40
0.5
  0
CIRCLE
  5
128
  8
DATA
  6
CONTINUOUS
 62
     7
 10
-26.0
 20
10.5
 30
0.0
 40
0.5
  0
CIRCLE
  5
129
  8
DATA
  6
CONTINUOUS
 62
     7
 10
-33.0
 20
18.25
 30
0.0
 40
0.25
  0
CIRCLE
  5
12A
  8
DATA
  6
CONTINUOUS
 62
     7
 10
-32.0
 20
18.25
 30
0.0
 40
0.25
  0
CIRCLE
  5
12B
  8
DATA
  6
CONTINUOUS
 62
     7
 10
-31.0
 20
18.25
 30
0.0
 40
0.25
  0
CIRCLE
  5
12C
  8
DATA
  6
CONTINUOUS
 62
     7
 10
-30.0
 20
18.25
 30
0.0
 40
0.25
  0
CIRCLE
  5
12D
  8
DATA
  6
CONTINUOUS
 62
     7
 10
-29.0
 20
18.25
 30
0.0
 40
0.25
  0
CIRCLE
  5
12E
  8
DATA
  6
CONTINUOUS
 62
     7
 10
-28.0
 20
18.25
 30
0.0
 40
0.25
  0
CIRCLE
  5
12F
  8
DATA
  6
CONTINUOUS
 62
     7
 10
-27.0
 20
18.25
 30
0.0
 40
0.25
  0
ENDSEC
  0
EOF
