  0
SECTION
  2
HEADER
  9
$ACADVER
  1
AC1009
  9
$INSBASE
 10
0.0
 20
0.0
 30
0.0
  9
$EXTMIN
 10
-180.0109854899475
 20
-271.7350420013334
 30
-0.0004406539666224
  9
$EXTMAX
 10
180.01098716632799
 20
263.52508679179459
 30
0.0000000100861541
  9
$LIMMIN
 10
0.0
 20
0.0
  9
$LIMMAX
 10
0.0
 20
0.0
  9
$ORTHOMODE
 70
     0
  9
$REGENMODE
 70
     1
  9
$FILLMODE
 70
     1
  9
$QTEXTMODE
 70
     0
  9
$MIRRTEXT
 70
     1
  9
$DRAGMODE
 70
     2
  9
$LTSCALE
 40
10.16
  9
$OSMODE
 70
   231
  9
$ATTMODE
 70
     1
  9
$TEXTSIZE
 40
0.0
  9
$TRACEWID
 40
1.0
  9
$TEXTSTYLE
  7
STANDARD
  9
$CLAYER
  8
DATA
  9
$CELTYPE
  6
BYLAYER
  9
$CECOLOR
 62
   256
  9
$DIMSCALE
 40
1.0
  9
$DIMASZ
 40
0.18
  9
$DIMEXO
 40
0.0625
  9
$DIMDLI
 40
0.38
  9
$DIMRND
 40
0.0
  9
$DIMDLE
 40
0.0
  9
$DIMEXE
 40
0.18
  9
$DIMTP
 40
0.0
  9
$DIMTM
 40
0.0
  9
$DIMTXT
 40
0.18
  9
$DIMCEN
 40
0.09
  9
$DIMTSZ
 40
0.0
  9
$DIMTOL
 70
     0
  9
$DIMLIM
 70
     0
  9
$DIMTIH
 70
     1
  9
$DIMTOH
 70
     1
  9
$DIMSE1
 70
     0
  9
$DIMSE2
 70
     0
  9
$DIMTAD
 70
     0
  9
$DIMZIN
 70
     0
  9
$DIMBLK
  1

  9
$DIMASO
 70
     1
  9
$DIMSHO
 70
     1
  9
$DIMPOST
  1

  9
$DIMAPOST
  1

  9
$DIMALT
 70
     0
  9
$DIMALTD
 70
     2
  9
$DIMALTF
 40
25.399999999999999
  9
$DIMLFAC
 40
1.0
  9
$DIMTOFL
 70
     0
  9
$DIMTVP
 40
0.0
  9
$DIMTIX
 70
     0
  9
$DIMSOXD
 70
     0
  9
$DIMSAH
 70
     0
  9
$DIMBLK1
  1

  9
$DIMBLK2
  1

  9
$DIMSTYLE
  2
STANDARD
  9
$DIMCLRD
 70
     0
  9
$DIMCLRE
 70
     0
  9
$DIMCLRT
 70
     0
  9
$DIMTFAC
 40
1.0
  9
$DIMGAP
 40
0.09
  9
$LUNITS
 70
     2
  9
$LUPREC
 70
     4
  9
$SKETCHINC
 40
0.1
  9
$FILLETRAD
 40
0.0
  9
$AUNITS
 70
     0
  9
$AUPREC
 70
     0
  9
$MENU
  1
acad
  9
$ELEVATION
 40
0.0
  9
$PELEVATION
 40
0.0
  9
$THICKNESS
 40
0.0
  9
$LIMCHECK
 70
     0
  9
$BLIPMODE
 70
     0
  9
$CHAMFERA
 40
0.0
  9
$CHAMFERB
 40
0.0
  9
$SKPOLY
 70
     0
  9
$TDCREATE
 40
2456279.4981365739
  9
$TDUPDATE
 40
2456279.5027089352
  9
$TDINDWG
 40
0.0003001968
  9
$TDUSRTIMER
 40
0.0003001968
  9
$USRTIMER
 70
     1
  9
$ANGBASE
 50
0.0
  9
$ANGDIR
 70
     0
  9
$PDMODE
 70
     1
  9
$PDSIZE
 40
-2.0
  9
$PLINEWID
 40
0.0
  9
$COORDS
 70
     2
  9
$SPLFRAME
 70
     0
  9
$SPLINETYPE
 70
     6
  9
$SPLINESEGS
 70
     8
  9
$ATTDIA
 70
     0
  9
$ATTREQ
 70
     1
  9
$HANDLING
 70
     1
  9
$HANDSEED
  5
28D
  9
$SURFTAB1
 70
     6
  9
$SURFTAB2
 70
     6
  9
$SURFTYPE
 70
     6
  9
$SURFU
 70
     6
  9
$SURFV
 70
     6
  9
$UCSNAME
  2

  9
$UCSORG
 10
0.0
 20
0.0
 30
0.0
  9
$UCSXDIR
 10
1.0
 20
0.0
 30
0.0
  9
$UCSYDIR
 10
0.0
 20
1.0
 30
0.0
  9
$PUCSNAME
  2

  9
$PUCSORG
 10
0.0
 20
0.0
 30
0.0
  9
$PUCSXDIR
 10
1.0
 20
0.0
 30
0.0
  9
$PUCSYDIR
 10
0.0
 20
1.0
 30
0.0
  9
$USERI1
 70
     0
  9
$USERI2
 70
     0
  9
$USERI3
 70
     0
  9
$USERI4
 70
     0
  9
$USERI5
 70
     0
  9
$USERR1
 40
0.0
  9
$USERR2
 40
0.0
  9
$USERR3
 40
0.0
  9
$USERR4
 40
0.0
  9
$USERR5
 40
0.0
  9
$WORLDVIEW
 70
     1
  9
$SHADEDGE
 70
     3
  9
$SHADEDIF
 70
    70
  9
$TILEMODE
 70
     1
  9
$MAXACTVP
 70
    64
  9
$PLIMCHECK
 70
     0
  9
$PEXTMIN
 10
1.0000000000000000E+020
 20
1.0000000000000000E+020
 30
1.0000000000000000E+020
  9
$PEXTMAX
 10
-1.0000000000000000E+020
 20
-1.0000000000000000E+020
 30
-1.0000000000000000E+020
  9
$PLIMMIN
 10
0.0
 20
0.0
  9
$PLIMMAX
 10
12.0
 20
9.0
  9
$UNITMODE
 70
     0
  9
$VISRETAIN
 70
     0
  9
$PLINEGEN
 70
     1
  9
$PSLTSCALE
 70
     0
  0
ENDSEC
  0
SECTION
  2
TABLES
  0
TABLE
  2
VPORT
 70
     1
  0
VPORT
  2
*ACTIVE
 70
     0
 10
0.0
 20
0.0
 11
1.0
 21
1.0
 12
0.0000008381902603
 22
-4.104977604769374
 13
0.0
 23
0.0
 14
1.0
 24
1.0
 15
0.0
 25
0.0
 16
0.0
 26
0.0
 36
1.0
 17
0.0
 27
0.0
 37
0.0
 40
540.42340977827064
 41
2.5684380032206109
 42
50.0
 43
0.0
 44
0.0
 50
0.0
 51
0.0
 71
     0
 72
  2000
 73
     1
 74
     1
 75
     0
 76
     0
 77
     0
 78
     0
  0
ENDTAB
  0
TABLE
  2
LTYPE
 70
    12
  0
LTYPE
  2
CONTINUOUS
 70
     0
  3
Solid line
 72
    65
 73
     0
 40
0.0
  0
LTYPE
  2
PHANTOM2
 70
     0
  3
___ _ _ ___ _ _ ___ _ _ ___ _ _
 72
    65
 73
     6
 40
1.25
 49
0.625
 49
-0.125
 49
0.125
 49
-0.125
 49
0.125
 49
-0.125
  0
ENDTAB
  0
TABLE
  2
LAYER
 70
     6
  0
LAYER
  2
0
 70
     0
 62
     7
  6
CONTINUOUS
  0
LAYER
  2
DATA
 70
     0
 62
     7
  6
CONTINUOUS
  0
LAYER
  2
HIBINO-BASE
 70
     0
 62
     7
  6
CONTINUOUS
  0
LAYER
  2
PATTERN_FILL
 70
     0
 62
     7
  6
CONTINUOUS
  0
LAYER
  2
SPEC
 70
     0
 62
     7
  6
CONTINUOUS
  0
LAYER
  2
DIMNSIONS
 70
     0
 62
     7
  6
CONTINUOUS
  0
ENDTAB
  0
TABLE
  2
STYLE
 70
     3
  0
STYLE
  2
STANDARD
 70
     0
 40
0.0
 41
1.0
 50
0.0
 71
     0
 42
0.0
  3
txt
  4
BIGFONT.SHX
  0
ENDTAB
  0
TABLE
  2
VIEW
 70
     0
  0
ENDTAB
  0
TABLE
  2
UCS
 70
     0
  0
ENDTAB
  0
TABLE
  2
APPID
 70
     4
  0
APPID
  2
ACAD
 70
     0
  0
APPID
  2
ACADANNOTATIVE
 70
     0
  0
APPID
  2
ACAD_NAV_VCDISPLAY
 70
     0
  0
APPID
  2
ACAD_MLEADERVER
 70
     0
  0
ENDTAB
  0
TABLE
  2
DIMSTYLE
 70
     2
  0
DIMSTYLE
  2
STANDARD
 70
     0
  3

  4

  5

  6

  7

 40
1.0
 41
0.18
 42
0.0625
 43
0.38
 44
0.18
 45
0.0
 46
0.0
 47
0.0
 48
0.0
140
0.18
141
0.09
142
0.0
143
25.399999999999999
144
1.0
145
0.0
146
1.0
147
0.09
 71
     0
 72
     0
 73
     1
 74
     1
 75
     0
 76
     0
 77
     0
 78
     0
170
     0
171
     2
172
     0
173
     0
174
     0
175
     0
176
     0
177
     0
178
     0
  0
ENDTAB
  0
ENDSEC
  0
SECTION
  2
BLOCKS
  0
BLOCK
  8
0
  2
$MODEL_SPACE
 70
     0
 10
0.0
 20
0.0
 30
0.0
  3
$MODEL_SPACE
  1

  0
ENDBLK
  5
1B9
  8
0
  0
BLOCK
 67
     1
  8
0
  2
$PAPER_SPACE
 70
     0
 10
0.0
 20
0.0
 30
0.0
  3
$PAPER_SPACE
  1

  0
ENDBLK
  5
1B5
 67
     1
  8
0
  0
BLOCK
  8
DATA
  2
__NNA_WALL_STYLE_FORMAT_TE
 70
     0
 10
0.0
 20
0.0
 30
0.0
  3
__NNA_WALL_STYLE_FORMAT_TE
  1

  0
CIRCLE
  5
32
  8
0
  6
CONTINUOUS
 62
     7
 10
-50.0
 20
-100.0
 30
0.0
 40
4.0999999999999934
  0
CIRCLE
  5
33
  8
0
  6
CONTINUOUS
 62
     7
 10
-50.0
 20
-100.0
 30
0.0
 40
1.5
  0
CIRCLE
  5
34
  8
0
  6
CONTINUOUS
 62
     7
 10
-50.0
 20
-100.0
 30
0.0
 40
0.5
  0
CIRCLE
  5
35
  8
0
  6
CONTINUOUS
 62
     7
 10
-52.799999999999997
 20
-100.0
 30
0.0
 40
0.5
  0
CIRCLE
  5
36
  8
0
  6
CONTINUOUS
 62
     7
 10
-47.200000000000003
 20
-100.0
 30
0.0
 40
0.5
  0
ENDBLK
  5
37
  8
DATA
  0
BLOCK
  8
DATA
  2
____
 70
     0
 10
0.0
 20
0.0
 30
0.0
  3
____
  1

  0
LINE
  5
39
  8
0
  6
CONTINUOUS
 62
     7
 10
-49.5
 20
-14.0
 30
0.0
 11
-49.5
 21
-39.5
 31
0.0
  0
LINE
  5
3A
  8
0
  6
CONTINUOUS
 62
     7
 10
-50.5
 20
-39.5
 30
0.0
 11
-50.5
 21
-14.0
 31
0.0
  0
ARC
  5
3B
  8
0
  6
CONTINUOUS
 62
     7
 10
-50.0
 20
-39.5
 30
0.0
 40
0.5
 50
180.0
 51
0.0
  0
ARC
  5
3C
  8
0
  6
CONTINUOUS
 62
     7
 10
-50.0
 20
-14.0
 30
0.0
 40
0.5
 50
0.0
 51
180.0
  0
ENDBLK
  5
3D
  8
DATA
  0
BLOCK
  8
DATA
  2
____-1
 70
     0
 10
0.0
 20
0.0
 30
0.0
  3
____-1
  1

  0
LINE
  5
3F
  8
0
  6
CONTINUOUS
 62
     7
 10
-49.500000000000007
 20
15.5
 30
0.0
 11
-49.500000000000007
 21
-10.0
 31
0.0
  0
LINE
  5
40
  8
0
  6
CONTINUOUS
 62
     7
 10
-50.5
 20
-10.0
 30
0.0
 11
-50.5
 21
15.5
 31
0.0
  0
ARC
  5
41
  8
0
  6
CONTINUOUS
 62
     7
 10
-50.0
 20
-10.0
 30
0.0
 40
0.5000000000000071
 50
180.0
 51
0.0
  0
ARC
  5
42
  8
0
  6
CONTINUOUS
 62
     7
 10
-50.0
 20
15.5
 30
0.0
 40
0.5000000000000071
 50
0.0
 51
180.0
  0
ENDBLK
  5
43
  8
DATA
  0
BLOCK
  8
DATA
  2
____-2
 70
     0
 10
0.0
 20
0.0
 30
0.0
  3
____-2
  1

  0
LINE
  5
45
  8
0
  6
CONTINUOUS
 62
     7
 10
-49.5
 20
45.0
 30
0.0
 11
-49.5
 21
19.5
 31
0.0
  0
LINE
  5
46
  8
0
  6
CONTINUOUS
 62
     7
 10
-50.5
 20
19.5
 30
0.0
 11
-50.5
 21
45.0
 31
0.0
  0
ARC
  5
47
  8
0
  6
CONTINUOUS
 62
     7
 10
-50.0
 20
19.5
 30
0.0
 40
0.5
 50
180.0
 51
0.0
  0
ARC
  5
48
  8
0
  6
CONTINUOUS
 62
     7
 10
-50.0
 20
45.0
 30
0.0
 40
0.5000000000000142
 50
0.0
 51
180.0
  0
ENDBLK
  5
49
  8
DATA
  0
ENDSEC
  0
SECTION
  2
ENTITIES
  0
TEXT
  5
4A
  8
HIBINO-BASE
 62
     7
 10
46.713080000000069
 20
-250.7639213888888
 30
0.0
 40
3.2576822916666659
  1
'12.12.
 41
0.7
 11
46.713080000000069
 21
-247.50623909722219
 31
0.0
 73
     3
  0
TEXT
  5
4B
  8
HIBINO-BASE
 62
     7
 10
35.000000000000028
 20
-252.45910138888891
 30
0.0
 40
3.2576822916666659
  1
2
 41
0.7
 11
35.000000000000028
 21
-249.20141909722221
 31
0.0
 73
     3
  0
LINE
  5
4C
  8
HIBINO-BASE
  6
CONTINUOUS
 62
     7
 10
-180.0
 20
263.5087852777778
 30
0.0
 11
180.0
 21
263.5087852777778
 31
0.0
  0
LINE
  5
4D
  8
HIBINO-BASE
  6
CONTINUOUS
 62
     7
 10
180.0
 20
-256.4912147222222
 30
0.0
 11
-180.0
 21
-256.4912147222222
 31
0.0
  0
LINE
  5
4E
  8
HIBINO-BASE
  6
CONTINUOUS
 62
     7
 10
-180.0
 20
-256.4912147222222
 30
0.0
 11
-180.0
 21
263.5087852777778
 31
0.0
  0
LINE
  5
4F
  8
HIBINO-BASE
  6
CONTINUOUS
 62
     7
 10
180.0
 20
263.5087852777778
 30
0.0
 11
180.0
 21
-256.4912147222222
 31
0.0
  0
LINE
  5
50
  8
HIBINO-BASE
  6
CONTINUOUS
 62
     7
 10
0.0
 20
-211.4912147222222
 30
0.0
 11
180.0
 21
-211.4912147222222
 31
0.0
  0
LINE
  5
51
  8
HIBINO-BASE
  6
CONTINUOUS
 62
     7
 10
0.0
 20
-256.4912147222222
 30
0.0
 11
0.0
 21
-211.4912147222222
 31
0.0
  0
TEXT
  5
52
  8
HIBINO-BASE
 62
     7
 10
1.800000000000068
 20
-216.50860138888879
 30
0.0
 40
3.2576822916666659
  1
NOTE
 41
0.7
 11
1.800000000000068
 21
-213.25091909722209
 31
0.0
 73
     3
  0
LINE
  5
53
  8
HIBINO-BASE
  6
CONTINUOUS
 62
     7
 10
70.0
 20
-256.4912147222222
 30
0.0
 11
70.0
 21
-211.4912147222222
 31
0.0
  0
TEXT
  5
54
  8
HIBINO-BASE
 62
     7
 10
71.799999999999955
 20
-216.50860138888879
 30
0.0
 40
3.2576822916666659
  1
TITLE
 41
0.7
 11
71.799999999999955
 21
-213.25091909722209
 31
0.0
 73
     3
  0
LINE
  5
55
  8
HIBINO-BASE
  6
CONTINUOUS
 62
     7
 10
0.0
 20
-236.4912147222222
 30
0.0
 11
180.0
 21
-236.4912147222222
 31
0.0
  0
TEXT
  5
56
  8
HIBINO-BASE
 62
     7
 10
96.799999999999969
 20
-241.39596138888879
 30
0.0
 40
3.2576822916666659
  1
DRAWN
 41
0.7
 11
96.799999999999969
 21
-238.1382790972221
 31
0.0
 73
     3
  0
TEXT
  5
57
  8
HIBINO-BASE
 62
     7
 10
46.799999999999962
 20
-241.39596138888879
 30
0.0
 40
3.2576822916666659
  1
DATE
 41
0.7
 11
46.799999999999962
 21
-238.1382790972221
 31
0.0
 73
     3
  0
TEXT
  5
58
  8
HIBINO-BASE
 62
     7
 10
26.799999999999951
 20
-241.39596138888879
 30
0.0
 40
3.2576822916666659
  1
SCALE
 41
0.7
 11
26.799999999999951
 21
-238.1382790972221
 31
0.0
 73
     3
  0
TEXT
  5
59
  8
HIBINO-BASE
 62
     7
 10
71.799999999999955
 20
-241.39596138888879
 30
0.0
 40
3.2576822916666659
  1
DESIGN
 41
0.7
 11
71.799999999999955
 21
-238.1382790972221
 31
0.0
 73
     3
  0
TEXT
  5
5A
  8
HIBINO-BASE
 62
     7
 10
146.7999999999999
 20
-241.39596138888879
 30
0.0
 40
3.2576822916666659
  1
DRAWING NO.
 41
0.7
 11
146.7999999999999
 21
-238.1382790972221
 31
0.0
 73
     3
  0
TEXT
  5
5B
  8
HIBINO-BASE
 62
     7
 10
121.7999999999999
 20
-241.39596138888879
 30
0.0
 40
3.2576822916666659
  1
CHECK
 41
0.7
 11
121.7999999999999
 21
-238.1382790972221
 31
0.0
 73
     3
  0
LINE
  5
5C
  8
HIBINO-BASE
  6
CONTINUOUS
 62
     7
 10
28.75
 20
-253.9912147222222
 30
0.0
 11
36.25
 21
-246.49121472222211
 31
0.0
  0
TEXT
  5
5D
  8
HIBINO-BASE
 62
     7
 10
27.5
 20
-248.70910138888891
 30
0.0
 40
3.2576822916666659
  1
1
 41
0.7
 11
27.5
 21
-245.45141909722221
 31
0.0
 73
     3
  0
LINE
  5
5E
  8
HIBINO-BASE
  6
CONTINUOUS
 62
     7
 10
25.0
 20
-256.4912147222222
 30
0.0
 11
25.0
 21
-236.4912147222222
 31
0.0
  0
LINE
  5
5F
  8
HIBINO-BASE
  6
CONTINUOUS
 62
     7
 10
45.0
 20
-256.4912147222222
 30
0.0
 11
45.0
 21
-236.4912147222222
 31
0.0
  0
LINE
  5
60
  8
HIBINO-BASE
  6
CONTINUOUS
 62
     7
 10
95.0
 20
-236.4912147222222
 30
0.0
 11
95.0
 21
-256.4912147222222
 31
0.0
  0
LINE
  5
61
  8
HIBINO-BASE
  6
CONTINUOUS
 62
     7
 10
145.0
 20
-236.4912147222222
 30
0.0
 11
145.0
 21
-256.4912147222222
 31
0.0
  0
LINE
  5
62
  8
HIBINO-BASE
  6
CONTINUOUS
 62
     7
 10
120.0
 20
-256.4912147222222
 30
0.0
 11
120.0
 21
-236.4912147222222
 31
0.0
  0
TEXT
  5
63
  8
HIBINO-BASE
 62
     7
 10
98.011620022069224
 20
-250.7639213888888
 30
0.0
 40
3.2576822916666659
  1
N.Sasaki
 41
0.7
 11
98.011620022069224
 21
-247.50623909722219
 31
0.0
 73
     3
  0
TEXT
  5
64
  8
HIBINO-BASE
 62
     7
 10
7.7666666666667652
 20
-252.5392147222222
 30
0.0
 40
6.5153645833333318
  1
A4
 41
0.7
 11
7.7666666666667652
 21
-246.0238501388888
 31
0.0
 73
     3
  0
TEXT
  5
65
  8
HIBINO-BASE
 62
     7
 10
1.9166666666666281
 20
-241.7301247222222
 30
0.0
 40
3.2576822916666659
  1
PAPER SIZE
 41
0.7
 11
1.9166666666666281
 21
-238.4724424305555
 31
0.0
 73
     3
  0
TEXT
  5
66
  8
HIBINO-BASE
 62
     7
 10
-165.63199999999989
 20
-269.30857032222218
 30
0.0
 40
7.2000883593749991
  1
Hibino Corporation
 41
0.7
 11
-165.63199999999989
 21
-262.10848196284718
 31
0.0
 73
     3
  0
TEXT
  5
67
  8
HIBINO-BASE
 62
     7
 10
100.13678
 20
-269.30857032222218
 30
0.0
 40
7.2000883593749991
  1
ヒビノ株式会社
 41
0.7
 11
100.13678
 21
-262.10848196284718
 31
0.0
 73
     3
  0
LINE
  5
68
  8
PATTERN_FILL
  6
CONTINUOUS
 62
     7
 10
-48.0
 20
107.7639320225002
 30
0.0
 11
-48.0
 21
112.2360679774998
 31
0.0
  0
LINE
  5
69
  8
PATTERN_FILL
  6
CONTINUOUS
 62
     7
 10
-52.0
 20
107.7639320225002
 30
0.0
 11
-52.0
 21
112.2360679774998
 31
0.0
  0
LINE
  5
6A
  8
PATTERN_FILL
  6
CONTINUOUS
 62
     7
 10
-53.0
 20
110.0
 30
0.0
 11
-47.0
 21
110.0
 31
0.0
  0
LINE
  5
6B
  8
PATTERN_FILL
  6
CONTINUOUS
 62
     7
 10
-52.828427124746177
 20
111.0
 30
0.0
 11
-47.171572875253823
 21
111.0
 31
0.0
  0
LINE
  5
6C
  8
PATTERN_FILL
  6
CONTINUOUS
 62
     7
 10
-52.236067977499779
 20
112.0
 30
0.0
 11
-47.7639320225002
 21
112.0
 31
0.0
  0
LINE
  5
6D
  8
PATTERN_FILL
  6
CONTINUOUS
 62
     7
 10
-52.828427124746177
 20
109.0
 30
0.0
 11
-47.171572875253823
 21
109.0
 31
0.0
  0
LINE
  5
6E
  8
PATTERN_FILL
  6
CONTINUOUS
 62
     7
 10
-52.236067977499779
 20
108.0
 30
0.0
 11
-47.7639320225002
 21
108.0
 31
0.0
  0
LINE
  5
6F
  8
PATTERN_FILL
  6
CONTINUOUS
 62
     7
 10
-50.0
 20
107.0
 30
0.0
 11
-50.0
 21
113.0
 31
0.0
  0
LINE
  5
70
  8
PATTERN_FILL
  6
CONTINUOUS
 62
     7
 10
-49.0
 20
107.1715728752538
 30
0.0
 11
-49.0
 21
112.8284271247462
 31
0.0
  0
LINE
  5
71
  8
PATTERN_FILL
  6
CONTINUOUS
 62
     7
 10
-51.0
 20
107.1715728752538
 30
0.0
 11
-51.0
 21
112.8284271247462
 31
0.0
  0
LINE
  5
72
  8
SPEC
  6
CONTINUOUS
 62
     7
 10
-164.99999999999989
 20
243.5087852777778
 30
0.0
 11
130.0
 21
243.5087852777778
 31
0.0
  0
LINE
  5
73
  8
SPEC
  6
CONTINUOUS
 62
     7
 10
-164.99999999999989
 20
236.00878527777769
 30
0.0
 11
130.0
 21
236.00878527777769
 31
0.0
  0
LINE
  5
74
  8
SPEC
  6
CONTINUOUS
 62
     7
 10
-164.99999999999989
 20
206.00878527777769
 30
0.0
 11
130.0
 21
206.00878527777769
 31
0.0
  0
LINE
  5
75
  8
SPEC
  6
CONTINUOUS
 62
     7
 10
-164.99999999999989
 20
213.5087852777778
 30
0.0
 11
130.0
 21
213.5087852777778
 31
0.0
  0
LINE
  5
76
  8
SPEC
  6
CONTINUOUS
 62
     7
 10
-164.99999999999989
 20
221.00878527777769
 30
0.0
 11
130.0
 21
221.00878527777769
 31
0.0
  0
LINE
  5
77
  8
SPEC
  6
CONTINUOUS
 62
     7
 10
-164.99999999999989
 20
228.5087852777778
 30
0.0
 11
130.0
 21
228.5087852777778
 31
0.0
  0
TEXT
  5
78
  8
SPEC
 62
     7
 10
-98.200000000000003
 20
237.5846284777777
 30
0.0
 40
3.8006224999999989
  1
コンデンサー型 
 41
0.7
 11
-98.200000000000003
 21
241.38525097777779
 31
0.0
 73
     3
  0
LINE
  5
79
  8
SPEC
  6
CONTINUOUS
 62
     7
 10
-164.99999999999989
 20
243.5087852777778
 30
0.0
 11
-164.99999999999989
 21
176.00878527777769
 31
0.0
  0
TEXT
  5
7A
  8
SPEC
 62
     7
 10
-162.5
 20
246.29532527777769
 30
0.0
 40
4.8865234375000002
  1
仕様
 41
0.7
 11
-162.5
 21
251.18184871527779
 31
0.0
 73
     3
  0
LINE
  5
7B
  8
SPEC
  6
CONTINUOUS
 62
     7
 10
-100.0
 20
243.5087852777778
 30
0.0
 11
-100.0
 21
176.00878527777769
 31
0.0
  0
LINE
  5
7C
  8
SPEC
  6
CONTINUOUS
 62
     7
 10
130.0
 20
243.5087852777778
 30
0.0
 11
130.0
 21
176.00878527777769
 31
0.0
  0
TEXT
  5
7D
  8
SPEC
 62
     7
 10
-163.19999999999999
 20
177.58462847777781
 30
0.0
 40
3.8006224999999989
  1
付属品
 41
0.7
 11
-163.19999999999999
 21
181.38525097777779
 31
0.0
 73
     3
  0
TEXT
  5
7E
  8
SPEC
 62
     7
 10
-163.19999999999999
 20
192.58462083333339
 30
0.0
 40
3.8006293402777769
  1
寸法(\U+03C6\U+00D7全長)
 41
0.7
 11
-163.19999999999999
 21
196.3852501736111
 31
0.0
 73
     3
  0
TEXT
  5
7F
  8
SPEC
 62
     7
 10
-163.19999999999999
 20
185.08462847777781
 30
0.0
 40
3.8006224999999989
  1
質量
 41
0.7
 11
-163.19999999999999
 21
188.8852509777779
 31
0.0
 73
     3
  0
TEXT
  5
80
  8
SPEC
 62
     7
 10
-163.19999999999999
 20
237.5846284777777
 30
0.0
 40
3.8006224999999989
  1
形式
 41
0.7
 11
-163.19999999999999
 21
241.38525097777779
 31
0.0
 73
     3
  0
TEXT
  5
81
  8
SPEC
 62
     7
 10
-163.19999999999999
 20
230.08462847777781
 30
0.0
 40
3.8006224999999989
  1
指向特性
 41
0.7
 11
-163.19999999999999
 21
233.8852509777777
 31
0.0
 73
     3
  0
TEXT
  5
82
  8
SPEC
 62
     7
 10
-98.200000000000003
 20
177.58462847777781
 30
0.0
 40
3.8006224999999989
  1
ウインドスクリーン
 41
0.7
 11
-98.200000000000003
 21
181.38525097777779
 31
0.0
 73
     3
  0
TEXT
  5
83
  8
SPEC
 62
     7
 10
-98.200000000000003
 20
192.58462083333339
 30
0.0
 40
3.8006293402777769
  1
\U+03C69.1\U+00D7122.1mm
 41
0.7
 11
-98.200000000000003
 21
196.3852501736111
 31
0.0
 73
     3
  0
TEXT
  5
84
  8
SPEC
 62
     7
 10
-98.200000000000003
 20
185.08462847777781
 30
0.0
 40
3.8006224999999989
  1
25g
 41
0.7
 11
-98.200000000000003
 21
188.8852509777779
 31
0.0
 73
     3
  0
TEXT
  5
85
  8
SPEC
 62
     7
 10
-98.200000000000003
 20
230.08462847777781
 30
0.0
 40
3.8006224999999989
  1
ハイパーカーディオイド
 41
0.7
 11
-98.200000000000003
 21
233.8852509777777
 31
0.0
 73
     3
  0
LINE
  5
86
  8
SPEC
  6
CONTINUOUS
 62
     7
 10
-164.99999999999989
 20
198.50878527777769
 30
0.0
 11
130.0
 21
198.50878527777769
 31
0.0
  0
LINE
  5
87
  8
SPEC
  6
CONTINUOUS
 62
     7
 10
-164.99999999999989
 20
191.00878527777769
 30
0.0
 11
130.0
 21
191.00878527777769
 31
0.0
  0
LINE
  5
88
  8
SPEC
  6
CONTINUOUS
 62
     7
 10
-164.99999999999989
 20
183.50878527777769
 30
0.0
 11
130.0
 21
183.50878527777769
 31
0.0
  0
LINE
  5
89
  8
SPEC
  6
CONTINUOUS
 62
     7
 10
-164.99999999999989
 20
176.00878527777769
 30
0.0
 11
130.0
 21
176.00878527777769
 31
0.0
  0
TEXT
  5
8A
  8
SPEC
 62
     7
 10
-163.19999999999999
 20
222.58462847777781
 30
0.0
 40
3.8006224999999989
  1
周波数特性
 41
0.7
 11
-163.19999999999999
 21
226.38525097777779
 31
0.0
 73
     3
  0
TEXT
  5
8B
  8
SPEC
 62
     7
 10
-98.200000000000003
 20
222.58462847777781
 30
0.0
 40
3.8006224999999989
  1
60Hz～20kHz
 41
0.7
 11
-98.200000000000003
 21
226.38525097777779
 31
0.0
 73
     3
  0
TEXT
  5
8C
  8
SPEC
 62
     7
 10
-163.19999999999999
 20
215.0846284777777
 30
0.0
 40
3.8006224999999989
  1
開回路感度
 41
0.7
 11
-163.19999999999999
 21
218.88525097777779
 31
0.0
 73
     3
  0
TEXT
  5
8D
  8
SPEC
 62
     7
 10
-98.200000000000003
 20
215.0846284777777
 30
0.0
 40
3.8006224999999989
  1
-40dB re 1V/Pa
 41
0.7
 11
-98.200000000000003
 21
218.88525097777779
 31
0.0
 73
     3
  0
TEXT
  5
8E
  8
SPEC
 62
     7
 10
-163.19999999999999
 20
207.58462847777781
 30
0.0
 40
3.8006224999999989
  1
最大音圧レベル
 41
0.7
 11
-163.19999999999999
 21
211.38525097777779
 31
0.0
 73
     3
  0
TEXT
  5
8F
  8
SPEC
 62
     7
 10
-98.200000000000003
 20
207.58462847777781
 30
0.0
 40
3.8006224999999989
  1
136dB SPL(THD 3%%%)
 41
0.7
 11
-98.200000000000003
 21
211.38525097777779
 31
0.0
 73
     3
  0
TEXT
  5
90
  8
SPEC
 62
     7
 10
-163.19999999999999
 20
200.0846284777777
 30
0.0
 40
3.8006224999999989
  1
等価雑音レベル
 41
0.7
 11
-163.19999999999999
 21
203.88525097777779
 31
0.0
 73
     3
  0
TEXT
  5
91
  8
SPEC
 62
     7
 10
-98.200000000000003
 20
200.0846284777777
 30
0.0
 40
3.8006224999999989
  1
21dB SPL(Aウェイト）
 41
0.7
 11
-98.200000000000003
 21
203.88525097777779
 31
0.0
 73
     3
  0
TEXT
  5
92
  8
DIMNSIONS
 62
     7
 10
-40.0
 20
-231.9522347222221
 30
0.0
 40
4.8865234375000002
  1
(単位：mm)
 41
0.7
 11
-40.0
 21
-227.06571128472211
 31
0.0
 73
     3
  0
LINE
  5
93
  8
DIMNSIONS
  6
CONTINUOUS
 62
     7
 10
-57.350000000000001
 20
62.100000000000001
 30
0.0
 11
-74.0
 21
62.100000000000001
 31
0.0
  0
LINE
  5
94
  8
DIMNSIONS
  6
CONTINUOUS
 62
     7
 10
-58.549999999999997
 20
-60.0
 30
0.0
 11
-74.0
 21
-60.0
 31
0.0
  0
LINE
  5
95
  8
DIMNSIONS
  6
CONTINUOUS
 62
     7
 10
-70.0
 20
62.100000000000001
 30
0.0
 11
-70.0
 21
-60.0
 31
0.0
  0
LINE
  5
96
  8
DIMNSIONS
  6
CONTINUOUS
 62
     7
 10
-70.0
 20
62.100000000000001
 30
0.0
 11
-68.659920409699509
 21
57.098754882812493
 31
0.0
  0
LINE
  5
97
  8
DIMNSIONS
  6
CONTINUOUS
 62
     7
 10
-70.0
 20
62.100000000000001
 30
0.0
 11
-71.340079590300491
 21
57.098754882812493
 31
0.0
  0
LINE
  5
98
  8
DIMNSIONS
  6
CONTINUOUS
 62
     7
 10
-70.0
 20
-60.0
 30
0.0
 11
-71.340079590300491
 21
-54.998754882812499
 31
0.0
  0
LINE
  5
99
  8
DIMNSIONS
  6
CONTINUOUS
 62
     7
 10
-70.0
 20
-60.0
 30
0.0
 11
-68.659920409699509
 21
-54.998754882812499
 31
0.0
  0
TEXT
  5
9A
  8
DIMNSIONS
 62
     7
 10
-71.487777777777737
 20
-7.7694444444444466
 30
0.0
 40
5.4294704861111107
  1
122.1
 50
90.0
 41
0.7
 11
-76.917248263888851
 21
-7.7694444444444457
 31
0.0
 73
     3
  0
LINE
  5
9B
  8
DIMNSIONS
  6
CONTINUOUS
 62
     7
 10
48.838834764831859
 20
-108.8388347648318
 30
0.0
 11
55.0
 21
-115.0
 31
0.0
  0
LINE
  5
9C
  8
DIMNSIONS
  6
CONTINUOUS
 62
     7
 10
48.838834764831859
 20
-108.8388347648318
 30
0.0
 11
53.367326933357667
 21
-111.3490189632787
 31
0.0
  0
LINE
  5
9D
  8
DIMNSIONS
  6
CONTINUOUS
 62
     7
 10
48.838834764831859
 20
-108.8388347648318
 30
0.0
 11
51.505531924390681
 21
-113.276964133128
 31
0.0
  0
LINE
  5
9E
  8
DIMNSIONS
  6
CONTINUOUS
 62
     7
 10
55.0
 20
-115.0
 30
0.0
 11
73.1111111111111
 21
-115.0
 31
0.0
  0
TEXT
  5
9F
  8
DIMNSIONS
 62
     7
 10
59.0
 20
-113.01222222222221
 30
0.0
 40
5.4294704861111107
  1
\U+03C625
 41
0.7
 11
59.0
 21
-107.58275173611101
 31
0.0
 73
     3
  0
LINE
  5
A0
  8
DIMNSIONS
  6
CONTINUOUS
 62
     7
 10
28.5
 20
74.0
 30
0.0
 11
16.0
 21
74.0
 31
0.0
  0
LINE
  5
A1
  8
DIMNSIONS
  6
CONTINUOUS
 62
     7
 10
31.5
 20
-60.0
 30
0.0
 11
16.0
 21
-60.0
 31
0.0
  0
LINE
  5
A2
  8
DIMNSIONS
  6
CONTINUOUS
 62
     7
 10
20.0
 20
74.0
 30
0.0
 11
20.0
 21
-60.0
 31
0.0
  0
LINE
  5
A3
  8
DIMNSIONS
  6
CONTINUOUS
 62
     7
 10
20.0
 20
74.0
 30
0.0
 11
21.340079590300491
 21
68.998754882812506
 31
0.0
  0
LINE
  5
A4
  8
DIMNSIONS
  6
CONTINUOUS
 62
     7
 10
20.0
 20
74.0
 30
0.0
 11
18.65992040969952
 21
68.998754882812506
 31
0.0
  0
LINE
  5
A5
  8
DIMNSIONS
  6
CONTINUOUS
 62
     7
 10
20.0
 20
-60.0
 30
0.0
 11
18.65992040969952
 21
-54.998754882812499
 31
0.0
  0
LINE
  5
A6
  8
DIMNSIONS
  6
CONTINUOUS
 62
     7
 10
20.0
 20
-60.0
 30
0.0
 11
21.340079590300491
 21
-54.998754882812499
 31
0.0
  0
TEXT
  5
A7
  8
DIMNSIONS
 62
     7
 10
18.012220720879402
 20
1.7083252588907869
 30
0.0
 40
5.4294787384697791
  1
134
 50
90.0
 41
0.7
 11
12.58274198240963
 21
1.708325258890788
 31
0.0
 73
     3
  0
LINE
  5
A8
  8
DIMNSIONS
  6
CONTINUOUS
 62
     7
 10
-46.782664145601217
 20
-103.2173358543988
 30
0.0
 11
-40.0
 21
-110.0
 31
0.0
  0
LINE
  5
A9
  8
DIMNSIONS
  6
CONTINUOUS
 62
     7
 10
-46.782664145601217
 20
-103.2173358543988
 30
0.0
 11
-42.298670443230648
 21
-105.806170825507
 31
0.0
  0
LINE
  5
AA
  8
DIMNSIONS
  6
CONTINUOUS
 62
     7
 10
-46.782664145601217
 20
-103.2173358543988
 30
0.0
 11
-44.193829174492969
 21
-107.70132955676929
 31
0.0
  0
LINE
  5
AB
  8
DIMNSIONS
  6
CONTINUOUS
 62
     7
 10
-40.0
 20
-110.0
 30
0.0
 11
-18.361109765370689
 21
-110.0
 31
0.0
  0
TEXT
  5
AC
  8
DIMNSIONS
 62
     7
 10
-36.0
 20
-108.0122221339079
 30
0.0
 40
5.4294709715436644
  1
\U+03C69.1
 41
0.7
 11
-36.0
 21
-102.5827511623643
 31
0.0
 73
     3
  0
LINE
  5
AD
  8
DATA
  6
CONTINUOUS
 62
     7
 10
-45.450000000000003
 20
-60.0
 30
0.0
 11
-54.549999999999997
 21
-60.0
 31
0.0
  0
TEXT
  5
AE
  8
DATA
 62
     7
 10
99.999999999999943
 20
-234.8304839834739
 30
0.0
 40
5.4243445878751189
  1
CK49
 41
0.7
 11
99.999999999999943
 21
-229.4061393955987
 31
0.0
 73
     3
  0
TEXT
  5
AF
  8
DATA
 62
     7
 10
99.999999999999943
 20
-220.3304839834739
 30
0.0
 40
5.4243445878751189
  1
AKG
 41
0.7
 11
99.999999999999943
 21
-214.9061393955987
 31
0.0
 73
     3
  0
TEXT
  5
B0
  8
DATA
 62
     7
 10
-175.0
 20
-240.73865916666671
 30
0.0
 40
3.8006293402777769
  1
※仕様及び外観は予告なく変更されることがあります。
 41
0.7
 11
-175.0
 21
-236.93802982638891
 31
0.0
 73
     3
  0
TEXT
  5
B1
  8
DATA
 62
     7
 10
-175.0
 20
-245.67754805555549
 30
0.0
 40
3.8006293402777769
  1
　また、同一商品でも若干の個体差があることがあります。ご了承ください。
 41
0.7
 11
-175.0
 21
-241.8769187152777
 31
0.0
 73
     3
  0
LINE
  5
B2
  8
DATA
  6
CONTINUOUS
 62
     7
 10
-54.549999999999997
 20
-60.0
 30
0.0
 11
-54.549999999999997
 21
53.0
 31
0.0
  0
LINE
  5
B3
  8
DATA
  6
CONTINUOUS
 62
     7
 10
-45.450000000000003
 20
53.0
 30
0.0
 11
-45.450000000000003
 21
-60.0
 31
0.0
  0
CIRCLE
  5
B4
  8
DATA
  6
CONTINUOUS
 62
     7
 10
-50.0
 20
-100.0
 30
0.0
 40
4.5499999999999972
  0
CIRCLE
  5
B5
  8
DATA
  6
CONTINUOUS
 62
     7
 10
-50.0
 20
110.0
 30
0.0
 40
4.5499999999999972
  0
CIRCLE
  5
B6
  8
DATA
  6
CONTINUOUS
 62
     7
 10
-50.0
 20
110.0
 30
0.0
 40
3.0
  0
CIRCLE
  5
B7
  8
DATA
  6
CONTINUOUS
 62
     7
 10
-50.0
 20
110.0
 30
0.0
 40
3.350000000000001
  0
LINE
  5
B8
  8
DATA
  6
CONTINUOUS
 62
     7
 10
-54.549999999999997
 20
53.0
 30
0.0
 11
-54.450000000000003
 21
56.100000000000001
 31
0.0
  0
LINE
  5
B9
  8
DATA
  6
CONTINUOUS
 62
     7
 10
-45.450000000000003
 20
53.0
 30
0.0
 11
-45.54999999999999
 21
56.100000000000001
 31
0.0
  0
LINE
  5
BA
  8
DATA
  6
CONTINUOUS
 62
     7
 10
-54.450000000000003
 20
56.100000000000001
 30
0.0
 11
-53.350000000000001
 21
62.100000000000001
 31
0.0
  0
LINE
  5
BB
  8
DATA
  6
CONTINUOUS
 62
     7
 10
-46.650000000000013
 20
62.100000000000001
 30
0.0
 11
-45.54999999999999
 21
56.100000000000001
 31
0.0
  0
LINE
  5
BC
  8
DATA
  6
CONTINUOUS
 62
     7
 10
-53.350000000000001
 20
62.100000000000001
 30
0.0
 11
-46.650000000000013
 21
62.100000000000001
 31
0.0
  0
TEXT
  5
BD
  8
DATA
 62
     7
 10
-53.319982449754761
 20
-54.978375959610503
 30
0.0
 40
2.7147352430555549
  1
CK49
 41
0.7
 72
     1
 11
-49.836072221166802
 21
-53.621008338082717
 31
0.0
 73
     2
  0
INSERT
  5
BE
  8
DATA
 62
     7
  2
__NNA_WALL_STYLE_FORMAT_TE
 10
0.0
 20
0.0
 30
0.0
  0
LINE
  5
BF
  8
DATA
  6
CONTINUOUS
 62
     7
 10
30.5
 20
56.0
 30
0.0
 11
30.921254678729198
 21
64.425093574584153
 31
0.0
  0
LINE
  5
C0
  8
DATA
  6
CONTINUOUS
 62
     7
 10
35.499999999999993
 20
-60.0
 30
0.0
 11
44.499999999999993
 21
-60.0
 31
0.0
  0
LINE
  5
C1
  8
DATA
  6
CONTINUOUS
 62
     7
 10
49.07874532127078
 20
64.425093574584153
 30
0.0
 11
49.499999999999993
 21
56.0
 31
0.0
  0
LINE
  5
C2
  8
DATA
  6
CONTINUOUS
 62
     7
 10
30.921254678729198
 20
64.425093574584153
 30
0.0
 11
32.5
 21
74.0
 31
0.0
  0
LINE
  5
C3
  8
DATA
  6
CONTINUOUS
 62
     7
 10
47.499999999999993
 20
74.0
 30
0.0
 11
49.07874532127078
 21
64.425093574584153
 31
0.0
  0
POLYLINE
  5
C4
  8
DATA
  6
CONTINUOUS
 62
     7
 66
     1
 10
0.0
 20
0.0
 30
0.0
 70
     1
  0
VERTEX
  5
1F0
  8
DATA
  6
CONTINUOUS
 62
     7
 10
44.499999999999993
 20
-45.536546389129292
 30
0.0
  0
VERTEX
  5
1F1
  8
DATA
  6
CONTINUOUS
 62
     7
 10
41.94444444444445
 20
-44.226240521146281
 30
0.0
  0
VERTEX
  5
1F2
  8
DATA
  6
CONTINUOUS
 62
     7
 10
41.94444444444445
 20
-40.485877143875072
 30
0.0
  0
VERTEX
  5
1F3
  8
DATA
  6
CONTINUOUS
 62
     7
 10
44.499999999999993
 20
-39.265937197821827
 30
0.0
  0
VERTEX
  5
1F4
  8
DATA
  6
CONTINUOUS
 62
     7
 10
44.499999999999993
 20
-36.600000000000001
 30
0.0
  0
VERTEX
  5
1F5
  8
DATA
  6
CONTINUOUS
 62
     7
 10
35.499999999999993
 20
-41.393465316301217
 30
0.0
  0
VERTEX
  5
1F6
  8
DATA
  6
CONTINUOUS
 62
     7
 10
35.499999999999993
 20
-43.409018270649959
 30
0.0
  0
VERTEX
  5
1F7
  8
DATA
  6
CONTINUOUS
 62
     7
 10
44.499999999999993
 20
-48.0
 30
0.0
  0
SEQEND
  5
1F8
  8
DATA
  6
CONTINUOUS
 62
     7
  0
POLYLINE
  5
CF
  8
DATA
  6
CONTINUOUS
 62
     7
 66
     1
 10
0.0
 20
0.0
 30
0.0
 70
     1
  0
VERTEX
  5
1F9
  8
DATA
  6
CONTINUOUS
 62
     7
 10
40.291304415995079
 20
-43.281992393483677
 30
0.0
  0
VERTEX
  5
1FA
  8
DATA
  6
CONTINUOUS
 62
     7
 10
40.291304415995079
 20
-41.100906114540493
 30
0.0
  0
VERTEX
  5
1FB
  8
DATA
  6
CONTINUOUS
 62
     7
 10
38.542222222222136
 20
-42.152501284745277
 30
0.0
  0
SEQEND
  5
1FC
  8
DATA
  6
CONTINUOUS
 62
     7
  0
POLYLINE
  5
D5
  8
DATA
  6
CONTINUOUS
 62
     7
 66
     1
 10
0.0
 20
0.0
 30
0.0
 70
     1
  0
VERTEX
  5
1FD
  8
DATA
  6
CONTINUOUS
 62
     7
 10
39.127102972794532
 20
-30.858579700626851
 30
0.0
  0
VERTEX
  5
1FE
  8
DATA
  6
CONTINUOUS
 62
     7
 10
44.499999999999993
 20
-25.300000000000001
 30
0.0
  0
VERTEX
  5
1FF
  8
DATA
  6
CONTINUOUS
 62
     7
 10
44.499999999999993
 20
-28.17592825222475
 30
0.0
  0
VERTEX
  5
200
  8
DATA
  6
CONTINUOUS
 62
     7
 10
40.2202851369941
 20
-32.407756343617699
 30
0.0
  0
VERTEX
  5
201
  8
DATA
  6
CONTINUOUS
 62
     7
 10
41.202076044540931
 20
-33.799077563522417
 30
0.0
  0
VERTEX
  5
202
  8
DATA
  6
CONTINUOUS
 62
     7
 10
44.494366651712198
 20
-33.799077563522417
 30
0.0
  0
VERTEX
  5
203
  8
DATA
  6
CONTINUOUS
 62
     7
 10
44.494366651712198
 20
-36.600000000000001
 30
0.0
  0
VERTEX
  5
204
  8
DATA
  6
CONTINUOUS
 62
     7
 10
35.499999999999993
 20
-36.600000000000001
 30
0.0
  0
VERTEX
  5
205
  8
DATA
  6
CONTINUOUS
 62
     7
 10
35.499999999999993
 20
-33.799077563522417
 30
0.0
  0
VERTEX
  5
206
  8
DATA
  6
CONTINUOUS
 62
     7
 10
39.237768203287601
 20
-33.799077563522417
 30
0.0
  0
VERTEX
  5
207
  8
DATA
  6
CONTINUOUS
 62
     7
 10
35.499999999999993
 20
-28.588359788359821
 30
0.0
  0
VERTEX
  5
208
  8
DATA
  6
CONTINUOUS
 62
     7
 10
35.499999999999993
 20
-25.7185185185186
 30
0.0
  0
SEQEND
  5
209
  8
DATA
  6
CONTINUOUS
 62
     7
  0
POLYLINE
  5
E4
  8
DATA
  6
CONTINUOUS
 62
     7
 66
     1
 10
0.0
 20
0.0
 30
0.0
 70
   129
  0
VERTEX
  5
20A
  8
DATA
  6
CONTINUOUS
 62
     7
 10
44.499999999999993
 20
-16.181193487489761
 30
0.0
  0
VERTEX
  5
20B
  8
DATA
  6
CONTINUOUS
 62
     7
 10
44.499999999999993
 20
-14.03804407245619
 30
0.0
  0
VERTEX
  5
20C
  8
DATA
  6
CONTINUOUS
 62
     7
 10
39.52941554182474
 20
-14.019022036228151
 30
0.0
  0
VERTEX
  5
20D
  8
DATA
  6
CONTINUOUS
 62
     7
 10
39.52941554182474
 20
-19.757336298374209
 30
0.0
  0
VERTEX
  5
20E
  8
DATA
  6
CONTINUOUS
 62
     7
 10
40.578395620894767
 20
-19.757336298374209
 30
0.0
  0
VERTEX
  5
20F
  8
DATA
  6
CONTINUOUS
 62
     7
 10
40.578395620894767
 20
-16.56163421205197
 30
0.0
  0
VERTEX
  5
210
  8
DATA
  6
CONTINUOUS
 62
     7
 10
41.505272198697362
 20
-16.56163421205197
 30
0.0
  0
VERTEX
  5
211
  8
DATA
  6
CONTINUOUS
 62
     7
 10
42.021436999509582
 20
-16.63772235696451
 30
0.0
  0
VERTEX
  5
212
  8
DATA
  6
CONTINUOUS
 62
     7
 10
42.553205705339892
 20
-16.944466212023229
 30
0.0
  0
VERTEX
  5
213
  8
DATA
  6
CONTINUOUS
 62
     7
 10
42.858464458508358
 20
-17.347153395707071
 30
0.0
  0
VERTEX
  5
214
  8
DATA
  6
CONTINUOUS
 62
     7
 10
43.150894386233219
 20
-17.83611063933537
 30
0.0
  0
VERTEX
  5
215
  8
DATA
  6
CONTINUOUS
 62
     7
 10
43.278548046649028
 20
-18.254595436353679
 30
0.0
  0
VERTEX
  5
216
  8
DATA
  6
CONTINUOUS
 62
     7
 10
43.35347519515404
 20
-18.835417716908928
 30
0.0
  0
VERTEX
  5
217
  8
DATA
  6
CONTINUOUS
 62
     7
 10
43.408976786639222
 20
-19.42762100375376
 30
0.0
  0
VERTEX
  5
218
  8
DATA
  6
CONTINUOUS
 62
     7
 10
43.359025354302638
 20
-19.934875303170109
 30
0.0
  0
VERTEX
  5
219
  8
DATA
  6
CONTINUOUS
 62
     7
 10
43.270222807926309
 20
-20.420587402584761
 30
0.0
  0
VERTEX
  5
21A
  8
DATA
  6
CONTINUOUS
 62
     7
 10
43.103718033470749
 20
-20.82257032714849
 30
0.0
  0
VERTEX
  5
21B
  8
DATA
  6
CONTINUOUS
 62
     7
 10
42.881711667529977
 20
-21.329824626564641
 30
0.0
  0
VERTEX
  5
21C
  8
DATA
  6
CONTINUOUS
 62
     7
 10
42.576452914361489
 20
-21.732511810248589
 30
0.0
  0
VERTEX
  5
21D
  8
DATA
  6
CONTINUOUS
 62
     7
 10
42.021436999509582
 20
-22.090706075689148
 30
0.0
  0
VERTEX
  5
21E
  8
DATA
  6
CONTINUOUS
 62
     7
 10
41.299916310202107
 20
-22.40774001282422
 30
0.0
  0
VERTEX
  5
21F
  8
DATA
  6
CONTINUOUS
 62
     7
 10
39.301859016735371
 20
-22.40774001282422
 30
0.0
  0
VERTEX
  5
220
  8
DATA
  6
CONTINUOUS
 62
     7
 10
38.441584348714983
 20
-22.154112863116129
 30
0.0
  0
VERTEX
  5
221
  8
DATA
  6
CONTINUOUS
 62
     7
 10
37.609060476437108
 20
-21.520044988845839
 30
0.0
  0
VERTEX
  5
222
  8
DATA
  6
CONTINUOUS
 62
     7
 10
37.276050927525958
 20
-21.080749879372561
 30
0.0
  0
VERTEX
  5
223
  8
DATA
  6
CONTINUOUS
 62
     7
 10
36.888073653787558
 20
-20.568943177440229
 30
0.0
  0
VERTEX
  5
224
  8
DATA
  6
CONTINUOUS
 62
     7
 10
36.736705677009752
 20
-20.1885024528782
 30
0.0
  0
VERTEX
  5
225
  8
DATA
  6
CONTINUOUS
 62
     7
 10
36.610565696361611
 20
-19.554434578607811
 30
0.0
  0
VERTEX
  5
226
  8
DATA
  6
CONTINUOUS
 62
     7
 10
36.576730874812682
 20
-19.097905709133311
 30
0.0
  0
VERTEX
  5
227
  8
DATA
  6
CONTINUOUS
 62
     7
 10
36.610713764422933
 20
-18.54626665851805
 30
0.0
  0
VERTEX
  5
228
  8
DATA
  6
CONTINUOUS
 62
     7
 10
36.786954987737239
 20
-17.84879199682069
 30
0.0
  0
VERTEX
  5
229
  8
DATA
  6
CONTINUOUS
 62
     7
 10
37.031843924991293
 20
-17.335197018661692
 30
0.0
  0
VERTEX
  5
22A
  8
DATA
  6
CONTINUOUS
 62
     7
 10
37.276050927525958
 20
-17.081569868953611
 30
0.0
  0
VERTEX
  5
22B
  8
DATA
  6
CONTINUOUS
 62
     7
 10
37.609060476437108
 20
-16.85330543421632
 30
0.0
  0
VERTEX
  5
22C
  8
DATA
  6
CONTINUOUS
 62
     7
 10
37.849389417320268
 20
-16.764535931818472
 30
0.0
  0
VERTEX
  5
22D
  8
DATA
  6
CONTINUOUS
 62
     7
 10
38.474885303606101
 20
-16.663085071935299
 30
0.0
  0
VERTEX
  5
22E
  8
DATA
  6
CONTINUOUS
 62
     7
 10
38.474885303606101
 20
-14.012681357485301
 30
0.0
  0
VERTEX
  5
22F
  8
DATA
  6
CONTINUOUS
 62
     7
 10
38.086374163209783
 20
-14.0
 30
0.0
  0
VERTEX
  5
230
  8
DATA
  6
CONTINUOUS
 62
     7
 10
37.831066842377943
 20
-14.03804407245619
 30
0.0
  0
VERTEX
  5
231
  8
DATA
  6
CONTINUOUS
 62
     7
 10
37.331552519011183
 20
-14.29167122216427
 30
0.0
  0
VERTEX
  5
232
  8
DATA
  6
CONTINUOUS
 62
     7
 10
36.859788991387099
 20
-14.60870515929942
 30
0.0
  0
VERTEX
  5
233
  8
DATA
  6
CONTINUOUS
 62
     7
 10
36.443527055248232
 20
-15.157824046140959
 30
0.0
  0
VERTEX
  5
234
  8
DATA
  6
CONTINUOUS
 62
     7
 10
36.04946575570343
 20
-15.788071405442169
 30
0.0
  0
VERTEX
  5
235
  8
DATA
  6
CONTINUOUS
 62
     7
 10
35.737096767691909
 20
-16.707469823134129
 30
0.0
  0
VERTEX
  5
236
  8
DATA
  6
CONTINUOUS
 62
     7
 10
35.540944421730032
 20
-18.013649644130911
 30
0.0
  0
VERTEX
  5
237
  8
DATA
  6
CONTINUOUS
 62
     7
 10
35.499999999999993
 20
-19.300807428899731
 30
0.0
  0
VERTEX
  5
238
  8
DATA
  6
CONTINUOUS
 62
     7
 10
35.555501591485189
 20
-20.340678742702941
 30
0.0
  0
VERTEX
  5
239
  8
DATA
  6
CONTINUOUS
 62
     7
 10
35.820820754264822
 20
-21.5302031610318
 30
0.0
  0
VERTEX
  5
23A
  8
DATA
  6
CONTINUOUS
 62
     7
 10
36.340938861275148
 20
-22.964425434038091
 30
0.0
  0
VERTEX
  5
23B
  8
DATA
  6
CONTINUOUS
 62
     7
 10
36.743235649268193
 20
-23.63783168890852
 30
0.0
  0
VERTEX
  5
23C
  8
DATA
  6
CONTINUOUS
 62
     7
 10
37.220549336040783
 20
-24.157767345810171
 30
0.0
  0
VERTEX
  5
23D
  8
DATA
  6
CONTINUOUS
 62
     7
 10
37.91086826128037
 20
-24.728428432653491
 30
0.0
  0
VERTEX
  5
23E
  8
DATA
  6
CONTINUOUS
 62
     7
 10
38.569238009130942
 20
-25.045462369788719
 30
0.0
  0
VERTEX
  5
23F
  8
DATA
  6
CONTINUOUS
 62
     7
 10
39.163105038022451
 20
-25.223001374584349
 30
0.0
  0
VERTEX
  5
240
  8
DATA
  6
CONTINUOUS
 62
     7
 10
39.607117769903851
 20
-25.300000000000001
 30
0.0
  0
VERTEX
  5
241
  8
DATA
  6
CONTINUOUS
 62
     7
 10
40.478492756221328
 20
-25.300000000000001
 30
0.0
  0
VERTEX
  5
242
  8
DATA
  6
CONTINUOUS
 62
     7
 10
41.266615355311089
 20
-25.21214097810525
 30
0.0
  0
VERTEX
  5
243
  8
DATA
  6
CONTINUOUS
 62
     7
 10
41.960385248875923
 20
-24.956692867390771
 30
0.0
  0
VERTEX
  5
244
  8
DATA
  6
CONTINUOUS
 62
     7
 10
42.576452914361489
 20
-24.62697757277023
 30
0.0
  0
VERTEX
  5
245
  8
DATA
  6
CONTINUOUS
 62
     7
 10
43.309073921965989
 20
-23.954865626043858
 30
0.0
  0
VERTEX
  5
246
  8
DATA
  6
CONTINUOUS
 62
     7
 10
43.891840632560488
 20
-22.991082457152931
 30
0.0
  0
VERTEX
  5
247
  8
DATA
  6
CONTINUOUS
 62
     7
 10
44.278066413307371
 20
-21.843419604723639
 30
0.0
  0
VERTEX
  5
248
  8
DATA
  6
CONTINUOUS
 62
     7
 10
44.380254637630131
 20
-21.27909919662299
 30
0.0
  0
VERTEX
  5
249
  8
DATA
  6
CONTINUOUS
 62
     7
 10
44.482932581877662
 20
-20.314421889618892
 30
0.0
  0
VERTEX
  5
24A
  8
DATA
  6
CONTINUOUS
 62
     7
 10
44.499583059323221
 20
-19.174887992159078
 30
0.0
  0
VERTEX
  5
24B
  8
DATA
  6
CONTINUOUS
 62
     7
 10
44.380254637630131
 20
-18.250043033837841
 30
0.0
  0
VERTEX
  5
24C
  8
DATA
  6
CONTINUOUS
 62
     7
 10
44.123426310346517
 20
-17.325868972434289
 30
0.0
  0
VERTEX
  5
24D
  8
DATA
  6
CONTINUOUS
 62
     7
 10
43.897435109422759
 20
-16.80950986798636
 30
0.0
  0
VERTEX
  5
24E
  8
DATA
  6
CONTINUOUS
 62
     7
 10
43.692034903213788
 20
-16.485546067139602
 30
0.0
  0
SEQEND
  5
24F
  8
DATA
  6
CONTINUOUS
 62
     7
  0
CIRCLE
  5
12B
  8
DATA
  6
CONTINUOUS
 62
     7
 10
40.0
 20
-100.0
 30
0.0
 40
12.5
  0
CIRCLE
  5
12C
  8
DATA
  6
CONTINUOUS
 62
     7
 10
40.0
 20
-100.0
 30
0.0
 40
4.5
  0
CIRCLE
  5
12D
  8
DATA
  6
CONTINUOUS
 62
     7
 10
40.0
 20
110.0
 30
0.0
 40
12.5
  0
LINE
  5
12E
  8
DATA
  6
CONTINUOUS
 62
     7
 10
-54.549999999999997
 20
53.0
 30
0.0
 11
-45.450000000000003
 21
53.0
 31
0.0
  0
INSERT
  5
12F
  8
DATA
 62
     7
  2
____
 10
0.0
 20
0.0
 30
0.0
  0
INSERT
  5
130
  8
DATA
 62
     7
  2
____-1
 10
0.0
 20
0.0
 30
0.0
  0
INSERT
  5
131
  8
DATA
 62
     7
  2
____-2
 10
0.0
 20
0.0
 30
0.0
  0
LINE
  5
132
  8
DATA
  6
CONTINUOUS
 62
     7
 10
32.5
 20
74.0
 30
0.0
 11
47.499999999999993
 21
74.0
 31
0.0
  0
LINE
  5
133
  8
DATA
  6
CONTINUOUS
 62
     7
 10
30.5
 20
56.0
 30
0.0
 11
30.5
 21
-55.0
 31
0.0
  0
LINE
  5
134
  8
DATA
  6
CONTINUOUS
 62
     7
 10
49.499999999999993
 20
56.0
 30
0.0
 11
49.499999999999993
 21
-55.0
 31
0.0
  0
ARC
  5
135
  8
DATA
  6
CONTINUOUS
 62
     7
 10
35.499999999999993
 20
-55.0
 30
0.0
 40
5.0
 50
180.0
 51
270.0
  0
ARC
  5
136
  8
DATA
  6
CONTINUOUS
 62
     7
 10
44.499999999999993
 20
-55.0
 30
0.0
 40
5.0
 50
270.0
 51
0.0
  0
TEXT
  5
137
  8
DATA
 62
     7
 10
8.2499999999999876
 20
-147.53999999999999
 30
0.0
 40
5.4294704861111107
  1
ウインドスクリーン
 41
0.7
 11
8.2499999999999876
 21
-142.11052951388891
 31
0.0
 73
     3
  0
TEXT
  5
138
  8
DATA
 62
     7
 10
-63.302202690972223
 20
-147.71473524305549
 30
0.0
 40
5.4294704861111107
  1
カートリッジ
 41
0.7
 72
     1
 11
-50.0
 21
-145.0
 31
0.0
 73
     2
  0
LINE
  5
139
  8
DATA
  6
CONTINUOUS
 62
     7
 10
-75.0
 20
-150.0
 30
0.0
 11
-25.0
 21
-150.0
 31
0.0
  0
LINE
  5
13A
  8
DATA
  6
CONTINUOUS
 62
     7
 10
5.0
 20
-150.0
 30
0.0
 11
75.0
 21
-150.0
 31
0.0
  0
TEXT
  5
13B
  8
DATA
 62
     7
 10
94.999999999999943
 20
-227.02559140472019
 30
0.0
 40
3.2576822916666659
  1
カートリッジ(コンデンサー型 )
 41
0.7
 11
94.999999999999943
 21
-223.76790911305361
 31
0.0
 73
     3
  0
CIRCLE
  5
13C
  8
DATA
  6
CONTINUOUS
 62
     7
 10
-54.0
 20
-48.5
 30
0.0
 40
0.5
  0
CIRCLE
  5
13D
  8
DATA
  6
CONTINUOUS
 62
     7
 10
-53.0
 20
-47.5
 30
0.0
 40
0.5
  0
CIRCLE
  5
13E
  8
DATA
  6
CONTINUOUS
 62
     7
 10
-52.0
 20
-48.5
 30
0.0
 40
0.5
  0
CIRCLE
  5
13F
  8
DATA
  6
CONTINUOUS
 62
     7
 10
-51.0
 20
-47.5
 30
0.0
 40
0.5
  0
CIRCLE
  5
140
  8
DATA
  6
CONTINUOUS
 62
     7
 10
-50.0
 20
-48.5
 30
0.0
 40
0.5
  0
CIRCLE
  5
141
  8
DATA
  6
CONTINUOUS
 62
     7
 10
-49.0
 20
-47.5
 30
0.0
 40
0.5
  0
CIRCLE
  5
142
  8
DATA
  6
CONTINUOUS
 62
     7
 10
-48.0
 20
-48.5
 30
0.0
 40
0.5
  0
CIRCLE
  5
143
  8
DATA
  6
CONTINUOUS
 62
     7
 10
-47.0
 20
-47.5
 30
0.0
 40
0.5
  0
CIRCLE
  5
144
  8
DATA
  6
CONTINUOUS
 62
     7
 10
-46.0
 20
-48.5
 30
0.0
 40
0.5
  0
CIRCLE
  5
145
  8
DATA
  6
CONTINUOUS
 62
     7
 10
40.0
 20
110.0
 30
0.0
 40
7.5
  0
ENDSEC
  0
EOF
