  0
SECTION
  2
HEADER
  9
$ACADVER
  1
AC1015
  9
$ACADMAINTVER
 70
    20
  9
$DWGCODEPAGE
  3
ANSI_932
  9
$INSBASE
 10
0.0
 20
0.0
 30
0.0
  9
$EXTMIN
 10
-360.0219709798949
 20
-539.892209558222
 30
-0.0015258207003583
  9
$EXTMAX
 10
360.0219743326563
 20
530.6280480280338
 30
0.0000000349246037
  9
$LIMMIN
 10
0.0
 20
0.0
  9
$LIMMAX
 10
0.0
 20
0.0
  9
$ORTHOMODE
 70
     0
  9
$REGENMODE
 70
     1
  9
$FILLMODE
 70
     1
  9
$QTEXTMODE
 70
     0
  9
$MIRRTEXT
 70
     1
  9
$LTSCALE
 40
20.32
  9
$ATTMODE
 70
     1
  9
$TEXTSIZE
 40
0.0
  9
$TRACEWID
 40
1.0
  9
$TEXTSTYLE
  7
STANDARD
  9
$CLAYER
  8
DATA
  9
$CELTYPE
  6
ByLayer
  9
$CECOLOR
 62
   256
  9
$CELTSCALE
 40
1.0
  9
$DISPSILH
 70
     0
  9
$DIMSCALE
 40
1.0
  9
$DIMASZ
 40
0.18
  9
$DIMEXO
 40
0.0625
  9
$DIMDLI
 40
0.38
  9
$DIMRND
 40
0.0
  9
$DIMDLE
 40
0.0
  9
$DIMEXE
 40
0.18
  9
$DIMTP
 40
0.0
  9
$DIMTM
 40
0.0
  9
$DIMTXT
 40
0.18
  9
$DIMCEN
 40
0.09
  9
$DIMTSZ
 40
0.0
  9
$DIMTOL
 70
     0
  9
$DIMLIM
 70
     0
  9
$DIMTIH
 70
     1
  9
$DIMTOH
 70
     1
  9
$DIMSE1
 70
     0
  9
$DIMSE2
 70
     0
  9
$DIMTAD
 70
     0
  9
$DIMZIN
 70
     0
  9
$DIMBLK
  1

  9
$DIMASO
 70
     1
  9
$DIMSHO
 70
     1
  9
$DIMPOST
  1

  9
$DIMAPOST
  1

  9
$DIMALT
 70
     0
  9
$DIMALTD
 70
     2
  9
$DIMALTF
 40
25.4
  9
$DIMLFAC
 40
1.0
  9
$DIMTOFL
 70
     0
  9
$DIMTVP
 40
0.0
  9
$DIMTIX
 70
     0
  9
$DIMSOXD
 70
     0
  9
$DIMSAH
 70
     0
  9
$DIMBLK1
  1

  9
$DIMBLK2
  1

  9
$DIMSTYLE
  2
STANDARD
  9
$DIMCLRD
 70
     0
  9
$DIMCLRE
 70
     0
  9
$DIMCLRT
 70
     0
  9
$DIMTFAC
 40
1.0
  9
$DIMGAP
 40
0.09
  9
$DIMJUST
 70
     0
  9
$DIMSD1
 70
     0
  9
$DIMSD2
 70
     0
  9
$DIMTOLJ
 70
     1
  9
$DIMTZIN
 70
     0
  9
$DIMALTZ
 70
     0
  9
$DIMALTTZ
 70
     0
  9
$DIMUPT
 70
     0
  9
$DIMDEC
 70
     4
  9
$DIMTDEC
 70
     4
  9
$DIMALTU
 70
     2
  9
$DIMALTTD
 70
     2
  9
$DIMTXSTY
  7
STANDARD
  9
$DIMAUNIT
 70
     0
  9
$DIMADEC
 70
     0
  9
$DIMALTRND
 40
0.0
  9
$DIMAZIN
 70
     0
  9
$DIMDSEP
 70
    46
  9
$DIMATFIT
 70
     3
  9
$DIMFRAC
 70
     0
  9
$DIMLDRBLK
  1

  9
$DIMLUNIT
 70
     2
  9
$DIMLWD
 70
    -2
  9
$DIMLWE
 70
    -2
  9
$DIMTMOVE
 70
     0
  9
$LUNITS
 70
     2
  9
$LUPREC
 70
     4
  9
$SKETCHINC
 40
0.1
  9
$FILLETRAD
 40
0.0
  9
$AUNITS
 70
     0
  9
$AUPREC
 70
     0
  9
$MENU
  1
acad
  9
$ELEVATION
 40
0.0
  9
$PELEVATION
 40
0.0
  9
$THICKNESS
 40
0.0
  9
$LIMCHECK
 70
     0
  9
$CHAMFERA
 40
0.0
  9
$CHAMFERB
 40
0.0
  9
$CHAMFERC
 40
0.0
  9
$CHAMFERD
 40
0.0
  9
$SKPOLY
 70
     0
  9
$TDCREATE
 40
2457038.526643518
  9
$TDUCREATE
 40
2457038.151643518
  9
$TDUPDATE
 40
2457038.527653368
  9
$TDUUPDATE
 40
2457038.152653368
  9
$TDINDWG
 40
0.0008831713
  9
$TDUSRTIMER
 40
0.0008821528
  9
$USRTIMER
 70
     1
  9
$ANGBASE
 50
0.0
  9
$ANGDIR
 70
     0
  9
$PDMODE
 70
     1
  9
$PDSIZE
 40
-2.0
  9
$PLINEWID
 40
0.0
  9
$SPLFRAME
 70
     0
  9
$SPLINETYPE
 70
     6
  9
$SPLINESEGS
 70
     8
  9
$HANDSEED
  5
38F
  9
$SURFTAB1
 70
     6
  9
$SURFTAB2
 70
     6
  9
$SURFTYPE
 70
     6
  9
$SURFU
 70
     6
  9
$SURFV
 70
     6
  9
$UCSBASE
  2

  9
$UCSNAME
  2

  9
$UCSORG
 10
0.0
 20
0.0
 30
0.0
  9
$UCSXDIR
 10
1.0
 20
0.0
 30
0.0
  9
$UCSYDIR
 10
0.0
 20
1.0
 30
0.0
  9
$UCSORTHOREF
  2

  9
$UCSORTHOVIEW
 70
     0
  9
$UCSORGTOP
 10
0.0
 20
0.0
 30
0.0
  9
$UCSORGBOTTOM
 10
0.0
 20
0.0
 30
0.0
  9
$UCSORGLEFT
 10
0.0
 20
0.0
 30
0.0
  9
$UCSORGRIGHT
 10
0.0
 20
0.0
 30
0.0
  9
$UCSORGFRONT
 10
0.0
 20
0.0
 30
0.0
  9
$UCSORGBACK
 10
0.0
 20
0.0
 30
0.0
  9
$PUCSBASE
  2

  9
$PUCSNAME
  2

  9
$PUCSORG
 10
0.0
 20
0.0
 30
0.0
  9
$PUCSXDIR
 10
1.0
 20
0.0
 30
0.0
  9
$PUCSYDIR
 10
0.0
 20
1.0
 30
0.0
  9
$PUCSORTHOREF
  2

  9
$PUCSORTHOVIEW
 70
     0
  9
$PUCSORGTOP
 10
0.0
 20
0.0
 30
0.0
  9
$PUCSORGBOTTOM
 10
0.0
 20
0.0
 30
0.0
  9
$PUCSORGLEFT
 10
0.0
 20
0.0
 30
0.0
  9
$PUCSORGRIGHT
 10
0.0
 20
0.0
 30
0.0
  9
$PUCSORGFRONT
 10
0.0
 20
0.0
 30
0.0
  9
$PUCSORGBACK
 10
0.0
 20
0.0
 30
0.0
  9
$USERI1
 70
     0
  9
$USERI2
 70
     0
  9
$USERI3
 70
     0
  9
$USERI4
 70
     0
  9
$USERI5
 70
     0
  9
$USERR1
 40
0.0
  9
$USERR2
 40
0.0
  9
$USERR3
 40
0.0
  9
$USERR4
 40
0.0
  9
$USERR5
 40
0.0
  9
$WORLDVIEW
 70
     1
  9
$SHADEDGE
 70
     3
  9
$SHADEDIF
 70
    70
  9
$TILEMODE
 70
     1
  9
$MAXACTVP
 70
    64
  9
$PINSBASE
 10
0.0
 20
0.0
 30
0.0
  9
$PLIMCHECK
 70
     0
  9
$PEXTMIN
 10
1.000000000000000E+20
 20
1.000000000000000E+20
 30
1.000000000000000E+20
  9
$PEXTMAX
 10
-1.000000000000000E+20
 20
-1.000000000000000E+20
 30
-1.000000000000000E+20
  9
$PLIMMIN
 10
0.0
 20
0.0
  9
$PLIMMAX
 10
12.0
 20
9.0
  9
$UNITMODE
 70
     0
  9
$VISRETAIN
 70
     0
  9
$PLINEGEN
 70
     1
  9
$PSLTSCALE
 70
     0
  9
$TREEDEPTH
 70
  3020
  9
$CMLSTYLE
  2
Standard
  9
$CMLJUST
 70
     0
  9
$CMLSCALE
 40
1.0
  9
$PROXYGRAPHICS
 70
     1
  9
$MEASUREMENT
 70
     0
  9
$CELWEIGHT
370
    -1
  9
$ENDCAPS
280
     0
  9
$JOINSTYLE
280
     0
  9
$LWDISPLAY
290
     0
  9
$INSUNITS
 70
     0
  9
$HYPERLINKBASE
  1

  9
$STYLESHEET
  1

  9
$XEDIT
290
     1
  9
$CEPSNTYPE
380
     0
  9
$PSTYLEMODE
290
     1
  9
$FINGERPRINTGUID
  2
{A49EFC83-A03C-4CFA-A1AD-07DCA4E50848}
  9
$VERSIONGUID
  2
{12332140-A76D-46BF-A1CB-D2C3BB452EC1}
  9
$EXTNAMES
290
     1
  9
$PSVPSCALE
 40
0.0
  9
$OLESTARTUP
290
     0
  0
ENDSEC
  0
SECTION
  2
CLASSES
  0
CLASS
  1
ACDBDICTIONARYWDFLT
  2
AcDbDictionaryWithDefault
  3
ObjectDBX Classes
 90
        0
280
     0
281
     0
  0
CLASS
  1
MATERIAL
  2
AcDbMaterial
  3
ObjectDBX Classes
 90
     1153
280
     0
281
     0
  0
CLASS
  1
VISUALSTYLE
  2
AcDbVisualStyle
  3
ObjectDBX Classes
 90
     4095
280
     0
281
     0
  0
CLASS
  1
SCALE
  2
AcDbScale
  3
ObjectDBX Classes
 90
     1153
280
     0
281
     0
  0
CLASS
  1
TABLESTYLE
  2
AcDbTableStyle
  3
ObjectDBX Classes
 90
     4095
280
     0
281
     0
  0
CLASS
  1
MLEADERSTYLE
  2
AcDbMLeaderStyle
  3
ACDB_MLEADERSTYLE_CLASS
 90
     4095
280
     0
281
     0
  0
CLASS
  1
ACDBSECTIONVIEWSTYLE
  2
AcDbSectionViewStyle
  3
ObjectDBX Classes
 90
     1025
280
     0
281
     0
  0
CLASS
  1
ACDBDETAILVIEWSTYLE
  2
AcDbDetailViewStyle
  3
ObjectDBX Classes
 90
     1025
280
     0
281
     0
  0
CLASS
  1
DICTIONARYVAR
  2
AcDbDictionaryVar
  3
ObjectDBX Classes
 90
        0
280
     0
281
     0
  0
CLASS
  1
CELLSTYLEMAP
  2
AcDbCellStyleMap
  3
ObjectDBX Classes
 90
     1152
280
     0
281
     0
  0
CLASS
  1
ACDBPLACEHOLDER
  2
AcDbPlaceHolder
  3
ObjectDBX Classes
 90
        0
280
     0
281
     0
  0
CLASS
  1
LAYOUT
  2
AcDbLayout
  3
ObjectDBX Classes
 90
        0
280
     0
281
     0
  0
ENDSEC
  0
SECTION
  2
TABLES
  0
TABLE
  2
VPORT
  5
2B8
330
0
100
AcDbSymbolTable
 70
     1
  0
VPORT
  5
324
330
2B8
100
AcDbSymbolTableRecord
100
AcDbViewportTableRecord
  2
*ACTIVE
 70
     0
 10
0.0
 20
0.0
 11
1.0
 21
1.0
 12
0.000001676380748
 22
-4.632080765094087
 13
0.0
 23
0.0
 14
1.0
 24
1.0
 15
0.0
 25
0.0
 16
0.0
 26
0.0
 36
1.0
 17
0.0
 27
0.0
 37
0.0
 40
1078.353332641765
 41
2.322344322344322
 42
50.0
 43
0.0
 44
0.0
 50
0.0
 51
0.0
 71
     0
 72
  2000
 73
     1
 74
     1
 75
     0
 76
     0
 77
     0
 78
     0
281
     0
 65
     1
110
0.0
120
0.0
130
0.0
111
1.0
121
0.0
131
0.0
112
0.0
122
1.0
132
0.0
 79
     0
146
0.0
1001
ACAD_NAV_VCDISPLAY
1070
     3
  0
ENDTAB
  0
TABLE
  2
LTYPE
  5
2B5
330
0
100
AcDbSymbolTable
 70
    11
  0
LTYPE
  5
30A
330
2B5
100
AcDbSymbolTableRecord
100
AcDbLinetypeTableRecord
  2
ByBlock
 70
     0
  3

 72
    65
 73
     0
 40
0.0
  0
LTYPE
  5
30B
330
2B5
100
AcDbSymbolTableRecord
100
AcDbLinetypeTableRecord
  2
ByLayer
 70
     0
  3

 72
    65
 73
     0
 40
0.0
  0
LTYPE
  5
30C
330
2B5
100
AcDbSymbolTableRecord
100
AcDbLinetypeTableRecord
  2
CONTINUOUS
 70
     0
  3
Solid line
 72
    65
 73
     0
 40
0.0
  0
LTYPE
  5
325
330
2B5
100
AcDbSymbolTableRecord
100
AcDbLinetypeTableRecord
  2
STYLE_01
 70
     0
  3

 72
    65
 73
     2
 40
0.4166412353515625
 49
0.208282470703125
 74
     0
 49
-0.2083587646484375
 74
     0
  0
ENDTAB
  0
TABLE
  2
LAYER
  5
2B2
330
0
100
AcDbSymbolTable
 70
     5
  0
LAYER
  5
304
102
{ACAD_XDICTIONARY
360
339
102
}
330
2B2
100
AcDbSymbolTableRecord
100
AcDbLayerTableRecord
  2
0
 70
     0
 62
     7
  6
CONTINUOUS
370
    -3
390
2BF
  0
LAYER
  5
323
102
{ACAD_XDICTIONARY
360
33B
102
}
330
2B2
100
AcDbSymbolTableRecord
100
AcDbLayerTableRecord
  2
DATA
 70
     0
 62
     7
  6
CONTINUOUS
370
    -3
390
2BF
  0
LAYER
  5
32F
102
{ACAD_XDICTIONARY
360
33D
102
}
330
2B2
100
AcDbSymbolTableRecord
100
AcDbLayerTableRecord
  2
HIBINO-BASE
 70
     0
 62
     7
  6
CONTINUOUS
370
    -3
390
2BF
  0
LAYER
  5
330
102
{ACAD_XDICTIONARY
360
33F
102
}
330
2B2
100
AcDbSymbolTableRecord
100
AcDbLayerTableRecord
  2
SPEC
 70
     0
 62
     7
  6
CONTINUOUS
370
    -3
390
2BF
  0
LAYER
  5
331
102
{ACAD_XDICTIONARY
360
341
102
}
330
2B2
100
AcDbSymbolTableRecord
100
AcDbLayerTableRecord
  2
DIMNSIONS
 70
     0
 62
     7
  6
CONTINUOUS
370
    -3
390
2BF
  0
ENDTAB
  0
TABLE
  2
STYLE
  5
2B3
330
0
100
AcDbSymbolTable
 70
     4
  0
STYLE
  5
305
330
2B3
100
AcDbSymbolTableRecord
100
AcDbTextStyleTableRecord
  2
STANDARD
 70
     0
 40
0.0
 41
1.0
 50
0.0
 71
     0
 42
0.0
  3
txt
  4
BIGFONT.SHX
  0
ENDTAB
  0
TABLE
  2
VIEW
  5
2B6
330
0
100
AcDbSymbolTable
 70
     0
  0
ENDTAB
  0
TABLE
  2
UCS
  5
2B7
330
0
100
AcDbSymbolTable
 70
     0
  0
ENDTAB
  0
TABLE
  2
APPID
  5
2B9
330
0
100
AcDbSymbolTable
 70
     4
  0
APPID
  5
306
330
2B9
100
AcDbSymbolTableRecord
100
AcDbRegAppTableRecord
  2
ACAD
 70
     0
  0
APPID
  5
30D
330
2B9
100
AcDbSymbolTableRecord
100
AcDbRegAppTableRecord
  2
AcadAnnotative
 70
     0
  0
APPID
  5
34D
330
2B9
100
AcDbSymbolTableRecord
100
AcDbRegAppTableRecord
  2
ACAD_NAV_VCDISPLAY
 70
     0
  0
APPID
  5
386
330
2B9
100
AcDbSymbolTableRecord
100
AcDbRegAppTableRecord
  2
ACAD_MLEADERVER
 70
     0
  0
ENDTAB
  0
TABLE
  2
DIMSTYLE
  5
2BA
330
0
100
AcDbSymbolTable
 70
     2
100
AcDbDimStyleTable
 71
     0
  0
DIMSTYLE
105
307
330
2BA
100
AcDbSymbolTableRecord
100
AcDbDimStyleTableRecord
  2
STANDARD
 70
     0
279
     2
340
305
  0
ENDTAB
  0
TABLE
  2
BLOCK_RECORD
  5
2B1
330
0
100
AcDbSymbolTable
 70
     0
  0
BLOCK_RECORD
  5
31F
330
2B1
100
AcDbSymbolTableRecord
100
AcDbBlockTableRecord
  2
*Model_Space
340
322
  0
BLOCK_RECORD
  5
31B
330
2B1
100
AcDbSymbolTableRecord
100
AcDbBlockTableRecord
  2
*Paper_Space
340
31E
  0
ENDTAB
  0
ENDSEC
  0
SECTION
  2
BLOCKS
  0
BLOCK
  5
320
330
31F
100
AcDbEntity
  8
0
100
AcDbBlockBegin
  2
*Model_Space
 70
     0
 10
0.0
 20
0.0
 30
0.0
  3
*Model_Space
  1

  0
ENDBLK
  5
321
330
31F
100
AcDbEntity
  8
0
100
AcDbBlockEnd
  0
BLOCK
  5
31C
330
31B
100
AcDbEntity
 67
     1
  8
0
100
AcDbBlockBegin
  2
*Paper_Space
 70
     0
 10
0.0
 20
0.0
 30
0.0
  3
*Paper_Space
  1

  0
ENDBLK
  5
31D
330
31B
100
AcDbEntity
 67
     1
  8
0
100
AcDbBlockEnd
  0
ENDSEC
  0
SECTION
  2
ENTITIES
  0
LINE
  5
2D
330
31F
100
AcDbEntity
  8
HIBINO-BASE
  6
Continuous
 62
     7
100
AcDbLine
 10
-360.0
 20
530.595445
 30
0.0
 11
360.0
 21
530.595445
 31
0.0
  0
LINE
  5
2E
330
31F
100
AcDbEntity
  8
HIBINO-BASE
  6
Continuous
 62
     7
100
AcDbLine
 10
360.0
 20
-509.404555
 30
0.0
 11
-360.0
 21
-509.404555
 31
0.0
  0
LINE
  5
2F
330
31F
100
AcDbEntity
  8
HIBINO-BASE
  6
Continuous
 62
     7
100
AcDbLine
 10
-360.0
 20
-509.404555
 30
0.0
 11
-360.0
 21
530.595445
 31
0.0
  0
LINE
  5
30
330
31F
100
AcDbEntity
  8
HIBINO-BASE
  6
Continuous
 62
     7
100
AcDbLine
 10
360.0
 20
530.595445
 30
0.0
 11
360.0
 21
-509.404555
 31
0.0
  0
LINE
  5
31
330
31F
100
AcDbEntity
  8
HIBINO-BASE
  6
Continuous
 62
     7
100
AcDbLine
 10
0.0000000000000284
 20
-419.404555
 30
0.0
 11
360.0
 21
-419.404555
 31
0.0
  0
LINE
  5
32
330
31F
100
AcDbEntity
  8
HIBINO-BASE
  6
Continuous
 62
     7
100
AcDbLine
 10
0.0000000000000284
 20
-509.404555
 30
0.0
 11
0.0000000000000284
 21
-419.404555
 31
0.0
  0
TEXT
  5
33
330
31F
100
AcDbEntity
  8
HIBINO-BASE
 62
     7
100
AcDbText
 10
3.60000000000005
 20
-429.4393283333333
 30
0.0
 40
6.515364583333332
  1
NOTE
 41
0.7
 11
3.600000000000051
 21
-422.92396375
 31
0.0
100
AcDbText
 73
     3
  0
LINE
  5
34
330
31F
100
AcDbEntity
  8
HIBINO-BASE
  6
Continuous
 62
     7
100
AcDbLine
 10
140.0000000000001
 20
-509.404555
 30
0.0
 11
140.0000000000001
 21
-419.404555
 31
0.0
  0
TEXT
  5
35
330
31F
100
AcDbEntity
  8
HIBINO-BASE
 62
     7
100
AcDbText
 10
143.6
 20
-429.4393283333333
 30
0.0
 40
6.515364583333332
  1
TITLE
 41
0.7
 11
143.6
 21
-422.92396375
 31
0.0
100
AcDbText
 73
     3
  0
LINE
  5
36
330
31F
100
AcDbEntity
  8
HIBINO-BASE
  6
Continuous
 62
     7
100
AcDbLine
 10
0.0000000000000284
 20
-469.404555
 30
0.0
 11
360.0
 21
-469.404555
 31
0.0
  0
TEXT
  5
37
330
31F
100
AcDbEntity
  8
HIBINO-BASE
 62
     7
100
AcDbText
 10
193.6
 20
-479.2140483333333
 30
0.0
 40
6.515364583333332
  1
DRAWN
 41
0.7
 11
193.6
 21
-472.69868375
 31
0.0
100
AcDbText
 73
     3
  0
TEXT
  5
38
330
31F
100
AcDbEntity
  8
HIBINO-BASE
 62
     7
100
AcDbText
 10
93.59999999999999
 20
-479.2140483333333
 30
0.0
 40
6.515364583333332
  1
DATE
 41
0.7
 11
93.59999999999999
 21
-472.69868375
 31
0.0
100
AcDbText
 73
     3
  0
TEXT
  5
39
330
31F
100
AcDbEntity
  8
HIBINO-BASE
 62
     7
100
AcDbText
 10
53.6
 20
-479.2140483333333
 30
0.0
 40
6.515364583333332
  1
SCALE
 41
0.7
 11
53.6
 21
-472.69868375
 31
0.0
100
AcDbText
 73
     3
  0
TEXT
  5
3A
330
31F
100
AcDbEntity
  8
HIBINO-BASE
 62
     7
100
AcDbText
 10
143.6
 20
-479.2140483333333
 30
0.0
 40
6.515364583333332
  1
DESIGN
 41
0.7
 11
143.6
 21
-472.69868375
 31
0.0
100
AcDbText
 73
     3
  0
TEXT
  5
3B
330
31F
100
AcDbEntity
  8
HIBINO-BASE
 62
     7
100
AcDbText
 10
293.6
 20
-479.2140483333333
 30
0.0
 40
6.515364583333332
  1
DRAWING NO.
 41
0.7
 11
293.6
 21
-472.69868375
 31
0.0
100
AcDbText
 73
     3
  0
TEXT
  5
3C
330
31F
100
AcDbEntity
  8
HIBINO-BASE
 62
     7
100
AcDbText
 10
243.6
 20
-479.2140483333333
 30
0.0
 40
6.515364583333332
  1
CHECK
 41
0.7
 11
243.6
 21
-472.69868375
 31
0.0
100
AcDbText
 73
     3
  0
LINE
  5
3D
330
31F
100
AcDbEntity
  8
HIBINO-BASE
  6
Continuous
 62
     7
100
AcDbLine
 10
57.50000000000002
 20
-504.4045549999999
 30
0.0
 11
72.50000000000007
 21
-489.404555
 31
0.0
  0
TEXT
  5
3E
330
31F
100
AcDbEntity
  8
HIBINO-BASE
 62
     7
100
AcDbText
 10
55.00000000000002
 20
-493.8403283333333
 30
0.0
 40
6.515364583333332
  1
1
 41
0.7
 11
55.00000000000002
 21
-487.32496375
 31
0.0
100
AcDbText
 73
     3
  0
LINE
  5
3F
330
31F
100
AcDbEntity
  8
HIBINO-BASE
  6
Continuous
 62
     7
100
AcDbLine
 10
50.00000000000002
 20
-509.404555
 30
0.0
 11
50.00000000000002
 21
-469.404555
 31
0.0
  0
LINE
  5
40
330
31F
100
AcDbEntity
  8
HIBINO-BASE
  6
Continuous
 62
     7
100
AcDbLine
 10
89.99999999999996
 20
-509.404555
 30
0.0
 11
89.99999999999996
 21
-469.404555
 31
0.0
  0
LINE
  5
41
330
31F
100
AcDbEntity
  8
HIBINO-BASE
  6
Continuous
 62
     7
100
AcDbLine
 10
190.0
 20
-469.404555
 30
0.0
 11
190.0
 21
-509.404555
 31
0.0
  0
LINE
  5
42
330
31F
100
AcDbEntity
  8
HIBINO-BASE
  6
Continuous
 62
     7
100
AcDbLine
 10
290.0000000000001
 20
-469.404555
 30
0.0
 11
290.0000000000001
 21
-509.404555
 31
0.0
  0
LINE
  5
43
330
31F
100
AcDbEntity
  8
HIBINO-BASE
  6
Continuous
 62
     7
100
AcDbLine
 10
240.0
 20
-509.404555
 30
0.0
 11
240.0
 21
-469.404555
 31
0.0
  0
TEXT
  5
44
330
31F
100
AcDbEntity
  8
HIBINO-BASE
 62
     7
100
AcDbText
 10
93.42616000000004
 20
-497.9499683333333
 30
0.0
 40
6.515364583333332
  1
'14.12.
 41
0.7
 11
93.42616000000004
 21
-491.43460375
 31
0.0
100
AcDbText
 73
     3
  0
TEXT
  5
45
330
31F
100
AcDbEntity
  8
HIBINO-BASE
 62
     7
100
AcDbText
 10
70.00000000000001
 20
-501.3403283333333
 30
0.0
 40
6.515364583333332
  1
4
 41
0.7
 11
70.00000000000001
 21
-494.82496375
 31
0.0
100
AcDbText
 73
     3
  0
TEXT
  5
46
330
31F
100
AcDbEntity
  8
HIBINO-BASE
 62
     7
100
AcDbText
 10
196.0232400441384
 20
-497.9499683333333
 30
0.0
 40
6.515364583333332
  1
N.Sasaki
 41
0.7
 11
196.0232400441384
 21
-491.43460375
 31
0.0
100
AcDbText
 73
     3
  0
TEXT
  5
47
330
31F
100
AcDbEntity
  8
HIBINO-BASE
 62
     7
100
AcDbText
 10
15.53333333333344
 20
-501.5005549999999
 30
0.0
 40
13.03072916666666
  1
A4
 41
0.7
 11
15.53333333333344
 21
-488.4698258333332
 31
0.0
100
AcDbText
 73
     3
  0
TEXT
  5
48
330
31F
100
AcDbEntity
  8
HIBINO-BASE
 62
     7
100
AcDbText
 10
3.833333333333342
 20
-479.8823749999999
 30
0.0
 40
6.515364583333332
  1
PAPER SIZE
 41
0.7
 11
3.833333333333343
 21
-473.3670104166665
 31
0.0
100
AcDbText
 73
     3
  0
TEXT
  5
49
330
31F
100
AcDbEntity
  8
HIBINO-BASE
 62
     7
100
AcDbText
 10
-331.2639999999999
 20
-535.0392661999999
 30
0.0
 40
14.40017671875
  1
Hibino Corporation
 41
0.7
 11
-331.2639999999999
 21
-520.6390894812499
 31
0.0
100
AcDbText
 73
     3
  0
TEXT
  5
4A
330
31F
100
AcDbEntity
  8
HIBINO-BASE
 62
     7
100
AcDbText
 10
200.27356
 20
-535.0392661999999
 30
0.0
 40
14.40017671875
  1
ヒビノ株式会社
 41
0.7
 11
200.27356
 21
-520.6390894812499
 31
0.0
100
AcDbText
 73
     3
  0
LINE
  5
4B
330
31F
100
AcDbEntity
  8
SPEC
  6
Continuous
 62
     7
100
AcDbLine
 10
-329.9999999999999
 20
490.595445
 30
0.0
 11
260.0
 21
490.595445
 31
0.0
  0
LINE
  5
4C
330
31F
100
AcDbEntity
  8
SPEC
  6
Continuous
 62
     7
100
AcDbLine
 10
-329.9999999999999
 20
475.2954449999998
 30
0.0
 11
260.0
 21
475.2954449999998
 31
0.0
  0
LINE
  5
4D
330
31F
100
AcDbEntity
  8
SPEC
  6
Continuous
 62
     7
100
AcDbLine
 10
-329.9999999999999
 20
444.6954449999999
 30
0.0
 11
260.0
 21
444.6954449999999
 31
0.0
  0
LINE
  5
4E
330
31F
100
AcDbEntity
  8
SPEC
  6
Continuous
 62
     7
100
AcDbLine
 10
-329.9999999999999
 20
459.9954449999999
 30
0.0
 11
260.0
 21
459.9954449999999
 31
0.0
  0
LINE
  5
4F
330
31F
100
AcDbEntity
  8
SPEC
  6
Continuous
 62
     7
100
AcDbLine
 10
-329.9999999999999
 20
490.595445
 30
0.0
 11
-329.9999999999999
 21
352.8954449999998
 31
0.0
  0
TEXT
  5
50
330
31F
100
AcDbEntity
  8
SPEC
 62
     7
100
AcDbText
 10
-324.8999999999998
 20
496.2799865999998
 30
0.0
 40
9.968507812499998
  1
仕様
 41
0.7
 11
-324.8999999999998
 21
506.2484944124998
 31
0.0
100
AcDbText
 73
     3
  0
LINE
  5
51
330
31F
100
AcDbEntity
  8
SPEC
  6
Continuous
 62
     7
100
AcDbLine
 10
-197.3999999999998
 20
490.595445
 30
0.0
 11
-197.3999999999998
 21
352.8954449999998
 31
0.0
  0
LINE
  5
52
330
31F
100
AcDbEntity
  8
SPEC
  6
Continuous
 62
     7
100
AcDbLine
 10
260.0
 20
490.595445
 30
0.0
 11
260.0
 21
352.8954449999998
 31
0.0
  0
TEXT
  5
53
330
31F
100
AcDbEntity
  8
SPEC
 62
     7
100
AcDbText
 10
-326.328
 20
447.9101651279999
 30
0.0
 40
7.753269899999998
  1
周波数特性
 41
0.7
 11
-326.328
 21
455.6634350279999
 31
0.0
100
AcDbText
 73
     3
  0
TEXT
  5
54
330
31F
100
AcDbEntity
  8
SPEC
 62
     7
100
AcDbText
 10
-326.328
 20
478.5101651279999
 30
0.0
 40
7.753269899999998
  1
形式
 41
0.7
 11
-326.328
 21
486.2634350279999
 31
0.0
100
AcDbText
 73
     3
  0
TEXT
  5
55
330
31F
100
AcDbEntity
  8
SPEC
 62
     7
100
AcDbText
 10
-326.328
 20
463.210165128
 30
0.0
 40
7.753269899999998
  1
指向特性
 41
0.7
 11
-326.328
 21
470.963435028
 31
0.0
100
AcDbText
 73
     3
  0
TEXT
  5
56
330
31F
100
AcDbEntity
  8
SPEC
 62
     7
100
AcDbText
 10
-193.7279999999999
 20
447.9101651279999
 30
0.0
 40
7.753269899999998
  1
70Hz～18kHz
 41
0.7
 11
-193.7279999999999
 21
455.6634350279999
 31
0.0
100
AcDbText
 73
     3
  0
TEXT
  5
57
330
31F
100
AcDbEntity
  8
SPEC
 62
     7
100
AcDbText
 10
-193.7279999999999
 20
478.5101651279999
 30
0.0
 40
7.753269899999998
  1
コンデンサー型 
 41
0.7
 11
-193.7279999999999
 21
486.2634350279999
 31
0.0
100
AcDbText
 73
     3
  0
TEXT
  5
58
330
31F
100
AcDbEntity
  8
SPEC
 62
     7
100
AcDbText
 10
-193.7279999999999
 20
463.210165128
 30
0.0
 40
7.753269899999998
  1
カーディオイド
 41
0.7
 11
-193.7279999999999
 21
470.963435028
 31
0.0
100
AcDbText
 73
     3
  0
LINE
  5
59
330
31F
100
AcDbEntity
  8
SPEC
  6
Continuous
 62
     7
100
AcDbLine
 10
-329.9999999999999
 20
429.3954449999998
 30
0.0
 11
260.0
 21
429.3954449999998
 31
0.0
  0
LINE
  5
5A
330
31F
100
AcDbEntity
  8
SPEC
  6
Continuous
 62
     7
100
AcDbLine
 10
-329.9999999999999
 20
414.0954449999999
 30
0.0
 11
260.0
 21
414.0954449999999
 31
0.0
  0
LINE
  5
5B
330
31F
100
AcDbEntity
  8
SPEC
  6
Continuous
 62
     7
100
AcDbLine
 10
-329.9999999999999
 20
398.7954449999999
 30
0.0
 11
260.0
 21
398.7954449999999
 31
0.0
  0
LINE
  5
5C
330
31F
100
AcDbEntity
  8
SPEC
  6
Continuous
 62
     7
100
AcDbLine
 10
-329.9999999999999
 20
383.4954449999999
 30
0.0
 11
260.0
 21
383.4954449999999
 31
0.0
  0
LINE
  5
5D
330
31F
100
AcDbEntity
  8
SPEC
  6
Continuous
 62
     7
100
AcDbLine
 10
-329.9999999999999
 20
368.195445
 30
0.0
 11
260.0
 21
368.195445
 31
0.0
  0
LINE
  5
5E
330
31F
100
AcDbEntity
  8
SPEC
  6
Continuous
 62
     7
100
AcDbLine
 10
-329.9999999999999
 20
352.8954449999998
 30
0.0
 11
260.0
 21
352.8954449999998
 31
0.0
  0
TEXT
  5
5F
330
31F
100
AcDbEntity
  8
SPEC
 62
     7
100
AcDbText
 10
-326.328
 20
432.6101651279999
 30
0.0
 40
7.753269899999998
  1
開回路感度
 41
0.7
 11
-326.328
 21
440.3634350279999
 31
0.0
100
AcDbText
 73
     3
  0
TEXT
  5
60
330
31F
100
AcDbEntity
  8
SPEC
 62
     7
100
AcDbText
 10
-326.328
 20
417.3101651279997
 30
0.0
 40
7.753269899999998
  1
最大音圧レベル
 41
0.7
 11
-326.328
 21
425.0634350279997
 31
0.0
100
AcDbText
 73
     3
  0
TEXT
  5
61
330
31F
100
AcDbEntity
  8
SPEC
 62
     7
100
AcDbText
 10
-326.328
 20
402.0101651279999
 30
0.0
 40
7.753269899999998
  1
等価雑音レベル
 41
0.7
 11
-326.328
 21
409.7634350279999
 31
0.0
100
AcDbText
 73
     3
  0
TEXT
  5
62
330
31F
100
AcDbEntity
  8
SPEC
 62
     7
100
AcDbText
 10
-326.328
 20
371.410165128
 30
0.0
 40
7.753269899999998
  1
質量
 41
0.7
 11
-326.328
 21
379.163435028
 31
0.0
100
AcDbText
 73
     3
  0
TEXT
  5
63
330
31F
100
AcDbEntity
  8
SPEC
 62
     7
100
AcDbText
 10
-326.328
 20
356.110165128
 30
0.0
 40
7.753269899999998
  1
付属品
 41
0.7
 11
-326.328
 21
363.863435028
 31
0.0
100
AcDbText
 73
     3
  0
TEXT
  5
64
330
31F
100
AcDbEntity
  8
SPEC
 62
     7
100
AcDbText
 10
-193.7279999999999
 20
432.6101651279999
 30
0.0
 40
7.753269899999998
  1
-35dB re 1V/Pa
 41
0.7
 11
-193.7279999999999
 21
440.3634350279999
 31
0.0
100
AcDbText
 73
     3
  0
TEXT
  5
65
330
31F
100
AcDbEntity
  8
SPEC
 62
     7
100
AcDbText
 10
-193.7279999999999
 20
417.3101651279997
 30
0.0
 40
7.753269899999998
  1
125dB SPL(THD1％)
 41
0.7
 11
-193.7279999999999
 21
425.0634350279997
 31
0.0
100
AcDbText
 73
     3
  0
TEXT
  5
66
330
31F
100
AcDbEntity
  8
SPEC
 62
     7
100
AcDbText
 10
-193.7279999999999
 20
402.0101651279999
 30
0.0
 40
7.753269899999998
  1
21dB SPL(Aウェイト）
 41
0.7
 11
-193.7279999999999
 21
409.7634350279999
 31
0.0
100
AcDbText
 73
     3
  0
TEXT
  5
67
330
31F
100
AcDbEntity
  8
SPEC
 62
     7
100
AcDbText
 10
-193.7279999999999
 20
386.8800473111109
 30
0.0
 40
7.601258680555555
  1
19\U+00D7328(除突起部)
 41
0.7
 11
-193.7279999999999
 21
394.4813059916665
 31
0.0
100
AcDbText
 73
     3
  0
TEXT
  5
68
330
31F
100
AcDbEntity
  8
SPEC
 62
     7
100
AcDbText
 10
-193.7279999999999
 20
371.410165128
 30
0.0
 40
7.753269899999998
  1
124ｇ
 41
0.7
 11
-193.7279999999999
 21
379.163435028
 31
0.0
100
AcDbText
 73
     3
  0
TEXT
  5
69
330
31F
100
AcDbEntity
  8
SPEC
 62
     7
100
AcDbText
 10
-193.7279999999999
 20
356.1101651279998
 30
0.0
 40
7.753269899999998
  1
ウインドスクリーン
 41
0.7
 11
-193.7279999999999
 21
363.8634350279998
 31
0.0
100
AcDbText
 73
     3
  0
TEXT
  5
6A
330
31F
100
AcDbEntity
  8
SPEC
 62
     7
100
AcDbText
 10
-326.328
 20
386.7812785999999
 30
0.0
 40
7.601258680555555
  1
寸法(\U+03C6\U+00D7全長)
 41
0.7
 11
-326.328
 21
394.3825372805554
 31
0.0
100
AcDbText
 73
     3
  0
TEXT
  5
6B
330
31F
100
AcDbEntity
  8
DIMNSIONS
 62
     7
100
AcDbText
 10
-79.99999999999997
 20
-460.3265949999999
 30
0.0
 40
9.773046875
  1
(単位：mm)
 41
0.7
 11
-79.99999999999997
 21
-450.5535481249999
 31
0.0
100
AcDbText
 73
     3
  0
LINE
  5
6C
330
31F
100
AcDbEntity
  8
DIMNSIONS
  6
Continuous
 62
     7
100
AcDbLine
 10
-167.35
 20
-295.05
 30
0.0
 11
-220.5
 21
-295.05
 31
0.0
  0
LINE
  5
6D
330
31F
100
AcDbEntity
  8
DIMNSIONS
  6
Continuous
 62
     7
100
AcDbLine
 10
-158.0
 20
32.94999999999999
 30
0.0
 11
-220.5
 21
32.94999999999999
 31
0.0
  0
LINE
  5
6E
330
31F
100
AcDbEntity
  8
DIMNSIONS
  6
Continuous
 62
     7
100
AcDbLine
 10
-212.5
 20
-295.05
 30
0.0
 11
-212.5
 21
32.94999999999999
 31
0.0
  0
LINE
  5
6F
330
31F
100
AcDbEntity
  8
DIMNSIONS
  6
Continuous
 62
     7
100
AcDbLine
 10
-212.5
 20
-295.05
 30
0.0
 11
-215.180159180601
 21
-285.0475097656251
 31
0.0
  0
LINE
  5
70
330
31F
100
AcDbEntity
  8
DIMNSIONS
  6
Continuous
 62
     7
100
AcDbLine
 10
-212.5
 20
-295.05
 30
0.0
 11
-209.819840819399
 21
-285.0475097656251
 31
0.0
  0
LINE
  5
71
330
31F
100
AcDbEntity
  8
DIMNSIONS
  6
Continuous
 62
     7
100
AcDbLine
 10
-212.5
 20
32.94999999999999
 30
0.0
 11
-209.819840819399
 21
22.94750976562499
 31
0.0
  0
LINE
  5
72
330
31F
100
AcDbEntity
  8
DIMNSIONS
  6
Continuous
 62
     7
100
AcDbLine
 10
-212.5
 20
32.94999999999999
 30
0.0
 11
-215.180159180601
 21
22.94750976562499
 31
0.0
  0
TEXT
  5
73
330
31F
100
AcDbEntity
  8
DIMNSIONS
 62
     7
100
AcDbText
 10
-216.4755555555555
 20
-141.6333333333333
 30
0.0
 40
10.85894097222222
  1
328
 50
90.0
 41
0.7
 11
-227.3344965277777
 21
-141.6333333333333
 31
0.0
100
AcDbText
 73
     3
  0
LINE
  5
74
330
31F
100
AcDbEntity
  8
DIMNSIONS
  6
Continuous
 62
     7
100
AcDbLine
 10
-162.25
 20
-174.05
 30
0.0
 11
-183.0
 21
-174.05
 31
0.0
  0
LINE
  5
75
330
31F
100
AcDbEntity
  8
DIMNSIONS
  6
Continuous
 62
     7
100
AcDbLine
 10
-158.0
 20
32.94999999999999
 30
0.0
 11
-183.0
 21
32.94999999999999
 31
0.0
  0
LINE
  5
76
330
31F
100
AcDbEntity
  8
DIMNSIONS
  6
Continuous
 62
     7
100
AcDbLine
 10
-175.0
 20
-174.05
 30
0.0
 11
-175.0
 21
32.94999999999999
 31
0.0
  0
LINE
  5
77
330
31F
100
AcDbEntity
  8
DIMNSIONS
  6
Continuous
 62
     7
100
AcDbLine
 10
-175.0
 20
-174.05
 30
0.0
 11
-177.680159180601
 21
-164.047509765625
 31
0.0
  0
LINE
  5
78
330
31F
100
AcDbEntity
  8
DIMNSIONS
  6
Continuous
 62
     7
100
AcDbLine
 10
-175.0
 20
-174.05
 30
0.0
 11
-172.319840819399
 21
-164.047509765625
 31
0.0
  0
LINE
  5
79
330
31F
100
AcDbEntity
  8
DIMNSIONS
  6
Continuous
 62
     7
100
AcDbLine
 10
-175.0
 20
32.94999999999999
 30
0.0
 11
-172.319840819399
 21
22.94750976562499
 31
0.0
  0
LINE
  5
7A
330
31F
100
AcDbEntity
  8
DIMNSIONS
  6
Continuous
 62
     7
100
AcDbLine
 10
-175.0
 20
32.94999999999999
 30
0.0
 11
-177.680159180601
 21
22.94750976562499
 31
0.0
  0
TEXT
  5
7B
330
31F
100
AcDbEntity
  8
DIMNSIONS
 62
     7
100
AcDbText
 10
-178.9755555555555
 20
-81.13333333333335
 30
0.0
 40
10.85894097222222
  1
207
 50
90.0
 41
0.7
 11
-189.8344965277777
 21
-81.13333333333335
 31
0.0
100
AcDbText
 73
     3
  0
LINE
  5
7C
330
31F
100
AcDbEntity
  8
DIMNSIONS
  6
Continuous
 62
     7
100
AcDbLine
 10
-167.35
 20
-295.05
 30
0.0
 11
-183.0
 21
-295.05
 31
0.0
  0
LINE
  5
7D
330
31F
100
AcDbEntity
  8
DIMNSIONS
  6
Continuous
 62
     7
100
AcDbLine
 10
-163.0
 20
-240.05
 30
0.0
 11
-183.0
 21
-240.05
 31
0.0
  0
LINE
  5
7E
330
31F
100
AcDbEntity
  8
DIMNSIONS
  6
Continuous
 62
     7
100
AcDbLine
 10
-175.0
 20
-295.05
 30
0.0
 11
-175.0
 21
-240.05
 31
0.0
  0
LINE
  5
7F
330
31F
100
AcDbEntity
  8
DIMNSIONS
  6
Continuous
 62
     7
100
AcDbLine
 10
-175.0
 20
-295.05
 30
0.0
 11
-177.680159180601
 21
-285.0475097656251
 31
0.0
  0
LINE
  5
80
330
31F
100
AcDbEntity
  8
DIMNSIONS
  6
Continuous
 62
     7
100
AcDbLine
 10
-175.0
 20
-295.05
 30
0.0
 11
-172.319840819399
 21
-285.0475097656251
 31
0.0
  0
LINE
  5
81
330
31F
100
AcDbEntity
  8
DIMNSIONS
  6
Continuous
 62
     7
100
AcDbLine
 10
-175.0
 20
-240.05
 30
0.0
 11
-172.319840819399
 21
-250.052490234375
 31
0.0
  0
LINE
  5
82
330
31F
100
AcDbEntity
  8
DIMNSIONS
  6
Continuous
 62
     7
100
AcDbLine
 10
-175.0
 20
-240.05
 30
0.0
 11
-177.680159180601
 21
-250.052490234375
 31
0.0
  0
TEXT
  5
83
330
31F
100
AcDbEntity
  8
DIMNSIONS
 62
     7
100
AcDbText
 10
-178.9755555555555
 20
-281.6611111111111
 30
0.0
 40
10.85894097222222
  1
55.0
 50
90.0
 41
0.7
 11
-189.8344965277777
 21
-281.6611111111111
 31
0.0
100
AcDbText
 73
     3
  0
LINE
  5
84
330
31F
100
AcDbEntity
  8
DIMNSIONS
  6
Continuous
 62
     7
100
AcDbLine
 10
181.3365418441035
 20
150.0
 30
0.0
 11
161.9999999999998
 21
150.0
 31
0.0
  0
LINE
  5
85
330
31F
100
AcDbEntity
  8
DIMNSIONS
  6
Continuous
 62
     7
100
AcDbLine
 10
192.0
 20
199.0
 30
0.0
 11
161.9999999999998
 21
199.0
 31
0.0
  0
LINE
  5
86
330
31F
100
AcDbEntity
  8
DIMNSIONS
  6
Continuous
 62
     7
100
AcDbLine
 10
169.9999999999998
 20
150.0
 30
0.0
 11
169.9999999999998
 21
199.0
 31
0.0
  0
LINE
  5
87
330
31F
100
AcDbEntity
  8
DIMNSIONS
  6
Continuous
 62
     7
100
AcDbLine
 10
169.9999999999998
 20
150.0
 30
0.0
 11
167.3198408193989
 21
160.0024902343749
 31
0.0
  0
LINE
  5
88
330
31F
100
AcDbEntity
  8
DIMNSIONS
  6
Continuous
 62
     7
100
AcDbLine
 10
169.9999999999998
 20
150.0
 30
0.0
 11
172.6801591806009
 21
160.0024902343749
 31
0.0
  0
LINE
  5
89
330
31F
100
AcDbEntity
  8
DIMNSIONS
  6
Continuous
 62
     7
100
AcDbLine
 10
169.9999999999998
 20
199.0
 30
0.0
 11
172.6801591806009
 21
188.9975097656249
 31
0.0
  0
LINE
  5
8A
330
31F
100
AcDbEntity
  8
DIMNSIONS
  6
Continuous
 62
     7
100
AcDbLine
 10
169.9999999999998
 20
199.0
 30
0.0
 11
167.3198408193989
 21
188.9975097656249
 31
0.0
  0
TEXT
  5
8B
330
31F
100
AcDbEntity
  8
DIMNSIONS
 62
     7
100
AcDbText
 10
166.0244444444443
 20
160.3888888888889
 30
0.0
 40
10.85894097222222
  1
49.0
 50
90.0
 41
0.7
 11
155.1655034722221
 21
160.3888888888889
 31
0.0
100
AcDbText
 73
     3
  0
LINE
  5
8C
330
31F
100
AcDbEntity
  8
DIMNSIONS
  6
Continuous
 62
     7
100
AcDbLine
 10
212.0747670784988
 20
126.0373835392493
 30
0.0
 11
241.9999999999999
 21
140.9999999999999
 31
0.0
  0
LINE
  5
8D
330
31F
100
AcDbEntity
  8
DIMNSIONS
  6
Continuous
 62
     7
100
AcDbLine
 10
212.0747670784988
 20
126.0373835392493
 30
0.0
 11
219.8900412957433
 21
132.8310977686971
 31
0.0
  0
LINE
  5
8E
330
31F
100
AcDbEntity
  8
DIMNSIONS
  6
Continuous
 62
     7
100
AcDbLine
 10
212.0747670784988
 20
126.0373835392493
 30
0.0
 11
222.2398502028979
 21
128.0132755393806
 31
0.0
  0
LINE
  5
8F
330
31F
100
AcDbEntity
  8
DIMNSIONS
  6
Continuous
 62
     7
100
AcDbLine
 10
241.9999999999999
 20
140.9999999999999
 30
0.0
 11
249.9999999999999
 21
140.9999999999999
 31
0.0
  0
TEXT
  5
90
330
31F
100
AcDbEntity
  8
DIMNSIONS
 62
     7
100
AcDbText
 10
249.9999999999999
 20
135.9199999999999
 30
0.0
 40
10.85894097222222
  1
\U+03C627.0
 41
0.7
 11
249.9999999999999
 21
146.7789409722222
 31
0.0
100
AcDbText
 73
     3
  0
LINE
  5
91
330
31F
100
AcDbEntity
  8
DIMNSIONS
  6
Continuous
 62
     7
100
AcDbLine
 10
-163.5439999999999
 20
-300.0
 30
0.0
 11
-220.5
 21
-300.0
 31
0.0
  0
LINE
  5
92
330
31F
100
AcDbEntity
  8
DIMNSIONS
  6
Continuous
 62
     7
100
AcDbLine
 10
-167.35
 20
-295.05
 30
0.0
 11
-220.5
 21
-295.05
 31
0.0
  0
LINE
  5
93
330
31F
100
AcDbEntity
  8
DIMNSIONS
  6
Continuous
 62
     7
100
AcDbLine
 10
-212.5
 20
-295.05
 30
0.0
 11
-212.5
 21
-300.0
 31
0.0
  0
LINE
  5
94
330
31F
100
AcDbEntity
  8
DIMNSIONS
  6
Continuous
 62
     7
100
AcDbLine
 10
-212.5
 20
-300.0
 30
0.0
 11
-212.5
 21
-333.6666666666667
 31
0.0
  0
LINE
  5
95
330
31F
100
AcDbEntity
  8
DIMNSIONS
  6
Continuous
 62
     7
100
AcDbLine
 10
-212.5
 20
-300.0
 30
0.0
 11
-209.819840819399
 21
-310.0024902343749
 31
0.0
  0
LINE
  5
96
330
31F
100
AcDbEntity
  8
DIMNSIONS
  6
Continuous
 62
     7
100
AcDbLine
 10
-212.5
 20
-300.0
 30
0.0
 11
-215.180159180601
 21
-310.0024902343749
 31
0.0
  0
LINE
  5
97
330
31F
100
AcDbEntity
  8
DIMNSIONS
  6
Continuous
 62
     7
100
AcDbLine
 10
-212.5
 20
-295.05
 30
0.0
 11
-212.5
 21
-275.05
 31
0.0
  0
LINE
  5
98
330
31F
100
AcDbEntity
  8
DIMNSIONS
  6
Continuous
 62
     7
100
AcDbLine
 10
-212.5
 20
-295.05
 30
0.0
 11
-215.180159180601
 21
-285.0475097656251
 31
0.0
  0
LINE
  5
99
330
31F
100
AcDbEntity
  8
DIMNSIONS
  6
Continuous
 62
     7
100
AcDbLine
 10
-212.5
 20
-295.05
 30
0.0
 11
-209.819840819399
 21
-285.0475097656251
 31
0.0
  0
TEXT
  5
9A
330
31F
100
AcDbEntity
  8
DIMNSIONS
 62
     7
100
AcDbText
 10
-216.4755555555555
 20
-333.6666666666666
 30
0.0
 40
10.85894097222222
  1
5.0
 50
90.0
 41
0.7
 11
-227.3344965277777
 21
-333.6666666666666
 31
0.0
100
AcDbText
 73
     3
  0
LINE
  5
9B
330
31F
100
AcDbEntity
  8
DIMNSIONS
  6
Continuous
 62
     7
100
AcDbLine
 10
-162.25
 20
-174.05
 30
0.0
 11
-183.0
 21
-174.05
 31
0.0
  0
LINE
  5
9C
330
31F
100
AcDbEntity
  8
DIMNSIONS
  6
Continuous
 62
     7
100
AcDbLine
 10
-163.0
 20
-240.05
 30
0.0
 11
-183.0
 21
-240.05
 31
0.0
  0
LINE
  5
9D
330
31F
100
AcDbEntity
  8
DIMNSIONS
  6
Continuous
 62
     7
100
AcDbLine
 10
-175.0
 20
-174.05
 30
0.0
 11
-175.0
 21
-240.05
 31
0.0
  0
LINE
  5
9E
330
31F
100
AcDbEntity
  8
DIMNSIONS
  6
Continuous
 62
     7
100
AcDbLine
 10
-175.0
 20
-174.05
 30
0.0
 11
-172.319840819399
 21
-184.052490234375
 31
0.0
  0
LINE
  5
9F
330
31F
100
AcDbEntity
  8
DIMNSIONS
  6
Continuous
 62
     7
100
AcDbLine
 10
-175.0
 20
-174.05
 30
0.0
 11
-177.680159180601
 21
-184.052490234375
 31
0.0
  0
LINE
  5
A0
330
31F
100
AcDbEntity
  8
DIMNSIONS
  6
Continuous
 62
     7
100
AcDbLine
 10
-175.0
 20
-240.05
 30
0.0
 11
-177.680159180601
 21
-230.0475097656251
 31
0.0
  0
LINE
  5
A1
330
31F
100
AcDbEntity
  8
DIMNSIONS
  6
Continuous
 62
     7
100
AcDbLine
 10
-175.0
 20
-240.05
 30
0.0
 11
-172.319840819399
 21
-230.0475097656251
 31
0.0
  0
TEXT
  5
A2
330
31F
100
AcDbEntity
  8
DIMNSIONS
 62
     7
100
AcDbText
 10
-178.9755555555555
 20
-221.1611111111111
 30
0.0
 40
10.85894097222222
  1
66.0
 50
90.0
 41
0.7
 11
-189.8344965277777
 21
-221.1611111111111
 31
0.0
100
AcDbText
 73
     3
  0
LINE
  5
A3
330
31F
100
AcDbEntity
  8
DIMNSIONS
  6
Continuous
 62
     7
100
AcDbLine
 10
-143.3885515959056
 20
-356.6114484040944
 30
0.0
 11
-125.0
 21
-375.0
 31
0.0
  0
LINE
  5
A4
330
31F
100
AcDbEntity
  8
DIMNSIONS
  6
Continuous
 62
     7
100
AcDbLine
 10
-143.3885515959056
 20
-356.6114484040944
 30
0.0
 11
-134.4205641911645
 21
-361.7891183463108
 31
0.0
  0
LINE
  5
A5
330
31F
100
AcDbEntity
  8
DIMNSIONS
  6
Continuous
 62
     7
100
AcDbLine
 10
-143.3885515959056
 20
-356.6114484040944
 30
0.0
 11
-138.2108816536892
 21
-365.5794358088355
 31
0.0
  0
LINE
  5
A6
330
31F
100
AcDbEntity
  8
DIMNSIONS
  6
Continuous
 62
     7
100
AcDbLine
 10
-125.0
 20
-375.0
 30
0.0
 11
-74.66666666666665
 21
-375.0
 31
0.0
  0
TEXT
  5
A7
330
31F
100
AcDbEntity
  8
DIMNSIONS
 62
     7
100
AcDbText
 10
-117.0
 20
-371.0244444444445
 30
0.0
 40
10.85894097222222
  1
\U+03C618.7
 41
0.7
 11
-117.0
 21
-360.1655034722222
 31
0.0
100
AcDbText
 73
     3
  0
TEXT
  5
A8
330
31F
100
AcDbEntity
  8
DATA
 62
     7
100
AcDbText
 10
-350.0
 20
-477.8994438888887
 30
0.0
 40
7.601258680555555
  1
※仕様及び外観は予告なく変更されることがあります。
 41
0.7
 11
-350.0
 21
-470.2981852083333
 31
0.0
100
AcDbText
 73
     3
  0
TEXT
  5
A9
330
31F
100
AcDbEntity
  8
DATA
 62
     7
100
AcDbText
 10
-350.0
 20
-487.7772216666667
 30
0.0
 40
7.601258680555555
  1
　また、同一商品でも若干の個体差があることがあります。ご了承ください。
 41
0.7
 11
-350.0
 21
-480.1759629861111
 31
0.0
100
AcDbText
 73
     3
  0
TEXT
  5
AA
330
31F
100
AcDbEntity
  8
DATA
 62
     7
100
AcDbText
 10
198.6400000000001
 20
-465.5719999999998
 30
0.0
 40
9.773046875
  1
CS321
 41
0.7
 11
198.6400000000001
 21
-455.7989531249999
 31
0.0
100
AcDbText
 73
     3
  0
TEXT
  5
AB
330
31F
100
AcDbEntity
  8
DATA
 62
     7
100
AcDbText
 10
200.0
 20
-435.9724349999999
 30
0.0
 40
9.968507812499998
  1
AKG
 41
0.7
 11
200.0
 21
-426.0039271874999
 31
0.0
100
AcDbText
 73
     3
  0
LINE
  5
AC
330
31F
100
AcDbEntity
  8
DATA
  6
Continuous
 62
     7
100
AcDbLine
 10
-146.0
 20
-238.4949545454546
 30
0.0
 11
-154.0
 21
-239.4040454545454
 31
0.0
  0
LINE
  5
AD
330
31F
100
AcDbEntity
  8
DATA
  6
Continuous
 62
     7
100
AcDbLine
 10
-146.0
 20
-237.9999545454546
 30
0.0
 11
-154.0
 21
-238.9090454545454
 31
0.0
  0
ARC
  5
AE
330
31F
100
AcDbEntity
  8
DATA
  6
Continuous
 62
     7
100
AcDbCircle
 10
-150.0
 20
-350.0
 30
0.0
 40
9.350000000000012
100
AcDbArc
 50
98.30166907886507
 51
171.6983309211442
  0
ARC
  5
AF
330
31F
100
AcDbEntity
  8
DATA
  6
Continuous
 62
     7
100
AcDbCircle
 10
-150.0
 20
-350.0
 30
0.0
 40
9.350000000000022
100
AcDbArc
 50
188.3016690788728
 51
261.6983309211349
  0
ARC
  5
B0
330
31F
100
AcDbEntity
  8
DATA
  6
Continuous
 62
     7
100
AcDbCircle
 10
-150.0
 20
-350.0
 30
0.0
 40
9.349999999999939
100
AcDbArc
 50
278.3016690788644
 51
351.6983309211272
  0
ARC
  5
B1
330
31F
100
AcDbEntity
  8
DATA
  6
Continuous
 62
     7
100
AcDbCircle
 10
-150.0
 20
-350.0
 30
0.0
 40
9.349999999999965
100
AcDbArc
 50
8.301669078855923
 51
81.69833092113494
  0
ARC
  5
B2
330
31F
100
AcDbEntity
  8
DATA
  6
Continuous
 62
     7
100
AcDbCircle
 10
-150.0
 20
-350.0000000000004
 30
0.0
 40
5.549999999999959
100
AcDbArc
 50
103.2865587324756
 51
76.59151904033851
  0
LWPOLYLINE
  5
B3
330
31F
100
AcDbEntity
  8
DATA
  6
Continuous
 62
     7
100
AcDbPolyline
 90
        4
 70
     1
 43
0.0
 10
-153.75
 20
-347.0914243581294
 10
-146.25
 20
-347.0914243581294
 10
-146.25
 20
-354.0914243581294
 10
-153.75
 20
-354.0914243581294
  0
LINE
  5
BA
330
31F
100
AcDbEntity
  8
DATA
  6
Continuous
 62
     7
100
AcDbLine
 10
-151.287
 20
-344.6012843193963
 30
0.0
 11
-151.287
 21
-345.9000000000015
 31
0.0
  0
LINE
  5
BB
330
31F
100
AcDbEntity
  8
DATA
  6
Continuous
 62
     7
100
AcDbLine
 10
-148.7129999999999
 20
-344.6012843193963
 30
0.0
 11
-148.7129999999999
 21
-345.9000000000015
 31
0.0
  0
LINE
  5
BC
330
31F
100
AcDbEntity
  8
DATA
  6
Continuous
 62
     7
100
AcDbLine
 10
-151.287
 20
-345.9000000000015
 30
0.0
 11
-148.7129999999999
 21
-345.9000000000015
 31
0.0
  0
CIRCLE
  5
BD
330
31F
100
AcDbEntity
  8
DATA
  6
Continuous
 62
     7
100
AcDbCircle
 10
-150.0
 20
-350.0000000000014
 30
0.0
 40
8.5
  0
LINE
  5
BE
330
31F
100
AcDbEntity
  8
DATA
  6
Continuous
 62
     7
100
AcDbLine
 10
-151.35
 20
-341.2087153659197
 30
0.0
 11
-148.6500000000001
 21
-341.2087153659197
 31
0.0
  0
LINE
  5
BF
330
31F
100
AcDbEntity
  8
DATA
  6
Continuous
 62
     7
100
AcDbLine
 10
-153.465
 20
-35.5
 30
0.0
 11
-153.465
 21
-143.8899999999999
 31
0.0
  0
LINE
  5
C0
330
31F
100
AcDbEntity
  8
DATA
  6
Continuous
 62
     7
100
AcDbLine
 10
-146.5349999999999
 20
-35.5
 30
0.0
 11
-146.5349999999999
 21
-143.8899999999999
 31
0.0
  0
LINE
  5
C1
330
31F
100
AcDbEntity
  8
DATA
  6
Continuous
 62
     7
100
AcDbLine
 10
-159.35
 20
-295.05
 30
0.0
 11
-140.65
 21
-295.05
 31
0.0
  0
LINE
  5
C2
330
31F
100
AcDbEntity
  8
DATA
  6
Continuous
 62
     7
100
AcDbLine
 10
-144.456
 20
-295.05
 30
0.0
 11
-144.456
 21
-300.0
 31
0.0
  0
LINE
  5
C3
330
31F
100
AcDbEntity
  8
DATA
  6
Continuous
 62
     7
100
AcDbLine
 10
-155.5439999999999
 20
-295.05
 30
0.0
 11
-155.5439999999999
 21
-300.0
 31
0.0
  0
LINE
  5
C4
330
31F
100
AcDbEntity
  8
DATA
  6
Continuous
 62
     7
100
AcDbLine
 10
-141.1
 20
-281.19
 30
0.0
 11
-140.65
 21
-295.05
 31
0.0
  0
LINE
  5
C5
330
31F
100
AcDbEntity
  8
DATA
  6
Continuous
 62
     7
100
AcDbLine
 10
-158.9000000000001
 20
-281.19
 30
0.0
 11
-159.35
 21
-295.05
 31
0.0
  0
LINE
  5
C6
330
31F
100
AcDbEntity
  8
DATA
  6
Continuous
 62
     7
100
AcDbLine
 10
-144.456
 20
-300.0
 30
0.0
 11
-155.5439999999999
 21
-300.0
 31
0.0
  0
LINE
  5
C7
330
31F
100
AcDbEntity
  8
DATA
  6
Continuous
 62
     7
100
AcDbLine
 10
-158.9000000000001
 20
-281.19
 30
0.0
 11
-141.1
 21
-281.19
 31
0.0
  0
LINE
  5
C8
330
31F
100
AcDbEntity
  8
DATA
  6
Continuous
 62
     7
100
AcDbLine
 10
-155.0
 20
-240.05
 30
0.0
 11
-145.0
 21
-240.05
 31
0.0
  0
LINE
  5
C9
330
31F
100
AcDbEntity
  8
DATA
  6
Continuous
 62
     7
100
AcDbLine
 10
-145.0
 20
-240.05
 30
0.0
 11
-144.6
 21
-246.19
 31
0.0
  0
LINE
  5
CA
330
31F
100
AcDbEntity
  8
DATA
  6
Continuous
 62
     7
100
AcDbLine
 10
-144.6
 20
-246.19
 30
0.0
 11
-144.1
 21
-251.19
 31
0.0
  0
LINE
  5
CB
330
31F
100
AcDbEntity
  8
DATA
  6
Continuous
 62
     7
100
AcDbLine
 10
-144.1
 20
-251.19
 30
0.0
 11
-143.4000000000001
 21
-256.19
 31
0.0
  0
LINE
  5
CC
330
31F
100
AcDbEntity
  8
DATA
  6
Continuous
 62
     7
100
AcDbLine
 10
-143.4000000000001
 20
-256.19
 30
0.0
 11
-142.4000000000001
 21
-261.19
 31
0.0
  0
LINE
  5
CD
330
31F
100
AcDbEntity
  8
DATA
  6
Continuous
 62
     7
100
AcDbLine
 10
-142.4000000000001
 20
-261.19
 30
0.0
 11
-141.7999999999999
 21
-266.19
 31
0.0
  0
LINE
  5
CE
330
31F
100
AcDbEntity
  8
DATA
  6
Continuous
 62
     7
100
AcDbLine
 10
-141.7999999999999
 20
-266.19
 30
0.0
 11
-141.4000000000001
 21
-271.19
 31
0.0
  0
LINE
  5
CF
330
31F
100
AcDbEntity
  8
DATA
  6
Continuous
 62
     7
100
AcDbLine
 10
-141.4000000000001
 20
-271.19
 30
0.0
 11
-141.1
 21
-281.19
 31
0.0
  0
LINE
  5
D0
330
31F
100
AcDbEntity
  8
DATA
  6
Continuous
 62
     7
100
AcDbLine
 10
-155.0
 20
-240.05
 30
0.0
 11
-155.4000000000001
 21
-246.19
 31
0.0
  0
LINE
  5
D1
330
31F
100
AcDbEntity
  8
DATA
  6
Continuous
 62
     7
100
AcDbLine
 10
-155.4000000000001
 20
-246.19
 30
0.0
 11
-155.9000000000001
 21
-251.19
 31
0.0
  0
LINE
  5
D2
330
31F
100
AcDbEntity
  8
DATA
  6
Continuous
 62
     7
100
AcDbLine
 10
-155.9000000000001
 20
-251.19
 30
0.0
 11
-156.6
 21
-256.19
 31
0.0
  0
LINE
  5
D3
330
31F
100
AcDbEntity
  8
DATA
  6
Continuous
 62
     7
100
AcDbLine
 10
-156.6
 20
-256.19
 30
0.0
 11
-157.6
 21
-261.19
 31
0.0
  0
LINE
  5
D4
330
31F
100
AcDbEntity
  8
DATA
  6
Continuous
 62
     7
100
AcDbLine
 10
-157.6
 20
-261.19
 30
0.0
 11
-158.2
 21
-266.19
 31
0.0
  0
LINE
  5
D5
330
31F
100
AcDbEntity
  8
DATA
  6
Continuous
 62
     7
100
AcDbLine
 10
-158.2
 20
-266.19
 30
0.0
 11
-158.6
 21
-271.19
 31
0.0
  0
LINE
  5
D6
330
31F
100
AcDbEntity
  8
DATA
  6
Continuous
 62
     7
100
AcDbLine
 10
-158.6
 20
-271.19
 30
0.0
 11
-158.9000000000001
 21
-281.19
 31
0.0
  0
LINE
  5
D7
330
31F
100
AcDbEntity
  8
DATA
  6
Continuous
 62
     7
100
AcDbLine
 10
-150.85
 20
-295.05
 30
0.0
 11
-150.85
 21
-281.19
 31
0.0
  0
LINE
  5
D8
330
31F
100
AcDbEntity
  8
DATA
  6
Continuous
 62
     7
100
AcDbLine
 10
-149.1499999999999
 20
-295.05
 30
0.0
 11
-149.1499999999999
 21
-281.19
 31
0.0
  0
LINE
  5
D9
330
31F
100
AcDbEntity
  8
DATA
  6
Continuous
 62
     7
100
AcDbLine
 10
-151.35
 20
-300.0
 30
0.0
 11
-151.35
 21
-295.05
 31
0.0
  0
LINE
  5
DA
330
31F
100
AcDbEntity
  8
DATA
  6
Continuous
 62
     7
100
AcDbLine
 10
-148.6499999999999
 20
-300.0
 30
0.0
 11
-148.6499999999999
 21
-295.05
 31
0.0
  0
LWPOLYLINE
  5
DB
330
31F
100
AcDbEntity
  8
DATA
  6
Continuous
 62
     7
100
AcDbPolyline
 90
        4
 70
     1
 43
0.0
 10
-152.25
 20
-348.3414243581294
 10
-147.75
 20
-348.3414243581294
 10
-147.75
 20
-352.8414243581294
 10
-152.25
 20
-352.8414243581294
  0
LWPOLYLINE
  5
E2
330
31F
100
AcDbEntity
  8
DATA
  6
Continuous
 62
     7
100
AcDbPolyline
 90
        4
 70
     1
 43
0.0
 10
-149.375
 20
-348.9664243581294
 10
-148.375
 20
-348.9664243581294
 10
-148.375
 20
-349.9664243581294
 10
-149.375
 20
-349.9664243581294
  0
LWPOLYLINE
  5
E9
330
31F
100
AcDbEntity
  8
DATA
  6
Continuous
 62
     7
100
AcDbPolyline
 90
        4
 70
     1
 43
0.0
 10
-151.625
 20
-348.9664243581294
 10
-150.625
 20
-348.9664243581294
 10
-150.625
 20
-349.9664243581294
 10
-151.625
 20
-349.9664243581294
  0
LWPOLYLINE
  5
F0
330
31F
100
AcDbEntity
  8
DATA
  6
Continuous
 62
     7
100
AcDbPolyline
 90
        4
 70
     1
 43
0.0
 10
-149.375
 20
-351.2164243581294
 10
-148.375
 20
-351.2164243581294
 10
-148.375
 20
-352.2164243581294
 10
-149.375
 20
-352.2164243581294
  0
LWPOLYLINE
  5
F7
330
31F
100
AcDbEntity
  8
DATA
  6
Continuous
 62
     7
100
AcDbPolyline
 90
        4
 70
     1
 43
0.0
 10
-151.625
 20
-351.2164243581294
 10
-150.625
 20
-351.2164243581294
 10
-150.625
 20
-352.2164243581294
 10
-151.625
 20
-352.2164243581294
  0
LINE
  5
FE
330
31F
100
AcDbEntity
  8
DATA
  6
Continuous
 62
     7
100
AcDbLine
 10
-151.35
 20
-341.2087153659197
 30
0.0
 11
-151.35
 21
-340.7479731950238
 31
0.0
  0
LINE
  5
FF
330
31F
100
AcDbEntity
  8
DATA
  6
Continuous
 62
     7
100
AcDbLine
 10
-148.6500000000001
 20
-341.2087153659197
 30
0.0
 11
-148.6500000000001
 21
-340.7479731950238
 31
0.0
  0
LINE
  5
100
330
31F
100
AcDbEntity
  8
DATA
  6
Continuous
 62
     7
100
AcDbLine
 10
-141.2087153659191
 20
-348.6500000000014
 30
0.0
 11
-141.2087153659191
 21
-351.3500000000014
 31
0.0
  0
LINE
  5
101
330
31F
100
AcDbEntity
  8
DATA
  6
Continuous
 62
     7
100
AcDbLine
 10
-141.2087153659191
 20
-348.6500000000014
 30
0.0
 11
-140.7479731950232
 21
-348.6500000000014
 31
0.0
  0
LINE
  5
102
330
31F
100
AcDbEntity
  8
DATA
  6
Continuous
 62
     7
100
AcDbLine
 10
-141.2087153659191
 20
-351.3500000000014
 30
0.0
 11
-140.7479731950232
 21
-351.3500000000014
 31
0.0
  0
LINE
  5
103
330
31F
100
AcDbEntity
  8
DATA
  6
Continuous
 62
     7
100
AcDbLine
 10
-158.7912846340807
 20
-348.6500000000014
 30
0.0
 11
-158.7912846340807
 21
-351.3500000000014
 31
0.0
  0
LINE
  5
104
330
31F
100
AcDbEntity
  8
DATA
  6
Continuous
 62
     7
100
AcDbLine
 10
-158.7912846340807
 20
-348.6500000000014
 30
0.0
 11
-159.2520268049767
 21
-348.6500000000014
 31
0.0
  0
LINE
  5
105
330
31F
100
AcDbEntity
  8
DATA
  6
Continuous
 62
     7
100
AcDbLine
 10
-158.7912846340807
 20
-351.3500000000014
 30
0.0
 11
-159.2520268049767
 21
-351.3500000000014
 31
0.0
  0
LINE
  5
106
330
31F
100
AcDbEntity
  8
DATA
  6
Continuous
 62
     7
100
AcDbLine
 10
-151.35
 20
-358.7912846340832
 30
0.0
 11
-148.6500000000001
 21
-358.7912846340832
 31
0.0
  0
LINE
  5
107
330
31F
100
AcDbEntity
  8
DATA
  6
Continuous
 62
     7
100
AcDbLine
 10
-151.35
 20
-358.7912846340832
 30
0.0
 11
-151.35
 21
-359.2520268049791
 31
0.0
  0
LINE
  5
108
330
31F
100
AcDbEntity
  8
DATA
  6
Continuous
 62
     7
100
AcDbLine
 10
-148.6500000000001
 20
-358.7912846340832
 30
0.0
 11
-148.6500000000001
 21
-359.2520268049791
 31
0.0
  0
LINE
  5
109
330
31F
100
AcDbEntity
  8
DATA
  6
Continuous
 62
     7
100
AcDbLine
 10
-146.0
 20
-174.05
 30
0.0
 11
-146.0
 21
-240.05
 31
0.0
  0
LINE
  5
10A
330
31F
100
AcDbEntity
  8
DATA
  6
Continuous
 62
     7
100
AcDbLine
 10
-154.0
 20
-174.05
 30
0.0
 11
-154.0
 21
-240.05
 31
0.0
  0
LINE
  5
10B
330
31F
100
AcDbEntity
  8
DATA
  6
Continuous
 62
     7
100
AcDbLine
 10
-146.0
 20
-236.4949545454546
 30
0.0
 11
-154.0
 21
-237.4040454545454
 31
0.0
  0
LINE
  5
10C
330
31F
100
AcDbEntity
  8
DATA
  6
Continuous
 62
     7
100
AcDbLine
 10
-146.0
 20
-235.9999545454546
 30
0.0
 11
-154.0
 21
-236.9090454545454
 31
0.0
  0
LINE
  5
10D
330
31F
100
AcDbEntity
  8
DATA
  6
Continuous
 62
     7
100
AcDbLine
 10
-146.0
 20
-234.4949545454546
 30
0.0
 11
-154.0
 21
-235.4040454545454
 31
0.0
  0
LINE
  5
10E
330
31F
100
AcDbEntity
  8
DATA
  6
Continuous
 62
     7
100
AcDbLine
 10
-146.0
 20
-233.9999545454546
 30
0.0
 11
-154.0
 21
-234.9090454545454
 31
0.0
  0
LINE
  5
10F
330
31F
100
AcDbEntity
  8
DATA
  6
Continuous
 62
     7
100
AcDbLine
 10
-146.0
 20
-232.4949545454546
 30
0.0
 11
-154.0
 21
-233.4040454545454
 31
0.0
  0
LINE
  5
110
330
31F
100
AcDbEntity
  8
DATA
  6
Continuous
 62
     7
100
AcDbLine
 10
-146.0
 20
-231.9999545454546
 30
0.0
 11
-154.0
 21
-232.9090454545454
 31
0.0
  0
LINE
  5
111
330
31F
100
AcDbEntity
  8
DATA
  6
Continuous
 62
     7
100
AcDbLine
 10
-146.0
 20
-230.4949545454546
 30
0.0
 11
-154.0
 21
-231.4040454545454
 31
0.0
  0
LINE
  5
112
330
31F
100
AcDbEntity
  8
DATA
  6
Continuous
 62
     7
100
AcDbLine
 10
-146.0
 20
-229.9999545454546
 30
0.0
 11
-154.0
 21
-230.9090454545454
 31
0.0
  0
LINE
  5
113
330
31F
100
AcDbEntity
  8
DATA
  6
Continuous
 62
     7
100
AcDbLine
 10
-146.0
 20
-228.4949545454546
 30
0.0
 11
-154.0
 21
-229.4040454545454
 31
0.0
  0
LINE
  5
114
330
31F
100
AcDbEntity
  8
DATA
  6
Continuous
 62
     7
100
AcDbLine
 10
-146.0
 20
-227.9999545454546
 30
0.0
 11
-154.0
 21
-228.9090454545454
 31
0.0
  0
LINE
  5
115
330
31F
100
AcDbEntity
  8
DATA
  6
Continuous
 62
     7
100
AcDbLine
 10
-146.0
 20
-226.4949545454546
 30
0.0
 11
-154.0
 21
-227.4040454545454
 31
0.0
  0
LINE
  5
116
330
31F
100
AcDbEntity
  8
DATA
  6
Continuous
 62
     7
100
AcDbLine
 10
-146.0
 20
-225.9999545454546
 30
0.0
 11
-154.0
 21
-226.9090454545454
 31
0.0
  0
LINE
  5
117
330
31F
100
AcDbEntity
  8
DATA
  6
Continuous
 62
     7
100
AcDbLine
 10
-146.0
 20
-224.4949545454546
 30
0.0
 11
-154.0
 21
-225.4040454545454
 31
0.0
  0
LINE
  5
118
330
31F
100
AcDbEntity
  8
DATA
  6
Continuous
 62
     7
100
AcDbLine
 10
-146.0
 20
-223.9999545454546
 30
0.0
 11
-154.0
 21
-224.9090454545454
 31
0.0
  0
LINE
  5
119
330
31F
100
AcDbEntity
  8
DATA
  6
Continuous
 62
     7
100
AcDbLine
 10
-146.0
 20
-222.4949545454546
 30
0.0
 11
-154.0
 21
-223.4040454545454
 31
0.0
  0
LINE
  5
11A
330
31F
100
AcDbEntity
  8
DATA
  6
Continuous
 62
     7
100
AcDbLine
 10
-146.0
 20
-221.9999545454546
 30
0.0
 11
-154.0
 21
-222.9090454545454
 31
0.0
  0
LINE
  5
11B
330
31F
100
AcDbEntity
  8
DATA
  6
Continuous
 62
     7
100
AcDbLine
 10
-146.0
 20
-220.4949545454546
 30
0.0
 11
-154.0
 21
-221.4040454545454
 31
0.0
  0
LINE
  5
11C
330
31F
100
AcDbEntity
  8
DATA
  6
Continuous
 62
     7
100
AcDbLine
 10
-146.0
 20
-219.9999545454546
 30
0.0
 11
-154.0
 21
-220.9090454545454
 31
0.0
  0
LINE
  5
11D
330
31F
100
AcDbEntity
  8
DATA
  6
Continuous
 62
     7
100
AcDbLine
 10
-146.0
 20
-218.4949545454546
 30
0.0
 11
-154.0
 21
-219.4040454545454
 31
0.0
  0
LINE
  5
11E
330
31F
100
AcDbEntity
  8
DATA
  6
Continuous
 62
     7
100
AcDbLine
 10
-146.0
 20
-217.9999545454545
 30
0.0
 11
-154.0
 21
-218.9090454545454
 31
0.0
  0
LINE
  5
11F
330
31F
100
AcDbEntity
  8
DATA
  6
Continuous
 62
     7
100
AcDbLine
 10
-146.0
 20
-216.4949545454545
 30
0.0
 11
-154.0
 21
-217.4040454545454
 31
0.0
  0
LINE
  5
120
330
31F
100
AcDbEntity
  8
DATA
  6
Continuous
 62
     7
100
AcDbLine
 10
-146.0
 20
-215.9999545454545
 30
0.0
 11
-154.0
 21
-216.9090454545454
 31
0.0
  0
LINE
  5
121
330
31F
100
AcDbEntity
  8
DATA
  6
Continuous
 62
     7
100
AcDbLine
 10
-146.0
 20
-214.4949545454545
 30
0.0
 11
-154.0
 21
-215.4040454545454
 31
0.0
  0
LINE
  5
122
330
31F
100
AcDbEntity
  8
DATA
  6
Continuous
 62
     7
100
AcDbLine
 10
-146.0
 20
-213.9999545454545
 30
0.0
 11
-154.0
 21
-214.9090454545454
 31
0.0
  0
LINE
  5
123
330
31F
100
AcDbEntity
  8
DATA
  6
Continuous
 62
     7
100
AcDbLine
 10
-146.0
 20
-212.4949545454545
 30
0.0
 11
-154.0
 21
-213.4040454545454
 31
0.0
  0
LINE
  5
124
330
31F
100
AcDbEntity
  8
DATA
  6
Continuous
 62
     7
100
AcDbLine
 10
-146.0
 20
-211.9999545454545
 30
0.0
 11
-154.0
 21
-212.9090454545454
 31
0.0
  0
LINE
  5
125
330
31F
100
AcDbEntity
  8
DATA
  6
Continuous
 62
     7
100
AcDbLine
 10
-146.0
 20
-210.4949545454545
 30
0.0
 11
-154.0
 21
-211.4040454545454
 31
0.0
  0
LINE
  5
126
330
31F
100
AcDbEntity
  8
DATA
  6
Continuous
 62
     7
100
AcDbLine
 10
-146.0
 20
-209.9999545454545
 30
0.0
 11
-154.0
 21
-210.9090454545454
 31
0.0
  0
LINE
  5
127
330
31F
100
AcDbEntity
  8
DATA
  6
Continuous
 62
     7
100
AcDbLine
 10
-146.0
 20
-208.4949545454545
 30
0.0
 11
-154.0
 21
-209.4040454545454
 31
0.0
  0
LINE
  5
128
330
31F
100
AcDbEntity
  8
DATA
  6
Continuous
 62
     7
100
AcDbLine
 10
-146.0
 20
-207.9999545454545
 30
0.0
 11
-154.0
 21
-208.9090454545454
 31
0.0
  0
LINE
  5
129
330
31F
100
AcDbEntity
  8
DATA
  6
Continuous
 62
     7
100
AcDbLine
 10
-146.0
 20
-206.4949545454545
 30
0.0
 11
-154.0
 21
-207.4040454545454
 31
0.0
  0
LINE
  5
12A
330
31F
100
AcDbEntity
  8
DATA
  6
Continuous
 62
     7
100
AcDbLine
 10
-146.0
 20
-205.9999545454545
 30
0.0
 11
-154.0
 21
-206.9090454545454
 31
0.0
  0
LINE
  5
12B
330
31F
100
AcDbEntity
  8
DATA
  6
Continuous
 62
     7
100
AcDbLine
 10
-146.0
 20
-204.4949545454545
 30
0.0
 11
-154.0
 21
-205.4040454545454
 31
0.0
  0
LINE
  5
12C
330
31F
100
AcDbEntity
  8
DATA
  6
Continuous
 62
     7
100
AcDbLine
 10
-146.0
 20
-203.9999545454545
 30
0.0
 11
-154.0
 21
-204.9090454545454
 31
0.0
  0
LINE
  5
12D
330
31F
100
AcDbEntity
  8
DATA
  6
Continuous
 62
     7
100
AcDbLine
 10
-146.0
 20
-202.4949545454546
 30
0.0
 11
-154.0
 21
-203.4040454545454
 31
0.0
  0
LINE
  5
12E
330
31F
100
AcDbEntity
  8
DATA
  6
Continuous
 62
     7
100
AcDbLine
 10
-146.0
 20
-201.9999545454545
 30
0.0
 11
-154.0
 21
-202.9090454545454
 31
0.0
  0
LINE
  5
12F
330
31F
100
AcDbEntity
  8
DATA
  6
Continuous
 62
     7
100
AcDbLine
 10
-146.0
 20
-200.4949545454546
 30
0.0
 11
-154.0
 21
-201.4040454545454
 31
0.0
  0
LINE
  5
130
330
31F
100
AcDbEntity
  8
DATA
  6
Continuous
 62
     7
100
AcDbLine
 10
-146.0
 20
-199.9999545454545
 30
0.0
 11
-154.0
 21
-200.9090454545454
 31
0.0
  0
LINE
  5
131
330
31F
100
AcDbEntity
  8
DATA
  6
Continuous
 62
     7
100
AcDbLine
 10
-146.0
 20
-198.4949545454545
 30
0.0
 11
-154.0
 21
-199.4040454545454
 31
0.0
  0
LINE
  5
132
330
31F
100
AcDbEntity
  8
DATA
  6
Continuous
 62
     7
100
AcDbLine
 10
-146.0
 20
-197.9999545454545
 30
0.0
 11
-154.0
 21
-198.9090454545454
 31
0.0
  0
LINE
  5
133
330
31F
100
AcDbEntity
  8
DATA
  6
Continuous
 62
     7
100
AcDbLine
 10
-146.0
 20
-196.4949545454545
 30
0.0
 11
-154.0
 21
-197.4040454545454
 31
0.0
  0
LINE
  5
134
330
31F
100
AcDbEntity
  8
DATA
  6
Continuous
 62
     7
100
AcDbLine
 10
-146.0
 20
-195.9999545454545
 30
0.0
 11
-154.0
 21
-196.9090454545454
 31
0.0
  0
LINE
  5
135
330
31F
100
AcDbEntity
  8
DATA
  6
Continuous
 62
     7
100
AcDbLine
 10
-146.0
 20
-194.4949545454545
 30
0.0
 11
-154.0
 21
-195.4040454545454
 31
0.0
  0
LINE
  5
136
330
31F
100
AcDbEntity
  8
DATA
  6
Continuous
 62
     7
100
AcDbLine
 10
-146.0
 20
-193.9999545454545
 30
0.0
 11
-154.0
 21
-194.9090454545454
 31
0.0
  0
LINE
  5
137
330
31F
100
AcDbEntity
  8
DATA
  6
Continuous
 62
     7
100
AcDbLine
 10
-146.0
 20
-192.4949545454545
 30
0.0
 11
-154.0
 21
-193.4040454545454
 31
0.0
  0
LINE
  5
138
330
31F
100
AcDbEntity
  8
DATA
  6
Continuous
 62
     7
100
AcDbLine
 10
-146.0
 20
-191.9999545454545
 30
0.0
 11
-154.0
 21
-192.9090454545454
 31
0.0
  0
LINE
  5
139
330
31F
100
AcDbEntity
  8
DATA
  6
Continuous
 62
     7
100
AcDbLine
 10
-146.0
 20
-190.4949545454545
 30
0.0
 11
-154.0
 21
-191.4040454545454
 31
0.0
  0
LINE
  5
13A
330
31F
100
AcDbEntity
  8
DATA
  6
Continuous
 62
     7
100
AcDbLine
 10
-146.0
 20
-189.9999545454545
 30
0.0
 11
-154.0
 21
-190.9090454545454
 31
0.0
  0
LINE
  5
13B
330
31F
100
AcDbEntity
  8
DATA
  6
Continuous
 62
     7
100
AcDbLine
 10
-146.0
 20
-188.4949545454546
 30
0.0
 11
-154.0
 21
-189.4040454545454
 31
0.0
  0
LINE
  5
13C
330
31F
100
AcDbEntity
  8
DATA
  6
Continuous
 62
     7
100
AcDbLine
 10
-146.0
 20
-187.9999545454545
 30
0.0
 11
-154.0
 21
-188.9090454545454
 31
0.0
  0
LINE
  5
13D
330
31F
100
AcDbEntity
  8
DATA
  6
Continuous
 62
     7
100
AcDbLine
 10
-146.0
 20
-186.4949545454545
 30
0.0
 11
-154.0
 21
-187.4040454545454
 31
0.0
  0
LINE
  5
13E
330
31F
100
AcDbEntity
  8
DATA
  6
Continuous
 62
     7
100
AcDbLine
 10
-146.0
 20
-185.9999545454545
 30
0.0
 11
-154.0
 21
-186.9090454545454
 31
0.0
  0
LINE
  5
13F
330
31F
100
AcDbEntity
  8
DATA
  6
Continuous
 62
     7
100
AcDbLine
 10
-146.0
 20
-184.4949545454545
 30
0.0
 11
-154.0
 21
-185.4040454545454
 31
0.0
  0
LINE
  5
140
330
31F
100
AcDbEntity
  8
DATA
  6
Continuous
 62
     7
100
AcDbLine
 10
-146.0
 20
-183.9999545454545
 30
0.0
 11
-154.0
 21
-184.9090454545454
 31
0.0
  0
LINE
  5
141
330
31F
100
AcDbEntity
  8
DATA
  6
Continuous
 62
     7
100
AcDbLine
 10
-146.0
 20
-182.4949545454545
 30
0.0
 11
-154.0
 21
-183.4040454545454
 31
0.0
  0
LINE
  5
142
330
31F
100
AcDbEntity
  8
DATA
  6
Continuous
 62
     7
100
AcDbLine
 10
-146.0
 20
-181.9999545454545
 30
0.0
 11
-154.0
 21
-182.9090454545454
 31
0.0
  0
LINE
  5
143
330
31F
100
AcDbEntity
  8
DATA
  6
Continuous
 62
     7
100
AcDbLine
 10
-146.0
 20
-180.4949545454545
 30
0.0
 11
-154.0
 21
-181.4040454545454
 31
0.0
  0
LINE
  5
144
330
31F
100
AcDbEntity
  8
DATA
  6
Continuous
 62
     7
100
AcDbLine
 10
-146.0
 20
-179.9999545454545
 30
0.0
 11
-154.0
 21
-180.9090454545454
 31
0.0
  0
LINE
  5
145
330
31F
100
AcDbEntity
  8
DATA
  6
Continuous
 62
     7
100
AcDbLine
 10
-146.0
 20
-178.4949545454545
 30
0.0
 11
-154.0
 21
-179.4040454545454
 31
0.0
  0
LINE
  5
146
330
31F
100
AcDbEntity
  8
DATA
  6
Continuous
 62
     7
100
AcDbLine
 10
-146.0
 20
-177.9999545454545
 30
0.0
 11
-154.0
 21
-178.9090454545454
 31
0.0
  0
LINE
  5
147
330
31F
100
AcDbEntity
  8
DATA
  6
Continuous
 62
     7
100
AcDbLine
 10
-146.0
 20
-176.4949545454545
 30
0.0
 11
-154.0
 21
-177.4040454545454
 31
0.0
  0
LINE
  5
148
330
31F
100
AcDbEntity
  8
DATA
  6
Continuous
 62
     7
100
AcDbLine
 10
-146.0
 20
-175.9999545454545
 30
0.0
 11
-154.0
 21
-176.9090454545454
 31
0.0
  0
LINE
  5
149
330
31F
100
AcDbEntity
  8
DATA
  6
Continuous
 62
     7
100
AcDbLine
 10
-146.0
 20
-174.4949545454545
 30
0.0
 11
-154.0
 21
-175.4040454545454
 31
0.0
  0
LINE
  5
14A
330
31F
100
AcDbEntity
  8
DATA
  6
Continuous
 62
     7
100
AcDbLine
 10
-146.4404
 20
-174.05
 30
0.0
 11
-154.0
 21
-174.9090454545454
 31
0.0
  0
ARC
  5
14B
330
31F
100
AcDbEntity
  8
DATA
  6
Continuous
 62
     7
100
AcDbCircle
 10
-150.0000000000001
 20
-350.0000000000012
 30
0.0
 40
8.949999999999841
100
AcDbArc
 50
171.3245076515616
 51
188.6754923484387
  0
ARC
  5
14C
330
31F
100
AcDbEntity
  8
DATA
  6
Continuous
 62
     7
100
AcDbCircle
 10
-150.0000000000001
 20
-350.0000000000012
 30
0.0
 40
8.94999999999989
100
AcDbArc
 50
261.324507651562
 51
278.6754923484387
  0
ARC
  5
14D
330
31F
100
AcDbEntity
  8
DATA
  6
Continuous
 62
     7
100
AcDbCircle
 10
-150.0000000000001
 20
-350.0000000000012
 30
0.0
 40
8.949999999999841
100
AcDbArc
 50
351.3245076515616
 51
8.675492348436876
  0
ARC
  5
14E
330
31F
100
AcDbEntity
  8
DATA
  6
Continuous
 62
     7
100
AcDbCircle
 10
-150.0000000000001
 20
-350.0000000000012
 30
0.0
 40
8.949999999999853
100
AcDbArc
 50
81.32450765156123
 51
98.67549234843801
  0
LINE
  5
14F
330
31F
100
AcDbEntity
  8
DATA
  6
Continuous
 62
     7
100
AcDbLine
 10
-71.0
 20
-238.4949545454546
 30
0.0
 11
-79.0
 21
-239.4040454545454
 31
0.0
  0
LINE
  5
150
330
31F
100
AcDbEntity
  8
DATA
  6
Continuous
 62
     7
100
AcDbLine
 10
-71.0
 20
-237.9999545454546
 30
0.0
 11
-79.0
 21
-238.9090454545454
 31
0.0
  0
LINE
  5
151
330
31F
100
AcDbEntity
  8
DATA
  6
Continuous
 62
     7
100
AcDbLine
 10
-78.46500000000003
 20
-35.5
 30
0.0
 11
-78.46500000000003
 21
-143.8899999999999
 31
0.0
  0
LINE
  5
152
330
31F
100
AcDbEntity
  8
DATA
  6
Continuous
 62
     7
100
AcDbLine
 10
-71.53499999999997
 20
-35.5
 30
0.0
 11
-71.53499999999997
 21
-143.8899999999999
 31
0.0
  0
LINE
  5
153
330
31F
100
AcDbEntity
  8
DATA
  6
Continuous
 62
     7
100
AcDbLine
 10
-84.35000000000002
 20
-295.05
 30
0.0
 11
-65.64999999999997
 21
-295.05
 31
0.0
  0
LINE
  5
154
330
31F
100
AcDbEntity
  8
DATA
  6
Continuous
 62
     7
100
AcDbLine
 10
-69.45600000000002
 20
-295.05
 30
0.0
 11
-69.45600000000002
 21
-300.0
 31
0.0
  0
LINE
  5
155
330
31F
100
AcDbEntity
  8
DATA
  6
Continuous
 62
     7
100
AcDbLine
 10
-80.54399999999999
 20
-295.05
 30
0.0
 11
-80.54399999999999
 21
-300.0
 31
0.0
  0
LINE
  5
156
330
31F
100
AcDbEntity
  8
DATA
  6
Continuous
 62
     7
100
AcDbLine
 10
-66.10000000000002
 20
-281.19
 30
0.0
 11
-65.64999999999997
 21
-295.05
 31
0.0
  0
LINE
  5
157
330
31F
100
AcDbEntity
  8
DATA
  6
Continuous
 62
     7
100
AcDbLine
 10
-83.90000000000009
 20
-281.19
 30
0.0
 11
-84.35000000000002
 21
-295.05
 31
0.0
  0
LINE
  5
158
330
31F
100
AcDbEntity
  8
DATA
  6
Continuous
 62
     7
100
AcDbLine
 10
-69.45600000000002
 20
-300.0
 30
0.0
 11
-80.54399999999999
 21
-300.0
 31
0.0
  0
LINE
  5
159
330
31F
100
AcDbEntity
  8
DATA
  6
Continuous
 62
     7
100
AcDbLine
 10
-83.90000000000009
 20
-281.19
 30
0.0
 11
-66.10000000000002
 21
-281.19
 31
0.0
  0
LINE
  5
15A
330
31F
100
AcDbEntity
  8
DATA
  6
Continuous
 62
     7
100
AcDbLine
 10
-80.0
 20
-240.05
 30
0.0
 11
-70.0
 21
-240.05
 31
0.0
  0
LINE
  5
15B
330
31F
100
AcDbEntity
  8
DATA
  6
Continuous
 62
     7
100
AcDbLine
 10
-70.0
 20
-240.05
 30
0.0
 11
-69.60000000000002
 21
-246.19
 31
0.0
  0
LINE
  5
15C
330
31F
100
AcDbEntity
  8
DATA
  6
Continuous
 62
     7
100
AcDbLine
 10
-69.60000000000002
 20
-246.19
 30
0.0
 11
-69.10000000000002
 21
-251.19
 31
0.0
  0
LINE
  5
15D
330
31F
100
AcDbEntity
  8
DATA
  6
Continuous
 62
     7
100
AcDbLine
 10
-69.10000000000002
 20
-251.19
 30
0.0
 11
-68.40000000000009
 21
-256.19
 31
0.0
  0
LINE
  5
15E
330
31F
100
AcDbEntity
  8
DATA
  6
Continuous
 62
     7
100
AcDbLine
 10
-68.40000000000009
 20
-256.19
 30
0.0
 11
-67.40000000000009
 21
-261.19
 31
0.0
  0
LINE
  5
15F
330
31F
100
AcDbEntity
  8
DATA
  6
Continuous
 62
     7
100
AcDbLine
 10
-67.40000000000009
 20
-261.19
 30
0.0
 11
-66.79999999999997
 21
-266.19
 31
0.0
  0
LINE
  5
160
330
31F
100
AcDbEntity
  8
DATA
  6
Continuous
 62
     7
100
AcDbLine
 10
-66.79999999999997
 20
-266.19
 30
0.0
 11
-66.40000000000009
 21
-271.19
 31
0.0
  0
LINE
  5
161
330
31F
100
AcDbEntity
  8
DATA
  6
Continuous
 62
     7
100
AcDbLine
 10
-66.40000000000009
 20
-271.19
 30
0.0
 11
-66.10000000000002
 21
-281.19
 31
0.0
  0
LINE
  5
162
330
31F
100
AcDbEntity
  8
DATA
  6
Continuous
 62
     7
100
AcDbLine
 10
-80.0
 20
-240.05
 30
0.0
 11
-80.40000000000009
 21
-246.19
 31
0.0
  0
LINE
  5
163
330
31F
100
AcDbEntity
  8
DATA
  6
Continuous
 62
     7
100
AcDbLine
 10
-80.40000000000009
 20
-246.19
 30
0.0
 11
-80.90000000000008
 21
-251.19
 31
0.0
  0
LINE
  5
164
330
31F
100
AcDbEntity
  8
DATA
  6
Continuous
 62
     7
100
AcDbLine
 10
-80.90000000000008
 20
-251.19
 30
0.0
 11
-81.60000000000001
 21
-256.19
 31
0.0
  0
LINE
  5
165
330
31F
100
AcDbEntity
  8
DATA
  6
Continuous
 62
     7
100
AcDbLine
 10
-81.60000000000001
 20
-256.19
 30
0.0
 11
-82.60000000000003
 21
-261.19
 31
0.0
  0
LINE
  5
166
330
31F
100
AcDbEntity
  8
DATA
  6
Continuous
 62
     7
100
AcDbLine
 10
-82.60000000000003
 20
-261.19
 30
0.0
 11
-83.20000000000003
 21
-266.19
 31
0.0
  0
LINE
  5
167
330
31F
100
AcDbEntity
  8
DATA
  6
Continuous
 62
     7
100
AcDbLine
 10
-83.20000000000003
 20
-266.19
 30
0.0
 11
-83.60000000000002
 21
-271.19
 31
0.0
  0
LINE
  5
168
330
31F
100
AcDbEntity
  8
DATA
  6
Continuous
 62
     7
100
AcDbLine
 10
-83.60000000000002
 20
-271.19
 30
0.0
 11
-83.90000000000009
 21
-281.19
 31
0.0
  0
LINE
  5
169
330
31F
100
AcDbEntity
  8
DATA
  6
Continuous
 62
     7
100
AcDbLine
 10
-75.85000000000002
 20
-295.05
 30
0.0
 11
-75.85000000000002
 21
-281.19
 31
0.0
  0
LINE
  5
16A
330
31F
100
AcDbEntity
  8
DATA
  6
Continuous
 62
     7
100
AcDbLine
 10
-74.14999999999998
 20
-295.05
 30
0.0
 11
-74.14999999999998
 21
-281.19
 31
0.0
  0
LINE
  5
16B
330
31F
100
AcDbEntity
  8
DATA
  6
Continuous
 62
     7
100
AcDbLine
 10
-76.35000000000002
 20
-300.0
 30
0.0
 11
-76.35000000000002
 21
-295.05
 31
0.0
  0
LINE
  5
16C
330
31F
100
AcDbEntity
  8
DATA
  6
Continuous
 62
     7
100
AcDbLine
 10
-73.64999999999998
 20
-300.0
 30
0.0
 11
-73.64999999999998
 21
-295.05
 31
0.0
  0
LINE
  5
16D
330
31F
100
AcDbEntity
  8
DATA
  6
Continuous
 62
     7
100
AcDbLine
 10
-79.25
 20
-174.05
 30
0.0
 11
-70.75
 21
-174.05
 31
0.0
  0
LINE
  5
16E
330
31F
100
AcDbEntity
  8
DATA
  6
Continuous
 62
     7
100
AcDbLine
 10
-71.0
 20
-174.05
 30
0.0
 11
-71.0
 21
-240.05
 31
0.0
  0
LINE
  5
16F
330
31F
100
AcDbEntity
  8
DATA
  6
Continuous
 62
     7
100
AcDbLine
 10
-79.0
 20
-174.05
 30
0.0
 11
-79.0
 21
-240.05
 31
0.0
  0
LINE
  5
170
330
31F
100
AcDbEntity
  8
DATA
  6
Continuous
 62
     7
100
AcDbLine
 10
-71.0
 20
-236.4949545454546
 30
0.0
 11
-79.0
 21
-237.4040454545454
 31
0.0
  0
LINE
  5
171
330
31F
100
AcDbEntity
  8
DATA
  6
Continuous
 62
     7
100
AcDbLine
 10
-71.0
 20
-235.9999545454546
 30
0.0
 11
-79.0
 21
-236.9090454545454
 31
0.0
  0
LINE
  5
172
330
31F
100
AcDbEntity
  8
DATA
  6
Continuous
 62
     7
100
AcDbLine
 10
-71.0
 20
-234.4949545454546
 30
0.0
 11
-79.0
 21
-235.4040454545454
 31
0.0
  0
LINE
  5
173
330
31F
100
AcDbEntity
  8
DATA
  6
Continuous
 62
     7
100
AcDbLine
 10
-71.0
 20
-233.9999545454546
 30
0.0
 11
-79.0
 21
-234.9090454545454
 31
0.0
  0
LINE
  5
174
330
31F
100
AcDbEntity
  8
DATA
  6
Continuous
 62
     7
100
AcDbLine
 10
-71.0
 20
-232.4949545454546
 30
0.0
 11
-79.0
 21
-233.4040454545454
 31
0.0
  0
LINE
  5
175
330
31F
100
AcDbEntity
  8
DATA
  6
Continuous
 62
     7
100
AcDbLine
 10
-71.0
 20
-231.9999545454546
 30
0.0
 11
-79.0
 21
-232.9090454545454
 31
0.0
  0
LINE
  5
176
330
31F
100
AcDbEntity
  8
DATA
  6
Continuous
 62
     7
100
AcDbLine
 10
-71.0
 20
-230.4949545454546
 30
0.0
 11
-79.0
 21
-231.4040454545454
 31
0.0
  0
LINE
  5
177
330
31F
100
AcDbEntity
  8
DATA
  6
Continuous
 62
     7
100
AcDbLine
 10
-71.0
 20
-229.9999545454546
 30
0.0
 11
-79.0
 21
-230.9090454545454
 31
0.0
  0
LINE
  5
178
330
31F
100
AcDbEntity
  8
DATA
  6
Continuous
 62
     7
100
AcDbLine
 10
-71.0
 20
-228.4949545454546
 30
0.0
 11
-79.0
 21
-229.4040454545454
 31
0.0
  0
LINE
  5
179
330
31F
100
AcDbEntity
  8
DATA
  6
Continuous
 62
     7
100
AcDbLine
 10
-71.0
 20
-227.9999545454546
 30
0.0
 11
-79.0
 21
-228.9090454545454
 31
0.0
  0
LINE
  5
17A
330
31F
100
AcDbEntity
  8
DATA
  6
Continuous
 62
     7
100
AcDbLine
 10
-71.0
 20
-226.4949545454546
 30
0.0
 11
-79.0
 21
-227.4040454545454
 31
0.0
  0
LINE
  5
17B
330
31F
100
AcDbEntity
  8
DATA
  6
Continuous
 62
     7
100
AcDbLine
 10
-71.0
 20
-225.9999545454546
 30
0.0
 11
-79.0
 21
-226.9090454545454
 31
0.0
  0
LINE
  5
17C
330
31F
100
AcDbEntity
  8
DATA
  6
Continuous
 62
     7
100
AcDbLine
 10
-71.0
 20
-224.4949545454546
 30
0.0
 11
-79.0
 21
-225.4040454545454
 31
0.0
  0
LINE
  5
17D
330
31F
100
AcDbEntity
  8
DATA
  6
Continuous
 62
     7
100
AcDbLine
 10
-71.0
 20
-223.9999545454546
 30
0.0
 11
-79.0
 21
-224.9090454545454
 31
0.0
  0
LINE
  5
17E
330
31F
100
AcDbEntity
  8
DATA
  6
Continuous
 62
     7
100
AcDbLine
 10
-71.0
 20
-222.4949545454546
 30
0.0
 11
-79.0
 21
-223.4040454545454
 31
0.0
  0
LINE
  5
17F
330
31F
100
AcDbEntity
  8
DATA
  6
Continuous
 62
     7
100
AcDbLine
 10
-71.0
 20
-221.9999545454546
 30
0.0
 11
-79.0
 21
-222.9090454545454
 31
0.0
  0
LINE
  5
180
330
31F
100
AcDbEntity
  8
DATA
  6
Continuous
 62
     7
100
AcDbLine
 10
-71.0
 20
-220.4949545454546
 30
0.0
 11
-79.0
 21
-221.4040454545454
 31
0.0
  0
LINE
  5
181
330
31F
100
AcDbEntity
  8
DATA
  6
Continuous
 62
     7
100
AcDbLine
 10
-71.0
 20
-219.9999545454546
 30
0.0
 11
-79.0
 21
-220.9090454545454
 31
0.0
  0
LINE
  5
182
330
31F
100
AcDbEntity
  8
DATA
  6
Continuous
 62
     7
100
AcDbLine
 10
-71.0
 20
-218.4949545454546
 30
0.0
 11
-79.0
 21
-219.4040454545454
 31
0.0
  0
LINE
  5
183
330
31F
100
AcDbEntity
  8
DATA
  6
Continuous
 62
     7
100
AcDbLine
 10
-71.0
 20
-217.9999545454545
 30
0.0
 11
-79.0
 21
-218.9090454545454
 31
0.0
  0
LINE
  5
184
330
31F
100
AcDbEntity
  8
DATA
  6
Continuous
 62
     7
100
AcDbLine
 10
-71.0
 20
-216.4949545454545
 30
0.0
 11
-79.0
 21
-217.4040454545454
 31
0.0
  0
LINE
  5
185
330
31F
100
AcDbEntity
  8
DATA
  6
Continuous
 62
     7
100
AcDbLine
 10
-71.0
 20
-215.9999545454545
 30
0.0
 11
-79.0
 21
-216.9090454545454
 31
0.0
  0
LINE
  5
186
330
31F
100
AcDbEntity
  8
DATA
  6
Continuous
 62
     7
100
AcDbLine
 10
-71.0
 20
-214.4949545454545
 30
0.0
 11
-79.0
 21
-215.4040454545454
 31
0.0
  0
LINE
  5
187
330
31F
100
AcDbEntity
  8
DATA
  6
Continuous
 62
     7
100
AcDbLine
 10
-71.0
 20
-213.9999545454545
 30
0.0
 11
-79.0
 21
-214.9090454545454
 31
0.0
  0
LINE
  5
188
330
31F
100
AcDbEntity
  8
DATA
  6
Continuous
 62
     7
100
AcDbLine
 10
-71.0
 20
-212.4949545454545
 30
0.0
 11
-79.0
 21
-213.4040454545454
 31
0.0
  0
LINE
  5
189
330
31F
100
AcDbEntity
  8
DATA
  6
Continuous
 62
     7
100
AcDbLine
 10
-71.0
 20
-211.9999545454545
 30
0.0
 11
-79.0
 21
-212.9090454545454
 31
0.0
  0
LINE
  5
18A
330
31F
100
AcDbEntity
  8
DATA
  6
Continuous
 62
     7
100
AcDbLine
 10
-71.0
 20
-210.4949545454545
 30
0.0
 11
-79.0
 21
-211.4040454545454
 31
0.0
  0
LINE
  5
18B
330
31F
100
AcDbEntity
  8
DATA
  6
Continuous
 62
     7
100
AcDbLine
 10
-71.0
 20
-209.9999545454545
 30
0.0
 11
-79.0
 21
-210.9090454545454
 31
0.0
  0
LINE
  5
18C
330
31F
100
AcDbEntity
  8
DATA
  6
Continuous
 62
     7
100
AcDbLine
 10
-71.0
 20
-208.4949545454545
 30
0.0
 11
-79.0
 21
-209.4040454545454
 31
0.0
  0
LINE
  5
18D
330
31F
100
AcDbEntity
  8
DATA
  6
Continuous
 62
     7
100
AcDbLine
 10
-71.0
 20
-207.9999545454545
 30
0.0
 11
-79.0
 21
-208.9090454545454
 31
0.0
  0
LINE
  5
18E
330
31F
100
AcDbEntity
  8
DATA
  6
Continuous
 62
     7
100
AcDbLine
 10
-71.0
 20
-206.4949545454545
 30
0.0
 11
-79.0
 21
-207.4040454545454
 31
0.0
  0
LINE
  5
18F
330
31F
100
AcDbEntity
  8
DATA
  6
Continuous
 62
     7
100
AcDbLine
 10
-71.0
 20
-205.9999545454545
 30
0.0
 11
-79.0
 21
-206.9090454545454
 31
0.0
  0
LINE
  5
190
330
31F
100
AcDbEntity
  8
DATA
  6
Continuous
 62
     7
100
AcDbLine
 10
-71.0
 20
-204.4949545454545
 30
0.0
 11
-79.0
 21
-205.4040454545454
 31
0.0
  0
LINE
  5
191
330
31F
100
AcDbEntity
  8
DATA
  6
Continuous
 62
     7
100
AcDbLine
 10
-71.0
 20
-203.9999545454545
 30
0.0
 11
-79.0
 21
-204.9090454545454
 31
0.0
  0
LINE
  5
192
330
31F
100
AcDbEntity
  8
DATA
  6
Continuous
 62
     7
100
AcDbLine
 10
-71.0
 20
-202.4949545454546
 30
0.0
 11
-79.0
 21
-203.4040454545454
 31
0.0
  0
LINE
  5
193
330
31F
100
AcDbEntity
  8
DATA
  6
Continuous
 62
     7
100
AcDbLine
 10
-71.0
 20
-201.9999545454545
 30
0.0
 11
-79.0
 21
-202.9090454545454
 31
0.0
  0
LINE
  5
194
330
31F
100
AcDbEntity
  8
DATA
  6
Continuous
 62
     7
100
AcDbLine
 10
-71.0
 20
-200.4949545454546
 30
0.0
 11
-79.0
 21
-201.4040454545454
 31
0.0
  0
LINE
  5
195
330
31F
100
AcDbEntity
  8
DATA
  6
Continuous
 62
     7
100
AcDbLine
 10
-71.0
 20
-199.9999545454545
 30
0.0
 11
-79.0
 21
-200.9090454545454
 31
0.0
  0
LINE
  5
196
330
31F
100
AcDbEntity
  8
DATA
  6
Continuous
 62
     7
100
AcDbLine
 10
-71.0
 20
-198.4949545454545
 30
0.0
 11
-79.0
 21
-199.4040454545454
 31
0.0
  0
LINE
  5
197
330
31F
100
AcDbEntity
  8
DATA
  6
Continuous
 62
     7
100
AcDbLine
 10
-71.0
 20
-197.9999545454545
 30
0.0
 11
-79.0
 21
-198.9090454545454
 31
0.0
  0
LINE
  5
198
330
31F
100
AcDbEntity
  8
DATA
  6
Continuous
 62
     7
100
AcDbLine
 10
-71.0
 20
-196.4949545454545
 30
0.0
 11
-79.0
 21
-197.4040454545454
 31
0.0
  0
LINE
  5
199
330
31F
100
AcDbEntity
  8
DATA
  6
Continuous
 62
     7
100
AcDbLine
 10
-71.0
 20
-195.9999545454545
 30
0.0
 11
-79.0
 21
-196.9090454545454
 31
0.0
  0
LINE
  5
19A
330
31F
100
AcDbEntity
  8
DATA
  6
Continuous
 62
     7
100
AcDbLine
 10
-71.0
 20
-194.4949545454545
 30
0.0
 11
-79.0
 21
-195.4040454545454
 31
0.0
  0
LINE
  5
19B
330
31F
100
AcDbEntity
  8
DATA
  6
Continuous
 62
     7
100
AcDbLine
 10
-71.0
 20
-193.9999545454545
 30
0.0
 11
-79.0
 21
-194.9090454545454
 31
0.0
  0
LINE
  5
19C
330
31F
100
AcDbEntity
  8
DATA
  6
Continuous
 62
     7
100
AcDbLine
 10
-71.0
 20
-192.4949545454545
 30
0.0
 11
-79.0
 21
-193.4040454545454
 31
0.0
  0
LINE
  5
19D
330
31F
100
AcDbEntity
  8
DATA
  6
Continuous
 62
     7
100
AcDbLine
 10
-71.0
 20
-191.9999545454545
 30
0.0
 11
-79.0
 21
-192.9090454545454
 31
0.0
  0
LINE
  5
19E
330
31F
100
AcDbEntity
  8
DATA
  6
Continuous
 62
     7
100
AcDbLine
 10
-71.0
 20
-190.4949545454545
 30
0.0
 11
-79.0
 21
-191.4040454545454
 31
0.0
  0
LINE
  5
19F
330
31F
100
AcDbEntity
  8
DATA
  6
Continuous
 62
     7
100
AcDbLine
 10
-71.0
 20
-189.9999545454545
 30
0.0
 11
-79.0
 21
-190.9090454545454
 31
0.0
  0
LINE
  5
1A0
330
31F
100
AcDbEntity
  8
DATA
  6
Continuous
 62
     7
100
AcDbLine
 10
-71.0
 20
-188.4949545454546
 30
0.0
 11
-79.0
 21
-189.4040454545454
 31
0.0
  0
LINE
  5
1A1
330
31F
100
AcDbEntity
  8
DATA
  6
Continuous
 62
     7
100
AcDbLine
 10
-71.0
 20
-187.9999545454545
 30
0.0
 11
-79.0
 21
-188.9090454545454
 31
0.0
  0
LINE
  5
1A2
330
31F
100
AcDbEntity
  8
DATA
  6
Continuous
 62
     7
100
AcDbLine
 10
-71.0
 20
-186.4949545454545
 30
0.0
 11
-79.0
 21
-187.4040454545454
 31
0.0
  0
LINE
  5
1A3
330
31F
100
AcDbEntity
  8
DATA
  6
Continuous
 62
     7
100
AcDbLine
 10
-71.0
 20
-185.9999545454545
 30
0.0
 11
-79.0
 21
-186.9090454545454
 31
0.0
  0
LINE
  5
1A4
330
31F
100
AcDbEntity
  8
DATA
  6
Continuous
 62
     7
100
AcDbLine
 10
-71.0
 20
-184.4949545454545
 30
0.0
 11
-79.0
 21
-185.4040454545454
 31
0.0
  0
LINE
  5
1A5
330
31F
100
AcDbEntity
  8
DATA
  6
Continuous
 62
     7
100
AcDbLine
 10
-71.0
 20
-183.9999545454545
 30
0.0
 11
-79.0
 21
-184.9090454545454
 31
0.0
  0
LINE
  5
1A6
330
31F
100
AcDbEntity
  8
DATA
  6
Continuous
 62
     7
100
AcDbLine
 10
-71.0
 20
-182.4949545454545
 30
0.0
 11
-79.0
 21
-183.4040454545454
 31
0.0
  0
LINE
  5
1A7
330
31F
100
AcDbEntity
  8
DATA
  6
Continuous
 62
     7
100
AcDbLine
 10
-71.0
 20
-181.9999545454545
 30
0.0
 11
-79.0
 21
-182.9090454545454
 31
0.0
  0
LINE
  5
1A8
330
31F
100
AcDbEntity
  8
DATA
  6
Continuous
 62
     7
100
AcDbLine
 10
-71.0
 20
-180.4949545454545
 30
0.0
 11
-79.0
 21
-181.4040454545454
 31
0.0
  0
LINE
  5
1A9
330
31F
100
AcDbEntity
  8
DATA
  6
Continuous
 62
     7
100
AcDbLine
 10
-71.0
 20
-179.9999545454545
 30
0.0
 11
-79.0
 21
-180.9090454545454
 31
0.0
  0
LINE
  5
1AA
330
31F
100
AcDbEntity
  8
DATA
  6
Continuous
 62
     7
100
AcDbLine
 10
-71.0
 20
-178.4949545454545
 30
0.0
 11
-79.0
 21
-179.4040454545454
 31
0.0
  0
LINE
  5
1AB
330
31F
100
AcDbEntity
  8
DATA
  6
Continuous
 62
     7
100
AcDbLine
 10
-71.0
 20
-177.9999545454545
 30
0.0
 11
-79.0
 21
-178.9090454545454
 31
0.0
  0
LINE
  5
1AC
330
31F
100
AcDbEntity
  8
DATA
  6
Continuous
 62
     7
100
AcDbLine
 10
-71.0
 20
-176.4949545454545
 30
0.0
 11
-79.0
 21
-177.4040454545454
 31
0.0
  0
LINE
  5
1AD
330
31F
100
AcDbEntity
  8
DATA
  6
Continuous
 62
     7
100
AcDbLine
 10
-71.0
 20
-175.9999545454545
 30
0.0
 11
-79.0
 21
-176.9090454545454
 31
0.0
  0
LINE
  5
1AE
330
31F
100
AcDbEntity
  8
DATA
  6
Continuous
 62
     7
100
AcDbLine
 10
-71.0
 20
-174.4949545454545
 30
0.0
 11
-79.0
 21
-175.4040454545454
 31
0.0
  0
LINE
  5
1AF
330
31F
100
AcDbEntity
  8
DATA
  6
Continuous
 62
     7
100
AcDbLine
 10
-71.44040000000003
 20
-174.05
 30
0.0
 11
-79.0
 21
-174.9090454545454
 31
0.0
  0
LINE
  5
1B0
330
31F
100
AcDbEntity
  8
DATA
  6
Continuous
 62
     7
100
AcDbLine
 10
-70.75
 20
-174.05
 30
0.0
 11
-70.75
 21
-148.39
 31
0.0
  0
LINE
  5
1B1
330
31F
100
AcDbEntity
  8
DATA
  6
Continuous
 62
     7
100
AcDbLine
 10
-79.25
 20
-174.05
 30
0.0
 11
-79.25
 21
-148.39
 31
0.0
  0
ARC
  5
1B2
330
31F
100
AcDbEntity
  8
DATA
  6
STYLE_01
 62
     7
100
AcDbCircle
 10
-39.00000447432274
 20
-240.05
 30
0.0
 40
31.99999552567732
100
AcDbArc
 50
90.0
 51
180.0
  0
ARC
  5
1B3
330
31F
100
AcDbEntity
  8
DATA
  6
STYLE_01
 62
     7
100
AcDbCircle
 10
-39.00000447432274
 20
-240.05
 30
0.0
 40
39.99999552567732
100
AcDbArc
 50
90.0
 51
143.130100217824
  0
CIRCLE
  5
1B4
330
31F
100
AcDbEntity
  8
DATA
  6
Continuous
 62
     7
100
AcDbCircle
 10
200.0
 20
119.9999999999999
 30
0.0
 40
13.5
  0
ARC
  5
1B5
330
31F
100
AcDbEntity
  8
DATA
  6
Continuous
 62
     7
100
AcDbCircle
 10
258.417795027312
 20
170.0
 30
0.0
 40
71.91814472970321
100
AcDbArc
 50
172.6540227496132
 51
196.1464777900971
  0
ARC
  5
1B6
330
31F
100
AcDbEntity
  8
DATA
  6
Continuous
 62
     7
100
AcDbCircle
 10
200.0
 20
190.0
 30
0.0
 40
9.0
100
AcDbArc
 50
90.0
 51
150.2551187030578
  0
ARC
  5
1B7
330
31F
100
AcDbEntity
  8
DATA
  6
Continuous
 62
     7
100
AcDbCircle
 10
189.458676056654
 20
186.5536449972608
 30
0.0
 40
0.9999999999889379
100
AcDbArc
 50
152.4708477772543
 51
166.5015513173588
  0
ARC
  5
1B8
330
31F
100
AcDbEntity
  8
DATA
  6
Continuous
 62
     7
100
AcDbCircle
 10
300.0
 20
150.0
 30
0.0
 40
116.6235726233807
100
AcDbArc
 50
157.5875322713045
 51
165.5023948401372
  0
ARC
  5
1B9
330
31F
100
AcDbEntity
  8
DATA
  6
Continuous
 62
     7
100
AcDbCircle
 10
141.582204972688
 20
170.0
 30
0.0
 40
71.91814472970325
100
AcDbArc
 50
343.8535222099029
 51
7.345977250386797
  0
ARC
  5
1BA
330
31F
100
AcDbEntity
  8
DATA
  6
Continuous
 62
     7
100
AcDbCircle
 10
200.0
 20
190.0
 30
0.0
 40
8.999999999999982
100
AcDbArc
 50
29.74488129694222
 51
89.99999999999998
  0
ARC
  5
1BB
330
31F
100
AcDbEntity
  8
DATA
  6
Continuous
 62
     7
100
AcDbCircle
 10
210.541323943346
 20
186.5536449972608
 30
0.0
 40
0.9999999999888816
100
AcDbArc
 50
13.49844868264422
 51
27.5291522227457
  0
ARC
  5
1BC
330
31F
100
AcDbEntity
  8
DATA
  6
Continuous
 62
     7
100
AcDbCircle
 10
100.0
 20
150.0
 30
0.0
 40
116.6235726233807
100
AcDbArc
 50
14.49760515986274
 51
22.41246772869551
  0
LINE
  5
1BD
330
31F
100
AcDbEntity
  8
DATA
  6
Continuous
 62
     7
100
AcDbLine
 10
189.3365418441035
 20
150.0
 30
0.0
 11
210.6634581558965
 21
150.0
 31
0.0
  0
TEXT
  5
1BE
330
31F
100
AcDbEntity
  8
DATA
 62
     7
100
AcDbText
 10
136.4999946170383
 20
82.41999999999995
 30
0.0
 40
10.85894097222222
  1
ウインドスクリーン
 41
0.7
 11
136.4999946170383
 21
93.27894097222218
 31
0.0
100
AcDbText
 73
     3
  0
LINE
  5
1BF
330
31F
100
AcDbEntity
  8
DATA
  6
Continuous
 62
     7
100
AcDbLine
 10
-154.25
 20
-174.05
 30
0.0
 11
-145.75
 21
-174.05
 31
0.0
  0
LINE
  5
1C0
330
31F
100
AcDbEntity
  8
DATA
  6
Continuous
 62
     7
100
AcDbLine
 10
-145.75
 20
-174.05
 30
0.0
 11
-145.75
 21
-148.3899999999999
 31
0.0
  0
LINE
  5
1C1
330
31F
100
AcDbEntity
  8
DATA
  6
Continuous
 62
     7
100
AcDbLine
 10
-154.25
 20
-174.05
 30
0.0
 11
-154.25
 21
-148.3899999999999
 31
0.0
  0
LINE
  5
1C2
330
31F
100
AcDbEntity
  8
DATA
  6
Continuous
 62
     7
100
AcDbLine
 10
-146.25
 20
-143.8899999999999
 30
0.0
 11
-145.75
 21
-148.3899999999999
 31
0.0
  0
LINE
  5
1C3
330
31F
100
AcDbEntity
  8
DATA
  6
Continuous
 62
     7
100
AcDbLine
 10
-154.25
 20
-148.3899999999999
 30
0.0
 11
-153.75
 21
-143.8899999999999
 31
0.0
  0
LINE
  5
1C4
330
31F
100
AcDbEntity
  8
DATA
  6
Continuous
 62
     7
100
AcDbLine
 10
-153.75
 20
-143.8899999999999
 30
0.0
 11
-146.25
 21
-143.8899999999999
 31
0.0
  0
LINE
  5
1C5
330
31F
100
AcDbEntity
  8
DATA
  6
Continuous
 62
     7
100
AcDbLine
 10
-154.75
 20
-35.5
 30
0.0
 11
-145.25
 21
-35.5
 31
0.0
  0
LINE
  5
1C6
330
31F
100
AcDbEntity
  8
DATA
  6
Continuous
 62
     7
100
AcDbLine
 10
-154.75
 20
-32.5
 30
0.0
 11
-145.25
 21
-32.5
 31
0.0
  0
LINE
  5
1C7
330
31F
100
AcDbEntity
  8
DATA
  6
Continuous
 62
     7
100
AcDbLine
 10
-154.75
 20
-31.0
 30
0.0
 11
-145.25
 21
-31.0
 31
0.0
  0
LINE
  5
1C8
330
31F
100
AcDbEntity
  8
DATA
  6
Continuous
 62
     7
100
AcDbLine
 10
-154.75
 20
-28.5
 30
0.0
 11
-145.25
 21
-28.5
 31
0.0
  0
LINE
  5
1C9
330
31F
100
AcDbEntity
  8
DATA
  6
Continuous
 62
     7
100
AcDbLine
 10
-154.75
 20
-27.0
 30
0.0
 11
-145.25
 21
-27.0
 31
0.0
  0
LINE
  5
1CA
330
31F
100
AcDbEntity
  8
DATA
  6
Continuous
 62
     7
100
AcDbLine
 10
-154.75
 20
-35.5
 30
0.0
 11
-154.75
 21
-32.5
 31
0.0
  0
LINE
  5
1CB
330
31F
100
AcDbEntity
  8
DATA
  6
Continuous
 62
     7
100
AcDbLine
 10
-154.75
 20
-31.0
 30
0.0
 11
-154.75
 21
-28.5
 31
0.0
  0
LINE
  5
1CC
330
31F
100
AcDbEntity
  8
DATA
  6
Continuous
 62
     7
100
AcDbLine
 10
-145.25
 20
-35.5
 30
0.0
 11
-145.25
 21
-32.5
 31
0.0
  0
LINE
  5
1CD
330
31F
100
AcDbEntity
  8
DATA
  6
Continuous
 62
     7
100
AcDbLine
 10
-145.25
 20
-31.0
 30
0.0
 11
-145.25
 21
-28.5
 31
0.0
  0
ARC
  5
1CE
330
31F
100
AcDbEntity
  8
DATA
  6
Continuous
 62
     7
100
AcDbCircle
 10
-145.1
 20
-31.75
 30
0.0
 40
0.7499999999999946
100
AcDbArc
 50
101.5369590328049
 51
258.463040967195
  0
ARC
  5
1CF
330
31F
100
AcDbEntity
  8
DATA
  6
Continuous
 62
     7
100
AcDbCircle
 10
-154.8999999999999
 20
-31.75
 30
0.0
 40
0.7499999999999946
100
AcDbArc
 50
281.536959032805
 51
78.46304096719508
  0
ARC
  5
1D0
330
31F
100
AcDbEntity
  8
DATA
  6
Continuous
 62
     7
100
AcDbCircle
 10
-154.8999999999999
 20
-27.75
 30
0.0
 40
0.7499999999999946
100
AcDbArc
 50
281.536959032805
 51
78.46304096719508
  0
ARC
  5
1D1
330
31F
100
AcDbEntity
  8
DATA
  6
Continuous
 62
     7
100
AcDbCircle
 10
-145.1
 20
-27.75
 30
0.0
 40
0.7499999999999946
100
AcDbArc
 50
101.5369590328049
 51
258.463040967195
  0
LINE
  5
1D2
330
31F
100
AcDbEntity
  8
DATA
  6
Continuous
 62
     7
100
AcDbLine
 10
-156.3500000000001
 20
-2.199999999999988
 30
0.0
 11
-143.6499999999999
 21
-2.199999999999988
 31
0.0
  0
LINE
  5
1D3
330
31F
100
AcDbEntity
  8
DATA
  6
Continuous
 62
     7
100
AcDbLine
 10
-154.75
 20
-27.01515307716446
 30
0.0
 11
-154.75
 21
-23.19999999999999
 31
0.0
  0
LINE
  5
1D4
330
31F
100
AcDbEntity
  8
DATA
  6
Continuous
 62
     7
100
AcDbLine
 10
-154.75
 20
-23.19999999999999
 30
0.0
 11
-154.7999999999999
 21
-18.69999999999999
 31
0.0
  0
LINE
  5
1D5
330
31F
100
AcDbEntity
  8
DATA
  6
Continuous
 62
     7
100
AcDbLine
 10
-154.7999999999999
 20
-18.69999999999999
 30
0.0
 11
-154.95
 21
-14.19999999999999
 31
0.0
  0
LINE
  5
1D6
330
31F
100
AcDbEntity
  8
DATA
  6
Continuous
 62
     7
100
AcDbLine
 10
-154.95
 20
-14.19999999999999
 30
0.0
 11
-155.2
 21
-9.699999999999986
 31
0.0
  0
LINE
  5
1D7
330
31F
100
AcDbEntity
  8
DATA
  6
Continuous
 62
     7
100
AcDbLine
 10
-155.2
 20
-9.699999999999986
 30
0.0
 11
-155.7
 21
-5.199999999999988
 31
0.0
  0
LINE
  5
1D8
330
31F
100
AcDbEntity
  8
DATA
  6
Continuous
 62
     7
100
AcDbLine
 10
-155.7
 20
-5.199999999999988
 30
0.0
 11
-155.95
 21
-2.199999999999988
 31
0.0
  0
LINE
  5
1D9
330
31F
100
AcDbEntity
  8
DATA
  6
Continuous
 62
     7
100
AcDbLine
 10
-145.25
 20
-27.01515307716446
 30
0.0
 11
-145.25
 21
-23.19999999999999
 31
0.0
  0
LINE
  5
1DA
330
31F
100
AcDbEntity
  8
DATA
  6
Continuous
 62
     7
100
AcDbLine
 10
-145.25
 20
-23.19999999999999
 30
0.0
 11
-145.2
 21
-18.69999999999999
 31
0.0
  0
LINE
  5
1DB
330
31F
100
AcDbEntity
  8
DATA
  6
Continuous
 62
     7
100
AcDbLine
 10
-145.2
 20
-18.69999999999999
 30
0.0
 11
-145.0499999999999
 21
-14.19999999999999
 31
0.0
  0
LINE
  5
1DC
330
31F
100
AcDbEntity
  8
DATA
  6
Continuous
 62
     7
100
AcDbLine
 10
-145.0499999999999
 20
-14.19999999999999
 30
0.0
 11
-144.7999999999999
 21
-9.699999999999986
 31
0.0
  0
LINE
  5
1DD
330
31F
100
AcDbEntity
  8
DATA
  6
Continuous
 62
     7
100
AcDbLine
 10
-144.7999999999999
 20
-9.699999999999986
 30
0.0
 11
-144.2999999999999
 21
-5.199999999999988
 31
0.0
  0
LINE
  5
1DE
330
31F
100
AcDbEntity
  8
DATA
  6
Continuous
 62
     7
100
AcDbLine
 10
-144.2999999999999
 20
-5.199999999999988
 30
0.0
 11
-144.0499999999999
 21
-2.199999999999988
 31
0.0
  0
LINE
  5
1DF
330
31F
100
AcDbEntity
  8
DATA
  6
Continuous
 62
     7
100
AcDbLine
 10
-156.3500000000001
 20
3.0
 30
0.0
 11
-143.6499999999999
 21
3.0
 31
0.0
  0
ARC
  5
1E0
330
31F
100
AcDbEntity
  8
DATA
  6
Continuous
 62
     7
100
AcDbCircle
 10
-156.3500000000001
 20
0.4000000000000057
 30
0.0
 40
2.600000000000022
100
AcDbArc
 50
90.0
 51
270.0
  0
ARC
  5
1E1
330
31F
100
AcDbEntity
  8
DATA
  6
Continuous
 62
     7
100
AcDbCircle
 10
-143.6499999999999
 20
0.4000000000000057
 30
0.0
 40
2.600000000000022
100
AcDbArc
 50
270.0
 51
90.0
  0
LINE
  5
1E2
330
31F
100
AcDbEntity
  8
DATA
  6
Continuous
 62
     7
100
AcDbLine
 10
-156.6500000000001
 20
11.0
 30
0.0
 11
-143.35
 21
11.0
 31
0.0
  0
LINE
  5
1E3
330
31F
100
AcDbEntity
  8
DATA
  6
Continuous
 62
     7
100
AcDbLine
 10
-156.6500000000001
 20
11.0
 30
0.0
 11
-156.5
 21
2.995669470484045
 31
0.0
  0
LINE
  5
1E4
330
31F
100
AcDbEntity
  8
DATA
  6
Continuous
 62
     7
100
AcDbLine
 10
-143.35
 20
11.0
 30
0.0
 11
-143.5
 21
2.995669470484045
 31
0.0
  0
LINE
  5
1E5
330
31F
100
AcDbEntity
  8
DATA
  6
Continuous
 62
     7
100
AcDbLine
 10
-156.4000000000001
 20
18.5
 30
0.0
 11
-143.6
 21
18.5
 31
0.0
  0
LINE
  5
1E6
330
31F
100
AcDbEntity
  8
DATA
  6
Continuous
 62
     7
100
AcDbLine
 10
-155.5
 20
29.94999999999996
 30
0.0
 11
-144.5
 21
29.94999999999996
 31
0.0
  0
LINE
  5
1E7
330
31F
100
AcDbEntity
  8
DATA
  6
Continuous
 62
     7
100
AcDbLine
 10
-156.6500000000001
 20
11.0
 30
0.0
 11
-156.5656666666667
 21
13.53
 31
0.0
  0
LINE
  5
1E8
330
31F
100
AcDbEntity
  8
DATA
  6
Continuous
 62
     7
100
AcDbLine
 10
-156.4000000000001
 20
18.5
 30
0.0
 11
-155.5
 21
29.94999999999996
 31
0.0
  0
LINE
  5
1E9
330
31F
100
AcDbEntity
  8
DATA
  6
Continuous
 62
     7
100
AcDbLine
 10
-143.35
 20
11.0
 30
0.0
 11
-143.4343333333333
 21
13.53
 31
0.0
  0
LINE
  5
1EA
330
31F
100
AcDbEntity
  8
DATA
  6
Continuous
 62
     7
100
AcDbLine
 10
-143.6
 20
18.5
 30
0.0
 11
-144.5
 21
29.94999999999996
 31
0.0
  0
ARC
  5
1EB
330
31F
100
AcDbEntity
  8
DATA
  6
Continuous
 62
     7
100
AcDbCircle
 10
-150.0
 20
28.43958333333333
 30
0.0
 40
4.510416666666653
100
AcDbArc
 50
19.56481406361412
 51
160.4351859363828
  0
LINE
  5
1EC
330
31F
100
AcDbEntity
  8
DATA
  6
Continuous
 62
     7
100
AcDbLine
 10
-156.5656666666667
 20
13.53
 30
0.0
 11
-143.4343333333333
 21
13.53
 31
0.0
  0
LINE
  5
1ED
330
31F
100
AcDbEntity
  8
DATA
  6
Continuous
 62
     7
100
AcDbLine
 10
-149.5
 20
13.53
 30
0.0
 11
-149.5
 21
18.5
 31
0.0
  0
LINE
  5
1EE
330
31F
100
AcDbEntity
  8
DATA
  6
Continuous
 62
     7
100
AcDbLine
 10
-150.5
 20
13.53
 30
0.0
 11
-150.5
 21
18.5
 31
0.0
  0
LINE
  5
1EF
330
31F
100
AcDbEntity
  8
DATA
  6
Continuous
 62
     7
100
AcDbLine
 10
-151.4000000000001
 20
13.53
 30
0.0
 11
-151.4000000000001
 21
18.5
 31
0.0
  0
LINE
  5
1F0
330
31F
100
AcDbEntity
  8
DATA
  6
Continuous
 62
     7
100
AcDbLine
 10
-148.6
 20
13.53
 30
0.0
 11
-148.6
 21
18.5
 31
0.0
  0
LINE
  5
1F1
330
31F
100
AcDbEntity
  8
DATA
  6
Continuous
 62
     7
100
AcDbLine
 10
-145.6
 20
13.53
 30
0.0
 11
-145.6
 21
18.5
 31
0.0
  0
LINE
  5
1F2
330
31F
100
AcDbEntity
  8
DATA
  6
Continuous
 62
     7
100
AcDbLine
 10
-154.4000000000001
 20
13.53
 30
0.0
 11
-154.4000000000001
 21
18.5
 31
0.0
  0
LINE
  5
1F3
330
31F
100
AcDbEntity
  8
DATA
  6
Continuous
 62
     7
100
AcDbLine
 10
-156.4000000000001
 20
18.5
 30
0.0
 11
-156.4000000000001
 21
13.53
 31
0.0
  0
LINE
  5
1F4
330
31F
100
AcDbEntity
  8
DATA
  6
Continuous
 62
     7
100
AcDbLine
 10
-143.6
 20
18.5
 30
0.0
 11
-143.6
 21
13.53
 31
0.0
  0
ARC
  5
1F5
330
31F
100
AcDbEntity
  8
DATA
  6
Continuous
 62
     7
100
AcDbCircle
 10
-145.75
 20
29.94999999999996
 30
0.0
 40
0.9999999999999964
100
AcDbArc
 50
115.9293903448024
 51
180.0
  0
ARC
  5
1F6
330
31F
100
AcDbEntity
  8
DATA
  6
Continuous
 62
     7
100
AcDbCircle
 10
-145.75
 20
29.94999999999996
 30
0.0
 40
2.000000000000007
100
AcDbArc
 50
122.3742451091623
 51
180.0
  0
ARC
  5
1F7
330
31F
100
AcDbEntity
  8
DATA
  6
Continuous
 62
     7
100
AcDbCircle
 10
-145.75
 20
29.94999999999996
 30
0.0
 40
3.000000000000028
100
AcDbArc
 50
128.9892582633296
 51
180.0
  0
ARC
  5
1F8
330
31F
100
AcDbEntity
  8
DATA
  6
Continuous
 62
     7
100
AcDbCircle
 10
-145.75
 20
29.94999999999996
 30
0.0
 40
4.00000000000002
100
AcDbArc
 50
135.8869821588974
 51
180.0
  0
ARC
  5
1F9
330
31F
100
AcDbEntity
  8
DATA
  6
Continuous
 62
     7
100
AcDbCircle
 10
-145.75
 20
29.94999999999996
 30
0.0
 40
5.000000000000042
100
AcDbArc
 50
143.2254362538435
 51
180.0
  0
ARC
  5
1FA
330
31F
100
AcDbEntity
  8
DATA
  6
Continuous
 62
     7
100
AcDbCircle
 10
-145.75
 20
29.94999999999996
 30
0.0
 40
6.000000000000031
100
AcDbArc
 50
151.256884882177
 51
180.0
  0
ARC
  5
1FB
330
31F
100
AcDbEntity
  8
DATA
  6
Continuous
 62
     7
100
AcDbCircle
 10
-145.75
 20
29.94999999999996
 30
0.0
 40
7.000000000000047
100
AcDbArc
 50
160.4589199476933
 51
180.0
  0
ARC
  5
1FC
330
31F
100
AcDbEntity
  8
DATA
  6
Continuous
 62
     7
100
AcDbCircle
 10
-145.75
 20
29.94999999999996
 30
0.0
 40
8.000000000000056
100
AcDbArc
 50
172.0431313208422
 51
180.0
  0
ARC
  5
1FD
330
31F
100
AcDbEntity
  8
DATA
  6
Continuous
 62
     7
100
AcDbCircle
 10
-154.25
 20
29.95000000000022
 30
0.0
 40
0.5
100
AcDbArc
 50
359.9999999999707
 51
67.25781001181218
  0
ARC
  5
1FE
330
31F
100
AcDbEntity
  8
DATA
  6
Continuous
 62
     7
100
AcDbCircle
 10
-154.25
 20
29.95000000000022
 30
0.0
 40
1.5
100
AcDbArc
 50
359.9999999999902
 51
60.86348361046743
  0
ARC
  5
1FF
330
31F
100
AcDbEntity
  8
DATA
  6
Continuous
 62
     7
100
AcDbCircle
 10
-154.25
 20
29.95000000000022
 30
0.0
 40
2.5
100
AcDbArc
 50
359.9999999999941
 51
54.34582416287021
  0
ARC
  5
200
330
31F
100
AcDbEntity
  8
DATA
  6
Continuous
 62
     7
100
AcDbCircle
 10
-154.25
 20
29.95000000000022
 30
0.0
 40
3.5
100
AcDbArc
 50
359.999999999996
 51
47.60564954377724
  0
ARC
  5
201
330
31F
100
AcDbEntity
  8
DATA
  6
Continuous
 62
     7
100
AcDbCircle
 10
-154.25
 20
29.95000000000022
 30
0.0
 40
4.5
100
AcDbArc
 50
359.9999999999968
 51
40.51155318934763
  0
ARC
  5
202
330
31F
100
AcDbEntity
  8
DATA
  6
Continuous
 62
     7
100
AcDbCircle
 10
-154.25
 20
29.95000000000022
 30
0.0
 40
5.5
100
AcDbArc
 50
359.9999999999973
 51
32.86738845856894
  0
ARC
  5
203
330
31F
100
AcDbEntity
  8
DATA
  6
Continuous
 62
     7
100
AcDbCircle
 10
-154.25
 20
29.95000000000022
 30
0.0
 40
6.5
100
AcDbArc
 50
359.9999999999978
 51
24.33492475586559
  0
ARC
  5
204
330
31F
100
AcDbEntity
  8
DATA
  6
Continuous
 62
     7
100
AcDbCircle
 10
-154.25
 20
29.95000000000022
 30
0.0
 40
7.5
100
AcDbArc
 50
359.999999999998
 51
14.19145945260703
  0
ARC
  5
205
330
31F
100
AcDbEntity
  8
DATA
  6
STYLE_01
 62
     7
100
AcDbCircle
 10
-91.58220497268805
 20
23.0
 30
0.0
 40
71.91814472970321
100
AcDbArc
 50
172.6540227496132
 51
196.1464777900971
  0
ARC
  5
206
330
31F
100
AcDbEntity
  8
DATA
  6
STYLE_01
 62
     7
100
AcDbCircle
 10
-150.0
 20
43.0
 30
0.0
 40
9.0
100
AcDbArc
 50
90.0
 51
150.2551187030581
  0
ARC
  5
207
330
31F
100
AcDbEntity
  8
DATA
  6
STYLE_01
 62
     7
100
AcDbCircle
 10
-160.541323943346
 20
39.5536449972609
 30
0.0
 40
0.9999999999890388
100
AcDbArc
 50
152.4708477772573
 51
166.5015513173573
  0
ARC
  5
208
330
31F
100
AcDbEntity
  8
DATA
  6
STYLE_01
 62
     7
100
AcDbCircle
 10
-50.0
 20
3.0
 30
0.0
 40
116.6235726233807
100
AcDbArc
 50
157.5875322713045
 51
165.5023948401372
  0
ARC
  5
209
330
31F
100
AcDbEntity
  8
DATA
  6
STYLE_01
 62
     7
100
AcDbCircle
 10
-208.4177950273121
 20
23.0
 30
0.0
 40
71.91814472970325
100
AcDbArc
 50
343.8535222099029
 51
7.345977250386797
  0
ARC
  5
20A
330
31F
100
AcDbEntity
  8
DATA
  6
STYLE_01
 62
     7
100
AcDbCircle
 10
-150.0
 20
43.0
 30
0.0
 40
8.999999999999982
100
AcDbArc
 50
29.74488129694222
 51
89.99999999999998
  0
ARC
  5
20B
330
31F
100
AcDbEntity
  8
DATA
  6
STYLE_01
 62
     7
100
AcDbCircle
 10
-139.4586760566541
 20
39.5536449972609
 30
0.0
 40
0.9999999999889922
100
AcDbArc
 50
13.4984486826427
 51
27.52915222274269
  0
ARC
  5
20C
330
31F
100
AcDbEntity
  8
DATA
  6
STYLE_01
 62
     7
100
AcDbCircle
 10
-250.0
 20
3.0
 30
0.0
 40
116.6235726233806
100
AcDbArc
 50
14.49760515986277
 51
22.41246772869551
  0
LINE
  5
20D
330
31F
100
AcDbEntity
  8
DATA
  6
STYLE_01
 62
     7
100
AcDbLine
 10
-160.6634581558965
 20
3.0
 30
0.0
 11
-139.3365418441036
 21
3.0
 31
0.0
  0
LINE
  5
20E
330
31F
100
AcDbEntity
  8
DATA
  6
Continuous
 62
     7
100
AcDbLine
 10
-79.75
 20
-35.5
 30
0.0
 11
-70.25
 21
-35.5
 31
0.0
  0
LINE
  5
20F
330
31F
100
AcDbEntity
  8
DATA
  6
Continuous
 62
     7
100
AcDbLine
 10
-79.75
 20
-32.5
 30
0.0
 11
-70.25
 21
-32.5
 31
0.0
  0
LINE
  5
210
330
31F
100
AcDbEntity
  8
DATA
  6
Continuous
 62
     7
100
AcDbLine
 10
-79.75
 20
-31.0
 30
0.0
 11
-70.25
 21
-31.0
 31
0.0
  0
LINE
  5
211
330
31F
100
AcDbEntity
  8
DATA
  6
Continuous
 62
     7
100
AcDbLine
 10
-79.75
 20
-28.5
 30
0.0
 11
-70.25
 21
-28.5
 31
0.0
  0
LINE
  5
212
330
31F
100
AcDbEntity
  8
DATA
  6
Continuous
 62
     7
100
AcDbLine
 10
-79.75
 20
-27.0
 30
0.0
 11
-70.25
 21
-27.0
 31
0.0
  0
LINE
  5
213
330
31F
100
AcDbEntity
  8
DATA
  6
Continuous
 62
     7
100
AcDbLine
 10
-79.75
 20
-35.5
 30
0.0
 11
-79.75
 21
-32.5
 31
0.0
  0
LINE
  5
214
330
31F
100
AcDbEntity
  8
DATA
  6
Continuous
 62
     7
100
AcDbLine
 10
-79.75
 20
-31.0
 30
0.0
 11
-79.75
 21
-28.5
 31
0.0
  0
LINE
  5
215
330
31F
100
AcDbEntity
  8
DATA
  6
Continuous
 62
     7
100
AcDbLine
 10
-70.25
 20
-35.5
 30
0.0
 11
-70.25
 21
-32.5
 31
0.0
  0
LINE
  5
216
330
31F
100
AcDbEntity
  8
DATA
  6
Continuous
 62
     7
100
AcDbLine
 10
-70.25
 20
-31.0
 30
0.0
 11
-70.25
 21
-28.5
 31
0.0
  0
ARC
  5
217
330
31F
100
AcDbEntity
  8
DATA
  6
Continuous
 62
     7
100
AcDbCircle
 10
-70.10000000000002
 20
-31.75
 30
0.0
 40
0.7499999999999946
100
AcDbArc
 50
101.5369590328049
 51
258.463040967195
  0
ARC
  5
218
330
31F
100
AcDbEntity
  8
DATA
  6
Continuous
 62
     7
100
AcDbCircle
 10
-79.89999999999998
 20
-31.75
 30
0.0
 40
0.7499999999999946
100
AcDbArc
 50
281.536959032805
 51
78.46304096719508
  0
ARC
  5
219
330
31F
100
AcDbEntity
  8
DATA
  6
Continuous
 62
     7
100
AcDbCircle
 10
-79.89999999999998
 20
-27.75
 30
0.0
 40
0.7499999999999946
100
AcDbArc
 50
281.536959032805
 51
78.46304096719508
  0
ARC
  5
21A
330
31F
100
AcDbEntity
  8
DATA
  6
Continuous
 62
     7
100
AcDbCircle
 10
-70.10000000000002
 20
-27.75
 30
0.0
 40
0.7499999999999946
100
AcDbArc
 50
101.5369590328049
 51
258.463040967195
  0
LINE
  5
21B
330
31F
100
AcDbEntity
  8
DATA
  6
Continuous
 62
     7
100
AcDbLine
 10
-81.35000000000012
 20
-2.199999999999988
 30
0.0
 11
-68.64999999999998
 21
-2.199999999999988
 31
0.0
  0
LINE
  5
21C
330
31F
100
AcDbEntity
  8
DATA
  6
Continuous
 62
     7
100
AcDbLine
 10
-79.75
 20
-27.01515307716446
 30
0.0
 11
-79.75
 21
-23.19999999999999
 31
0.0
  0
LINE
  5
21D
330
31F
100
AcDbEntity
  8
DATA
  6
Continuous
 62
     7
100
AcDbLine
 10
-79.75
 20
-23.19999999999999
 30
0.0
 11
-79.79999999999995
 21
-18.69999999999999
 31
0.0
  0
LINE
  5
21E
330
31F
100
AcDbEntity
  8
DATA
  6
Continuous
 62
     7
100
AcDbLine
 10
-79.79999999999995
 20
-18.69999999999999
 30
0.0
 11
-79.95000000000003
 21
-14.19999999999999
 31
0.0
  0
LINE
  5
21F
330
31F
100
AcDbEntity
  8
DATA
  6
Continuous
 62
     7
100
AcDbLine
 10
-79.95000000000003
 20
-14.19999999999999
 30
0.0
 11
-80.20000000000003
 21
-9.699999999999986
 31
0.0
  0
LINE
  5
220
330
31F
100
AcDbEntity
  8
DATA
  6
Continuous
 62
     7
100
AcDbLine
 10
-80.20000000000003
 20
-9.699999999999986
 30
0.0
 11
-80.70000000000003
 21
-5.199999999999988
 31
0.0
  0
LINE
  5
221
330
31F
100
AcDbEntity
  8
DATA
  6
Continuous
 62
     7
100
AcDbLine
 10
-80.70000000000003
 20
-5.199999999999988
 30
0.0
 11
-80.95000000000004
 21
-2.199999999999988
 31
0.0
  0
LINE
  5
222
330
31F
100
AcDbEntity
  8
DATA
  6
Continuous
 62
     7
100
AcDbLine
 10
-70.25
 20
-27.01515307716446
 30
0.0
 11
-70.25
 21
-23.19999999999999
 31
0.0
  0
LINE
  5
223
330
31F
100
AcDbEntity
  8
DATA
  6
Continuous
 62
     7
100
AcDbLine
 10
-70.25
 20
-23.19999999999999
 30
0.0
 11
-70.20000000000004
 21
-18.69999999999999
 31
0.0
  0
LINE
  5
224
330
31F
100
AcDbEntity
  8
DATA
  6
Continuous
 62
     7
100
AcDbLine
 10
-70.20000000000004
 20
-18.69999999999999
 30
0.0
 11
-70.04999999999997
 21
-14.19999999999999
 31
0.0
  0
LINE
  5
225
330
31F
100
AcDbEntity
  8
DATA
  6
Continuous
 62
     7
100
AcDbLine
 10
-70.04999999999997
 20
-14.19999999999999
 30
0.0
 11
-69.79999999999996
 21
-9.699999999999986
 31
0.0
  0
LINE
  5
226
330
31F
100
AcDbEntity
  8
DATA
  6
Continuous
 62
     7
100
AcDbLine
 10
-69.79999999999996
 20
-9.699999999999986
 30
0.0
 11
-69.29999999999997
 21
-5.199999999999988
 31
0.0
  0
LINE
  5
227
330
31F
100
AcDbEntity
  8
DATA
  6
Continuous
 62
     7
100
AcDbLine
 10
-69.29999999999997
 20
-5.199999999999988
 30
0.0
 11
-69.04999999999997
 21
-2.199999999999988
 31
0.0
  0
LINE
  5
228
330
31F
100
AcDbEntity
  8
DATA
  6
Continuous
 62
     7
100
AcDbLine
 10
-81.35000000000012
 20
3.0
 30
0.0
 11
-68.64999999999998
 21
3.0
 31
0.0
  0
ARC
  5
229
330
31F
100
AcDbEntity
  8
DATA
  6
Continuous
 62
     7
100
AcDbCircle
 10
-81.35000000000012
 20
0.4000000000000057
 30
0.0
 40
2.600000000000022
100
AcDbArc
 50
90.0
 51
270.0
  0
ARC
  5
22A
330
31F
100
AcDbEntity
  8
DATA
  6
Continuous
 62
     7
100
AcDbCircle
 10
-68.64999999999998
 20
0.4000000000000057
 30
0.0
 40
2.600000000000022
100
AcDbArc
 50
270.0
 51
90.0
  0
LINE
  5
22B
330
31F
100
AcDbEntity
  8
DATA
  6
Continuous
 62
     7
100
AcDbLine
 10
-81.65000000000009
 20
11.0
 30
0.0
 11
-68.35000000000002
 21
11.0
 31
0.0
  0
LINE
  5
22C
330
31F
100
AcDbEntity
  8
DATA
  6
Continuous
 62
     7
100
AcDbLine
 10
-81.65000000000009
 20
11.0
 30
0.0
 11
-81.5
 21
2.995669470484045
 31
0.0
  0
LINE
  5
22D
330
31F
100
AcDbEntity
  8
DATA
  6
Continuous
 62
     7
100
AcDbLine
 10
-68.35000000000002
 20
11.0
 30
0.0
 11
-68.5
 21
2.995669470484045
 31
0.0
  0
LINE
  5
22E
330
31F
100
AcDbEntity
  8
DATA
  6
Continuous
 62
     7
100
AcDbLine
 10
-81.40000000000009
 20
18.5
 30
0.0
 11
-68.60000000000002
 21
18.5
 31
0.0
  0
LINE
  5
22F
330
31F
100
AcDbEntity
  8
DATA
  6
Continuous
 62
     7
100
AcDbLine
 10
-80.5
 20
29.94999999999996
 30
0.0
 11
-69.5
 21
29.94999999999996
 31
0.0
  0
LINE
  5
230
330
31F
100
AcDbEntity
  8
DATA
  6
Continuous
 62
     7
100
AcDbLine
 10
-81.65000000000009
 20
11.0
 30
0.0
 11
-81.56566666666675
 21
13.53
 31
0.0
  0
LINE
  5
231
330
31F
100
AcDbEntity
  8
DATA
  6
Continuous
 62
     7
100
AcDbLine
 10
-81.40000000000009
 20
18.5
 30
0.0
 11
-80.5
 21
29.94999999999996
 31
0.0
  0
LINE
  5
232
330
31F
100
AcDbEntity
  8
DATA
  6
Continuous
 62
     7
100
AcDbLine
 10
-68.35000000000002
 20
11.0
 30
0.0
 11
-68.43433333333337
 21
13.53
 31
0.0
  0
LINE
  5
233
330
31F
100
AcDbEntity
  8
DATA
  6
Continuous
 62
     7
100
AcDbLine
 10
-68.60000000000002
 20
18.5
 30
0.0
 11
-69.5
 21
29.94999999999996
 31
0.0
  0
ARC
  5
234
330
31F
100
AcDbEntity
  8
DATA
  6
Continuous
 62
     7
100
AcDbCircle
 10
-75.0
 20
28.43958333333333
 30
0.0
 40
4.510416666666653
100
AcDbArc
 50
19.56481406361412
 51
160.4351859363828
  0
LINE
  5
235
330
31F
100
AcDbEntity
  8
DATA
  6
Continuous
 62
     7
100
AcDbLine
 10
-81.56566666666675
 20
13.53
 30
0.0
 11
-68.43433333333337
 21
13.53
 31
0.0
  0
LINE
  5
236
330
31F
100
AcDbEntity
  8
DATA
  6
Continuous
 62
     7
100
AcDbLine
 10
-74.5
 20
13.53
 30
0.0
 11
-74.5
 21
18.5
 31
0.0
  0
LINE
  5
237
330
31F
100
AcDbEntity
  8
DATA
  6
Continuous
 62
     7
100
AcDbLine
 10
-75.5
 20
13.53
 30
0.0
 11
-75.5
 21
18.5
 31
0.0
  0
LINE
  5
238
330
31F
100
AcDbEntity
  8
DATA
  6
Continuous
 62
     7
100
AcDbLine
 10
-76.40000000000009
 20
13.53
 30
0.0
 11
-76.40000000000009
 21
18.5
 31
0.0
  0
LINE
  5
239
330
31F
100
AcDbEntity
  8
DATA
  6
Continuous
 62
     7
100
AcDbLine
 10
-73.60000000000002
 20
13.53
 30
0.0
 11
-73.60000000000002
 21
18.5
 31
0.0
  0
LINE
  5
23A
330
31F
100
AcDbEntity
  8
DATA
  6
Continuous
 62
     7
100
AcDbLine
 10
-70.60000000000002
 20
13.53
 30
0.0
 11
-70.60000000000002
 21
18.5
 31
0.0
  0
LINE
  5
23B
330
31F
100
AcDbEntity
  8
DATA
  6
Continuous
 62
     7
100
AcDbLine
 10
-79.40000000000009
 20
13.53
 30
0.0
 11
-79.40000000000009
 21
18.5
 31
0.0
  0
LINE
  5
23C
330
31F
100
AcDbEntity
  8
DATA
  6
Continuous
 62
     7
100
AcDbLine
 10
-81.40000000000009
 20
18.5
 30
0.0
 11
-81.40000000000009
 21
13.53
 31
0.0
  0
LINE
  5
23D
330
31F
100
AcDbEntity
  8
DATA
  6
Continuous
 62
     7
100
AcDbLine
 10
-68.60000000000002
 20
18.5
 30
0.0
 11
-68.60000000000002
 21
13.53
 31
0.0
  0
ARC
  5
23E
330
31F
100
AcDbEntity
  8
DATA
  6
Continuous
 62
     7
100
AcDbCircle
 10
-70.75
 20
29.94999999999996
 30
0.0
 40
0.9999999999999964
100
AcDbArc
 50
115.9293903448024
 51
180.0
  0
ARC
  5
23F
330
31F
100
AcDbEntity
  8
DATA
  6
Continuous
 62
     7
100
AcDbCircle
 10
-70.75
 20
29.94999999999996
 30
0.0
 40
2.000000000000007
100
AcDbArc
 50
122.3742451091623
 51
180.0
  0
ARC
  5
240
330
31F
100
AcDbEntity
  8
DATA
  6
Continuous
 62
     7
100
AcDbCircle
 10
-70.75
 20
29.94999999999996
 30
0.0
 40
3.000000000000028
100
AcDbArc
 50
128.9892582633296
 51
180.0
  0
ARC
  5
241
330
31F
100
AcDbEntity
  8
DATA
  6
Continuous
 62
     7
100
AcDbCircle
 10
-70.75
 20
29.94999999999996
 30
0.0
 40
4.00000000000002
100
AcDbArc
 50
135.8869821588974
 51
180.0
  0
ARC
  5
242
330
31F
100
AcDbEntity
  8
DATA
  6
Continuous
 62
     7
100
AcDbCircle
 10
-70.75
 20
29.94999999999996
 30
0.0
 40
5.000000000000042
100
AcDbArc
 50
143.2254362538435
 51
180.0
  0
ARC
  5
243
330
31F
100
AcDbEntity
  8
DATA
  6
Continuous
 62
     7
100
AcDbCircle
 10
-70.75
 20
29.94999999999996
 30
0.0
 40
6.000000000000031
100
AcDbArc
 50
151.256884882177
 51
180.0
  0
ARC
  5
244
330
31F
100
AcDbEntity
  8
DATA
  6
Continuous
 62
     7
100
AcDbCircle
 10
-70.75
 20
29.94999999999996
 30
0.0
 40
7.000000000000047
100
AcDbArc
 50
160.4589199476933
 51
180.0
  0
ARC
  5
245
330
31F
100
AcDbEntity
  8
DATA
  6
Continuous
 62
     7
100
AcDbCircle
 10
-70.75
 20
29.94999999999996
 30
0.0
 40
8.000000000000056
100
AcDbArc
 50
172.0431313208422
 51
180.0
  0
ARC
  5
246
330
31F
100
AcDbEntity
  8
DATA
  6
Continuous
 62
     7
100
AcDbCircle
 10
-79.25
 20
29.95000000000022
 30
0.0
 40
0.5
100
AcDbArc
 50
359.9999999999707
 51
67.25781001181218
  0
ARC
  5
247
330
31F
100
AcDbEntity
  8
DATA
  6
Continuous
 62
     7
100
AcDbCircle
 10
-79.25
 20
29.95000000000022
 30
0.0
 40
1.5
100
AcDbArc
 50
359.9999999999902
 51
60.86348361046743
  0
ARC
  5
248
330
31F
100
AcDbEntity
  8
DATA
  6
Continuous
 62
     7
100
AcDbCircle
 10
-79.25
 20
29.95000000000022
 30
0.0
 40
2.5
100
AcDbArc
 50
359.9999999999941
 51
54.34582416287021
  0
ARC
  5
249
330
31F
100
AcDbEntity
  8
DATA
  6
Continuous
 62
     7
100
AcDbCircle
 10
-79.25
 20
29.95000000000022
 30
0.0
 40
3.5
100
AcDbArc
 50
359.999999999996
 51
47.60564954377724
  0
ARC
  5
24A
330
31F
100
AcDbEntity
  8
DATA
  6
Continuous
 62
     7
100
AcDbCircle
 10
-79.25
 20
29.95000000000022
 30
0.0
 40
4.5
100
AcDbArc
 50
359.9999999999968
 51
40.51155318934763
  0
ARC
  5
24B
330
31F
100
AcDbEntity
  8
DATA
  6
Continuous
 62
     7
100
AcDbCircle
 10
-79.25
 20
29.95000000000022
 30
0.0
 40
5.5
100
AcDbArc
 50
359.9999999999973
 51
32.86738845856894
  0
ARC
  5
24C
330
31F
100
AcDbEntity
  8
DATA
  6
Continuous
 62
     7
100
AcDbCircle
 10
-79.25
 20
29.95000000000022
 30
0.0
 40
6.5
100
AcDbArc
 50
359.9999999999978
 51
24.33492475586559
  0
ARC
  5
24D
330
31F
100
AcDbEntity
  8
DATA
  6
Continuous
 62
     7
100
AcDbCircle
 10
-79.25
 20
29.95000000000022
 30
0.0
 40
7.5
100
AcDbArc
 50
359.999999999998
 51
14.19145945260703
  0
ARC
  5
24E
330
31F
100
AcDbEntity
  8
DATA
  6
STYLE_01
 62
     7
100
AcDbCircle
 10
-16.58220497268803
 20
23.0
 30
0.0
 40
71.91814472970321
100
AcDbArc
 50
172.6540227496132
 51
196.1464777900971
  0
ARC
  5
24F
330
31F
100
AcDbEntity
  8
DATA
  6
STYLE_01
 62
     7
100
AcDbCircle
 10
-85.54132394334601
 20
39.5536449972609
 30
0.0
 40
0.9999999999890388
100
AcDbArc
 50
152.4708477772573
 51
166.5015513173573
  0
ARC
  5
250
330
31F
100
AcDbEntity
  8
DATA
  6
STYLE_01
 62
     7
100
AcDbCircle
 10
25.0
 20
3.0
 30
0.0
 40
116.6235726233807
100
AcDbArc
 50
157.5875322713045
 51
165.5023948401372
  0
ARC
  5
251
330
31F
100
AcDbEntity
  8
DATA
  6
STYLE_01
 62
     7
100
AcDbCircle
 10
-133.4177950273121
 20
23.0
 30
0.0
 40
71.91814472970325
100
AcDbArc
 50
343.8535222099029
 51
7.345977250386797
  0
ARC
  5
252
330
31F
100
AcDbEntity
  8
DATA
  6
STYLE_01
 62
     7
100
AcDbCircle
 10
-64.4586760566541
 20
39.5536449972609
 30
0.0
 40
0.9999999999889922
100
AcDbArc
 50
13.4984486826427
 51
27.52915222274269
  0
ARC
  5
253
330
31F
100
AcDbEntity
  8
DATA
  6
STYLE_01
 62
     7
100
AcDbCircle
 10
-175.0
 20
3.0
 30
0.0
 40
116.6235726233806
100
AcDbArc
 50
14.49760515986277
 51
22.41246772869551
  0
LINE
  5
254
330
31F
100
AcDbEntity
  8
DATA
  6
STYLE_01
 62
     7
100
AcDbLine
 10
-85.66345815589647
 20
3.0
 30
0.0
 11
-64.33654184410364
 21
3.0
 31
0.0
  0
LINE
  5
255
330
31F
100
AcDbEntity
  8
DATA
  6
Continuous
 62
     7
100
AcDbLine
 10
97.99999552567726
 20
-200.5850044743227
 30
0.0
 11
-9.000004474322736
 21
-200.5850044743227
 31
0.0
  0
LINE
  5
256
330
31F
100
AcDbEntity
  8
DATA
  6
Continuous
 62
     7
100
AcDbLine
 10
97.99999552567726
 20
-207.5150044743227
 30
0.0
 11
-9.000004474322736
 21
-207.5150044743227
 31
0.0
  0
LINE
  5
257
330
31F
100
AcDbEntity
  8
DATA
  6
Continuous
 62
     7
100
AcDbLine
 10
-39.00000447432274
 20
-199.8000044743227
 30
0.0
 11
-39.00000447432274
 21
-208.3000044743227
 31
0.0
  0
LINE
  5
258
330
31F
100
AcDbEntity
  8
DATA
  6
Continuous
 62
     7
100
AcDbLine
 10
-39.00000447432274
 20
-208.3000044743227
 30
0.0
 11
-13.50000447432262
 21
-208.3000044743227
 31
0.0
  0
LINE
  5
259
330
31F
100
AcDbEntity
  8
DATA
  6
Continuous
 62
     7
100
AcDbLine
 10
-39.00000447432274
 20
-199.8000044743227
 30
0.0
 11
-13.50000447432262
 21
-199.8000044743227
 31
0.0
  0
LINE
  5
25A
330
31F
100
AcDbEntity
  8
DATA
  6
Continuous
 62
     7
100
AcDbLine
 10
-9.000004474322622
 20
-207.8000044743227
 30
0.0
 11
-13.50000447432262
 21
-208.3000044743227
 31
0.0
  0
LINE
  5
25B
330
31F
100
AcDbEntity
  8
DATA
  6
Continuous
 62
     7
100
AcDbLine
 10
-13.50000447432262
 20
-199.8000044743227
 30
0.0
 11
-9.000004474322622
 21
-200.3000044743227
 31
0.0
  0
LINE
  5
25C
330
31F
100
AcDbEntity
  8
DATA
  6
Continuous
 62
     7
100
AcDbLine
 10
-9.000004474322622
 20
-200.3000044743227
 30
0.0
 11
-9.000004474322622
 21
-207.8000044743227
 31
0.0
  0
LINE
  5
25D
330
31F
100
AcDbEntity
  8
DATA
  6
Continuous
 62
     7
100
AcDbLine
 10
97.99999552567726
 20
-199.3000044743227
 30
0.0
 11
97.99999552567726
 21
-208.8000044743227
 31
0.0
  0
LINE
  5
25E
330
31F
100
AcDbEntity
  8
DATA
  6
Continuous
 62
     7
100
AcDbLine
 10
100.9999955256772
 20
-199.3000044743227
 30
0.0
 11
100.9999955256772
 21
-208.8000044743227
 31
0.0
  0
LINE
  5
25F
330
31F
100
AcDbEntity
  8
DATA
  6
Continuous
 62
     7
100
AcDbLine
 10
102.4999955256772
 20
-199.3000044743227
 30
0.0
 11
102.4999955256772
 21
-208.8000044743227
 31
0.0
  0
LINE
  5
260
330
31F
100
AcDbEntity
  8
DATA
  6
Continuous
 62
     7
100
AcDbLine
 10
104.9999955256772
 20
-199.3000044743227
 30
0.0
 11
104.9999955256772
 21
-208.8000044743227
 31
0.0
  0
LINE
  5
261
330
31F
100
AcDbEntity
  8
DATA
  6
Continuous
 62
     7
100
AcDbLine
 10
106.4999955256772
 20
-199.3000044743227
 30
0.0
 11
106.4999955256772
 21
-208.8000044743227
 31
0.0
  0
LINE
  5
262
330
31F
100
AcDbEntity
  8
DATA
  6
Continuous
 62
     7
100
AcDbLine
 10
97.99999552567726
 20
-199.3000044743227
 30
0.0
 11
100.9999955256772
 21
-199.3000044743227
 31
0.0
  0
LINE
  5
263
330
31F
100
AcDbEntity
  8
DATA
  6
Continuous
 62
     7
100
AcDbLine
 10
102.4999955256772
 20
-199.3000044743227
 30
0.0
 11
104.9999955256772
 21
-199.3000044743227
 31
0.0
  0
LINE
  5
264
330
31F
100
AcDbEntity
  8
DATA
  6
Continuous
 62
     7
100
AcDbLine
 10
97.99999552567726
 20
-208.8000044743227
 30
0.0
 11
100.9999955256772
 21
-208.8000044743227
 31
0.0
  0
LINE
  5
265
330
31F
100
AcDbEntity
  8
DATA
  6
Continuous
 62
     7
100
AcDbLine
 10
102.4999955256772
 20
-208.8000044743227
 30
0.0
 11
104.9999955256772
 21
-208.8000044743227
 31
0.0
  0
ARC
  5
266
330
31F
100
AcDbEntity
  8
DATA
  6
Continuous
 62
     7
100
AcDbCircle
 10
101.7499955256772
 20
-208.9500044743227
 30
0.0
 40
0.750000000000028
100
AcDbArc
 50
11.53695903280663
 51
168.4630409671916
  0
ARC
  5
267
330
31F
100
AcDbEntity
  8
DATA
  6
Continuous
 62
     7
100
AcDbCircle
 10
101.7499955256772
 20
-199.1500044743227
 30
0.0
 40
0.7499999999999166
100
AcDbArc
 50
191.5369590328084
 51
348.4630409671934
  0
ARC
  5
268
330
31F
100
AcDbEntity
  8
DATA
  6
Continuous
 62
     7
100
AcDbCircle
 10
105.7499955256772
 20
-199.1500044743227
 30
0.0
 40
0.7499999999999166
100
AcDbArc
 50
191.5369590328084
 51
348.4630409671934
  0
ARC
  5
269
330
31F
100
AcDbEntity
  8
DATA
  6
Continuous
 62
     7
100
AcDbCircle
 10
105.7499955256772
 20
-208.9500044743227
 30
0.0
 40
0.750000000000028
100
AcDbArc
 50
11.53695903280663
 51
168.4630409671916
  0
LINE
  5
26A
330
31F
100
AcDbEntity
  8
DATA
  6
Continuous
 62
     7
100
AcDbLine
 10
131.2999955256773
 20
-197.7000044743226
 30
0.0
 11
131.2999955256773
 21
-210.4000044743227
 31
0.0
  0
LINE
  5
26B
330
31F
100
AcDbEntity
  8
DATA
  6
Continuous
 62
     7
100
AcDbLine
 10
106.4848424485128
 20
-199.3000044743227
 30
0.0
 11
110.2999955256773
 21
-199.3000044743227
 31
0.0
  0
LINE
  5
26C
330
31F
100
AcDbEntity
  8
DATA
  6
Continuous
 62
     7
100
AcDbLine
 10
110.2999955256773
 20
-199.3000044743227
 30
0.0
 11
114.7999955256773
 21
-199.2500044743227
 31
0.0
  0
LINE
  5
26D
330
31F
100
AcDbEntity
  8
DATA
  6
Continuous
 62
     7
100
AcDbLine
 10
114.7999955256773
 20
-199.2500044743227
 30
0.0
 11
119.2999955256773
 21
-199.1000044743227
 31
0.0
  0
LINE
  5
26E
330
31F
100
AcDbEntity
  8
DATA
  6
Continuous
 62
     7
100
AcDbLine
 10
119.2999955256773
 20
-199.1000044743227
 30
0.0
 11
123.7999955256773
 21
-198.8500044743227
 31
0.0
  0
LINE
  5
26F
330
31F
100
AcDbEntity
  8
DATA
  6
Continuous
 62
     7
100
AcDbLine
 10
123.7999955256773
 20
-198.8500044743227
 30
0.0
 11
128.2999955256773
 21
-198.3500044743227
 31
0.0
  0
LINE
  5
270
330
31F
100
AcDbEntity
  8
DATA
  6
Continuous
 62
     7
100
AcDbLine
 10
128.2999955256773
 20
-198.3500044743227
 30
0.0
 11
131.2999955256773
 21
-198.1000044743227
 31
0.0
  0
LINE
  5
271
330
31F
100
AcDbEntity
  8
DATA
  6
Continuous
 62
     7
100
AcDbLine
 10
106.4848424485128
 20
-208.8000044743227
 30
0.0
 11
110.2999955256773
 21
-208.8000044743226
 31
0.0
  0
LINE
  5
272
330
31F
100
AcDbEntity
  8
DATA
  6
Continuous
 62
     7
100
AcDbLine
 10
110.2999955256773
 20
-208.8000044743226
 30
0.0
 11
114.7999955256773
 21
-208.8500044743227
 31
0.0
  0
LINE
  5
273
330
31F
100
AcDbEntity
  8
DATA
  6
Continuous
 62
     7
100
AcDbLine
 10
114.7999955256773
 20
-208.8500044743227
 30
0.0
 11
119.2999955256773
 21
-209.0000044743227
 31
0.0
  0
LINE
  5
274
330
31F
100
AcDbEntity
  8
DATA
  6
Continuous
 62
     7
100
AcDbLine
 10
119.2999955256773
 20
-209.0000044743227
 30
0.0
 11
123.7999955256773
 21
-209.2500044743227
 31
0.0
  0
LINE
  5
275
330
31F
100
AcDbEntity
  8
DATA
  6
Continuous
 62
     7
100
AcDbLine
 10
123.7999955256773
 20
-209.2500044743227
 30
0.0
 11
128.2999955256773
 21
-209.7500044743227
 31
0.0
  0
LINE
  5
276
330
31F
100
AcDbEntity
  8
DATA
  6
Continuous
 62
     7
100
AcDbLine
 10
128.2999955256773
 20
-209.7500044743227
 30
0.0
 11
131.2999955256773
 21
-210.0000044743227
 31
0.0
  0
LINE
  5
277
330
31F
100
AcDbEntity
  8
DATA
  6
Continuous
 62
     7
100
AcDbLine
 10
136.4999955256772
 20
-197.7000044743226
 30
0.0
 11
136.4999955256772
 21
-210.4000044743227
 31
0.0
  0
ARC
  5
278
330
31F
100
AcDbEntity
  8
DATA
  6
Continuous
 62
     7
100
AcDbCircle
 10
133.8999955256772
 20
-197.7000044743226
 30
0.0
 40
2.600000000000136
100
AcDbArc
 50
0.0
 51
180.0
  0
ARC
  5
279
330
31F
100
AcDbEntity
  8
DATA
  6
Continuous
 62
     7
100
AcDbCircle
 10
133.8999955256772
 20
-210.4000044743227
 30
0.0
 40
2.599999999999908
100
AcDbArc
 50
180.0
 51
0.0
  0
LINE
  5
27A
330
31F
100
AcDbEntity
  8
DATA
  6
Continuous
 62
     7
100
AcDbLine
 10
144.4999955256772
 20
-197.4000044743227
 30
0.0
 11
144.4999955256772
 21
-210.7000044743227
 31
0.0
  0
LINE
  5
27B
330
31F
100
AcDbEntity
  8
DATA
  6
Continuous
 62
     7
100
AcDbLine
 10
144.4999955256772
 20
-197.4000044743227
 30
0.0
 11
136.4956649961614
 21
-197.5500044743227
 31
0.0
  0
LINE
  5
27C
330
31F
100
AcDbEntity
  8
DATA
  6
Continuous
 62
     7
100
AcDbLine
 10
144.4999955256772
 20
-210.7000044743227
 30
0.0
 11
136.4956649961614
 21
-210.5500044743227
 31
0.0
  0
LINE
  5
27D
330
31F
100
AcDbEntity
  8
DATA
  6
Continuous
 62
     7
100
AcDbLine
 10
151.9999955256772
 20
-197.6500044743227
 30
0.0
 11
151.9999955256772
 21
-210.4500044743227
 31
0.0
  0
LINE
  5
27E
330
31F
100
AcDbEntity
  8
DATA
  6
Continuous
 62
     7
100
AcDbLine
 10
163.4999955256773
 20
-198.5500044743227
 30
0.0
 11
163.4999955256773
 21
-209.5500044743227
 31
0.0
  0
LINE
  5
27F
330
31F
100
AcDbEntity
  8
DATA
  6
Continuous
 62
     7
100
AcDbLine
 10
144.4999955256772
 20
-197.4000044743227
 30
0.0
 11
147.0299955256773
 21
-197.484337807656
 31
0.0
  0
LINE
  5
280
330
31F
100
AcDbEntity
  8
DATA
  6
Continuous
 62
     7
100
AcDbLine
 10
151.9999955256772
 20
-197.6500044743227
 30
0.0
 11
163.4999955256773
 21
-198.5500044743227
 31
0.0
  0
LINE
  5
281
330
31F
100
AcDbEntity
  8
DATA
  6
Continuous
 62
     7
100
AcDbLine
 10
144.4999955256772
 20
-210.7000044743227
 30
0.0
 11
147.0299955256773
 21
-210.6156711409894
 31
0.0
  0
LINE
  5
282
330
31F
100
AcDbEntity
  8
DATA
  6
Continuous
 62
     7
100
AcDbLine
 10
151.9999955256772
 20
-210.4500044743227
 30
0.0
 11
163.4999955256773
 21
-209.5500044743227
 31
0.0
  0
ARC
  5
283
330
31F
100
AcDbEntity
  8
DATA
  6
Continuous
 62
     7
100
AcDbCircle
 10
161.9895788590106
 20
-204.0500044743227
 30
0.0
 40
4.510416666666691
100
AcDbArc
 50
289.5648140636155
 51
70.43518593638143
  0
LINE
  5
284
330
31F
100
AcDbEntity
  8
DATA
  6
Continuous
 62
     7
100
AcDbLine
 10
147.0299955256773
 20
-197.484337807656
 30
0.0
 11
147.0299955256773
 21
-210.6156711409894
 31
0.0
  0
LINE
  5
285
330
31F
100
AcDbEntity
  8
DATA
  6
Continuous
 62
     7
100
AcDbLine
 10
147.0299955256773
 20
-204.5500044743227
 30
0.0
 11
151.9999955256772
 21
-204.5500044743227
 31
0.0
  0
LINE
  5
286
330
31F
100
AcDbEntity
  8
DATA
  6
Continuous
 62
     7
100
AcDbLine
 10
147.0299955256773
 20
-203.5500044743227
 30
0.0
 11
151.9999955256772
 21
-203.5500044743227
 31
0.0
  0
LINE
  5
287
330
31F
100
AcDbEntity
  8
DATA
  6
Continuous
 62
     7
100
AcDbLine
 10
147.0299955256773
 20
-202.6500044743227
 30
0.0
 11
151.9999955256772
 21
-202.6500044743227
 31
0.0
  0
LINE
  5
288
330
31F
100
AcDbEntity
  8
DATA
  6
Continuous
 62
     7
100
AcDbLine
 10
147.0299955256773
 20
-205.4500044743227
 30
0.0
 11
151.9999955256772
 21
-205.4500044743227
 31
0.0
  0
LINE
  5
289
330
31F
100
AcDbEntity
  8
DATA
  6
Continuous
 62
     7
100
AcDbLine
 10
147.0299955256773
 20
-208.4500044743227
 30
0.0
 11
151.9999955256772
 21
-208.4500044743227
 31
0.0
  0
LINE
  5
28A
330
31F
100
AcDbEntity
  8
DATA
  6
Continuous
 62
     7
100
AcDbLine
 10
147.0299955256773
 20
-199.6500044743227
 30
0.0
 11
151.9999955256772
 21
-199.6500044743227
 31
0.0
  0
LINE
  5
28B
330
31F
100
AcDbEntity
  8
DATA
  6
Continuous
 62
     7
100
AcDbLine
 10
151.9999955256772
 20
-197.6500044743227
 30
0.0
 11
147.0299955256773
 21
-197.6500044743227
 31
0.0
  0
LINE
  5
28C
330
31F
100
AcDbEntity
  8
DATA
  6
Continuous
 62
     7
100
AcDbLine
 10
151.9999955256772
 20
-210.4500044743227
 30
0.0
 11
147.0299955256773
 21
-210.4500044743227
 31
0.0
  0
ARC
  5
28D
330
31F
100
AcDbEntity
  8
DATA
  6
Continuous
 62
     7
100
AcDbCircle
 10
163.4999955256773
 20
-208.3000044743227
 30
0.0
 40
0.9999999999999964
100
AcDbArc
 50
25.92939034480249
 51
90.0
  0
ARC
  5
28E
330
31F
100
AcDbEntity
  8
DATA
  6
Continuous
 62
     7
100
AcDbCircle
 10
163.4999955256773
 20
-208.3000044743227
 30
0.0
 40
2.000000000000031
100
AcDbArc
 50
32.3742451091619
 51
90.0
  0
ARC
  5
28F
330
31F
100
AcDbEntity
  8
DATA
  6
Continuous
 62
     7
100
AcDbCircle
 10
163.4999955256773
 20
-208.3000044743227
 30
0.0
 40
2.999999999999877
100
AcDbArc
 50
38.98925826333122
 51
90.0
  0
ARC
  5
290
330
31F
100
AcDbEntity
  8
DATA
  6
Continuous
 62
     7
100
AcDbCircle
 10
163.4999955256773
 20
-208.3000044743227
 30
0.0
 40
4.0
100
AcDbArc
 50
45.8869821588977
 51
90.0
  0
ARC
  5
291
330
31F
100
AcDbEntity
  8
DATA
  6
Continuous
 62
     7
100
AcDbCircle
 10
163.4999955256773
 20
-208.3000044743227
 30
0.0
 40
4.999999999999895
100
AcDbArc
 50
53.2254362538447
 51
90.0
  0
ARC
  5
292
330
31F
100
AcDbEntity
  8
DATA
  6
Continuous
 62
     7
100
AcDbCircle
 10
163.4999955256773
 20
-208.3000044743227
 30
0.0
 40
5.999999999999951
100
AcDbArc
 50
61.25688488217781
 51
90.0
  0
ARC
  5
293
330
31F
100
AcDbEntity
  8
DATA
  6
Continuous
 62
     7
100
AcDbCircle
 10
163.4999955256773
 20
-208.3000044743227
 30
0.0
 40
6.999999999999964
100
AcDbArc
 50
70.45891994769381
 51
90.0
  0
ARC
  5
294
330
31F
100
AcDbEntity
  8
DATA
  6
Continuous
 62
     7
100
AcDbCircle
 10
163.4999955256773
 20
-208.3000044743227
 30
0.0
 40
7.999999999999985
100
AcDbArc
 50
82.04313132084301
 51
90.0
  0
ARC
  5
295
330
31F
100
AcDbEntity
  8
DATA
  6
Continuous
 62
     7
100
AcDbCircle
 10
163.4999955256775
 20
-199.8000044743228
 30
0.0
 40
0.4999999999999147
100
AcDbArc
 50
269.9999999999739
 51
337.2578100118196
  0
ARC
  5
296
330
31F
100
AcDbEntity
  8
DATA
  6
Continuous
 62
     7
100
AcDbCircle
 10
163.4999955256775
 20
-199.8000044743228
 30
0.0
 40
1.499999999999914
100
AcDbArc
 50
269.9999999999913
 51
330.8634836104682
  0
ARC
  5
297
330
31F
100
AcDbEntity
  8
DATA
  6
Continuous
 62
     7
100
AcDbCircle
 10
163.4999955256775
 20
-199.8000044743228
 30
0.0
 40
2.499999999999914
100
AcDbArc
 50
269.9999999999948
 51
324.34582416287
  0
ARC
  5
298
330
31F
100
AcDbEntity
  8
DATA
  6
Continuous
 62
     7
100
AcDbCircle
 10
163.4999955256775
 20
-199.8000044743228
 30
0.0
 40
3.499999999999914
100
AcDbArc
 50
269.9999999999964
 51
317.6056495437776
  0
ARC
  5
299
330
31F
100
AcDbEntity
  8
DATA
  6
Continuous
 62
     7
100
AcDbCircle
 10
163.4999955256775
 20
-199.8000044743228
 30
0.0
 40
4.499999999999914
100
AcDbArc
 50
269.9999999999971
 51
310.5115531893481
  0
ARC
  5
29A
330
31F
100
AcDbEntity
  8
DATA
  6
Continuous
 62
     7
100
AcDbCircle
 10
163.4999955256775
 20
-199.8000044743228
 30
0.0
 40
5.499999999999914
100
AcDbArc
 50
269.9999999999977
 51
302.8673884585685
  0
ARC
  5
29B
330
31F
100
AcDbEntity
  8
DATA
  6
Continuous
 62
     7
100
AcDbCircle
 10
163.4999955256775
 20
-199.8000044743228
 30
0.0
 40
6.499999999999914
100
AcDbArc
 50
269.999999999998
 51
294.3349247558647
  0
ARC
  5
29C
330
31F
100
AcDbEntity
  8
DATA
  6
Continuous
 62
     7
100
AcDbCircle
 10
163.4999955256775
 20
-199.8000044743228
 30
0.0
 40
7.499999999999913
100
AcDbArc
 50
269.9999999999984
 51
284.1914594526068
  0
ARC
  5
29D
330
31F
100
AcDbEntity
  8
DATA
  6
STYLE_01
 62
     7
100
AcDbCircle
 10
156.4999955256773
 20
-262.4677995016347
 30
0.0
 40
71.91814472970321
100
AcDbArc
 50
82.65402274961317
 51
106.1464777900971
  0
ARC
  5
29E
330
31F
100
AcDbEntity
  8
DATA
  6
STYLE_01
 62
     7
100
AcDbCircle
 10
176.4999955256774
 20
-204.0500044743226
 30
0.0
 40
9.0
100
AcDbArc
 50
0.0
 51
60.25511870305791
  0
ARC
  5
29F
330
31F
100
AcDbEntity
  8
DATA
  6
STYLE_01
 62
     7
100
AcDbCircle
 10
173.0536405229381
 20
-193.5086805309767
 30
0.0
 40
0.9999999999889872
100
AcDbArc
 50
62.47084777725944
 51
76.50155131735451
  0
ARC
  5
2A0
330
31F
100
AcDbEntity
  8
DATA
  6
STYLE_01
 62
     7
100
AcDbCircle
 10
136.4999955256772
 20
-304.0500044743227
 30
0.0
 40
116.6235726233807
100
AcDbArc
 50
67.58753227130445
 51
75.5023948401372
  0
ARC
  5
2A1
330
31F
100
AcDbEntity
  8
DATA
  6
STYLE_01
 62
     7
100
AcDbCircle
 10
156.4999955256773
 20
-145.6322094470107
 30
0.0
 40
71.91814472970325
100
AcDbArc
 50
253.8535222099028
 51
277.3459772503867
  0
ARC
  5
2A2
330
31F
100
AcDbEntity
  8
DATA
  6
STYLE_01
 62
     7
100
AcDbCircle
 10
176.4999955256774
 20
-204.0500044743226
 30
0.0
 40
9.000000000000007
100
AcDbArc
 50
299.7448812969421
 51
0.0
  0
ARC
  5
2A3
330
31F
100
AcDbEntity
  8
DATA
  6
STYLE_01
 62
     7
100
AcDbCircle
 10
173.0536405229381
 20
-214.5913284176686
 30
0.0
 40
0.9999999999890331
100
AcDbArc
 50
283.4984486826455
 51
297.5291522227406
  0
ARC
  5
2A4
330
31F
100
AcDbEntity
  8
DATA
  6
STYLE_01
 62
     7
100
AcDbCircle
 10
136.4999955256772
 20
-104.0500044743227
 30
0.0
 40
116.6235726233807
100
AcDbArc
 50
284.4976051598628
 51
292.4124677286956
  0
LINE
  5
2A5
330
31F
100
AcDbEntity
  8
DATA
  6
STYLE_01
 62
     7
100
AcDbLine
 10
136.4999955256772
 20
-193.3865463184263
 30
0.0
 11
136.4999955256772
 21
-214.7134626302191
 31
0.0
  0
LINE
  5
2A6
330
31F
100
AcDbEntity
  8
DATA
  6
Continuous
 62
     7
100
AcDbLine
 10
125.0
 20
75.0
 30
0.0
 11
275.0
 21
75.0
 31
0.0
  0
TEXT
  5
2A7
330
31F
100
AcDbEntity
  8
DATA
 62
     7
100
AcDbText
 10
187.6409966541528
 20
-450.0127779333332
 30
0.0
 40
6.515364583333332
  1
グースネック・マイクロホン
 41
0.7
 11
187.6409966541528
 21
-443.4974133499999
 31
0.0
100
AcDbText
 73
     3
  0
LINE
  5
2A8
330
31F
100
AcDbEntity
  8
DATA
  6
Continuous
 62
     7
100
AcDbLine
 10
-71.25
 20
-143.8899999999999
 30
0.0
 11
-70.75
 21
-148.39
 31
0.0
  0
LINE
  5
2A9
330
31F
100
AcDbEntity
  8
DATA
  6
Continuous
 62
     7
100
AcDbLine
 10
-79.25
 20
-148.39
 30
0.0
 11
-78.75
 21
-143.8899999999999
 31
0.0
  0
LINE
  5
2AA
330
31F
100
AcDbEntity
  8
DATA
  6
Continuous
 62
     7
100
AcDbLine
 10
-78.75
 20
-143.8899999999999
 30
0.0
 11
-71.25
 21
-143.8899999999999
 31
0.0
  0
TEXT
  5
2AB
330
31F
100
AcDbEntity
  8
DATA
 62
     7
100
AcDbText
 10
-153.6685574707031
 20
-278.8477895507813
 30
0.0
 40
2.418829101562499
  1
CS321
 41
0.7
 72
     1
 11
-150.0
 21
-277.638375
 31
0.0
100
AcDbText
 73
     2
  0
TEXT
  5
2AC
330
31F
100
AcDbEntity
  8
DATA
 62
     7
100
AcDbText
 10
-78.66855747070312
 20
-278.8477895507813
 30
0.0
 40
2.418829101562499
  1
CS321
 41
0.7
 72
     1
 11
-75.0
 21
-277.638375
 31
0.0
100
AcDbText
 73
     2
  0
ARC
  5
2AD
330
31F
100
AcDbEntity
  8
DATA
  6
STYLE_01
 62
     7
100
AcDbCircle
 10
-75.0
 20
43.0
 30
0.0
 40
9.0
100
AcDbArc
 50
90.0
 51
150.2551187030581
  0
ARC
  5
2AE
330
31F
100
AcDbEntity
  8
DATA
  6
STYLE_01
 62
     7
100
AcDbCircle
 10
-75.0
 20
43.0
 30
0.0
 40
8.999999999999982
100
AcDbArc
 50
29.74488129694222
 51
89.99999999999998
  0
ENDSEC
  0
SECTION
  2
OBJECTS
  0
DICTIONARY
  5
2BC
330
0
100
AcDbDictionary
281
     1
  3
ACAD_CIP_PREVIOUS_PRODUCT_INFO
350
338
  3
ACAD_COLOR
350
312
  3
ACAD_DETAILVIEWSTYLE
350
319
  3
ACAD_GROUP
350
2BD
  3
ACAD_LAYOUT
350
311
  3
ACAD_MATERIAL
350
2C0
  3
ACAD_MLEADERSTYLE
350
315
  3
ACAD_MLINESTYLE
350
30E
  3
ACAD_PLOTSETTINGS
350
310
  3
ACAD_PLOTSTYLENAME
350
2BE
  3
ACAD_SCALELIST
350
2F2
  3
ACAD_SECTIONVIEWSTYLE
350
317
  3
ACAD_TABLESTYLE
350
313
  3
ACAD_VISUALSTYLE
350
2D9
  3
ACDB_RECOMPOSE_DATA
350
350
  3
AcDbVariableDictionary
350
343
  3
DWGPROPS
350
351
  0
DICTIONARY
  5
339
330
304
100
AcDbDictionary
280
     1
281
     1
  3
ADSK_XREC_LAYER_RECONCILED
360
33A
  0
DICTIONARY
  5
33B
330
323
100
AcDbDictionary
280
     1
281
     1
  3
ADSK_XREC_LAYER_RECONCILED
360
33C
  0
DICTIONARY
  5
33D
330
32F
100
AcDbDictionary
280
     1
281
     1
  3
ADSK_XREC_LAYER_RECONCILED
360
33E
  0
DICTIONARY
  5
33F
330
330
100
AcDbDictionary
280
     1
281
     1
  3
ADSK_XREC_LAYER_RECONCILED
360
340
  0
DICTIONARY
  5
341
330
331
100
AcDbDictionary
280
     1
281
     1
  3
ADSK_XREC_LAYER_RECONCILED
360
342
  0
XRECORD
  5
338
102
{ACAD_REACTORS
330
2BC
102
}
330
2BC
100
AcDbXrecord
280
     1
300
ACDLT
300
2015
300
ACDLT_F_S
  0
DICTIONARY
  5
312
102
{ACAD_REACTORS
330
2BC
102
}
330
2BC
100
AcDbDictionary
281
     1
  0
DICTIONARY
  5
319
102
{ACAD_REACTORS
330
2BC
102
}
330
2BC
100
AcDbDictionary
281
     1
  3
Imperial24
350
31A
  0
DICTIONARY
  5
2BD
102
{ACAD_REACTORS
330
2BC
102
}
330
2BC
100
AcDbDictionary
281
     1
  0
DICTIONARY
  5
311
102
{ACAD_REACTORS
330
2BC
102
}
330
2BC
100
AcDbDictionary
281
     1
  3
Model
350
322
  3
レイアウト1
350
31E
  0
DICTIONARY
  5
2C0
102
{ACAD_REACTORS
330
2BC
102
}
330
2BC
100
AcDbDictionary
281
     1
  3
ByBlock
350
2C9
  3
ByLayer
350
2C1
  3
Global
350
2D1
  0
DICTIONARY
  5
315
102
{ACAD_REACTORS
330
2BC
102
}
330
2BC
100
AcDbDictionary
281
     1
  3
Standard
350
316
  0
DICTIONARY
  5
30E
102
{ACAD_REACTORS
330
2BC
102
}
330
2BC
100
AcDbDictionary
281
     1
  3
Standard
350
30F
  0
DICTIONARY
  5
310
102
{ACAD_REACTORS
330
2BC
102
}
330
2BC
100
AcDbDictionary
281
     1
  0
ACDBDICTIONARYWDFLT
  5
2BE
102
{ACAD_REACTORS
330
2BC
102
}
330
2BC
100
AcDbDictionary
281
     1
  3
Normal
350
2BF
100
AcDbDictionaryWithDefault
340
2BF
  0
DICTIONARY
  5
2F2
102
{ACAD_REACTORS
330
2BC
102
}
330
2BC
100
AcDbDictionary
281
     1
  3
A0
350
2F3
  3
A1
350
2F4
  3
A2
350
2F5
  3
A3
350
2F6
  3
A4
350
2F7
  3
A5
350
2F8
  3
A6
350
2F9
  3
A7
350
2FA
  3
A8
350
2FB
  3
A9
350
2FC
  3
B0
350
2FD
  3
B1
350
2FE
  3
B2
350
2FF
  3
B3
350
300
  3
B4
350
301
  3
B5
350
302
  3
B6
350
303
  0
DICTIONARY
  5
317
102
{ACAD_REACTORS
330
2BC
102
}
330
2BC
100
AcDbDictionary
281
     1
  3
Imperial24
350
318
  0
DICTIONARY
  5
313
102
{ACAD_REACTORS
330
2BC
102
}
330
2BC
100
AcDbDictionary
281
     1
  3
Standard
350
314
  0
DICTIONARY
  5
2D9
102
{ACAD_REACTORS
330
2BC
102
}
330
2BC
100
AcDbDictionary
281
     1
  3
2dWireframe
350
2DF
  3
Basic
350
2DE
  3
Brighten
350
2E5
  3
ColorChange
350
2E9
  3
Conceptual
350
2E2
  3
Dim
350
2E4
  3
EdgeColorOff
350
2F1
  3
Facepattern
350
2E8
  3
Flat
350
2DA
  3
FlatWithEdges
350
2DB
  3
Gouraud
350
2DC
  3
GouraudWithEdges
350
2DD
  3
Hidden
350
2E1
  3
JitterOff
350
2EF
  3
Linepattern
350
2E7
  3
OverhangOff
350
2F0
  3
Realistic
350
2E3
  3
Shaded
350
2EE
  3
Shaded with edges
350
2ED
  3
Shades of Gray
350
2EA
  3
Sketchy
350
2EB
  3
Thicken
350
2E6
  3
Wireframe
350
2E0
  3
X-Ray
350
2EC
  0
XRECORD
  5
350
102
{ACAD_REACTORS
330
2BC
102
}
330
2BC
100
AcDbXrecord
280
     1
 90
        1
330
314
  0
DICTIONARY
  5
343
102
{ACAD_REACTORS
330
2BC
102
}
330
2BC
100
AcDbDictionary
281
     1
  3
CANNOSCALE
350
348
  3
CMLEADERSTYLE
350
345
  3
CTABLESTYLE
350
344
  3
CVIEWDETAILSTYLE
350
346
  3
CVIEWSECTIONSTYLE
350
347
  3
DIMASSOC
350
34B
  3
INDEXCTL
350
34A
  3
SORTENTS
350
349
  3
XCLIPFRAME
350
34C
  0
XRECORD
  5
351
102
{ACAD_REACTORS
330
2BC
102
}
330
2BC
100
AcDbXrecord
280
     1
  1
DWGPROPS COOKIE
  2

  3

  4

  6

  7

  8
sasaki_n
  9

300
=
301
=
302
=
303
=
304
=
305
=
306
=
307
=
308
=
309
=
 40
0.000881099537037
 41
2457038.526643518
 42
2457038.527653368
  1

 90
        0
  0
XRECORD
  5
33A
102
{ACAD_REACTORS
330
339
102
}
330
339
100
AcDbXrecord
280
     1
290
     1
  0
XRECORD
  5
33C
102
{ACAD_REACTORS
330
33B
102
}
330
33B
100
AcDbXrecord
280
     1
290
     1
  0
XRECORD
  5
33E
102
{ACAD_REACTORS
330
33D
102
}
330
33D
100
AcDbXrecord
280
     1
290
     1
  0
XRECORD
  5
340
102
{ACAD_REACTORS
330
33F
102
}
330
33F
100
AcDbXrecord
280
     1
290
     1
  0
XRECORD
  5
342
102
{ACAD_REACTORS
330
341
102
}
330
341
100
AcDbXrecord
280
     1
290
     1
  0
ACDBDETAILVIEWSTYLE
  5
31A
102
{ACAD_XDICTIONARY
360
389
102
}
102
{ACAD_REACTORS
330
319
102
}
330
319
100
AcDbModelDocViewStyle
 70
     0
  3
Imperial24
290
     0
100
AcDbDetailViewStyle
 70
     0
 71
     0
 90
        3
 71
     1
340
305
 40
0.24
340
0
 40
0.24
300

 40
0.36
280
     3
 71
     2
340
30C
 90
       25
 71
     3
340
305
 40
0.24
 90
        1
 40
0.75
 90
        1
300
%<\AcVar ViewType \f "%tc1">% %<\AcVar ViewDetailId>%\PSCALE %<\AcVar ViewScale \f "%sn">%
 71
     4
340
30C
 90
       25
340
30C
 90
       25
280
     0
  0
LAYOUT
  5
322
102
{ACAD_XDICTIONARY
360
38D
102
}
102
{ACAD_REACTORS
330
311
102
}
330
311
100
AcDbPlotSettings
  1

  2
Microsoft XPS Document Writer
  4

  6

 40
0.0
 41
0.0
 42
0.0
 43
0.0
 44
0.0
 45
0.0
 46
0.0
 47
0.0
 48
0.0
 49
0.0
140
0.0
141
0.0
142
1.0
143
1.0
 70
  1712
 72
     0
 73
     0
 74
     0
  7

 75
     0
147
1.0
148
0.0
149
0.0
100
AcDbLayout
  1
Model
 70
     1
 71
     0
 10
0.0
 20
0.0
 11
12.0
 21
9.0
 12
0.0
 22
0.0
 32
0.0
 14
0.0
 24
0.0
 34
0.0
 15
0.0
 25
0.0
 35
0.0
146
0.0
 13
0.0
 23
0.0
 33
0.0
 16
1.0
 26
0.0
 36
0.0
 17
0.0
 27
1.0
 37
0.0
 76
     0
330
31F
331
324
  0
LAYOUT
  5
31E
102
{ACAD_XDICTIONARY
360
38B
102
}
102
{ACAD_REACTORS
330
311
102
}
330
311
100
AcDbPlotSettings
  1

  2
Microsoft XPS Document Writer
  4

  6

 40
0.0
 41
0.0
 42
0.0
 43
0.0
 44
0.0
 45
0.0
 46
0.0
 47
0.0
 48
0.0
 49
0.0
140
0.0
141
0.0
142
1.0
143
1.0
 70
   688
 72
     0
 73
     0
 74
     5
  7

 75
    16
147
1.0
148
0.0
149
0.0
100
AcDbLayout
  1
レイアウト1
 70
     0
 71
     1
 10
0.0
 20
0.0
 11
12.0
 21
9.0
 12
0.0
 22
0.0
 32
0.0
 14
1.000000000000000E+20
 24
1.000000000000000E+20
 34
1.000000000000000E+20
 15
-1.000000000000000E+20
 25
-1.000000000000000E+20
 35
-1.000000000000000E+20
146
0.0
 13
0.0
 23
0.0
 33
0.0
 16
1.0
 26
0.0
 36
0.0
 17
0.0
 27
1.0
 37
0.0
 76
     0
330
31B
  0
MATERIAL
  5
2C9
102
{ACAD_XDICTIONARY
360
2CA
102
}
102
{ACAD_REACTORS
330
2C0
102
}
330
2C0
100
AcDbMaterial
  1
ByBlock
 72
     0
 43
0.0208333333333333
 43
0.0
 43
0.0
 43
0.0
 43
0.0
 43
0.0208333333333333
 43
0.0
 43
0.0
 43
0.0
 43
0.0
 43
1.0
 43
0.0
 43
0.0
 43
0.0
 43
0.0
 43
1.0
 77
     0
 47
0.0208333333333333
 47
0.0
 47
0.0
 47
0.0
 47
0.0
 47
0.0208333333333333
 47
0.0
 47
0.0
 47
0.0
 47
0.0
 47
1.0
 47
0.0
 47
0.0
 47
0.0
 47
0.0
 47
1.0
171
     0
 49
0.0208333333333333
 49
0.0
 49
0.0
 49
0.0
 49
0.0
 49
0.0208333333333333
 49
0.0
 49
0.0
 49
0.0
 49
0.0
 49
1.0
 49
0.0
 49
0.0
 49
0.0
 49
0.0
 49
1.0
175
     0
142
0.0208333333333333
142
0.0
142
0.0
142
0.0
142
0.0
142
0.0208333333333333
142
0.0
142
0.0
142
0.0
142
0.0
142
1.0
142
0.0
142
0.0
142
0.0
142
0.0
142
1.0
179
     0
144
0.0208333333333333
144
0.0
144
0.0
144
0.0
144
0.0
144
0.0208333333333333
144
0.0
144
0.0
144
0.0
144
0.0
144
1.0
144
0.0
144
0.0
144
0.0
144
0.0
144
1.0
147
0.0208333333333333
147
0.0
147
0.0
147
0.0
147
0.0
147
0.0208333333333333
147
0.0
147
0.0
147
0.0
147
0.0
147
1.0
147
0.0
147
0.0
147
0.0
147
0.0
147
1.0
  0
MATERIAL
  5
2C1
102
{ACAD_XDICTIONARY
360
2C2
102
}
102
{ACAD_REACTORS
330
2C0
102
}
330
2C0
100
AcDbMaterial
  1
ByLayer
 72
     0
 43
0.0208333333333333
 43
0.0
 43
0.0
 43
0.0
 43
0.0
 43
0.0208333333333333
 43
0.0
 43
0.0
 43
0.0
 43
0.0
 43
1.0
 43
0.0
 43
0.0
 43
0.0
 43
0.0
 43
1.0
 77
     0
 47
0.0208333333333333
 47
0.0
 47
0.0
 47
0.0
 47
0.0
 47
0.0208333333333333
 47
0.0
 47
0.0
 47
0.0
 47
0.0
 47
1.0
 47
0.0
 47
0.0
 47
0.0
 47
0.0
 47
1.0
171
     0
 49
0.0208333333333333
 49
0.0
 49
0.0
 49
0.0
 49
0.0
 49
0.0208333333333333
 49
0.0
 49
0.0
 49
0.0
 49
0.0
 49
1.0
 49
0.0
 49
0.0
 49
0.0
 49
0.0
 49
1.0
175
     0
142
0.0208333333333333
142
0.0
142
0.0
142
0.0
142
0.0
142
0.0208333333333333
142
0.0
142
0.0
142
0.0
142
0.0
142
1.0
142
0.0
142
0.0
142
0.0
142
0.0
142
1.0
179
     0
144
0.0208333333333333
144
0.0
144
0.0
144
0.0
144
0.0
144
0.0208333333333333
144
0.0
144
0.0
144
0.0
144
0.0
144
1.0
144
0.0
144
0.0
144
0.0
144
0.0
144
1.0
147
0.0208333333333333
147
0.0
147
0.0
147
0.0
147
0.0
147
0.0208333333333333
147
0.0
147
0.0
147
0.0
147
0.0
147
1.0
147
0.0
147
0.0
147
0.0
147
0.0
147
1.0
  0
MATERIAL
  5
2D1
102
{ACAD_XDICTIONARY
360
2D2
102
}
102
{ACAD_REACTORS
330
2C0
102
}
330
2C0
100
AcDbMaterial
  1
Global
 72
     0
 43
0.0208333333333333
 43
0.0
 43
0.0
 43
0.0
 43
0.0
 43
0.0208333333333333
 43
0.0
 43
0.0
 43
0.0
 43
0.0
 43
1.0
 43
0.0
 43
0.0
 43
0.0
 43
0.0
 43
1.0
 77
     0
 47
0.0208333333333333
 47
0.0
 47
0.0
 47
0.0
 47
0.0
 47
0.0208333333333333
 47
0.0
 47
0.0
 47
0.0
 47
0.0
 47
1.0
 47
0.0
 47
0.0
 47
0.0
 47
0.0
 47
1.0
171
     0
 49
0.0208333333333333
 49
0.0
 49
0.0
 49
0.0
 49
0.0
 49
0.0208333333333333
 49
0.0
 49
0.0
 49
0.0
 49
0.0
 49
1.0
 49
0.0
 49
0.0
 49
0.0
 49
0.0
 49
1.0
175
     0
142
0.0208333333333333
142
0.0
142
0.0
142
0.0
142
0.0
142
0.0208333333333333
142
0.0
142
0.0
142
0.0
142
0.0
142
1.0
142
0.0
142
0.0
142
0.0
142
0.0
142
1.0
179
     0
144
0.0208333333333333
144
0.0
144
0.0
144
0.0
144
0.0
144
0.0208333333333333
144
0.0
144
0.0
144
0.0
144
0.0
144
1.0
144
0.0
144
0.0
144
0.0
144
0.0
144
1.0
147
0.0208333333333333
147
0.0
147
0.0
147
0.0
147
0.0
147
0.0208333333333333
147
0.0
147
0.0
147
0.0
147
0.0
147
1.0
147
0.0
147
0.0
147
0.0
147
0.0
147
1.0
  0
MLEADERSTYLE
  5
316
102
{ACAD_REACTORS
330
315
102
}
330
315
100
AcDbMLeaderStyle
170
     2
171
     1
172
     0
 90
        2
 40
0.0
 41
0.0
173
     1
 91
-1056964608
340
30A
 92
       -2
290
     1
 42
0.09
291
     1
 43
0.36
  3
Standard
 44
0.18
300

342
305
174
     1
178
     6
175
     1
176
     0
 93
-1056964608
 45
0.18
292
     0
297
     0
 46
0.18
 94
-1056964608
 47
1.0
 49
1.0
140
1.0
293
     1
141
0.0
294
     1
177
     0
142
1.0
295
     0
296
     0
143
0.125
1001
ACAD_MLEADERVER
1070
     2
  0
MLINESTYLE
  5
30F
102
{ACAD_REACTORS
330
30E
102
}
330
30E
100
AcDbMlineStyle
  2
STANDARD
 70
     0
  3

 62
   256
 51
90.0
 52
90.0
 71
     2
 49
0.5
 62
   256
  6
BYLAYER
 49
-0.5
 62
   256
  6
BYLAYER
  0
ACDBPLACEHOLDER
  5
2BF
102
{ACAD_REACTORS
330
2BE
102
}
330
2BE
  0
SCALE
  5
2F3
102
{ACAD_REACTORS
330
2F2
102
}
330
2F2
100
AcDbScale
 70
     0
300
1:1
140
1.0
141
1.0
290
     1
  0
SCALE
  5
2F4
102
{ACAD_REACTORS
330
2F2
102
}
330
2F2
100
AcDbScale
 70
     0
300
1/128" = 1'-0"
140
0.0078125
141
12.0
290
     0
  0
SCALE
  5
2F5
102
{ACAD_REACTORS
330
2F2
102
}
330
2F2
100
AcDbScale
 70
     0
300
1/64" = 1'-0"
140
0.015625
141
12.0
290
     0
  0
SCALE
  5
2F6
102
{ACAD_REACTORS
330
2F2
102
}
330
2F2
100
AcDbScale
 70
     0
300
1/32" = 1'-0"
140
0.03125
141
12.0
290
     0
  0
SCALE
  5
2F7
102
{ACAD_REACTORS
330
2F2
102
}
330
2F2
100
AcDbScale
 70
     0
300
1/16" = 1'-0"
140
0.0625
141
12.0
290
     0
  0
SCALE
  5
2F8
102
{ACAD_REACTORS
330
2F2
102
}
330
2F2
100
AcDbScale
 70
     0
300
3/32" = 1'-0"
140
0.09375
141
12.0
290
     0
  0
SCALE
  5
2F9
102
{ACAD_REACTORS
330
2F2
102
}
330
2F2
100
AcDbScale
 70
     0
300
1/8" = 1'-0"
140
0.125
141
12.0
290
     0
  0
SCALE
  5
2FA
102
{ACAD_REACTORS
330
2F2
102
}
330
2F2
100
AcDbScale
 70
     0
300
3/16" = 1'-0"
140
0.1875
141
12.0
290
     0
  0
SCALE
  5
2FB
102
{ACAD_REACTORS
330
2F2
102
}
330
2F2
100
AcDbScale
 70
     0
300
1/4" = 1'-0"
140
0.25
141
12.0
290
     0
  0
SCALE
  5
2FC
102
{ACAD_REACTORS
330
2F2
102
}
330
2F2
100
AcDbScale
 70
     0
300
3/8" = 1'-0"
140
0.375
141
12.0
290
     0
  0
SCALE
  5
2FD
102
{ACAD_REACTORS
330
2F2
102
}
330
2F2
100
AcDbScale
 70
     0
300
1/2" = 1'-0"
140
0.5
141
12.0
290
     0
  0
SCALE
  5
2FE
102
{ACAD_REACTORS
330
2F2
102
}
330
2F2
100
AcDbScale
 70
     0
300
3/4" = 1'-0"
140
0.75
141
12.0
290
     0
  0
SCALE
  5
2FF
102
{ACAD_REACTORS
330
2F2
102
}
330
2F2
100
AcDbScale
 70
     0
300
1" = 1'-0"
140
1.0
141
12.0
290
     0
  0
SCALE
  5
300
102
{ACAD_REACTORS
330
2F2
102
}
330
2F2
100
AcDbScale
 70
     0
300
1-1/2" = 1'-0"
140
1.5
141
12.0
290
     0
  0
SCALE
  5
301
102
{ACAD_REACTORS
330
2F2
102
}
330
2F2
100
AcDbScale
 70
     0
300
3" = 1'-0"
140
3.0
141
12.0
290
     0
  0
SCALE
  5
302
102
{ACAD_REACTORS
330
2F2
102
}
330
2F2
100
AcDbScale
 70
     0
300
6" = 1'-0"
140
6.0
141
12.0
290
     0
  0
SCALE
  5
303
102
{ACAD_REACTORS
330
2F2
102
}
330
2F2
100
AcDbScale
 70
     0
300
1'-0" = 1'-0"
140
12.0
141
12.0
290
     0
  0
ACDBSECTIONVIEWSTYLE
  5
318
102
{ACAD_XDICTIONARY
360
387
102
}
102
{ACAD_REACTORS
330
317
102
}
330
317
100
AcDbModelDocViewStyle
 70
     0
  3
Imperial24
290
     0
100
AcDbSectionViewStyle
 70
     0
 71
     0
 90
       78
 71
     1
340
305
 40
0.24
340
0
340
0
 40
0.24
300
I, O, Q, S, X, Z
 40
0.48
 90
        3
 40
0.18
 90
        1
 71
     2
340
30C
 90
       25
340
30C
 90
       50
 40
0.24
 40
0.0
 40
0.24
 71
     3
340
305
 40
0.24
 90
        1
 40
0.75
 90
        1
300
%<\AcVar ViewType \f "%tc1">% %<\AcVar ViewSectionStartId>%-%<\AcVar ViewSectionEndId>%\PSCALE %<\AcVar ViewScale \f "%sn">%
 71
     4
300
ANSI31
 40
1.0
 90
        0
290
     0
290
     0
 90
        6
 40
0.0
 40
1.570796326794896
 40
0.2617993877991494
 40
1.308996938995747
 40
-0.2617993877991494
 40
1.832595714594046
  0
TABLESTYLE
  5
314
102
{ACAD_XDICTIONARY
360
34E
102
}
102
{ACAD_REACTORS
330
313
102
}
330
313
100
AcDbTableStyle
  3
Standard
 70
     0
 71
     0
 40
0.06
 41
0.06
280
     0
281
     0
  7
STANDARD
140
0.18
170
     2
 62
     0
 63
     7
283
     0
274
    -2
284
     1
 64
     0
275
    -2
285
     1
 65
     0
276
    -2
286
     1
 66
     0
277
    -2
287
     1
 67
     0
278
    -2
288
     1
 68
     0
279
    -2
289
     1
 69
     0
  7
STANDARD
140
0.25
170
     5
 62
     0
 63
     7
283
     0
274
    -2
284
     1
 64
     0
275
    -2
285
     1
 65
     0
276
    -2
286
     1
 66
     0
277
    -2
287
     1
 67
     0
278
    -2
288
     1
 68
     0
279
    -2
289
     1
 69
     0
  7
STANDARD
140
0.18
170
     5
 62
     0
 63
     7
283
     0
274
    -2
284
     1
 64
     0
275
    -2
285
     1
 65
     0
276
    -2
286
     1
 66
     0
277
    -2
287
     1
 67
     0
278
    -2
288
     1
 68
     0
279
    -2
289
     1
 69
     0
  0
VISUALSTYLE
  5
2DF
102
{ACAD_XDICTIONARY
360
35F
102
}
102
{ACAD_REACTORS
330
2D9
102
}
330
2D9
100
AcDbVisualStyle
  2
2dWireframe
 70
     4
 71
     0
 72
     2
 73
     0
 90
        0
 40
-0.6
 41
-30.0
 62
     5
 63
     7
 74
     1
 91
        4
 64
     7
 65
   257
 75
     1
175
     1
 42
1.0
 92
        0
 66
   257
 43
1.0
 76
     1
 77
     6
 78
     2
 67
     7
 79
     5
170
     0
171
     0
290
     0
174
     0
 93
        1
 44
0.0
173
     0
291
     0
 45
0.0
1001
ACAD
1000
AcDbSavedByObjectVersion
1070
     0
  0
VISUALSTYLE
  5
2DE
102
{ACAD_XDICTIONARY
360
35D
102
}
102
{ACAD_REACTORS
330
2D9
102
}
330
2D9
100
AcDbVisualStyle
  2
Basic
 70
     7
 71
     1
 72
     0
 73
     1
 90
        0
 40
-0.6
 41
-30.0
 62
     5
 63
     7
 74
     0
 91
        4
 64
     7
 65
   257
 75
     1
175
     1
 42
1.0
 92
        8
 66
     7
 43
1.0
 76
     1
 77
     6
 78
     2
 67
     7
 79
     5
170
     0
171
     0
290
     0
174
     0
 93
        1
 44
0.0
173
     0
291
     1
 45
0.0
1001
ACAD
1000
AcDbSavedByObjectVersion
1070
     0
  0
VISUALSTYLE
  5
2E5
102
{ACAD_XDICTIONARY
360
36B
102
}
102
{ACAD_REACTORS
330
2D9
102
}
330
2D9
100
AcDbVisualStyle
  2
Brighten
 70
    12
 71
     2
 72
     2
 73
     0
 90
        0
 40
-0.6
 41
-30.0
 62
     5
 63
     7
 74
     1
 91
        4
 64
     7
 65
   257
 75
     1
175
     1
 42
1.0
 92
        8
 66
     7
 43
1.0
 76
     1
 77
     6
 78
     2
 67
     7
 79
     5
170
     0
171
     0
290
     0
174
     0
 93
        1
 44
50.0
173
     0
291
     1
 45
0.0
1001
ACAD
1000
AcDbSavedByObjectVersion
1070
     0
  0
VISUALSTYLE
  5
2E9
102
{ACAD_XDICTIONARY
360
373
102
}
102
{ACAD_REACTORS
330
2D9
102
}
330
2D9
100
AcDbVisualStyle
  2
ColorChange
 70
    16
 71
     2
 72
     2
 73
     3
 90
        0
 40
-0.6
 41
-30.0
 62
     5
 63
     8
 74
     1
 91
        4
 64
     7
 65
   257
 75
     1
175
     1
 42
1.0
 92
        8
 66
     8
 43
1.0
 76
     1
 77
     6
 78
     2
 67
     7
 79
     5
170
     0
171
     0
290
     0
174
     0
 93
        1
 44
0.0
173
     0
291
     1
 45
0.0
1001
ACAD
1000
AcDbSavedByObjectVersion
1070
     0
  0
VISUALSTYLE
  5
2E2
102
{ACAD_XDICTIONARY
360
365
102
}
102
{ACAD_REACTORS
330
2D9
102
}
330
2D9
100
AcDbVisualStyle
  2
Conceptual
 70
     9
 71
     3
 72
     2
 73
     0
 90
        0
 40
-0.6
 41
-30.0
 62
     5
 63
     7
 74
     2
 91
        2
 64
     7
 65
   257
 75
     1
175
     1
 42
179.0
 92
        8
 66
     7
 43
1.0
 76
     1
 77
     6
 78
     2
 67
     7
 79
     3
170
     0
171
     0
290
     0
174
     0
 93
        1
 44
0.0
173
     0
291
     0
 45
0.0
1001
ACAD
1000
AcDbSavedByObjectVersion
1070
     0
  0
VISUALSTYLE
  5
2E4
102
{ACAD_XDICTIONARY
360
369
102
}
102
{ACAD_REACTORS
330
2D9
102
}
330
2D9
100
AcDbVisualStyle
  2
Dim
 70
    11
 71
     2
 72
     2
 73
     0
 90
        0
 40
-0.6
 41
-30.0
 62
     5
 63
     7
 74
     1
 91
        4
 64
     7
 65
   257
 75
     1
175
     1
 42
1.0
 92
        8
 66
     7
 43
1.0
 76
     1
 77
     6
 78
     2
 67
     7
 79
     5
170
     0
171
     0
290
     0
174
     0
 93
        1
 44
-50.0
173
     0
291
     1
 45
0.0
1001
ACAD
1000
AcDbSavedByObjectVersion
1070
     0
  0
VISUALSTYLE
  5
2F1
102
{ACAD_XDICTIONARY
360
383
102
}
102
{ACAD_REACTORS
330
2D9
102
}
330
2D9
100
AcDbVisualStyle
  2
EdgeColorOff
 70
    22
 71
     2
 72
     2
 73
     0
 90
        0
 40
-0.6
 41
-30.0
 62
     5
 63
     7
 74
     1
 91
        4
 64
     7
 65
   257
 75
     1
175
     1
 42
1.0
 92
        8
 66
     7
 43
1.0
 76
     1
 77
     6
 78
     2
 67
     7
 79
     5
170
     0
171
     0
290
     0
174
     0
 93
        1
 44
0.0
173
     0
291
     1
 45
0.0
1001
ACAD
1000
AcDbSavedByObjectVersion
1070
     0
  0
VISUALSTYLE
  5
2E8
102
{ACAD_XDICTIONARY
360
371
102
}
102
{ACAD_REACTORS
330
2D9
102
}
330
2D9
100
AcDbVisualStyle
  2
Facepattern
 70
    15
 71
     2
 72
     2
 73
     0
 90
        0
 40
-0.6
 41
-30.0
 62
     5
 63
     7
 74
     1
 91
        4
 64
     7
 65
   257
 75
     1
175
     1
 42
1.0
 92
        8
 66
     7
 43
1.0
 76
     1
 77
     6
 78
     2
 67
     7
 79
     5
170
     0
171
     0
290
     0
174
     0
 93
        1
 44
0.0
173
     0
291
     1
 45
0.0
1001
ACAD
1000
AcDbSavedByObjectVersion
1070
     0
  0
VISUALSTYLE
  5
2DA
102
{ACAD_XDICTIONARY
360
355
102
}
102
{ACAD_REACTORS
330
2D9
102
}
330
2D9
100
AcDbVisualStyle
  2
Flat
 70
     0
 71
     2
 72
     1
 73
     1
 90
        2
 40
-0.6
 41
30.0
 62
     5
 63
     7
 74
     0
 91
        0
 64
     7
 65
   257
 75
     1
175
     1
 42
1.0
 92
        8
 66
     7
 43
1.0
 76
     1
 77
     6
 78
     2
 67
     7
 79
     5
170
     0
171
     0
290
     0
174
     0
 93
       13
 44
0.0
173
     0
291
     1
 45
0.0
1001
ACAD
1000
AcDbSavedByObjectVersion
1070
     0
  0
VISUALSTYLE
  5
2DB
102
{ACAD_XDICTIONARY
360
357
102
}
102
{ACAD_REACTORS
330
2D9
102
}
330
2D9
100
AcDbVisualStyle
  2
FlatWithEdges
 70
     1
 71
     2
 72
     1
 73
     1
 90
        2
 40
-0.6
 41
30.0
 62
     5
 63
     7
 74
     1
 91
        0
 64
     7
 65
   257
 75
     1
175
     1
 42
1.0
 92
        0
 66
   257
 43
1.0
 76
     1
 77
     6
 78
     2
 67
     7
 79
     5
170
     0
171
     0
290
     0
174
     0
 93
       13
 44
0.0
173
     0
291
     1
 45
0.0
1001
ACAD
1000
AcDbSavedByObjectVersion
1070
     0
  0
VISUALSTYLE
  5
2DC
102
{ACAD_XDICTIONARY
360
359
102
}
102
{ACAD_REACTORS
330
2D9
102
}
330
2D9
100
AcDbVisualStyle
  2
Gouraud
 70
     2
 71
     2
 72
     2
 73
     1
 90
        2
 40
-0.6
 41
30.0
 62
     5
 63
     7
 74
     0
 91
        0
 64
     7
 65
   257
 75
     1
175
     1
 42
1.0
 92
        0
 66
     7
 43
1.0
 76
     1
 77
     6
 78
     2
 67
     7
 79
     5
170
     0
171
     0
290
     0
174
     0
 93
       13
 44
0.0
173
     0
291
     1
 45
0.0
1001
ACAD
1000
AcDbSavedByObjectVersion
1070
     0
  0
VISUALSTYLE
  5
2DD
102
{ACAD_XDICTIONARY
360
35B
102
}
102
{ACAD_REACTORS
330
2D9
102
}
330
2D9
100
AcDbVisualStyle
  2
GouraudWithEdges
 70
     3
 71
     2
 72
     2
 73
     1
 90
        2
 40
-0.6
 41
30.0
 62
     5
 63
     7
 74
     1
 91
        0
 64
     7
 65
   257
 75
     1
175
     1
 42
1.0
 92
        0
 66
   257
 43
1.0
 76
     1
 77
     6
 78
     2
 67
     7
 79
     5
170
     0
171
     0
290
     0
174
     0
 93
       13
 44
0.0
173
     0
291
     1
 45
0.0
1001
ACAD
1000
AcDbSavedByObjectVersion
1070
     0
  0
VISUALSTYLE
  5
2E1
102
{ACAD_XDICTIONARY
360
363
102
}
102
{ACAD_REACTORS
330
2D9
102
}
330
2D9
100
AcDbVisualStyle
  2
Hidden
 70
     6
 71
     1
 72
     2
 73
     2
 90
        0
 40
-0.6
 41
-30.0
 62
     5
 63
     7
 74
     2
 91
        2
 64
     7
 65
   257
 75
     2
175
     1
 42
40.0
 92
        0
 66
   257
 43
1.0
 76
     1
 77
     6
 78
     2
 67
     7
 79
     3
170
     0
171
     0
290
     0
174
     0
 93
        1
 44
0.0
173
     0
291
     0
 45
0.0
1001
ACAD
1000
AcDbSavedByObjectVersion
1070
     0
  0
VISUALSTYLE
  5
2EF
102
{ACAD_XDICTIONARY
360
37F
102
}
102
{ACAD_REACTORS
330
2D9
102
}
330
2D9
100
AcDbVisualStyle
  2
JitterOff
 70
    20
 71
     2
 72
     2
 73
     0
 90
        0
 40
-0.6
 41
-30.0
 62
     5
 63
     7
 74
     1
 91
        4
 64
     7
 65
   257
 75
     1
175
     1
 42
1.0
 92
       10
 66
     7
 43
1.0
 76
     1
 77
     6
 78
     2
 67
     7
 79
     5
170
     0
171
     0
290
     0
174
     0
 93
        1
 44
0.0
173
     0
291
     1
 45
0.0
1001
ACAD
1000
AcDbSavedByObjectVersion
1070
     0
  0
VISUALSTYLE
  5
2E7
102
{ACAD_XDICTIONARY
360
36F
102
}
102
{ACAD_REACTORS
330
2D9
102
}
330
2D9
100
AcDbVisualStyle
  2
Linepattern
 70
    14
 71
     2
 72
     2
 73
     0
 90
        0
 40
-0.6
 41
-30.0
 62
     5
 63
     7
 74
     1
 91
        4
 64
     7
 65
   257
 75
     7
175
     7
 42
1.0
 92
        8
 66
     7
 43
1.0
 76
     1
 77
     6
 78
     2
 67
     7
 79
     5
170
     0
171
     0
290
     0
174
     0
 93
        1
 44
0.0
173
     0
291
     1
 45
0.0
1001
ACAD
1000
AcDbSavedByObjectVersion
1070
     0
  0
VISUALSTYLE
  5
2F0
102
{ACAD_XDICTIONARY
360
381
102
}
102
{ACAD_REACTORS
330
2D9
102
}
330
2D9
100
AcDbVisualStyle
  2
OverhangOff
 70
    21
 71
     2
 72
     2
 73
     0
 90
        0
 40
-0.6
 41
-30.0
 62
     5
 63
     7
 74
     1
 91
        4
 64
     7
 65
   257
 75
     1
175
     1
 42
1.0
 92
        9
 66
     7
 43
1.0
 76
     1
 77
     6
 78
     2
 67
     7
 79
     5
170
     0
171
     0
290
     0
174
     0
 93
        1
 44
0.0
173
     0
291
     1
 45
0.0
1001
ACAD
1000
AcDbSavedByObjectVersion
1070
     0
  0
VISUALSTYLE
  5
2E3
102
{ACAD_XDICTIONARY
360
367
102
}
102
{ACAD_REACTORS
330
2D9
102
}
330
2D9
100
AcDbVisualStyle
  2
Realistic
 70
     8
 71
     2
 72
     3
 73
     0
 90
        2
 40
-0.6
 41
30.0
 62
     5
 63
     7
 74
     0
 91
        0
 64
     7
 65
   257
 75
     1
175
     1
 42
1.0
 92
        8
 66
   257
 43
1.0
 76
     1
 77
     6
 78
     2
 67
     7
 79
     3
170
     0
171
     0
290
     0
174
     0
 93
       13
 44
0.0
173
     0
291
     0
 45
0.0
1001
ACAD
1000
AcDbSavedByObjectVersion
1070
     0
  0
VISUALSTYLE
  5
2EE
102
{ACAD_XDICTIONARY
360
37D
102
}
102
{ACAD_REACTORS
330
2D9
102
}
330
2D9
100
AcDbVisualStyle
  2
Shaded
 70
    27
 71
     2
 72
     2
 73
     1
 90
        2
 40
-0.6
 41
30.0
 62
     5
 63
     7
 74
     0
 91
        4
 64
     7
 65
   257
 75
     1
175
     1
 42
1.0
 92
        8
 66
   257
 43
1.0
 76
     1
 77
     6
 78
     2
 67
     8
 79
     3
170
     0
171
     0
290
     0
174
     0
 93
        5
 44
0.0
173
     0
291
     0
 45
0.0
1001
ACAD
1000
AcDbSavedByObjectVersion
1070
     0
  0
VISUALSTYLE
  5
2ED
102
{ACAD_XDICTIONARY
360
37B
102
}
102
{ACAD_REACTORS
330
2D9
102
}
330
2D9
100
AcDbVisualStyle
  2
Shaded with edges
 70
    26
 71
     2
 72
     2
 73
     1
 90
        2
 40
-0.6
 41
30.0
 62
     5
 63
     7
 74
     1
 91
       10
 64
     7
 65
   257
 75
     2
175
     1
 42
1.0
 92
        8
 66
   257
 43
1.0
 76
     1
 77
     6
 78
     2
 67
     7
 79
     3
170
     0
171
     0
290
     0
174
     0
 93
        5
 44
0.0
173
     0
291
     0
 45
0.0
1001
ACAD
1000
AcDbSavedByObjectVersion
1070
     0
  0
VISUALSTYLE
  5
2EA
102
{ACAD_XDICTIONARY
360
375
102
}
102
{ACAD_REACTORS
330
2D9
102
}
330
2D9
100
AcDbVisualStyle
  2
Shades of Gray
 70
    23
 71
     2
 72
     2
 73
     3
 90
        0
 40
-0.6
 41
-30.0
 62
     5
 63
     7
 74
     2
 91
        2
 64
     7
 65
     7
 75
     1
175
     1
 42
40.0
 92
        8
 66
     7
 43
1.0
 76
     1
 77
     6
 78
     2
 67
     7
 79
     3
170
     0
171
     0
290
     0
174
     0
 93
        1
 44
0.0
173
     0
291
     0
 45
0.0
1001
ACAD
1000
AcDbSavedByObjectVersion
1070
     0
  0
VISUALSTYLE
  5
2EB
102
{ACAD_XDICTIONARY
360
377
102
}
102
{ACAD_REACTORS
330
2D9
102
}
330
2D9
100
AcDbVisualStyle
  2
Sketchy
 70
    24
 71
     1
 72
     2
 73
     2
 90
        0
 40
-0.6
 41
-30.0
 62
     5
 63
     7
 74
     2
 91
        2
 64
     7
 65
     7
 75
     1
175
     1
 42
40.0
 92
       11
 66
     7
 43
1.0
 76
     1
 77
     6
 78
     2
 67
     7
 79
     6
170
     0
171
     0
290
     0
174
     0
 93
        1
 44
0.0
173
     0
291
     0
 45
0.0
1001
ACAD
1000
AcDbSavedByObjectVersion
1070
     0
  0
VISUALSTYLE
  5
2E6
102
{ACAD_XDICTIONARY
360
36D
102
}
102
{ACAD_REACTORS
330
2D9
102
}
330
2D9
100
AcDbVisualStyle
  2
Thicken
 70
    13
 71
     2
 72
     2
 73
     0
 90
        0
 40
-0.6
 41
-30.0
 62
     5
 63
     7
 74
     1
 91
        4
 64
     7
 65
   257
 75
     1
175
     1
 42
1.0
 92
       12
 66
     7
 43
1.0
 76
     1
 77
     6
 78
     2
 67
     7
 79
     5
170
     0
171
     0
290
     0
174
     0
 93
        1
 44
0.0
173
     0
291
     1
 45
0.0
1001
ACAD
1000
AcDbSavedByObjectVersion
1070
     0
  0
VISUALSTYLE
  5
2E0
102
{ACAD_XDICTIONARY
360
361
102
}
102
{ACAD_REACTORS
330
2D9
102
}
330
2D9
100
AcDbVisualStyle
  2
Wireframe
 70
     5
 71
     0
 72
     2
 73
     0
 90
        0
 40
-0.6
 41
-30.0
 62
     5
 63
     7
 74
     1
 91
        4
 64
     7
 65
   257
 75
     1
175
     1
 42
1.0
 92
        0
 66
   257
 43
1.0
 76
     1
 77
     6
 78
     2
 67
     7
 79
     3
170
     0
171
     0
290
     0
174
     0
 93
        1
 44
0.0
173
     0
291
     0
 45
0.0
1001
ACAD
1000
AcDbSavedByObjectVersion
1070
     0
  0
VISUALSTYLE
  5
2EC
102
{ACAD_XDICTIONARY
360
379
102
}
102
{ACAD_REACTORS
330
2D9
102
}
330
2D9
100
AcDbVisualStyle
  2
X-Ray
 70
    25
 71
     2
 72
     2
 73
     1
 90
        1
 40
0.5
 41
-30.0
 62
     5
 63
     7
 74
     1
 91
        0
 64
     7
 65
   257
 75
     1
175
     1
 42
1.0
 92
        8
 66
     7
 43
1.0
 76
     1
 77
     6
 78
     2
 67
     7
 79
     3
170
     0
171
     0
290
     0
174
     0
 93
       13
 44
0.0
173
     0
291
     0
 45
0.0
1001
ACAD
1000
AcDbSavedByObjectVersion
1070
     0
  0
DICTIONARYVAR
  5
348
102
{ACAD_REACTORS
330
343
102
}
330
343
100
DictionaryVariables
280
     0
  1
1:1
  0
DICTIONARYVAR
  5
345
102
{ACAD_REACTORS
330
343
102
}
330
343
100
DictionaryVariables
280
     0
  1
STANDARD
  0
DICTIONARYVAR
  5
344
102
{ACAD_REACTORS
330
343
102
}
330
343
100
DictionaryVariables
280
     0
  1
STANDARD
  0
DICTIONARYVAR
  5
346
102
{ACAD_REACTORS
330
343
102
}
330
343
100
DictionaryVariables
280
     0
  1
Imperial24
  0
DICTIONARYVAR
  5
347
102
{ACAD_REACTORS
330
343
102
}
330
343
100
DictionaryVariables
280
     0
  1
Imperial24
  0
DICTIONARYVAR
  5
34B
102
{ACAD_REACTORS
330
343
102
}
330
343
100
DictionaryVariables
280
     0
  1
1
  0
DICTIONARYVAR
  5
34A
102
{ACAD_REACTORS
330
343
102
}
330
343
100
DictionaryVariables
280
     0
  1
0
  0
DICTIONARYVAR
  5
349
102
{ACAD_REACTORS
330
343
102
}
330
343
100
DictionaryVariables
280
     0
  1
127
  0
DICTIONARYVAR
  5
34C
102
{ACAD_REACTORS
330
343
102
}
330
343
100
DictionaryVariables
280
     0
  1
2
  0
DICTIONARY
  5
389
330
31A
100
AcDbDictionary
280
     1
281
     1
  3
ACAD_XREC_ROUNDTRIP
360
38A
  0
DICTIONARY
  5
38D
330
322
100
AcDbDictionary
280
     1
281
     1
  3
ACAD_XREC_ROUNDTRIP
360
38E
  0
DICTIONARY
  5
38B
330
31E
100
AcDbDictionary
280
     1
281
     1
  3
ACAD_XREC_ROUNDTRIP
360
38C
  0
DICTIONARY
  5
2CA
330
2C9
100
AcDbDictionary
280
     1
281
     1
  3
ACAD_XREC_ROUNDTRIP
360
353
  3
BUMPTILE
360
2CC
  3
DIFFUSETILE
360
2CB
  3
OPACITYTILE
360
2CF
  3
REFLECTIONTILE
360
2CE
  3
REFRACTIONTILE
360
2D0
  3
SPECULARTILE
360
2CD
  0
DICTIONARY
  5
2C2
330
2C1
100
AcDbDictionary
280
     1
281
     1
  3
ACAD_XREC_ROUNDTRIP
360
352
  3
BUMPTILE
360
2C4
  3
DIFFUSETILE
360
2C3
  3
OPACITYTILE
360
2C7
  3
REFLECTIONTILE
360
2C6
  3
REFRACTIONTILE
360
2C8
  3
SPECULARTILE
360
2C5
  0
DICTIONARY
  5
2D2
330
2D1
100
AcDbDictionary
280
     1
281
     1
  3
ACAD_XREC_ROUNDTRIP
360
354
  3
BUMPTILE
360
2D4
  3
DIFFUSETILE
360
2D3
  3
OPACITYTILE
360
2D7
  3
REFLECTIONTILE
360
2D6
  3
REFRACTIONTILE
360
2D8
  3
SPECULARTILE
360
2D5
  0
DICTIONARY
  5
387
330
318
100
AcDbDictionary
280
     1
281
     1
  3
ACAD_XREC_ROUNDTRIP
360
388
  0
DICTIONARY
  5
34E
330
314
100
AcDbDictionary
280
     1
281
     1
  3
ACAD_ROUNDTRIP_2008_TABLESTYLE_CELLSTYLEMAP
360
34F
  3
ACAD_XREC_ROUNDTRIP
360
385
  0
DICTIONARY
  5
35F
330
2DF
100
AcDbDictionary
280
     1
281
     1
  3
ACAD_XREC_ROUNDTRIP
360
360
  0
DICTIONARY
  5
35D
330
2DE
100
AcDbDictionary
280
     1
281
     1
  3
ACAD_XREC_ROUNDTRIP
360
35E
  0
DICTIONARY
  5
36B
330
2E5
100
AcDbDictionary
280
     1
281
     1
  3
ACAD_XREC_ROUNDTRIP
360
36C
  0
DICTIONARY
  5
373
330
2E9
100
AcDbDictionary
280
     1
281
     1
  3
ACAD_XREC_ROUNDTRIP
360
374
  0
DICTIONARY
  5
365
330
2E2
100
AcDbDictionary
280
     1
281
     1
  3
ACAD_XREC_ROUNDTRIP
360
366
  0
DICTIONARY
  5
369
330
2E4
100
AcDbDictionary
280
     1
281
     1
  3
ACAD_XREC_ROUNDTRIP
360
36A
  0
DICTIONARY
  5
383
330
2F1
100
AcDbDictionary
280
     1
281
     1
  3
ACAD_XREC_ROUNDTRIP
360
384
  0
DICTIONARY
  5
371
330
2E8
100
AcDbDictionary
280
     1
281
     1
  3
ACAD_XREC_ROUNDTRIP
360
372
  0
DICTIONARY
  5
355
330
2DA
100
AcDbDictionary
280
     1
281
     1
  3
ACAD_XREC_ROUNDTRIP
360
356
  0
DICTIONARY
  5
357
330
2DB
100
AcDbDictionary
280
     1
281
     1
  3
ACAD_XREC_ROUNDTRIP
360
358
  0
DICTIONARY
  5
359
330
2DC
100
AcDbDictionary
280
     1
281
     1
  3
ACAD_XREC_ROUNDTRIP
360
35A
  0
DICTIONARY
  5
35B
330
2DD
100
AcDbDictionary
280
     1
281
     1
  3
ACAD_XREC_ROUNDTRIP
360
35C
  0
DICTIONARY
  5
363
330
2E1
100
AcDbDictionary
280
     1
281
     1
  3
ACAD_XREC_ROUNDTRIP
360
364
  0
DICTIONARY
  5
37F
330
2EF
100
AcDbDictionary
280
     1
281
     1
  3
ACAD_XREC_ROUNDTRIP
360
380
  0
DICTIONARY
  5
36F
330
2E7
100
AcDbDictionary
280
     1
281
     1
  3
ACAD_XREC_ROUNDTRIP
360
370
  0
DICTIONARY
  5
381
330
2F0
100
AcDbDictionary
280
     1
281
     1
  3
ACAD_XREC_ROUNDTRIP
360
382
  0
DICTIONARY
  5
367
330
2E3
100
AcDbDictionary
280
     1
281
     1
  3
ACAD_XREC_ROUNDTRIP
360
368
  0
DICTIONARY
  5
37D
330
2EE
100
AcDbDictionary
280
     1
281
     1
  3
ACAD_XREC_ROUNDTRIP
360
37E
  0
DICTIONARY
  5
37B
330
2ED
100
AcDbDictionary
280
     1
281
     1
  3
ACAD_XREC_ROUNDTRIP
360
37C
  0
DICTIONARY
  5
375
330
2EA
100
AcDbDictionary
280
     1
281
     1
  3
ACAD_XREC_ROUNDTRIP
360
376
  0
DICTIONARY
  5
377
330
2EB
100
AcDbDictionary
280
     1
281
     1
  3
ACAD_XREC_ROUNDTRIP
360
378
  0
DICTIONARY
  5
36D
330
2E6
100
AcDbDictionary
280
     1
281
     1
  3
ACAD_XREC_ROUNDTRIP
360
36E
  0
DICTIONARY
  5
361
330
2E0
100
AcDbDictionary
280
     1
281
     1
  3
ACAD_XREC_ROUNDTRIP
360
362
  0
DICTIONARY
  5
379
330
2EC
100
AcDbDictionary
280
     1
281
     1
  3
ACAD_XREC_ROUNDTRIP
360
37A
  0
XRECORD
  5
38A
102
{ACAD_REACTORS
330
389
102
}
330
389
100
AcDbXrecord
280
     1
102
DISPLAYNAME
  1
Imperial24
102
FLAGS
 90
        0
  0
XRECORD
  5
38E
102
{ACAD_REACTORS
330
38D
102
}
330
38D
100
AcDbXrecord
280
     1
102
SHADEPLOT
 70
     0
102
SHADEPLOTRESLEVEL
 70
     2
102
SHADEPLOTCUSTOMDPI
 70
   300
  0
XRECORD
  5
38C
102
{ACAD_REACTORS
330
38B
102
}
330
38B
100
AcDbXrecord
280
     1
102
SHADEPLOT
 70
     0
102
SHADEPLOTRESLEVEL
 70
     2
102
SHADEPLOTCUSTOMDPI
 70
   300
  0
XRECORD
  5
353
102
{ACAD_REACTORS
330
2CA
102
}
330
2CA
100
AcDbXrecord
280
     1
102
MATERIAL
148
0.0
149
0.0
149
0.0
 93
        0
 94
      127
282
     0
 72
     0
 77
     0
171
     0
175
     0
179
     0
273
     0
  0
XRECORD
  5
2CC
102
{ACAD_REACTORS
330
2CA
102
}
330
2CA
100
AcDbXrecord
280
     1
270
     1
271
     1
  0
XRECORD
  5
2CB
102
{ACAD_REACTORS
330
2CA
102
}
330
2CA
100
AcDbXrecord
280
     1
270
     1
271
     1
  0
XRECORD
  5
2CF
102
{ACAD_REACTORS
330
2CA
102
}
330
2CA
100
AcDbXrecord
280
     1
270
     1
271
     1
  0
XRECORD
  5
2CE
102
{ACAD_REACTORS
330
2CA
102
}
330
2CA
100
AcDbXrecord
280
     1
270
     1
271
     1
  0
XRECORD
  5
2D0
102
{ACAD_REACTORS
330
2CA
102
}
330
2CA
100
AcDbXrecord
280
     1
270
     1
271
     1
  0
XRECORD
  5
2CD
102
{ACAD_REACTORS
330
2CA
102
}
330
2CA
100
AcDbXrecord
280
     1
270
     1
271
     1
  0
XRECORD
  5
352
102
{ACAD_REACTORS
330
2C2
102
}
330
2C2
100
AcDbXrecord
280
     1
102
MATERIAL
148
0.0
149
0.0
149
0.0
 93
        0
 94
      127
282
     0
 72
     0
 77
     0
171
     0
175
     0
179
     0
273
     0
  0
XRECORD
  5
2C4
102
{ACAD_REACTORS
330
2C2
102
}
330
2C2
100
AcDbXrecord
280
     1
270
     1
271
     1
  0
XRECORD
  5
2C3
102
{ACAD_REACTORS
330
2C2
102
}
330
2C2
100
AcDbXrecord
280
     1
270
     1
271
     1
  0
XRECORD
  5
2C7
102
{ACAD_REACTORS
330
2C2
102
}
330
2C2
100
AcDbXrecord
280
     1
270
     1
271
     1
  0
XRECORD
  5
2C6
102
{ACAD_REACTORS
330
2C2
102
}
330
2C2
100
AcDbXrecord
280
     1
270
     1
271
     1
  0
XRECORD
  5
2C8
102
{ACAD_REACTORS
330
2C2
102
}
330
2C2
100
AcDbXrecord
280
     1
270
     1
271
     1
  0
XRECORD
  5
2C5
102
{ACAD_REACTORS
330
2C2
102
}
330
2C2
100
AcDbXrecord
280
     1
270
     1
271
     1
  0
XRECORD
  5
354
102
{ACAD_REACTORS
330
2D2
102
}
330
2D2
100
AcDbXrecord
280
     1
102
MATERIAL
148
0.0
149
0.0
149
0.0
 93
        0
 94
      127
282
     0
 72
     0
 77
     0
171
     0
175
     0
179
     0
273
     0
  0
XRECORD
  5
2D4
102
{ACAD_REACTORS
330
2D2
102
}
330
2D2
100
AcDbXrecord
280
     1
270
     1
271
     1
  0
XRECORD
  5
2D3
102
{ACAD_REACTORS
330
2D2
102
}
330
2D2
100
AcDbXrecord
280
     1
270
     1
271
     1
  0
XRECORD
  5
2D7
102
{ACAD_REACTORS
330
2D2
102
}
330
2D2
100
AcDbXrecord
280
     1
270
     1
271
     1
  0
XRECORD
  5
2D6
102
{ACAD_REACTORS
330
2D2
102
}
330
2D2
100
AcDbXrecord
280
     1
270
     1
271
     1
  0
XRECORD
  5
2D8
102
{ACAD_REACTORS
330
2D2
102
}
330
2D2
100
AcDbXrecord
280
     1
270
     1
271
     1
  0
XRECORD
  5
2D5
102
{ACAD_REACTORS
330
2D2
102
}
330
2D2
100
AcDbXrecord
280
     1
270
     1
271
     1
  0
XRECORD
  5
388
102
{ACAD_REACTORS
330
387
102
}
330
387
100
AcDbXrecord
280
     1
102
DISPLAYNAME
  1
Imperial24
102
FLAGS
 90
        0
  0
CELLSTYLEMAP
  5
34F
102
{ACAD_REACTORS
330
34E
102
}
330
34E
100
AcDbCellStyleMap
 90
        3
300
CELLSTYLE
  1
TABLEFORMAT_BEGIN
 90
        5
170
     1
 91
        0
 92
    32768
 62
   257
 93
        1
300
CONTENTFORMAT
  1
CONTENTFORMAT_BEGIN
 90
        0
 91
        0
 92
      512
 93
        0
300

 40
0.0
140
1.0
 94
        5
 62
     0
340
305
144
0.25
309
CONTENTFORMAT_END
171
     0
 94
        0
309
TABLEFORMAT_END
  1
CELLSTYLE_BEGIN
 90
        1
 91
        1
300
_TITLE
309
CELLSTYLE_END
300
CELLSTYLE
  1
TABLEFORMAT_BEGIN
 90
        5
170
     1
 91
        0
 92
        0
 62
   257
 93
        1
300
CONTENTFORMAT
  1
CONTENTFORMAT_BEGIN
 90
        0
 91
        0
 92
      512
 93
        0
300

 40
0.0
140
1.0
 94
        5
 62
     0
340
305
144
0.18
309
CONTENTFORMAT_END
171
     0
 94
        0
309
TABLEFORMAT_END
  1
CELLSTYLE_BEGIN
 90
        2
 91
        1
300
_HEADER
309
CELLSTYLE_END
300
CELLSTYLE
  1
TABLEFORMAT_BEGIN
 90
        5
170
     1
 91
        0
 92
        0
 62
   257
 93
        1
300
CONTENTFORMAT
  1
CONTENTFORMAT_BEGIN
 90
        0
 91
        0
 92
      512
 93
        0
300

 40
0.0
140
1.0
 94
        2
 62
     0
340
305
144
0.18
309
CONTENTFORMAT_END
171
     0
 94
        0
309
TABLEFORMAT_END
  1
CELLSTYLE_BEGIN
 90
        3
 91
        2
300
_DATA
309
CELLSTYLE_END
  0
XRECORD
  5
385
102
{ACAD_REACTORS
330
34E
102
}
330
34E
100
AcDbXrecord
280
     1
102
ACAD_ROUNDTRIP_PRE2007_TABLESTYLE
 90
      512
 91
        0
  1

 92
      512
 93
        0
  2

 94
      512
 95
        0
  3

  0
XRECORD
  5
360
102
{ACAD_REACTORS
330
35F
102
}
330
35F
100
AcDbXrecord
280
     1
102
RTVSPost2010Prop28
280
     1
102
RTVSPost2010PropOp28
 70
     1
102
RTVSPost2010Prop29
280
     1
102
RTVSPost2010PropOp29
 70
     1
102
RTVSPost2010Prop30
280
     0
102
RTVSPost2010PropOp30
 70
     1
102
RTVSPost2010Prop31
280
     0
102
RTVSPost2010PropOp31
 70
     1
102
RTVSPost2010Prop32
280
     0
102
RTVSPost2010PropOp32
 70
     1
102
RTVSPost2010Prop33
280
     0
102
RTVSPost2010PropOp33
 70
     1
102
RTVSPost2010Prop34
280
     0
102
RTVSPost2010PropOp34
 70
     1
102
RTVSPost2010Prop35
280
     0
102
RTVSPost2010PropOp35
 70
     1
102
RTVSPost2010Prop36
280
     0
102
RTVSPost2010PropOp36
 70
     1
102
RTVSPost2010Prop37
 90
       50
102
RTVSPost2010PropOp37
 70
     1
102
RTVSPost2010Prop38
140
0.0
102
RTVSPost2010PropOp38
 70
     1
102
RTVSPost2010Prop39
140
1.0
102
RTVSPost2010PropOp39
 70
     1
102
RTVSPost2010Prop40
 90
        0
102
RTVSPost2010PropOp40
 70
     1
102
RTVSPost2010Prop41ColorIndex
 90
       18
102
RTVSPost2010Prop41ColorRGB
 90
        0
102
RTVSPost2010PropOp41
 70
     1
102
RTVSPost2010Prop42
 90
       50
102
RTVSPost2010PropOp42
 70
     1
102
RTVSPost2010Prop43
 90
        3
102
RTVSPost2010PropOp43
 70
     1
102
RTVSPost2010Prop44ColorIndex
 90
        5
102
RTVSPost2010Prop44ColorRGB
 90
      255
102
RTVSPost2010PropOp44
 70
     1
102
RTVSPost2010Prop45
280
     0
102
RTVSPost2010PropOp45
 70
     1
102
RTVSPost2010Prop46
 90
       50
102
RTVSPost2010PropOp46
 70
     1
102
RTVSPost2010Prop47
 90
       50
102
RTVSPost2010PropOp47
 70
     1
102
RTVSPost2010Prop48
 90
       50
102
RTVSPost2010PropOp48
 70
     1
102
RTVSPost2010Prop49
280
     0
102
RTVSPost2010PropOp49
 70
     1
102
RTVSPost2010Prop50
 90
       50
102
RTVSPost2010PropOp50
 70
     1
102
RTVSPost2010Prop51ColorIndex
 90
      256
102
RTVSPost2010Prop51ColorRGB
 90
-16777216
102
RTVSPost2010PropOp51
 70
     0
102
RTVSPost2010Prop52
140
1.0
102
RTVSPost2010PropOp52
 70
     0
102
RTVSPost2010Prop53
 90
        2
102
RTVSPost2010PropOp53
 70
     1
102
RTVSPost2010Prop54
  1
strokes_ogs.tif
102
RTVSPost2010PropOp54
 70
     1
102
RTVSPost2010Prop55
280
     0
102
RTVSPost2010PropOp55
 70
     1
102
RTVSPost2010Prop56
140
1.0
102
RTVSPost2010PropOp56
 70
     1
102
RTVSPost2010Prop57
140
1.0
102
RTVSPost2010PropOp57
 70
     1
102
RTVSPropertyOp0
 70
     1
102
RTVSPropertyOp1
 70
     1
102
RTVSPropertyOp2
 70
     1
102
RTVSPropertyOp3
 70
     1
102
RTVSPropertyOp4
 70
     1
102
RTVSPropertyOp5
 70
     1
102
RTVSPropertyOp6
 70
     1
102
RTVSPropertyOp7
 70
     1
102
RTVSPropertyOp8
 70
     1
102
RTVSPropertyOp9
 70
     1
102
RTVSPropertyOp10
 70
     1
102
RTVSPropertyOp11
 70
     1
102
RTVSPropertyOp12
 70
     1
102
RTVSPropertyOp13
 70
     1
102
RTVSPropertyOp14
 70
     1
102
RTVSPropertyOp15
 70
     1
102
RTVSPropertyOp16
 70
     1
102
RTVSPropertyOp17
 70
     1
102
RTVSPropertyOp18
 70
     1
102
RTVSPropertyOp19
 70
     1
102
RTVSPropertyOp20
 70
     1
102
RTVSPropertyOp21
 70
     1
102
RTVSPropertyOp22
 70
     1
102
RTVSPropertyOp23
 70
     1
102
RTVSPropertyOp24
 70
     1
102
RTVSPropertyOp25
 70
     1
102
RTVSPropertyOp26
 70
     1
102
RTVSPropertyOp27
 70
     1
102
RTVSPropertyOp28
 70
     1
102
RTVSPropertyOp29
 70
     1
102
RTVSPropertyOp30
 70
     1
102
RTVSPropertyOp31
 70
     1
102
RTVSPropertyOp32
 70
     1
102
RTVSPropertyOp33
 70
     1
102
RTVSPropertyOp34
 70
     1
102
RTVSPropertyOp35
 70
     1
102
RTVSPropertyOp36
 70
     1
102
RTVSPropertyOp37
 70
     1
102
RTVSPropertyOp38
 70
     1
102
RTVSPropertyOp39
 70
     1
102
RTVSPropertyOp40
 70
     1
102
RTVSPropertyOp41
 70
     1
102
RTVSPropertyOp42
 70
     1
102
RTVSPropertyOp43
 70
     1
102
RTVSPropertyOp44
 70
     1
102
RTVSPropertyOp45
 70
     1
102
RTVSPropertyOp46
 70
     1
102
RTVSPropertyOp47
 70
     1
102
RTVSPropertyOp48
 70
     1
102
RTVSPropertyOp49
 70
     1
102
RTVSPropertyOp50
 70
     1
102
RTVSPropertyOp51
 70
     0
102
RTVSPropertyOp52
 70
     0
102
RTVSPropertyOp53
 70
     1
102
RTVSPropertyOp54
 70
     1
102
RTVSPropertyOp55
 70
     1
102
RTVSPropertyOp56
 70
     1
102
RTVSPropertyOp57
 70
     1
102
RTVSPropertyOp58
 70
     1
102
RTVSPropertyOp59
 70
     1
102
RTVSPropertyOp60
 70
     1
102
RTVSPropertyOp61
 70
     1
102
RTVSPropertyOp62
 70
     1
  0
XRECORD
  5
35E
102
{ACAD_REACTORS
330
35D
102
}
330
35D
100
AcDbXrecord
280
     1
102
RTVSPost2010Prop28
280
     0
102
RTVSPost2010PropOp28
 70
     1
102
RTVSPost2010Prop29
280
     1
102
RTVSPost2010PropOp29
 70
     1
102
RTVSPost2010Prop30
280
     1
102
RTVSPost2010PropOp30
 70
     1
102
RTVSPost2010Prop31
280
     0
102
RTVSPost2010PropOp31
 70
     1
102
RTVSPost2010Prop32
280
     0
102
RTVSPost2010PropOp32
 70
     1
102
RTVSPost2010Prop33
280
     0
102
RTVSPost2010PropOp33
 70
     1
102
RTVSPost2010Prop34
280
     0
102
RTVSPost2010PropOp34
 70
     1
102
RTVSPost2010Prop35
280
     0
102
RTVSPost2010PropOp35
 70
     1
102
RTVSPost2010Prop36
280
     0
102
RTVSPost2010PropOp36
 70
     1
102
RTVSPost2010Prop37
 90
       50
102
RTVSPost2010PropOp37
 70
     1
102
RTVSPost2010Prop38
140
0.0
102
RTVSPost2010PropOp38
 70
     1
102
RTVSPost2010Prop39
140
1.0
102
RTVSPost2010PropOp39
 70
     1
102
RTVSPost2010Prop40
 90
        0
102
RTVSPost2010PropOp40
 70
     1
102
RTVSPost2010Prop41ColorIndex
 90
       18
102
RTVSPost2010Prop41ColorRGB
 90
        0
102
RTVSPost2010PropOp41
 70
     1
102
RTVSPost2010Prop42
 90
       50
102
RTVSPost2010PropOp42
 70
     1
102
RTVSPost2010Prop43
 90
        3
102
RTVSPost2010PropOp43
 70
     1
102
RTVSPost2010Prop44ColorIndex
 90
        5
102
RTVSPost2010Prop44ColorRGB
 90
      255
102
RTVSPost2010PropOp44
 70
     1
102
RTVSPost2010Prop45
280
     0
102
RTVSPost2010PropOp45
 70
     1
102
RTVSPost2010Prop46
 90
       50
102
RTVSPost2010PropOp46
 70
     1
102
RTVSPost2010Prop47
 90
       50
102
RTVSPost2010PropOp47
 70
     1
102
RTVSPost2010Prop48
 90
       50
102
RTVSPost2010PropOp48
 70
     1
102
RTVSPost2010Prop49
280
     0
102
RTVSPost2010PropOp49
 70
     1
102
RTVSPost2010Prop50
 90
       50
102
RTVSPost2010PropOp50
 70
     1
102
RTVSPost2010Prop51ColorIndex
 90
      256
102
RTVSPost2010Prop51ColorRGB
 90
-16777216
102
RTVSPost2010PropOp51
 70
     0
102
RTVSPost2010Prop52
140
1.0
102
RTVSPost2010PropOp52
 70
     0
102
RTVSPost2010Prop53
 90
        2
102
RTVSPost2010PropOp53
 70
     1
102
RTVSPost2010Prop54
  1
strokes_ogs.tif
102
RTVSPost2010PropOp54
 70
     1
102
RTVSPost2010Prop55
280
     0
102
RTVSPost2010PropOp55
 70
     1
102
RTVSPost2010Prop56
140
1.0
102
RTVSPost2010PropOp56
 70
     1
102
RTVSPost2010Prop57
140
1.0
102
RTVSPost2010PropOp57
 70
     1
102
RTVSPropertyOp0
 70
     1
102
RTVSPropertyOp1
 70
     1
102
RTVSPropertyOp2
 70
     1
102
RTVSPropertyOp3
 70
     1
102
RTVSPropertyOp4
 70
     1
102
RTVSPropertyOp5
 70
     1
102
RTVSPropertyOp6
 70
     1
102
RTVSPropertyOp7
 70
     1
102
RTVSPropertyOp8
 70
     1
102
RTVSPropertyOp9
 70
     1
102
RTVSPropertyOp10
 70
     1
102
RTVSPropertyOp11
 70
     1
102
RTVSPropertyOp12
 70
     1
102
RTVSPropertyOp13
 70
     1
102
RTVSPropertyOp14
 70
     1
102
RTVSPropertyOp15
 70
     1
102
RTVSPropertyOp16
 70
     1
102
RTVSPropertyOp17
 70
     1
102
RTVSPropertyOp18
 70
     1
102
RTVSPropertyOp19
 70
     1
102
RTVSPropertyOp20
 70
     1
102
RTVSPropertyOp21
 70
     1
102
RTVSPropertyOp22
 70
     1
102
RTVSPropertyOp23
 70
     1
102
RTVSPropertyOp24
 70
     1
102
RTVSPropertyOp25
 70
     1
102
RTVSPropertyOp26
 70
     1
102
RTVSPropertyOp27
 70
     1
102
RTVSPropertyOp28
 70
     1
102
RTVSPropertyOp29
 70
     1
102
RTVSPropertyOp30
 70
     1
102
RTVSPropertyOp31
 70
     1
102
RTVSPropertyOp32
 70
     1
102
RTVSPropertyOp33
 70
     1
102
RTVSPropertyOp34
 70
     1
102
RTVSPropertyOp35
 70
     1
102
RTVSPropertyOp36
 70
     1
102
RTVSPropertyOp37
 70
     1
102
RTVSPropertyOp38
 70
     1
102
RTVSPropertyOp39
 70
     1
102
RTVSPropertyOp40
 70
     1
102
RTVSPropertyOp41
 70
     1
102
RTVSPropertyOp42
 70
     1
102
RTVSPropertyOp43
 70
     1
102
RTVSPropertyOp44
 70
     1
102
RTVSPropertyOp45
 70
     1
102
RTVSPropertyOp46
 70
     1
102
RTVSPropertyOp47
 70
     1
102
RTVSPropertyOp48
 70
     1
102
RTVSPropertyOp49
 70
     1
102
RTVSPropertyOp50
 70
     1
102
RTVSPropertyOp51
 70
     0
102
RTVSPropertyOp52
 70
     0
102
RTVSPropertyOp53
 70
     1
102
RTVSPropertyOp54
 70
     1
102
RTVSPropertyOp55
 70
     1
102
RTVSPropertyOp56
 70
     1
102
RTVSPropertyOp57
 70
     1
102
RTVSPropertyOp58
 70
     1
102
RTVSPropertyOp59
 70
     1
102
RTVSPropertyOp60
 70
     1
102
RTVSPropertyOp61
 70
     1
102
RTVSPropertyOp62
 70
     1
  0
XRECORD
  5
36C
102
{ACAD_REACTORS
330
36B
102
}
330
36B
100
AcDbXrecord
280
     1
102
RTVSPost2010Prop28
280
     0
102
RTVSPost2010PropOp28
 70
     1
102
RTVSPost2010Prop29
280
     1
102
RTVSPost2010PropOp29
 70
     1
102
RTVSPost2010Prop30
280
     1
102
RTVSPost2010PropOp30
 70
     1
102
RTVSPost2010Prop31
280
     0
102
RTVSPost2010PropOp31
 70
     1
102
RTVSPost2010Prop32
280
     0
102
RTVSPost2010PropOp32
 70
     1
102
RTVSPost2010Prop33
280
     0
102
RTVSPost2010PropOp33
 70
     1
102
RTVSPost2010Prop34
280
     0
102
RTVSPost2010PropOp34
 70
     1
102
RTVSPost2010Prop35
280
     0
102
RTVSPost2010PropOp35
 70
     1
102
RTVSPost2010Prop36
280
     0
102
RTVSPost2010PropOp36
 70
     1
102
RTVSPost2010Prop37
 90
       50
102
RTVSPost2010PropOp37
 70
     1
102
RTVSPost2010Prop38
140
0.0
102
RTVSPost2010PropOp38
 70
     1
102
RTVSPost2010Prop39
140
1.0
102
RTVSPost2010PropOp39
 70
     1
102
RTVSPost2010Prop40
 90
        0
102
RTVSPost2010PropOp40
 70
     1
102
RTVSPost2010Prop41ColorIndex
 90
       18
102
RTVSPost2010Prop41ColorRGB
 90
        0
102
RTVSPost2010PropOp41
 70
     1
102
RTVSPost2010Prop42
 90
       50
102
RTVSPost2010PropOp42
 70
     1
102
RTVSPost2010Prop43
 90
        3
102
RTVSPost2010PropOp43
 70
     1
102
RTVSPost2010Prop44ColorIndex
 90
        5
102
RTVSPost2010Prop44ColorRGB
 90
      255
102
RTVSPost2010PropOp44
 70
     1
102
RTVSPost2010Prop45
280
     0
102
RTVSPost2010PropOp45
 70
     1
102
RTVSPost2010Prop46
 90
       50
102
RTVSPost2010PropOp46
 70
     1
102
RTVSPost2010Prop47
 90
       50
102
RTVSPost2010PropOp47
 70
     1
102
RTVSPost2010Prop48
 90
       50
102
RTVSPost2010PropOp48
 70
     1
102
RTVSPost2010Prop49
280
     0
102
RTVSPost2010PropOp49
 70
     1
102
RTVSPost2010Prop50
 90
       50
102
RTVSPost2010PropOp50
 70
     1
102
RTVSPost2010Prop51ColorIndex
 90
      256
102
RTVSPost2010Prop51ColorRGB
 90
-16777216
102
RTVSPost2010PropOp51
 70
     0
102
RTVSPost2010Prop52
140
1.0
102
RTVSPost2010PropOp52
 70
     0
102
RTVSPost2010Prop53
 90
        2
102
RTVSPost2010PropOp53
 70
     1
102
RTVSPost2010Prop54
  1
strokes_ogs.tif
102
RTVSPost2010PropOp54
 70
     1
102
RTVSPost2010Prop55
280
     0
102
RTVSPost2010PropOp55
 70
     1
102
RTVSPost2010Prop56
140
1.0
102
RTVSPost2010PropOp56
 70
     1
102
RTVSPost2010Prop57
140
1.0
102
RTVSPost2010PropOp57
 70
     1
102
RTVSPropertyOp0
 70
     1
102
RTVSPropertyOp1
 70
     1
102
RTVSPropertyOp2
 70
     1
102
RTVSPropertyOp3
 70
     1
102
RTVSPropertyOp4
 70
     1
102
RTVSPropertyOp5
 70
     1
102
RTVSPropertyOp6
 70
     1
102
RTVSPropertyOp7
 70
     1
102
RTVSPropertyOp8
 70
     1
102
RTVSPropertyOp9
 70
     1
102
RTVSPropertyOp10
 70
     1
102
RTVSPropertyOp11
 70
     1
102
RTVSPropertyOp12
 70
     1
102
RTVSPropertyOp13
 70
     1
102
RTVSPropertyOp14
 70
     1
102
RTVSPropertyOp15
 70
     1
102
RTVSPropertyOp16
 70
     1
102
RTVSPropertyOp17
 70
     1
102
RTVSPropertyOp18
 70
     1
102
RTVSPropertyOp19
 70
     1
102
RTVSPropertyOp20
 70
     1
102
RTVSPropertyOp21
 70
     1
102
RTVSPropertyOp22
 70
     1
102
RTVSPropertyOp23
 70
     1
102
RTVSPropertyOp24
 70
     1
102
RTVSPropertyOp25
 70
     1
102
RTVSPropertyOp26
 70
     1
102
RTVSPropertyOp27
 70
     1
102
RTVSPropertyOp28
 70
     1
102
RTVSPropertyOp29
 70
     1
102
RTVSPropertyOp30
 70
     1
102
RTVSPropertyOp31
 70
     1
102
RTVSPropertyOp32
 70
     1
102
RTVSPropertyOp33
 70
     1
102
RTVSPropertyOp34
 70
     1
102
RTVSPropertyOp35
 70
     1
102
RTVSPropertyOp36
 70
     1
102
RTVSPropertyOp37
 70
     1
102
RTVSPropertyOp38
 70
     1
102
RTVSPropertyOp39
 70
     1
102
RTVSPropertyOp40
 70
     1
102
RTVSPropertyOp41
 70
     1
102
RTVSPropertyOp42
 70
     1
102
RTVSPropertyOp43
 70
     1
102
RTVSPropertyOp44
 70
     1
102
RTVSPropertyOp45
 70
     1
102
RTVSPropertyOp46
 70
     1
102
RTVSPropertyOp47
 70
     1
102
RTVSPropertyOp48
 70
     1
102
RTVSPropertyOp49
 70
     1
102
RTVSPropertyOp50
 70
     1
102
RTVSPropertyOp51
 70
     0
102
RTVSPropertyOp52
 70
     0
102
RTVSPropertyOp53
 70
     1
102
RTVSPropertyOp54
 70
     1
102
RTVSPropertyOp55
 70
     1
102
RTVSPropertyOp56
 70
     1
102
RTVSPropertyOp57
 70
     1
102
RTVSPropertyOp58
 70
     1
102
RTVSPropertyOp59
 70
     1
102
RTVSPropertyOp60
 70
     1
102
RTVSPropertyOp61
 70
     1
102
RTVSPropertyOp62
 70
     1
  0
XRECORD
  5
374
102
{ACAD_REACTORS
330
373
102
}
330
373
100
AcDbXrecord
280
     1
102
RTVSPost2010Prop28
280
     0
102
RTVSPost2010PropOp28
 70
     1
102
RTVSPost2010Prop29
280
     1
102
RTVSPost2010PropOp29
 70
     1
102
RTVSPost2010Prop30
280
     1
102
RTVSPost2010PropOp30
 70
     1
102
RTVSPost2010Prop31
280
     0
102
RTVSPost2010PropOp31
 70
     1
102
RTVSPost2010Prop32
280
     0
102
RTVSPost2010PropOp32
 70
     1
102
RTVSPost2010Prop33
280
     0
102
RTVSPost2010PropOp33
 70
     1
102
RTVSPost2010Prop34
280
     0
102
RTVSPost2010PropOp34
 70
     1
102
RTVSPost2010Prop35
280
     0
102
RTVSPost2010PropOp35
 70
     1
102
RTVSPost2010Prop36
280
     0
102
RTVSPost2010PropOp36
 70
     1
102
RTVSPost2010Prop37
 90
       50
102
RTVSPost2010PropOp37
 70
     1
102
RTVSPost2010Prop38
140
0.0
102
RTVSPost2010PropOp38
 70
     1
102
RTVSPost2010Prop39
140
1.0
102
RTVSPost2010PropOp39
 70
     1
102
RTVSPost2010Prop40
 90
        0
102
RTVSPost2010PropOp40
 70
     1
102
RTVSPost2010Prop41ColorIndex
 90
       18
102
RTVSPost2010Prop41ColorRGB
 90
        0
102
RTVSPost2010PropOp41
 70
     1
102
RTVSPost2010Prop42
 90
       50
102
RTVSPost2010PropOp42
 70
     1
102
RTVSPost2010Prop43
 90
        3
102
RTVSPost2010PropOp43
 70
     1
102
RTVSPost2010Prop44ColorIndex
 90
        5
102
RTVSPost2010Prop44ColorRGB
 90
      255
102
RTVSPost2010PropOp44
 70
     1
102
RTVSPost2010Prop45
280
     0
102
RTVSPost2010PropOp45
 70
     1
102
RTVSPost2010Prop46
 90
       50
102
RTVSPost2010PropOp46
 70
     1
102
RTVSPost2010Prop47
 90
       50
102
RTVSPost2010PropOp47
 70
     1
102
RTVSPost2010Prop48
 90
       50
102
RTVSPost2010PropOp48
 70
     1
102
RTVSPost2010Prop49
280
     0
102
RTVSPost2010PropOp49
 70
     1
102
RTVSPost2010Prop50
 90
       50
102
RTVSPost2010PropOp50
 70
     1
102
RTVSPost2010Prop51ColorIndex
 90
      256
102
RTVSPost2010Prop51ColorRGB
 90
-16777216
102
RTVSPost2010PropOp51
 70
     0
102
RTVSPost2010Prop52
140
1.0
102
RTVSPost2010PropOp52
 70
     0
102
RTVSPost2010Prop53
 90
        2
102
RTVSPost2010PropOp53
 70
     1
102
RTVSPost2010Prop54
  1
strokes_ogs.tif
102
RTVSPost2010PropOp54
 70
     1
102
RTVSPost2010Prop55
280
     0
102
RTVSPost2010PropOp55
 70
     1
102
RTVSPost2010Prop56
140
1.0
102
RTVSPost2010PropOp56
 70
     1
102
RTVSPost2010Prop57
140
1.0
102
RTVSPost2010PropOp57
 70
     1
102
RTVSPropertyOp0
 70
     1
102
RTVSPropertyOp1
 70
     1
102
RTVSPropertyOp2
 70
     1
102
RTVSPropertyOp3
 70
     1
102
RTVSPropertyOp4
 70
     1
102
RTVSPropertyOp5
 70
     1
102
RTVSPropertyOp6
 70
     1
102
RTVSPropertyOp7
 70
     1
102
RTVSPropertyOp8
 70
     1
102
RTVSPropertyOp9
 70
     1
102
RTVSPropertyOp10
 70
     1
102
RTVSPropertyOp11
 70
     1
102
RTVSPropertyOp12
 70
     1
102
RTVSPropertyOp13
 70
     1
102
RTVSPropertyOp14
 70
     1
102
RTVSPropertyOp15
 70
     1
102
RTVSPropertyOp16
 70
     1
102
RTVSPropertyOp17
 70
     1
102
RTVSPropertyOp18
 70
     1
102
RTVSPropertyOp19
 70
     1
102
RTVSPropertyOp20
 70
     1
102
RTVSPropertyOp21
 70
     1
102
RTVSPropertyOp22
 70
     1
102
RTVSPropertyOp23
 70
     1
102
RTVSPropertyOp24
 70
     1
102
RTVSPropertyOp25
 70
     1
102
RTVSPropertyOp26
 70
     1
102
RTVSPropertyOp27
 70
     1
102
RTVSPropertyOp28
 70
     1
102
RTVSPropertyOp29
 70
     1
102
RTVSPropertyOp30
 70
     1
102
RTVSPropertyOp31
 70
     1
102
RTVSPropertyOp32
 70
     1
102
RTVSPropertyOp33
 70
     1
102
RTVSPropertyOp34
 70
     1
102
RTVSPropertyOp35
 70
     1
102
RTVSPropertyOp36
 70
     1
102
RTVSPropertyOp37
 70
     1
102
RTVSPropertyOp38
 70
     1
102
RTVSPropertyOp39
 70
     1
102
RTVSPropertyOp40
 70
     1
102
RTVSPropertyOp41
 70
     1
102
RTVSPropertyOp42
 70
     1
102
RTVSPropertyOp43
 70
     1
102
RTVSPropertyOp44
 70
     1
102
RTVSPropertyOp45
 70
     1
102
RTVSPropertyOp46
 70
     1
102
RTVSPropertyOp47
 70
     1
102
RTVSPropertyOp48
 70
     1
102
RTVSPropertyOp49
 70
     1
102
RTVSPropertyOp50
 70
     1
102
RTVSPropertyOp51
 70
     0
102
RTVSPropertyOp52
 70
     0
102
RTVSPropertyOp53
 70
     1
102
RTVSPropertyOp54
 70
     1
102
RTVSPropertyOp55
 70
     1
102
RTVSPropertyOp56
 70
     1
102
RTVSPropertyOp57
 70
     1
102
RTVSPropertyOp58
 70
     1
102
RTVSPropertyOp59
 70
     1
102
RTVSPropertyOp60
 70
     1
102
RTVSPropertyOp61
 70
     1
102
RTVSPropertyOp62
 70
     1
  0
XRECORD
  5
366
102
{ACAD_REACTORS
330
365
102
}
330
365
100
AcDbXrecord
280
     1
102
RTVSPost2010Prop28
280
     0
102
RTVSPost2010PropOp28
 70
     1
102
RTVSPost2010Prop29
280
     1
102
RTVSPost2010PropOp29
 70
     1
102
RTVSPost2010Prop30
280
     1
102
RTVSPost2010PropOp30
 70
     1
102
RTVSPost2010Prop31
280
     0
102
RTVSPost2010PropOp31
 70
     1
102
RTVSPost2010Prop32
280
     0
102
RTVSPost2010PropOp32
 70
     1
102
RTVSPost2010Prop33
280
     0
102
RTVSPost2010PropOp33
 70
     1
102
RTVSPost2010Prop34
280
     0
102
RTVSPost2010PropOp34
 70
     1
102
RTVSPost2010Prop35
280
     0
102
RTVSPost2010PropOp35
 70
     1
102
RTVSPost2010Prop36
280
     0
102
RTVSPost2010PropOp36
 70
     1
102
RTVSPost2010Prop37
 90
       50
102
RTVSPost2010PropOp37
 70
     1
102
RTVSPost2010Prop38
140
0.0
102
RTVSPost2010PropOp38
 70
     1
102
RTVSPost2010Prop39
140
1.0
102
RTVSPost2010PropOp39
 70
     1
102
RTVSPost2010Prop40
 90
        0
102
RTVSPost2010PropOp40
 70
     1
102
RTVSPost2010Prop41ColorIndex
 90
       18
102
RTVSPost2010Prop41ColorRGB
 90
        0
102
RTVSPost2010PropOp41
 70
     1
102
RTVSPost2010Prop42
 90
       50
102
RTVSPost2010PropOp42
 70
     1
102
RTVSPost2010Prop43
 90
        3
102
RTVSPost2010PropOp43
 70
     1
102
RTVSPost2010Prop44ColorIndex
 90
        5
102
RTVSPost2010Prop44ColorRGB
 90
      255
102
RTVSPost2010PropOp44
 70
     1
102
RTVSPost2010Prop45
280
     0
102
RTVSPost2010PropOp45
 70
     1
102
RTVSPost2010Prop46
 90
       50
102
RTVSPost2010PropOp46
 70
     1
102
RTVSPost2010Prop47
 90
       50
102
RTVSPost2010PropOp47
 70
     1
102
RTVSPost2010Prop48
 90
       50
102
RTVSPost2010PropOp48
 70
     1
102
RTVSPost2010Prop49
280
     0
102
RTVSPost2010PropOp49
 70
     1
102
RTVSPost2010Prop50
 90
       50
102
RTVSPost2010PropOp50
 70
     1
102
RTVSPost2010Prop51ColorIndex
 90
      256
102
RTVSPost2010Prop51ColorRGB
 90
-16777216
102
RTVSPost2010PropOp51
 70
     0
102
RTVSPost2010Prop52
140
1.0
102
RTVSPost2010PropOp52
 70
     0
102
RTVSPost2010Prop53
 90
        2
102
RTVSPost2010PropOp53
 70
     1
102
RTVSPost2010Prop54
  1
strokes_ogs.tif
102
RTVSPost2010PropOp54
 70
     1
102
RTVSPost2010Prop55
280
     0
102
RTVSPost2010PropOp55
 70
     1
102
RTVSPost2010Prop56
140
1.0
102
RTVSPost2010PropOp56
 70
     1
102
RTVSPost2010Prop57
140
1.0
102
RTVSPost2010PropOp57
 70
     1
102
RTVSPropertyOp0
 70
     1
102
RTVSPropertyOp1
 70
     1
102
RTVSPropertyOp2
 70
     1
102
RTVSPropertyOp3
 70
     1
102
RTVSPropertyOp4
 70
     1
102
RTVSPropertyOp5
 70
     1
102
RTVSPropertyOp6
 70
     1
102
RTVSPropertyOp7
 70
     1
102
RTVSPropertyOp8
 70
     1
102
RTVSPropertyOp9
 70
     1
102
RTVSPropertyOp10
 70
     1
102
RTVSPropertyOp11
 70
     1
102
RTVSPropertyOp12
 70
     1
102
RTVSPropertyOp13
 70
     1
102
RTVSPropertyOp14
 70
     1
102
RTVSPropertyOp15
 70
     1
102
RTVSPropertyOp16
 70
     1
102
RTVSPropertyOp17
 70
     1
102
RTVSPropertyOp18
 70
     1
102
RTVSPropertyOp19
 70
     1
102
RTVSPropertyOp20
 70
     1
102
RTVSPropertyOp21
 70
     1
102
RTVSPropertyOp22
 70
     1
102
RTVSPropertyOp23
 70
     1
102
RTVSPropertyOp24
 70
     1
102
RTVSPropertyOp25
 70
     1
102
RTVSPropertyOp26
 70
     1
102
RTVSPropertyOp27
 70
     1
102
RTVSPropertyOp28
 70
     1
102
RTVSPropertyOp29
 70
     1
102
RTVSPropertyOp30
 70
     1
102
RTVSPropertyOp31
 70
     1
102
RTVSPropertyOp32
 70
     1
102
RTVSPropertyOp33
 70
     1
102
RTVSPropertyOp34
 70
     1
102
RTVSPropertyOp35
 70
     1
102
RTVSPropertyOp36
 70
     1
102
RTVSPropertyOp37
 70
     1
102
RTVSPropertyOp38
 70
     1
102
RTVSPropertyOp39
 70
     1
102
RTVSPropertyOp40
 70
     1
102
RTVSPropertyOp41
 70
     1
102
RTVSPropertyOp42
 70
     1
102
RTVSPropertyOp43
 70
     1
102
RTVSPropertyOp44
 70
     1
102
RTVSPropertyOp45
 70
     1
102
RTVSPropertyOp46
 70
     1
102
RTVSPropertyOp47
 70
     1
102
RTVSPropertyOp48
 70
     1
102
RTVSPropertyOp49
 70
     1
102
RTVSPropertyOp50
 70
     1
102
RTVSPropertyOp51
 70
     0
102
RTVSPropertyOp52
 70
     0
102
RTVSPropertyOp53
 70
     1
102
RTVSPropertyOp54
 70
     1
102
RTVSPropertyOp55
 70
     1
102
RTVSPropertyOp56
 70
     1
102
RTVSPropertyOp57
 70
     1
102
RTVSPropertyOp58
 70
     1
102
RTVSPropertyOp59
 70
     1
102
RTVSPropertyOp60
 70
     1
102
RTVSPropertyOp61
 70
     1
102
RTVSPropertyOp62
 70
     1
  0
XRECORD
  5
36A
102
{ACAD_REACTORS
330
369
102
}
330
369
100
AcDbXrecord
280
     1
102
RTVSPost2010Prop28
280
     0
102
RTVSPost2010PropOp28
 70
     1
102
RTVSPost2010Prop29
280
     1
102
RTVSPost2010PropOp29
 70
     1
102
RTVSPost2010Prop30
280
     1
102
RTVSPost2010PropOp30
 70
     1
102
RTVSPost2010Prop31
280
     0
102
RTVSPost2010PropOp31
 70
     1
102
RTVSPost2010Prop32
280
     0
102
RTVSPost2010PropOp32
 70
     1
102
RTVSPost2010Prop33
280
     0
102
RTVSPost2010PropOp33
 70
     1
102
RTVSPost2010Prop34
280
     0
102
RTVSPost2010PropOp34
 70
     1
102
RTVSPost2010Prop35
280
     0
102
RTVSPost2010PropOp35
 70
     1
102
RTVSPost2010Prop36
280
     0
102
RTVSPost2010PropOp36
 70
     1
102
RTVSPost2010Prop37
 90
       50
102
RTVSPost2010PropOp37
 70
     1
102
RTVSPost2010Prop38
140
0.0
102
RTVSPost2010PropOp38
 70
     1
102
RTVSPost2010Prop39
140
1.0
102
RTVSPost2010PropOp39
 70
     1
102
RTVSPost2010Prop40
 90
        0
102
RTVSPost2010PropOp40
 70
     1
102
RTVSPost2010Prop41ColorIndex
 90
       18
102
RTVSPost2010Prop41ColorRGB
 90
        0
102
RTVSPost2010PropOp41
 70
     1
102
RTVSPost2010Prop42
 90
       50
102
RTVSPost2010PropOp42
 70
     1
102
RTVSPost2010Prop43
 90
        3
102
RTVSPost2010PropOp43
 70
     1
102
RTVSPost2010Prop44ColorIndex
 90
        5
102
RTVSPost2010Prop44ColorRGB
 90
      255
102
RTVSPost2010PropOp44
 70
     1
102
RTVSPost2010Prop45
280
     0
102
RTVSPost2010PropOp45
 70
     1
102
RTVSPost2010Prop46
 90
       50
102
RTVSPost2010PropOp46
 70
     1
102
RTVSPost2010Prop47
 90
       50
102
RTVSPost2010PropOp47
 70
     1
102
RTVSPost2010Prop48
 90
       50
102
RTVSPost2010PropOp48
 70
     1
102
RTVSPost2010Prop49
280
     0
102
RTVSPost2010PropOp49
 70
     1
102
RTVSPost2010Prop50
 90
       50
102
RTVSPost2010PropOp50
 70
     1
102
RTVSPost2010Prop51ColorIndex
 90
      256
102
RTVSPost2010Prop51ColorRGB
 90
-16777216
102
RTVSPost2010PropOp51
 70
     0
102
RTVSPost2010Prop52
140
1.0
102
RTVSPost2010PropOp52
 70
     0
102
RTVSPost2010Prop53
 90
        2
102
RTVSPost2010PropOp53
 70
     1
102
RTVSPost2010Prop54
  1
strokes_ogs.tif
102
RTVSPost2010PropOp54
 70
     1
102
RTVSPost2010Prop55
280
     0
102
RTVSPost2010PropOp55
 70
     1
102
RTVSPost2010Prop56
140
1.0
102
RTVSPost2010PropOp56
 70
     1
102
RTVSPost2010Prop57
140
1.0
102
RTVSPost2010PropOp57
 70
     1
102
RTVSPropertyOp0
 70
     1
102
RTVSPropertyOp1
 70
     1
102
RTVSPropertyOp2
 70
     1
102
RTVSPropertyOp3
 70
     1
102
RTVSPropertyOp4
 70
     1
102
RTVSPropertyOp5
 70
     1
102
RTVSPropertyOp6
 70
     1
102
RTVSPropertyOp7
 70
     1
102
RTVSPropertyOp8
 70
     1
102
RTVSPropertyOp9
 70
     1
102
RTVSPropertyOp10
 70
     1
102
RTVSPropertyOp11
 70
     1
102
RTVSPropertyOp12
 70
     1
102
RTVSPropertyOp13
 70
     1
102
RTVSPropertyOp14
 70
     1
102
RTVSPropertyOp15
 70
     1
102
RTVSPropertyOp16
 70
     1
102
RTVSPropertyOp17
 70
     1
102
RTVSPropertyOp18
 70
     1
102
RTVSPropertyOp19
 70
     1
102
RTVSPropertyOp20
 70
     1
102
RTVSPropertyOp21
 70
     1
102
RTVSPropertyOp22
 70
     1
102
RTVSPropertyOp23
 70
     1
102
RTVSPropertyOp24
 70
     1
102
RTVSPropertyOp25
 70
     1
102
RTVSPropertyOp26
 70
     1
102
RTVSPropertyOp27
 70
     1
102
RTVSPropertyOp28
 70
     1
102
RTVSPropertyOp29
 70
     1
102
RTVSPropertyOp30
 70
     1
102
RTVSPropertyOp31
 70
     1
102
RTVSPropertyOp32
 70
     1
102
RTVSPropertyOp33
 70
     1
102
RTVSPropertyOp34
 70
     1
102
RTVSPropertyOp35
 70
     1
102
RTVSPropertyOp36
 70
     1
102
RTVSPropertyOp37
 70
     1
102
RTVSPropertyOp38
 70
     1
102
RTVSPropertyOp39
 70
     1
102
RTVSPropertyOp40
 70
     1
102
RTVSPropertyOp41
 70
     1
102
RTVSPropertyOp42
 70
     1
102
RTVSPropertyOp43
 70
     1
102
RTVSPropertyOp44
 70
     1
102
RTVSPropertyOp45
 70
     1
102
RTVSPropertyOp46
 70
     1
102
RTVSPropertyOp47
 70
     1
102
RTVSPropertyOp48
 70
     1
102
RTVSPropertyOp49
 70
     1
102
RTVSPropertyOp50
 70
     1
102
RTVSPropertyOp51
 70
     0
102
RTVSPropertyOp52
 70
     0
102
RTVSPropertyOp53
 70
     1
102
RTVSPropertyOp54
 70
     1
102
RTVSPropertyOp55
 70
     1
102
RTVSPropertyOp56
 70
     1
102
RTVSPropertyOp57
 70
     1
102
RTVSPropertyOp58
 70
     1
102
RTVSPropertyOp59
 70
     1
102
RTVSPropertyOp60
 70
     1
102
RTVSPropertyOp61
 70
     1
102
RTVSPropertyOp62
 70
     1
  0
XRECORD
  5
384
102
{ACAD_REACTORS
330
383
102
}
330
383
100
AcDbXrecord
280
     1
102
RTVSPost2010Prop28
280
     0
102
RTVSPost2010PropOp28
 70
     1
102
RTVSPost2010Prop29
280
     1
102
RTVSPost2010PropOp29
 70
     1
102
RTVSPost2010Prop30
280
     1
102
RTVSPost2010PropOp30
 70
     1
102
RTVSPost2010Prop31
280
     0
102
RTVSPost2010PropOp31
 70
     1
102
RTVSPost2010Prop32
280
     0
102
RTVSPost2010PropOp32
 70
     1
102
RTVSPost2010Prop33
280
     0
102
RTVSPost2010PropOp33
 70
     1
102
RTVSPost2010Prop34
280
     0
102
RTVSPost2010PropOp34
 70
     1
102
RTVSPost2010Prop35
280
     0
102
RTVSPost2010PropOp35
 70
     1
102
RTVSPost2010Prop36
280
     0
102
RTVSPost2010PropOp36
 70
     1
102
RTVSPost2010Prop37
 90
       50
102
RTVSPost2010PropOp37
 70
     0
102
RTVSPost2010Prop38
140
0.0
102
RTVSPost2010PropOp38
 70
     0
102
RTVSPost2010Prop39
140
1.0
102
RTVSPost2010PropOp39
 70
     0
102
RTVSPost2010Prop40
 90
        0
102
RTVSPost2010PropOp40
 70
     0
102
RTVSPost2010Prop41ColorIndex
 90
       18
102
RTVSPost2010Prop41ColorRGB
 90
        0
102
RTVSPost2010PropOp41
 70
     0
102
RTVSPost2010Prop42
 90
       50
102
RTVSPost2010PropOp42
 70
     0
102
RTVSPost2010Prop43
 90
        3
102
RTVSPost2010PropOp43
 70
     0
102
RTVSPost2010Prop44ColorIndex
 90
        5
102
RTVSPost2010Prop44ColorRGB
 90
      255
102
RTVSPost2010PropOp44
 70
     0
102
RTVSPost2010Prop45
280
     0
102
RTVSPost2010PropOp45
 70
     1
102
RTVSPost2010Prop46
 90
       50
102
RTVSPost2010PropOp46
 70
     0
102
RTVSPost2010Prop47
 90
       50
102
RTVSPost2010PropOp47
 70
     0
102
RTVSPost2010Prop48
 90
       50
102
RTVSPost2010PropOp48
 70
     0
102
RTVSPost2010Prop49
280
     0
102
RTVSPost2010PropOp49
 70
     1
102
RTVSPost2010Prop50
 90
       50
102
RTVSPost2010PropOp50
 70
     0
102
RTVSPost2010Prop51ColorIndex
 90
      256
102
RTVSPost2010Prop51ColorRGB
 90
-16777216
102
RTVSPost2010PropOp51
 70
     0
102
RTVSPost2010Prop52
140
1.0
102
RTVSPost2010PropOp52
 70
     0
102
RTVSPost2010Prop53
 90
        2
102
RTVSPost2010PropOp53
 70
     0
102
RTVSPost2010Prop54
  1
strokes_ogs.tif
102
RTVSPost2010PropOp54
 70
     0
102
RTVSPost2010Prop55
280
     0
102
RTVSPost2010PropOp55
 70
     1
102
RTVSPost2010Prop56
140
1.0
102
RTVSPost2010PropOp56
 70
     0
102
RTVSPost2010Prop57
140
1.0
102
RTVSPost2010PropOp57
 70
     0
102
RTVSPropertyOp0
 70
     0
102
RTVSPropertyOp1
 70
     0
102
RTVSPropertyOp2
 70
     0
102
RTVSPropertyOp3
 70
     0
102
RTVSPropertyOp4
 70
     0
102
RTVSPropertyOp5
 70
     0
102
RTVSPropertyOp6
 70
     0
102
RTVSPropertyOp7
 70
     0
102
RTVSPropertyOp8
 70
     0
102
RTVSPropertyOp9
 70
     0
102
RTVSPropertyOp10
 70
     0
102
RTVSPropertyOp11
 70
     0
102
RTVSPropertyOp12
 70
     0
102
RTVSPropertyOp13
 70
     0
102
RTVSPropertyOp14
 70
     2
102
RTVSPropertyOp15
 70
     0
102
RTVSPropertyOp16
 70
     0
102
RTVSPropertyOp17
 70
     0
102
RTVSPropertyOp18
 70
     0
102
RTVSPropertyOp19
 70
     0
102
RTVSPropertyOp20
 70
     0
102
RTVSPropertyOp21
 70
     0
102
RTVSPropertyOp22
 70
     0
102
RTVSPropertyOp23
 70
     0
102
RTVSPropertyOp24
 70
     0
102
RTVSPropertyOp25
 70
     0
102
RTVSPropertyOp26
 70
     0
102
RTVSPropertyOp27
 70
     0
102
RTVSPropertyOp28
 70
     1
102
RTVSPropertyOp29
 70
     1
102
RTVSPropertyOp30
 70
     1
102
RTVSPropertyOp31
 70
     1
102
RTVSPropertyOp32
 70
     1
102
RTVSPropertyOp33
 70
     1
102
RTVSPropertyOp34
 70
     1
102
RTVSPropertyOp35
 70
     1
102
RTVSPropertyOp36
 70
     1
102
RTVSPropertyOp37
 70
     0
102
RTVSPropertyOp38
 70
     0
102
RTVSPropertyOp39
 70
     0
102
RTVSPropertyOp40
 70
     0
102
RTVSPropertyOp41
 70
     0
102
RTVSPropertyOp42
 70
     0
102
RTVSPropertyOp43
 70
     0
102
RTVSPropertyOp44
 70
     0
102
RTVSPropertyOp45
 70
     1
102
RTVSPropertyOp46
 70
     0
102
RTVSPropertyOp47
 70
     0
102
RTVSPropertyOp48
 70
     0
102
RTVSPropertyOp49
 70
     1
102
RTVSPropertyOp50
 70
     0
102
RTVSPropertyOp51
 70
     0
102
RTVSPropertyOp52
 70
     0
102
RTVSPropertyOp53
 70
     0
102
RTVSPropertyOp54
 70
     0
102
RTVSPropertyOp55
 70
     1
102
RTVSPropertyOp56
 70
     0
102
RTVSPropertyOp57
 70
     0
102
RTVSPropertyOp58
 70
     0
102
RTVSPropertyOp59
 70
     0
102
RTVSPropertyOp60
 70
     0
102
RTVSPropertyOp61
 70
     0
102
RTVSPropertyOp62
 70
     0
  0
XRECORD
  5
372
102
{ACAD_REACTORS
330
371
102
}
330
371
100
AcDbXrecord
280
     1
102
RTVSPost2010Prop28
280
     0
102
RTVSPost2010PropOp28
 70
     1
102
RTVSPost2010Prop29
280
     1
102
RTVSPost2010PropOp29
 70
     1
102
RTVSPost2010Prop30
280
     1
102
RTVSPost2010PropOp30
 70
     1
102
RTVSPost2010Prop31
280
     0
102
RTVSPost2010PropOp31
 70
     1
102
RTVSPost2010Prop32
280
     0
102
RTVSPost2010PropOp32
 70
     1
102
RTVSPost2010Prop33
280
     0
102
RTVSPost2010PropOp33
 70
     1
102
RTVSPost2010Prop34
280
     0
102
RTVSPost2010PropOp34
 70
     1
102
RTVSPost2010Prop35
280
     0
102
RTVSPost2010PropOp35
 70
     1
102
RTVSPost2010Prop36
280
     0
102
RTVSPost2010PropOp36
 70
     1
102
RTVSPost2010Prop37
 90
       50
102
RTVSPost2010PropOp37
 70
     1
102
RTVSPost2010Prop38
140
0.0
102
RTVSPost2010PropOp38
 70
     1
102
RTVSPost2010Prop39
140
1.0
102
RTVSPost2010PropOp39
 70
     1
102
RTVSPost2010Prop40
 90
        0
102
RTVSPost2010PropOp40
 70
     1
102
RTVSPost2010Prop41ColorIndex
 90
       18
102
RTVSPost2010Prop41ColorRGB
 90
        0
102
RTVSPost2010PropOp41
 70
     1
102
RTVSPost2010Prop42
 90
       50
102
RTVSPost2010PropOp42
 70
     1
102
RTVSPost2010Prop43
 90
        3
102
RTVSPost2010PropOp43
 70
     1
102
RTVSPost2010Prop44ColorIndex
 90
        5
102
RTVSPost2010Prop44ColorRGB
 90
      255
102
RTVSPost2010PropOp44
 70
     1
102
RTVSPost2010Prop45
280
     0
102
RTVSPost2010PropOp45
 70
     1
102
RTVSPost2010Prop46
 90
       50
102
RTVSPost2010PropOp46
 70
     1
102
RTVSPost2010Prop47
 90
       50
102
RTVSPost2010PropOp47
 70
     1
102
RTVSPost2010Prop48
 90
       50
102
RTVSPost2010PropOp48
 70
     1
102
RTVSPost2010Prop49
280
     0
102
RTVSPost2010PropOp49
 70
     1
102
RTVSPost2010Prop50
 90
       50
102
RTVSPost2010PropOp50
 70
     1
102
RTVSPost2010Prop51ColorIndex
 90
      256
102
RTVSPost2010Prop51ColorRGB
 90
-16777216
102
RTVSPost2010PropOp51
 70
     0
102
RTVSPost2010Prop52
140
1.0
102
RTVSPost2010PropOp52
 70
     0
102
RTVSPost2010Prop53
 90
        2
102
RTVSPost2010PropOp53
 70
     1
102
RTVSPost2010Prop54
  1
strokes_ogs.tif
102
RTVSPost2010PropOp54
 70
     1
102
RTVSPost2010Prop55
280
     0
102
RTVSPost2010PropOp55
 70
     1
102
RTVSPost2010Prop56
140
1.0
102
RTVSPost2010PropOp56
 70
     1
102
RTVSPost2010Prop57
140
1.0
102
RTVSPost2010PropOp57
 70
     1
102
RTVSPropertyOp0
 70
     1
102
RTVSPropertyOp1
 70
     1
102
RTVSPropertyOp2
 70
     1
102
RTVSPropertyOp3
 70
     1
102
RTVSPropertyOp4
 70
     1
102
RTVSPropertyOp5
 70
     1
102
RTVSPropertyOp6
 70
     1
102
RTVSPropertyOp7
 70
     1
102
RTVSPropertyOp8
 70
     1
102
RTVSPropertyOp9
 70
     1
102
RTVSPropertyOp10
 70
     1
102
RTVSPropertyOp11
 70
     1
102
RTVSPropertyOp12
 70
     1
102
RTVSPropertyOp13
 70
     1
102
RTVSPropertyOp14
 70
     1
102
RTVSPropertyOp15
 70
     1
102
RTVSPropertyOp16
 70
     1
102
RTVSPropertyOp17
 70
     1
102
RTVSPropertyOp18
 70
     1
102
RTVSPropertyOp19
 70
     1
102
RTVSPropertyOp20
 70
     1
102
RTVSPropertyOp21
 70
     1
102
RTVSPropertyOp22
 70
     1
102
RTVSPropertyOp23
 70
     1
102
RTVSPropertyOp24
 70
     1
102
RTVSPropertyOp25
 70
     1
102
RTVSPropertyOp26
 70
     1
102
RTVSPropertyOp27
 70
     1
102
RTVSPropertyOp28
 70
     1
102
RTVSPropertyOp29
 70
     1
102
RTVSPropertyOp30
 70
     1
102
RTVSPropertyOp31
 70
     1
102
RTVSPropertyOp32
 70
     1
102
RTVSPropertyOp33
 70
     1
102
RTVSPropertyOp34
 70
     1
102
RTVSPropertyOp35
 70
     1
102
RTVSPropertyOp36
 70
     1
102
RTVSPropertyOp37
 70
     1
102
RTVSPropertyOp38
 70
     1
102
RTVSPropertyOp39
 70
     1
102
RTVSPropertyOp40
 70
     1
102
RTVSPropertyOp41
 70
     1
102
RTVSPropertyOp42
 70
     1
102
RTVSPropertyOp43
 70
     1
102
RTVSPropertyOp44
 70
     1
102
RTVSPropertyOp45
 70
     1
102
RTVSPropertyOp46
 70
     1
102
RTVSPropertyOp47
 70
     1
102
RTVSPropertyOp48
 70
     1
102
RTVSPropertyOp49
 70
     1
102
RTVSPropertyOp50
 70
     1
102
RTVSPropertyOp51
 70
     0
102
RTVSPropertyOp52
 70
     0
102
RTVSPropertyOp53
 70
     1
102
RTVSPropertyOp54
 70
     1
102
RTVSPropertyOp55
 70
     1
102
RTVSPropertyOp56
 70
     1
102
RTVSPropertyOp57
 70
     1
102
RTVSPropertyOp58
 70
     1
102
RTVSPropertyOp59
 70
     1
102
RTVSPropertyOp60
 70
     1
102
RTVSPropertyOp61
 70
     1
102
RTVSPropertyOp62
 70
     1
  0
XRECORD
  5
356
102
{ACAD_REACTORS
330
355
102
}
330
355
100
AcDbXrecord
280
     1
102
RTVSPost2010Prop28
280
     0
102
RTVSPost2010PropOp28
 70
     1
102
RTVSPost2010Prop29
280
     1
102
RTVSPost2010PropOp29
 70
     1
102
RTVSPost2010Prop30
280
     1
102
RTVSPost2010PropOp30
 70
     1
102
RTVSPost2010Prop31
280
     0
102
RTVSPost2010PropOp31
 70
     1
102
RTVSPost2010Prop32
280
     0
102
RTVSPost2010PropOp32
 70
     1
102
RTVSPost2010Prop33
280
     0
102
RTVSPost2010PropOp33
 70
     1
102
RTVSPost2010Prop34
280
     0
102
RTVSPost2010PropOp34
 70
     1
102
RTVSPost2010Prop35
280
     0
102
RTVSPost2010PropOp35
 70
     1
102
RTVSPost2010Prop36
280
     0
102
RTVSPost2010PropOp36
 70
     1
102
RTVSPost2010Prop37
 90
       50
102
RTVSPost2010PropOp37
 70
     1
102
RTVSPost2010Prop38
140
0.0
102
RTVSPost2010PropOp38
 70
     1
102
RTVSPost2010Prop39
140
1.0
102
RTVSPost2010PropOp39
 70
     1
102
RTVSPost2010Prop40
 90
        0
102
RTVSPost2010PropOp40
 70
     1
102
RTVSPost2010Prop41ColorIndex
 90
       18
102
RTVSPost2010Prop41ColorRGB
 90
        0
102
RTVSPost2010PropOp41
 70
     1
102
RTVSPost2010Prop42
 90
       50
102
RTVSPost2010PropOp42
 70
     1
102
RTVSPost2010Prop43
 90
        3
102
RTVSPost2010PropOp43
 70
     1
102
RTVSPost2010Prop44ColorIndex
 90
        5
102
RTVSPost2010Prop44ColorRGB
 90
      255
102
RTVSPost2010PropOp44
 70
     1
102
RTVSPost2010Prop45
280
     0
102
RTVSPost2010PropOp45
 70
     1
102
RTVSPost2010Prop46
 90
       50
102
RTVSPost2010PropOp46
 70
     1
102
RTVSPost2010Prop47
 90
       50
102
RTVSPost2010PropOp47
 70
     1
102
RTVSPost2010Prop48
 90
       50
102
RTVSPost2010PropOp48
 70
     1
102
RTVSPost2010Prop49
280
     0
102
RTVSPost2010PropOp49
 70
     1
102
RTVSPost2010Prop50
 90
       50
102
RTVSPost2010PropOp50
 70
     1
102
RTVSPost2010Prop51ColorIndex
 90
      256
102
RTVSPost2010Prop51ColorRGB
 90
-16777216
102
RTVSPost2010PropOp51
 70
     0
102
RTVSPost2010Prop52
140
1.0
102
RTVSPost2010PropOp52
 70
     0
102
RTVSPost2010Prop53
 90
        2
102
RTVSPost2010PropOp53
 70
     1
102
RTVSPost2010Prop54
  1
strokes_ogs.tif
102
RTVSPost2010PropOp54
 70
     1
102
RTVSPost2010Prop55
280
     0
102
RTVSPost2010PropOp55
 70
     1
102
RTVSPost2010Prop56
140
1.0
102
RTVSPost2010PropOp56
 70
     1
102
RTVSPost2010Prop57
140
1.0
102
RTVSPost2010PropOp57
 70
     1
102
RTVSPropertyOp0
 70
     1
102
RTVSPropertyOp1
 70
     1
102
RTVSPropertyOp2
 70
     1
102
RTVSPropertyOp3
 70
     1
102
RTVSPropertyOp4
 70
     1
102
RTVSPropertyOp5
 70
     1
102
RTVSPropertyOp6
 70
     1
102
RTVSPropertyOp7
 70
     1
102
RTVSPropertyOp8
 70
     1
102
RTVSPropertyOp9
 70
     1
102
RTVSPropertyOp10
 70
     1
102
RTVSPropertyOp11
 70
     1
102
RTVSPropertyOp12
 70
     1
102
RTVSPropertyOp13
 70
     1
102
RTVSPropertyOp14
 70
     1
102
RTVSPropertyOp15
 70
     1
102
RTVSPropertyOp16
 70
     1
102
RTVSPropertyOp17
 70
     1
102
RTVSPropertyOp18
 70
     1
102
RTVSPropertyOp19
 70
     1
102
RTVSPropertyOp20
 70
     1
102
RTVSPropertyOp21
 70
     1
102
RTVSPropertyOp22
 70
     1
102
RTVSPropertyOp23
 70
     1
102
RTVSPropertyOp24
 70
     1
102
RTVSPropertyOp25
 70
     1
102
RTVSPropertyOp26
 70
     1
102
RTVSPropertyOp27
 70
     1
102
RTVSPropertyOp28
 70
     1
102
RTVSPropertyOp29
 70
     1
102
RTVSPropertyOp30
 70
     1
102
RTVSPropertyOp31
 70
     1
102
RTVSPropertyOp32
 70
     1
102
RTVSPropertyOp33
 70
     1
102
RTVSPropertyOp34
 70
     1
102
RTVSPropertyOp35
 70
     1
102
RTVSPropertyOp36
 70
     1
102
RTVSPropertyOp37
 70
     1
102
RTVSPropertyOp38
 70
     1
102
RTVSPropertyOp39
 70
     1
102
RTVSPropertyOp40
 70
     1
102
RTVSPropertyOp41
 70
     1
102
RTVSPropertyOp42
 70
     1
102
RTVSPropertyOp43
 70
     1
102
RTVSPropertyOp44
 70
     1
102
RTVSPropertyOp45
 70
     1
102
RTVSPropertyOp46
 70
     1
102
RTVSPropertyOp47
 70
     1
102
RTVSPropertyOp48
 70
     1
102
RTVSPropertyOp49
 70
     1
102
RTVSPropertyOp50
 70
     1
102
RTVSPropertyOp51
 70
     0
102
RTVSPropertyOp52
 70
     0
102
RTVSPropertyOp53
 70
     1
102
RTVSPropertyOp54
 70
     1
102
RTVSPropertyOp55
 70
     1
102
RTVSPropertyOp56
 70
     1
102
RTVSPropertyOp57
 70
     1
102
RTVSPropertyOp58
 70
     1
102
RTVSPropertyOp59
 70
     1
102
RTVSPropertyOp60
 70
     1
102
RTVSPropertyOp61
 70
     1
102
RTVSPropertyOp62
 70
     1
  0
XRECORD
  5
358
102
{ACAD_REACTORS
330
357
102
}
330
357
100
AcDbXrecord
280
     1
102
RTVSPost2010Prop28
280
     0
102
RTVSPost2010PropOp28
 70
     1
102
RTVSPost2010Prop29
280
     1
102
RTVSPost2010PropOp29
 70
     1
102
RTVSPost2010Prop30
280
     1
102
RTVSPost2010PropOp30
 70
     1
102
RTVSPost2010Prop31
280
     0
102
RTVSPost2010PropOp31
 70
     1
102
RTVSPost2010Prop32
280
     0
102
RTVSPost2010PropOp32
 70
     1
102
RTVSPost2010Prop33
280
     0
102
RTVSPost2010PropOp33
 70
     1
102
RTVSPost2010Prop34
280
     0
102
RTVSPost2010PropOp34
 70
     1
102
RTVSPost2010Prop35
280
     0
102
RTVSPost2010PropOp35
 70
     1
102
RTVSPost2010Prop36
280
     0
102
RTVSPost2010PropOp36
 70
     1
102
RTVSPost2010Prop37
 90
       50
102
RTVSPost2010PropOp37
 70
     1
102
RTVSPost2010Prop38
140
0.0
102
RTVSPost2010PropOp38
 70
     1
102
RTVSPost2010Prop39
140
1.0
102
RTVSPost2010PropOp39
 70
     1
102
RTVSPost2010Prop40
 90
        0
102
RTVSPost2010PropOp40
 70
     1
102
RTVSPost2010Prop41ColorIndex
 90
       18
102
RTVSPost2010Prop41ColorRGB
 90
        0
102
RTVSPost2010PropOp41
 70
     1
102
RTVSPost2010Prop42
 90
       50
102
RTVSPost2010PropOp42
 70
     1
102
RTVSPost2010Prop43
 90
        3
102
RTVSPost2010PropOp43
 70
     1
102
RTVSPost2010Prop44ColorIndex
 90
        5
102
RTVSPost2010Prop44ColorRGB
 90
      255
102
RTVSPost2010PropOp44
 70
     1
102
RTVSPost2010Prop45
280
     0
102
RTVSPost2010PropOp45
 70
     1
102
RTVSPost2010Prop46
 90
       50
102
RTVSPost2010PropOp46
 70
     1
102
RTVSPost2010Prop47
 90
       50
102
RTVSPost2010PropOp47
 70
     1
102
RTVSPost2010Prop48
 90
       50
102
RTVSPost2010PropOp48
 70
     1
102
RTVSPost2010Prop49
280
     0
102
RTVSPost2010PropOp49
 70
     1
102
RTVSPost2010Prop50
 90
       50
102
RTVSPost2010PropOp50
 70
     1
102
RTVSPost2010Prop51ColorIndex
 90
      256
102
RTVSPost2010Prop51ColorRGB
 90
-16777216
102
RTVSPost2010PropOp51
 70
     0
102
RTVSPost2010Prop52
140
1.0
102
RTVSPost2010PropOp52
 70
     0
102
RTVSPost2010Prop53
 90
        2
102
RTVSPost2010PropOp53
 70
     1
102
RTVSPost2010Prop54
  1
strokes_ogs.tif
102
RTVSPost2010PropOp54
 70
     1
102
RTVSPost2010Prop55
280
     0
102
RTVSPost2010PropOp55
 70
     1
102
RTVSPost2010Prop56
140
1.0
102
RTVSPost2010PropOp56
 70
     1
102
RTVSPost2010Prop57
140
1.0
102
RTVSPost2010PropOp57
 70
     1
102
RTVSPropertyOp0
 70
     1
102
RTVSPropertyOp1
 70
     1
102
RTVSPropertyOp2
 70
     1
102
RTVSPropertyOp3
 70
     1
102
RTVSPropertyOp4
 70
     1
102
RTVSPropertyOp5
 70
     1
102
RTVSPropertyOp6
 70
     1
102
RTVSPropertyOp7
 70
     1
102
RTVSPropertyOp8
 70
     1
102
RTVSPropertyOp9
 70
     1
102
RTVSPropertyOp10
 70
     1
102
RTVSPropertyOp11
 70
     1
102
RTVSPropertyOp12
 70
     1
102
RTVSPropertyOp13
 70
     1
102
RTVSPropertyOp14
 70
     1
102
RTVSPropertyOp15
 70
     1
102
RTVSPropertyOp16
 70
     1
102
RTVSPropertyOp17
 70
     1
102
RTVSPropertyOp18
 70
     1
102
RTVSPropertyOp19
 70
     1
102
RTVSPropertyOp20
 70
     1
102
RTVSPropertyOp21
 70
     1
102
RTVSPropertyOp22
 70
     1
102
RTVSPropertyOp23
 70
     1
102
RTVSPropertyOp24
 70
     1
102
RTVSPropertyOp25
 70
     1
102
RTVSPropertyOp26
 70
     1
102
RTVSPropertyOp27
 70
     1
102
RTVSPropertyOp28
 70
     1
102
RTVSPropertyOp29
 70
     1
102
RTVSPropertyOp30
 70
     1
102
RTVSPropertyOp31
 70
     1
102
RTVSPropertyOp32
 70
     1
102
RTVSPropertyOp33
 70
     1
102
RTVSPropertyOp34
 70
     1
102
RTVSPropertyOp35
 70
     1
102
RTVSPropertyOp36
 70
     1
102
RTVSPropertyOp37
 70
     1
102
RTVSPropertyOp38
 70
     1
102
RTVSPropertyOp39
 70
     1
102
RTVSPropertyOp40
 70
     1
102
RTVSPropertyOp41
 70
     1
102
RTVSPropertyOp42
 70
     1
102
RTVSPropertyOp43
 70
     1
102
RTVSPropertyOp44
 70
     1
102
RTVSPropertyOp45
 70
     1
102
RTVSPropertyOp46
 70
     1
102
RTVSPropertyOp47
 70
     1
102
RTVSPropertyOp48
 70
     1
102
RTVSPropertyOp49
 70
     1
102
RTVSPropertyOp50
 70
     1
102
RTVSPropertyOp51
 70
     0
102
RTVSPropertyOp52
 70
     0
102
RTVSPropertyOp53
 70
     1
102
RTVSPropertyOp54
 70
     1
102
RTVSPropertyOp55
 70
     1
102
RTVSPropertyOp56
 70
     1
102
RTVSPropertyOp57
 70
     1
102
RTVSPropertyOp58
 70
     1
102
RTVSPropertyOp59
 70
     1
102
RTVSPropertyOp60
 70
     1
102
RTVSPropertyOp61
 70
     1
102
RTVSPropertyOp62
 70
     1
  0
XRECORD
  5
35A
102
{ACAD_REACTORS
330
359
102
}
330
359
100
AcDbXrecord
280
     1
102
RTVSPost2010Prop28
280
     0
102
RTVSPost2010PropOp28
 70
     1
102
RTVSPost2010Prop29
280
     1
102
RTVSPost2010PropOp29
 70
     1
102
RTVSPost2010Prop30
280
     1
102
RTVSPost2010PropOp30
 70
     1
102
RTVSPost2010Prop31
280
     0
102
RTVSPost2010PropOp31
 70
     1
102
RTVSPost2010Prop32
280
     0
102
RTVSPost2010PropOp32
 70
     1
102
RTVSPost2010Prop33
280
     0
102
RTVSPost2010PropOp33
 70
     1
102
RTVSPost2010Prop34
280
     0
102
RTVSPost2010PropOp34
 70
     1
102
RTVSPost2010Prop35
280
     0
102
RTVSPost2010PropOp35
 70
     1
102
RTVSPost2010Prop36
280
     0
102
RTVSPost2010PropOp36
 70
     1
102
RTVSPost2010Prop37
 90
       50
102
RTVSPost2010PropOp37
 70
     1
102
RTVSPost2010Prop38
140
0.0
102
RTVSPost2010PropOp38
 70
     1
102
RTVSPost2010Prop39
140
1.0
102
RTVSPost2010PropOp39
 70
     1
102
RTVSPost2010Prop40
 90
        0
102
RTVSPost2010PropOp40
 70
     1
102
RTVSPost2010Prop41ColorIndex
 90
       18
102
RTVSPost2010Prop41ColorRGB
 90
        0
102
RTVSPost2010PropOp41
 70
     1
102
RTVSPost2010Prop42
 90
       50
102
RTVSPost2010PropOp42
 70
     1
102
RTVSPost2010Prop43
 90
        3
102
RTVSPost2010PropOp43
 70
     1
102
RTVSPost2010Prop44ColorIndex
 90
        5
102
RTVSPost2010Prop44ColorRGB
 90
      255
102
RTVSPost2010PropOp44
 70
     1
102
RTVSPost2010Prop45
280
     0
102
RTVSPost2010PropOp45
 70
     1
102
RTVSPost2010Prop46
 90
       50
102
RTVSPost2010PropOp46
 70
     1
102
RTVSPost2010Prop47
 90
       50
102
RTVSPost2010PropOp47
 70
     1
102
RTVSPost2010Prop48
 90
       50
102
RTVSPost2010PropOp48
 70
     1
102
RTVSPost2010Prop49
280
     0
102
RTVSPost2010PropOp49
 70
     1
102
RTVSPost2010Prop50
 90
       50
102
RTVSPost2010PropOp50
 70
     1
102
RTVSPost2010Prop51ColorIndex
 90
      256
102
RTVSPost2010Prop51ColorRGB
 90
-16777216
102
RTVSPost2010PropOp51
 70
     0
102
RTVSPost2010Prop52
140
1.0
102
RTVSPost2010PropOp52
 70
     0
102
RTVSPost2010Prop53
 90
        2
102
RTVSPost2010PropOp53
 70
     1
102
RTVSPost2010Prop54
  1
strokes_ogs.tif
102
RTVSPost2010PropOp54
 70
     1
102
RTVSPost2010Prop55
280
     0
102
RTVSPost2010PropOp55
 70
     1
102
RTVSPost2010Prop56
140
1.0
102
RTVSPost2010PropOp56
 70
     1
102
RTVSPost2010Prop57
140
1.0
102
RTVSPost2010PropOp57
 70
     1
102
RTVSPropertyOp0
 70
     1
102
RTVSPropertyOp1
 70
     1
102
RTVSPropertyOp2
 70
     1
102
RTVSPropertyOp3
 70
     1
102
RTVSPropertyOp4
 70
     1
102
RTVSPropertyOp5
 70
     1
102
RTVSPropertyOp6
 70
     1
102
RTVSPropertyOp7
 70
     1
102
RTVSPropertyOp8
 70
     1
102
RTVSPropertyOp9
 70
     1
102
RTVSPropertyOp10
 70
     1
102
RTVSPropertyOp11
 70
     1
102
RTVSPropertyOp12
 70
     1
102
RTVSPropertyOp13
 70
     1
102
RTVSPropertyOp14
 70
     1
102
RTVSPropertyOp15
 70
     1
102
RTVSPropertyOp16
 70
     1
102
RTVSPropertyOp17
 70
     1
102
RTVSPropertyOp18
 70
     1
102
RTVSPropertyOp19
 70
     1
102
RTVSPropertyOp20
 70
     1
102
RTVSPropertyOp21
 70
     1
102
RTVSPropertyOp22
 70
     1
102
RTVSPropertyOp23
 70
     1
102
RTVSPropertyOp24
 70
     1
102
RTVSPropertyOp25
 70
     1
102
RTVSPropertyOp26
 70
     1
102
RTVSPropertyOp27
 70
     1
102
RTVSPropertyOp28
 70
     1
102
RTVSPropertyOp29
 70
     1
102
RTVSPropertyOp30
 70
     1
102
RTVSPropertyOp31
 70
     1
102
RTVSPropertyOp32
 70
     1
102
RTVSPropertyOp33
 70
     1
102
RTVSPropertyOp34
 70
     1
102
RTVSPropertyOp35
 70
     1
102
RTVSPropertyOp36
 70
     1
102
RTVSPropertyOp37
 70
     1
102
RTVSPropertyOp38
 70
     1
102
RTVSPropertyOp39
 70
     1
102
RTVSPropertyOp40
 70
     1
102
RTVSPropertyOp41
 70
     1
102
RTVSPropertyOp42
 70
     1
102
RTVSPropertyOp43
 70
     1
102
RTVSPropertyOp44
 70
     1
102
RTVSPropertyOp45
 70
     1
102
RTVSPropertyOp46
 70
     1
102
RTVSPropertyOp47
 70
     1
102
RTVSPropertyOp48
 70
     1
102
RTVSPropertyOp49
 70
     1
102
RTVSPropertyOp50
 70
     1
102
RTVSPropertyOp51
 70
     0
102
RTVSPropertyOp52
 70
     0
102
RTVSPropertyOp53
 70
     1
102
RTVSPropertyOp54
 70
     1
102
RTVSPropertyOp55
 70
     1
102
RTVSPropertyOp56
 70
     1
102
RTVSPropertyOp57
 70
     1
102
RTVSPropertyOp58
 70
     1
102
RTVSPropertyOp59
 70
     1
102
RTVSPropertyOp60
 70
     1
102
RTVSPropertyOp61
 70
     1
102
RTVSPropertyOp62
 70
     1
  0
XRECORD
  5
35C
102
{ACAD_REACTORS
330
35B
102
}
330
35B
100
AcDbXrecord
280
     1
102
RTVSPost2010Prop28
280
     0
102
RTVSPost2010PropOp28
 70
     1
102
RTVSPost2010Prop29
280
     1
102
RTVSPost2010PropOp29
 70
     1
102
RTVSPost2010Prop30
280
     1
102
RTVSPost2010PropOp30
 70
     1
102
RTVSPost2010Prop31
280
     0
102
RTVSPost2010PropOp31
 70
     1
102
RTVSPost2010Prop32
280
     0
102
RTVSPost2010PropOp32
 70
     1
102
RTVSPost2010Prop33
280
     0
102
RTVSPost2010PropOp33
 70
     1
102
RTVSPost2010Prop34
280
     0
102
RTVSPost2010PropOp34
 70
     1
102
RTVSPost2010Prop35
280
     0
102
RTVSPost2010PropOp35
 70
     1
102
RTVSPost2010Prop36
280
     0
102
RTVSPost2010PropOp36
 70
     1
102
RTVSPost2010Prop37
 90
       50
102
RTVSPost2010PropOp37
 70
     1
102
RTVSPost2010Prop38
140
0.0
102
RTVSPost2010PropOp38
 70
     1
102
RTVSPost2010Prop39
140
1.0
102
RTVSPost2010PropOp39
 70
     1
102
RTVSPost2010Prop40
 90
        0
102
RTVSPost2010PropOp40
 70
     1
102
RTVSPost2010Prop41ColorIndex
 90
       18
102
RTVSPost2010Prop41ColorRGB
 90
        0
102
RTVSPost2010PropOp41
 70
     1
102
RTVSPost2010Prop42
 90
       50
102
RTVSPost2010PropOp42
 70
     1
102
RTVSPost2010Prop43
 90
        3
102
RTVSPost2010PropOp43
 70
     1
102
RTVSPost2010Prop44ColorIndex
 90
        5
102
RTVSPost2010Prop44ColorRGB
 90
      255
102
RTVSPost2010PropOp44
 70
     1
102
RTVSPost2010Prop45
280
     0
102
RTVSPost2010PropOp45
 70
     1
102
RTVSPost2010Prop46
 90
       50
102
RTVSPost2010PropOp46
 70
     1
102
RTVSPost2010Prop47
 90
       50
102
RTVSPost2010PropOp47
 70
     1
102
RTVSPost2010Prop48
 90
       50
102
RTVSPost2010PropOp48
 70
     1
102
RTVSPost2010Prop49
280
     0
102
RTVSPost2010PropOp49
 70
     1
102
RTVSPost2010Prop50
 90
       50
102
RTVSPost2010PropOp50
 70
     1
102
RTVSPost2010Prop51ColorIndex
 90
      256
102
RTVSPost2010Prop51ColorRGB
 90
-16777216
102
RTVSPost2010PropOp51
 70
     0
102
RTVSPost2010Prop52
140
1.0
102
RTVSPost2010PropOp52
 70
     0
102
RTVSPost2010Prop53
 90
        2
102
RTVSPost2010PropOp53
 70
     1
102
RTVSPost2010Prop54
  1
strokes_ogs.tif
102
RTVSPost2010PropOp54
 70
     1
102
RTVSPost2010Prop55
280
     0
102
RTVSPost2010PropOp55
 70
     1
102
RTVSPost2010Prop56
140
1.0
102
RTVSPost2010PropOp56
 70
     1
102
RTVSPost2010Prop57
140
1.0
102
RTVSPost2010PropOp57
 70
     1
102
RTVSPropertyOp0
 70
     1
102
RTVSPropertyOp1
 70
     1
102
RTVSPropertyOp2
 70
     1
102
RTVSPropertyOp3
 70
     1
102
RTVSPropertyOp4
 70
     1
102
RTVSPropertyOp5
 70
     1
102
RTVSPropertyOp6
 70
     1
102
RTVSPropertyOp7
 70
     1
102
RTVSPropertyOp8
 70
     1
102
RTVSPropertyOp9
 70
     1
102
RTVSPropertyOp10
 70
     1
102
RTVSPropertyOp11
 70
     1
102
RTVSPropertyOp12
 70
     1
102
RTVSPropertyOp13
 70
     1
102
RTVSPropertyOp14
 70
     1
102
RTVSPropertyOp15
 70
     1
102
RTVSPropertyOp16
 70
     1
102
RTVSPropertyOp17
 70
     1
102
RTVSPropertyOp18
 70
     1
102
RTVSPropertyOp19
 70
     1
102
RTVSPropertyOp20
 70
     1
102
RTVSPropertyOp21
 70
     1
102
RTVSPropertyOp22
 70
     1
102
RTVSPropertyOp23
 70
     1
102
RTVSPropertyOp24
 70
     1
102
RTVSPropertyOp25
 70
     1
102
RTVSPropertyOp26
 70
     1
102
RTVSPropertyOp27
 70
     1
102
RTVSPropertyOp28
 70
     1
102
RTVSPropertyOp29
 70
     1
102
RTVSPropertyOp30
 70
     1
102
RTVSPropertyOp31
 70
     1
102
RTVSPropertyOp32
 70
     1
102
RTVSPropertyOp33
 70
     1
102
RTVSPropertyOp34
 70
     1
102
RTVSPropertyOp35
 70
     1
102
RTVSPropertyOp36
 70
     1
102
RTVSPropertyOp37
 70
     1
102
RTVSPropertyOp38
 70
     1
102
RTVSPropertyOp39
 70
     1
102
RTVSPropertyOp40
 70
     1
102
RTVSPropertyOp41
 70
     1
102
RTVSPropertyOp42
 70
     1
102
RTVSPropertyOp43
 70
     1
102
RTVSPropertyOp44
 70
     1
102
RTVSPropertyOp45
 70
     1
102
RTVSPropertyOp46
 70
     1
102
RTVSPropertyOp47
 70
     1
102
RTVSPropertyOp48
 70
     1
102
RTVSPropertyOp49
 70
     1
102
RTVSPropertyOp50
 70
     1
102
RTVSPropertyOp51
 70
     0
102
RTVSPropertyOp52
 70
     0
102
RTVSPropertyOp53
 70
     1
102
RTVSPropertyOp54
 70
     1
102
RTVSPropertyOp55
 70
     1
102
RTVSPropertyOp56
 70
     1
102
RTVSPropertyOp57
 70
     1
102
RTVSPropertyOp58
 70
     1
102
RTVSPropertyOp59
 70
     1
102
RTVSPropertyOp60
 70
     1
102
RTVSPropertyOp61
 70
     1
102
RTVSPropertyOp62
 70
     1
  0
XRECORD
  5
364
102
{ACAD_REACTORS
330
363
102
}
330
363
100
AcDbXrecord
280
     1
102
RTVSPost2010Prop28
280
     0
102
RTVSPost2010PropOp28
 70
     1
102
RTVSPost2010Prop29
280
     1
102
RTVSPost2010PropOp29
 70
     1
102
RTVSPost2010Prop30
280
     1
102
RTVSPost2010PropOp30
 70
     1
102
RTVSPost2010Prop31
280
     0
102
RTVSPost2010PropOp31
 70
     1
102
RTVSPost2010Prop32
280
     0
102
RTVSPost2010PropOp32
 70
     1
102
RTVSPost2010Prop33
280
     0
102
RTVSPost2010PropOp33
 70
     1
102
RTVSPost2010Prop34
280
     0
102
RTVSPost2010PropOp34
 70
     1
102
RTVSPost2010Prop35
280
     0
102
RTVSPost2010PropOp35
 70
     1
102
RTVSPost2010Prop36
280
     0
102
RTVSPost2010PropOp36
 70
     1
102
RTVSPost2010Prop37
 90
       50
102
RTVSPost2010PropOp37
 70
     1
102
RTVSPost2010Prop38
140
0.0
102
RTVSPost2010PropOp38
 70
     1
102
RTVSPost2010Prop39
140
1.0
102
RTVSPost2010PropOp39
 70
     1
102
RTVSPost2010Prop40
 90
        0
102
RTVSPost2010PropOp40
 70
     1
102
RTVSPost2010Prop41ColorIndex
 90
       18
102
RTVSPost2010Prop41ColorRGB
 90
        0
102
RTVSPost2010PropOp41
 70
     1
102
RTVSPost2010Prop42
 90
       50
102
RTVSPost2010PropOp42
 70
     1
102
RTVSPost2010Prop43
 90
        3
102
RTVSPost2010PropOp43
 70
     1
102
RTVSPost2010Prop44ColorIndex
 90
        5
102
RTVSPost2010Prop44ColorRGB
 90
      255
102
RTVSPost2010PropOp44
 70
     1
102
RTVSPost2010Prop45
280
     0
102
RTVSPost2010PropOp45
 70
     1
102
RTVSPost2010Prop46
 90
       50
102
RTVSPost2010PropOp46
 70
     1
102
RTVSPost2010Prop47
 90
       50
102
RTVSPost2010PropOp47
 70
     1
102
RTVSPost2010Prop48
 90
       50
102
RTVSPost2010PropOp48
 70
     1
102
RTVSPost2010Prop49
280
     0
102
RTVSPost2010PropOp49
 70
     1
102
RTVSPost2010Prop50
 90
       50
102
RTVSPost2010PropOp50
 70
     1
102
RTVSPost2010Prop51ColorIndex
 90
      256
102
RTVSPost2010Prop51ColorRGB
 90
-16777216
102
RTVSPost2010PropOp51
 70
     0
102
RTVSPost2010Prop52
140
1.0
102
RTVSPost2010PropOp52
 70
     0
102
RTVSPost2010Prop53
 90
        2
102
RTVSPost2010PropOp53
 70
     1
102
RTVSPost2010Prop54
  1
strokes_ogs.tif
102
RTVSPost2010PropOp54
 70
     1
102
RTVSPost2010Prop55
280
     0
102
RTVSPost2010PropOp55
 70
     1
102
RTVSPost2010Prop56
140
1.0
102
RTVSPost2010PropOp56
 70
     1
102
RTVSPost2010Prop57
140
1.0
102
RTVSPost2010PropOp57
 70
     1
102
RTVSPropertyOp0
 70
     1
102
RTVSPropertyOp1
 70
     1
102
RTVSPropertyOp2
 70
     1
102
RTVSPropertyOp3
 70
     1
102
RTVSPropertyOp4
 70
     1
102
RTVSPropertyOp5
 70
     1
102
RTVSPropertyOp6
 70
     1
102
RTVSPropertyOp7
 70
     1
102
RTVSPropertyOp8
 70
     1
102
RTVSPropertyOp9
 70
     1
102
RTVSPropertyOp10
 70
     1
102
RTVSPropertyOp11
 70
     1
102
RTVSPropertyOp12
 70
     1
102
RTVSPropertyOp13
 70
     1
102
RTVSPropertyOp14
 70
     1
102
RTVSPropertyOp15
 70
     1
102
RTVSPropertyOp16
 70
     1
102
RTVSPropertyOp17
 70
     1
102
RTVSPropertyOp18
 70
     1
102
RTVSPropertyOp19
 70
     1
102
RTVSPropertyOp20
 70
     1
102
RTVSPropertyOp21
 70
     1
102
RTVSPropertyOp22
 70
     1
102
RTVSPropertyOp23
 70
     1
102
RTVSPropertyOp24
 70
     1
102
RTVSPropertyOp25
 70
     1
102
RTVSPropertyOp26
 70
     1
102
RTVSPropertyOp27
 70
     1
102
RTVSPropertyOp28
 70
     1
102
RTVSPropertyOp29
 70
     1
102
RTVSPropertyOp30
 70
     1
102
RTVSPropertyOp31
 70
     1
102
RTVSPropertyOp32
 70
     1
102
RTVSPropertyOp33
 70
     1
102
RTVSPropertyOp34
 70
     1
102
RTVSPropertyOp35
 70
     1
102
RTVSPropertyOp36
 70
     1
102
RTVSPropertyOp37
 70
     1
102
RTVSPropertyOp38
 70
     1
102
RTVSPropertyOp39
 70
     1
102
RTVSPropertyOp40
 70
     1
102
RTVSPropertyOp41
 70
     1
102
RTVSPropertyOp42
 70
     1
102
RTVSPropertyOp43
 70
     1
102
RTVSPropertyOp44
 70
     1
102
RTVSPropertyOp45
 70
     1
102
RTVSPropertyOp46
 70
     1
102
RTVSPropertyOp47
 70
     1
102
RTVSPropertyOp48
 70
     1
102
RTVSPropertyOp49
 70
     1
102
RTVSPropertyOp50
 70
     1
102
RTVSPropertyOp51
 70
     0
102
RTVSPropertyOp52
 70
     0
102
RTVSPropertyOp53
 70
     1
102
RTVSPropertyOp54
 70
     1
102
RTVSPropertyOp55
 70
     1
102
RTVSPropertyOp56
 70
     1
102
RTVSPropertyOp57
 70
     1
102
RTVSPropertyOp58
 70
     1
102
RTVSPropertyOp59
 70
     1
102
RTVSPropertyOp60
 70
     1
102
RTVSPropertyOp61
 70
     1
102
RTVSPropertyOp62
 70
     1
  0
XRECORD
  5
380
102
{ACAD_REACTORS
330
37F
102
}
330
37F
100
AcDbXrecord
280
     1
102
RTVSPost2010Prop28
280
     0
102
RTVSPost2010PropOp28
 70
     1
102
RTVSPost2010Prop29
280
     1
102
RTVSPost2010PropOp29
 70
     1
102
RTVSPost2010Prop30
280
     1
102
RTVSPost2010PropOp30
 70
     1
102
RTVSPost2010Prop31
280
     0
102
RTVSPost2010PropOp31
 70
     1
102
RTVSPost2010Prop32
280
     0
102
RTVSPost2010PropOp32
 70
     1
102
RTVSPost2010Prop33
280
     0
102
RTVSPost2010PropOp33
 70
     1
102
RTVSPost2010Prop34
280
     0
102
RTVSPost2010PropOp34
 70
     1
102
RTVSPost2010Prop35
280
     0
102
RTVSPost2010PropOp35
 70
     1
102
RTVSPost2010Prop36
280
     0
102
RTVSPost2010PropOp36
 70
     1
102
RTVSPost2010Prop37
 90
       50
102
RTVSPost2010PropOp37
 70
     0
102
RTVSPost2010Prop38
140
0.0
102
RTVSPost2010PropOp38
 70
     0
102
RTVSPost2010Prop39
140
1.0
102
RTVSPost2010PropOp39
 70
     0
102
RTVSPost2010Prop40
 90
        0
102
RTVSPost2010PropOp40
 70
     0
102
RTVSPost2010Prop41ColorIndex
 90
       18
102
RTVSPost2010Prop41ColorRGB
 90
        0
102
RTVSPost2010PropOp41
 70
     0
102
RTVSPost2010Prop42
 90
       50
102
RTVSPost2010PropOp42
 70
     0
102
RTVSPost2010Prop43
 90
        3
102
RTVSPost2010PropOp43
 70
     0
102
RTVSPost2010Prop44ColorIndex
 90
        5
102
RTVSPost2010Prop44ColorRGB
 90
      255
102
RTVSPost2010PropOp44
 70
     0
102
RTVSPost2010Prop45
280
     0
102
RTVSPost2010PropOp45
 70
     1
102
RTVSPost2010Prop46
 90
       50
102
RTVSPost2010PropOp46
 70
     0
102
RTVSPost2010Prop47
 90
       50
102
RTVSPost2010PropOp47
 70
     0
102
RTVSPost2010Prop48
 90
       50
102
RTVSPost2010PropOp48
 70
     0
102
RTVSPost2010Prop49
280
     0
102
RTVSPost2010PropOp49
 70
     1
102
RTVSPost2010Prop50
 90
       50
102
RTVSPost2010PropOp50
 70
     0
102
RTVSPost2010Prop51ColorIndex
 90
      256
102
RTVSPost2010Prop51ColorRGB
 90
-16777216
102
RTVSPost2010PropOp51
 70
     0
102
RTVSPost2010Prop52
140
1.0
102
RTVSPost2010PropOp52
 70
     0
102
RTVSPost2010Prop53
 90
        2
102
RTVSPost2010PropOp53
 70
     0
102
RTVSPost2010Prop54
  1
strokes_ogs.tif
102
RTVSPost2010PropOp54
 70
     0
102
RTVSPost2010Prop55
280
     0
102
RTVSPost2010PropOp55
 70
     1
102
RTVSPost2010Prop56
140
1.0
102
RTVSPost2010PropOp56
 70
     0
102
RTVSPost2010Prop57
140
1.0
102
RTVSPost2010PropOp57
 70
     0
102
RTVSPropertyOp0
 70
     0
102
RTVSPropertyOp1
 70
     0
102
RTVSPropertyOp2
 70
     0
102
RTVSPropertyOp3
 70
     0
102
RTVSPropertyOp4
 70
     0
102
RTVSPropertyOp5
 70
     0
102
RTVSPropertyOp6
 70
     0
102
RTVSPropertyOp7
 70
     0
102
RTVSPropertyOp8
 70
     0
102
RTVSPropertyOp9
 70
     0
102
RTVSPropertyOp10
 70
     0
102
RTVSPropertyOp11
 70
     0
102
RTVSPropertyOp12
 70
     0
102
RTVSPropertyOp13
 70
     0
102
RTVSPropertyOp14
 70
     2
102
RTVSPropertyOp15
 70
     0
102
RTVSPropertyOp16
 70
     0
102
RTVSPropertyOp17
 70
     0
102
RTVSPropertyOp18
 70
     0
102
RTVSPropertyOp19
 70
     0
102
RTVSPropertyOp20
 70
     0
102
RTVSPropertyOp21
 70
     0
102
RTVSPropertyOp22
 70
     0
102
RTVSPropertyOp23
 70
     0
102
RTVSPropertyOp24
 70
     0
102
RTVSPropertyOp25
 70
     0
102
RTVSPropertyOp26
 70
     0
102
RTVSPropertyOp27
 70
     0
102
RTVSPropertyOp28
 70
     1
102
RTVSPropertyOp29
 70
     1
102
RTVSPropertyOp30
 70
     1
102
RTVSPropertyOp31
 70
     1
102
RTVSPropertyOp32
 70
     1
102
RTVSPropertyOp33
 70
     1
102
RTVSPropertyOp34
 70
     1
102
RTVSPropertyOp35
 70
     1
102
RTVSPropertyOp36
 70
     1
102
RTVSPropertyOp37
 70
     0
102
RTVSPropertyOp38
 70
     0
102
RTVSPropertyOp39
 70
     0
102
RTVSPropertyOp40
 70
     0
102
RTVSPropertyOp41
 70
     0
102
RTVSPropertyOp42
 70
     0
102
RTVSPropertyOp43
 70
     0
102
RTVSPropertyOp44
 70
     0
102
RTVSPropertyOp45
 70
     1
102
RTVSPropertyOp46
 70
     0
102
RTVSPropertyOp47
 70
     0
102
RTVSPropertyOp48
 70
     0
102
RTVSPropertyOp49
 70
     1
102
RTVSPropertyOp50
 70
     0
102
RTVSPropertyOp51
 70
     0
102
RTVSPropertyOp52
 70
     0
102
RTVSPropertyOp53
 70
     0
102
RTVSPropertyOp54
 70
     0
102
RTVSPropertyOp55
 70
     1
102
RTVSPropertyOp56
 70
     0
102
RTVSPropertyOp57
 70
     0
102
RTVSPropertyOp58
 70
     0
102
RTVSPropertyOp59
 70
     0
102
RTVSPropertyOp60
 70
     0
102
RTVSPropertyOp61
 70
     0
102
RTVSPropertyOp62
 70
     0
  0
XRECORD
  5
370
102
{ACAD_REACTORS
330
36F
102
}
330
36F
100
AcDbXrecord
280
     1
102
RTVSPost2010Prop28
280
     0
102
RTVSPost2010PropOp28
 70
     1
102
RTVSPost2010Prop29
280
     1
102
RTVSPost2010PropOp29
 70
     1
102
RTVSPost2010Prop30
280
     1
102
RTVSPost2010PropOp30
 70
     1
102
RTVSPost2010Prop31
280
     0
102
RTVSPost2010PropOp31
 70
     1
102
RTVSPost2010Prop32
280
     0
102
RTVSPost2010PropOp32
 70
     1
102
RTVSPost2010Prop33
280
     0
102
RTVSPost2010PropOp33
 70
     1
102
RTVSPost2010Prop34
280
     0
102
RTVSPost2010PropOp34
 70
     1
102
RTVSPost2010Prop35
280
     0
102
RTVSPost2010PropOp35
 70
     1
102
RTVSPost2010Prop36
280
     0
102
RTVSPost2010PropOp36
 70
     1
102
RTVSPost2010Prop37
 90
       50
102
RTVSPost2010PropOp37
 70
     1
102
RTVSPost2010Prop38
140
0.0
102
RTVSPost2010PropOp38
 70
     1
102
RTVSPost2010Prop39
140
1.0
102
RTVSPost2010PropOp39
 70
     1
102
RTVSPost2010Prop40
 90
        0
102
RTVSPost2010PropOp40
 70
     1
102
RTVSPost2010Prop41ColorIndex
 90
       18
102
RTVSPost2010Prop41ColorRGB
 90
        0
102
RTVSPost2010PropOp41
 70
     1
102
RTVSPost2010Prop42
 90
       50
102
RTVSPost2010PropOp42
 70
     1
102
RTVSPost2010Prop43
 90
        3
102
RTVSPost2010PropOp43
 70
     1
102
RTVSPost2010Prop44ColorIndex
 90
        5
102
RTVSPost2010Prop44ColorRGB
 90
      255
102
RTVSPost2010PropOp44
 70
     1
102
RTVSPost2010Prop45
280
     0
102
RTVSPost2010PropOp45
 70
     1
102
RTVSPost2010Prop46
 90
       50
102
RTVSPost2010PropOp46
 70
     1
102
RTVSPost2010Prop47
 90
       50
102
RTVSPost2010PropOp47
 70
     1
102
RTVSPost2010Prop48
 90
       50
102
RTVSPost2010PropOp48
 70
     1
102
RTVSPost2010Prop49
280
     0
102
RTVSPost2010PropOp49
 70
     1
102
RTVSPost2010Prop50
 90
       50
102
RTVSPost2010PropOp50
 70
     1
102
RTVSPost2010Prop51ColorIndex
 90
      256
102
RTVSPost2010Prop51ColorRGB
 90
-16777216
102
RTVSPost2010PropOp51
 70
     0
102
RTVSPost2010Prop52
140
1.0
102
RTVSPost2010PropOp52
 70
     0
102
RTVSPost2010Prop53
 90
        2
102
RTVSPost2010PropOp53
 70
     1
102
RTVSPost2010Prop54
  1
strokes_ogs.tif
102
RTVSPost2010PropOp54
 70
     1
102
RTVSPost2010Prop55
280
     0
102
RTVSPost2010PropOp55
 70
     1
102
RTVSPost2010Prop56
140
1.0
102
RTVSPost2010PropOp56
 70
     1
102
RTVSPost2010Prop57
140
1.0
102
RTVSPost2010PropOp57
 70
     1
102
RTVSPropertyOp0
 70
     1
102
RTVSPropertyOp1
 70
     1
102
RTVSPropertyOp2
 70
     1
102
RTVSPropertyOp3
 70
     1
102
RTVSPropertyOp4
 70
     1
102
RTVSPropertyOp5
 70
     1
102
RTVSPropertyOp6
 70
     1
102
RTVSPropertyOp7
 70
     1
102
RTVSPropertyOp8
 70
     1
102
RTVSPropertyOp9
 70
     1
102
RTVSPropertyOp10
 70
     1
102
RTVSPropertyOp11
 70
     1
102
RTVSPropertyOp12
 70
     1
102
RTVSPropertyOp13
 70
     1
102
RTVSPropertyOp14
 70
     1
102
RTVSPropertyOp15
 70
     1
102
RTVSPropertyOp16
 70
     1
102
RTVSPropertyOp17
 70
     1
102
RTVSPropertyOp18
 70
     1
102
RTVSPropertyOp19
 70
     1
102
RTVSPropertyOp20
 70
     1
102
RTVSPropertyOp21
 70
     1
102
RTVSPropertyOp22
 70
     1
102
RTVSPropertyOp23
 70
     1
102
RTVSPropertyOp24
 70
     1
102
RTVSPropertyOp25
 70
     1
102
RTVSPropertyOp26
 70
     1
102
RTVSPropertyOp27
 70
     1
102
RTVSPropertyOp28
 70
     1
102
RTVSPropertyOp29
 70
     1
102
RTVSPropertyOp30
 70
     1
102
RTVSPropertyOp31
 70
     1
102
RTVSPropertyOp32
 70
     1
102
RTVSPropertyOp33
 70
     1
102
RTVSPropertyOp34
 70
     1
102
RTVSPropertyOp35
 70
     1
102
RTVSPropertyOp36
 70
     1
102
RTVSPropertyOp37
 70
     1
102
RTVSPropertyOp38
 70
     1
102
RTVSPropertyOp39
 70
     1
102
RTVSPropertyOp40
 70
     1
102
RTVSPropertyOp41
 70
     1
102
RTVSPropertyOp42
 70
     1
102
RTVSPropertyOp43
 70
     1
102
RTVSPropertyOp44
 70
     1
102
RTVSPropertyOp45
 70
     1
102
RTVSPropertyOp46
 70
     1
102
RTVSPropertyOp47
 70
     1
102
RTVSPropertyOp48
 70
     1
102
RTVSPropertyOp49
 70
     1
102
RTVSPropertyOp50
 70
     1
102
RTVSPropertyOp51
 70
     0
102
RTVSPropertyOp52
 70
     0
102
RTVSPropertyOp53
 70
     1
102
RTVSPropertyOp54
 70
     1
102
RTVSPropertyOp55
 70
     1
102
RTVSPropertyOp56
 70
     1
102
RTVSPropertyOp57
 70
     1
102
RTVSPropertyOp58
 70
     1
102
RTVSPropertyOp59
 70
     1
102
RTVSPropertyOp60
 70
     1
102
RTVSPropertyOp61
 70
     1
102
RTVSPropertyOp62
 70
     1
  0
XRECORD
  5
382
102
{ACAD_REACTORS
330
381
102
}
330
381
100
AcDbXrecord
280
     1
102
RTVSPost2010Prop28
280
     0
102
RTVSPost2010PropOp28
 70
     1
102
RTVSPost2010Prop29
280
     1
102
RTVSPost2010PropOp29
 70
     1
102
RTVSPost2010Prop30
280
     1
102
RTVSPost2010PropOp30
 70
     1
102
RTVSPost2010Prop31
280
     0
102
RTVSPost2010PropOp31
 70
     1
102
RTVSPost2010Prop32
280
     0
102
RTVSPost2010PropOp32
 70
     1
102
RTVSPost2010Prop33
280
     0
102
RTVSPost2010PropOp33
 70
     1
102
RTVSPost2010Prop34
280
     0
102
RTVSPost2010PropOp34
 70
     1
102
RTVSPost2010Prop35
280
     0
102
RTVSPost2010PropOp35
 70
     1
102
RTVSPost2010Prop36
280
     0
102
RTVSPost2010PropOp36
 70
     1
102
RTVSPost2010Prop37
 90
       50
102
RTVSPost2010PropOp37
 70
     0
102
RTVSPost2010Prop38
140
0.0
102
RTVSPost2010PropOp38
 70
     0
102
RTVSPost2010Prop39
140
1.0
102
RTVSPost2010PropOp39
 70
     0
102
RTVSPost2010Prop40
 90
        0
102
RTVSPost2010PropOp40
 70
     0
102
RTVSPost2010Prop41ColorIndex
 90
       18
102
RTVSPost2010Prop41ColorRGB
 90
        0
102
RTVSPost2010PropOp41
 70
     0
102
RTVSPost2010Prop42
 90
       50
102
RTVSPost2010PropOp42
 70
     0
102
RTVSPost2010Prop43
 90
        3
102
RTVSPost2010PropOp43
 70
     0
102
RTVSPost2010Prop44ColorIndex
 90
        5
102
RTVSPost2010Prop44ColorRGB
 90
      255
102
RTVSPost2010PropOp44
 70
     0
102
RTVSPost2010Prop45
280
     0
102
RTVSPost2010PropOp45
 70
     1
102
RTVSPost2010Prop46
 90
       50
102
RTVSPost2010PropOp46
 70
     0
102
RTVSPost2010Prop47
 90
       50
102
RTVSPost2010PropOp47
 70
     0
102
RTVSPost2010Prop48
 90
       50
102
RTVSPost2010PropOp48
 70
     0
102
RTVSPost2010Prop49
280
     0
102
RTVSPost2010PropOp49
 70
     1
102
RTVSPost2010Prop50
 90
       50
102
RTVSPost2010PropOp50
 70
     0
102
RTVSPost2010Prop51ColorIndex
 90
      256
102
RTVSPost2010Prop51ColorRGB
 90
-16777216
102
RTVSPost2010PropOp51
 70
     0
102
RTVSPost2010Prop52
140
1.0
102
RTVSPost2010PropOp52
 70
     0
102
RTVSPost2010Prop53
 90
        2
102
RTVSPost2010PropOp53
 70
     0
102
RTVSPost2010Prop54
  1
strokes_ogs.tif
102
RTVSPost2010PropOp54
 70
     0
102
RTVSPost2010Prop55
280
     0
102
RTVSPost2010PropOp55
 70
     1
102
RTVSPost2010Prop56
140
1.0
102
RTVSPost2010PropOp56
 70
     0
102
RTVSPost2010Prop57
140
1.0
102
RTVSPost2010PropOp57
 70
     0
102
RTVSPropertyOp0
 70
     0
102
RTVSPropertyOp1
 70
     0
102
RTVSPropertyOp2
 70
     0
102
RTVSPropertyOp3
 70
     0
102
RTVSPropertyOp4
 70
     0
102
RTVSPropertyOp5
 70
     0
102
RTVSPropertyOp6
 70
     0
102
RTVSPropertyOp7
 70
     0
102
RTVSPropertyOp8
 70
     0
102
RTVSPropertyOp9
 70
     0
102
RTVSPropertyOp10
 70
     0
102
RTVSPropertyOp11
 70
     0
102
RTVSPropertyOp12
 70
     0
102
RTVSPropertyOp13
 70
     0
102
RTVSPropertyOp14
 70
     2
102
RTVSPropertyOp15
 70
     0
102
RTVSPropertyOp16
 70
     0
102
RTVSPropertyOp17
 70
     0
102
RTVSPropertyOp18
 70
     0
102
RTVSPropertyOp19
 70
     0
102
RTVSPropertyOp20
 70
     0
102
RTVSPropertyOp21
 70
     0
102
RTVSPropertyOp22
 70
     0
102
RTVSPropertyOp23
 70
     0
102
RTVSPropertyOp24
 70
     0
102
RTVSPropertyOp25
 70
     0
102
RTVSPropertyOp26
 70
     0
102
RTVSPropertyOp27
 70
     0
102
RTVSPropertyOp28
 70
     1
102
RTVSPropertyOp29
 70
     1
102
RTVSPropertyOp30
 70
     1
102
RTVSPropertyOp31
 70
     1
102
RTVSPropertyOp32
 70
     1
102
RTVSPropertyOp33
 70
     1
102
RTVSPropertyOp34
 70
     1
102
RTVSPropertyOp35
 70
     1
102
RTVSPropertyOp36
 70
     1
102
RTVSPropertyOp37
 70
     0
102
RTVSPropertyOp38
 70
     0
102
RTVSPropertyOp39
 70
     0
102
RTVSPropertyOp40
 70
     0
102
RTVSPropertyOp41
 70
     0
102
RTVSPropertyOp42
 70
     0
102
RTVSPropertyOp43
 70
     0
102
RTVSPropertyOp44
 70
     0
102
RTVSPropertyOp45
 70
     1
102
RTVSPropertyOp46
 70
     0
102
RTVSPropertyOp47
 70
     0
102
RTVSPropertyOp48
 70
     0
102
RTVSPropertyOp49
 70
     1
102
RTVSPropertyOp50
 70
     0
102
RTVSPropertyOp51
 70
     0
102
RTVSPropertyOp52
 70
     0
102
RTVSPropertyOp53
 70
     0
102
RTVSPropertyOp54
 70
     0
102
RTVSPropertyOp55
 70
     1
102
RTVSPropertyOp56
 70
     0
102
RTVSPropertyOp57
 70
     0
102
RTVSPropertyOp58
 70
     0
102
RTVSPropertyOp59
 70
     0
102
RTVSPropertyOp60
 70
     0
102
RTVSPropertyOp61
 70
     0
102
RTVSPropertyOp62
 70
     0
  0
XRECORD
  5
368
102
{ACAD_REACTORS
330
367
102
}
330
367
100
AcDbXrecord
280
     1
102
RTVSPost2010Prop28
280
     0
102
RTVSPost2010PropOp28
 70
     1
102
RTVSPost2010Prop29
280
     1
102
RTVSPost2010PropOp29
 70
     1
102
RTVSPost2010Prop30
280
     1
102
RTVSPost2010PropOp30
 70
     1
102
RTVSPost2010Prop31
280
     0
102
RTVSPost2010PropOp31
 70
     1
102
RTVSPost2010Prop32
280
     0
102
RTVSPost2010PropOp32
 70
     1
102
RTVSPost2010Prop33
280
     0
102
RTVSPost2010PropOp33
 70
     1
102
RTVSPost2010Prop34
280
     0
102
RTVSPost2010PropOp34
 70
     1
102
RTVSPost2010Prop35
280
     0
102
RTVSPost2010PropOp35
 70
     1
102
RTVSPost2010Prop36
280
     0
102
RTVSPost2010PropOp36
 70
     1
102
RTVSPost2010Prop37
 90
       50
102
RTVSPost2010PropOp37
 70
     1
102
RTVSPost2010Prop38
140
0.0
102
RTVSPost2010PropOp38
 70
     1
102
RTVSPost2010Prop39
140
1.0
102
RTVSPost2010PropOp39
 70
     1
102
RTVSPost2010Prop40
 90
        0
102
RTVSPost2010PropOp40
 70
     1
102
RTVSPost2010Prop41ColorIndex
 90
       18
102
RTVSPost2010Prop41ColorRGB
 90
        0
102
RTVSPost2010PropOp41
 70
     1
102
RTVSPost2010Prop42
 90
       50
102
RTVSPost2010PropOp42
 70
     1
102
RTVSPost2010Prop43
 90
        3
102
RTVSPost2010PropOp43
 70
     1
102
RTVSPost2010Prop44ColorIndex
 90
        5
102
RTVSPost2010Prop44ColorRGB
 90
      255
102
RTVSPost2010PropOp44
 70
     1
102
RTVSPost2010Prop45
280
     0
102
RTVSPost2010PropOp45
 70
     1
102
RTVSPost2010Prop46
 90
       50
102
RTVSPost2010PropOp46
 70
     1
102
RTVSPost2010Prop47
 90
       50
102
RTVSPost2010PropOp47
 70
     1
102
RTVSPost2010Prop48
 90
       50
102
RTVSPost2010PropOp48
 70
     1
102
RTVSPost2010Prop49
280
     0
102
RTVSPost2010PropOp49
 70
     1
102
RTVSPost2010Prop50
 90
       50
102
RTVSPost2010PropOp50
 70
     1
102
RTVSPost2010Prop51ColorIndex
 90
      256
102
RTVSPost2010Prop51ColorRGB
 90
-16777216
102
RTVSPost2010PropOp51
 70
     0
102
RTVSPost2010Prop52
140
1.0
102
RTVSPost2010PropOp52
 70
     0
102
RTVSPost2010Prop53
 90
        2
102
RTVSPost2010PropOp53
 70
     1
102
RTVSPost2010Prop54
  1
strokes_ogs.tif
102
RTVSPost2010PropOp54
 70
     1
102
RTVSPost2010Prop55
280
     0
102
RTVSPost2010PropOp55
 70
     1
102
RTVSPost2010Prop56
140
1.0
102
RTVSPost2010PropOp56
 70
     1
102
RTVSPost2010Prop57
140
1.0
102
RTVSPost2010PropOp57
 70
     1
102
RTVSPropertyOp0
 70
     1
102
RTVSPropertyOp1
 70
     1
102
RTVSPropertyOp2
 70
     1
102
RTVSPropertyOp3
 70
     1
102
RTVSPropertyOp4
 70
     1
102
RTVSPropertyOp5
 70
     1
102
RTVSPropertyOp6
 70
     1
102
RTVSPropertyOp7
 70
     1
102
RTVSPropertyOp8
 70
     1
102
RTVSPropertyOp9
 70
     1
102
RTVSPropertyOp10
 70
     1
102
RTVSPropertyOp11
 70
     1
102
RTVSPropertyOp12
 70
     1
102
RTVSPropertyOp13
 70
     1
102
RTVSPropertyOp14
 70
     1
102
RTVSPropertyOp15
 70
     1
102
RTVSPropertyOp16
 70
     1
102
RTVSPropertyOp17
 70
     1
102
RTVSPropertyOp18
 70
     1
102
RTVSPropertyOp19
 70
     1
102
RTVSPropertyOp20
 70
     1
102
RTVSPropertyOp21
 70
     1
102
RTVSPropertyOp22
 70
     1
102
RTVSPropertyOp23
 70
     1
102
RTVSPropertyOp24
 70
     1
102
RTVSPropertyOp25
 70
     1
102
RTVSPropertyOp26
 70
     1
102
RTVSPropertyOp27
 70
     1
102
RTVSPropertyOp28
 70
     1
102
RTVSPropertyOp29
 70
     1
102
RTVSPropertyOp30
 70
     1
102
RTVSPropertyOp31
 70
     1
102
RTVSPropertyOp32
 70
     1
102
RTVSPropertyOp33
 70
     1
102
RTVSPropertyOp34
 70
     1
102
RTVSPropertyOp35
 70
     1
102
RTVSPropertyOp36
 70
     1
102
RTVSPropertyOp37
 70
     1
102
RTVSPropertyOp38
 70
     1
102
RTVSPropertyOp39
 70
     1
102
RTVSPropertyOp40
 70
     1
102
RTVSPropertyOp41
 70
     1
102
RTVSPropertyOp42
 70
     1
102
RTVSPropertyOp43
 70
     1
102
RTVSPropertyOp44
 70
     1
102
RTVSPropertyOp45
 70
     1
102
RTVSPropertyOp46
 70
     1
102
RTVSPropertyOp47
 70
     1
102
RTVSPropertyOp48
 70
     1
102
RTVSPropertyOp49
 70
     1
102
RTVSPropertyOp50
 70
     1
102
RTVSPropertyOp51
 70
     0
102
RTVSPropertyOp52
 70
     0
102
RTVSPropertyOp53
 70
     1
102
RTVSPropertyOp54
 70
     1
102
RTVSPropertyOp55
 70
     1
102
RTVSPropertyOp56
 70
     1
102
RTVSPropertyOp57
 70
     1
102
RTVSPropertyOp58
 70
     1
102
RTVSPropertyOp59
 70
     1
102
RTVSPropertyOp60
 70
     1
102
RTVSPropertyOp61
 70
     1
102
RTVSPropertyOp62
 70
     1
  0
XRECORD
  5
37E
102
{ACAD_REACTORS
330
37D
102
}
330
37D
100
AcDbXrecord
280
     1
102
RTVSPost2010Prop28
280
     0
102
RTVSPost2010PropOp28
 70
     1
102
RTVSPost2010Prop29
280
     1
102
RTVSPost2010PropOp29
 70
     1
102
RTVSPost2010Prop30
280
     1
102
RTVSPost2010PropOp30
 70
     1
102
RTVSPost2010Prop31
280
     0
102
RTVSPost2010PropOp31
 70
     1
102
RTVSPost2010Prop32
280
     0
102
RTVSPost2010PropOp32
 70
     1
102
RTVSPost2010Prop33
280
     0
102
RTVSPost2010PropOp33
 70
     1
102
RTVSPost2010Prop34
280
     0
102
RTVSPost2010PropOp34
 70
     1
102
RTVSPost2010Prop35
280
     0
102
RTVSPost2010PropOp35
 70
     1
102
RTVSPost2010Prop36
280
     0
102
RTVSPost2010PropOp36
 70
     1
102
RTVSPost2010Prop37
 90
       50
102
RTVSPost2010PropOp37
 70
     1
102
RTVSPost2010Prop38
140
0.0
102
RTVSPost2010PropOp38
 70
     1
102
RTVSPost2010Prop39
140
1.0
102
RTVSPost2010PropOp39
 70
     1
102
RTVSPost2010Prop40
 90
        0
102
RTVSPost2010PropOp40
 70
     1
102
RTVSPost2010Prop41ColorIndex
 90
       18
102
RTVSPost2010Prop41ColorRGB
 90
        0
102
RTVSPost2010PropOp41
 70
     1
102
RTVSPost2010Prop42
 90
       50
102
RTVSPost2010PropOp42
 70
     1
102
RTVSPost2010Prop43
 90
        3
102
RTVSPost2010PropOp43
 70
     1
102
RTVSPost2010Prop44ColorIndex
 90
        5
102
RTVSPost2010Prop44ColorRGB
 90
      255
102
RTVSPost2010PropOp44
 70
     1
102
RTVSPost2010Prop45
280
     0
102
RTVSPost2010PropOp45
 70
     1
102
RTVSPost2010Prop46
 90
       50
102
RTVSPost2010PropOp46
 70
     1
102
RTVSPost2010Prop47
 90
       50
102
RTVSPost2010PropOp47
 70
     1
102
RTVSPost2010Prop48
 90
       50
102
RTVSPost2010PropOp48
 70
     1
102
RTVSPost2010Prop49
280
     0
102
RTVSPost2010PropOp49
 70
     1
102
RTVSPost2010Prop50
 90
       50
102
RTVSPost2010PropOp50
 70
     1
102
RTVSPost2010Prop51ColorIndex
 90
      256
102
RTVSPost2010Prop51ColorRGB
 90
-16777216
102
RTVSPost2010PropOp51
 70
     0
102
RTVSPost2010Prop52
140
1.0
102
RTVSPost2010PropOp52
 70
     0
102
RTVSPost2010Prop53
 90
        2
102
RTVSPost2010PropOp53
 70
     1
102
RTVSPost2010Prop54
  1
strokes_ogs.tif
102
RTVSPost2010PropOp54
 70
     1
102
RTVSPost2010Prop55
280
     0
102
RTVSPost2010PropOp55
 70
     1
102
RTVSPost2010Prop56
140
1.0
102
RTVSPost2010PropOp56
 70
     1
102
RTVSPost2010Prop57
140
1.0
102
RTVSPost2010PropOp57
 70
     1
102
RTVSPropertyOp0
 70
     1
102
RTVSPropertyOp1
 70
     1
102
RTVSPropertyOp2
 70
     1
102
RTVSPropertyOp3
 70
     1
102
RTVSPropertyOp4
 70
     1
102
RTVSPropertyOp5
 70
     1
102
RTVSPropertyOp6
 70
     1
102
RTVSPropertyOp7
 70
     1
102
RTVSPropertyOp8
 70
     1
102
RTVSPropertyOp9
 70
     1
102
RTVSPropertyOp10
 70
     1
102
RTVSPropertyOp11
 70
     1
102
RTVSPropertyOp12
 70
     1
102
RTVSPropertyOp13
 70
     1
102
RTVSPropertyOp14
 70
     1
102
RTVSPropertyOp15
 70
     1
102
RTVSPropertyOp16
 70
     1
102
RTVSPropertyOp17
 70
     1
102
RTVSPropertyOp18
 70
     1
102
RTVSPropertyOp19
 70
     1
102
RTVSPropertyOp20
 70
     1
102
RTVSPropertyOp21
 70
     1
102
RTVSPropertyOp22
 70
     1
102
RTVSPropertyOp23
 70
     1
102
RTVSPropertyOp24
 70
     1
102
RTVSPropertyOp25
 70
     1
102
RTVSPropertyOp26
 70
     1
102
RTVSPropertyOp27
 70
     1
102
RTVSPropertyOp28
 70
     1
102
RTVSPropertyOp29
 70
     1
102
RTVSPropertyOp30
 70
     1
102
RTVSPropertyOp31
 70
     1
102
RTVSPropertyOp32
 70
     1
102
RTVSPropertyOp33
 70
     1
102
RTVSPropertyOp34
 70
     1
102
RTVSPropertyOp35
 70
     1
102
RTVSPropertyOp36
 70
     1
102
RTVSPropertyOp37
 70
     1
102
RTVSPropertyOp38
 70
     1
102
RTVSPropertyOp39
 70
     1
102
RTVSPropertyOp40
 70
     1
102
RTVSPropertyOp41
 70
     1
102
RTVSPropertyOp42
 70
     1
102
RTVSPropertyOp43
 70
     1
102
RTVSPropertyOp44
 70
     1
102
RTVSPropertyOp45
 70
     1
102
RTVSPropertyOp46
 70
     1
102
RTVSPropertyOp47
 70
     1
102
RTVSPropertyOp48
 70
     1
102
RTVSPropertyOp49
 70
     1
102
RTVSPropertyOp50
 70
     1
102
RTVSPropertyOp51
 70
     0
102
RTVSPropertyOp52
 70
     0
102
RTVSPropertyOp53
 70
     1
102
RTVSPropertyOp54
 70
     1
102
RTVSPropertyOp55
 70
     1
102
RTVSPropertyOp56
 70
     1
102
RTVSPropertyOp57
 70
     1
102
RTVSPropertyOp58
 70
     1
102
RTVSPropertyOp59
 70
     1
102
RTVSPropertyOp60
 70
     1
102
RTVSPropertyOp61
 70
     1
102
RTVSPropertyOp62
 70
     1
  0
XRECORD
  5
37C
102
{ACAD_REACTORS
330
37B
102
}
330
37B
100
AcDbXrecord
280
     1
102
RTVSPost2010Prop28
280
     0
102
RTVSPost2010PropOp28
 70
     1
102
RTVSPost2010Prop29
280
     1
102
RTVSPost2010PropOp29
 70
     1
102
RTVSPost2010Prop30
280
     1
102
RTVSPost2010PropOp30
 70
     1
102
RTVSPost2010Prop31
280
     0
102
RTVSPost2010PropOp31
 70
     1
102
RTVSPost2010Prop32
280
     0
102
RTVSPost2010PropOp32
 70
     1
102
RTVSPost2010Prop33
280
     0
102
RTVSPost2010PropOp33
 70
     1
102
RTVSPost2010Prop34
280
     0
102
RTVSPost2010PropOp34
 70
     1
102
RTVSPost2010Prop35
280
     0
102
RTVSPost2010PropOp35
 70
     1
102
RTVSPost2010Prop36
280
     0
102
RTVSPost2010PropOp36
 70
     1
102
RTVSPost2010Prop37
 90
       50
102
RTVSPost2010PropOp37
 70
     1
102
RTVSPost2010Prop38
140
0.0
102
RTVSPost2010PropOp38
 70
     1
102
RTVSPost2010Prop39
140
1.0
102
RTVSPost2010PropOp39
 70
     1
102
RTVSPost2010Prop40
 90
        0
102
RTVSPost2010PropOp40
 70
     1
102
RTVSPost2010Prop41ColorIndex
 90
       18
102
RTVSPost2010Prop41ColorRGB
 90
        0
102
RTVSPost2010PropOp41
 70
     1
102
RTVSPost2010Prop42
 90
       50
102
RTVSPost2010PropOp42
 70
     1
102
RTVSPost2010Prop43
 90
        3
102
RTVSPost2010PropOp43
 70
     1
102
RTVSPost2010Prop44ColorIndex
 90
        5
102
RTVSPost2010Prop44ColorRGB
 90
      255
102
RTVSPost2010PropOp44
 70
     1
102
RTVSPost2010Prop45
280
     0
102
RTVSPost2010PropOp45
 70
     1
102
RTVSPost2010Prop46
 90
       50
102
RTVSPost2010PropOp46
 70
     1
102
RTVSPost2010Prop47
 90
       50
102
RTVSPost2010PropOp47
 70
     1
102
RTVSPost2010Prop48
 90
       50
102
RTVSPost2010PropOp48
 70
     1
102
RTVSPost2010Prop49
280
     0
102
RTVSPost2010PropOp49
 70
     1
102
RTVSPost2010Prop50
 90
       50
102
RTVSPost2010PropOp50
 70
     1
102
RTVSPost2010Prop51ColorIndex
 90
      256
102
RTVSPost2010Prop51ColorRGB
 90
-16777216
102
RTVSPost2010PropOp51
 70
     0
102
RTVSPost2010Prop52
140
1.0
102
RTVSPost2010PropOp52
 70
     0
102
RTVSPost2010Prop53
 90
        2
102
RTVSPost2010PropOp53
 70
     1
102
RTVSPost2010Prop54
  1
strokes_ogs.tif
102
RTVSPost2010PropOp54
 70
     1
102
RTVSPost2010Prop55
280
     0
102
RTVSPost2010PropOp55
 70
     1
102
RTVSPost2010Prop56
140
1.0
102
RTVSPost2010PropOp56
 70
     1
102
RTVSPost2010Prop57
140
1.0
102
RTVSPost2010PropOp57
 70
     1
102
RTVSPropertyOp0
 70
     1
102
RTVSPropertyOp1
 70
     1
102
RTVSPropertyOp2
 70
     1
102
RTVSPropertyOp3
 70
     1
102
RTVSPropertyOp4
 70
     1
102
RTVSPropertyOp5
 70
     1
102
RTVSPropertyOp6
 70
     1
102
RTVSPropertyOp7
 70
     1
102
RTVSPropertyOp8
 70
     1
102
RTVSPropertyOp9
 70
     1
102
RTVSPropertyOp10
 70
     1
102
RTVSPropertyOp11
 70
     1
102
RTVSPropertyOp12
 70
     1
102
RTVSPropertyOp13
 70
     1
102
RTVSPropertyOp14
 70
     1
102
RTVSPropertyOp15
 70
     1
102
RTVSPropertyOp16
 70
     1
102
RTVSPropertyOp17
 70
     1
102
RTVSPropertyOp18
 70
     1
102
RTVSPropertyOp19
 70
     1
102
RTVSPropertyOp20
 70
     1
102
RTVSPropertyOp21
 70
     1
102
RTVSPropertyOp22
 70
     1
102
RTVSPropertyOp23
 70
     1
102
RTVSPropertyOp24
 70
     1
102
RTVSPropertyOp25
 70
     1
102
RTVSPropertyOp26
 70
     1
102
RTVSPropertyOp27
 70
     1
102
RTVSPropertyOp28
 70
     1
102
RTVSPropertyOp29
 70
     1
102
RTVSPropertyOp30
 70
     1
102
RTVSPropertyOp31
 70
     1
102
RTVSPropertyOp32
 70
     1
102
RTVSPropertyOp33
 70
     1
102
RTVSPropertyOp34
 70
     1
102
RTVSPropertyOp35
 70
     1
102
RTVSPropertyOp36
 70
     1
102
RTVSPropertyOp37
 70
     1
102
RTVSPropertyOp38
 70
     1
102
RTVSPropertyOp39
 70
     1
102
RTVSPropertyOp40
 70
     1
102
RTVSPropertyOp41
 70
     1
102
RTVSPropertyOp42
 70
     1
102
RTVSPropertyOp43
 70
     1
102
RTVSPropertyOp44
 70
     1
102
RTVSPropertyOp45
 70
     1
102
RTVSPropertyOp46
 70
     1
102
RTVSPropertyOp47
 70
     1
102
RTVSPropertyOp48
 70
     1
102
RTVSPropertyOp49
 70
     1
102
RTVSPropertyOp50
 70
     1
102
RTVSPropertyOp51
 70
     0
102
RTVSPropertyOp52
 70
     0
102
RTVSPropertyOp53
 70
     1
102
RTVSPropertyOp54
 70
     1
102
RTVSPropertyOp55
 70
     1
102
RTVSPropertyOp56
 70
     1
102
RTVSPropertyOp57
 70
     1
102
RTVSPropertyOp58
 70
     1
102
RTVSPropertyOp59
 70
     1
102
RTVSPropertyOp60
 70
     1
102
RTVSPropertyOp61
 70
     1
102
RTVSPropertyOp62
 70
     1
  0
XRECORD
  5
376
102
{ACAD_REACTORS
330
375
102
}
330
375
100
AcDbXrecord
280
     1
102
RTVSPost2010Prop28
280
     0
102
RTVSPost2010PropOp28
 70
     1
102
RTVSPost2010Prop29
280
     1
102
RTVSPost2010PropOp29
 70
     1
102
RTVSPost2010Prop30
280
     1
102
RTVSPost2010PropOp30
 70
     1
102
RTVSPost2010Prop31
280
     0
102
RTVSPost2010PropOp31
 70
     1
102
RTVSPost2010Prop32
280
     0
102
RTVSPost2010PropOp32
 70
     1
102
RTVSPost2010Prop33
280
     0
102
RTVSPost2010PropOp33
 70
     1
102
RTVSPost2010Prop34
280
     0
102
RTVSPost2010PropOp34
 70
     1
102
RTVSPost2010Prop35
280
     0
102
RTVSPost2010PropOp35
 70
     1
102
RTVSPost2010Prop36
280
     0
102
RTVSPost2010PropOp36
 70
     1
102
RTVSPost2010Prop37
 90
       50
102
RTVSPost2010PropOp37
 70
     1
102
RTVSPost2010Prop38
140
0.0
102
RTVSPost2010PropOp38
 70
     1
102
RTVSPost2010Prop39
140
1.0
102
RTVSPost2010PropOp39
 70
     1
102
RTVSPost2010Prop40
 90
        0
102
RTVSPost2010PropOp40
 70
     1
102
RTVSPost2010Prop41ColorIndex
 90
       18
102
RTVSPost2010Prop41ColorRGB
 90
        0
102
RTVSPost2010PropOp41
 70
     1
102
RTVSPost2010Prop42
 90
       50
102
RTVSPost2010PropOp42
 70
     1
102
RTVSPost2010Prop43
 90
        3
102
RTVSPost2010PropOp43
 70
     1
102
RTVSPost2010Prop44ColorIndex
 90
        5
102
RTVSPost2010Prop44ColorRGB
 90
      255
102
RTVSPost2010PropOp44
 70
     1
102
RTVSPost2010Prop45
280
     0
102
RTVSPost2010PropOp45
 70
     1
102
RTVSPost2010Prop46
 90
       50
102
RTVSPost2010PropOp46
 70
     1
102
RTVSPost2010Prop47
 90
       50
102
RTVSPost2010PropOp47
 70
     1
102
RTVSPost2010Prop48
 90
       50
102
RTVSPost2010PropOp48
 70
     1
102
RTVSPost2010Prop49
280
     0
102
RTVSPost2010PropOp49
 70
     1
102
RTVSPost2010Prop50
 90
       50
102
RTVSPost2010PropOp50
 70
     1
102
RTVSPost2010Prop51ColorIndex
 90
      256
102
RTVSPost2010Prop51ColorRGB
 90
-16777216
102
RTVSPost2010PropOp51
 70
     0
102
RTVSPost2010Prop52
140
1.0
102
RTVSPost2010PropOp52
 70
     0
102
RTVSPost2010Prop53
 90
        2
102
RTVSPost2010PropOp53
 70
     1
102
RTVSPost2010Prop54
  1
strokes_ogs.tif
102
RTVSPost2010PropOp54
 70
     1
102
RTVSPost2010Prop55
280
     0
102
RTVSPost2010PropOp55
 70
     1
102
RTVSPost2010Prop56
140
1.0
102
RTVSPost2010PropOp56
 70
     1
102
RTVSPost2010Prop57
140
1.0
102
RTVSPost2010PropOp57
 70
     1
102
RTVSPropertyOp0
 70
     1
102
RTVSPropertyOp1
 70
     1
102
RTVSPropertyOp2
 70
     1
102
RTVSPropertyOp3
 70
     1
102
RTVSPropertyOp4
 70
     1
102
RTVSPropertyOp5
 70
     1
102
RTVSPropertyOp6
 70
     1
102
RTVSPropertyOp7
 70
     1
102
RTVSPropertyOp8
 70
     1
102
RTVSPropertyOp9
 70
     1
102
RTVSPropertyOp10
 70
     1
102
RTVSPropertyOp11
 70
     1
102
RTVSPropertyOp12
 70
     1
102
RTVSPropertyOp13
 70
     1
102
RTVSPropertyOp14
 70
     1
102
RTVSPropertyOp15
 70
     1
102
RTVSPropertyOp16
 70
     1
102
RTVSPropertyOp17
 70
     1
102
RTVSPropertyOp18
 70
     1
102
RTVSPropertyOp19
 70
     1
102
RTVSPropertyOp20
 70
     1
102
RTVSPropertyOp21
 70
     1
102
RTVSPropertyOp22
 70
     1
102
RTVSPropertyOp23
 70
     1
102
RTVSPropertyOp24
 70
     1
102
RTVSPropertyOp25
 70
     1
102
RTVSPropertyOp26
 70
     1
102
RTVSPropertyOp27
 70
     1
102
RTVSPropertyOp28
 70
     1
102
RTVSPropertyOp29
 70
     1
102
RTVSPropertyOp30
 70
     1
102
RTVSPropertyOp31
 70
     1
102
RTVSPropertyOp32
 70
     1
102
RTVSPropertyOp33
 70
     1
102
RTVSPropertyOp34
 70
     1
102
RTVSPropertyOp35
 70
     1
102
RTVSPropertyOp36
 70
     1
102
RTVSPropertyOp37
 70
     1
102
RTVSPropertyOp38
 70
     1
102
RTVSPropertyOp39
 70
     1
102
RTVSPropertyOp40
 70
     1
102
RTVSPropertyOp41
 70
     1
102
RTVSPropertyOp42
 70
     1
102
RTVSPropertyOp43
 70
     1
102
RTVSPropertyOp44
 70
     1
102
RTVSPropertyOp45
 70
     1
102
RTVSPropertyOp46
 70
     1
102
RTVSPropertyOp47
 70
     1
102
RTVSPropertyOp48
 70
     1
102
RTVSPropertyOp49
 70
     1
102
RTVSPropertyOp50
 70
     1
102
RTVSPropertyOp51
 70
     0
102
RTVSPropertyOp52
 70
     0
102
RTVSPropertyOp53
 70
     1
102
RTVSPropertyOp54
 70
     1
102
RTVSPropertyOp55
 70
     1
102
RTVSPropertyOp56
 70
     1
102
RTVSPropertyOp57
 70
     1
102
RTVSPropertyOp58
 70
     1
102
RTVSPropertyOp59
 70
     1
102
RTVSPropertyOp60
 70
     1
102
RTVSPropertyOp61
 70
     1
102
RTVSPropertyOp62
 70
     1
  0
XRECORD
  5
378
102
{ACAD_REACTORS
330
377
102
}
330
377
100
AcDbXrecord
280
     1
102
RTVSPost2010Prop28
280
     0
102
RTVSPost2010PropOp28
 70
     1
102
RTVSPost2010Prop29
280
     1
102
RTVSPost2010PropOp29
 70
     1
102
RTVSPost2010Prop30
280
     1
102
RTVSPost2010PropOp30
 70
     1
102
RTVSPost2010Prop31
280
     0
102
RTVSPost2010PropOp31
 70
     1
102
RTVSPost2010Prop32
280
     0
102
RTVSPost2010PropOp32
 70
     1
102
RTVSPost2010Prop33
280
     0
102
RTVSPost2010PropOp33
 70
     1
102
RTVSPost2010Prop34
280
     0
102
RTVSPost2010PropOp34
 70
     1
102
RTVSPost2010Prop35
280
     0
102
RTVSPost2010PropOp35
 70
     1
102
RTVSPost2010Prop36
280
     0
102
RTVSPost2010PropOp36
 70
     1
102
RTVSPost2010Prop37
 90
       50
102
RTVSPost2010PropOp37
 70
     1
102
RTVSPost2010Prop38
140
0.0
102
RTVSPost2010PropOp38
 70
     1
102
RTVSPost2010Prop39
140
1.0
102
RTVSPost2010PropOp39
 70
     1
102
RTVSPost2010Prop40
 90
        0
102
RTVSPost2010PropOp40
 70
     1
102
RTVSPost2010Prop41ColorIndex
 90
       18
102
RTVSPost2010Prop41ColorRGB
 90
        0
102
RTVSPost2010PropOp41
 70
     1
102
RTVSPost2010Prop42
 90
       50
102
RTVSPost2010PropOp42
 70
     1
102
RTVSPost2010Prop43
 90
        3
102
RTVSPost2010PropOp43
 70
     1
102
RTVSPost2010Prop44ColorIndex
 90
        5
102
RTVSPost2010Prop44ColorRGB
 90
      255
102
RTVSPost2010PropOp44
 70
     1
102
RTVSPost2010Prop45
280
     0
102
RTVSPost2010PropOp45
 70
     1
102
RTVSPost2010Prop46
 90
       50
102
RTVSPost2010PropOp46
 70
     1
102
RTVSPost2010Prop47
 90
       50
102
RTVSPost2010PropOp47
 70
     1
102
RTVSPost2010Prop48
 90
       50
102
RTVSPost2010PropOp48
 70
     1
102
RTVSPost2010Prop49
280
     0
102
RTVSPost2010PropOp49
 70
     1
102
RTVSPost2010Prop50
 90
       50
102
RTVSPost2010PropOp50
 70
     1
102
RTVSPost2010Prop51ColorIndex
 90
      256
102
RTVSPost2010Prop51ColorRGB
 90
-16777216
102
RTVSPost2010PropOp51
 70
     0
102
RTVSPost2010Prop52
140
1.0
102
RTVSPost2010PropOp52
 70
     0
102
RTVSPost2010Prop53
 90
        2
102
RTVSPost2010PropOp53
 70
     1
102
RTVSPost2010Prop54
  1
strokes_ogs.tif
102
RTVSPost2010PropOp54
 70
     1
102
RTVSPost2010Prop55
280
     0
102
RTVSPost2010PropOp55
 70
     1
102
RTVSPost2010Prop56
140
1.0
102
RTVSPost2010PropOp56
 70
     1
102
RTVSPost2010Prop57
140
1.0
102
RTVSPost2010PropOp57
 70
     1
102
RTVSPropertyOp0
 70
     1
102
RTVSPropertyOp1
 70
     1
102
RTVSPropertyOp2
 70
     1
102
RTVSPropertyOp3
 70
     1
102
RTVSPropertyOp4
 70
     1
102
RTVSPropertyOp5
 70
     1
102
RTVSPropertyOp6
 70
     1
102
RTVSPropertyOp7
 70
     1
102
RTVSPropertyOp8
 70
     1
102
RTVSPropertyOp9
 70
     1
102
RTVSPropertyOp10
 70
     1
102
RTVSPropertyOp11
 70
     1
102
RTVSPropertyOp12
 70
     1
102
RTVSPropertyOp13
 70
     1
102
RTVSPropertyOp14
 70
     1
102
RTVSPropertyOp15
 70
     1
102
RTVSPropertyOp16
 70
     1
102
RTVSPropertyOp17
 70
     1
102
RTVSPropertyOp18
 70
     1
102
RTVSPropertyOp19
 70
     1
102
RTVSPropertyOp20
 70
     1
102
RTVSPropertyOp21
 70
     1
102
RTVSPropertyOp22
 70
     1
102
RTVSPropertyOp23
 70
     1
102
RTVSPropertyOp24
 70
     1
102
RTVSPropertyOp25
 70
     1
102
RTVSPropertyOp26
 70
     1
102
RTVSPropertyOp27
 70
     1
102
RTVSPropertyOp28
 70
     1
102
RTVSPropertyOp29
 70
     1
102
RTVSPropertyOp30
 70
     1
102
RTVSPropertyOp31
 70
     1
102
RTVSPropertyOp32
 70
     1
102
RTVSPropertyOp33
 70
     1
102
RTVSPropertyOp34
 70
     1
102
RTVSPropertyOp35
 70
     1
102
RTVSPropertyOp36
 70
     1
102
RTVSPropertyOp37
 70
     1
102
RTVSPropertyOp38
 70
     1
102
RTVSPropertyOp39
 70
     1
102
RTVSPropertyOp40
 70
     1
102
RTVSPropertyOp41
 70
     1
102
RTVSPropertyOp42
 70
     1
102
RTVSPropertyOp43
 70
     1
102
RTVSPropertyOp44
 70
     1
102
RTVSPropertyOp45
 70
     1
102
RTVSPropertyOp46
 70
     1
102
RTVSPropertyOp47
 70
     1
102
RTVSPropertyOp48
 70
     1
102
RTVSPropertyOp49
 70
     1
102
RTVSPropertyOp50
 70
     1
102
RTVSPropertyOp51
 70
     0
102
RTVSPropertyOp52
 70
     0
102
RTVSPropertyOp53
 70
     1
102
RTVSPropertyOp54
 70
     1
102
RTVSPropertyOp55
 70
     1
102
RTVSPropertyOp56
 70
     1
102
RTVSPropertyOp57
 70
     1
102
RTVSPropertyOp58
 70
     1
102
RTVSPropertyOp59
 70
     1
102
RTVSPropertyOp60
 70
     1
102
RTVSPropertyOp61
 70
     1
102
RTVSPropertyOp62
 70
     1
  0
XRECORD
  5
36E
102
{ACAD_REACTORS
330
36D
102
}
330
36D
100
AcDbXrecord
280
     1
102
RTVSPost2010Prop28
280
     0
102
RTVSPost2010PropOp28
 70
     1
102
RTVSPost2010Prop29
280
     1
102
RTVSPost2010PropOp29
 70
     1
102
RTVSPost2010Prop30
280
     1
102
RTVSPost2010PropOp30
 70
     1
102
RTVSPost2010Prop31
280
     0
102
RTVSPost2010PropOp31
 70
     1
102
RTVSPost2010Prop32
280
     0
102
RTVSPost2010PropOp32
 70
     1
102
RTVSPost2010Prop33
280
     0
102
RTVSPost2010PropOp33
 70
     1
102
RTVSPost2010Prop34
280
     0
102
RTVSPost2010PropOp34
 70
     1
102
RTVSPost2010Prop35
280
     0
102
RTVSPost2010PropOp35
 70
     1
102
RTVSPost2010Prop36
280
     0
102
RTVSPost2010PropOp36
 70
     1
102
RTVSPost2010Prop37
 90
       50
102
RTVSPost2010PropOp37
 70
     1
102
RTVSPost2010Prop38
140
0.0
102
RTVSPost2010PropOp38
 70
     1
102
RTVSPost2010Prop39
140
1.0
102
RTVSPost2010PropOp39
 70
     1
102
RTVSPost2010Prop40
 90
        0
102
RTVSPost2010PropOp40
 70
     1
102
RTVSPost2010Prop41ColorIndex
 90
       18
102
RTVSPost2010Prop41ColorRGB
 90
        0
102
RTVSPost2010PropOp41
 70
     1
102
RTVSPost2010Prop42
 90
       50
102
RTVSPost2010PropOp42
 70
     1
102
RTVSPost2010Prop43
 90
        3
102
RTVSPost2010PropOp43
 70
     1
102
RTVSPost2010Prop44ColorIndex
 90
        5
102
RTVSPost2010Prop44ColorRGB
 90
      255
102
RTVSPost2010PropOp44
 70
     1
102
RTVSPost2010Prop45
280
     0
102
RTVSPost2010PropOp45
 70
     1
102
RTVSPost2010Prop46
 90
       50
102
RTVSPost2010PropOp46
 70
     1
102
RTVSPost2010Prop47
 90
       50
102
RTVSPost2010PropOp47
 70
     1
102
RTVSPost2010Prop48
 90
       50
102
RTVSPost2010PropOp48
 70
     1
102
RTVSPost2010Prop49
280
     0
102
RTVSPost2010PropOp49
 70
     1
102
RTVSPost2010Prop50
 90
       50
102
RTVSPost2010PropOp50
 70
     1
102
RTVSPost2010Prop51ColorIndex
 90
      256
102
RTVSPost2010Prop51ColorRGB
 90
-16777216
102
RTVSPost2010PropOp51
 70
     0
102
RTVSPost2010Prop52
140
1.0
102
RTVSPost2010PropOp52
 70
     0
102
RTVSPost2010Prop53
 90
        2
102
RTVSPost2010PropOp53
 70
     1
102
RTVSPost2010Prop54
  1
strokes_ogs.tif
102
RTVSPost2010PropOp54
 70
     1
102
RTVSPost2010Prop55
280
     0
102
RTVSPost2010PropOp55
 70
     1
102
RTVSPost2010Prop56
140
1.0
102
RTVSPost2010PropOp56
 70
     1
102
RTVSPost2010Prop57
140
1.0
102
RTVSPost2010PropOp57
 70
     1
102
RTVSPropertyOp0
 70
     1
102
RTVSPropertyOp1
 70
     1
102
RTVSPropertyOp2
 70
     1
102
RTVSPropertyOp3
 70
     1
102
RTVSPropertyOp4
 70
     1
102
RTVSPropertyOp5
 70
     1
102
RTVSPropertyOp6
 70
     1
102
RTVSPropertyOp7
 70
     1
102
RTVSPropertyOp8
 70
     1
102
RTVSPropertyOp9
 70
     1
102
RTVSPropertyOp10
 70
     1
102
RTVSPropertyOp11
 70
     1
102
RTVSPropertyOp12
 70
     1
102
RTVSPropertyOp13
 70
     1
102
RTVSPropertyOp14
 70
     1
102
RTVSPropertyOp15
 70
     1
102
RTVSPropertyOp16
 70
     1
102
RTVSPropertyOp17
 70
     1
102
RTVSPropertyOp18
 70
     1
102
RTVSPropertyOp19
 70
     1
102
RTVSPropertyOp20
 70
     1
102
RTVSPropertyOp21
 70
     1
102
RTVSPropertyOp22
 70
     1
102
RTVSPropertyOp23
 70
     1
102
RTVSPropertyOp24
 70
     1
102
RTVSPropertyOp25
 70
     1
102
RTVSPropertyOp26
 70
     1
102
RTVSPropertyOp27
 70
     1
102
RTVSPropertyOp28
 70
     1
102
RTVSPropertyOp29
 70
     1
102
RTVSPropertyOp30
 70
     1
102
RTVSPropertyOp31
 70
     1
102
RTVSPropertyOp32
 70
     1
102
RTVSPropertyOp33
 70
     1
102
RTVSPropertyOp34
 70
     1
102
RTVSPropertyOp35
 70
     1
102
RTVSPropertyOp36
 70
     1
102
RTVSPropertyOp37
 70
     1
102
RTVSPropertyOp38
 70
     1
102
RTVSPropertyOp39
 70
     1
102
RTVSPropertyOp40
 70
     1
102
RTVSPropertyOp41
 70
     1
102
RTVSPropertyOp42
 70
     1
102
RTVSPropertyOp43
 70
     1
102
RTVSPropertyOp44
 70
     1
102
RTVSPropertyOp45
 70
     1
102
RTVSPropertyOp46
 70
     1
102
RTVSPropertyOp47
 70
     1
102
RTVSPropertyOp48
 70
     1
102
RTVSPropertyOp49
 70
     1
102
RTVSPropertyOp50
 70
     1
102
RTVSPropertyOp51
 70
     0
102
RTVSPropertyOp52
 70
     0
102
RTVSPropertyOp53
 70
     1
102
RTVSPropertyOp54
 70
     1
102
RTVSPropertyOp55
 70
     1
102
RTVSPropertyOp56
 70
     1
102
RTVSPropertyOp57
 70
     1
102
RTVSPropertyOp58
 70
     1
102
RTVSPropertyOp59
 70
     1
102
RTVSPropertyOp60
 70
     1
102
RTVSPropertyOp61
 70
     1
102
RTVSPropertyOp62
 70
     1
  0
XRECORD
  5
362
102
{ACAD_REACTORS
330
361
102
}
330
361
100
AcDbXrecord
280
     1
102
RTVSPost2010Prop28
280
     0
102
RTVSPost2010PropOp28
 70
     1
102
RTVSPost2010Prop29
280
     1
102
RTVSPost2010PropOp29
 70
     1
102
RTVSPost2010Prop30
280
     1
102
RTVSPost2010PropOp30
 70
     1
102
RTVSPost2010Prop31
280
     0
102
RTVSPost2010PropOp31
 70
     1
102
RTVSPost2010Prop32
280
     0
102
RTVSPost2010PropOp32
 70
     1
102
RTVSPost2010Prop33
280
     0
102
RTVSPost2010PropOp33
 70
     1
102
RTVSPost2010Prop34
280
     0
102
RTVSPost2010PropOp34
 70
     1
102
RTVSPost2010Prop35
280
     0
102
RTVSPost2010PropOp35
 70
     1
102
RTVSPost2010Prop36
280
     0
102
RTVSPost2010PropOp36
 70
     1
102
RTVSPost2010Prop37
 90
       50
102
RTVSPost2010PropOp37
 70
     1
102
RTVSPost2010Prop38
140
0.0
102
RTVSPost2010PropOp38
 70
     1
102
RTVSPost2010Prop39
140
1.0
102
RTVSPost2010PropOp39
 70
     1
102
RTVSPost2010Prop40
 90
        0
102
RTVSPost2010PropOp40
 70
     1
102
RTVSPost2010Prop41ColorIndex
 90
       18
102
RTVSPost2010Prop41ColorRGB
 90
        0
102
RTVSPost2010PropOp41
 70
     1
102
RTVSPost2010Prop42
 90
       50
102
RTVSPost2010PropOp42
 70
     1
102
RTVSPost2010Prop43
 90
        3
102
RTVSPost2010PropOp43
 70
     1
102
RTVSPost2010Prop44ColorIndex
 90
        5
102
RTVSPost2010Prop44ColorRGB
 90
      255
102
RTVSPost2010PropOp44
 70
     1
102
RTVSPost2010Prop45
280
     0
102
RTVSPost2010PropOp45
 70
     1
102
RTVSPost2010Prop46
 90
       50
102
RTVSPost2010PropOp46
 70
     1
102
RTVSPost2010Prop47
 90
       50
102
RTVSPost2010PropOp47
 70
     1
102
RTVSPost2010Prop48
 90
       50
102
RTVSPost2010PropOp48
 70
     1
102
RTVSPost2010Prop49
280
     0
102
RTVSPost2010PropOp49
 70
     1
102
RTVSPost2010Prop50
 90
       50
102
RTVSPost2010PropOp50
 70
     1
102
RTVSPost2010Prop51ColorIndex
 90
      256
102
RTVSPost2010Prop51ColorRGB
 90
-16777216
102
RTVSPost2010PropOp51
 70
     0
102
RTVSPost2010Prop52
140
1.0
102
RTVSPost2010PropOp52
 70
     0
102
RTVSPost2010Prop53
 90
        2
102
RTVSPost2010PropOp53
 70
     1
102
RTVSPost2010Prop54
  1
strokes_ogs.tif
102
RTVSPost2010PropOp54
 70
     1
102
RTVSPost2010Prop55
280
     0
102
RTVSPost2010PropOp55
 70
     1
102
RTVSPost2010Prop56
140
1.0
102
RTVSPost2010PropOp56
 70
     1
102
RTVSPost2010Prop57
140
1.0
102
RTVSPost2010PropOp57
 70
     1
102
RTVSPropertyOp0
 70
     1
102
RTVSPropertyOp1
 70
     1
102
RTVSPropertyOp2
 70
     1
102
RTVSPropertyOp3
 70
     1
102
RTVSPropertyOp4
 70
     1
102
RTVSPropertyOp5
 70
     1
102
RTVSPropertyOp6
 70
     1
102
RTVSPropertyOp7
 70
     1
102
RTVSPropertyOp8
 70
     1
102
RTVSPropertyOp9
 70
     1
102
RTVSPropertyOp10
 70
     1
102
RTVSPropertyOp11
 70
     1
102
RTVSPropertyOp12
 70
     1
102
RTVSPropertyOp13
 70
     1
102
RTVSPropertyOp14
 70
     1
102
RTVSPropertyOp15
 70
     1
102
RTVSPropertyOp16
 70
     1
102
RTVSPropertyOp17
 70
     1
102
RTVSPropertyOp18
 70
     1
102
RTVSPropertyOp19
 70
     1
102
RTVSPropertyOp20
 70
     1
102
RTVSPropertyOp21
 70
     1
102
RTVSPropertyOp22
 70
     1
102
RTVSPropertyOp23
 70
     1
102
RTVSPropertyOp24
 70
     1
102
RTVSPropertyOp25
 70
     1
102
RTVSPropertyOp26
 70
     1
102
RTVSPropertyOp27
 70
     1
102
RTVSPropertyOp28
 70
     1
102
RTVSPropertyOp29
 70
     1
102
RTVSPropertyOp30
 70
     1
102
RTVSPropertyOp31
 70
     1
102
RTVSPropertyOp32
 70
     1
102
RTVSPropertyOp33
 70
     1
102
RTVSPropertyOp34
 70
     1
102
RTVSPropertyOp35
 70
     1
102
RTVSPropertyOp36
 70
     1
102
RTVSPropertyOp37
 70
     1
102
RTVSPropertyOp38
 70
     1
102
RTVSPropertyOp39
 70
     1
102
RTVSPropertyOp40
 70
     1
102
RTVSPropertyOp41
 70
     1
102
RTVSPropertyOp42
 70
     1
102
RTVSPropertyOp43
 70
     1
102
RTVSPropertyOp44
 70
     1
102
RTVSPropertyOp45
 70
     1
102
RTVSPropertyOp46
 70
     1
102
RTVSPropertyOp47
 70
     1
102
RTVSPropertyOp48
 70
     1
102
RTVSPropertyOp49
 70
     1
102
RTVSPropertyOp50
 70
     1
102
RTVSPropertyOp51
 70
     0
102
RTVSPropertyOp52
 70
     0
102
RTVSPropertyOp53
 70
     1
102
RTVSPropertyOp54
 70
     1
102
RTVSPropertyOp55
 70
     1
102
RTVSPropertyOp56
 70
     1
102
RTVSPropertyOp57
 70
     1
102
RTVSPropertyOp58
 70
     1
102
RTVSPropertyOp59
 70
     1
102
RTVSPropertyOp60
 70
     1
102
RTVSPropertyOp61
 70
     1
102
RTVSPropertyOp62
 70
     1
  0
XRECORD
  5
37A
102
{ACAD_REACTORS
330
379
102
}
330
379
100
AcDbXrecord
280
     1
102
RTVSPost2010Prop28
280
     0
102
RTVSPost2010PropOp28
 70
     1
102
RTVSPost2010Prop29
280
     1
102
RTVSPost2010PropOp29
 70
     1
102
RTVSPost2010Prop30
280
     1
102
RTVSPost2010PropOp30
 70
     1
102
RTVSPost2010Prop31
280
     0
102
RTVSPost2010PropOp31
 70
     1
102
RTVSPost2010Prop32
280
     0
102
RTVSPost2010PropOp32
 70
     1
102
RTVSPost2010Prop33
280
     0
102
RTVSPost2010PropOp33
 70
     1
102
RTVSPost2010Prop34
280
     0
102
RTVSPost2010PropOp34
 70
     1
102
RTVSPost2010Prop35
280
     0
102
RTVSPost2010PropOp35
 70
     1
102
RTVSPost2010Prop36
280
     0
102
RTVSPost2010PropOp36
 70
     1
102
RTVSPost2010Prop37
 90
       50
102
RTVSPost2010PropOp37
 70
     1
102
RTVSPost2010Prop38
140
0.0
102
RTVSPost2010PropOp38
 70
     1
102
RTVSPost2010Prop39
140
1.0
102
RTVSPost2010PropOp39
 70
     1
102
RTVSPost2010Prop40
 90
        0
102
RTVSPost2010PropOp40
 70
     1
102
RTVSPost2010Prop41ColorIndex
 90
       18
102
RTVSPost2010Prop41ColorRGB
 90
        0
102
RTVSPost2010PropOp41
 70
     1
102
RTVSPost2010Prop42
 90
       50
102
RTVSPost2010PropOp42
 70
     1
102
RTVSPost2010Prop43
 90
        3
102
RTVSPost2010PropOp43
 70
     1
102
RTVSPost2010Prop44ColorIndex
 90
        5
102
RTVSPost2010Prop44ColorRGB
 90
      255
102
RTVSPost2010PropOp44
 70
     1
102
RTVSPost2010Prop45
280
     0
102
RTVSPost2010PropOp45
 70
     1
102
RTVSPost2010Prop46
 90
       50
102
RTVSPost2010PropOp46
 70
     1
102
RTVSPost2010Prop47
 90
       50
102
RTVSPost2010PropOp47
 70
     1
102
RTVSPost2010Prop48
 90
       50
102
RTVSPost2010PropOp48
 70
     1
102
RTVSPost2010Prop49
280
     0
102
RTVSPost2010PropOp49
 70
     1
102
RTVSPost2010Prop50
 90
       50
102
RTVSPost2010PropOp50
 70
     1
102
RTVSPost2010Prop51ColorIndex
 90
      256
102
RTVSPost2010Prop51ColorRGB
 90
-16777216
102
RTVSPost2010PropOp51
 70
     0
102
RTVSPost2010Prop52
140
1.0
102
RTVSPost2010PropOp52
 70
     0
102
RTVSPost2010Prop53
 90
        2
102
RTVSPost2010PropOp53
 70
     1
102
RTVSPost2010Prop54
  1
strokes_ogs.tif
102
RTVSPost2010PropOp54
 70
     1
102
RTVSPost2010Prop55
280
     0
102
RTVSPost2010PropOp55
 70
     1
102
RTVSPost2010Prop56
140
1.0
102
RTVSPost2010PropOp56
 70
     1
102
RTVSPost2010Prop57
140
1.0
102
RTVSPost2010PropOp57
 70
     1
102
RTVSPropertyOp0
 70
     1
102
RTVSPropertyOp1
 70
     1
102
RTVSPropertyOp2
 70
     1
102
RTVSPropertyOp3
 70
     1
102
RTVSPropertyOp4
 70
     1
102
RTVSPropertyOp5
 70
     1
102
RTVSPropertyOp6
 70
     1
102
RTVSPropertyOp7
 70
     1
102
RTVSPropertyOp8
 70
     1
102
RTVSPropertyOp9
 70
     1
102
RTVSPropertyOp10
 70
     1
102
RTVSPropertyOp11
 70
     1
102
RTVSPropertyOp12
 70
     1
102
RTVSPropertyOp13
 70
     1
102
RTVSPropertyOp14
 70
     1
102
RTVSPropertyOp15
 70
     1
102
RTVSPropertyOp16
 70
     1
102
RTVSPropertyOp17
 70
     1
102
RTVSPropertyOp18
 70
     1
102
RTVSPropertyOp19
 70
     1
102
RTVSPropertyOp20
 70
     1
102
RTVSPropertyOp21
 70
     1
102
RTVSPropertyOp22
 70
     1
102
RTVSPropertyOp23
 70
     1
102
RTVSPropertyOp24
 70
     1
102
RTVSPropertyOp25
 70
     1
102
RTVSPropertyOp26
 70
     1
102
RTVSPropertyOp27
 70
     1
102
RTVSPropertyOp28
 70
     1
102
RTVSPropertyOp29
 70
     1
102
RTVSPropertyOp30
 70
     1
102
RTVSPropertyOp31
 70
     1
102
RTVSPropertyOp32
 70
     1
102
RTVSPropertyOp33
 70
     1
102
RTVSPropertyOp34
 70
     1
102
RTVSPropertyOp35
 70
     1
102
RTVSPropertyOp36
 70
     1
102
RTVSPropertyOp37
 70
     1
102
RTVSPropertyOp38
 70
     1
102
RTVSPropertyOp39
 70
     1
102
RTVSPropertyOp40
 70
     1
102
RTVSPropertyOp41
 70
     1
102
RTVSPropertyOp42
 70
     1
102
RTVSPropertyOp43
 70
     1
102
RTVSPropertyOp44
 70
     1
102
RTVSPropertyOp45
 70
     1
102
RTVSPropertyOp46
 70
     1
102
RTVSPropertyOp47
 70
     1
102
RTVSPropertyOp48
 70
     1
102
RTVSPropertyOp49
 70
     1
102
RTVSPropertyOp50
 70
     1
102
RTVSPropertyOp51
 70
     0
102
RTVSPropertyOp52
 70
     0
102
RTVSPropertyOp53
 70
     1
102
RTVSPropertyOp54
 70
     1
102
RTVSPropertyOp55
 70
     1
102
RTVSPropertyOp56
 70
     1
102
RTVSPropertyOp57
 70
     1
102
RTVSPropertyOp58
 70
     1
102
RTVSPropertyOp59
 70
     1
102
RTVSPropertyOp60
 70
     1
102
RTVSPropertyOp61
 70
     1
102
RTVSPropertyOp62
 70
     1
  0
ENDSEC
  0
EOF
