  0
SECTION
  2
HEADER
  9
$ACADVER
  1
AC1009
  9
$INSBASE
 10
0.0
 20
0.0
 30
0.0
  9
$EXTMIN
 10
-170.0164782349211
 20
-265.80211091866681
 30
-0.0015258207003583
  9
$EXTMAX
 10
370.0164807494923
 20
537.08808227102497
 30
0.0000000349246037
  9
$LIMMIN
 10
0.0
 20
0.0
  9
$LIMMAX
 10
0.0
 20
0.0
  9
$ORTHOMODE
 70
     0
  9
$REGENMODE
 70
     1
  9
$FILLMODE
 70
     1
  9
$QTEXTMODE
 70
     0
  9
$MIRRTEXT
 70
     1
  9
$DRAGMODE
 70
     2
  9
$LTSCALE
 40
15.24
  9
$OSMODE
 70
   231
  9
$ATTMODE
 70
     1
  9
$TEXTSIZE
 40
0.0
  9
$TRACEWID
 40
1.0
  9
$TEXTSTYLE
  7
STANDARD
  9
$CLAYER
  8
DATA
  9
$CELTYPE
  6
BYLAYER
  9
$CECOLOR
 62
   256
  9
$DIMSCALE
 40
1.0
  9
$DIMASZ
 40
0.18
  9
$DIMEXO
 40
0.0625
  9
$DIMDLI
 40
0.38
  9
$DIMRND
 40
0.0
  9
$DIMDLE
 40
0.0
  9
$DIMEXE
 40
0.18
  9
$DIMTP
 40
0.0
  9
$DIMTM
 40
0.0
  9
$DIMTXT
 40
0.18
  9
$DIMCEN
 40
0.09
  9
$DIMTSZ
 40
0.0
  9
$DIMTOL
 70
     0
  9
$DIMLIM
 70
     0
  9
$DIMTIH
 70
     1
  9
$DIMTOH
 70
     1
  9
$DIMSE1
 70
     0
  9
$DIMSE2
 70
     0
  9
$DIMTAD
 70
     0
  9
$DIMZIN
 70
     0
  9
$DIMBLK
  1

  9
$DIMASO
 70
     1
  9
$DIMSHO
 70
     1
  9
$DIMPOST
  1

  9
$DIMAPOST
  1

  9
$DIMALT
 70
     0
  9
$DIMALTD
 70
     2
  9
$DIMALTF
 40
25.399999999999999
  9
$DIMLFAC
 40
1.0
  9
$DIMTOFL
 70
     0
  9
$DIMTVP
 40
0.0
  9
$DIMTIX
 70
     0
  9
$DIMSOXD
 70
     0
  9
$DIMSAH
 70
     0
  9
$DIMBLK1
  1

  9
$DIMBLK2
  1

  9
$DIMSTYLE
  2
STANDARD
  9
$DIMCLRD
 70
     0
  9
$DIMCLRE
 70
     0
  9
$DIMCLRT
 70
     0
  9
$DIMTFAC
 40
1.0
  9
$DIMGAP
 40
0.09
  9
$LUNITS
 70
     2
  9
$LUPREC
 70
     4
  9
$SKETCHINC
 40
0.1
  9
$FILLETRAD
 40
0.0
  9
$AUNITS
 70
     0
  9
$AUPREC
 70
     0
  9
$MENU
  1
acad
  9
$ELEVATION
 40
0.0
  9
$PELEVATION
 40
0.0
  9
$THICKNESS
 40
0.0
  9
$LIMCHECK
 70
     0
  9
$BLIPMODE
 70
     0
  9
$CHAMFERA
 40
0.0
  9
$CHAMFERB
 40
0.0
  9
$SKPOLY
 70
     0
  9
$TDCREATE
 40
2455022.7356481482
  9
$TDUPDATE
 40
2455022.7367817359
  9
$TDINDWG
 40
0.0004515625
  9
$TDUSRTIMER
 40
0.0004488426
  9
$USRTIMER
 70
     1
  9
$ANGBASE
 50
0.0
  9
$ANGDIR
 70
     0
  9
$PDMODE
 70
     1
  9
$PDSIZE
 40
-2.0
  9
$PLINEWID
 40
0.0
  9
$COORDS
 70
     0
  9
$SPLFRAME
 70
     0
  9
$SPLINETYPE
 70
     6
  9
$SPLINESEGS
 70
     8
  9
$ATTDIA
 70
     0
  9
$ATTREQ
 70
     1
  9
$HANDLING
 70
     1
  9
$HANDSEED
  5
290
  9
$SURFTAB1
 70
     6
  9
$SURFTAB2
 70
     6
  9
$SURFTYPE
 70
     6
  9
$SURFU
 70
     6
  9
$SURFV
 70
     6
  9
$UCSNAME
  2

  9
$UCSORG
 10
0.0
 20
0.0
 30
0.0
  9
$UCSXDIR
 10
1.0
 20
0.0
 30
0.0
  9
$UCSYDIR
 10
0.0
 20
1.0
 30
0.0
  9
$PUCSNAME
  2

  9
$PUCSORG
 10
0.0
 20
0.0
 30
0.0
  9
$PUCSXDIR
 10
1.0
 20
0.0
 30
0.0
  9
$PUCSYDIR
 10
0.0
 20
1.0
 30
0.0
  9
$USERI1
 70
     0
  9
$USERI2
 70
     0
  9
$USERI3
 70
     0
  9
$USERI4
 70
     0
  9
$USERI5
 70
     0
  9
$USERR1
 40
0.0
  9
$USERR2
 40
0.0
  9
$USERR3
 40
0.0
  9
$USERR4
 40
0.0
  9
$USERR5
 40
0.0
  9
$WORLDVIEW
 70
     1
  9
$SHADEDGE
 70
     3
  9
$SHADEDIF
 70
    70
  9
$TILEMODE
 70
     1
  9
$MAXACTVP
 70
    64
  9
$PLIMCHECK
 70
     0
  9
$PEXTMIN
 10
1.0000000000000000E+020
 20
1.0000000000000000E+020
 30
1.0000000000000000E+020
  9
$PEXTMAX
 10
-1.0000000000000000E+020
 20
-1.0000000000000000E+020
 30
-1.0000000000000000E+020
  9
$PLIMMIN
 10
0.0
 20
0.0
  9
$PLIMMAX
 10
12.0
 20
9.0
  9
$UNITMODE
 70
     0
  9
$VISRETAIN
 70
     0
  9
$PLINEGEN
 70
     1
  9
$PSLTSCALE
 70
     0
  0
ENDSEC
  0
SECTION
  2
TABLES
  0
TABLE
  2
VPORT
 70
     1
  0
VPORT
  2
*ACTIVE
 70
     0
 10
0.0
 20
0.0
 11
1.0
 21
1.0
 12
100.0000012572857
 22
135.64298567617911
 13
0.0
 23
0.0
 14
1.0
 24
1.0
 15
0.0
 25
0.0
 16
0.0
 26
0.0
 36
1.0
 17
0.0
 27
0.0
 37
0.0
 40
808.80830272180265
 41
1.964329643296433
 42
50.0
 43
0.0
 44
0.0
 50
0.0
 51
0.0
 71
     0
 72
  2000
 73
     1
 74
     1
 75
     0
 76
     0
 77
     0
 78
     0
  0
ENDTAB
  0
TABLE
  2
LTYPE
 70
    11
  0
LTYPE
  2
CONTINUOUS
 70
     0
  3
Solid line
 72
    65
 73
     0
 40
0.0
  0
LTYPE
  2
STYLE_05
 70
     0
  3

 72
    65
 73
     2
 40
0.208282470703125
 49
0.069427490234375
 49
-0.13885498046875
  0
ENDTAB
  0
TABLE
  2
LAYER
 70
     5
  0
LAYER
  2
0
 70
     0
 62
     7
  6
CONTINUOUS
  0
LAYER
  2
DATA
 70
     0
 62
     7
  6
CONTINUOUS
  0
LAYER
  2
HIBINO-BASE
 70
     0
 62
     7
  6
CONTINUOUS
  0
LAYER
  2
SPEC
 70
     0
 62
     7
  6
CONTINUOUS
  0
LAYER
  2
DIMNSIONS
 70
     0
 62
     7
  6
CONTINUOUS
  0
ENDTAB
  0
TABLE
  2
STYLE
 70
     3
  0
STYLE
  2
STANDARD
 70
     0
 40
0.0
 41
1.0
 50
0.0
 71
     0
 42
0.0
  3
txt
  4
BIGFONT.SHX
  0
ENDTAB
  0
TABLE
  2
VIEW
 70
     0
  0
ENDTAB
  0
TABLE
  2
UCS
 70
     0
  0
ENDTAB
  0
TABLE
  2
APPID
 70
     3
  0
APPID
  2
ACAD
 70
     0
  0
APPID
  2
ACADANNOTATIVE
 70
     0
  0
APPID
  2
ACAD_MLEADERVER
 70
     0
  0
ENDTAB
  0
TABLE
  2
DIMSTYLE
 70
     2
  0
DIMSTYLE
  2
STANDARD
 70
     0
  3

  4

  5

  6

  7

 40
1.0
 41
0.18
 42
0.0625
 43
0.38
 44
0.18
 45
0.0
 46
0.0
 47
0.0
 48
0.0
140
0.18
141
0.09
142
0.0
143
25.399999999999999
144
1.0
145
0.0
146
1.0
147
0.09
 71
     0
 72
     0
 73
     1
 74
     1
 75
     0
 76
     0
 77
     0
 78
     0
170
     0
171
     2
172
     0
173
     0
174
     0
175
     0
176
     0
177
     0
178
     0
  0
ENDTAB
  0
ENDSEC
  0
SECTION
  2
BLOCKS
  0
BLOCK
  8
0
  2
$MODEL_SPACE
 70
     0
 10
0.0
 20
0.0
 30
0.0
  3
$MODEL_SPACE
  1

  0
ENDBLK
  5
227
  8
0
  0
BLOCK
 67
     1
  8
0
  2
$PAPER_SPACE
 70
     0
 10
0.0
 20
0.0
 30
0.0
  3
$PAPER_SPACE
  1

  0
ENDBLK
  5
223
 67
     1
  8
0
  0
ENDSEC
  0
SECTION
  2
ENTITIES
  0
LINE
  5
2C
  8
HIBINO-BASE
  6
CONTINUOUS
 62
     7
 10
-169.99999999999989
 20
537.06362999999999
 30
0.0
 11
370.0
 21
537.06362999999999
 31
0.0
  0
LINE
  5
2D
  8
HIBINO-BASE
  6
CONTINUOUS
 62
     7
 10
370.0
 20
-242.93637000000001
 30
0.0
 11
-169.99999999999989
 21
-242.93637000000001
 31
0.0
  0
LINE
  5
2E
  8
HIBINO-BASE
  6
CONTINUOUS
 62
     7
 10
-169.99999999999989
 20
-242.93637000000001
 30
0.0
 11
-169.99999999999989
 21
537.06362999999999
 31
0.0
  0
TEXT
  5
2F
  8
HIBINO-BASE
 62
     7
 10
-148.44799999999989
 20
-262.1624033999999
 30
0.0
 40
10.800132539062499
  1
Hibino Corporation
 41
0.7
 11
-148.44799999999989
 21
-251.3622708609374
 31
0.0
 73
     3
  0
LINE
  5
30
  8
HIBINO-BASE
  6
CONTINUOUS
 62
     7
 10
370.0
 20
537.06362999999999
 30
0.0
 11
370.0
 21
-242.93637000000001
 31
0.0
  0
LINE
  5
31
  8
HIBINO-BASE
  6
CONTINUOUS
 62
     7
 10
100.0
 20
-175.4363699999999
 30
0.0
 11
370.0
 21
-175.4363699999999
 31
0.0
  0
LINE
  5
32
  8
HIBINO-BASE
  6
CONTINUOUS
 62
     7
 10
100.0
 20
-242.93637000000001
 30
0.0
 11
100.0
 21
-175.4363699999999
 31
0.0
  0
TEXT
  5
33
  8
HIBINO-BASE
 62
     7
 10
102.7
 20
-182.96244999999999
 30
0.0
 40
4.8865234374999993
  1
NOTE
 41
0.7
 11
102.7
 21
-178.0759265625
 31
0.0
 73
     3
  0
LINE
  5
34
  8
HIBINO-BASE
  6
CONTINUOUS
 62
     7
 10
205.0
 20
-242.93637000000001
 30
0.0
 11
205.0
 21
-175.4363699999999
 31
0.0
  0
TEXT
  5
35
  8
HIBINO-BASE
 62
     7
 10
207.69999999999999
 20
-182.96244999999999
 30
0.0
 40
4.8865234374999993
  1
TITLE
 41
0.7
 11
207.69999999999999
 21
-178.0759265625
 31
0.0
 73
     3
  0
TEXT
  5
36
  8
HIBINO-BASE
 62
     7
 10
250.2051699999999
 20
-262.1624033999999
 30
0.0
 40
10.800132539062499
  1
ヒビノ株式会社
 41
0.7
 11
250.2051699999999
 21
-251.3622708609374
 31
0.0
 73
     3
  0
LINE
  5
37
  8
HIBINO-BASE
  6
CONTINUOUS
 62
     7
 10
100.0
 20
-212.9363699999999
 30
0.0
 11
370.0
 21
-212.9363699999999
 31
0.0
  0
TEXT
  5
38
  8
HIBINO-BASE
 62
     7
 10
245.19999999999999
 20
-220.29348999999999
 30
0.0
 40
4.8865234374999993
  1
DRAWN
 41
0.7
 11
245.19999999999999
 21
-215.4069665625
 31
0.0
 73
     3
  0
TEXT
  5
39
  8
HIBINO-BASE
 62
     7
 10
170.19999999999999
 20
-220.29348999999999
 30
0.0
 40
4.8865234374999993
  1
DATE
 41
0.7
 11
170.19999999999999
 21
-215.4069665625
 31
0.0
 73
     3
  0
TEXT
  5
3A
  8
HIBINO-BASE
 62
     7
 10
140.19999999999999
 20
-220.29348999999999
 30
0.0
 40
4.8865234374999993
  1
SCALE
 41
0.7
 11
140.19999999999999
 21
-215.4069665625
 31
0.0
 73
     3
  0
TEXT
  5
3B
  8
HIBINO-BASE
 62
     7
 10
207.69999999999999
 20
-220.29348999999999
 30
0.0
 40
4.8865234374999993
  1
DESIGN
 41
0.7
 11
207.69999999999999
 21
-215.4069665625
 31
0.0
 73
     3
  0
TEXT
  5
3C
  8
HIBINO-BASE
 62
     7
 10
320.19999999999999
 20
-220.29348999999999
 30
0.0
 40
4.8865234374999993
  1
DRAWING NO.
 41
0.7
 11
320.19999999999999
 21
-215.4069665625
 31
0.0
 73
     3
  0
TEXT
  5
3D
  8
HIBINO-BASE
 62
     7
 10
282.69999999999999
 20
-220.29348999999999
 30
0.0
 40
4.8865234374999993
  1
CHECK
 41
0.7
 11
282.69999999999999
 21
-215.4069665625
 31
0.0
 73
     3
  0
LINE
  5
3E
  8
HIBINO-BASE
  6
CONTINUOUS
 62
     7
 10
143.12499999999989
 20
-239.18637000000001
 30
0.0
 11
154.375
 21
-227.93637000000001
 31
0.0
  0
TEXT
  5
3F
  8
HIBINO-BASE
 62
     7
 10
141.24999999999989
 20
-231.26320000000001
 30
0.0
 40
4.8865234374999993
  1
1
 41
0.7
 11
141.24999999999989
 21
-226.37667656249999
 31
0.0
 73
     3
  0
LINE
  5
40
  8
HIBINO-BASE
  6
CONTINUOUS
 62
     7
 10
137.5
 20
-242.93637000000001
 30
0.0
 11
137.5
 21
-212.9363699999999
 31
0.0
  0
LINE
  5
41
  8
HIBINO-BASE
  6
CONTINUOUS
 62
     7
 10
167.5
 20
-242.93637000000001
 30
0.0
 11
167.5
 21
-212.9363699999999
 31
0.0
  0
LINE
  5
42
  8
HIBINO-BASE
  6
CONTINUOUS
 62
     7
 10
242.5
 20
-212.9363699999999
 30
0.0
 11
242.5
 21
-242.93637000000001
 31
0.0
  0
LINE
  5
43
  8
HIBINO-BASE
  6
CONTINUOUS
 62
     7
 10
317.5
 20
-212.9363699999999
 30
0.0
 11
317.5
 21
-242.93637000000001
 31
0.0
  0
LINE
  5
44
  8
HIBINO-BASE
  6
CONTINUOUS
 62
     7
 10
279.99999999999989
 20
-242.93637000000001
 30
0.0
 11
279.99999999999989
 21
-212.9363699999999
 31
0.0
  0
TEXT
  5
45
  8
HIBINO-BASE
 62
     7
 10
170.06961999999999
 20
-234.34542999999999
 30
0.0
 40
4.8865234374999993
  1
'09.07.
 41
0.7
 11
170.06961999999999
 21
-229.4589065625
 31
0.0
 73
     3
  0
TEXT
  5
46
  8
HIBINO-BASE
 62
     7
 10
152.5
 20
-236.88820000000001
 30
0.0
 40
4.8865234374999993
  1
3
 41
0.7
 11
152.5
 21
-232.00167656249999
 31
0.0
 73
     3
  0
TEXT
  5
47
  8
HIBINO-BASE
 62
     7
 10
247.01743003310389
 20
-234.34542999999999
 30
0.0
 40
4.8865234374999993
  1
N.Sasaki
 41
0.7
 11
247.01743003310389
 21
-229.4589065625
 31
0.0
 73
     3
  0
TEXT
  5
48
  8
HIBINO-BASE
 62
     7
 10
111.65000000000001
 20
-237.00837000000001
 30
0.0
 40
9.7730468749999986
  1
A4
 41
0.7
 11
111.65000000000001
 21
-227.23532312500001
 31
0.0
 73
     3
  0
TEXT
  5
49
  8
HIBINO-BASE
 62
     7
 10
102.875
 20
-220.794735
 30
0.0
 40
4.8865234374999993
  1
PAPER SIZE
 41
0.7
 11
102.875
 21
-215.90821156249999
 31
0.0
 73
     3
  0
LINE
  5
4A
  8
SPEC
  6
CONTINUOUS
 62
     7
 10
-147.49999999999989
 20
507.06362999999988
 30
0.0
 11
295.0
 21
507.06362999999988
 31
0.0
  0
LINE
  5
4B
  8
SPEC
  6
CONTINUOUS
 62
     7
 10
-147.49999999999989
 20
495.81362999999988
 30
0.0
 11
295.0
 21
495.81362999999988
 31
0.0
  0
LINE
  5
4C
  8
SPEC
  6
CONTINUOUS
 62
     7
 10
-147.49999999999989
 20
473.31362999999988
 30
0.0
 11
295.0
 21
473.31362999999988
 31
0.0
  0
LINE
  5
4D
  8
SPEC
  6
CONTINUOUS
 62
     7
 10
-147.49999999999989
 20
439.56362999999988
 30
0.0
 11
295.0
 21
439.56362999999988
 31
0.0
  0
LINE
  5
4E
  8
SPEC
  6
CONTINUOUS
 62
     7
 10
-147.49999999999989
 20
417.06362999999988
 30
0.0
 11
295.0
 21
417.06362999999988
 31
0.0
  0
LINE
  5
4F
  8
SPEC
  6
CONTINUOUS
 62
     7
 10
-147.49999999999989
 20
428.31362999999988
 30
0.0
 11
295.0
 21
428.31362999999988
 31
0.0
  0
LINE
  5
50
  8
SPEC
  6
CONTINUOUS
 62
     7
 10
-147.49999999999989
 20
405.81362999999988
 30
0.0
 11
295.0
 21
405.81362999999988
 31
0.0
  0
LINE
  5
51
  8
SPEC
  6
CONTINUOUS
 62
     7
 10
-147.49999999999989
 20
484.56362999999988
 30
0.0
 11
295.0
 21
484.56362999999988
 31
0.0
  0
LINE
  5
52
  8
SPEC
  6
CONTINUOUS
 62
     7
 10
-147.49999999999989
 20
507.06362999999988
 30
0.0
 11
-147.49999999999989
 21
405.81362999999988
 31
0.0
  0
TEXT
  5
53
  8
SPEC
 62
     7
 10
-143.74999999999989
 20
511.24343999999979
 30
0.0
 40
7.3297851562499989
  1
仕様
 41
0.7
 11
-143.74999999999989
 21
518.57322515624992
 31
0.0
 73
     3
  0
LINE
  5
54
  8
SPEC
  6
CONTINUOUS
 62
     7
 10
-50.0
 20
507.06362999999988
 30
0.0
 11
-50.0
 21
405.81362999999988
 31
0.0
  0
LINE
  5
55
  8
SPEC
  6
CONTINUOUS
 62
     7
 10
295.0
 20
507.06362999999988
 30
0.0
 11
295.0
 21
405.81362999999988
 31
0.0
  0
TEXT
  5
56
  8
SPEC
 62
     7
 10
-144.9913698921591
 20
498.43795290299607
 30
0.0
 40
5.7009440104166647
  1
形式
 41
0.7
 11
-144.9913698921591
 21
504.13889691341279
 31
0.0
 73
     3
  0
TEXT
  5
57
  8
SPEC
 62
     7
 10
-145.06565694519011
 20
431.25629572849863
 30
0.0
 40
5.7009440104166647
  1
寸法
 41
0.7
 11
-145.06565694519011
 21
436.95723973891518
 31
0.0
 73
     3
  0
TEXT
  5
58
  8
SPEC
 62
     7
 10
-144.99105933796889
 20
419.7258494011329
 30
0.0
 40
5.7009440104166647
  1
重量
 41
0.7
 11
-144.99105933796889
 21
425.42679341154962
 31
0.0
 73
     3
  0
TEXT
  5
59
  8
SPEC
 62
     7
 10
-47.415033750714819
 20
420.39910642120941
 30
0.0
 40
5.7009440104166647
  1
約440g
 41
0.7
 11
-47.415033750714819
 21
426.10005043162602
 31
0.0
 73
     3
  0
TEXT
  5
5A
  8
SPEC
 62
     7
 10
-47.568768143567098
 20
498.39507970461977
 30
0.0
 40
5.7009440104166647
  1
充電ユニット
 41
0.7
 11
-47.568768143567098
 21
504.09602371503649
 31
0.0
 73
     3
  0
TEXT
  5
5B
  8
SPEC
 62
     7
 10
-145.01535062092569
 20
487.3138517290206
 30
0.0
 40
5.7009440104166647
  1
電源
 41
0.7
 11
-145.01535062092569
 21
493.0147957394372
 31
0.0
 73
     3
  0
TEXT
  5
5C
  8
SPEC
 62
     7
 10
-47.121891936703904
 20
487.14507970461989
 30
0.0
 40
5.7009440104166647
  1
AC100V,50/60Hz,0.3A(付属のACアダプター)
 41
0.7
 11
-47.121891936703904
 21
492.84602371503649
 31
0.0
 73
     3
  0
TEXT
  5
5D
  8
SPEC
 62
     7
 10
-145.01535062092569
 20
476.11780836874561
 30
0.0
 40
5.7009440104166647
  1
対応電池
 41
0.7
 11
-145.01535062092569
 21
481.81875237916222
 31
0.0
 73
     3
  0
TEXT
  5
5E
  8
SPEC
 62
     7
 10
-47.736346721140777
 20
476.06265828219352
 30
0.0
 40
5.7009440104166647
  1
ニッケル水素またはニッケルカドミウム充電池,容量1500mAh以上
 41
0.7
 11
-47.736346721140777
 21
481.76360229261019
 31
0.0
 73
     3
  0
TEXT
  5
5F
  8
SPEC
 62
     7
 10
-145.01535062092569
 20
464.54406853039637
 30
0.0
 40
5.7009440104166647
  1
充電時間
 41
0.7
 11
-145.01535062092569
 21
470.24501254081298
 31
0.0
 73
     3
  0
TEXT
  5
60
  8
SPEC
 62
     7
 10
-47.32147946569178
 20
464.64507970461977
 30
0.0
 40
5.7009440104166647
  1
送信機1台：約1.5時間
 41
0.7
 11
-47.32147946569178
 21
470.34602371503649
 31
0.0
 73
     3
  0
TEXT
  5
61
  8
SPEC
 62
     7
 10
-47.321868743361293
 20
453.39507970461977
 30
0.0
 40
5.7009440104166647
  1
送信機2台：約3時間
 41
0.7
 11
-47.321868743361293
 21
459.09602371503649
 31
0.0
 73
     3
  0
TEXT
  5
62
  8
SPEC
 62
     7
 10
-47.667217216481113
 20
442.14507970461977
 30
0.0
 40
5.7009440104166647
  1
※充電池によって異なります
 41
0.7
 11
-47.667217216481113
 21
447.84602371503649
 31
0.0
 73
     3
  0
TEXT
  5
63
  8
SPEC
 62
     7
 10
-47.684088787967767
 20
430.6370604582653
 30
0.0
 40
5.7009440104166647
  1
190(W)\U+00D775(H)\U+00D7116(D)mm(突起部含まず)
 41
0.7
 11
-47.684088787967767
 21
436.3380044686819
 31
0.0
 73
     3
  0
TEXT
  5
64
  8
SPEC
 62
     7
 10
-144.87810150422609
 20
408.92251789921249
 30
0.0
 40
5.7009440104166647
  1
付属品
 41
0.7
 11
-144.87810150422609
 21
414.62346190962933
 31
0.0
 73
     3
  0
TEXT
  5
65
  8
SPEC
 62
     7
 10
-47.077548092216752
 20
409.0929614855695
 30
0.0
 40
5.7009440104166647
  1
ACアダプター,ニッケル水素充電池\U+00D72
 41
0.7
 11
-47.077548092216752
 21
414.79390549598611
 31
0.0
 73
     3
  0
TEXT
  5
66
  8
DIMNSIONS
 62
     7
 10
40.0
 20
-206.12790000000001
 30
0.0
 40
7.3297851562499989
  1
(単位：mm)
 41
0.7
 11
40.0
 21
-198.79811484375
 31
0.0
 73
     3
  0
LINE
  5
67
  8
DIMNSIONS
  6
CONTINUOUS
 62
     7
 10
-87.500000000000014
 20
-83.499999999999986
 30
0.0
 11
-87.500000000000014
 21
-118.5
 31
0.0
  0
LINE
  5
68
  8
DIMNSIONS
  6
CONTINUOUS
 62
     7
 10
102.5
 20
-83.499999999999986
 30
0.0
 11
102.5
 21
-118.5
 31
0.0
  0
LINE
  5
69
  8
DIMNSIONS
  6
CONTINUOUS
 62
     7
 10
-87.500000000000014
 20
-112.5
 30
0.0
 11
102.5
 21
-112.5
 31
0.0
  0
LINE
  5
6A
  8
DIMNSIONS
  6
CONTINUOUS
 62
     7
 10
-87.500000000000014
 20
-112.5
 30
0.0
 11
-79.998132324218773
 21
-110.48988061454919
 31
0.0
  0
LINE
  5
6B
  8
DIMNSIONS
  6
CONTINUOUS
 62
     7
 10
-87.500000000000014
 20
-112.5
 30
0.0
 11
-79.998132324218773
 21
-114.51011938545069
 31
0.0
  0
LINE
  5
6C
  8
DIMNSIONS
  6
CONTINUOUS
 62
     7
 10
102.5
 20
-112.5
 30
0.0
 11
94.99813232421873
 21
-114.51011938545069
 31
0.0
  0
LINE
  5
6D
  8
DIMNSIONS
  6
CONTINUOUS
 62
     7
 10
102.5
 20
-112.5
 30
0.0
 11
94.99813232421873
 21
-110.48988061454919
 31
0.0
  0
TEXT
  5
6E
  8
DIMNSIONS
 62
     7
 10
-0.4375000000000148
 20
-109.5183333333333
 30
0.0
 40
8.1442057291666661
  1
190
 41
0.7
 11
-0.4375000000000142
 21
-101.3741276041666
 31
0.0
 73
     3
  0
LINE
  5
6F
  8
DIMNSIONS
  6
CONTINUOUS
 62
     7
 10
1.4999999999999709
 20
37.5
 30
0.0
 11
-118.5
 21
37.5
 31
0.0
  0
LINE
  5
70
  8
DIMNSIONS
  6
CONTINUOUS
 62
     7
 10
-93.499999999999986
 20
153.5
 30
0.0
 11
-118.5
 21
153.5
 31
0.0
  0
LINE
  5
71
  8
DIMNSIONS
  6
CONTINUOUS
 62
     7
 10
-112.5
 20
37.5
 30
0.0
 11
-112.5
 21
153.5
 31
0.0
  0
LINE
  5
72
  8
DIMNSIONS
  6
CONTINUOUS
 62
     7
 10
-112.5
 20
37.5
 30
0.0
 11
-114.51011938545069
 21
45.001867675781263
 31
0.0
  0
LINE
  5
73
  8
DIMNSIONS
  6
CONTINUOUS
 62
     7
 10
-112.5
 20
37.5
 30
0.0
 11
-110.48988061454919
 21
45.001867675781263
 31
0.0
  0
LINE
  5
74
  8
DIMNSIONS
  6
CONTINUOUS
 62
     7
 10
-112.5
 20
153.5
 30
0.0
 11
-110.48988061454919
 21
145.99813232421869
 31
0.0
  0
LINE
  5
75
  8
DIMNSIONS
  6
CONTINUOUS
 62
     7
 10
-112.5
 20
153.5
 30
0.0
 11
-114.51011938545069
 21
145.99813232421869
 31
0.0
  0
TEXT
  5
76
  8
DIMNSIONS
 62
     7
 10
-115.4816666666666
 20
87.562499999999986
 30
0.0
 40
8.1442057291666661
  1
116
 50
90.0
 41
0.7
 11
-123.6258723958333
 21
87.562499999999986
 31
0.0
 73
     3
  0
LINE
  5
77
  8
DIMNSIONS
  6
CONTINUOUS
 62
     7
 10
-84.500000000000014
 20
-90.5
 30
0.0
 11
-118.5
 21
-90.5
 31
0.0
  0
LINE
  5
78
  8
DIMNSIONS
  6
CONTINUOUS
 62
     7
 10
-88.500000000000014
 20
-87.5
 30
0.0
 11
-118.5
 21
-87.5
 31
0.0
  0
LINE
  5
79
  8
DIMNSIONS
  6
CONTINUOUS
 62
     7
 10
-112.5
 20
-87.5
 30
0.0
 11
-112.5
 21
-90.5
 31
0.0
  0
LINE
  5
7A
  8
DIMNSIONS
  6
CONTINUOUS
 62
     7
 10
-112.5
 20
-90.5
 30
0.0
 11
-112.5
 21
-105.2916666666666
 31
0.0
  0
LINE
  5
7B
  8
DIMNSIONS
  6
CONTINUOUS
 62
     7
 10
-112.5
 20
-90.5
 30
0.0
 11
-110.48988061454919
 21
-98.001867675781227
 31
0.0
  0
LINE
  5
7C
  8
DIMNSIONS
  6
CONTINUOUS
 62
     7
 10
-112.5
 20
-90.5
 30
0.0
 11
-114.51011938545069
 21
-98.001867675781227
 31
0.0
  0
LINE
  5
7D
  8
DIMNSIONS
  6
CONTINUOUS
 62
     7
 10
-112.5
 20
-87.5
 30
0.0
 11
-112.5
 21
-72.5
 31
0.0
  0
LINE
  5
7E
  8
DIMNSIONS
  6
CONTINUOUS
 62
     7
 10
-112.5
 20
-87.5
 30
0.0
 11
-114.51011938545069
 21
-79.99813232421873
 31
0.0
  0
LINE
  5
7F
  8
DIMNSIONS
  6
CONTINUOUS
 62
     7
 10
-112.5
 20
-87.5
 30
0.0
 11
-110.48988061454919
 21
-79.99813232421873
 31
0.0
  0
TEXT
  5
80
  8
DIMNSIONS
 62
     7
 10
-115.4816666666667
 20
-105.2916666666666
 30
0.0
 40
8.1442057291666661
  1
3
 50
90.0
 41
0.7
 11
-123.6258723958333
 21
-105.2916666666666
 31
0.0
 73
     3
  0
LINE
  5
81
  8
DIMNSIONS
  6
CONTINUOUS
 62
     7
 10
-88.500000000000014
 20
-87.5
 30
0.0
 11
-118.5
 21
-87.5
 31
0.0
  0
LINE
  5
82
  8
DIMNSIONS
  6
CONTINUOUS
 62
     7
 10
-91.0
 20
-12.5
 30
0.0
 11
-118.5
 21
-12.5
 31
0.0
  0
LINE
  5
83
  8
DIMNSIONS
  6
CONTINUOUS
 62
     7
 10
-112.5
 20
-87.5
 30
0.0
 11
-112.5
 21
-12.5
 31
0.0
  0
LINE
  5
84
  8
DIMNSIONS
  6
CONTINUOUS
 62
     7
 10
-112.5
 20
-87.5
 30
0.0
 11
-114.51011938545069
 21
-79.99813232421873
 31
0.0
  0
LINE
  5
85
  8
DIMNSIONS
  6
CONTINUOUS
 62
     7
 10
-112.5
 20
-87.5
 30
0.0
 11
-110.48988061454919
 21
-79.99813232421873
 31
0.0
  0
LINE
  5
86
  8
DIMNSIONS
  6
CONTINUOUS
 62
     7
 10
-112.5
 20
-12.5
 30
0.0
 11
-110.48988061454919
 21
-20.001867675781259
 31
0.0
  0
LINE
  5
87
  8
DIMNSIONS
  6
CONTINUOUS
 62
     7
 10
-112.5
 20
-12.5
 30
0.0
 11
-114.51011938545069
 21
-20.001867675781259
 31
0.0
  0
TEXT
  5
88
  8
DIMNSIONS
 62
     7
 10
-115.4816666666666
 20
-55.29166666666665
 30
0.0
 40
8.1442057291666661
  1
75
 50
90.0
 41
0.7
 11
-123.6258723958333
 21
-55.29166666666665
 31
0.0
 73
     3
  0
TEXT
  5
89
  8
DATA
 62
     7
 10
250.0
 20
-209.5437
 30
0.0
 40
7.3297851562499989
  1
CU400
 41
0.7
 11
250.0
 21
-202.21391484374999
 31
0.0
 73
     3
  0
TEXT
  5
8A
  8
DATA
 62
     7
 10
250.0
 20
-187.7937
 30
0.0
 40
7.3297851562499989
  1
AKG
 41
0.7
 11
250.0
 21
-180.46391484374999
 31
0.0
 73
     3
  0
TEXT
  5
8B
  8
DATA
 62
     7
 10
242.5
 20
-198.22456859999991
 30
0.0
 40
4.8865311328124994
  1
充電ユニット
 41
0.7
 11
242.5
 21
-193.33803746718741
 31
0.0
 73
     3
  0
TEXT
  5
8C
  8
DATA
 62
     7
 10
-139.99999999999989
 20
-230.22237000000001
 30
0.0
 40
4.8865234374999993
  1
仕様および外観は予告なく変更されることがありますので、ご了承ください。
 41
0.7
 11
-139.99999999999989
 21
-225.3358465625
 31
0.0
 73
     3
  0
LINE
  5
8D
  8
DATA
  6
CONTINUOUS
 62
     7
 10
97.5
 20
-87.5
 30
0.0
 11
-82.500000000000014
 21
-87.5
 31
0.0
  0
LINE
  5
8E
  8
DATA
  6
CONTINUOUS
 62
     7
 10
-85.000000000000014
 20
-12.5
 30
0.0
 11
100.0
 21
-12.5
 31
0.0
  0
LINE
  5
8F
  8
DATA
  6
CONTINUOUS
 62
     7
 10
-70.755294456419051
 20
-77.5
 30
0.0
 11
-87.500000000000014
 21
-77.5
 31
0.0
  0
LINE
  5
90
  8
DATA
  6
CONTINUOUS
 62
     7
 10
-87.500000000000014
 20
-77.5
 30
0.0
 11
-85.000000000000014
 21
-12.5
 31
0.0
  0
LINE
  5
91
  8
DATA
  6
CONTINUOUS
 62
     7
 10
-82.500000000000014
 20
-87.5
 30
0.0
 11
-82.500000000000014
 21
-77.5
 31
0.0
  0
LINE
  5
92
  8
DATA
  6
CONTINUOUS
 62
     7
 10
97.5
 20
-87.5
 30
0.0
 11
97.5
 21
-77.5
 31
0.0
  0
LINE
  5
93
  8
DATA
  6
CONTINUOUS
 62
     7
 10
102.5
 20
-77.5
 30
0.0
 11
100.0
 21
-12.5
 31
0.0
  0
LINE
  5
94
  8
DATA
  6
CONTINUOUS
 62
     7
 10
-78.500000000000014
 20
-90.5
 30
0.0
 11
-79.000000000000014
 21
-87.5
 31
0.0
  0
LINE
  5
95
  8
DATA
  6
CONTINUOUS
 62
     7
 10
-68.000000000000014
 20
-87.5
 30
0.0
 11
-68.500000000000014
 21
-90.5
 31
0.0
  0
LINE
  5
96
  8
DATA
  6
CONTINUOUS
 62
     7
 10
-78.500000000000014
 20
-90.5
 30
0.0
 11
-68.500000000000014
 21
-90.5
 31
0.0
  0
LINE
  5
97
  8
DATA
  6
CONTINUOUS
 62
     7
 10
93.499999999999957
 20
-90.5
 30
0.0
 11
93.999999999999957
 21
-87.5
 31
0.0
  0
LINE
  5
98
  8
DATA
  6
CONTINUOUS
 62
     7
 10
82.999999999999943
 20
-87.5
 30
0.0
 11
83.499999999999957
 21
-90.5
 31
0.0
  0
LINE
  5
99
  8
DATA
  6
CONTINUOUS
 62
     7
 10
93.499999999999957
 20
-90.5
 30
0.0
 11
83.499999999999957
 21
-90.5
 31
0.0
  0
LINE
  5
9A
  8
DATA
  6
CONTINUOUS
 62
     7
 10
-7.6035566730037498
 20
-68.677021156811719
 30
0.0
 11
-58.51715466159699
 21
-76.558383074550633
 31
0.0
  0
ARC
  5
9B
  8
DATA
  6
CONTINUOUS
 62
     7
 10
-70.755294456419264
 20
2.4999999999999432
 30
0.0
 40
79.999999999999915
 50
270.00000000000023
 51
278.79947304457801
  0
ARC
  5
9C
  8
DATA
  6
CONTINUOUS
 62
     7
 10
7.6941180705236434
 20
-167.5
 30
0.0
 40
100.0
 50
89.999999999999915
 51
98.799473044577667
  0
LINE
  5
9D
  8
DATA
  6
CONTINUOUS
 62
     7
 10
85.755294456419037
 20
-77.5
 30
0.0
 11
102.4999999999999
 21
-77.5
 31
0.0
  0
LINE
  5
9E
  8
DATA
  6
CONTINUOUS
 62
     7
 10
22.603556673003691
 20
-68.677021156811719
 30
0.0
 11
73.517154661596933
 21
-76.558383074550633
 31
0.0
  0
ARC
  5
9F
  8
DATA
  6
CONTINUOUS
 62
     7
 10
85.755294456419207
 20
2.4999999999999432
 30
0.0
 40
79.999999999999972
 50
261.20052695542199
 51
269.99999999999977
  0
ARC
  5
A0
  8
DATA
  6
CONTINUOUS
 62
     7
 10
7.3058819294763131
 20
-167.5
 30
0.0
 40
99.999999999999957
 50
81.200526955422333
 51
90.000000000000114
  0
CIRCLE
  5
A1
  8
DATA
  6
CONTINUOUS
 62
     7
 10
-8.5000000000000409
 20
-77.5
 30
0.0
 40
1.5
  0
CIRCLE
  5
A2
  8
DATA
  6
CONTINUOUS
 62
     7
 10
23.499999999999972
 20
-77.5
 30
0.0
 40
1.5
  0
TEXT
  5
A3
  8
DATA
 62
     7
 10
-13.3232654581328
 20
-63.330500000000029
 30
0.0
 40
2.4432617187500001
  1
STATUS
 41
0.7
 11
-13.3232654581328
 21
-60.887238281250042
 31
0.0
 73
     3
  0
TEXT
  5
A4
  8
DATA
 62
     7
 10
18.864711240285612
 20
-63.330500000000029
 30
0.0
 40
2.4432617187500001
  1
STATUS
 41
0.7
 11
18.864711240285612
 21
-60.887238281250042
 31
0.0
 73
     3
  0
TEXT
  5
A5
  8
DATA
 62
     7
 10
-76.720723717323736
 20
-21.853276923434059
 30
0.0
 40
4.072102864583333
  1
CU400
 41
0.7
 11
-76.720723717323736
 21
-17.781174058850731
 31
0.0
 73
     3
  0
TEXT
  5
A6
  8
DATA
 62
     7
 10
-71.124994450617564
 20
-25.666681216637251
 30
0.0
 40
2.2803776041666661
  1
CHARGING UNIT
 41
0.7
 11
-71.124994450617564
 21
-23.386303612470591
 31
0.0
 73
     3
  0
LINE
  5
A7
  8
DATA
  6
CONTINUOUS
 62
     7
 10
-87.500000000000014
 20
40.499999999999993
 30
0.0
 11
-87.500000000000014
 21
153.5
 31
0.0
  0
LINE
  5
A8
  8
DATA
  6
CONTINUOUS
 62
     7
 10
-85.000000000000014
 20
40.344035378758917
 30
0.0
 11
-85.000000000000014
 21
153.5
 31
0.0
  0
LINE
  5
A9
  8
DATA
  6
CONTINUOUS
 62
     7
 10
100.0
 20
40.344035378758917
 30
0.0
 11
100.0
 21
153.5
 31
0.0
  0
LINE
  5
AA
  8
DATA
  6
CONTINUOUS
 62
     7
 10
102.5
 20
40.499999999999993
 30
0.0
 11
102.5
 21
153.5
 31
0.0
  0
LINE
  5
AB
  8
DATA
  6
CONTINUOUS
 62
     7
 10
-87.500000000000014
 20
153.5
 30
0.0
 11
102.5
 21
153.5
 31
0.0
  0
ARC
  5
AC
  8
DATA
  6
CONTINUOUS
 62
     7
 10
-84.33727415553804
 20
-239.51550929562649
 30
0.0
 40
317.13589057947149
 50
75.030234938400426
 51
88.421268926261604
  0
ARC
  5
AD
  8
DATA
  6
CONTINUOUS
 62
     7
 10
7.9142444524051418
 20
105.5000000000003
 30
0.0
 40
40.000000000000327
 50
255.03023493840061
 51
269.40662792300861
  0
ARC
  5
AE
  8
DATA
  6
CONTINUOUS
 62
     7
 10
99.337274155538026
 20
-239.51550929562649
 30
0.0
 40
317.13589057947149
 50
91.578731073738354
 51
104.9697650615996
  0
ARC
  5
AF
  8
DATA
  6
CONTINUOUS
 62
     7
 10
7.0857555475947853
 20
105.5000000000003
 30
0.0
 40
40.000000000000327
 50
270.59337207699161
 51
284.96976506159939
  0
LINE
  5
B0
  8
DATA
  6
CONTINUOUS
 62
     7
 10
-75.600000000000023
 20
77.5
 30
0.0
 11
-85.036929259288357
 21
77.760091496179541
 31
0.0
  0
LINE
  5
B1
  8
DATA
  6
CONTINUOUS
 62
     7
 10
90.599999999999966
 20
77.5
 30
0.0
 11
100.0
 21
77.759073687733903
 31
0.0
  0
LINE
  5
B2
  8
DATA
  6
CONTINUOUS
 62
     7
 10
9.0
 20
148.80000000000001
 30
0.0
 11
9.0
 21
141.80000000000001
 31
0.0
  0
LINE
  5
B3
  8
DATA
  6
CONTINUOUS
 62
     7
 10
11.0
 20
148.80000000000001
 30
0.0
 11
11.0
 21
141.80000000000001
 31
0.0
  0
LINE
  5
B4
  8
DATA
  6
CONTINUOUS
 62
     7
 10
9.0
 20
141.80000000000001
 30
0.0
 11
11.0
 21
141.80000000000001
 31
0.0
  0
LINE
  5
B5
  8
DATA
  6
CONTINUOUS
 62
     7
 10
9.0
 20
148.80000000000001
 30
0.0
 11
11.0
 21
148.80000000000001
 31
0.0
  0
LINE
  5
B6
  8
DATA
  6
CONTINUOUS
 62
     7
 10
14.0
 20
148.80000000000001
 30
0.0
 11
14.0
 21
141.80000000000001
 31
0.0
  0
LINE
  5
B7
  8
DATA
  6
CONTINUOUS
 62
     7
 10
16.0
 20
148.80000000000001
 30
0.0
 11
16.0
 21
141.80000000000001
 31
0.0
  0
LINE
  5
B8
  8
DATA
  6
CONTINUOUS
 62
     7
 10
14.0
 20
141.80000000000001
 30
0.0
 11
16.0
 21
141.80000000000001
 31
0.0
  0
LINE
  5
B9
  8
DATA
  6
CONTINUOUS
 62
     7
 10
14.0
 20
148.80000000000001
 30
0.0
 11
16.0
 21
148.80000000000001
 31
0.0
  0
LINE
  5
BA
  8
DATA
  6
CONTINUOUS
 62
     7
 10
19.0
 20
148.80000000000001
 30
0.0
 11
19.0
 21
141.80000000000001
 31
0.0
  0
LINE
  5
BB
  8
DATA
  6
CONTINUOUS
 62
     7
 10
21.0
 20
148.80000000000001
 30
0.0
 11
21.0
 21
141.80000000000001
 31
0.0
  0
LINE
  5
BC
  8
DATA
  6
CONTINUOUS
 62
     7
 10
19.0
 20
141.80000000000001
 30
0.0
 11
21.0
 21
141.80000000000001
 31
0.0
  0
LINE
  5
BD
  8
DATA
  6
CONTINUOUS
 62
     7
 10
19.0
 20
148.80000000000001
 30
0.0
 11
21.0
 21
148.80000000000001
 31
0.0
  0
LINE
  5
BE
  8
DATA
  6
CONTINUOUS
 62
     7
 10
24.0
 20
148.80000000000001
 30
0.0
 11
24.0
 21
141.80000000000001
 31
0.0
  0
LINE
  5
BF
  8
DATA
  6
CONTINUOUS
 62
     7
 10
26.0
 20
148.80000000000001
 30
0.0
 11
26.0
 21
141.80000000000001
 31
0.0
  0
LINE
  5
C0
  8
DATA
  6
CONTINUOUS
 62
     7
 10
24.0
 20
141.80000000000001
 30
0.0
 11
26.0
 21
141.80000000000001
 31
0.0
  0
LINE
  5
C1
  8
DATA
  6
CONTINUOUS
 62
     7
 10
24.0
 20
148.80000000000001
 30
0.0
 11
26.0
 21
148.80000000000001
 31
0.0
  0
LINE
  5
C2
  8
DATA
  6
CONTINUOUS
 62
     7
 10
29.0
 20
148.80000000000001
 30
0.0
 11
29.0
 21
141.80000000000001
 31
0.0
  0
LINE
  5
C3
  8
DATA
  6
CONTINUOUS
 62
     7
 10
31.0
 20
148.80000000000001
 30
0.0
 11
31.0
 21
141.80000000000001
 31
0.0
  0
LINE
  5
C4
  8
DATA
  6
CONTINUOUS
 62
     7
 10
29.0
 20
141.80000000000001
 30
0.0
 11
31.0
 21
141.80000000000001
 31
0.0
  0
LINE
  5
C5
  8
DATA
  6
CONTINUOUS
 62
     7
 10
29.0
 20
148.80000000000001
 30
0.0
 11
31.0
 21
148.80000000000001
 31
0.0
  0
LINE
  5
C6
  8
DATA
  6
CONTINUOUS
 62
     7
 10
34.0
 20
148.80000000000001
 30
0.0
 11
34.0
 21
141.80000000000001
 31
0.0
  0
LINE
  5
C7
  8
DATA
  6
CONTINUOUS
 62
     7
 10
36.0
 20
148.80000000000001
 30
0.0
 11
36.0
 21
141.80000000000001
 31
0.0
  0
LINE
  5
C8
  8
DATA
  6
CONTINUOUS
 62
     7
 10
34.0
 20
141.80000000000001
 30
0.0
 11
36.0
 21
141.80000000000001
 31
0.0
  0
LINE
  5
C9
  8
DATA
  6
CONTINUOUS
 62
     7
 10
34.0
 20
148.80000000000001
 30
0.0
 11
36.0
 21
148.80000000000001
 31
0.0
  0
LINE
  5
CA
  8
DATA
  6
CONTINUOUS
 62
     7
 10
39.0
 20
148.80000000000001
 30
0.0
 11
39.0
 21
141.80000000000001
 31
0.0
  0
LINE
  5
CB
  8
DATA
  6
CONTINUOUS
 62
     7
 10
41.0
 20
148.80000000000001
 30
0.0
 11
41.0
 21
141.80000000000001
 31
0.0
  0
LINE
  5
CC
  8
DATA
  6
CONTINUOUS
 62
     7
 10
39.0
 20
141.80000000000001
 30
0.0
 11
41.0
 21
141.80000000000001
 31
0.0
  0
LINE
  5
CD
  8
DATA
  6
CONTINUOUS
 62
     7
 10
39.0
 20
148.80000000000001
 30
0.0
 11
41.0
 21
148.80000000000001
 31
0.0
  0
LINE
  5
CE
  8
DATA
  6
CONTINUOUS
 62
     7
 10
44.0
 20
148.80000000000001
 30
0.0
 11
44.0
 21
141.80000000000001
 31
0.0
  0
LINE
  5
CF
  8
DATA
  6
CONTINUOUS
 62
     7
 10
46.0
 20
148.80000000000001
 30
0.0
 11
46.0
 21
141.80000000000001
 31
0.0
  0
LINE
  5
D0
  8
DATA
  6
CONTINUOUS
 62
     7
 10
44.0
 20
141.80000000000001
 30
0.0
 11
46.0
 21
141.80000000000001
 31
0.0
  0
LINE
  5
D1
  8
DATA
  6
CONTINUOUS
 62
     7
 10
44.0
 20
148.80000000000001
 30
0.0
 11
46.0
 21
148.80000000000001
 31
0.0
  0
LINE
  5
D2
  8
DATA
  6
CONTINUOUS
 62
     7
 10
49.0
 20
148.80000000000001
 30
0.0
 11
49.0
 21
141.80000000000001
 31
0.0
  0
LINE
  5
D3
  8
DATA
  6
CONTINUOUS
 62
     7
 10
51.0
 20
148.80000000000001
 30
0.0
 11
51.0
 21
141.80000000000001
 31
0.0
  0
LINE
  5
D4
  8
DATA
  6
CONTINUOUS
 62
     7
 10
49.0
 20
141.80000000000001
 30
0.0
 11
51.0
 21
141.80000000000001
 31
0.0
  0
LINE
  5
D5
  8
DATA
  6
CONTINUOUS
 62
     7
 10
49.0
 20
148.80000000000001
 30
0.0
 11
51.0
 21
148.80000000000001
 31
0.0
  0
LINE
  5
D6
  8
DATA
  6
CONTINUOUS
 62
     7
 10
54.0
 20
148.80000000000001
 30
0.0
 11
54.0
 21
141.80000000000001
 31
0.0
  0
LINE
  5
D7
  8
DATA
  6
CONTINUOUS
 62
     7
 10
56.0
 20
148.80000000000001
 30
0.0
 11
56.0
 21
141.80000000000001
 31
0.0
  0
LINE
  5
D8
  8
DATA
  6
CONTINUOUS
 62
     7
 10
54.0
 20
141.80000000000001
 30
0.0
 11
56.0
 21
141.80000000000001
 31
0.0
  0
LINE
  5
D9
  8
DATA
  6
CONTINUOUS
 62
     7
 10
54.0
 20
148.80000000000001
 30
0.0
 11
56.0
 21
148.80000000000001
 31
0.0
  0
LINE
  5
DA
  8
DATA
  6
CONTINUOUS
 62
     7
 10
59.0
 20
148.80000000000001
 30
0.0
 11
59.0
 21
141.80000000000001
 31
0.0
  0
LINE
  5
DB
  8
DATA
  6
CONTINUOUS
 62
     7
 10
61.0
 20
148.80000000000001
 30
0.0
 11
61.0
 21
141.80000000000001
 31
0.0
  0
LINE
  5
DC
  8
DATA
  6
CONTINUOUS
 62
     7
 10
59.0
 20
141.80000000000001
 30
0.0
 11
61.0
 21
141.80000000000001
 31
0.0
  0
LINE
  5
DD
  8
DATA
  6
CONTINUOUS
 62
     7
 10
59.0
 20
148.80000000000001
 30
0.0
 11
61.0
 21
148.80000000000001
 31
0.0
  0
LINE
  5
DE
  8
DATA
  6
CONTINUOUS
 62
     7
 10
64.0
 20
148.80000000000001
 30
0.0
 11
64.0
 21
141.80000000000001
 31
0.0
  0
LINE
  5
DF
  8
DATA
  6
CONTINUOUS
 62
     7
 10
66.0
 20
148.80000000000001
 30
0.0
 11
66.0
 21
141.80000000000001
 31
0.0
  0
LINE
  5
E0
  8
DATA
  6
CONTINUOUS
 62
     7
 10
64.0
 20
141.80000000000001
 30
0.0
 11
66.0
 21
141.80000000000001
 31
0.0
  0
LINE
  5
E1
  8
DATA
  6
CONTINUOUS
 62
     7
 10
64.0
 20
148.80000000000001
 30
0.0
 11
66.0
 21
148.80000000000001
 31
0.0
  0
LINE
  5
E2
  8
DATA
  6
CONTINUOUS
 62
     7
 10
69.0
 20
148.80000000000001
 30
0.0
 11
69.0
 21
141.80000000000001
 31
0.0
  0
LINE
  5
E3
  8
DATA
  6
CONTINUOUS
 62
     7
 10
71.0
 20
148.80000000000001
 30
0.0
 11
71.0
 21
141.80000000000001
 31
0.0
  0
LINE
  5
E4
  8
DATA
  6
CONTINUOUS
 62
     7
 10
69.0
 20
141.80000000000001
 30
0.0
 11
71.0
 21
141.80000000000001
 31
0.0
  0
LINE
  5
E5
  8
DATA
  6
CONTINUOUS
 62
     7
 10
69.0
 20
148.80000000000001
 30
0.0
 11
71.0
 21
148.80000000000001
 31
0.0
  0
LINE
  5
E6
  8
DATA
  6
CONTINUOUS
 62
     7
 10
74.0
 20
148.80000000000001
 30
0.0
 11
74.0
 21
141.80000000000001
 31
0.0
  0
LINE
  5
E7
  8
DATA
  6
CONTINUOUS
 62
     7
 10
76.0
 20
148.80000000000001
 30
0.0
 11
76.0
 21
141.80000000000001
 31
0.0
  0
LINE
  5
E8
  8
DATA
  6
CONTINUOUS
 62
     7
 10
74.0
 20
141.80000000000001
 30
0.0
 11
76.0
 21
141.80000000000001
 31
0.0
  0
LINE
  5
E9
  8
DATA
  6
CONTINUOUS
 62
     7
 10
74.0
 20
148.80000000000001
 30
0.0
 11
76.0
 21
148.80000000000001
 31
0.0
  0
LINE
  5
EA
  8
DATA
  6
CONTINUOUS
 62
     7
 10
79.0
 20
148.80000000000001
 30
0.0
 11
79.0
 21
141.80000000000001
 31
0.0
  0
LINE
  5
EB
  8
DATA
  6
CONTINUOUS
 62
     7
 10
81.0
 20
148.80000000000001
 30
0.0
 11
81.0
 21
141.80000000000001
 31
0.0
  0
LINE
  5
EC
  8
DATA
  6
CONTINUOUS
 62
     7
 10
79.0
 20
141.80000000000001
 30
0.0
 11
81.0
 21
141.80000000000001
 31
0.0
  0
LINE
  5
ED
  8
DATA
  6
CONTINUOUS
 62
     7
 10
79.0
 20
148.80000000000001
 30
0.0
 11
81.0
 21
148.80000000000001
 31
0.0
  0
LINE
  5
EE
  8
DATA
  6
CONTINUOUS
 62
     7
 10
84.0
 20
148.80000000000001
 30
0.0
 11
84.0
 21
141.80000000000001
 31
0.0
  0
LINE
  5
EF
  8
DATA
  6
CONTINUOUS
 62
     7
 10
86.0
 20
148.80000000000001
 30
0.0
 11
86.0
 21
141.80000000000001
 31
0.0
  0
LINE
  5
F0
  8
DATA
  6
CONTINUOUS
 62
     7
 10
84.0
 20
141.80000000000001
 30
0.0
 11
86.0
 21
141.80000000000001
 31
0.0
  0
LINE
  5
F1
  8
DATA
  6
CONTINUOUS
 62
     7
 10
84.0
 20
148.80000000000001
 30
0.0
 11
86.0
 21
148.80000000000001
 31
0.0
  0
LINE
  5
F2
  8
DATA
  6
CONTINUOUS
 62
     7
 10
89.0
 20
148.80000000000001
 30
0.0
 11
89.0
 21
141.80000000000001
 31
0.0
  0
LINE
  5
F3
  8
DATA
  6
CONTINUOUS
 62
     7
 10
91.0
 20
148.80000000000001
 30
0.0
 11
91.0
 21
141.80000000000001
 31
0.0
  0
LINE
  5
F4
  8
DATA
  6
CONTINUOUS
 62
     7
 10
89.0
 20
141.80000000000001
 30
0.0
 11
91.0
 21
141.80000000000001
 31
0.0
  0
LINE
  5
F5
  8
DATA
  6
CONTINUOUS
 62
     7
 10
89.0
 20
148.80000000000001
 30
0.0
 11
91.0
 21
148.80000000000001
 31
0.0
  0
LINE
  5
F6
  8
DATA
  6
CONTINUOUS
 62
     7
 10
94.0
 20
148.80000000000001
 30
0.0
 11
94.0
 21
141.80000000000001
 31
0.0
  0
LINE
  5
F7
  8
DATA
  6
CONTINUOUS
 62
     7
 10
96.0
 20
148.80000000000001
 30
0.0
 11
96.0
 21
141.80000000000001
 31
0.0
  0
LINE
  5
F8
  8
DATA
  6
CONTINUOUS
 62
     7
 10
94.0
 20
141.80000000000001
 30
0.0
 11
96.0
 21
141.80000000000001
 31
0.0
  0
LINE
  5
F9
  8
DATA
  6
CONTINUOUS
 62
     7
 10
94.0
 20
148.80000000000001
 30
0.0
 11
96.0
 21
148.80000000000001
 31
0.0
  0
LINE
  5
FA
  8
DATA
  6
CONTINUOUS
 62
     7
 10
5.9999999999999281
 20
148.80000000000001
 30
0.0
 11
5.9999999999999281
 21
141.80000000000001
 31
0.0
  0
LINE
  5
FB
  8
DATA
  6
CONTINUOUS
 62
     7
 10
3.9999999999999281
 20
148.80000000000001
 30
0.0
 11
3.9999999999999281
 21
141.80000000000001
 31
0.0
  0
LINE
  5
FC
  8
DATA
  6
CONTINUOUS
 62
     7
 10
5.9999999999999281
 20
141.80000000000001
 30
0.0
 11
3.9999999999999281
 21
141.80000000000001
 31
0.0
  0
LINE
  5
FD
  8
DATA
  6
CONTINUOUS
 62
     7
 10
5.9999999999999281
 20
148.80000000000001
 30
0.0
 11
3.9999999999999281
 21
148.80000000000001
 31
0.0
  0
LINE
  5
FE
  8
DATA
  6
CONTINUOUS
 62
     7
 10
0.9999999999999291
 20
148.80000000000001
 30
0.0
 11
0.9999999999999291
 21
141.80000000000001
 31
0.0
  0
LINE
  5
FF
  8
DATA
  6
CONTINUOUS
 62
     7
 10
-1.0000000000000711
 20
148.80000000000001
 30
0.0
 11
-1.0000000000000711
 21
141.80000000000001
 31
0.0
  0
LINE
  5
100
  8
DATA
  6
CONTINUOUS
 62
     7
 10
0.9999999999999291
 20
141.80000000000001
 30
0.0
 11
-1.0000000000000711
 21
141.80000000000001
 31
0.0
  0
LINE
  5
101
  8
DATA
  6
CONTINUOUS
 62
     7
 10
0.9999999999999291
 20
148.80000000000001
 30
0.0
 11
-1.0000000000000711
 21
148.80000000000001
 31
0.0
  0
LINE
  5
102
  8
DATA
  6
CONTINUOUS
 62
     7
 10
-4.0000000000000711
 20
148.80000000000001
 30
0.0
 11
-4.0000000000000711
 21
141.80000000000001
 31
0.0
  0
LINE
  5
103
  8
DATA
  6
CONTINUOUS
 62
     7
 10
-6.0000000000000711
 20
148.80000000000001
 30
0.0
 11
-6.0000000000000711
 21
141.80000000000001
 31
0.0
  0
LINE
  5
104
  8
DATA
  6
CONTINUOUS
 62
     7
 10
-4.0000000000000711
 20
141.80000000000001
 30
0.0
 11
-6.0000000000000711
 21
141.80000000000001
 31
0.0
  0
LINE
  5
105
  8
DATA
  6
CONTINUOUS
 62
     7
 10
-4.0000000000000711
 20
148.80000000000001
 30
0.0
 11
-6.0000000000000711
 21
148.80000000000001
 31
0.0
  0
LINE
  5
106
  8
DATA
  6
CONTINUOUS
 62
     7
 10
-9.0000000000000711
 20
148.80000000000001
 30
0.0
 11
-9.0000000000000711
 21
141.80000000000001
 31
0.0
  0
LINE
  5
107
  8
DATA
  6
CONTINUOUS
 62
     7
 10
-11.000000000000069
 20
148.80000000000001
 30
0.0
 11
-11.000000000000069
 21
141.80000000000001
 31
0.0
  0
LINE
  5
108
  8
DATA
  6
CONTINUOUS
 62
     7
 10
-9.0000000000000711
 20
141.80000000000001
 30
0.0
 11
-11.000000000000069
 21
141.80000000000001
 31
0.0
  0
LINE
  5
109
  8
DATA
  6
CONTINUOUS
 62
     7
 10
-9.0000000000000711
 20
148.80000000000001
 30
0.0
 11
-11.000000000000069
 21
148.80000000000001
 31
0.0
  0
LINE
  5
10A
  8
DATA
  6
CONTINUOUS
 62
     7
 10
-14.000000000000069
 20
148.80000000000001
 30
0.0
 11
-14.000000000000069
 21
141.80000000000001
 31
0.0
  0
LINE
  5
10B
  8
DATA
  6
CONTINUOUS
 62
     7
 10
-16.000000000000071
 20
148.80000000000001
 30
0.0
 11
-16.000000000000071
 21
141.80000000000001
 31
0.0
  0
LINE
  5
10C
  8
DATA
  6
CONTINUOUS
 62
     7
 10
-14.000000000000069
 20
141.80000000000001
 30
0.0
 11
-16.000000000000071
 21
141.80000000000001
 31
0.0
  0
LINE
  5
10D
  8
DATA
  6
CONTINUOUS
 62
     7
 10
-14.000000000000069
 20
148.80000000000001
 30
0.0
 11
-16.000000000000071
 21
148.80000000000001
 31
0.0
  0
LINE
  5
10E
  8
DATA
  6
CONTINUOUS
 62
     7
 10
-19.000000000000071
 20
148.80000000000001
 30
0.0
 11
-19.000000000000071
 21
141.80000000000001
 31
0.0
  0
LINE
  5
10F
  8
DATA
  6
CONTINUOUS
 62
     7
 10
-21.000000000000082
 20
148.80000000000001
 30
0.0
 11
-21.000000000000082
 21
141.80000000000001
 31
0.0
  0
LINE
  5
110
  8
DATA
  6
CONTINUOUS
 62
     7
 10
-19.000000000000071
 20
141.80000000000001
 30
0.0
 11
-21.000000000000082
 21
141.80000000000001
 31
0.0
  0
LINE
  5
111
  8
DATA
  6
CONTINUOUS
 62
     7
 10
-19.000000000000071
 20
148.80000000000001
 30
0.0
 11
-21.000000000000082
 21
148.80000000000001
 31
0.0
  0
LINE
  5
112
  8
DATA
  6
CONTINUOUS
 62
     7
 10
-24.000000000000071
 20
148.80000000000001
 30
0.0
 11
-24.000000000000071
 21
141.80000000000001
 31
0.0
  0
LINE
  5
113
  8
DATA
  6
CONTINUOUS
 62
     7
 10
-26.000000000000071
 20
148.80000000000001
 30
0.0
 11
-26.000000000000071
 21
141.80000000000001
 31
0.0
  0
LINE
  5
114
  8
DATA
  6
CONTINUOUS
 62
     7
 10
-24.000000000000071
 20
141.80000000000001
 30
0.0
 11
-26.000000000000071
 21
141.80000000000001
 31
0.0
  0
LINE
  5
115
  8
DATA
  6
CONTINUOUS
 62
     7
 10
-24.000000000000071
 20
148.80000000000001
 30
0.0
 11
-26.000000000000071
 21
148.80000000000001
 31
0.0
  0
LINE
  5
116
  8
DATA
  6
CONTINUOUS
 62
     7
 10
-29.000000000000071
 20
148.80000000000001
 30
0.0
 11
-29.000000000000071
 21
141.80000000000001
 31
0.0
  0
LINE
  5
117
  8
DATA
  6
CONTINUOUS
 62
     7
 10
-31.000000000000071
 20
148.80000000000001
 30
0.0
 11
-31.000000000000071
 21
141.80000000000001
 31
0.0
  0
LINE
  5
118
  8
DATA
  6
CONTINUOUS
 62
     7
 10
-29.000000000000071
 20
141.80000000000001
 30
0.0
 11
-31.000000000000071
 21
141.80000000000001
 31
0.0
  0
LINE
  5
119
  8
DATA
  6
CONTINUOUS
 62
     7
 10
-29.000000000000071
 20
148.80000000000001
 30
0.0
 11
-31.000000000000071
 21
148.80000000000001
 31
0.0
  0
LINE
  5
11A
  8
DATA
  6
CONTINUOUS
 62
     7
 10
-34.000000000000071
 20
148.80000000000001
 30
0.0
 11
-34.000000000000071
 21
141.80000000000001
 31
0.0
  0
LINE
  5
11B
  8
DATA
  6
CONTINUOUS
 62
     7
 10
-36.000000000000071
 20
148.80000000000001
 30
0.0
 11
-36.000000000000071
 21
141.80000000000001
 31
0.0
  0
LINE
  5
11C
  8
DATA
  6
CONTINUOUS
 62
     7
 10
-34.000000000000071
 20
141.80000000000001
 30
0.0
 11
-36.000000000000071
 21
141.80000000000001
 31
0.0
  0
LINE
  5
11D
  8
DATA
  6
CONTINUOUS
 62
     7
 10
-34.000000000000071
 20
148.80000000000001
 30
0.0
 11
-36.000000000000071
 21
148.80000000000001
 31
0.0
  0
LINE
  5
11E
  8
DATA
  6
CONTINUOUS
 62
     7
 10
-39.000000000000071
 20
148.80000000000001
 30
0.0
 11
-39.000000000000071
 21
141.80000000000001
 31
0.0
  0
LINE
  5
11F
  8
DATA
  6
CONTINUOUS
 62
     7
 10
-41.000000000000071
 20
148.80000000000001
 30
0.0
 11
-41.000000000000071
 21
141.80000000000001
 31
0.0
  0
LINE
  5
120
  8
DATA
  6
CONTINUOUS
 62
     7
 10
-39.000000000000071
 20
141.80000000000001
 30
0.0
 11
-41.000000000000071
 21
141.80000000000001
 31
0.0
  0
LINE
  5
121
  8
DATA
  6
CONTINUOUS
 62
     7
 10
-39.000000000000071
 20
148.80000000000001
 30
0.0
 11
-41.000000000000071
 21
148.80000000000001
 31
0.0
  0
LINE
  5
122
  8
DATA
  6
CONTINUOUS
 62
     7
 10
-44.000000000000057
 20
148.80000000000001
 30
0.0
 11
-44.000000000000057
 21
141.80000000000001
 31
0.0
  0
LINE
  5
123
  8
DATA
  6
CONTINUOUS
 62
     7
 10
-46.000000000000057
 20
148.80000000000001
 30
0.0
 11
-46.000000000000057
 21
141.80000000000001
 31
0.0
  0
LINE
  5
124
  8
DATA
  6
CONTINUOUS
 62
     7
 10
-44.000000000000057
 20
141.80000000000001
 30
0.0
 11
-46.000000000000057
 21
141.80000000000001
 31
0.0
  0
LINE
  5
125
  8
DATA
  6
CONTINUOUS
 62
     7
 10
-44.000000000000057
 20
148.80000000000001
 30
0.0
 11
-46.000000000000057
 21
148.80000000000001
 31
0.0
  0
LINE
  5
126
  8
DATA
  6
CONTINUOUS
 62
     7
 10
-49.000000000000057
 20
148.80000000000001
 30
0.0
 11
-49.000000000000057
 21
141.80000000000001
 31
0.0
  0
LINE
  5
127
  8
DATA
  6
CONTINUOUS
 62
     7
 10
-51.000000000000057
 20
148.80000000000001
 30
0.0
 11
-51.000000000000057
 21
141.80000000000001
 31
0.0
  0
LINE
  5
128
  8
DATA
  6
CONTINUOUS
 62
     7
 10
-49.000000000000057
 20
141.80000000000001
 30
0.0
 11
-51.000000000000057
 21
141.80000000000001
 31
0.0
  0
LINE
  5
129
  8
DATA
  6
CONTINUOUS
 62
     7
 10
-49.000000000000057
 20
148.80000000000001
 30
0.0
 11
-51.000000000000057
 21
148.80000000000001
 31
0.0
  0
LINE
  5
12A
  8
DATA
  6
CONTINUOUS
 62
     7
 10
-54.000000000000057
 20
148.80000000000001
 30
0.0
 11
-54.000000000000057
 21
141.80000000000001
 31
0.0
  0
LINE
  5
12B
  8
DATA
  6
CONTINUOUS
 62
     7
 10
-56.000000000000057
 20
148.80000000000001
 30
0.0
 11
-56.000000000000057
 21
141.80000000000001
 31
0.0
  0
LINE
  5
12C
  8
DATA
  6
CONTINUOUS
 62
     7
 10
-54.000000000000057
 20
141.80000000000001
 30
0.0
 11
-56.000000000000057
 21
141.80000000000001
 31
0.0
  0
LINE
  5
12D
  8
DATA
  6
CONTINUOUS
 62
     7
 10
-54.000000000000057
 20
148.80000000000001
 30
0.0
 11
-56.000000000000057
 21
148.80000000000001
 31
0.0
  0
LINE
  5
12E
  8
DATA
  6
CONTINUOUS
 62
     7
 10
-59.000000000000057
 20
148.80000000000001
 30
0.0
 11
-59.000000000000057
 21
141.80000000000001
 31
0.0
  0
LINE
  5
12F
  8
DATA
  6
CONTINUOUS
 62
     7
 10
-61.000000000000057
 20
148.80000000000001
 30
0.0
 11
-61.000000000000057
 21
141.80000000000001
 31
0.0
  0
LINE
  5
130
  8
DATA
  6
CONTINUOUS
 62
     7
 10
-59.000000000000057
 20
141.80000000000001
 30
0.0
 11
-61.000000000000057
 21
141.80000000000001
 31
0.0
  0
LINE
  5
131
  8
DATA
  6
CONTINUOUS
 62
     7
 10
-59.000000000000057
 20
148.80000000000001
 30
0.0
 11
-61.000000000000057
 21
148.80000000000001
 31
0.0
  0
LINE
  5
132
  8
DATA
  6
CONTINUOUS
 62
     7
 10
-64.000000000000071
 20
148.80000000000001
 30
0.0
 11
-64.000000000000071
 21
141.80000000000001
 31
0.0
  0
LINE
  5
133
  8
DATA
  6
CONTINUOUS
 62
     7
 10
-66.000000000000071
 20
148.80000000000001
 30
0.0
 11
-66.000000000000071
 21
141.80000000000001
 31
0.0
  0
LINE
  5
134
  8
DATA
  6
CONTINUOUS
 62
     7
 10
-64.000000000000071
 20
141.80000000000001
 30
0.0
 11
-66.000000000000071
 21
141.80000000000001
 31
0.0
  0
LINE
  5
135
  8
DATA
  6
CONTINUOUS
 62
     7
 10
-64.000000000000071
 20
148.80000000000001
 30
0.0
 11
-66.000000000000071
 21
148.80000000000001
 31
0.0
  0
LINE
  5
136
  8
DATA
  6
CONTINUOUS
 62
     7
 10
-69.000000000000071
 20
148.80000000000001
 30
0.0
 11
-69.000000000000071
 21
141.80000000000001
 31
0.0
  0
LINE
  5
137
  8
DATA
  6
CONTINUOUS
 62
     7
 10
-71.000000000000071
 20
148.80000000000001
 30
0.0
 11
-71.000000000000071
 21
141.80000000000001
 31
0.0
  0
LINE
  5
138
  8
DATA
  6
CONTINUOUS
 62
     7
 10
-69.000000000000071
 20
141.80000000000001
 30
0.0
 11
-71.000000000000071
 21
141.80000000000001
 31
0.0
  0
LINE
  5
139
  8
DATA
  6
CONTINUOUS
 62
     7
 10
-69.000000000000071
 20
148.80000000000001
 30
0.0
 11
-71.000000000000071
 21
148.80000000000001
 31
0.0
  0
LINE
  5
13A
  8
DATA
  6
CONTINUOUS
 62
     7
 10
-74.000000000000071
 20
148.80000000000001
 30
0.0
 11
-74.000000000000071
 21
141.80000000000001
 31
0.0
  0
LINE
  5
13B
  8
DATA
  6
CONTINUOUS
 62
     7
 10
-76.000000000000071
 20
148.80000000000001
 30
0.0
 11
-76.000000000000071
 21
141.80000000000001
 31
0.0
  0
LINE
  5
13C
  8
DATA
  6
CONTINUOUS
 62
     7
 10
-74.000000000000071
 20
141.80000000000001
 30
0.0
 11
-76.000000000000071
 21
141.80000000000001
 31
0.0
  0
LINE
  5
13D
  8
DATA
  6
CONTINUOUS
 62
     7
 10
-74.000000000000071
 20
148.80000000000001
 30
0.0
 11
-76.000000000000071
 21
148.80000000000001
 31
0.0
  0
LINE
  5
13E
  8
DATA
  6
CONTINUOUS
 62
     7
 10
-79.000000000000071
 20
148.80000000000001
 30
0.0
 11
-79.000000000000071
 21
141.80000000000001
 31
0.0
  0
LINE
  5
13F
  8
DATA
  6
CONTINUOUS
 62
     7
 10
-81.000000000000057
 20
148.80000000000001
 30
0.0
 11
-81.000000000000057
 21
141.80000000000001
 31
0.0
  0
LINE
  5
140
  8
DATA
  6
CONTINUOUS
 62
     7
 10
-79.000000000000071
 20
141.80000000000001
 30
0.0
 11
-81.000000000000057
 21
141.80000000000001
 31
0.0
  0
LINE
  5
141
  8
DATA
  6
CONTINUOUS
 62
     7
 10
-79.000000000000071
 20
148.80000000000001
 30
0.0
 11
-81.000000000000057
 21
148.80000000000001
 31
0.0
  0
LINE
  5
142
  8
DATA
  6
CONTINUOUS
 62
     7
 10
-70.500000000000043
 20
133.5
 30
0.0
 11
-58.200000000000031
 21
133.5
 31
0.0
  0
LINE
  5
143
  8
DATA
  6
CONTINUOUS
 62
     7
 10
-15.80000000000005
 20
133.5
 30
0.0
 11
-3.5000000000000422
 21
133.5
 31
0.0
  0
LINE
  5
144
  8
DATA
  6
CONTINUOUS
 62
     7
 10
-3.5000000000000422
 20
117.0
 30
0.0
 11
-3.5000000000000422
 21
133.5
 31
0.0
  0
LINE
  5
145
  8
DATA
  6
CONTINUOUS
 62
     7
 10
-70.500000000000043
 20
133.5
 30
0.0
 11
-70.500000000000043
 21
117.0
 31
0.0
  0
LINE
  5
146
  8
DATA
  6
CONTINUOUS
 62
     7
 10
-70.500000000000043
 20
117.0
 30
0.0
 11
-68.500000000000071
 21
117.0
 31
0.0
  0
LINE
  5
147
  8
DATA
  6
CONTINUOUS
 62
     7
 10
-5.5000000000000711
 20
117.0
 30
0.0
 11
-3.5000000000000422
 21
117.0
 31
0.0
  0
LINE
  5
148
  8
DATA
  6
CONTINUOUS
 62
     7
 10
-50.500000000000043
 20
134.5082630945567
 30
0.0
 11
-50.500000000000043
 21
137.0
 31
0.0
  0
LINE
  5
149
  8
DATA
  6
CONTINUOUS
 62
     7
 10
-23.500000000000039
 20
137.0
 30
0.0
 11
-23.500000000000039
 21
134.5082630945567
 31
0.0
  0
LINE
  5
14A
  8
DATA
  6
CONTINUOUS
 62
     7
 10
-58.200000000000031
 20
133.5
 30
0.0
 11
-58.200000000000031
 21
137.0
 31
0.0
  0
LINE
  5
14B
  8
DATA
  6
CONTINUOUS
 62
     7
 10
-15.80000000000005
 20
137.0
 30
0.0
 11
-15.80000000000005
 21
133.5
 31
0.0
  0
LINE
  5
14C
  8
DATA
  6
CONTINUOUS
 62
     7
 10
-58.200000000000031
 20
137.0
 30
0.0
 11
-50.500000000000043
 21
137.0
 31
0.0
  0
LINE
  5
14D
  8
DATA
  6
CONTINUOUS
 62
     7
 10
-23.500000000000039
 20
137.0
 30
0.0
 11
-15.80000000000005
 21
137.0
 31
0.0
  0
LINE
  5
14E
  8
DATA
  6
CONTINUOUS
 62
     7
 10
-68.500000000000071
 20
107.0
 30
0.0
 11
-68.500000000000071
 21
117.0
 31
0.0
  0
LINE
  5
14F
  8
DATA
  6
CONTINUOUS
 62
     7
 10
-5.5000000000000711
 20
117.0
 30
0.0
 11
-5.5000000000000711
 21
107.0
 31
0.0
  0
ARC
  5
150
  8
DATA
  6
CONTINUOUS
 62
     7
 10
-37.000000000000043
 20
98.74805321492488
 30
0.0
 40
37.282003773304531
 50
70.305693399148652
 51
109.69430660085131
  0
ARC
  5
151
  8
DATA
  6
CONTINUOUS
 62
     7
 10
-37.000000000000092
 20
247.0
 30
0.0
 40
143.5
 50
257.31961650818022
 51
266.20412345462262
  0
ARC
  5
152
  8
DATA
  6
CONTINUOUS
 62
     7
 10
-37.000000000000092
 20
247.0
 30
0.0
 40
143.5
 50
273.7958765453775
 51
282.68038349181978
  0
ARC
  5
153
  8
DATA
  6
CONTINUOUS
 62
     7
 10
-37.836170306574999
 20
97.536573906035102
 30
0.0
 40
19.776272699782329
 50
231.92704751448471
 51
272.42327340624172
  0
LINE
  5
154
  8
DATA
  6
CONTINUOUS
 62
     7
 10
-53.601011963092432
 20
92.122348957472269
 30
0.0
 11
-52.418449006571237
 21
97.167950905296038
 31
0.0
  0
ARC
  5
155
  8
DATA
  6
CONTINUOUS
 62
     7
 10
-43.864848857409903
 20
89.840435729577933
 30
0.0
 40
10.00000000000464
 50
166.80938928779321
 51
231.9270475144605
  0
ARC
  5
156
  8
DATA
  6
CONTINUOUS
 62
     7
 10
-43.321682684769691
 20
95.026427812452283
 30
0.0
 40
9.3454415984878558
 50
109.8825274907596
 51
166.86590790442489
  0
ARC
  5
157
  8
DATA
  6
CONTINUOUS
 62
     7
 10
-36.1638296934251
 20
97.536573906035102
 30
0.0
 40
19.776272699782321
 50
267.57672659375828
 51
308.0729524855152
  0
LINE
  5
158
  8
DATA
  6
CONTINUOUS
 62
     7
 10
-20.39898803690765
 20
92.122348957472269
 30
0.0
 11
-21.581550993428841
 21
97.167950905296038
 31
0.0
  0
ARC
  5
159
  8
DATA
  6
CONTINUOUS
 62
     7
 10
-30.135151142590171
 20
89.840435729577933
 30
0.0
 40
10.00000000000461
 50
308.07295248553942
 51
13.190610712206819
  0
ARC
  5
15A
  8
DATA
  6
CONTINUOUS
 62
     7
 10
-30.678317315230391
 20
95.026427812452283
 30
0.0
 40
9.3454415984878398
 50
13.13409209557506
 51
70.117472509240386
  0
ARC
  5
15B
  8
DATA
  6
CONTINUOUS
 62
     7
 10
-49.800000000000018
 20
134.5082630945567
 30
0.0
 40
0.7000000000000171
 50
180.0
 51
289.69430660084959
  0
ARC
  5
15C
  8
DATA
  6
CONTINUOUS
 62
     7
 10
-24.20000000000006
 20
134.5082630945567
 30
0.0
 40
0.6999999999999989
 50
250.30569339915041
 51
0.0
  0
LINE
  5
15D
  8
DATA
  6
CONTINUOUS
 62
     7
 10
85.499999999999986
 20
133.5
 30
0.0
 11
73.199999999999974
 21
133.5
 31
0.0
  0
LINE
  5
15E
  8
DATA
  6
CONTINUOUS
 62
     7
 10
30.800000000000001
 20
133.5
 30
0.0
 11
18.499999999999979
 21
133.5
 31
0.0
  0
LINE
  5
15F
  8
DATA
  6
CONTINUOUS
 62
     7
 10
18.499999999999979
 20
117.0
 30
0.0
 11
18.499999999999979
 21
133.5
 31
0.0
  0
LINE
  5
160
  8
DATA
  6
CONTINUOUS
 62
     7
 10
85.499999999999986
 20
133.5
 30
0.0
 11
85.499999999999986
 21
117.0
 31
0.0
  0
LINE
  5
161
  8
DATA
  6
CONTINUOUS
 62
     7
 10
85.499999999999986
 20
117.0
 30
0.0
 11
83.500000000000014
 21
117.0
 31
0.0
  0
LINE
  5
162
  8
DATA
  6
CONTINUOUS
 62
     7
 10
20.500000000000011
 20
117.0
 30
0.0
 11
18.499999999999979
 21
117.0
 31
0.0
  0
LINE
  5
163
  8
DATA
  6
CONTINUOUS
 62
     7
 10
65.499999999999986
 20
134.5082630945567
 30
0.0
 11
65.499999999999986
 21
137.0
 31
0.0
  0
LINE
  5
164
  8
DATA
  6
CONTINUOUS
 62
     7
 10
38.5
 20
137.0
 30
0.0
 11
38.5
 21
134.5082630945567
 31
0.0
  0
LINE
  5
165
  8
DATA
  6
CONTINUOUS
 62
     7
 10
73.199999999999974
 20
133.5
 30
0.0
 11
73.199999999999974
 21
137.0
 31
0.0
  0
LINE
  5
166
  8
DATA
  6
CONTINUOUS
 62
     7
 10
30.800000000000001
 20
137.0
 30
0.0
 11
30.800000000000001
 21
133.5
 31
0.0
  0
LINE
  5
167
  8
DATA
  6
CONTINUOUS
 62
     7
 10
73.199999999999974
 20
137.0
 30
0.0
 11
65.499999999999986
 21
137.0
 31
0.0
  0
LINE
  5
168
  8
DATA
  6
CONTINUOUS
 62
     7
 10
38.5
 20
137.0
 30
0.0
 11
30.800000000000001
 21
137.0
 31
0.0
  0
LINE
  5
169
  8
DATA
  6
CONTINUOUS
 62
     7
 10
83.500000000000014
 20
107.0
 30
0.0
 11
83.500000000000014
 21
117.0
 31
0.0
  0
LINE
  5
16A
  8
DATA
  6
CONTINUOUS
 62
     7
 10
20.500000000000011
 20
117.0
 30
0.0
 11
20.500000000000011
 21
107.0
 31
0.0
  0
ARC
  5
16B
  8
DATA
  6
CONTINUOUS
 62
     7
 10
51.999999999999993
 20
98.74805321492488
 30
0.0
 40
37.282003773304531
 50
70.305693399148652
 51
109.69430660085131
  0
ARC
  5
16C
  8
DATA
  6
CONTINUOUS
 62
     7
 10
52.000000000000028
 20
247.0
 30
0.0
 40
143.5
 50
273.79587654537733
 51
282.68038349181978
  0
ARC
  5
16D
  8
DATA
  6
CONTINUOUS
 62
     7
 10
52.000000000000028
 20
247.0
 30
0.0
 40
143.5
 50
257.31961650818022
 51
266.2041234546225
  0
ARC
  5
16E
  8
DATA
  6
CONTINUOUS
 62
     7
 10
52.836170306574928
 20
97.536573906035102
 30
0.0
 40
19.776272699782321
 50
267.57672659375828
 51
308.0729524855152
  0
LINE
  5
16F
  8
DATA
  6
CONTINUOUS
 62
     7
 10
68.60101196309239
 20
92.122348957472269
 30
0.0
 11
67.41844900657118
 21
97.167950905296038
 31
0.0
  0
ARC
  5
170
  8
DATA
  6
CONTINUOUS
 62
     7
 10
58.864848857409861
 20
89.840435729577933
 30
0.0
 40
10.00000000000461
 50
308.07295248553942
 51
13.190610712206819
  0
ARC
  5
171
  8
DATA
  6
CONTINUOUS
 62
     7
 10
58.321682684769641
 20
95.026427812452283
 30
0.0
 40
9.3454415984878398
 50
13.13409209557506
 51
70.117472509240386
  0
ARC
  5
172
  8
DATA
  6
CONTINUOUS
 62
     7
 10
51.163829693425029
 20
97.536573906035102
 30
0.0
 40
19.776272699782329
 50
231.92704751448471
 51
272.42327340624172
  0
LINE
  5
173
  8
DATA
  6
CONTINUOUS
 62
     7
 10
35.39898803690761
 20
92.122348957472269
 30
0.0
 11
36.581550993428792
 21
97.167950905296038
 31
0.0
  0
ARC
  5
174
  8
DATA
  6
CONTINUOUS
 62
     7
 10
45.135151142590111
 20
89.840435729577933
 30
0.0
 40
10.00000000000464
 50
166.80938928779321
 51
231.9270475144605
  0
ARC
  5
175
  8
DATA
  6
CONTINUOUS
 62
     7
 10
45.678317315230331
 20
95.026427812452283
 30
0.0
 40
9.3454415984878558
 50
109.8825274907596
 51
166.86590790442489
  0
ARC
  5
176
  8
DATA
  6
CONTINUOUS
 62
     7
 10
64.799999999999955
 20
134.5082630945567
 30
0.0
 40
0.6999999999999989
 50
250.30569339915041
 51
0.0
  0
ARC
  5
177
  8
DATA
  6
CONTINUOUS
 62
     7
 10
39.200000000000003
 20
134.5082630945567
 30
0.0
 40
0.7000000000000171
 50
180.0
 51
289.69430660084959
  0
CIRCLE
  5
178
  8
DATA
  6
CONTINUOUS
 62
     7
 10
7.4999999999999707
 20
88.499999999999986
 30
0.0
 40
9.5
  0
ARC
  5
179
  8
DATA
  6
CONTINUOUS
 62
     7
 10
7.4999999999999867
 20
1543.1666666666661
 30
0.0
 40
1505.6666666666661
 50
266.3825213550158
 51
273.61747864498409
  0
LINE
  5
17A
  8
DATA
  6
CONTINUOUS
 62
     7
 10
97.5
 20
275.0
 30
0.0
 11
-82.500000000000014
 21
275.0
 31
0.0
  0
LINE
  5
17B
  8
DATA
  6
CONTINUOUS
 62
     7
 10
-85.000000000000014
 20
200.0
 30
0.0
 11
100.0
 21
200.0
 31
0.0
  0
LINE
  5
17C
  8
DATA
  6
CONTINUOUS
 62
     7
 10
-87.500000000000014
 20
265.0
 30
0.0
 11
-85.000000000000014
 21
200.0
 31
0.0
  0
LINE
  5
17D
  8
DATA
  6
CONTINUOUS
 62
     7
 10
-82.500000000000014
 20
275.0
 30
0.0
 11
-82.500000000000014
 21
265.0
 31
0.0
  0
LINE
  5
17E
  8
DATA
  6
CONTINUOUS
 62
     7
 10
97.5
 20
275.0
 30
0.0
 11
97.5
 21
265.0
 31
0.0
  0
LINE
  5
17F
  8
DATA
  6
CONTINUOUS
 62
     7
 10
102.5
 20
265.0
 30
0.0
 11
100.0
 21
200.0
 31
0.0
  0
LINE
  5
180
  8
DATA
  6
CONTINUOUS
 62
     7
 10
-78.500000000000014
 20
278.0
 30
0.0
 11
-79.000000000000014
 21
275.0
 31
0.0
  0
LINE
  5
181
  8
DATA
  6
CONTINUOUS
 62
     7
 10
-68.000000000000014
 20
275.0
 30
0.0
 11
-68.500000000000014
 21
278.0
 31
0.0
  0
LINE
  5
182
  8
DATA
  6
CONTINUOUS
 62
     7
 10
-78.500000000000014
 20
278.0
 30
0.0
 11
-68.500000000000014
 21
278.0
 31
0.0
  0
LINE
  5
183
  8
DATA
  6
CONTINUOUS
 62
     7
 10
93.499999999999957
 20
278.0
 30
0.0
 11
93.999999999999957
 21
275.0
 31
0.0
  0
LINE
  5
184
  8
DATA
  6
CONTINUOUS
 62
     7
 10
82.999999999999943
 20
275.0
 30
0.0
 11
83.499999999999957
 21
278.0
 31
0.0
  0
LINE
  5
185
  8
DATA
  6
CONTINUOUS
 62
     7
 10
93.499999999999957
 20
278.0
 30
0.0
 11
83.499999999999957
 21
278.0
 31
0.0
  0
LINE
  5
186
  8
DATA
  6
CONTINUOUS
 62
     7
 10
-87.500000000000014
 20
265.0
 30
0.0
 11
102.5
 21
265.0
 31
0.0
  0
POLYLINE
  5
187
  8
DATA
  6
CONTINUOUS
 62
     7
 66
     1
 10
0.0
 20
0.0
 30
0.0
 70
     1
  0
VERTEX
  5
253
  8
DATA
  6
CONTINUOUS
 62
     7
 10
2.0
 20
265.0
 30
0.0
  0
VERTEX
  5
254
  8
DATA
  6
CONTINUOUS
 62
     7
 10
13.0
 20
265.0
 30
0.0
  0
VERTEX
  5
255
  8
DATA
  6
CONTINUOUS
 62
     7
 10
13.0
 20
252.0
 30
0.0
  0
VERTEX
  5
256
  8
DATA
  6
CONTINUOUS
 62
     7
 10
2.0
 20
252.0
 30
0.0
  0
SEQEND
  5
257
  8
DATA
  6
CONTINUOUS
 62
     7
  0
CIRCLE
  5
18E
  8
DATA
  6
CONTINUOUS
 62
     7
 10
7.5
 20
257.9922725656084
 30
0.0
 40
3.1500000000000048
  0
CIRCLE
  5
18F
  8
DATA
  6
CONTINUOUS
 62
     7
 10
7.5
 20
257.9922725656084
 30
0.0
 40
0.5
  0
LINE
  5
190
  8
DATA
  6
CONTINUOUS
 62
     7
 10
275.00000000029149
 20
-87.5
 30
0.0
 11
166.00000000029161
 21
-87.5
 31
0.0
  0
LINE
  5
191
  8
DATA
  6
CONTINUOUS
 62
     7
 10
191.50000000029161
 20
-12.5
 30
0.0
 11
278.50000000029161
 21
-12.5
 31
0.0
  0
LINE
  5
192
  8
DATA
  6
CONTINUOUS
 62
     7
 10
172.50000000029161
 20
-90.5
 30
0.0
 11
172.00000000029161
 21
-87.5
 31
0.0
  0
LINE
  5
193
  8
DATA
  6
CONTINUOUS
 62
     7
 10
183.00000000029161
 20
-87.5
 30
0.0
 11
182.50000000029161
 21
-90.5
 31
0.0
  0
LINE
  5
194
  8
DATA
  6
CONTINUOUS
 62
     7
 10
172.50000000029161
 20
-90.5
 30
0.0
 11
182.50000000029161
 21
-90.5
 31
0.0
  0
LINE
  5
195
  8
DATA
  6
CONTINUOUS
 62
     7
 10
269.50000000029161
 20
-90.5
 30
0.0
 11
270.00000000029161
 21
-87.5
 31
0.0
  0
LINE
  5
196
  8
DATA
  6
CONTINUOUS
 62
     7
 10
259.00000000029161
 20
-87.5
 30
0.0
 11
259.50000000029161
 21
-90.5
 31
0.0
  0
LINE
  5
197
  8
DATA
  6
CONTINUOUS
 62
     7
 10
269.50000000029161
 20
-90.5
 30
0.0
 11
259.50000000029161
 21
-90.5
 31
0.0
  0
LINE
  5
198
  8
DATA
  6
CONTINUOUS
 62
     7
 10
162.50000000029149
 20
-77.5
 30
0.0
 11
278.50000000029161
 21
-77.5
 31
0.0
  0
LINE
  5
199
  8
DATA
  6
CONTINUOUS
 62
     7
 10
278.50000000029161
 20
-77.5
 30
0.0
 11
278.50000000029161
 21
-12.5
 31
0.0
  0
LINE
  5
19A
  8
DATA
  6
CONTINUOUS
 62
     7
 10
275.00000000029149
 20
-77.5
 30
0.0
 11
275.00000000029149
 21
-87.5
 31
0.0
  0
LINE
  5
19B
  8
DATA
  6
CONTINUOUS
 62
     7
 10
166.00000000029161
 20
-77.5
 30
0.0
 11
166.00000000029161
 21
-87.5
 31
0.0
  0
ARC
  5
19C
  8
DATA
  6
CONTINUOUS
 62
     7
 10
278.08339338406171
 20
-98.903316510994216
 30
0.0
 40
114.5998360534365
 50
131.06570641170799
 51
169.23590706911429
  0
ARC
  5
19D
  8
DATA
  6
CONTINUOUS
 62
     7
 10
255.4500029067884
 20
-80.00077052751395
 30
0.0
 40
92.983637773261165
 50
133.4526942392973
 51
178.45885922196709
  0
POLYLINE
  5
19E
  8
DATA
  6
CONTINUOUS
 62
     7
 66
     1
 10
0.0
 20
0.0
 30
0.0
 70
     1
  0
VERTEX
  5
258
  8
DATA
  6
CONTINUOUS
 62
     7
 10
-17.500000000000011
 20
248.82287555348199
 30
0.0
  0
VERTEX
  5
259
  8
DATA
  6
CONTINUOUS
 62
     7
 10
32.5
 20
248.82287555348199
 30
0.0
  0
VERTEX
  5
25A
  8
DATA
  6
CONTINUOUS
 62
     7
 10
32.5
 20
213.82287555348199
 30
0.0
  0
VERTEX
  5
25B
  8
DATA
  6
CONTINUOUS
 62
     7
 10
-17.500000000000011
 20
213.82287555348199
 30
0.0
  0
SEQEND
  5
25C
  8
DATA
  6
CONTINUOUS
 62
     7
  0
TEXT
  5
1A5
  8
DATA
 62
     7
 10
16.260233812570672
 20
232.44023251190001
 30
0.0
 40
2.0360514322916661
  1
DC 5V1.5A
 50
180.0
 41
0.7
 11
16.260233812570672
 21
230.40418107960841
 31
0.0
 73
     3
  0
LINE
  5
1A6
  8
DATA
  6
CONTINUOUS
 62
     7
 10
4.3102338125706874
 20
234.09999999999999
 30
0.0
 11
16.310233812570679
 21
234.09999999999999
 31
0.0
  0
LINE
  5
1A7
  8
DATA
  6
STYLE_05
 62
     7
 10
4.3102338125706874
 20
235.908287834822
 30
0.0
 11
16.310233812570679
 21
235.908287834822
 31
0.0
  0
ARC
  5
1A8
  8
DATA
  6
CONTINUOUS
 62
     7
 10
-2.4477485474591409
 20
233.7000000000001
 30
0.0
 40
1.8499999999999881
 50
212.7204433663681
 51
147.2795566336334
  0
CIRCLE
  5
1A9
  8
DATA
  6
CONTINUOUS
 62
     7
 10
-2.4477485474591409
 20
233.69999999999999
 30
0.0
 40
0.9500000000000028
  0
LINE
  5
1AA
  8
DATA
  6
CONTINUOUS
 62
     7
 10
-3.39774854745913
 20
233.69999999999999
 30
0.0
 11
-5.973101370813807
 21
233.69999999999999
 31
0.0
  0
TEXT
  5
1AB
  8
DATA
 62
     7
 10
-8.1116592858908945
 20
232.6218367841025
 30
0.0
 40
2.2803776041666661
  1
+
 41
0.7
 11
-8.1116592858908945
 21
234.90221438826919
 31
0.0
 73
     3
  0
TEXT
  5
1AC
  8
DATA
 62
     7
 10
1.1325723744173919
 20
232.6218367841025
 30
0.0
 40
2.2803776041666661
  1
-
 41
0.7
 11
1.1325723744173919
 21
234.90221438826919
 31
0.0
 73
     3
  0
LINE
  5
1AD
  8
DATA
  6
CONTINUOUS
 62
     7
 10
-0.5977485474586644
 20
233.69999999999999
 30
0.0
 11
0.4502338125706872
 21
233.69999999999999
 31
0.0
  0
ENDSEC
  0
EOF
