  0
SECTION
  2
HEADER
  9
$ACADVER
  1
AC1009
  9
$INSBASE
 10
0.0
 20
0.0
 30
0.0
  9
$EXTMIN
 10
-170.0164782349211
 20
-265.80211091866681
 30
-0.0015258207003583
  9
$EXTMAX
 10
370.0164807494923
 20
537.08808227102497
 30
0.0000000349246037
  9
$LIMMIN
 10
0.0
 20
0.0
  9
$LIMMAX
 10
0.0
 20
0.0
  9
$ORTHOMODE
 70
     0
  9
$REGENMODE
 70
     1
  9
$FILLMODE
 70
     1
  9
$QTEXTMODE
 70
     0
  9
$MIRRTEXT
 70
     1
  9
$DRAGMODE
 70
     2
  9
$LTSCALE
 40
15.24
  9
$OSMODE
 70
   231
  9
$ATTMODE
 70
     1
  9
$TEXTSIZE
 40
0.0
  9
$TRACEWID
 40
1.0
  9
$TEXTSTYLE
  7
STANDARD
  9
$CLAYER
  8
DATA
  9
$CELTYPE
  6
BYLAYER
  9
$CECOLOR
 62
   256
  9
$DIMSCALE
 40
1.0
  9
$DIMASZ
 40
0.18
  9
$DIMEXO
 40
0.0625
  9
$DIMDLI
 40
0.38
  9
$DIMRND
 40
0.0
  9
$DIMDLE
 40
0.0
  9
$DIMEXE
 40
0.18
  9
$DIMTP
 40
0.0
  9
$DIMTM
 40
0.0
  9
$DIMTXT
 40
0.18
  9
$DIMCEN
 40
0.09
  9
$DIMTSZ
 40
0.0
  9
$DIMTOL
 70
     0
  9
$DIMLIM
 70
     0
  9
$DIMTIH
 70
     1
  9
$DIMTOH
 70
     1
  9
$DIMSE1
 70
     0
  9
$DIMSE2
 70
     0
  9
$DIMTAD
 70
     0
  9
$DIMZIN
 70
     0
  9
$DIMBLK
  1

  9
$DIMASO
 70
     1
  9
$DIMSHO
 70
     1
  9
$DIMPOST
  1

  9
$DIMAPOST
  1

  9
$DIMALT
 70
     0
  9
$DIMALTD
 70
     2
  9
$DIMALTF
 40
25.399999999999999
  9
$DIMLFAC
 40
1.0
  9
$DIMTOFL
 70
     0
  9
$DIMTVP
 40
0.0
  9
$DIMTIX
 70
     0
  9
$DIMSOXD
 70
     0
  9
$DIMSAH
 70
     0
  9
$DIMBLK1
  1

  9
$DIMBLK2
  1

  9
$DIMSTYLE
  2
STANDARD
  9
$DIMCLRD
 70
     0
  9
$DIMCLRE
 70
     0
  9
$DIMCLRT
 70
     0
  9
$DIMTFAC
 40
1.0
  9
$DIMGAP
 40
0.09
  9
$LUNITS
 70
     2
  9
$LUPREC
 70
     4
  9
$SKETCHINC
 40
0.1
  9
$FILLETRAD
 40
0.0
  9
$AUNITS
 70
     0
  9
$AUPREC
 70
     0
  9
$MENU
  1
acad
  9
$ELEVATION
 40
0.0
  9
$PELEVATION
 40
0.0
  9
$THICKNESS
 40
0.0
  9
$LIMCHECK
 70
     0
  9
$BLIPMODE
 70
     0
  9
$CHAMFERA
 40
0.0
  9
$CHAMFERB
 40
0.0
  9
$SKPOLY
 70
     0
  9
$TDCREATE
 40
2455309.5878587961
  9
$TDUPDATE
 40
2455309.5883374652
  9
$TDINDWG
 40
0.0003056366
  9
$TDUSRTIMER
 40
0.0003052662
  9
$USRTIMER
 70
     1
  9
$ANGBASE
 50
0.0
  9
$ANGDIR
 70
     0
  9
$PDMODE
 70
     1
  9
$PDSIZE
 40
-2.0
  9
$PLINEWID
 40
0.0
  9
$COORDS
 70
     0
  9
$SPLFRAME
 70
     0
  9
$SPLINETYPE
 70
     6
  9
$SPLINESEGS
 70
     8
  9
$ATTDIA
 70
     0
  9
$ATTREQ
 70
     1
  9
$HANDLING
 70
     1
  9
$HANDSEED
  5
321
  9
$SURFTAB1
 70
     6
  9
$SURFTAB2
 70
     6
  9
$SURFTYPE
 70
     6
  9
$SURFU
 70
     6
  9
$SURFV
 70
     6
  9
$UCSNAME
  2

  9
$UCSORG
 10
0.0
 20
0.0
 30
0.0
  9
$UCSXDIR
 10
1.0
 20
0.0
 30
0.0
  9
$UCSYDIR
 10
0.0
 20
1.0
 30
0.0
  9
$PUCSNAME
  2

  9
$PUCSORG
 10
0.0
 20
0.0
 30
0.0
  9
$PUCSXDIR
 10
1.0
 20
0.0
 30
0.0
  9
$PUCSYDIR
 10
0.0
 20
1.0
 30
0.0
  9
$USERI1
 70
     0
  9
$USERI2
 70
     0
  9
$USERI3
 70
     0
  9
$USERI4
 70
     0
  9
$USERI5
 70
     0
  9
$USERR1
 40
0.0
  9
$USERR2
 40
0.0
  9
$USERR3
 40
0.0
  9
$USERR4
 40
0.0
  9
$USERR5
 40
0.0
  9
$WORLDVIEW
 70
     1
  9
$SHADEDGE
 70
     3
  9
$SHADEDIF
 70
    70
  9
$TILEMODE
 70
     1
  9
$MAXACTVP
 70
    64
  9
$PLIMCHECK
 70
     0
  9
$PEXTMIN
 10
1.0000000000000000E+020
 20
1.0000000000000000E+020
 30
1.0000000000000000E+020
  9
$PEXTMAX
 10
-1.0000000000000000E+020
 20
-1.0000000000000000E+020
 30
-1.0000000000000000E+020
  9
$PLIMMIN
 10
0.0
 20
0.0
  9
$PLIMMAX
 10
12.0
 20
9.0
  9
$UNITMODE
 70
     0
  9
$VISRETAIN
 70
     0
  9
$PLINEGEN
 70
     1
  9
$PSLTSCALE
 70
     0
  0
ENDSEC
  0
SECTION
  2
TABLES
  0
TABLE
  2
VPORT
 70
     1
  0
VPORT
  2
*ACTIVE
 70
     0
 10
0.0
 20
0.0
 11
1.0
 21
1.0
 12
100.0000012572854
 22
135.64298567617919
 13
0.0
 23
0.0
 14
1.0
 24
1.0
 15
0.0
 25
0.0
 16
0.0
 26
0.0
 36
1.0
 17
0.0
 27
0.0
 37
0.0
 40
808.81558206932084
 41
1.9667487684729059
 42
50.0
 43
0.0
 44
0.0
 50
0.0
 51
0.0
 71
     0
 72
  2000
 73
     1
 74
     1
 75
     0
 76
     0
 77
     0
 78
     0
  0
ENDTAB
  0
TABLE
  2
LTYPE
 70
    11
  0
LTYPE
  2
CONTINUOUS
 70
     0
  3
Solid line
 72
    65
 73
     0
 40
0.0
  0
ENDTAB
  0
TABLE
  2
LAYER
 70
     6
  0
LAYER
  2
0
 70
     0
 62
     7
  6
CONTINUOUS
  0
LAYER
  2
DATA
 70
     0
 62
     7
  6
CONTINUOUS
  0
LAYER
  2
HIBINO-BASE
 70
     0
 62
     7
  6
CONTINUOUS
  0
LAYER
  2
PATTERN_FILL
 70
     0
 62
     7
  6
CONTINUOUS
  0
LAYER
  2
SPEC
 70
     0
 62
     7
  6
CONTINUOUS
  0
LAYER
  2
DIMNSIONS
 70
     0
 62
     7
  6
CONTINUOUS
  0
ENDTAB
  0
TABLE
  2
STYLE
 70
     3
  0
STYLE
  2
STANDARD
 70
     0
 40
0.0
 41
1.0
 50
0.0
 71
     0
 42
0.0
  3
txt
  4
BIGFONT.SHX
  0
ENDTAB
  0
TABLE
  2
VIEW
 70
     0
  0
ENDTAB
  0
TABLE
  2
UCS
 70
     0
  0
ENDTAB
  0
TABLE
  2
APPID
 70
     3
  0
APPID
  2
ACAD
 70
     0
  0
APPID
  2
ACADANNOTATIVE
 70
     0
  0
APPID
  2
ACAD_MLEADERVER
 70
     0
  0
ENDTAB
  0
TABLE
  2
DIMSTYLE
 70
     2
  0
DIMSTYLE
  2
STANDARD
 70
     0
  3

  4

  5

  6

  7

 40
1.0
 41
0.18
 42
0.0625
 43
0.38
 44
0.18
 45
0.0
 46
0.0
 47
0.0
 48
0.0
140
0.18
141
0.09
142
0.0
143
25.399999999999999
144
1.0
145
0.0
146
1.0
147
0.09
 71
     0
 72
     0
 73
     1
 74
     1
 75
     0
 76
     0
 77
     0
 78
     0
170
     0
171
     2
172
     0
173
     0
174
     0
175
     0
176
     0
177
     0
178
     0
  0
ENDTAB
  0
ENDSEC
  0
SECTION
  2
BLOCKS
  0
BLOCK
  8
0
  2
$MODEL_SPACE
 70
     0
 10
0.0
 20
0.0
 30
0.0
  3
$MODEL_SPACE
  1

  0
ENDBLK
  5
2BF
  8
0
  0
BLOCK
 67
     1
  8
0
  2
$PAPER_SPACE
 70
     0
 10
0.0
 20
0.0
 30
0.0
  3
$PAPER_SPACE
  1

  0
ENDBLK
  5
2BB
 67
     1
  8
0
  0
ENDSEC
  0
SECTION
  2
ENTITIES
  0
LINE
  5
2D
  8
HIBINO-BASE
  6
CONTINUOUS
 62
     7
 10
-169.99999999999989
 20
537.06362999999999
 30
0.0
 11
370.0
 21
537.06362999999999
 31
0.0
  0
LINE
  5
2E
  8
HIBINO-BASE
  6
CONTINUOUS
 62
     7
 10
370.0
 20
-242.93637000000001
 30
0.0
 11
-169.99999999999989
 21
-242.93637000000001
 31
0.0
  0
LINE
  5
2F
  8
HIBINO-BASE
  6
CONTINUOUS
 62
     7
 10
-169.99999999999989
 20
-242.93637000000001
 30
0.0
 11
-169.99999999999989
 21
537.06362999999999
 31
0.0
  0
TEXT
  5
30
  8
HIBINO-BASE
 62
     7
 10
-148.44799999999989
 20
-262.1624033999999
 30
0.0
 40
10.800132539062499
  1
Hibino Corporation
 41
0.7
 11
-148.44799999999989
 21
-251.3622708609374
 31
0.0
 73
     3
  0
LINE
  5
31
  8
HIBINO-BASE
  6
CONTINUOUS
 62
     7
 10
370.0
 20
537.06362999999999
 30
0.0
 11
370.0
 21
-242.93637000000001
 31
0.0
  0
LINE
  5
32
  8
HIBINO-BASE
  6
CONTINUOUS
 62
     7
 10
100.0
 20
-175.4363699999999
 30
0.0
 11
370.0
 21
-175.4363699999999
 31
0.0
  0
LINE
  5
33
  8
HIBINO-BASE
  6
CONTINUOUS
 62
     7
 10
100.0
 20
-242.93637000000001
 30
0.0
 11
100.0
 21
-175.4363699999999
 31
0.0
  0
TEXT
  5
34
  8
HIBINO-BASE
 62
     7
 10
102.7
 20
-182.96244999999999
 30
0.0
 40
4.8865234374999993
  1
NOTE
 41
0.7
 11
102.7
 21
-178.0759265625
 31
0.0
 73
     3
  0
LINE
  5
35
  8
HIBINO-BASE
  6
CONTINUOUS
 62
     7
 10
205.0
 20
-242.93637000000001
 30
0.0
 11
205.0
 21
-175.4363699999999
 31
0.0
  0
TEXT
  5
36
  8
HIBINO-BASE
 62
     7
 10
207.69999999999999
 20
-182.96244999999999
 30
0.0
 40
4.8865234374999993
  1
TITLE
 41
0.7
 11
207.69999999999999
 21
-178.0759265625
 31
0.0
 73
     3
  0
TEXT
  5
37
  8
HIBINO-BASE
 62
     7
 10
250.2051699999999
 20
-262.1624033999999
 30
0.0
 40
10.800132539062499
  1
ヒビノ株式会社
 41
0.7
 11
250.2051699999999
 21
-251.3622708609374
 31
0.0
 73
     3
  0
LINE
  5
38
  8
HIBINO-BASE
  6
CONTINUOUS
 62
     7
 10
100.0
 20
-212.9363699999999
 30
0.0
 11
370.0
 21
-212.9363699999999
 31
0.0
  0
TEXT
  5
39
  8
HIBINO-BASE
 62
     7
 10
245.19999999999999
 20
-220.29348999999999
 30
0.0
 40
4.8865234374999993
  1
DRAWN
 41
0.7
 11
245.19999999999999
 21
-215.4069665625
 31
0.0
 73
     3
  0
TEXT
  5
3A
  8
HIBINO-BASE
 62
     7
 10
170.19999999999999
 20
-220.29348999999999
 30
0.0
 40
4.8865234374999993
  1
DATE
 41
0.7
 11
170.19999999999999
 21
-215.4069665625
 31
0.0
 73
     3
  0
TEXT
  5
3B
  8
HIBINO-BASE
 62
     7
 10
140.19999999999999
 20
-220.29348999999999
 30
0.0
 40
4.8865234374999993
  1
SCALE
 41
0.7
 11
140.19999999999999
 21
-215.4069665625
 31
0.0
 73
     3
  0
TEXT
  5
3C
  8
HIBINO-BASE
 62
     7
 10
207.69999999999999
 20
-220.29348999999999
 30
0.0
 40
4.8865234374999993
  1
DESIGN
 41
0.7
 11
207.69999999999999
 21
-215.4069665625
 31
0.0
 73
     3
  0
TEXT
  5
3D
  8
HIBINO-BASE
 62
     7
 10
320.19999999999999
 20
-220.29348999999999
 30
0.0
 40
4.8865234374999993
  1
DRAWING NO.
 41
0.7
 11
320.19999999999999
 21
-215.4069665625
 31
0.0
 73
     3
  0
TEXT
  5
3E
  8
HIBINO-BASE
 62
     7
 10
282.69999999999999
 20
-220.29348999999999
 30
0.0
 40
4.8865234374999993
  1
CHECK
 41
0.7
 11
282.69999999999999
 21
-215.4069665625
 31
0.0
 73
     3
  0
LINE
  5
3F
  8
HIBINO-BASE
  6
CONTINUOUS
 62
     7
 10
143.12499999999989
 20
-239.18637000000001
 30
0.0
 11
154.375
 21
-227.93637000000001
 31
0.0
  0
TEXT
  5
40
  8
HIBINO-BASE
 62
     7
 10
141.24999999999989
 20
-231.26320000000001
 30
0.0
 40
4.8865234374999993
  1
1
 41
0.7
 11
141.24999999999989
 21
-226.37667656249999
 31
0.0
 73
     3
  0
LINE
  5
41
  8
HIBINO-BASE
  6
CONTINUOUS
 62
     7
 10
137.5
 20
-242.93637000000001
 30
0.0
 11
137.5
 21
-212.9363699999999
 31
0.0
  0
LINE
  5
42
  8
HIBINO-BASE
  6
CONTINUOUS
 62
     7
 10
167.5
 20
-242.93637000000001
 30
0.0
 11
167.5
 21
-212.9363699999999
 31
0.0
  0
LINE
  5
43
  8
HIBINO-BASE
  6
CONTINUOUS
 62
     7
 10
242.5
 20
-212.9363699999999
 30
0.0
 11
242.5
 21
-242.93637000000001
 31
0.0
  0
LINE
  5
44
  8
HIBINO-BASE
  6
CONTINUOUS
 62
     7
 10
317.5
 20
-212.9363699999999
 30
0.0
 11
317.5
 21
-242.93637000000001
 31
0.0
  0
LINE
  5
45
  8
HIBINO-BASE
  6
CONTINUOUS
 62
     7
 10
279.99999999999989
 20
-242.93637000000001
 30
0.0
 11
279.99999999999989
 21
-212.9363699999999
 31
0.0
  0
TEXT
  5
46
  8
HIBINO-BASE
 62
     7
 10
170.06961999999999
 20
-234.34542999999999
 30
0.0
 40
4.8865234374999993
  1
'10.04.
 41
0.7
 11
170.06961999999999
 21
-229.4589065625
 31
0.0
 73
     3
  0
TEXT
  5
47
  8
HIBINO-BASE
 62
     7
 10
152.5
 20
-236.88820000000001
 30
0.0
 40
4.8865234374999993
  1
3
 41
0.7
 11
152.5
 21
-232.00167656249999
 31
0.0
 73
     3
  0
TEXT
  5
48
  8
HIBINO-BASE
 62
     7
 10
111.65000000000001
 20
-237.00837000000001
 30
0.0
 40
9.7730468749999986
  1
A4
 41
0.7
 11
111.65000000000001
 21
-227.23532312500001
 31
0.0
 73
     3
  0
TEXT
  5
49
  8
HIBINO-BASE
 62
     7
 10
102.875
 20
-220.794735
 30
0.0
 40
4.8865234374999993
  1
PAPER SIZE
 41
0.7
 11
102.875
 21
-215.90821156249999
 31
0.0
 73
     3
  0
TEXT
  5
4A
  8
HIBINO-BASE
 62
     7
 10
247.01743003310389
 20
-234.34542999999999
 30
0.0
 40
4.8865234374999993
  1
T.Ootake
 41
0.7
 11
247.01743003310389
 21
-229.4589065625
 31
0.0
 73
     3
  0
LINE
  5
4B
  8
PATTERN_FILL
  6
CONTINUOUS
 62
     7
 10
-51.826424642561847
 20
214.98921561602819
 30
0.0
 11
-42.166734477810493
 21
198.25814146530541
 31
0.0
  0
LINE
  5
4C
  8
PATTERN_FILL
  6
CONTINUOUS
 62
     7
 10
-54.98257905501152
 20
227.3840386451993
 30
0.0
 11
-35.868572621933161
 21
194.27760836690911
 31
0.0
  0
LINE
  5
4D
  8
PATTERN_FILL
  6
CONTINUOUS
 62
     7
 10
-55.666797016740553
 20
235.4973421486406
 30
0.0
 11
-30.805180119665049
 21
192.43575852459301
 31
0.0
  0
LINE
  5
4E
  8
PATTERN_FILL
  6
CONTINUOUS
 62
     7
 10
-51.666797016740553
 20
235.4973421486406
 30
0.0
 11
-26.327434724454019
 21
191.6082792270054
 31
0.0
  0
LINE
  5
4F
  8
PATTERN_FILL
  6
CONTINUOUS
 62
     7
 10
-47.666797016740553
 20
235.4973421486406
 30
0.0
 11
-22.420289687853089
 21
191.76910874134759
 31
0.0
  0
LINE
  5
50
  8
PATTERN_FILL
  6
CONTINUOUS
 62
     7
 10
-43.666797016740567
 20
235.4973421486406
 30
0.0
 11
-18.85789634255671
 21
192.52706570102441
 31
0.0
  0
LINE
  5
51
  8
PATTERN_FILL
  6
CONTINUOUS
 62
     7
 10
-39.666797016740553
 20
235.4973421486406
 30
0.0
 11
-15.51730968473775
 21
193.6692031128706
 31
0.0
  0
LINE
  5
52
  8
PATTERN_FILL
  6
CONTINUOUS
 62
     7
 10
-35.666797016740567
 20
235.4973421486406
 30
0.0
 11
-12.383387211848749
 21
195.1692933931204
 31
0.0
  0
LINE
  5
53
  8
PATTERN_FILL
  6
CONTINUOUS
 62
     7
 10
-31.666797016740571
 20
235.4973421486406
 30
0.0
 11
-9.4505579887590301
 21
197.01768739908161
 31
0.0
  0
LINE
  5
54
  8
PATTERN_FILL
  6
CONTINUOUS
 62
     7
 10
-27.666797016740571
 20
235.4973421486406
 30
0.0
 11
-6.768084739413907
 21
199.29971067154679
 31
0.0
  0
LINE
  5
55
  8
PATTERN_FILL
  6
CONTINUOUS
 62
     7
 10
-23.666797016740599
 20
235.4973421486406
 30
0.0
 11
-4.3596928210657353
 21
202.05645673470491
 31
0.0
  0
LINE
  5
56
  8
PATTERN_FILL
  6
CONTINUOUS
 62
     7
 10
-19.666797016740599
 20
235.4973421486406
 30
0.0
 11
-2.2119542564485211
 21
205.26466764968839
 31
0.0
  0
LINE
  5
57
  8
PATTERN_FILL
  6
CONTINUOUS
 62
     7
 10
-15.666797016740629
 20
235.4973421486406
 30
0.0
 11
-0.4346038313941137
 21
209.11440964091551
 31
0.0
  0
LINE
  5
58
  8
PATTERN_FILL
  6
CONTINUOUS
 62
     7
 10
-11.666797016740629
 20
235.4973421486406
 30
0.0
 11
1.1983364714944991
 21
213.21427730086091
 31
0.0
  0
LINE
  5
59
  8
PATTERN_FILL
  6
CONTINUOUS
 62
     7
 10
-7.6667970167406301
 20
235.4973421486406
 30
0.0
 11
2.666812101041514
 21
217.59900613108451
 31
0.0
  0
LINE
  5
5A
  8
PATTERN_FILL
  6
CONTINUOUS
 62
     7
 10
-3.666797016740631
 20
235.4973421486406
 30
0.0
 11
3.9436537388261992
 21
222.31565477149761
 31
0.0
  0
LINE
  5
5B
  8
PATTERN_FILL
  6
CONTINUOUS
 62
     7
 10
0.3332029832593406
 20
235.4973421486406
 30
0.0
 11
4.9905605692018611
 21
227.43056218077169
 31
0.0
  0
LINE
  5
5C
  8
PATTERN_FILL
  6
CONTINUOUS
 62
     7
 10
4.3332029832592118
 20
235.4973421486406
 30
0.0
 11
5.7505283089498516
 21
233.0424626736903
 31
0.0
  0
LINE
  5
5D
  8
PATTERN_FILL
  6
CONTINUOUS
 62
     7
 10
2.0688830780780161
 20
215.71173552826539
 30
0.0
 11
-8.1616806983919474
 21
197.9918792773457
 31
0.0
  0
LINE
  5
5E
  8
PATTERN_FILL
  6
CONTINUOUS
 62
     7
 10
5.0549354548341787
 20
227.8119331891445
 30
0.0
 11
-14.370062768866219
 21
194.16684932876021
 31
0.0
  0
LINE
  5
5F
  8
PATTERN_FILL
  6
CONTINUOUS
 62
     7
 10
5.4921083864316804
 20
235.4973421486406
 30
0.0
 11
-19.400497497663039
 21
192.3820840246006
 31
0.0
  0
LINE
  5
60
  8
PATTERN_FILL
  6
CONTINUOUS
 62
     7
 10
1.4921083864316811
 20
235.4973421486406
 30
0.0
 11
-23.858402394926109
 21
191.5889694775064
 31
0.0
  0
LINE
  5
61
  8
PATTERN_FILL
  6
CONTINUOUS
 62
     7
 10
-2.5078916135683178
 20
235.4973421486406
 30
0.0
 11
-27.74024690967234
 21
191.79362078115889
 31
0.0
  0
LINE
  5
62
  8
PATTERN_FILL
  6
CONTINUOUS
 62
     7
 10
-6.507891613568332
 20
235.4973421486406
 30
0.0
 11
-31.29247663455552
 21
192.56918164778031
 31
0.0
  0
LINE
  5
63
  8
PATTERN_FILL
  6
CONTINUOUS
 62
     7
 10
-10.507891613568299
 20
235.4973421486406
 30
0.0
 11
-34.623799851231851
 21
193.7273638103386
 31
0.0
  0
LINE
  5
64
  8
PATTERN_FILL
  6
CONTINUOUS
 62
     7
 10
-14.507891613568329
 20
235.4973421486406
 30
0.0
 11
-37.748885962726042
 21
195.2427591174783
 31
0.0
  0
LINE
  5
65
  8
PATTERN_FILL
  6
CONTINUOUS
 62
     7
 10
-18.507891613568329
 20
235.4973421486406
 30
0.0
 11
-40.672930133057072
 21
197.1063692811648
 31
0.0
  0
LINE
  5
66
  8
PATTERN_FILL
  6
CONTINUOUS
 62
     7
 10
-22.507891613568329
 20
235.4973421486406
 30
0.0
 11
-43.341378687224633
 21
199.4126840382385
 31
0.0
  0
LINE
  5
67
  8
PATTERN_FILL
  6
CONTINUOUS
 62
     7
 10
-26.507891613568329
 20
235.4973421486406
 30
0.0
 11
-45.740634711035568
 21
202.18525393490779
 31
0.0
  0
LINE
  5
68
  8
PATTERN_FILL
  6
CONTINUOUS
 62
     7
 10
-30.507891613568329
 20
235.4973421486406
 30
0.0
 11
-47.868460769070161
 21
205.4279543229984
 31
0.0
  0
LINE
  5
69
  8
PATTERN_FILL
  6
CONTINUOUS
 62
     7
 10
-34.50789161356834
 20
235.4973421486406
 30
0.0
 11
-49.639851907594043
 21
209.28801810127331
 31
0.0
  0
LINE
  5
6A
  8
PATTERN_FILL
  6
CONTINUOUS
 62
     7
 10
-38.50789161356834
 20
235.4973421486406
 30
0.0
 11
-51.266070233033282
 21
213.39952856768841
 31
0.0
  0
LINE
  5
6B
  8
PATTERN_FILL
  6
CONTINUOUS
 62
     7
 10
-42.507891613568333
 20
235.4973421486406
 30
0.0
 11
-52.726807394491331
 21
217.7976608178146
 31
0.0
  0
LINE
  5
6C
  8
PATTERN_FILL
  6
CONTINUOUS
 62
     7
 10
-46.507891613568319
 20
235.4973421486406
 30
0.0
 11
-53.994508794109962
 21
222.53014081512461
 31
0.0
  0
LINE
  5
6D
  8
PATTERN_FILL
  6
CONTINUOUS
 62
     7
 10
-50.507891613568319
 20
235.4973421486406
 30
0.0
 11
-55.03025184308764
 21
227.66438446098439
 31
0.0
  0
LINE
  5
6E
  8
PATTERN_FILL
  6
CONTINUOUS
 62
     7
 10
-54.507891613568333
 20
235.4973421486406
 30
0.0
 11
-55.775943661012619
 21
233.30101157582541
 31
0.0
  0
LINE
  5
6F
  8
PATTERN_FILL
  6
CONTINUOUS
 62
     7
 10
1.826424642561832
 20
-100.0004880052618
 30
0.0
 11
-7.8332655221895342
 21
-83.269413854539039
 31
0.0
  0
LINE
  5
70
  8
PATTERN_FILL
  6
CONTINUOUS
 62
     7
 10
4.9825790550114979
 20
-112.39531103443279
 30
0.0
 11
-14.131427378066871
 21
-79.288880756142703
 31
0.0
  0
LINE
  5
71
  8
PATTERN_FILL
  6
CONTINUOUS
 62
     7
 10
5.6667970167405164
 20
-120.50861453787419
 30
0.0
 11
-19.194819880334968
 21
-77.447030913826552
 31
0.0
  0
LINE
  5
72
  8
PATTERN_FILL
  6
CONTINUOUS
 62
     7
 10
1.6667970167405171
 20
-120.50861453787419
 30
0.0
 11
-23.67256527554602
 21
-76.619551616238979
 31
0.0
  0
LINE
  5
73
  8
PATTERN_FILL
  6
CONTINUOUS
 62
     7
 10
-2.3332029832594818
 20
-120.50861453787419
 30
0.0
 11
-27.579710312146929
 21
-76.780381130581134
 31
0.0
  0
LINE
  5
74
  8
PATTERN_FILL
  6
CONTINUOUS
 62
     7
 10
-6.3332029832594543
 20
-120.50861453787419
 30
0.0
 11
-31.142103657443322
 21
-77.538338090257994
 31
0.0
  0
LINE
  5
75
  8
PATTERN_FILL
  6
CONTINUOUS
 62
     7
 10
-10.333202983259479
 20
-120.50861453787419
 30
0.0
 11
-34.482690315262282
 21
-78.680475502104187
 31
0.0
  0
LINE
  5
76
  8
PATTERN_FILL
  6
CONTINUOUS
 62
     7
 10
-14.333202983259451
 20
-120.50861453787419
 30
0.0
 11
-37.616612788151279
 21
-80.180565782353952
 31
0.0
  0
LINE
  5
77
  8
PATTERN_FILL
  6
CONTINUOUS
 62
     7
 10
-18.333202983259451
 20
-120.50861453787419
 30
0.0
 11
-40.549442011240998
 21
-82.028959788315149
 31
0.0
  0
LINE
  5
78
  8
PATTERN_FILL
  6
CONTINUOUS
 62
     7
 10
-22.333202983259461
 20
-120.50861453787419
 30
0.0
 11
-43.231915260586121
 21
-84.310983060780416
 31
0.0
  0
LINE
  5
79
  8
PATTERN_FILL
  6
CONTINUOUS
 62
     7
 10
-26.333202983259429
 20
-120.50861453787419
 30
0.0
 11
-45.640307178934279
 21
-87.067729123938506
 31
0.0
  0
LINE
  5
7A
  8
PATTERN_FILL
  6
CONTINUOUS
 62
     7
 10
-30.333202983259429
 20
-120.50861453787419
 30
0.0
 11
-47.788045743551507
 21
-90.275940038921931
 31
0.0
  0
LINE
  5
7B
  8
PATTERN_FILL
  6
CONTINUOUS
 62
     7
 10
-34.333202983259397
 20
-120.50861453787419
 30
0.0
 11
-49.565396168605922
 21
-94.125682030149008
 31
0.0
  0
LINE
  5
7C
  8
PATTERN_FILL
  6
CONTINUOUS
 62
     7
 10
-38.333202983259397
 20
-120.50861453787419
 30
0.0
 11
-51.198336471494521
 21
-98.225549690094567
 31
0.0
  0
LINE
  5
7D
  8
PATTERN_FILL
  6
CONTINUOUS
 62
     7
 10
-42.33320298325939
 20
-120.50861453787419
 30
0.0
 11
-52.666812101041529
 21
-102.610278520318
 31
0.0
  0
LINE
  5
7E
  8
PATTERN_FILL
  6
CONTINUOUS
 62
     7
 10
-46.333202983259397
 20
-120.50861453787419
 30
0.0
 11
-53.943653738826228
 21
-107.3269271607311
 31
0.0
  0
LINE
  5
7F
  8
PATTERN_FILL
  6
CONTINUOUS
 62
     7
 10
-50.333202983259362
 20
-120.50861453787419
 30
0.0
 11
-54.990560569201882
 21
-112.4418345700052
 31
0.0
  0
LINE
  5
80
  8
PATTERN_FILL
  6
CONTINUOUS
 62
     7
 10
-54.333202983259248
 20
-120.50861453787419
 30
0.0
 11
-55.750528308949882
 21
-118.05373506292381
 31
0.0
  0
LINE
  5
81
  8
PATTERN_FILL
  6
CONTINUOUS
 62
     7
 10
-52.068883078078059
 20
-100.723007917499
 30
0.0
 11
-41.838319301608067
 21
-83.003151666579342
 31
0.0
  0
LINE
  5
82
  8
PATTERN_FILL
  6
CONTINUOUS
 62
     7
 10
-55.054935454834222
 20
-112.82320557837809
 30
0.0
 11
-35.629937231133823
 21
-79.17812171799379
 31
0.0
  0
LINE
  5
83
  8
PATTERN_FILL
  6
CONTINUOUS
 62
     7
 10
-55.492108386431731
 20
-120.50861453787419
 30
0.0
 11
-30.599502502336989
 21
-77.393356413834212
 31
0.0
  0
LINE
  5
84
  8
PATTERN_FILL
  6
CONTINUOUS
 62
     7
 10
-51.492108386431717
 20
-120.50861453787419
 30
0.0
 11
-26.14159760507393
 21
-76.600241866739964
 31
0.0
  0
LINE
  5
85
  8
PATTERN_FILL
  6
CONTINUOUS
 62
     7
 10
-47.492108386431717
 20
-120.50861453787419
 30
0.0
 11
-22.259753090327688
 21
-76.804893170392461
 31
0.0
  0
LINE
  5
86
  8
PATTERN_FILL
  6
CONTINUOUS
 62
     7
 10
-43.492108386431688
 20
-120.50861453787419
 30
0.0
 11
-18.707523365444519
 21
-77.580454037013922
 31
0.0
  0
LINE
  5
87
  8
PATTERN_FILL
  6
CONTINUOUS
 62
     7
 10
-39.492108386431731
 20
-120.50861453787419
 30
0.0
 11
-15.37620014876817
 21
-78.73863619957217
 31
0.0
  0
LINE
  5
88
  8
PATTERN_FILL
  6
CONTINUOUS
 62
     7
 10
-35.492108386431688
 20
-120.50861453787419
 30
0.0
 11
-12.251114037273981
 21
-80.254031506711897
 31
0.0
  0
LINE
  5
89
  8
PATTERN_FILL
  6
CONTINUOUS
 62
     7
 10
-31.492108386431699
 20
-120.50861453787419
 30
0.0
 11
-9.3270698669429475
 21
-82.117641670398484
 31
0.0
  0
LINE
  5
8A
  8
PATTERN_FILL
  6
CONTINUOUS
 62
     7
 10
-27.492108386431699
 20
-120.50861453787419
 30
0.0
 11
-6.658621312775395
 21
-84.423956427472092
 31
0.0
  0
LINE
  5
8B
  8
PATTERN_FILL
  6
CONTINUOUS
 62
     7
 10
-23.492108386431699
 20
-120.50861453787419
 30
0.0
 11
-4.2593652889644451
 21
-87.196526324141374
 31
0.0
  0
LINE
  5
8C
  8
PATTERN_FILL
  6
CONTINUOUS
 62
     7
 10
-19.492108386431688
 20
-120.50861453787419
 30
0.0
 11
-2.131539230929874
 21
-90.439226712231957
 31
0.0
  0
LINE
  5
8D
  8
PATTERN_FILL
  6
CONTINUOUS
 62
     7
 10
-15.49210838643169
 20
-120.50861453787419
 30
0.0
 11
-0.3601480924059928
 21
-94.299290490506863
 31
0.0
  0
LINE
  5
8E
  8
PATTERN_FILL
  6
CONTINUOUS
 62
     7
 10
-11.492108386431701
 20
-120.50861453787419
 30
0.0
 11
1.2660702330332609
 21
-98.410800956921946
 31
0.0
  0
LINE
  5
8F
  8
PATTERN_FILL
  6
CONTINUOUS
 62
     7
 10
-7.4921083864316937
 20
-120.50861453787419
 30
0.0
 11
2.7268073944913018
 21
-102.8089332070482
 31
0.0
  0
LINE
  5
90
  8
PATTERN_FILL
  6
CONTINUOUS
 62
     7
 10
-3.4921083864316951
 20
-120.50861453787419
 30
0.0
 11
3.9945087941099322
 21
-107.54141320435809
 31
0.0
  0
LINE
  5
91
  8
PATTERN_FILL
  6
CONTINUOUS
 62
     7
 10
0.5078916135683045
 20
-120.50861453787419
 30
0.0
 11
5.0302518430876111
 21
-112.67565685021791
 31
0.0
  0
LINE
  5
92
  8
PATTERN_FILL
  6
CONTINUOUS
 62
     7
 10
4.5078916135683036
 20
-120.50861453787419
 30
0.0
 11
5.7759436610125903
 21
-118.312283965059
 31
0.0
  0
LINE
  5
93
  8
PATTERN_FILL
  6
CONTINUOUS
 62
     7
 10
-45.199971630151538
 20
128.4767244402654
 30
0.0
 11
-56.925261894745333
 21
108.16792596849621
 31
0.0
  0
LINE
  5
94
  8
PATTERN_FILL
  6
CONTINUOUS
 62
     7
 10
-38.963887997345729
 20
132.34973490225821
 30
0.0
 11
-52.791273890184748
 21
108.40000000000001
 31
0.0
  0
LINE
  5
95
  8
PATTERN_FILL
  6
CONTINUOUS
 62
     7
 10
-33.853430500053818
 20
134.27310370721361
 30
0.0
 11
-48.791273890184712
 21
108.40000000000001
 31
0.0
  0
LINE
  5
96
  8
PATTERN_FILL
  6
CONTINUOUS
 62
     7
 10
-53.29460598986379
 20
100.59999999999999
 30
0.0
 11
-56.240320982476391
 21
95.497871968177648
 31
0.0
  0
LINE
  5
97
  8
PATTERN_FILL
  6
CONTINUOUS
 62
     7
 10
-29.199971630151548
 20
135.4049276705409
 30
0.0
 11
-44.791273890184698
 21
108.40000000000001
 31
0.0
  0
LINE
  5
98
  8
PATTERN_FILL
  6
CONTINUOUS
 62
     7
 10
-49.294605989863797
 20
100.59999999999999
 30
0.0
 11
-54.689359862851703
 21
91.256012197656005
 31
0.0
  0
LINE
  5
99
  8
PATTERN_FILL
  6
CONTINUOUS
 62
     7
 10
-25.144059162386931
 20
135.5017709054857
 30
0.0
 11
-40.79127389018474
 21
108.40000000000001
 31
0.0
  0
LINE
  5
9A
  8
PATTERN_FILL
  6
CONTINUOUS
 62
     7
 10
-45.29460598986379
 20
100.59999999999999
 30
0.0
 11
-52.785145900390091
 21
87.626004298846055
 31
0.0
  0
LINE
  5
9B
  8
PATTERN_FILL
  6
CONTINUOUS
 62
     7
 10
-21.26798290406591
 20
135.28712868863369
 30
0.0
 11
-36.791273890184712
 21
108.40000000000001
 31
0.0
  0
LINE
  5
9C
  8
PATTERN_FILL
  6
CONTINUOUS
 62
     7
 10
-41.29460598986379
 20
100.59999999999999
 30
0.0
 11
-50.604886221478218
 21
84.474121606139661
 31
0.0
  0
LINE
  5
9D
  8
PATTERN_FILL
  6
CONTINUOUS
 62
     7
 10
-17.632329022712341
 20
134.65606269959761
 30
0.0
 11
-32.791273890184719
 21
108.40000000000001
 31
0.0
  0
LINE
  5
9E
  8
PATTERN_FILL
  6
CONTINUOUS
 62
     7
 10
-37.294605989863797
 20
100.59999999999999
 30
0.0
 11
-48.191972312631137
 21
81.725207860276939
 31
0.0
  0
LINE
  5
9F
  8
PATTERN_FILL
  6
CONTINUOUS
 62
     7
 10
-14.208370508087439
 20
133.65832957966049
 30
0.0
 11
-28.79127389018474
 21
108.40000000000001
 31
0.0
  0
LINE
  5
A0
  8
PATTERN_FILL
  6
CONTINUOUS
 62
     7
 10
-33.294605989863811
 20
100.59999999999999
 30
0.0
 11
-45.571960367384492
 21
79.334998435605954
 31
0.0
  0
LINE
  5
A1
  8
PATTERN_FILL
  6
CONTINUOUS
 62
     7
 10
-10.97948154242799
 20
132.32272608990559
 30
0.0
 11
-24.79127389018473
 21
108.40000000000001
 31
0.0
  0
LINE
  5
A2
  8
PATTERN_FILL
  6
CONTINUOUS
 62
     7
 10
-29.2946059898638
 20
100.59999999999999
 30
0.0
 11
-42.759399430487129
 21
77.278293647420213
 31
0.0
  0
LINE
  5
A3
  8
PATTERN_FILL
  6
CONTINUOUS
 62
     7
 10
-7.93741459480961
 20
130.6635373729311
 30
0.0
 11
-20.791273890184709
 21
108.40000000000001
 31
0.0
  0
LINE
  5
A4
  8
PATTERN_FILL
  6
CONTINUOUS
 62
     7
 10
-25.2946059898638
 20
100.59999999999999
 30
0.0
 11
-39.760959761557103
 21
75.543540267161546
 31
0.0
  0
LINE
  5
A5
  8
PATTERN_FILL
  6
CONTINUOUS
 62
     7
 10
-5.0807053456113769
 20
128.68329970471891
 30
0.0
 11
-16.791273890184709
 21
108.40000000000001
 31
0.0
  0
LINE
  5
A6
  8
PATTERN_FILL
  6
CONTINUOUS
 62
     7
 10
-21.2946059898638
 20
100.59999999999999
 30
0.0
 11
-36.576695567735662
 21
74.130644405307123
 31
0.0
  0
LINE
  5
A7
  8
PATTERN_FILL
  6
CONTINUOUS
 62
     7
 10
-2.4144062373299131
 20
126.3732619981625
 30
0.0
 11
-12.7912738901847
 21
108.40000000000001
 31
0.0
  0
LINE
  5
A8
  8
PATTERN_FILL
  6
CONTINUOUS
 62
     7
 10
-17.29460598986379
 20
100.59999999999999
 30
0.0
 11
-33.20005483826403
 21
73.05095447738293
 31
0.0
  0
LINE
  5
A9
  8
PATTERN_FILL
  6
CONTINUOUS
 62
     7
 10
0.0489729811394426
 20
123.7117567325852
 30
0.0
 11
-8.7912738901846978
 21
108.40000000000001
 31
0.0
  0
LINE
  5
AA
  8
PATTERN_FILL
  6
CONTINUOUS
 62
     7
 10
-13.29460598986379
 20
100.59999999999999
 30
0.0
 11
-29.616640751652842
 21
72.329406509675977
 31
0.0
  0
LINE
  5
AB
  8
PATTERN_FILL
  6
CONTINUOUS
 62
     7
 10
2.2868730244370701
 20
120.6597100795618
 30
0.0
 11
-4.791273890184697
 21
108.40000000000001
 31
0.0
  0
LINE
  5
AC
  8
PATTERN_FILL
  6
CONTINUOUS
 62
     7
 10
-9.2946059898637952
 20
100.59999999999999
 30
0.0
 11
-25.801124928621149
 21
72.009870541974351
 31
0.0
  0
LINE
  5
AD
  8
PATTERN_FILL
  6
CONTINUOUS
 62
     7
 10
4.2610017852998112
 20
117.15079816378351
 30
0.0
 11
-0.7912738901846979
 21
108.40000000000001
 31
0.0
  0
LINE
  5
AE
  8
PATTERN_FILL
  6
CONTINUOUS
 62
     7
 10
-5.2946059898637827
 20
100.59999999999999
 30
0.0
 11
-21.71051033737708
 21
72.166819617916161
 31
0.0
  0
LINE
  5
AF
  8
PATTERN_FILL
  6
CONTINUOUS
 62
     7
 10
5.9043822388947964
 20
113.0690133753001
 30
0.0
 11
3.2087261098152871
 21
108.40000000000001
 31
0.0
  0
LINE
  5
B0
  8
PATTERN_FILL
  6
CONTINUOUS
 62
     7
 10
-1.294605989863796
 20
100.59999999999999
 30
0.0
 11
-17.268397699404129
 21
72.9325811695536
 31
0.0
  0
LINE
  5
B1
  8
PATTERN_FILL
  6
CONTINUOUS
 62
     7
 10
7.0867599900084324
 20
108.18874848369251
 30
0.0
 11
7.0296089070197771
 21
108.0897599042485
 31
0.0
  0
LINE
  5
B2
  8
PATTERN_FILL
  6
CONTINUOUS
 62
     7
 10
2.7053940101362168
 20
100.59999999999999
 30
0.0
 11
-12.320752180777699
 21
74.573951355379549
 31
0.0
  0
LINE
  5
B3
  8
PATTERN_FILL
  6
CONTINUOUS
 62
     7
 10
6.7053940101362164
 20
100.59999999999999
 30
0.0
 11
-6.4536017333557112
 21
77.807950795689408
 31
0.0
  0
LINE
  5
B4
  8
PATTERN_FILL
  6
CONTINUOUS
 62
     7
 10
-57.342613599346279
 20
101.01097465710031
 30
0.0
 11
-44.226593735768581
 21
78.293361860301218
 31
0.0
  0
LINE
  5
B5
  8
PATTERN_FILL
  6
CONTINUOUS
 62
     7
 10
-53.105337270439279
 20
100.59999999999999
 30
0.0
 11
-38.212932650461717
 21
74.805598551325403
 31
0.0
  0
LINE
  5
B6
  8
PATTERN_FILL
  6
CONTINUOUS
 62
     7
 10
-56.046403863392932
 20
112.6222799977147
 30
0.0
 11
-53.608669370118363
 21
108.40000000000001
 31
0.0
  0
LINE
  5
B7
  8
PATTERN_FILL
  6
CONTINUOUS
 62
     7
 10
-49.105337270439279
 20
100.59999999999999
 30
0.0
 11
-33.199858948225469
 21
73.050903427240343
 31
0.0
  0
LINE
  5
B8
  8
PATTERN_FILL
  6
CONTINUOUS
 62
     7
 10
-54.441672087279741
 20
116.7710062592419
 30
0.0
 11
-49.608669370118392
 21
108.40000000000001
 31
0.0
  0
LINE
  5
B9
  8
PATTERN_FILL
  6
CONTINUOUS
 62
     7
 10
-45.10533727043925
 20
100.59999999999999
 30
0.0
 11
-28.71612361321629
 21
72.213049249588096
 31
0.0
  0
LINE
  5
BA
  8
PATTERN_FILL
  6
CONTINUOUS
 62
     7
 10
-52.496943750773411
 20
120.33084120376959
 30
0.0
 11
-45.608669370118363
 21
108.40000000000001
 31
0.0
  0
LINE
  5
BB
  8
PATTERN_FILL
  6
CONTINUOUS
 62
     7
 10
-41.105337270439307
 20
100.59999999999999
 30
0.0
 11
-24.594578868319331
 21
72.002527576033515
 31
0.0
  0
LINE
  5
BC
  8
PATTERN_FILL
  6
CONTINUOUS
 62
     7
 10
-50.283358504589494
 20
123.42500232076959
 30
0.0
 11
-41.608669370118363
 21
108.40000000000001
 31
0.0
  0
LINE
  5
BD
  8
PATTERN_FILL
  6
CONTINUOUS
 62
     7
 10
-37.105337270439279
 20
100.59999999999999
 30
0.0
 11
-20.753874069302089
 21
72.27843495753757
 31
0.0
  0
LINE
  5
BE
  8
PATTERN_FILL
  6
CONTINUOUS
 62
     7
 10
-47.841308173622743
 20
126.1234503031703
 30
0.0
 11
-37.608669370118392
 21
108.40000000000001
 31
0.0
  0
LINE
  5
BF
  8
PATTERN_FILL
  6
CONTINUOUS
 62
     7
 10
-33.105337270439279
 20
100.59999999999999
 30
0.0
 11
-17.148614342100739
 21
72.962145165818427
 31
0.0
  0
LINE
  5
C0
  8
PATTERN_FILL
  6
CONTINUOUS
 62
     7
 10
-45.199971630151538
 20
128.47672444026529
 30
0.0
 11
-33.608669370118371
 21
108.40000000000001
 31
0.0
  0
LINE
  5
C1
  8
PATTERN_FILL
  6
CONTINUOUS
 62
     7
 10
-29.105337270439279
 20
100.59999999999999
 30
0.0
 11
-13.75209523922412
 21
74.007404741033355
 31
0.0
  0
LINE
  5
C2
  8
PATTERN_FILL
  6
CONTINUOUS
 62
     7
 10
-42.356587062164678
 20
130.4800411333303
 30
0.0
 11
-29.608669370118371
 21
108.40000000000001
 31
0.0
  0
LINE
  5
C3
  8
PATTERN_FILL
  6
CONTINUOUS
 62
     7
 10
-25.105337270439279
 20
100.59999999999999
 30
0.0
 11
-10.54900602681775
 21
75.387694714245256
 31
0.0
  0
LINE
  5
C4
  8
PATTERN_FILL
  6
CONTINUOUS
 62
     7
 10
-39.333013342631567
 20
132.17126106094449
 30
0.0
 11
-25.608669370118381
 21
108.40000000000001
 31
0.0
  0
LINE
  5
C5
  8
PATTERN_FILL
  6
CONTINUOUS
 62
     7
 10
-21.105337270439279
 20
100.59999999999999
 30
0.0
 11
-7.5320894080935528
 21
77.090445078691559
 31
0.0
  0
LINE
  5
C6
  8
PATTERN_FILL
  6
CONTINUOUS
 62
     7
 10
-17.105337270439279
 20
100.59999999999999
 30
0.0
 11
-4.7007575715159637
 21
79.114637714927383
 31
0.0
  0
LINE
  5
C7
  8
PATTERN_FILL
  6
CONTINUOUS
 62
     7
 10
-32.719191112585989
 20
134.572191386828
 30
0.0
 11
-17.60866937011836
 21
108.40000000000001
 31
0.0
  0
LINE
  5
C8
  8
PATTERN_FILL
  6
CONTINUOUS
 62
     7
 10
-13.10533727043928
 20
100.59999999999999
 30
0.0
 11
-2.0609855096164722
 21
81.470621613592144
 31
0.0
  0
LINE
  5
C9
  8
PATTERN_FILL
  6
CONTINUOUS
 62
     7
 10
-29.199971630151548
 20
135.4049276705409
 30
0.0
 11
-13.608669370118379
 21
108.40000000000001
 31
0.0
  0
LINE
  5
CA
  8
PATTERN_FILL
  6
CONTINUOUS
 62
     7
 10
-9.1053372704392928
 20
100.59999999999999
 30
0.0
 11
0.3735669135411968
 21
84.182056353268607
 31
0.0
  0
LINE
  5
CB
  8
PATTERN_FILL
  6
CONTINUOUS
 62
     7
 10
-25.255488683809041
 20
135.50108602816221
 30
0.0
 11
-9.6086693701183652
 21
108.40000000000001
 31
0.0
  0
LINE
  5
CC
  8
PATTERN_FILL
  6
CONTINUOUS
 62
     7
 10
-5.1053372704392794
 20
100.59999999999999
 30
0.0
 11
2.5786662877143689
 21
87.290915431737844
 31
0.0
  0
LINE
  5
CD
  8
PATTERN_FILL
  6
CONTINUOUS
 62
     7
 10
-21.122027456361991
 20
135.26992440138341
 30
0.0
 11
-5.6086693701183767
 21
108.40000000000001
 31
0.0
  0
LINE
  5
CE
  8
PATTERN_FILL
  6
CONTINUOUS
 62
     7
 10
-1.1053372704392781
 20
100.59999999999999
 30
0.0
 11
4.5131973841772171
 21
90.868412514117779
 31
0.0
  0
LINE
  5
CF
  8
PATTERN_FILL
  6
CONTINUOUS
 62
     7
 10
-16.621967528088149
 20
134.4037951987838
 30
0.0
 11
-1.608669370118377
 21
108.40000000000001
 31
0.0
  0
LINE
  5
D0
  8
PATTERN_FILL
  6
CONTINUOUS
 62
     7
 10
2.894662729560721
 20
100.59999999999999
 30
0.0
 11
6.104578555903756
 21
95.040262700754397
 31
0.0
  0
LINE
  5
D1
  8
PATTERN_FILL
  6
CONTINUOUS
 62
     7
 10
-11.58258603393052
 20
132.603533642456
 30
0.0
 11
2.3913306298816219
 21
108.40000000000001
 31
0.0
  0
LINE
  5
D2
  8
PATTERN_FILL
  6
CONTINUOUS
 62
     7
 10
6.8915303127633356
 20
100.6054255050435
 30
0.0
 11
7.208597486830925
 21
100.05624905014621
 31
0.0
  0
LINE
  5
D3
  8
PATTERN_FILL
  6
CONTINUOUS
 62
     7
 10
-5.5067890410188047
 20
129.0081477845342
 30
0.0
 11
6.4609767861801251
 21
108.2793693187391
 31
0.0
  0
LINE
  5
D4
  8
PATTERN_FILL
  6
CONTINUOUS
 62
     7
 10
-36.123055652880439
 20
133.5396544824246
 30
0.0
 11
-21.608669370118371
 21
108.40000000000001
 31
0.0
  0
LINE
  5
D5
  8
PATTERN_FILL
  6
CONTINUOUS
 62
     7
 10
81.711935759900655
 20
125.638747505124
 30
0.0
 11
71.759140247325433
 21
108.40000000000001
 31
0.0
  0
LINE
  5
D6
  8
PATTERN_FILL
  6
CONTINUOUS
 62
     7
 10
87.547270625048327
 20
128.81764074046231
 30
0.0
 11
75.759140247325419
 21
108.40000000000001
 31
0.0
  0
LINE
  5
D7
  8
PATTERN_FILL
  6
CONTINUOUS
 62
     7
 10
71.255808147646405
 20
100.59999999999999
 30
0.0
 11
71.066256084236841
 21
100.27168619549511
 31
0.0
  0
LINE
  5
D8
  8
PATTERN_FILL
  6
CONTINUOUS
 62
     7
 10
92.743468248069306
 20
130.88951579942781
 30
0.0
 11
79.759140247325419
 21
108.40000000000001
 31
0.0
  0
LINE
  5
D9
  8
PATTERN_FILL
  6
CONTINUOUS
 62
     7
 10
75.255808147646377
 20
100.59999999999999
 30
0.0
 11
72.41199957676136
 21
95.674379068227211
 31
0.0
  0
LINE
  5
DA
  8
PATTERN_FILL
  6
CONTINUOUS
 62
     7
 10
97.662117005866847
 20
132.48066212224319
 30
0.0
 11
83.759140247325419
 21
108.40000000000001
 31
0.0
  0
LINE
  5
DB
  8
PATTERN_FILL
  6
CONTINUOUS
 62
     7
 10
79.255808147646377
 20
100.59999999999999
 30
0.0
 11
74.197063121636702
 21
91.837996592414797
 31
0.0
  0
LINE
  5
DC
  8
PATTERN_FILL
  6
CONTINUOUS
 62
     7
 10
102.3569772485382
 20
133.6841953667097
 30
0.0
 11
87.759140247325405
 21
108.40000000000001
 31
0.0
  0
LINE
  5
DD
  8
PATTERN_FILL
  6
CONTINUOUS
 62
     7
 10
83.255808147646377
 20
100.59999999999999
 30
0.0
 11
76.304331586870447
 21
88.559689409111726
 31
0.0
  0
LINE
  5
DE
  8
PATTERN_FILL
  6
CONTINUOUS
 62
     7
 10
106.86448133073181
 20
134.5632182221176
 30
0.0
 11
91.759140247325433
 21
108.40000000000001
 31
0.0
  0
LINE
  5
DF
  8
PATTERN_FILL
  6
CONTINUOUS
 62
     7
 10
87.255808147646377
 20
100.59999999999999
 30
0.0
 11
78.739783460157057
 21
85.849812562757478
 31
0.0
  0
LINE
  5
E0
  8
PATTERN_FILL
  6
CONTINUOUS
 62
     7
 10
111.21063360940769
 20
135.16277155594
 30
0.0
 11
95.759140247325433
 21
108.40000000000001
 31
0.0
  0
LINE
  5
E1
  8
PATTERN_FILL
  6
CONTINUOUS
 62
     7
 10
91.255808147646405
 20
100.59999999999999
 30
0.0
 11
81.42689304175812
 21
83.575819653320139
 31
0.0
  0
LINE
  5
E2
  8
PATTERN_FILL
  6
CONTINUOUS
 62
     7
 10
114.5
 20
133.9319180388797
 30
0.0
 11
99.759140247325433
 21
108.40000000000001
 31
0.0
  0
LINE
  5
E3
  8
PATTERN_FILL
  6
CONTINUOUS
 62
     7
 10
95.255808147646405
 20
100.59999999999999
 30
0.0
 11
84.332287499848178
 21
81.679907240485619
 31
0.0
  0
LINE
  5
E4
  8
PATTERN_FILL
  6
CONTINUOUS
 62
     7
 10
114.5
 20
127.0037148086041
 30
0.0
 11
103.7591402473254
 21
108.40000000000001
 31
0.0
  0
LINE
  5
E5
  8
PATTERN_FILL
  6
CONTINUOUS
 62
     7
 10
99.255808147646405
 20
100.59999999999999
 30
0.0
 11
87.483798231461989
 21
80.210280717963812
 31
0.0
  0
LINE
  5
E6
  8
PATTERN_FILL
  6
CONTINUOUS
 62
     7
 10
114.5
 20
120.0755115783286
 30
0.0
 11
107.7591402473254
 21
108.40000000000001
 31
0.0
  0
LINE
  5
E7
  8
PATTERN_FILL
  6
CONTINUOUS
 62
     7
 10
103.25580814764641
 20
100.59999999999999
 30
0.0
 11
90.710848282725436
 21
78.871492135044349
 31
0.0
  0
LINE
  5
E8
  8
PATTERN_FILL
  6
CONTINUOUS
 62
     7
 10
114.5
 20
113.147308348053
 30
0.0
 11
111.7591402473254
 21
108.40000000000001
 31
0.0
  0
LINE
  5
E9
  8
PATTERN_FILL
  6
CONTINUOUS
 62
     7
 10
107.25580814764641
 20
100.59999999999999
 30
0.0
 11
94.014734456165144
 21
77.665787619590688
 31
0.0
  0
LINE
  5
EA
  8
PATTERN_FILL
  6
CONTINUOUS
 62
     7
 10
111.25580814764641
 20
100.59999999999999
 30
0.0
 11
97.397239376613882
 21
76.596254768384114
 31
0.0
  0
LINE
  5
EB
  8
PATTERN_FILL
  6
CONTINUOUS
 62
     7
 10
114.5
 20
99.290901887501903
 30
0.0
 11
100.83845938374699
 21
75.628419430485764
 31
0.0
  0
LINE
  5
EC
  8
PATTERN_FILL
  6
CONTINUOUS
 62
     7
 10
114.5
 20
92.362698657226289
 30
0.0
 11
104.408014678423
 21
74.882867331015603
 31
0.0
  0
LINE
  5
ED
  8
PATTERN_FILL
  6
CONTINUOUS
 62
     7
 10
114.5
 20
85.434495426950733
 30
0.0
 11
108.0428827167992
 21
74.250440222015783
 31
0.0
  0
LINE
  5
EE
  8
PATTERN_FILL
  6
CONTINUOUS
 62
     7
 10
114.4999999999999
 20
78.506292196675176
 30
0.0
 11
111.7698058784727
 21
73.77745726366409
 31
0.0
  0
LINE
  5
EF
  8
PATTERN_FILL
  6
CONTINUOUS
 62
     7
 10
74.421110619847568
 20
100.59999999999999
 30
0.0
 11
85.733711758912122
 21
81.006000061378657
 31
0.0
  0
LINE
  5
F0
  8
PATTERN_FILL
  6
CONTINUOUS
 62
     7
 10
71.904307486823939
 20
111.88743412932099
 30
0.0
 11
73.917778520168511
 21
108.40000000000001
 31
0.0
  0
LINE
  5
F1
  8
PATTERN_FILL
  6
CONTINUOUS
 62
     7
 10
78.421110619847553
 20
100.59999999999999
 30
0.0
 11
91.03956795676342
 21
78.744190779321471
 31
0.0
  0
LINE
  5
F2
  8
PATTERN_FILL
  6
CONTINUOUS
 62
     7
 10
73.559934633812162
 20
115.9480070226226
 30
0.0
 11
77.917778520168511
 21
108.40000000000001
 31
0.0
  0
LINE
  5
F3
  8
PATTERN_FILL
  6
CONTINUOUS
 62
     7
 10
82.421110619847553
 20
100.59999999999999
 30
0.0
 11
96.043913601438447
 21
77.004613094383842
 31
0.0
  0
LINE
  5
F4
  8
PATTERN_FILL
  6
CONTINUOUS
 62
     7
 10
75.568007970460926
 20
119.3981252084981
 30
0.0
 11
81.917778520168511
 21
108.40000000000001
 31
0.0
  0
LINE
  5
F5
  8
PATTERN_FILL
  6
CONTINUOUS
 62
     7
 10
86.421110619847582
 20
100.59999999999999
 30
0.0
 11
100.83845938374699
 21
75.628419430485764
 31
0.0
  0
LINE
  5
F6
  8
PATTERN_FILL
  6
CONTINUOUS
 62
     7
 10
77.883039158240763
 20
122.3165768004324
 30
0.0
 11
85.917778520168525
 21
108.40000000000001
 31
0.0
  0
LINE
  5
F7
  8
PATTERN_FILL
  6
CONTINUOUS
 62
     7
 10
90.421110619847596
 20
100.59999999999999
 30
0.0
 11
105.37576933346421
 21
74.697771298163261
 31
0.0
  0
LINE
  5
F8
  8
PATTERN_FILL
  6
CONTINUOUS
 62
     7
 10
80.507464949055503
 20
124.6991412203226
 30
0.0
 11
89.917778520168497
 21
108.40000000000001
 31
0.0
  0
LINE
  5
F9
  8
PATTERN_FILL
  6
CONTINUOUS
 62
     7
 10
94.421110619847596
 20
100.59999999999999
 30
0.0
 11
109.7734709807182
 21
74.00893183886555
 31
0.0
  0
LINE
  5
FA
  8
PATTERN_FILL
  6
CONTINUOUS
 62
     7
 10
83.316043782917006
 20
126.76274321328739
 30
0.0
 11
93.917778520168511
 21
108.40000000000001
 31
0.0
  0
LINE
  5
FB
  8
PATTERN_FILL
  6
CONTINUOUS
 62
     7
 10
98.421110619847596
 20
100.59999999999999
 30
0.0
 11
114.0232469869202
 21
73.576307105612102
 31
0.0
  0
LINE
  5
FC
  8
PATTERN_FILL
  6
CONTINUOUS
 62
     7
 10
86.421237545494122
 20
128.3125930794335
 30
0.0
 11
97.917778520168511
 21
108.40000000000001
 31
0.0
  0
LINE
  5
FD
  8
PATTERN_FILL
  6
CONTINUOUS
 62
     7
 10
102.4211106198476
 20
100.59999999999999
 30
0.0
 11
114.5
 21
79.67874989457188
 31
0.0
  0
LINE
  5
FE
  8
PATTERN_FILL
  6
CONTINUOUS
 62
     7
 10
89.622897601430267
 20
129.69535842426379
 30
0.0
 11
101.9177785201685
 21
108.40000000000001
 31
0.0
  0
LINE
  5
FF
  8
PATTERN_FILL
  6
CONTINUOUS
 62
     7
 10
106.4211106198476
 20
100.59999999999999
 30
0.0
 11
114.5
 21
86.606953124847394
 31
0.0
  0
LINE
  5
100
  8
PATTERN_FILL
  6
CONTINUOUS
 62
     7
 10
92.900908115563297
 20
130.94588089631591
 30
0.0
 11
105.9177785201685
 21
108.40000000000001
 31
0.0
  0
LINE
  5
101
  8
PATTERN_FILL
  6
CONTINUOUS
 62
     7
 10
110.4211106198476
 20
100.59999999999999
 30
0.0
 11
114.5
 21
93.535156355122936
 31
0.0
  0
LINE
  5
102
  8
PATTERN_FILL
  6
CONTINUOUS
 62
     7
 10
96.256883995544797
 20
132.06136339348771
 30
0.0
 11
109.9177785201685
 21
108.40000000000001
 31
0.0
  0
LINE
  5
103
  8
PATTERN_FILL
  6
CONTINUOUS
 62
     7
 10
99.692960369005434
 20
133.03810776624249
 30
0.0
 11
114.5
 21
107.39156281567389
 31
0.0
  0
LINE
  5
104
  8
PATTERN_FILL
  6
CONTINUOUS
 62
     7
 10
103.211860650248
 20
133.8713969226373
 30
0.0
 11
114.5
 21
114.31976604594939
 31
0.0
  0
LINE
  5
105
  8
PATTERN_FILL
  6
CONTINUOUS
 62
     7
 10
106.8169892037937
 20
134.5553343303543
 30
0.0
 11
114.5
 21
121.24796927622501
 31
0.0
  0
LINE
  5
106
  8
PATTERN_FILL
  6
CONTINUOUS
 62
     7
 10
110.5125565857419
 20
135.08262709230141
 30
0.0
 11
114.5
 21
128.17617250650051
 31
0.0
  0
LINE
  5
107
  8
SPEC
  6
CONTINUOUS
 62
     7
 10
-147.49999999999989
 20
507.06362999999988
 30
0.0
 11
295.0
 21
507.06362999999988
 31
0.0
  0
LINE
  5
108
  8
SPEC
  6
CONTINUOUS
 62
     7
 10
-147.49999999999989
 20
495.81362999999988
 30
0.0
 11
295.0
 21
495.81362999999988
 31
0.0
  0
LINE
  5
109
  8
SPEC
  6
CONTINUOUS
 62
     7
 10
-147.49999999999989
 20
450.81362999999988
 30
0.0
 11
295.0
 21
450.81362999999988
 31
0.0
  0
LINE
  5
10A
  8
SPEC
  6
CONTINUOUS
 62
     7
 10
-147.49999999999989
 20
462.06362999999988
 30
0.0
 11
295.0
 21
462.06362999999988
 31
0.0
  0
LINE
  5
10B
  8
SPEC
  6
CONTINUOUS
 62
     7
 10
-147.49999999999989
 20
473.31362999999988
 30
0.0
 11
295.0
 21
473.31362999999988
 31
0.0
  0
LINE
  5
10C
  8
SPEC
  6
CONTINUOUS
 62
     7
 10
-147.49999999999989
 20
439.56362999999988
 30
0.0
 11
295.0
 21
439.56362999999988
 31
0.0
  0
LINE
  5
10D
  8
SPEC
  6
CONTINUOUS
 62
     7
 10
-147.49999999999989
 20
417.06362999999988
 30
0.0
 11
295.0
 21
417.06362999999988
 31
0.0
  0
LINE
  5
10E
  8
SPEC
  6
CONTINUOUS
 62
     7
 10
-147.49999999999989
 20
428.31362999999988
 30
0.0
 11
295.0
 21
428.31362999999988
 31
0.0
  0
LINE
  5
10F
  8
SPEC
  6
CONTINUOUS
 62
     7
 10
-147.49999999999989
 20
405.81362999999988
 30
0.0
 11
295.0
 21
405.81362999999988
 31
0.0
  0
LINE
  5
110
  8
SPEC
  6
CONTINUOUS
 62
     7
 10
-147.49999999999989
 20
394.56362999999988
 30
0.0
 11
295.0
 21
394.56362999999988
 31
0.0
  0
LINE
  5
111
  8
SPEC
  6
CONTINUOUS
 62
     7
 10
-147.49999999999989
 20
484.56362999999988
 30
0.0
 11
295.0
 21
484.56362999999988
 31
0.0
  0
LINE
  5
112
  8
SPEC
  6
CONTINUOUS
 62
     7
 10
-147.49999999999989
 20
507.06362999999988
 30
0.0
 11
-147.49999999999989
 21
383.31362999999988
 31
0.0
  0
TEXT
  5
113
  8
SPEC
 62
     7
 10
-143.74999999999989
 20
511.24343999999979
 30
0.0
 40
7.3297851562499989
  1
仕様
 41
0.7
 11
-143.74999999999989
 21
518.57322515624992
 31
0.0
 73
     3
  0
LINE
  5
114
  8
SPEC
  6
CONTINUOUS
 62
     7
 10
-50.0
 20
507.06362999999988
 30
0.0
 11
-50.0
 21
383.31362999999988
 31
0.0
  0
LINE
  5
115
  8
SPEC
  6
CONTINUOUS
 62
     7
 10
295.0
 20
507.06362999999988
 30
0.0
 11
295.0
 21
383.31362999999988
 31
0.0
  0
TEXT
  5
116
  8
SPEC
 62
     7
 10
-144.9462579565795
 20
498.39677026820249
 30
0.0
 40
5.7009440104166647
  1
形式
 41
0.7
 11
-144.9462579565795
 21
504.09771427861909
 31
0.0
 73
     3
  0
TEXT
  5
117
  8
SPEC
 62
     7
 10
-47.872760864435527
 20
498.54507476234062
 30
0.0
 40
5.7009440104166647
  1
ダイナミック型 
 41
0.7
 11
-47.872760864435527
 21
504.24601877275728
 31
0.0
 73
     3
  0
TEXT
  5
118
  8
SPEC
 62
     7
 10
-144.73483284508669
 20
475.7896710061122
 30
0.0
 40
5.7009440104166647
  1
周波数特性
 41
0.7
 11
-144.73483284508669
 21
481.49061501652892
 31
0.0
 73
     3
  0
TEXT
  5
119
  8
SPEC
 62
     7
 10
-47.240534671631359
 20
476.13016584640019
 30
0.0
 40
5.7009440104166647
  1
20Hz～17kHz
 41
0.7
 11
-47.240534671631359
 21
481.83110985681702
 31
0.0
 73
     3
  0
TEXT
  5
11A
  8
SPEC
 62
     7
 10
-144.8323324137117
 20
487.5167681760243
 30
0.0
 40
5.7009440104166647
  1
指向性
 41
0.7
 11
-144.8323324137117
 21
493.21771218644091
 31
0.0
 73
     3
  0
TEXT
  5
11B
  8
SPEC
 62
     7
 10
-47.88289430339595
 20
487.60475851363788
 30
0.0
 40
5.7009440104166647
  1
カーディオイド
 41
0.7
 11
-47.88289430339595
 21
493.30570252405448
 31
0.0
 73
     3
  0
TEXT
  5
11C
  8
SPEC
 62
     7
 10
-145.10811270738671
 20
464.90633249001689
 30
0.0
 40
5.7009440104166647
  1
開回路感度
 41
0.7
 11
-145.10811270738671
 21
470.60727650043373
 31
0.0
 73
     3
  0
TEXT
  5
11D
  8
SPEC
 62
     7
 10
-47.048413206491489
 20
464.76468440129162
 30
0.0
 40
5.7009440104166647
  1
-55dBV re 1V/Pa
 41
0.7
 11
-47.048413206491489
 21
470.46562841170822
 31
0.0
 73
     3
  0
TEXT
  5
11E
  8
SPEC
 62
     7
 10
-144.79021797006831
 20
453.6548990535652
 30
0.0
 40
5.7009440104166647
  1
最大音圧レベル
 41
0.7
 11
-144.79021797006831
 21
459.35584306398192
 31
0.0
 73
     3
  0
TEXT
  5
11F
  8
SPEC
 62
     7
 10
-47.26369106298263
 20
454.2705807786669
 30
0.0
 40
5.7009440104166647
  1
測定可能範囲外
 41
0.7
 11
-47.26369106298263
 21
459.97152478908362
 31
0.0
 73
     3
  0
TEXT
  5
120
  8
SPEC
 62
     7
 10
-144.91559172979439
 20
442.62184287001332
 30
0.0
 40
5.7009440104166647
  1
等価雑音レベル
 41
0.7
 11
-144.91559172979439
 21
448.32278688042987
 31
0.0
 73
     3
  0
TEXT
  5
121
  8
SPEC
 62
     7
 10
-47.275376306934959
 20
442.20457122541387
 30
0.0
 40
5.7009440104166647
  1
21dB SPL(Aウェイト)
 41
0.7
 11
-47.275376306934959
 21
447.90551523583048
 31
0.0
 73
     3
  0
TEXT
  5
122
  8
SPEC
 62
     7
 10
-145.11428087739031
 20
431.44311421072348
 30
0.0
 40
5.7009440104166647
  1
インピーダンス
 41
0.7
 11
-145.11428087739031
 21
437.1440582211402
 31
0.0
 73
     3
  0
TEXT
  5
123
  8
SPEC
 62
     7
 10
-145.60078874870359
 20
420.38573470753971
 30
0.0
 40
5.7009440104166647
  1
コネクター
 41
0.7
 11
-145.60078874870359
 21
426.08667871795649
 31
0.0
 73
     3
  0
TEXT
  5
124
  8
SPEC
 62
     7
 10
-47.080117117650907
 20
419.6650685959462
 30
0.0
 40
5.7009440104166647
  1
XLR3ピンオス
 41
0.7
 11
-47.080117117650907
 21
425.3660126063628
 31
0.0
 73
     3
  0
TEXT
  5
125
  8
SPEC
 62
     7
 10
-144.72801181588079
 20
397.43955167921342
 30
0.0
 40
5.7009440104166647
  1
重量
 41
0.7
 11
-144.72801181588079
 21
403.14049568962997
 31
0.0
 73
     3
  0
TEXT
  5
126
  8
SPEC
 62
     7
 10
-47.18215873132992
 20
397.75137301001701
 30
0.0
 40
5.7009440104166647
  1
約300g
 41
0.7
 11
-47.18215873132992
 21
403.45231702043361
 31
0.0
 73
     3
  0
TEXT
  5
127
  8
SPEC
 62
     7
 10
-145.07073772563589
 20
409.18530813703711
 30
0.0
 40
5.7009440104166647
  1
寸法
 41
0.7
 11
-145.07073772563589
 21
414.88625214745372
 31
0.0
 73
     3
  0
TEXT
  5
128
  8
SPEC
 62
     7
 10
-144.82516368312579
 20
386.72580962341988
 30
0.0
 40
5.7009440104166647
  1
付属品
 41
0.7
 11
-144.82516368312579
 21
392.4267536338366
 31
0.0
 73
     3
  0
TEXT
  5
129
  8
SPEC
 62
     7
 10
-47.548376696681089
 20
386.50572925210082
 30
0.0
 40
5.7009440104166647
  1
マイクホルダー(SA60)
 41
0.7
 11
-47.548376696681089
 21
392.20667326251748
 31
0.0
 73
     3
  0
TEXT
  5
12A
  8
SPEC
 62
     7
 10
-47.377813587102921
 20
408.44842101507879
 30
0.0
 40
5.7009440104166647
  1
70(W)\U+00D7151(H)\U+00D7115(D)mm(突起部含まず)
 41
0.7
 11
-47.377813587102921
 21
414.1493650254954
 31
0.0
 73
     3
  0
LINE
  5
12B
  8
SPEC
  6
CONTINUOUS
 62
     7
 10
-147.49999999999989
 20
383.31362999999988
 30
0.0
 11
295.0
 21
383.31362999999988
 31
0.0
  0
TEXT
  5
12C
  8
SPEC
 62
     7
 10
-47.286939198077242
 20
431.05854141828922
 30
0.0
 40
5.7009440104166647
  1
210\U+03A9以下
 41
0.7
 11
-47.286939198077242
 21
436.75948542870577
 31
0.0
 73
     3
  0
TEXT
  5
12D
  8
DIMNSIONS
 62
     7
 10
40.0
 20
-206.12790000000001
 30
0.0
 40
7.3297851562499989
  1
(単位：mm)
 41
0.7
 11
40.0
 21
-198.79811484375
 31
0.0
 73
     3
  0
LINE
  5
12E
  8
DIMNSIONS
  6
CONTINUOUS
 62
     7
 10
-41.500000000000007
 20
-12.5
 30
0.0
 11
-93.499999999999986
 21
-12.5
 31
0.0
  0
LINE
  5
12F
  8
DIMNSIONS
  6
CONTINUOUS
 62
     7
 10
-31.000000000000011
 20
138.50000000000031
 30
0.0
 11
-93.499999999999986
 21
138.50000000000031
 31
0.0
  0
LINE
  5
130
  8
DIMNSIONS
  6
CONTINUOUS
 62
     7
 10
-87.500000000000014
 20
-12.5
 30
0.0
 11
-87.500000000000014
 21
138.50000000000031
 31
0.0
  0
LINE
  5
131
  8
DIMNSIONS
  6
CONTINUOUS
 62
     7
 10
-87.500000000000014
 20
-12.5
 30
0.0
 11
-89.51011938545075
 21
-4.9981323242187443
 31
0.0
  0
LINE
  5
132
  8
DIMNSIONS
  6
CONTINUOUS
 62
     7
 10
-87.500000000000014
 20
-12.5
 30
0.0
 11
-85.489880614549264
 21
-4.9981323242187443
 31
0.0
  0
LINE
  5
133
  8
DIMNSIONS
  6
CONTINUOUS
 62
     7
 10
-87.500000000000014
 20
138.50000000000031
 30
0.0
 11
-85.489880614549264
 21
130.998132324219
 31
0.0
  0
LINE
  5
134
  8
DIMNSIONS
  6
CONTINUOUS
 62
     7
 10
-87.500000000000014
 20
138.50000000000031
 30
0.0
 11
-89.51011938545075
 21
130.998132324219
 31
0.0
  0
TEXT
  5
135
  8
DIMNSIONS
 62
     7
 10
-90.481666666666655
 20
55.062500000000142
 30
0.0
 40
8.1442057291666661
  1
151
 50
90.0
 41
0.7
 11
-98.625872395833341
 21
55.062500000000142
 31
0.0
 73
     3
  0
LINE
  5
136
  8
DIMNSIONS
  6
CONTINUOUS
 62
     7
 10
-60.000000000000071
 20
97.555263798401143
 30
0.0
 11
-60.000000000000071
 21
-43.5
 31
0.0
  0
LINE
  5
137
  8
DIMNSIONS
  6
CONTINUOUS
 62
     7
 10
9.9999999999999272
 20
97.555263798401143
 30
0.0
 11
9.9999999999999272
 21
-43.5
 31
0.0
  0
LINE
  5
138
  8
DIMNSIONS
  6
CONTINUOUS
 62
     7
 10
-60.000000000000071
 20
-37.5
 30
0.0
 11
9.9999999999999272
 21
-37.5
 31
0.0
  0
LINE
  5
139
  8
DIMNSIONS
  6
CONTINUOUS
 62
     7
 10
-60.000000000000071
 20
-37.5
 30
0.0
 11
-52.498132324218822
 21
-35.489880614549257
 31
0.0
  0
LINE
  5
13A
  8
DIMNSIONS
  6
CONTINUOUS
 62
     7
 10
-60.000000000000071
 20
-37.5
 30
0.0
 11
-52.498132324218822
 21
-39.510119385450743
 31
0.0
  0
LINE
  5
13B
  8
DIMNSIONS
  6
CONTINUOUS
 62
     7
 10
9.9999999999999272
 20
-37.5
 30
0.0
 11
2.4981323242186728
 21
-39.510119385450743
 31
0.0
  0
LINE
  5
13C
  8
DIMNSIONS
  6
CONTINUOUS
 62
     7
 10
9.9999999999999272
 20
-37.5
 30
0.0
 11
2.4981323242186728
 21
-35.489880614549257
 31
0.0
  0
TEXT
  5
13D
  8
DIMNSIONS
 62
     7
 10
-30.291666666666728
 20
-34.518333333333331
 30
0.0
 40
8.1442057291666661
  1
70
 41
0.7
 11
-30.291666666666728
 21
-26.374127604166659
 31
0.0
 73
     3
  0
LINE
  5
13E
  8
DIMNSIONS
  6
CONTINUOUS
 62
     7
 10
-31.000000000000011
 20
187.5
 30
0.0
 11
-93.499999999999986
 21
187.5
 31
0.0
  0
LINE
  5
13F
  8
DIMNSIONS
  6
CONTINUOUS
 62
     7
 10
-31.000000000000011
 20
302.5
 30
0.0
 11
-93.499999999999986
 21
302.5
 31
0.0
  0
LINE
  5
140
  8
DIMNSIONS
  6
CONTINUOUS
 62
     7
 10
-87.500000000000014
 20
187.5
 30
0.0
 11
-87.500000000000014
 21
302.5
 31
0.0
  0
LINE
  5
141
  8
DIMNSIONS
  6
CONTINUOUS
 62
     7
 10
-87.500000000000014
 20
187.5
 30
0.0
 11
-89.51011938545075
 21
195.00186767578131
 31
0.0
  0
LINE
  5
142
  8
DIMNSIONS
  6
CONTINUOUS
 62
     7
 10
-87.500000000000014
 20
187.5
 30
0.0
 11
-85.489880614549264
 21
195.00186767578131
 31
0.0
  0
LINE
  5
143
  8
DIMNSIONS
  6
CONTINUOUS
 62
     7
 10
-87.500000000000014
 20
302.5
 30
0.0
 11
-85.489880614549264
 21
294.99813232421877
 31
0.0
  0
LINE
  5
144
  8
DIMNSIONS
  6
CONTINUOUS
 62
     7
 10
-87.500000000000014
 20
302.5
 30
0.0
 11
-89.51011938545075
 21
294.99813232421877
 31
0.0
  0
TEXT
  5
145
  8
DIMNSIONS
 62
     7
 10
-90.481666666666655
 20
237.0625
 30
0.0
 40
8.1442057291666661
  1
115
 50
90.0
 41
0.7
 11
-98.625872395833341
 21
237.0625
 31
0.0
 73
     3
  0
LINE
  5
146
  8
DIMNSIONS
  6
CONTINUOUS
 62
     7
 10
-16.11704255309601
 20
-136.58596546386849
 30
0.0
 11
24.999999999999989
 21
-162.5
 31
0.0
  0
LINE
  5
147
  8
DIMNSIONS
  6
CONTINUOUS
 62
     7
 10
-16.11704255309601
 20
-136.58596546386849
 30
0.0
 11
-8.6898969672733415
 21
-138.8566717451148
 31
0.0
  0
LINE
  5
148
  8
DIMNSIONS
  6
CONTINUOUS
 62
     7
 10
-16.11704255309601
 20
-136.58596546386849
 30
0.0
 11
-10.82029893879124
 21
-142.26602758087199
 31
0.0
  0
LINE
  5
149
  8
DIMNSIONS
  6
CONTINUOUS
 62
     7
 10
24.999999999999989
 20
-162.5
 30
0.0
 11
52.16666666666665
 21
-162.5
 31
0.0
  0
TEXT
  5
14A
  8
DIMNSIONS
 62
     7
 10
30.999999999999989
 20
-159.5183333333334
 30
0.0
 40
8.1442057291666661
  1
\U+03C621
 41
0.7
 11
30.999999999999989
 21
-151.37412760416669
 31
0.0
 73
     3
  0
TEXT
  5
14B
  8
DATA
 62
     7
 10
250.0
 20
-209.9534436685677
 30
0.0
 40
7.3297851562499989
  1
D 112
 41
0.7
 11
250.0
 21
-202.62365851231769
 31
0.0
 73
     3
  0
TEXT
  5
14C
  8
DATA
 62
     7
 10
250.0
 20
-187.17908449714849
 30
0.0
 40
7.3297851562499989
  1
AKG
 41
0.7
 11
250.0
 21
-179.84929934089851
 31
0.0
 73
     3
  0
TEXT
  5
14D
  8
DATA
 62
     7
 10
-139.99999999999989
 20
-230.22237000000001
 30
0.0
 40
4.8865234374999993
  1
仕様および外観は予告なく変更されることがありますので、ご了承ください。
 41
0.7
 11
-139.99999999999989
 21
-225.3358465625
 31
0.0
 73
     3
  0
LINE
  5
14E
  8
DATA
  6
CONTINUOUS
 62
     7
 10
-35.500000000000007
 20
-11.69999999999999
 30
0.0
 11
-35.500000000000007
 21
49.5
 31
0.0
  0
LINE
  5
14F
  8
DATA
  6
CONTINUOUS
 62
     7
 10
-14.500000000000011
 20
-11.69999999999999
 30
0.0
 11
-14.500000000000011
 21
49.5
 31
0.0
  0
LINE
  5
150
  8
DATA
  6
CONTINUOUS
 62
     7
 10
-34.70000000000001
 20
-12.5
 30
0.0
 11
-15.30000000000002
 21
-12.5
 31
0.0
  0
LINE
  5
151
  8
DATA
  6
CONTINUOUS
 62
     7
 10
-35.500000000000007
 20
49.5
 30
0.0
 11
-14.500000000000011
 21
49.5
 31
0.0
  0
ARC
  5
152
  8
DATA
  6
CONTINUOUS
 62
     7
 10
-25.000000000000071
 20
102.09771841982941
 30
0.0
 40
35.000000000000163
 50
246.9612188874014
 51
293.03878111259712
  0
ARC
  5
153
  8
DATA
  6
CONTINUOUS
 62
     7
 10
-25.000000000000071
 20
103.5000000000001
 30
0.0
 40
35.000000000000107
 50
330.28313781993779
 51
209.716862180032
  0
LINE
  5
154
  8
DATA
  6
CONTINUOUS
 62
     7
 10
-35.500000000000007
 20
49.5
 30
0.0
 11
-55.396998207059859
 21
86.150000000000006
 31
0.0
  0
LINE
  5
155
  8
DATA
  6
CONTINUOUS
 62
     7
 10
-14.500000000000011
 20
49.5
 30
0.0
 11
5.3969982070598368
 21
86.150000000000006
 31
0.0
  0
ARC
  5
156
  8
DATA
  6
CONTINUOUS
 62
     7
 10
-25.000000000000011
 20
102.9982167398578
 30
0.0
 40
32.503873406721233
 50
8.9519064260832693
 51
170.9703457949125
  0
ARC
  5
157
  8
DATA
  6
CONTINUOUS
 62
     7
 10
-24.999999999999989
 20
104.515873015873
 30
0.0
 40
32.515873015873026
 50
186.20301190046411
 51
353.41309459865158
  0
LINE
  5
158
  8
DATA
  6
CONTINUOUS
 62
     7
 10
-55.600000000000037
 20
108.40000000000001
 30
0.0
 11
5.6000000000070989
 21
108.40000000000001
 31
0.0
  0
LINE
  5
159
  8
DATA
  6
CONTINUOUS
 62
     7
 10
9.499999999999984
 20
104.5
 30
0.0
 11
9.499999999999984
 21
104.25
 31
0.0
  0
LINE
  5
15A
  8
DATA
  6
CONTINUOUS
 62
     7
 10
6.8770074892810973
 20
100.59999999999999
 30
0.0
 11
-55.600000000000037
 21
100.59999999999999
 31
0.0
  0
ARC
  5
15B
  8
DATA
  6
CONTINUOUS
 62
     7
 10
-55.600000000000037
 20
104.5
 30
0.0
 40
3.8999999999999981
 50
89.999999999999574
 51
270.0000000000004
  0
ARC
  5
15C
  8
DATA
  6
CONTINUOUS
 62
     7
 10
5.4749999999999801
 20
104.375
 30
0.0
 40
4.0269405260073032
 50
290.37462970488758
 51
88.221199684326194
  0
CIRCLE
  5
15D
  8
DATA
  6
CONTINUOUS
 62
     7
 10
-25.000000000000011
 20
-1.5
 30
0.0
 40
2.0
  0
LINE
  5
15E
  8
DATA
  6
CONTINUOUS
 62
     7
 10
-26.09696551146029
 20
-1.5
 30
0.0
 11
-23.903034488539749
 21
-1.5
 31
0.0
  0
LINE
  5
15F
  8
DATA
  6
CONTINUOUS
 62
     7
 10
-25.000000000000011
 20
-2.5969655114602679
 30
0.0
 11
-25.000000000000011
 21
-0.4030344885397312
 31
0.0
  0
TEXT
  5
160
  8
DATA
 62
     7
 10
-31.600000000000009
 20
59.583247369818501
 30
0.0
 40
4.8865234374999993
  1
D112
 41
0.7
 11
-31.600000000000009
 21
64.469770807318511
 31
0.0
 73
     3
  0
LINE
  5
161
  8
DATA
  6
CONTINUOUS
 62
     7
 10
-39.942945799427278
 20
68.449125241916249
 30
0.0
 11
-30.421314690288948
 21
52.806445562617618
 31
0.0
  0
LINE
  5
162
  8
DATA
  6
CONTINUOUS
 62
     7
 10
-10.057054200573431
 20
68.449125241915141
 30
0.0
 11
-19.578685309711041
 21
52.806445562617647
 31
0.0
  0
LINE
  5
163
  8
DATA
  6
CONTINUOUS
 62
     7
 10
-27.85871902344563
 20
51.366286403304862
 30
0.0
 11
-22.14128097655437
 21
51.366286403304862
 31
0.0
  0
ARC
  5
164
  8
DATA
  6
CONTINUOUS
 62
     7
 10
-39.088747243813273
 20
68.969072188811737
 30
0.0
 40
0.9999999999994909
 50
66.961218887385328
 51
211.32869286780451
  0
ARC
  5
165
  8
DATA
  6
CONTINUOUS
 62
     7
 10
-10.91125275618783
 20
68.96907218881087
 30
0.0
 40
0.9999999999999536
 50
328.67130713219632
 51
113.0387811125984
  0
ARC
  5
166
  8
DATA
  6
CONTINUOUS
 62
     7
 10
-27.858719023445651
 20
54.366286403304862
 30
0.0
 40
2.9999999999999849
 50
211.32869286780451
 51
270.00000000000051
  0
ARC
  5
167
  8
DATA
  6
CONTINUOUS
 62
     7
 10
-22.14128097655437
 20
54.366286403304862
 30
0.0
 40
3.0
 50
270.0
 51
328.67130713219598
  0
LINE
  5
168
  8
DATA
  6
CONTINUOUS
 62
     7
 10
-34.70000000000001
 20
-12.5
 30
0.0
 11
-35.500000000000007
 21
-11.69999999999999
 31
0.0
  0
LINE
  5
169
  8
DATA
  6
CONTINUOUS
 62
     7
 10
-15.30000000000002
 20
-12.5
 30
0.0
 11
-14.500000000000011
 21
-11.69999999999999
 31
0.0
  0
LINE
  5
16A
  8
DATA
  6
CONTINUOUS
 62
     7
 10
-35.500000000000007
 20
47.5
 30
0.0
 11
-14.500000000000011
 21
47.5
 31
0.0
  0
LINE
  5
16B
  8
DATA
  6
CONTINUOUS
 62
     7
 10
114.5
 20
-11.69999999999999
 30
0.0
 11
114.5
 21
137.56758843330681
 31
0.0
  0
LINE
  5
16C
  8
DATA
  6
CONTINUOUS
 62
     7
 10
135.5
 20
-11.69999999999999
 30
0.0
 11
135.5
 21
137.56758843330681
 31
0.0
  0
LINE
  5
16D
  8
DATA
  6
CONTINUOUS
 62
     7
 10
115.3
 20
-12.5
 30
0.0
 11
134.69999999999999
 21
-12.5
 31
0.0
  0
LINE
  5
16E
  8
DATA
  6
CONTINUOUS
 62
     7
 10
114.5
 20
49.5
 30
0.0
 11
135.5
 21
49.5
 31
0.0
  0
LINE
  5
16F
  8
DATA
  6
CONTINUOUS
 62
     7
 10
115.3
 20
-12.5
 30
0.0
 11
114.5
 21
-11.69999999999999
 31
0.0
  0
LINE
  5
170
  8
DATA
  6
CONTINUOUS
 62
     7
 10
134.69999999999999
 20
-12.5
 30
0.0
 11
135.5
 21
-11.69999999999999
 31
0.0
  0
LINE
  5
171
  8
DATA
  6
CONTINUOUS
 62
     7
 10
114.5
 20
47.5
 30
0.0
 11
135.5
 21
47.5
 31
0.0
  0
LINE
  5
172
  8
DATA
  6
CONTINUOUS
 62
     7
 10
70.399999999999949
 20
108.40000000000001
 30
0.0
 11
113.87
 21
108.40000000000001
 31
0.0
  0
LINE
  5
173
  8
DATA
  6
CONTINUOUS
 62
     7
 10
90.499999999999986
 20
100.59999999999999
 30
0.0
 11
70.399999999999949
 21
100.59999999999999
 31
0.0
  0
ARC
  5
174
  8
DATA
  6
CONTINUOUS
 62
     7
 10
70.399999999999949
 20
104.5
 30
0.0
 40
3.8999999999999981
 50
89.999999999999574
 51
270.0000000000004
  0
ARC
  5
175
  8
DATA
  6
CONTINUOUS
 62
     7
 10
100.394748603352
 20
102.63877094972059
 30
0.0
 40
29.954014849833591
 50
140.44438329083599
 51
168.91087040083539
  0
ARC
  5
176
  8
DATA
  6
CONTINUOUS
 62
     7
 10
120.0880248398115
 20
54.758338255325611
 30
0.0
 40
80.89302175991827
 50
93.961100959416967
 51
116.7723712771016
  0
ARC
  5
177
  8
DATA
  6
CONTINUOUS
 62
     7
 10
102.009816904849
 20
98.377318193997368
 30
0.0
 40
33.988078896283753
 50
122.6961663913078
 51
136.63666669711799
  0
LINE
  5
178
  8
DATA
  6
CONTINUOUS
 62
     7
 10
70.399999999999949
 20
100.59999999999999
 30
0.0
 11
113.87
 21
100.59999999999999
 31
0.0
  0
ARC
  5
179
  8
DATA
  6
CONTINUOUS
 62
     7
 10
100.394748603352
 20
106.36122905027941
 30
0.0
 40
29.954014849833591
 50
191.08912959916449
 51
219.55561670916401
  0
ARC
  5
17A
  8
DATA
  6
CONTINUOUS
 62
     7
 10
120.0880248398115
 20
154.24166174467439
 30
0.0
 40
80.89302175991827
 50
243.2276287228984
 51
266.03889904058309
  0
ARC
  5
17B
  8
DATA
  6
CONTINUOUS
 62
     7
 10
102.009816904849
 20
110.6226818060026
 30
0.0
 40
33.988078896283753
 50
223.3633333028819
 51
237.30383360869209
  0
ARC
  5
17C
  8
DATA
  6
CONTINUOUS
 62
     7
 10
151.59525139674801
 20
106.36122905027941
 30
0.0
 40
29.954014849833602
 50
320.44438329083607
 51
356.43756234647702
  0
ARC
  5
17D
  8
DATA
  6
CONTINUOUS
 62
     7
 10
131.9019751602884
 20
154.24166174467439
 30
0.0
 40
80.89302175991827
 50
272.54928877457428
 51
296.77237127710163
  0
ARC
  5
17E
  8
DATA
  6
CONTINUOUS
 62
     7
 10
149.98018309525091
 20
110.6226818060026
 30
0.0
 40
33.988078896283753
 50
302.69616639130788
 51
316.63666669711807
  0
ARC
  5
17F
  8
DATA
  6
CONTINUOUS
 62
     7
 10
151.59525139674801
 20
102.63877094972059
 30
0.0
 40
29.954014849833591
 50
3.5624376535231459
 51
39.555616709163971
  0
ARC
  5
180
  8
DATA
  6
CONTINUOUS
 62
     7
 10
149.98018309525091
 20
98.377318193997368
 30
0.0
 40
33.988078896283753
 50
43.363333302881969
 51
57.303833608692123
  0
ARC
  5
181
  8
DATA
  6
CONTINUOUS
 62
     7
 10
131.9019751602884
 20
54.758338255325611
 30
0.0
 40
80.89302175991827
 50
63.227628722898373
 51
87.450711225425763
  0
ARC
  5
182
  8
DATA
  6
CONTINUOUS
 62
     7
 10
125.0
 20
78.912906006848786
 30
0.0
 40
59.587093993151207
 50
79.850765179859863
 51
89.038408059768244
  0
ARC
  5
183
  8
DATA
  6
CONTINUOUS
 62
     7
 10
125.0
 20
78.912906006848786
 30
0.0
 40
59.587093993151207
 50
90.961591940231983
 51
100.14923482014019
  0
LINE
  5
184
  8
DATA
  6
CONTINUOUS
 62
     7
 10
135.5
 20
107.40000000000001
 30
0.0
 11
181.16844370929391
 21
107.40000000000001
 31
0.0
  0
LINE
  5
185
  8
DATA
  6
CONTINUOUS
 62
     7
 10
230.29555790623141
 20
107.40000000000001
 30
0.0
 11
294.70444209376848
 21
107.40000000000001
 31
0.0
  0
LINE
  5
186
  8
DATA
  6
CONTINUOUS
 62
     7
 10
135.5
 20
101.59999999999999
 30
0.0
 11
181.16844370929391
 21
101.59999999999999
 31
0.0
  0
LINE
  5
187
  8
DATA
  6
CONTINUOUS
 62
     7
 10
230.1151318894197
 20
101.59999999999999
 30
0.0
 11
294.88486811058038
 21
101.59999999999999
 31
0.0
  0
ARC
  5
188
  8
DATA
  6
CONTINUOUS
 62
     7
 10
151.59999999999999
 20
104.5
 30
0.0
 40
2.8999999999999981
 50
270.00000000000023
 51
89.999999999999872
  0
LINE
  5
189
  8
DATA
  6
CONTINUOUS
 62
     7
 10
135.5
 20
111.40000000000001
 30
0.0
 11
180.2393410340988
 21
111.40000000000001
 31
0.0
  0
LINE
  5
18A
  8
DATA
  6
CONTINUOUS
 62
     7
 10
231.10076713533019
 20
111.40000000000001
 30
0.0
 11
293.89923286466978
 21
111.40000000000001
 31
0.0
  0
LINE
  5
18B
  8
DATA
  6
CONTINUOUS
 62
     7
 10
135.5
 20
97.599999999999994
 30
0.0
 11
180.2393410340988
 21
97.599999999999994
 31
0.0
  0
LINE
  5
18C
  8
DATA
  6
CONTINUOUS
 62
     7
 10
230.72811465441981
 20
97.599999999999994
 30
0.0
 11
294.2718853455803
 21
97.599999999999994
 31
0.0
  0
LINE
  5
18D
  8
DATA
  6
CONTINUOUS
 62
     7
 10
135.5
 20
117.2
 30
0.0
 11
177.77183662418639
 21
117.2
 31
0.0
  0
LINE
  5
18E
  8
DATA
  6
CONTINUOUS
 62
     7
 10
233.26284660449809
 20
117.2
 30
0.0
 11
291.73715339550188
 21
117.2
 31
0.0
  0
LINE
  5
18F
  8
DATA
  6
CONTINUOUS
 62
     7
 10
135.5
 20
91.799999999999983
 30
0.0
 11
177.77183662418639
 21
91.799999999999983
 31
0.0
  0
LINE
  5
190
  8
DATA
  6
CONTINUOUS
 62
     7
 10
232.57361412685171
 20
91.799999999999983
 30
0.0
 11
292.42638587314832
 21
91.799999999999983
 31
0.0
  0
ARC
  5
191
  8
DATA
  6
CONTINUOUS
 62
     7
 10
152.59999999999991
 20
114.3
 30
0.0
 40
2.8999999999999981
 50
270.00000000000023
 51
89.999999999999872
  0
ARC
  5
192
  8
DATA
  6
CONTINUOUS
 62
     7
 10
152.59999999999991
 20
94.700000000000003
 30
0.0
 40
2.9000000000000048
 50
270.00000000000023
 51
89.999999999999872
  0
ARC
  5
193
  8
DATA
  6
CONTINUOUS
 62
     7
 10
164.14452791301881
 20
104.5
 30
0.0
 40
2.8999999999999981
 50
90.000000000000256
 51
269.9999999999996
  0
ARC
  5
194
  8
DATA
  6
CONTINUOUS
 62
     7
 10
165.2012994879035
 20
114.3
 30
0.0
 40
2.8999999999999981
 50
90.000000000000256
 51
269.9999999999996
  0
ARC
  5
195
  8
DATA
  6
CONTINUOUS
 62
     7
 10
165.2012994879035
 20
94.700000000000003
 30
0.0
 40
2.899999999999991
 50
90.000000000000256
 51
269.9999999999996
  0
LINE
  5
196
  8
DATA
  6
CONTINUOUS
 62
     7
 10
135.5
 20
121.2
 30
0.0
 11
175.105329698768
 21
121.2
 31
0.0
  0
LINE
  5
197
  8
DATA
  6
CONTINUOUS
 62
     7
 10
235.57052038024179
 20
121.2
 30
0.0
 11
289.42947961975818
 21
121.2
 31
0.0
  0
LINE
  5
198
  8
DATA
  6
CONTINUOUS
 62
     7
 10
135.5
 20
87.800000000000026
 30
0.0
 11
175.105329698768
 21
87.800000000000026
 31
0.0
  0
LINE
  5
199
  8
DATA
  6
CONTINUOUS
 62
     7
 10
234.60982991623061
 20
87.800000000000026
 30
0.0
 11
290.39017008376931
 21
87.800000000000026
 31
0.0
  0
ARC
  5
19A
  8
DATA
  6
CONTINUOUS
 62
     7
 10
149.8876089483947
 20
106.36122905027941
 30
0.0
 40
29.954014849833609
 50
330.91415859123413
 51
342.99295386713339
  0
ARC
  5
19B
  8
DATA
  6
CONTINUOUS
 62
     7
 10
149.8876089483947
 20
106.36122905027941
 30
0.0
 40
29.954014849833591
 50
350.85396989111962
 51
356.43756234647702
  0
ARC
  5
19C
  8
DATA
  6
CONTINUOUS
 62
     7
 10
149.8876089483947
 20
102.63877094972059
 30
0.0
 40
29.954014849833591
 50
3.5624376535231459
 51
9.1460301088804421
  0
ARC
  5
19D
  8
DATA
  6
CONTINUOUS
 62
     7
 10
149.8876089483947
 20
102.63877094972059
 30
0.0
 40
29.954014849833591
 50
17.00704613286657
 51
29.085841408766012
  0
LINE
  5
19E
  8
DATA
  6
CONTINUOUS
 62
     7
 10
252.0
 20
-11.69999999999999
 30
0.0
 11
252.0
 21
49.5
 31
0.0
  0
LINE
  5
19F
  8
DATA
  6
CONTINUOUS
 62
     7
 10
273.0
 20
-11.69999999999999
 30
0.0
 11
273.0
 21
49.5
 31
0.0
  0
LINE
  5
1A0
  8
DATA
  6
CONTINUOUS
 62
     7
 10
252.80000000000001
 20
-12.5
 30
0.0
 11
272.19999999999999
 21
-12.5
 31
0.0
  0
LINE
  5
1A1
  8
DATA
  6
CONTINUOUS
 62
     7
 10
252.0
 20
49.5
 30
0.0
 11
273.0
 21
49.5
 31
0.0
  0
ARC
  5
1A2
  8
DATA
  6
CONTINUOUS
 62
     7
 10
262.5
 20
102.09771841982941
 30
0.0
 40
35.000000000000163
 50
246.9612188874014
 51
293.03878111259712
  0
ARC
  5
1A3
  8
DATA
  6
CONTINUOUS
 62
     7
 10
262.5
 20
103.5000000000001
 30
0.0
 40
35.000000000000107
 50
330.28313781993779
 51
209.716862180032
  0
LINE
  5
1A4
  8
DATA
  6
CONTINUOUS
 62
     7
 10
252.0
 20
49.5
 30
0.0
 11
232.10300179294009
 21
86.150000000000006
 31
0.0
  0
LINE
  5
1A5
  8
DATA
  6
CONTINUOUS
 62
     7
 10
273.0
 20
49.5
 30
0.0
 11
292.89699820705982
 21
86.150000000000006
 31
0.0
  0
ARC
  5
1A6
  8
DATA
  6
CONTINUOUS
 62
     7
 10
262.5
 20
102.9982167398578
 30
0.0
 40
32.503873406721212
 50
0.8845470432378613
 51
179.115452956762
  0
ARC
  5
1A7
  8
DATA
  6
CONTINUOUS
 62
     7
 10
262.5
 20
104.515873015873
 30
0.0
 40
32.515873015873019
 50
181.79034742042251
 51
358.20965257957789
  0
TEXT
  5
1A8
  8
DATA
 62
     7
 10
257.93762728636239
 20
59.583247369818501
 30
0.0
 40
4.8865234374999993
  1
AKG
 41
0.7
 11
257.93762728636239
 21
64.469770807318511
 31
0.0
 73
     3
  0
LINE
  5
1A9
  8
DATA
  6
CONTINUOUS
 62
     7
 10
247.55705420057271
 20
68.449125241916249
 30
0.0
 11
257.07868530971098
 21
52.806445562617618
 31
0.0
  0
LINE
  5
1AA
  8
DATA
  6
CONTINUOUS
 62
     7
 10
277.44294579942658
 20
68.449125241915141
 30
0.0
 11
267.92131469028902
 21
52.806445562617647
 31
0.0
  0
LINE
  5
1AB
  8
DATA
  6
CONTINUOUS
 62
     7
 10
259.64128097655441
 20
51.366286403304862
 30
0.0
 11
265.35871902344559
 21
51.366286403304862
 31
0.0
  0
ARC
  5
1AC
  8
DATA
  6
CONTINUOUS
 62
     7
 10
248.4112527561868
 20
68.969072188811737
 30
0.0
 40
0.9999999999994909
 50
66.961218887385328
 51
211.32869286780451
  0
ARC
  5
1AD
  8
DATA
  6
CONTINUOUS
 62
     7
 10
276.58874724381212
 20
68.96907218881087
 30
0.0
 40
0.9999999999999536
 50
328.67130713219632
 51
113.0387811125984
  0
ARC
  5
1AE
  8
DATA
  6
CONTINUOUS
 62
     7
 10
259.64128097655441
 20
54.366286403304862
 30
0.0
 40
2.9999999999999849
 50
211.32869286780451
 51
270.00000000000051
  0
ARC
  5
1AF
  8
DATA
  6
CONTINUOUS
 62
     7
 10
265.35871902344559
 20
54.366286403304862
 30
0.0
 40
3.0
 50
270.0
 51
328.67130713219598
  0
LINE
  5
1B0
  8
DATA
  6
CONTINUOUS
 62
     7
 10
252.80000000000001
 20
-12.5
 30
0.0
 11
252.0
 21
-11.69999999999999
 31
0.0
  0
LINE
  5
1B1
  8
DATA
  6
CONTINUOUS
 62
     7
 10
272.19999999999999
 20
-12.5
 30
0.0
 11
273.0
 21
-11.69999999999999
 31
0.0
  0
LINE
  5
1B2
  8
DATA
  6
CONTINUOUS
 62
     7
 10
252.0
 20
47.5
 30
0.0
 11
273.0
 21
47.5
 31
0.0
  0
ARC
  5
1B3
  8
DATA
  6
CONTINUOUS
 62
     7
 10
268.44281099215198
 20
104.5
 30
0.0
 40
2.8999999999999981
 50
90.0
 51
270.0
  0
ARC
  5
1B4
  8
DATA
  6
CONTINUOUS
 62
     7
 10
268.44281099215198
 20
114.3
 30
0.0
 40
2.8999999999999981
 50
90.0
 51
270.0
  0
ARC
  5
1B5
  8
DATA
  6
CONTINUOUS
 62
     7
 10
268.44281099215198
 20
94.700000000000003
 30
0.0
 40
2.899999999999991
 50
90.0
 51
270.0
  0
ARC
  5
1B6
  8
DATA
  6
CONTINUOUS
 62
     7
 10
256.55718900784802
 20
104.5
 30
0.0
 40
2.8999999999999981
 50
270.0
 51
90.0
  0
ARC
  5
1B7
  8
DATA
  6
CONTINUOUS
 62
     7
 10
256.55718900784802
 20
114.3
 30
0.0
 40
2.8999999999999981
 50
270.0
 51
90.0
  0
ARC
  5
1B8
  8
DATA
  6
CONTINUOUS
 62
     7
 10
256.55718900784802
 20
94.700000000000003
 30
0.0
 40
2.9000000000000048
 50
270.0
 51
90.0
  0
ARC
  5
1B9
  8
DATA
  6
CONTINUOUS
 62
     7
 10
281.57897875472747
 20
104.5
 30
0.0
 40
2.8999999999999981
 50
270.0
 51
90.0
  0
ARC
  5
1BA
  8
DATA
  6
CONTINUOUS
 62
     7
 10
279.00969097725431
 20
114.3
 30
0.0
 40
2.8999999999999981
 50
270.0
 51
90.0
  0
ARC
  5
1BB
  8
DATA
  6
CONTINUOUS
 62
     7
 10
279.00969097725431
 20
94.700000000000003
 30
0.0
 40
2.9000000000000048
 50
270.0
 51
90.0
  0
ARC
  5
1BC
  8
DATA
  6
CONTINUOUS
 62
     7
 10
256.55718900784802
 20
104.5
 30
0.0
 40
2.8999999999999981
 50
270.0
 51
90.0
  0
ARC
  5
1BD
  8
DATA
  6
CONTINUOUS
 62
     7
 10
256.55718900784802
 20
114.3
 30
0.0
 40
2.8999999999999981
 50
270.0
 51
90.0
  0
ARC
  5
1BE
  8
DATA
  6
CONTINUOUS
 62
     7
 10
256.55718900784802
 20
94.700000000000003
 30
0.0
 40
2.9000000000000048
 50
270.0
 51
90.0
  0
ARC
  5
1BF
  8
DATA
  6
CONTINUOUS
 62
     7
 10
243.4210212452725
 20
104.5
 30
0.0
 40
2.8999999999999981
 50
90.0
 51
270.0
  0
ARC
  5
1C0
  8
DATA
  6
CONTINUOUS
 62
     7
 10
245.99030902274569
 20
114.3
 30
0.0
 40
2.8999999999999981
 50
90.0
 51
270.0
  0
ARC
  5
1C1
  8
DATA
  6
CONTINUOUS
 62
     7
 10
245.99030902274569
 20
94.700000000000003
 30
0.0
 40
2.899999999999991
 50
90.0
 51
270.0
  0
ARC
  5
1C2
  8
DATA
  6
CONTINUOUS
 62
     7
 10
290.6454912830302
 20
104.5
 30
0.0
 40
2.8999999999999981
 50
90.0
 51
270.0
  0
ARC
  5
1C3
  8
DATA
  6
CONTINUOUS
 62
     7
 10
289.13027644058911
 20
114.3
 30
0.0
 40
2.8999999999999981
 50
90.0
 51
270.0
  0
ARC
  5
1C4
  8
DATA
  6
CONTINUOUS
 62
     7
 10
289.13027644058911
 20
94.700000000000003
 30
0.0
 40
2.899999999999991
 50
90.0
 51
270.0
  0
ARC
  5
1C5
  8
DATA
  6
CONTINUOUS
 62
     7
 10
234.3545087169698
 20
104.5
 30
0.0
 40
2.8999999999999981
 50
270.0
 51
90.0
  0
ARC
  5
1C6
  8
DATA
  6
CONTINUOUS
 62
     7
 10
235.8697235594108
 20
114.3
 30
0.0
 40
2.8999999999999981
 50
270.0
 51
90.0
  0
ARC
  5
1C7
  8
DATA
  6
CONTINUOUS
 62
     7
 10
235.8697235594108
 20
94.700000000000003
 30
0.0
 40
2.9000000000000048
 50
270.0
 51
90.0
  0
LINE
  5
1C8
  8
DATA
  6
CONTINUOUS
 62
     7
 10
239.7364537035736
 20
126.2
 30
0.0
 11
285.26354629642651
 21
126.2
 31
0.0
  0
LINE
  5
1C9
  8
DATA
  6
CONTINUOUS
 62
     7
 10
238.29870133354709
 20
82.800000000000026
 30
0.0
 11
286.70129866645289
 21
82.800000000000026
 31
0.0
  0
ARC
  5
1CA
  8
DATA
  6
CONTINUOUS
 62
     7
 10
268.0
 20
123.7
 30
0.0
 40
2.5000000000000102
 50
90.0
 51
270.0
  0
ARC
  5
1CB
  8
DATA
  6
CONTINUOUS
 62
     7
 10
257.0
 20
123.7
 30
0.0
 40
2.4999999999999889
 50
270.0
 51
90.0
  0
ARC
  5
1CC
  8
DATA
  6
CONTINUOUS
 62
     7
 10
268.0
 20
85.299999999999983
 30
0.0
 40
2.5000000000000071
 50
90.0
 51
270.0
  0
ARC
  5
1CD
  8
DATA
  6
CONTINUOUS
 62
     7
 10
257.0
 20
85.299999999999983
 30
0.0
 40
2.499999999999992
 50
270.0
 51
90.0
  0
CIRCLE
  5
1CE
  8
DATA
  6
CONTINUOUS
 62
     7
 10
241.716896038703
 20
123.7
 30
0.0
 40
2.0
  0
LINE
  5
1CF
  8
DATA
  6
CONTINUOUS
 62
     7
 10
243.0101606416878
 20
123.7
 30
0.0
 11
240.42363143571819
 21
123.7
 31
0.0
  0
LINE
  5
1D0
  8
DATA
  6
CONTINUOUS
 62
     7
 10
241.716896038703
 20
122.4067353970152
 30
0.0
 11
241.716896038703
 21
124.99326460298469
 31
0.0
  0
CIRCLE
  5
1D1
  8
DATA
  6
CONTINUOUS
 62
     7
 10
283.28310396129689
 20
123.7
 30
0.0
 40
2.0
  0
LINE
  5
1D2
  8
DATA
  6
CONTINUOUS
 62
     7
 10
281.98983935831222
 20
123.7
 30
0.0
 11
284.57636856428172
 21
123.7
 31
0.0
  0
LINE
  5
1D3
  8
DATA
  6
CONTINUOUS
 62
     7
 10
283.28310396129689
 20
122.4067353970152
 30
0.0
 11
283.28310396129689
 21
124.99326460298469
 31
0.0
  0
CIRCLE
  5
1D4
  8
DATA
  6
CONTINUOUS
 62
     7
 10
241.716896038703
 20
85.299999999999983
 30
0.0
 40
2.0
  0
LINE
  5
1D5
  8
DATA
  6
CONTINUOUS
 62
     7
 10
243.0101606416878
 20
85.299999999999983
 30
0.0
 11
240.42363143571819
 21
85.299999999999983
 31
0.0
  0
LINE
  5
1D6
  8
DATA
  6
CONTINUOUS
 62
     7
 10
241.716896038703
 20
84.006735397015234
 30
0.0
 11
241.716896038703
 21
86.593264602984775
 31
0.0
  0
CIRCLE
  5
1D7
  8
DATA
  6
CONTINUOUS
 62
     7
 10
283.28310396129689
 20
85.299999999999983
 30
0.0
 40
2.0
  0
LINE
  5
1D8
  8
DATA
  6
CONTINUOUS
 62
     7
 10
281.98983935831222
 20
85.299999999999983
 30
0.0
 11
284.57636856428172
 21
85.299999999999983
 31
0.0
  0
LINE
  5
1D9
  8
DATA
  6
CONTINUOUS
 62
     7
 10
283.28310396129689
 20
84.006735397015234
 30
0.0
 11
283.28310396129689
 21
86.593264602984775
 31
0.0
  0
LINE
  5
1DA
  8
DATA
  6
CONTINUOUS
 62
     7
 10
8.7615169557133044
 20
256.49734214864071
 30
0.0
 11
-58.761516955713283
 21
256.49734214864071
 31
0.0
  0
LINE
  5
1DB
  8
DATA
  6
CONTINUOUS
 62
     7
 10
8.7615169557133044
 20
235.4973421486406
 30
0.0
 11
-58.761516955713283
 21
235.4973421486406
 31
0.0
  0
ARC
  5
1DC
  8
DATA
  6
CONTINUOUS
 62
     7
 10
-14.870661828331929
 20
245.99734214864071
 30
0.0
 40
45.129338171668138
 50
166.54600041898959
 51
178.73030557101751
  0
ARC
  5
1DD
  8
DATA
  6
CONTINUOUS
 62
     7
 10
-14.870661828331929
 20
245.99734214864071
 30
0.0
 40
45.129338171668131
 50
181.26969442898229
 51
193.45399958101041
  0
LINE
  5
1DE
  8
DATA
  6
CONTINUOUS
 62
     7
 10
-59.988919372399103
 20
246.99734214864071
 30
0.0
 11
-59.432934320036679
 21
246.99734214864071
 31
0.0
  0
LINE
  5
1DF
  8
DATA
  6
CONTINUOUS
 62
     7
 10
-59.432934320036679
 20
244.99734214864071
 30
0.0
 11
-59.432934320036679
 21
246.99734214864071
 31
0.0
  0
LINE
  5
1E0
  8
DATA
  6
CONTINUOUS
 62
     7
 10
-59.988919372399103
 20
244.99734214864071
 30
0.0
 11
-59.432934320036679
 21
244.99734214864071
 31
0.0
  0
ARC
  5
1E1
  8
DATA
  6
CONTINUOUS
 62
     7
 10
-35.129338171668088
 20
245.99734214864071
 30
0.0
 40
45.129338171668138
 50
346.54600041898971
 51
358.7303055710176
  0
ARC
  5
1E2
  8
DATA
  6
CONTINUOUS
 62
     7
 10
-35.129338171668088
 20
245.99734214864071
 30
0.0
 40
45.129338171668131
 50
1.269694428982449
 51
13.45399958101037
  0
LINE
  5
1E3
  8
DATA
  6
CONTINUOUS
 62
     7
 10
9.9889193723990797
 20
246.99734214864071
 30
0.0
 11
9.4329343200366633
 21
246.99734214864071
 31
0.0
  0
LINE
  5
1E4
  8
DATA
  6
CONTINUOUS
 62
     7
 10
9.4329343200366633
 20
244.99734214864071
 30
0.0
 11
9.4329343200366633
 21
246.99734214864071
 31
0.0
  0
LINE
  5
1E5
  8
DATA
  6
CONTINUOUS
 62
     7
 10
9.9889193723990797
 20
244.99734214864071
 30
0.0
 11
9.4329343200366633
 21
244.99734214864071
 31
0.0
  0
LINE
  5
1E6
  8
DATA
  6
CONTINUOUS
 62
     7
 10
-59.432934320036679
 20
246.99734214864071
 30
0.0
 11
9.4329343200366633
 21
246.99734214864071
 31
0.0
  0
LINE
  5
1E7
  8
DATA
  6
CONTINUOUS
 62
     7
 10
9.4329343200366633
 20
244.99734214864071
 30
0.0
 11
-59.429999999999993
 21
244.99734214864071
 31
0.0
  0
ARC
  5
1E8
  8
DATA
  6
CONTINUOUS
 62
     7
 10
-26.861229050313039
 20
272.5925935453887
 30
0.0
 40
29.95401484983358
 50
50.444383290836008
 51
86.437562346476938
  0
ARC
  5
1E9
  8
DATA
  6
CONTINUOUS
 62
     7
 10
-74.741661744707812
 20
252.8993173089292
 30
0.0
 40
80.893021759918085
 50
2.5492887745742401
 51
26.772371277101641
  0
ARC
  5
1EA
  8
DATA
  6
CONTINUOUS
 62
     7
 10
-31.12268180603629
 20
270.97752524389171
 30
0.0
 40
33.988078896283731
 50
32.69616639130787
 51
46.636666697118031
  0
ARC
  5
1EB
  8
DATA
  6
CONTINUOUS
 62
     7
 10
-23.138770949754232
 20
272.5925935453887
 30
0.0
 40
29.954014849833591
 50
93.562437653523105
 51
129.55561670916401
  0
ARC
  5
1EC
  8
DATA
  6
CONTINUOUS
 62
     7
 10
-18.877318194030991
 20
270.97752524389171
 30
0.0
 40
33.988078896283717
 50
133.36333330288201
 51
147.30383360869209
  0
ARC
  5
1ED
  8
DATA
  6
CONTINUOUS
 62
     7
 10
24.741661744640801
 20
252.8993173089292
 30
0.0
 40
80.89302175991827
 50
153.22762872289829
 51
177.45071122542581
  0
ARC
  5
1EE
  8
DATA
  6
CONTINUOUS
 62
     7
 10
-23.138770949754232
 20
221.39209075199281
 30
0.0
 40
29.95401484983357
 50
230.44438329083599
 51
266.43756234654143
  0
ARC
  5
1EF
  8
DATA
  6
CONTINUOUS
 62
     7
 10
24.741661744640801
 20
241.08536698845239
 30
0.0
 40
80.893021759918199
 50
183.96110095941691
 51
206.7723712771016
  0
ARC
  5
1F0
  8
DATA
  6
CONTINUOUS
 62
     7
 10
-18.877318194030991
 20
223.0071590534898
 30
0.0
 40
33.98807889628371
 50
212.69616639130791
 51
226.63666669711799
  0
ARC
  5
1F1
  8
DATA
  6
CONTINUOUS
 62
     7
 10
-26.861229050313039
 20
221.39209075199281
 30
0.0
 40
29.95401484983358
 50
273.5624376535232
 51
309.55561670916398
  0
ARC
  5
1F2
  8
DATA
  6
CONTINUOUS
 62
     7
 10
-74.741661744707812
 20
241.08536698845239
 30
0.0
 40
80.893021759918057
 50
333.22762872289832
 51
356.03889904058298
  0
ARC
  5
1F3
  8
DATA
  6
CONTINUOUS
 62
     7
 10
-31.12268180603629
 20
223.0071590534898
 30
0.0
 40
33.98807889628371
 50
313.3633333028821
 51
327.30383360869212
  0
ARC
  5
1F4
  8
DATA
  6
CONTINUOUS
 62
     7
 10
-22.9154234637207
 20
220.9836701532081
 30
0.0
 40
33.548496631813613
 50
230.44438329083599
 51
266.43756234654143
  0
ARC
  5
1F5
  8
DATA
  6
CONTINUOUS
 62
     7
 10
30.71066115400173
 20
243.04013953804281
 30
0.0
 40
90.600184371108384
 50
186.96097899040331
 51
206.7723712771016
  0
ARC
  5
1F6
  8
DATA
  6
CONTINUOUS
 62
     7
 10
-18.142596377310671
 20
222.79254665088479
 30
0.0
 40
38.06664836383775
 50
212.69616639130791
 51
226.63666669711799
  0
ARC
  5
1F7
  8
DATA
  6
CONTINUOUS
 62
     7
 10
-27.084576536346571
 20
220.9836701532081
 30
0.0
 40
33.54849663181362
 50
273.5624376535232
 51
309.55561670916398
  0
ARC
  5
1F8
  8
DATA
  6
CONTINUOUS
 62
     7
 10
-80.710661154068731
 20
243.04013953804281
 30
0.0
 40
90.600184371108227
 50
333.22762872289832
 51
353.03902100971078
  0
ARC
  5
1F9
  8
DATA
  6
CONTINUOUS
 62
     7
 10
-31.857403622756621
 20
222.79254665088479
 30
0.0
 40
38.066648363837771
 50
313.3633333028821
 51
327.30383360869212
  0
LINE
  5
1FA
  8
DATA
  6
CONTINUOUS
 62
     7
 10
-55.912189867342462
 20
234.8694849430151
 30
0.0
 11
-57.179999999999467
 21
234.8694849430151
 31
0.0
  0
ARC
  5
1FB
  8
DATA
  6
CONTINUOUS
 62
     7
 10
-54.775426050284501
 20
230.9754260502844
 30
0.0
 40
4.5766440258888528
 50
121.6952511551611
 51
166.2916232760098
  0
LINE
  5
1FC
  8
DATA
  6
CONTINUOUS
 62
     7
 10
5.9121898673424891
 20
234.8694849430151
 30
0.0
 11
7.1799999999995077
 21
234.8694849430151
 31
0.0
  0
ARC
  5
1FD
  8
DATA
  6
CONTINUOUS
 62
     7
 10
4.775426050284536
 20
230.9754260502844
 30
0.0
 40
4.5766440258888554
 50
13.70837672399019
 51
58.304748844838919
  0
ARC
  5
1FE
  8
DATA
  6
CONTINUOUS
 62
     7
 10
0.7218672462960996
 20
255.10357833739181
 30
0.0
 40
47.242431391582272
 50
144.10783627029571
 51
178.3093932586894
  0
ARC
  5
1FF
  8
DATA
  6
CONTINUOUS
 62
     7
 10
-25.643775762552949
 20
273.24377576255301
 30
0.0
 40
15.26714559854712
 50
87.583269665180964
 51
141.24923268721511
  0
ARC
  5
200
  8
DATA
  6
CONTINUOUS
 62
     7
 10
-50.721867246296092
 20
255.10357833739189
 30
0.0
 40
47.242431391582272
 50
1.6906067413105501
 51
35.892163729704258
  0
ARC
  5
201
  8
DATA
  6
CONTINUOUS
 62
     7
 10
-24.356224237447051
 20
273.24377576255301
 30
0.0
 40
15.267145598547129
 50
38.75076731278488
 51
92.416730334819036
  0
LINE
  5
202
  8
DATA
  6
CONTINUOUS
 62
     7
 10
169.50165548290491
 20
126.2
 30
0.0
 11
135.5
 21
126.2
 31
0.0
  0
LINE
  5
203
  8
DATA
  6
CONTINUOUS
 62
     7
 10
169.50165548290491
 20
82.800000000000026
 30
0.0
 11
135.5
 21
82.800000000000026
 31
0.0
  0
ARC
  5
204
  8
DATA
  6
CONTINUOUS
 62
     7
 10
22.09795854627356
 20
249.40275407808471
 30
0.0
 40
75.399514433779103
 50
159.58777121603211
 51
174.60086484356501
  0
ARC
  5
205
  8
DATA
  6
CONTINUOUS
 62
     7
 10
-8.2102981205846817
 20
262.23023187156599
 30
0.0
 40
42.54528232649136
 50
135.97129016075871
 51
161.54266551993879
  0
ARC
  5
206
  8
DATA
  6
CONTINUOUS
 62
     7
 10
-22.80121457489868
 20
276.73481781376501
 30
0.0
 40
21.975460163165771
 50
95.742418229309195
 51
136.72146163700421
  0
ARC
  5
207
  8
DATA
  6
CONTINUOUS
 62
     7
 10
-72.097958546273503
 20
249.40275407808471
 30
0.0
 40
75.399514433779103
 50
5.3991351564349346
 51
20.41222878396788
  0
ARC
  5
208
  8
DATA
  6
CONTINUOUS
 62
     7
 10
-41.78970187941529
 20
262.23023187156599
 30
0.0
 40
42.54528232649136
 50
18.45733448006121
 51
44.028709839241358
  0
ARC
  5
209
  8
DATA
  6
CONTINUOUS
 62
     7
 10
-27.198785425101288
 20
276.73481781376501
 30
0.0
 40
21.975460163165771
 50
43.278538362995789
 51
84.257581770690834
  0
LINE
  5
20A
  8
DATA
  6
CONTINUOUS
 62
     7
 10
-58.761516955713333
 20
-141.50861453787431
 30
0.0
 11
8.7615169557132457
 21
-141.50861453787431
 31
0.0
  0
LINE
  5
20B
  8
DATA
  6
CONTINUOUS
 62
     7
 10
-58.761516955713333
 20
-120.50861453787419
 30
0.0
 11
8.7615169557132457
 21
-120.50861453787419
 31
0.0
  0
ARC
  5
20C
  8
DATA
  6
CONTINUOUS
 62
     7
 10
-35.129338171668088
 20
-131.00861453787419
 30
0.0
 40
45.129338171668138
 50
346.54600041898971
 51
358.73030557101748
  0
ARC
  5
20D
  8
DATA
  6
CONTINUOUS
 62
     7
 10
-35.129338171668088
 20
-131.00861453787419
 30
0.0
 40
45.129338171668131
 50
1.2696944289822321
 51
13.453999581010329
  0
LINE
  5
20E
  8
DATA
  6
CONTINUOUS
 62
     7
 10
9.9889193723990797
 20
-132.00861453787431
 30
0.0
 11
9.4329343200366633
 21
-132.00861453787431
 31
0.0
  0
LINE
  5
20F
  8
DATA
  6
CONTINUOUS
 62
     7
 10
9.4329343200366633
 20
-130.00861453787431
 30
0.0
 11
9.4329343200366633
 21
-132.00861453787431
 31
0.0
  0
LINE
  5
210
  8
DATA
  6
CONTINUOUS
 62
     7
 10
9.9889193723990797
 20
-130.00861453787431
 30
0.0
 11
9.4329343200366633
 21
-130.00861453787431
 31
0.0
  0
ARC
  5
211
  8
DATA
  6
CONTINUOUS
 62
     7
 10
-14.870661828331929
 20
-131.00861453787419
 30
0.0
 40
45.129338171668131
 50
166.54600041898971
 51
178.73030557101771
  0
ARC
  5
212
  8
DATA
  6
CONTINUOUS
 62
     7
 10
-14.870661828331929
 20
-131.00861453787419
 30
0.0
 40
45.129338171668131
 50
181.26969442898249
 51
193.45399958101041
  0
LINE
  5
213
  8
DATA
  6
CONTINUOUS
 62
     7
 10
-59.988919372399103
 20
-132.00861453787431
 30
0.0
 11
-59.432934320036679
 21
-132.00861453787431
 31
0.0
  0
LINE
  5
214
  8
DATA
  6
CONTINUOUS
 62
     7
 10
-59.432934320036679
 20
-130.00861453787431
 30
0.0
 11
-59.432934320036679
 21
-132.00861453787431
 31
0.0
  0
LINE
  5
215
  8
DATA
  6
CONTINUOUS
 62
     7
 10
-59.988919372399103
 20
-130.00861453787431
 30
0.0
 11
-59.432934320036679
 21
-130.00861453787431
 31
0.0
  0
LINE
  5
216
  8
DATA
  6
CONTINUOUS
 62
     7
 10
9.4329343200366633
 20
-132.00861453787431
 30
0.0
 11
-14.54977133081014
 21
-132.00861453787431
 31
0.0
  0
LINE
  5
217
  8
DATA
  6
CONTINUOUS
 62
     7
 10
-35.450228669189912
 20
-132.00861453787431
 30
0.0
 11
-59.432934320036679
 21
-132.00861453787431
 31
0.0
  0
LINE
  5
218
  8
DATA
  6
CONTINUOUS
 62
     7
 10
-59.432934320036679
 20
-130.00861453787431
 30
0.0
 11
-35.454273155823152
 21
-130.00861453787431
 31
0.0
  0
LINE
  5
219
  8
DATA
  6
CONTINUOUS
 62
     7
 10
-14.54572684417688
 20
-130.00861453787431
 30
0.0
 11
9.4299999999999642
 21
-130.00861453787431
 31
0.0
  0
ARC
  5
21A
  8
DATA
  6
CONTINUOUS
 62
     7
 10
-23.13877094968699
 20
-157.60386593462221
 30
0.0
 40
29.954014849833609
 50
230.44438329083599
 51
266.43756234647702
  0
ARC
  5
21B
  8
DATA
  6
CONTINUOUS
 62
     7
 10
24.741661744707802
 20
-137.91058969816271
 30
0.0
 40
80.893021759918085
 50
182.54928877457419
 51
206.7723712771016
  0
ARC
  5
21C
  8
DATA
  6
CONTINUOUS
 62
     7
 10
-18.877318193963738
 20
-155.98879763312519
 30
0.0
 40
33.988078896283717
 50
212.6961663913078
 51
226.6366666971181
  0
ARC
  5
21D
  8
DATA
  6
CONTINUOUS
 62
     7
 10
-26.8612290502458
 20
-157.60386593462221
 30
0.0
 40
29.954014849833591
 50
273.56243765352309
 51
309.55561670916398
  0
ARC
  5
21E
  8
DATA
  6
CONTINUOUS
 62
     7
 10
-31.122681805969041
 20
-155.98879763312519
 30
0.0
 40
33.988078896283717
 50
313.3633333028821
 51
327.30383360869212
  0
ARC
  5
21F
  8
DATA
  6
CONTINUOUS
 62
     7
 10
-74.741661744640794
 20
-137.91058969816271
 30
0.0
 40
80.89302175991827
 50
333.22762872289832
 51
357.45071122542572
  0
ARC
  5
220
  8
DATA
  6
CONTINUOUS
 62
     7
 10
-26.8612290502458
 20
-106.40336314122629
 30
0.0
 40
29.95401484983357
 50
50.444383290835972
 51
86.437562346541341
  0
ARC
  5
221
  8
DATA
  6
CONTINUOUS
 62
     7
 10
-74.741661744640794
 20
-126.0966393776859
 30
0.0
 40
80.893021759918184
 50
3.961100959416993
 51
26.772371277101652
  0
ARC
  5
222
  8
DATA
  6
CONTINUOUS
 62
     7
 10
-31.122681805969041
 20
-108.0184314427234
 30
0.0
 40
33.988078896283717
 50
32.696166391307941
 51
46.636666697118031
  0
ARC
  5
223
  8
DATA
  6
CONTINUOUS
 62
     7
 10
-23.13877094968699
 20
-106.40336314122629
 30
0.0
 40
29.954014849833531
 50
93.562437653523205
 51
129.55561670916401
  0
ARC
  5
224
  8
DATA
  6
CONTINUOUS
 62
     7
 10
24.741661744707802
 20
-126.0966393776859
 30
0.0
 40
80.893021759918057
 50
153.2276287228982
 51
176.03889904058309
  0
ARC
  5
225
  8
DATA
  6
CONTINUOUS
 62
     7
 10
-18.877318193963738
 20
-108.0184314427234
 30
0.0
 40
33.988078896283717
 50
133.36333330288201
 51
147.30383360869209
  0
ARC
  5
226
  8
DATA
  6
CONTINUOUS
 62
     7
 10
-27.084576536279329
 20
-105.99494254244161
 30
0.0
 40
33.54849663181357
 50
50.444383290835937
 51
86.437562346541341
  0
ARC
  5
227
  8
DATA
  6
CONTINUOUS
 62
     7
 10
-80.710661154001727
 20
-128.05141192727629
 30
0.0
 40
90.600184371108384
 50
6.9609789904033912
 51
26.77237127710162
  0
ARC
  5
228
  8
DATA
  6
CONTINUOUS
 62
     7
 10
-31.85740362268935
 20
-107.8038190401183
 30
0.0
 40
38.066648363837771
 50
32.696166391307997
 51
46.636666697118031
  0
ARC
  5
229
  8
DATA
  6
CONTINUOUS
 62
     7
 10
-22.91542346365345
 20
-105.99494254244161
 30
0.0
 40
33.54849663181362
 50
93.562437653523205
 51
129.5556167091639
  0
ARC
  5
22A
  8
DATA
  6
CONTINUOUS
 62
     7
 10
30.71066115406872
 20
-128.05141192727629
 30
0.0
 40
90.600184371108227
 50
153.2276287228982
 51
173.03902100971081
  0
ARC
  5
22B
  8
DATA
  6
CONTINUOUS
 62
     7
 10
-18.1425963772434
 20
-107.8038190401183
 30
0.0
 40
38.066648363837807
 50
133.3633333028819
 51
147.303833608692
  0
LINE
  5
22C
  8
DATA
  6
CONTINUOUS
 62
     7
 10
5.912189867342434
 20
-119.88075733224861
 30
0.0
 11
7.1799999999994517
 21
-119.88075733224861
 31
0.0
  0
ARC
  5
22D
  8
DATA
  6
CONTINUOUS
 62
     7
 10
4.7754260502844801
 20
-115.98669843951799
 30
0.0
 40
4.5766440258888892
 50
301.6952511551608
 51
346.29162327600972
  0
LINE
  5
22E
  8
DATA
  6
CONTINUOUS
 62
     7
 10
-55.912189867342519
 20
-119.88075733224861
 30
0.0
 11
-57.179999999999538
 21
-119.88075733224861
 31
0.0
  0
ARC
  5
22F
  8
DATA
  6
CONTINUOUS
 62
     7
 10
-54.775426050284572
 20
-115.98669843951799
 30
0.0
 40
4.5766440258888572
 50
193.70837672399031
 51
238.3047488448392
  0
ARC
  5
230
  8
DATA
  6
CONTINUOUS
 62
     7
 10
-50.721867246296128
 20
-140.11485072662529
 30
0.0
 40
47.242431391582272
 50
324.10783627029582
 51
358.30939325868928
  0
ARC
  5
231
  8
DATA
  6
CONTINUOUS
 62
     7
 10
-24.35622423744708
 20
-158.2550481517865
 30
0.0
 40
15.26714559854712
 50
267.58326966518098
 51
321.24923268721511
  0
ARC
  5
232
  8
DATA
  6
CONTINUOUS
 62
     7
 10
0.7218672462960712
 20
-140.11485072662529
 30
0.0
 40
47.242431391582272
 50
181.69060674131049
 51
215.89216372970429
  0
ARC
  5
233
  8
DATA
  6
CONTINUOUS
 62
     7
 10
-25.643775762552981
 20
-158.25504815178661
 30
0.0
 40
15.267145598547129
 50
218.75076731278489
 51
272.41673033481902
  0
ARC
  5
234
  8
DATA
  6
CONTINUOUS
 62
     7
 10
-72.09795854627356
 20
-134.41402646731819
 30
0.0
 40
75.399514433779103
 50
339.58777121603208
 51
354.60086484356492
  0
ARC
  5
235
  8
DATA
  6
CONTINUOUS
 62
     7
 10
-41.78970187941534
 20
-147.2415042607995
 30
0.0
 40
42.545282326491382
 50
315.97129016075871
 51
341.54266551993862
  0
ARC
  5
236
  8
DATA
  6
CONTINUOUS
 62
     7
 10
-27.198785425101349
 20
-161.7460902029986
 30
0.0
 40
21.975460163165749
 50
275.74241822930918
 51
316.72146163700421
  0
ARC
  5
237
  8
DATA
  6
CONTINUOUS
 62
     7
 10
22.097958546273489
 20
-134.41402646731819
 30
0.0
 40
75.399514433779103
 50
185.3991351564348
 51
200.41222878396781
  0
ARC
  5
238
  8
DATA
  6
CONTINUOUS
 62
     7
 10
-8.2102981205847367
 20
-147.2415042607995
 30
0.0
 40
42.545282326491382
 50
198.45733448006121
 51
224.0287098392414
  0
ARC
  5
239
  8
DATA
  6
CONTINUOUS
 62
     7
 10
-22.801214574898729
 20
-161.7460902029986
 30
0.0
 40
21.97546016316576
 50
223.2785383629957
 51
264.25758177069082
  0
CIRCLE
  5
23A
  8
DATA
  6
CONTINUOUS
 62
     7
 10
-25.000000000000011
 20
-130.98747754332311
 30
0.0
 40
10.5
  0
ARC
  5
23B
  8
DATA
  6
CONTINUOUS
 62
     7
 10
-25.00000000000016
 20
-130.9874775433228
 30
0.0
 40
7.9999999999997824
 50
55.98330226171592
 51
43.246598016199492
  0
CIRCLE
  5
23C
  8
DATA
  6
CONTINUOUS
 62
     7
 10
-25.000000000000011
 20
-134.7275711493717
 30
0.0
 40
1.1750000000000109
  0
CIRCLE
  5
23D
  8
DATA
  6
CONTINUOUS
 62
     7
 10
-20.90000000000002
 20
-131.13309347946989
 30
0.0
 40
1.1749999999999821
  0
CIRCLE
  5
23E
  8
DATA
  6
CONTINUOUS
 62
     7
 10
-29.100000000000041
 20
-131.13309347946989
 30
0.0
 40
1.1749999999999821
  0
ARC
  5
23F
  8
DATA
  6
CONTINUOUS
 62
     7
 10
-20.010715249241581
 20
-125.1219876384751
 30
0.0
 40
0.9219544457293311
 50
335.3603477704616
 51
123.8695525074571
  0
TEXT
  5
240
  8
DATA
 62
     7
 10
245.07561916224651
 20
-197.86201341839609
 30
0.0
 40
4.8865234374999993
  1
ダイナミック型マイクロホン
 41
0.7
 11
245.07561916224651
 21
-192.9754899808961
 31
0.0
 73
     3
  0
LINE
  5
241
  8
DATA
  6
CONTINUOUS
 62
     7
 10
126.0
 20
138.49160833031871
 30
0.0
 11
126.0
 21
51.500000000000021
 31
0.0
  0
LINE
  5
242
  8
DATA
  6
CONTINUOUS
 62
     7
 10
124.0
 20
51.500000000000021
 30
0.0
 11
124.0
 21
138.49160833031871
 31
0.0
  0
LINE
  5
243
  8
DATA
  6
CONTINUOUS
 62
     7
 10
124.0
 20
137.93160833031871
 30
0.0
 11
126.0
 21
137.93160833031871
 31
0.0
  0
LINE
  5
244
  8
DATA
  6
CONTINUOUS
 62
     7
 10
124.0
 20
51.500000000000021
 30
0.0
 11
126.0
 21
51.500000000000021
 31
0.0
  0
LINE
  5
245
  8
DATA
  6
CONTINUOUS
 62
     7
 10
113.87
 20
100.59999999999999
 30
0.0
 11
113.87
 21
108.40000000000001
 31
0.0
  0
ENDSEC
  0
EOF
