  0
SECTION
  2
HEADER
  9
$ACADVER
  1
AC1009
  9
$DWGCODEPAGE
  3
ansi_932
  9
$INSBASE
 10
0.0
 20
0.0
 30
0.0
  9
$EXTMIN
 10
-180.0
 20
-272.9954744531249
 30
0.0
  9
$EXTMAX
 10
180.0
 20
263.531815
 30
0.0
  9
$LIMMIN
 10
0.0
 20
0.0
  9
$LIMMAX
 10
0.0
 20
0.0
  9
$ORTHOMODE
 70
     0
  9
$REGENMODE
 70
     1
  9
$FILLMODE
 70
     1
  9
$QTEXTMODE
 70
     0
  9
$MIRRTEXT
 70
     1
  9
$DRAGMODE
 70
     2
  9
$LTSCALE
 40
10.16
  9
$OSMODE
 70
  4327
  9
$ATTMODE
 70
     1
  9
$TEXTSIZE
 40
0.0
  9
$TRACEWID
 40
1.0
  9
$TEXTSTYLE
  7
STANDARD
  9
$CLAYER
  8
DATA
  9
$CELTYPE
  6
BYLAYER
  9
$CECOLOR
 62
   256
  9
$DIMSCALE
 40
1.0
  9
$DIMASZ
 40
0.18
  9
$DIMEXO
 40
0.0625
  9
$DIMDLI
 40
0.38
  9
$DIMRND
 40
0.0
  9
$DIMDLE
 40
0.0
  9
$DIMEXE
 40
0.18
  9
$DIMTP
 40
0.0
  9
$DIMTM
 40
0.0
  9
$DIMTXT
 40
0.18
  9
$DIMCEN
 40
0.09
  9
$DIMTSZ
 40
0.0
  9
$DIMTOL
 70
     0
  9
$DIMLIM
 70
     0
  9
$DIMTIH
 70
     1
  9
$DIMTOH
 70
     1
  9
$DIMSE1
 70
     0
  9
$DIMSE2
 70
     0
  9
$DIMTAD
 70
     0
  9
$DIMZIN
 70
     0
  9
$DIMBLK
  1

  9
$DIMASO
 70
     1
  9
$DIMSHO
 70
     1
  9
$DIMPOST
  1

  9
$DIMAPOST
  1

  9
$DIMALT
 70
     0
  9
$DIMALTD
 70
     2
  9
$DIMALTF
 40
25.4
  9
$DIMLFAC
 40
1.0
  9
$DIMTOFL
 70
     0
  9
$DIMTVP
 40
0.0
  9
$DIMTIX
 70
     0
  9
$DIMSOXD
 70
     0
  9
$DIMSAH
 70
     0
  9
$DIMBLK1
  1

  9
$DIMBLK2
  1

  9
$DIMSTYLE
  2
STANDARD
  9
$DIMCLRD
 70
     0
  9
$DIMCLRE
 70
     0
  9
$DIMCLRT
 70
     0
  9
$DIMTFAC
 40
1.0
  9
$DIMGAP
 40
0.09
  9
$LUNITS
 70
     2
  9
$LUPREC
 70
     2
  9
$SKETCHINC
 40
0.1
  9
$FILLETRAD
 40
0.0
  9
$AUNITS
 70
     0
  9
$AUPREC
 70
     0
  9
$MENU
  1
acad
  9
$ELEVATION
 40
0.0
  9
$PELEVATION
 40
0.0
  9
$THICKNESS
 40
0.0
  9
$LIMCHECK
 70
     0
  9
$CHAMFERA
 40
0.0
  9
$CHAMFERB
 40
0.0
  9
$SKPOLY
 70
     0
  9
$TDCREATE
 40
2459233.710711285
  9
$TDUPDATE
 40
2459233.71148838
  9
$TDINDWG
 40
2459233.336488981
  9
$TDUSRTIMER
 40
0.0007776968
  9
$USRTIMER
 70
     1
  9
$ANGBASE
 50
0.0
  9
$ANGDIR
 70
     0
  9
$PDMODE
 70
     1
  9
$PDSIZE
 40
-2.0
  9
$PLINEWID
 40
0.0
  9
$COORDS
 70
     1
  9
$SPLFRAME
 70
     0
  9
$SPLINETYPE
 70
     6
  9
$SPLINESEGS
 70
     8
  9
$ATTDIA
 70
     1
  9
$ATTREQ
 70
     1
  9
$HANDLING
 70
     1
  9
$HANDSEED
  5
2B8
  9
$SURFTAB1
 70
     6
  9
$SURFTAB2
 70
     6
  9
$SURFTYPE
 70
     6
  9
$SURFU
 70
     6
  9
$SURFV
 70
     6
  9
$UCSNAME
  2

  9
$UCSORG
 10
0.0
 20
0.0
 30
0.0
  9
$UCSXDIR
 10
1.0
 20
0.0
 30
0.0
  9
$UCSYDIR
 10
0.0
 20
1.0
 30
0.0
  9
$PUCSNAME
  2

  9
$PUCSORG
 10
0.0
 20
0.0
 30
0.0
  9
$PUCSXDIR
 10
1.0
 20
0.0
 30
0.0
  9
$PUCSYDIR
 10
0.0
 20
1.0
 30
0.0
  9
$USERI1
 70
     0
  9
$USERI2
 70
     0
  9
$USERI3
 70
     0
  9
$USERI4
 70
     0
  9
$USERI5
 70
     0
  9
$USERR1
 40
0.0
  9
$USERR2
 40
0.0
  9
$USERR3
 40
0.0
  9
$USERR4
 40
0.0
  9
$USERR5
 40
0.0
  9
$WORLDVIEW
 70
     1
  9
$SHADEDGE
 70
     3
  9
$SHADEDIF
 70
    70
  9
$TILEMODE
 70
     1
  9
$MAXACTVP
 70
    64
  9
$PLIMCHECK
 70
     0
  9
$PEXTMIN
 10
1.000000000000000E+20
 20
1.000000000000000E+20
 30
1.000000000000000E+20
  9
$PEXTMAX
 10
-1.000000000000000E+20
 20
-1.000000000000000E+20
 30
-1.000000000000000E+20
  9
$PLIMMIN
 10
0.0
 20
0.0
  9
$PLIMMAX
 10
12.0
 20
9.0
  9
$UNITMODE
 70
     0
  9
$VISRETAIN
 70
     0
  9
$PLINEGEN
 70
     1
  9
$PSLTSCALE
 70
     0
  0
ENDSEC
  0
SECTION
  2
TABLES
  0
TABLE
  2
VPORT
 70
     1
  0
VPORT
  2
*ACTIVE
 70
     0
 10
0.0
 20
0.0
 11
1.0
 21
1.0
 12
0.0
 22
-3.531814999999938
 13
0.0
 23
0.0
 14
1.0
 24
1.0
 15
0.0
 25
0.0
 16
0.0
 26
0.0
 36
1.0
 17
0.0
 27
0.0
 37
0.0
 40
534.1272600000001
 41
2.794721407624633
 42
50.0
 43
0.0
 44
0.0
 50
0.0
 51
0.0
 71
     0
 72
  2000
 73
     1
 74
     1
 75
     0
 76
     0
 77
     0
 78
     0
  0
ENDTAB
  0
TABLE
  2
LTYPE
 70
    11
  0
LTYPE
  2
CONTINUOUS
 70
     0
  3
Solid line
 72
    65
 73
     0
 40
0.0
  0
ENDTAB
  0
TABLE
  2
LAYER
 70
     6
  0
LAYER
  2
0
 70
     0
 62
     7
  6
CONTINUOUS
  0
LAYER
  2
HIBINO-BASE
 70
     0
 62
     7
  6
CONTINUOUS
  0
LAYER
  2
PATTERN_FILL
 70
     0
 62
     7
  6
CONTINUOUS
  0
LAYER
  2
SPEC
 70
     0
 62
     7
  6
CONTINUOUS
  0
LAYER
  2
DIMNSIONS
 70
     0
 62
     7
  6
CONTINUOUS
  0
LAYER
  2
DATA
 70
     0
 62
     7
  6
CONTINUOUS
  0
ENDTAB
  0
TABLE
  2
STYLE
 70
     2
  0
STYLE
  2
STANDARD
 70
     0
 40
0.0
 41
1.0
 50
0.0
 71
     0
 42
0.0
  3
txt
  4
BIGFONT.SHX
  0
ENDTAB
  0
TABLE
  2
VIEW
 70
     0
  0
ENDTAB
  0
TABLE
  2
UCS
 70
     0
  0
ENDTAB
  0
TABLE
  2
APPID
 70
     3
  0
APPID
  2
ACAD
 70
     0
  0
APPID
  2
ACAD_MLEADERVER
 70
     0
  0
APPID
  2
ACADANNOPO
 70
     0
  0
ENDTAB
  0
TABLE
  2
DIMSTYLE
 70
     1
  0
DIMSTYLE
  2
STANDARD
 70
     0
  3

  4

  5

  6

  7

 40
1.0
 41
0.18
 42
0.0625
 43
0.38
 44
0.18
 45
0.0
 46
0.0
 47
0.0
 48
0.0
140
0.18
141
0.09
142
0.0
143
25.4
144
1.0
145
0.0
146
1.0
147
0.09
 71
     0
 72
     0
 73
     1
 74
     1
 75
     0
 76
     0
 77
     0
 78
     0
170
     0
171
     2
172
     0
173
     0
174
     0
175
     0
176
     0
177
     0
178
     0
  0
ENDTAB
  0
ENDSEC
  0
SECTION
  2
BLOCKS
  0
BLOCK
  8
DATA
  2
$MODEL_SPACE
 70
     0
 10
0.0
 20
0.0
 30
0.0
  3
$MODEL_SPACE
  1

  0
ENDBLK
  5
277
  8
DATA
  0
BLOCK
 67
     1
  8
DATA
  2
$PAPER_SPACE
 70
     0
 10
0.0
 20
0.0
 30
0.0
  3
$PAPER_SPACE
  1

  0
ENDBLK
  5
275
 67
     1
  8
DATA
  0
ENDSEC
  0
SECTION
  2
ENTITIES
  0
LINE
  5
2D
  8
HIBINO-BASE
  6
CONTINUOUS
 62
     7
 10
-180.0
 20
263.531815
 30
0.0
 11
180.0
 21
263.531815
 31
0.0
  0
LINE
  5
2E
  8
HIBINO-BASE
  6
CONTINUOUS
 62
     7
 10
180.0
 20
-256.4681849999999
 30
0.0
 11
-180.0
 21
-256.4681849999999
 31
0.0
  0
LINE
  5
2F
  8
HIBINO-BASE
  6
CONTINUOUS
 62
     7
 10
-180.0
 20
-256.4681849999999
 30
0.0
 11
-180.0
 21
263.531815
 31
0.0
  0
LINE
  5
30
  8
HIBINO-BASE
  6
CONTINUOUS
 62
     7
 10
180.0
 20
263.531815
 30
0.0
 11
180.0
 21
-256.4681849999999
 31
0.0
  0
LINE
  5
31
  8
HIBINO-BASE
  6
CONTINUOUS
 62
     7
 10
0.0000000000000284
 20
-211.4681849999999
 30
0.0
 11
180.0
 21
-211.4681849999999
 31
0.0
  0
LINE
  5
32
  8
HIBINO-BASE
  6
CONTINUOUS
 62
     7
 10
0.0000000000000284
 20
-256.4681849999999
 30
0.0
 11
0.0000000000000284
 21
-211.4681849999999
 31
0.0
  0
TEXT
  5
33
  8
HIBINO-BASE
 62
     7
 10
1.80000000000004
 20
-216.4855716666666
 30
0.0
 40
3.257682291666666
  1
NOTE
 41
0.7
 11
1.80000000000004
 21
-213.2278893749999
 31
0.0
 73
     3
  0
LINE
  5
34
  8
HIBINO-BASE
  6
CONTINUOUS
 62
     7
 10
70.00000000000003
 20
-256.4681849999999
 30
0.0
 11
70.00000000000003
 21
-211.4681849999999
 31
0.0
  0
TEXT
  5
35
  8
HIBINO-BASE
 62
     7
 10
71.79999999999998
 20
-216.4855716666666
 30
0.0
 40
3.257682291666666
  1
TITLE
 41
0.7
 11
71.79999999999998
 21
-213.2278893749999
 31
0.0
 73
     3
  0
LINE
  5
36
  8
HIBINO-BASE
  6
CONTINUOUS
 62
     7
 10
0.0000000000000284
 20
-236.4681849999999
 30
0.0
 11
180.0
 21
-236.4681849999999
 31
0.0
  0
TEXT
  5
37
  8
HIBINO-BASE
 62
     7
 10
96.79999999999998
 20
-241.3729316666667
 30
0.0
 40
3.257682291666666
  1
DRAWN
 41
0.7
 11
96.79999999999998
 21
-238.115249375
 31
0.0
 73
     3
  0
TEXT
  5
38
  8
HIBINO-BASE
 62
     7
 10
46.79999999999998
 20
-241.3729316666667
 30
0.0
 40
3.257682291666666
  1
DATE
 41
0.7
 11
46.79999999999998
 21
-238.115249375
 31
0.0
 73
     3
  0
TEXT
  5
39
  8
HIBINO-BASE
 62
     7
 10
26.79999999999998
 20
-241.3729316666667
 30
0.0
 40
3.257682291666666
  1
SCALE
 41
0.7
 11
26.79999999999998
 21
-238.115249375
 31
0.0
 73
     3
  0
TEXT
  5
3A
  8
HIBINO-BASE
 62
     7
 10
71.79999999999998
 20
-241.3729316666667
 30
0.0
 40
3.257682291666666
  1
DESIGN
 41
0.7
 11
71.79999999999998
 21
-238.115249375
 31
0.0
 73
     3
  0
TEXT
  5
3B
  8
HIBINO-BASE
 62
     7
 10
146.8
 20
-241.3729316666667
 30
0.0
 40
3.257682291666666
  1
DRAWING NO.
 41
0.7
 11
146.8
 21
-238.115249375
 31
0.0
 73
     3
  0
TEXT
  5
3C
  8
HIBINO-BASE
 62
     7
 10
121.8
 20
-241.3729316666667
 30
0.0
 40
3.257682291666666
  1
CHECK
 41
0.7
 11
121.8
 21
-238.115249375
 31
0.0
 73
     3
  0
LINE
  5
3D
  8
HIBINO-BASE
  6
CONTINUOUS
 62
     7
 10
28.75000000000003
 20
-253.9681849999999
 30
0.0
 11
36.25000000000003
 21
-246.4681849999999
 31
0.0
  0
TEXT
  5
3E
  8
HIBINO-BASE
 62
     7
 10
27.50000000000003
 20
-248.6860716666666
 30
0.0
 40
3.257682291666666
  1
1
 41
0.7
 11
27.50000000000003
 21
-245.428389375
 31
0.0
 73
     3
  0
LINE
  5
3F
  8
HIBINO-BASE
  6
CONTINUOUS
 62
     7
 10
25.00000000000003
 20
-256.4681849999999
 30
0.0
 11
25.00000000000003
 21
-236.4681849999999
 31
0.0
  0
LINE
  5
40
  8
HIBINO-BASE
  6
CONTINUOUS
 62
     7
 10
44.99999999999997
 20
-256.4681849999999
 30
0.0
 11
44.99999999999997
 21
-236.4681849999999
 31
0.0
  0
LINE
  5
41
  8
HIBINO-BASE
  6
CONTINUOUS
 62
     7
 10
94.99999999999997
 20
-236.4681849999999
 30
0.0
 11
94.99999999999997
 21
-256.4681849999999
 31
0.0
  0
LINE
  5
42
  8
HIBINO-BASE
  6
CONTINUOUS
 62
     7
 10
145.0
 20
-236.4681849999999
 30
0.0
 11
145.0
 21
-256.4681849999999
 31
0.0
  0
LINE
  5
43
  8
HIBINO-BASE
  6
CONTINUOUS
 62
     7
 10
120.0
 20
-256.4681849999999
 30
0.0
 11
120.0
 21
-236.4681849999999
 31
0.0
  0
TEXT
  5
44
  8
HIBINO-BASE
 62
     7
 10
46.71308000000002
 20
-250.7408916666666
 30
0.0
 40
3.257682291666666
  1
'21.01.
 41
0.7
 11
46.71308000000002
 21
-247.4832093749999
 31
0.0
 73
     3
  0
TEXT
  5
45
  8
HIBINO-BASE
 62
     7
 10
35.00000000000003
 20
-252.4360716666666
 30
0.0
 40
3.257682291666666
  1
2
 41
0.7
 11
35.00000000000003
 21
-249.178389375
 31
0.0
 73
     3
  0
TEXT
  5
46
  8
HIBINO-BASE
 62
     7
 10
98.01162002206925
 20
-250.7408916666666
 30
0.0
 40
3.257682291666666
  1
N.Sasaki
 41
0.7
 11
98.01162002206925
 21
-247.4832093749999
 31
0.0
 73
     3
  0
TEXT
  5
47
  8
HIBINO-BASE
 62
     7
 10
7.766666666666737
 20
-252.5161849999999
 30
0.0
 40
6.515364583333333
  1
A4
 41
0.7
 11
7.766666666666737
 21
-246.0008204166666
 31
0.0
 73
     3
  0
TEXT
  5
48
  8
HIBINO-BASE
 62
     7
 10
1.916666666666657
 20
-241.707095
 30
0.0
 40
3.257682291666666
  1
PAPER SIZE
 41
0.7
 11
1.916666666666657
 21
-238.4494127083333
 31
0.0
 73
     3
  0
TEXT
  5
49
  8
HIBINO-BASE
 62
     7
 10
-165.6319999999999
 20
-269.2855405999999
 30
0.0
 40
7.200088359374999
  1
Hibino Corporation
 41
0.7
 11
-165.6319999999999
 21
-262.0854522406249
 31
0.0
 73
     3
  0
TEXT
  5
4A
  8
HIBINO-BASE
 62
     7
 10
100.13678
 20
-269.2855405999999
 30
0.0
 40
7.200088359374999
  1
ヒビノ株式会社
 41
0.7
 11
100.13678
 21
-262.0854522406249
 31
0.0
 73
     3
  0
LINE
  5
4B
  8
PATTERN_FILL
  6
CONTINUOUS
 62
     7
 10
-69.79087357075355
 20
55.99232611476873
 30
0.0
 11
-66.89969170510142
 21
61.0
 31
0.0
  0
LINE
  5
4C
  8
PATTERN_FILL
  6
CONTINUOUS
 62
     7
 10
-70.4734485362327
 20
50.47994457566207
 30
0.0
 11
-64.39969170510142
 21
61.0
 31
0.0
  0
LINE
  5
4D
  8
PATTERN_FILL
  6
CONTINUOUS
 62
     7
 10
-71.15602350171184
 20
44.96756303655545
 30
0.0
 11
-61.89969170510142
 21
61.0
 31
0.0
  0
LINE
  5
4E
  8
PATTERN_FILL
  6
CONTINUOUS
 62
     7
 10
-71.83859846719099
 20
39.45518149744881
 30
0.0
 11
-59.39969170510142
 21
61.0
 31
0.0
  0
LINE
  5
4F
  8
PATTERN_FILL
  6
CONTINUOUS
 62
     7
 10
-72.52117343267014
 20
33.94279995834216
 30
0.0
 11
-56.89969170510142
 21
61.0
 31
0.0
  0
LINE
  5
50
  8
PATTERN_FILL
  6
CONTINUOUS
 62
     7
 10
-73.20374839814923
 20
28.43041841923556
 30
0.0
 11
-54.39969170510142
 21
61.0
 31
0.0
  0
LINE
  5
51
  8
PATTERN_FILL
  6
CONTINUOUS
 62
     7
 10
-73.88632336362838
 20
22.91803688012893
 30
0.0
 11
-51.89969170510142
 21
61.0
 31
0.0
  0
LINE
  5
52
  8
PATTERN_FILL
  6
CONTINUOUS
 62
     7
 10
-71.91635220349679
 20
22.0
 30
0.0
 11
-49.39969170510142
 21
61.00000000000001
 31
0.0
  0
LINE
  5
53
  8
PATTERN_FILL
  6
CONTINUOUS
 62
     7
 10
-69.41635220349679
 20
22.0
 30
0.0
 11
-46.89969170510142
 21
61.0
 31
0.0
  0
LINE
  5
54
  8
PATTERN_FILL
  6
CONTINUOUS
 62
     7
 10
-66.91635220349679
 20
21.99999999999999
 30
0.0
 11
-44.39969170510142
 21
61.0
 31
0.0
  0
LINE
  5
55
  8
PATTERN_FILL
  6
CONTINUOUS
 62
     7
 10
-72.08885452068091
 20
8.710836165447255
 30
0.0
 11
-70.18985489539307
 21
11.99999999999999
 31
0.0
  0
LINE
  5
56
  8
PATTERN_FILL
  6
CONTINUOUS
 62
     7
 10
-64.41635220349679
 20
22.0
 30
0.0
 11
-41.89969170510142
 21
61.00000000000001
 31
0.0
  0
LINE
  5
57
  8
PATTERN_FILL
  6
CONTINUOUS
 62
     7
 10
-71.6439198296747
 20
5.151358637397717
 30
0.0
 11
-67.68985489539307
 21
12.0
 31
0.0
  0
LINE
  5
58
  8
PATTERN_FILL
  6
CONTINUOUS
 62
     7
 10
-61.91635220349679
 20
22.0
 30
0.0
 11
-39.39969170510142
 21
61.0
 31
0.0
  0
LINE
  5
59
  8
PATTERN_FILL
  6
CONTINUOUS
 62
     7
 10
-69.80865704891005
 20
4.000000000000004
 30
0.0
 11
-65.18985489539307
 21
12.0
 31
0.0
  0
LINE
  5
5A
  8
PATTERN_FILL
  6
CONTINUOUS
 62
     7
 10
-59.41635220349679
 20
21.99999999999999
 30
0.0
 11
-36.89969170510142
 21
61.0
 31
0.0
  0
LINE
  5
5B
  8
PATTERN_FILL
  6
CONTINUOUS
 62
     7
 10
-67.30865704891005
 20
3.999999999999993
 30
0.0
 11
-62.68985489539307
 21
11.99999999999999
 31
0.0
  0
LINE
  5
5C
  8
PATTERN_FILL
  6
CONTINUOUS
 62
     7
 10
-56.91635220349679
 20
22.0
 30
0.0
 11
-34.39969170510142
 21
61.0
 31
0.0
  0
LINE
  5
5D
  8
PATTERN_FILL
  6
CONTINUOUS
 62
     7
 10
-64.80865704891005
 20
3.999999999999993
 30
0.0
 11
-60.18985489539307
 21
11.99999999999999
 31
0.0
  0
LINE
  5
5E
  8
PATTERN_FILL
  6
CONTINUOUS
 62
     7
 10
-54.41635220349679
 20
22.0
 30
0.0
 11
-32.16035867275889
 21
60.54851156816235
 31
0.0
  0
LINE
  5
5F
  8
PATTERN_FILL
  6
CONTINUOUS
 62
     7
 10
-62.30865704891005
 20
3.999999999999993
 30
0.0
 11
-57.68985489539307
 21
11.99999999999999
 31
0.0
  0
LINE
  5
60
  8
PATTERN_FILL
  6
CONTINUOUS
 62
     7
 10
-51.91635220349679
 20
21.99999999999999
 30
0.0
 11
-30.74591325309956
 21
58.66827588062318
 31
0.0
  0
LINE
  5
61
  8
PATTERN_FILL
  6
CONTINUOUS
 62
     7
 10
-59.80865704891005
 20
4.0
 30
0.0
 11
-55.18985489539307
 21
11.99999999999999
 31
0.0
  0
LINE
  5
62
  8
PATTERN_FILL
  6
CONTINUOUS
 62
     7
 10
-49.41635220349679
 20
22.0
 30
0.0
 11
-30.13526411198916
 21
55.39582419970253
 31
0.0
  0
LINE
  5
63
  8
PATTERN_FILL
  6
CONTINUOUS
 62
     7
 10
-57.30865704891005
 20
4.0
 30
0.0
 11
-52.68985489539307
 21
11.99999999999999
 31
0.0
  0
LINE
  5
64
  8
PATTERN_FILL
  6
CONTINUOUS
 62
     7
 10
-46.91635220349679
 20
22.0
 30
0.0
 11
-29.69377091142013
 21
51.83038583536204
 31
0.0
  0
LINE
  5
65
  8
PATTERN_FILL
  6
CONTINUOUS
 62
     7
 10
-54.80865704891005
 20
3.999999999999993
 30
0.0
 11
-50.18985489539307
 21
12.0
 31
0.0
  0
LINE
  5
66
  8
PATTERN_FILL
  6
CONTINUOUS
 62
     7
 10
-44.41635220349679
 20
22.0
 30
0.0
 11
-29.25227771085116
 21
48.26494747102154
 31
0.0
  0
LINE
  5
67
  8
PATTERN_FILL
  6
CONTINUOUS
 62
     7
 10
-52.30865704891005
 20
3.999999999999996
 30
0.0
 11
-47.68985489539307
 21
12.0
 31
0.0
  0
LINE
  5
68
  8
PATTERN_FILL
  6
CONTINUOUS
 62
     7
 10
-41.91635220349679
 20
22.0
 30
0.0
 11
-28.81078451028213
 21
44.69950910668109
 31
0.0
  0
LINE
  5
69
  8
PATTERN_FILL
  6
CONTINUOUS
 62
     7
 10
-49.80865704891005
 20
3.999999999999996
 30
0.0
 11
-45.18985489539307
 21
11.99999999999999
 31
0.0
  0
LINE
  5
6A
  8
PATTERN_FILL
  6
CONTINUOUS
 62
     7
 10
-39.41635220349679
 20
22.0
 30
0.0
 11
-28.36929130971316
 21
41.13407074234058
 31
0.0
  0
LINE
  5
6B
  8
PATTERN_FILL
  6
CONTINUOUS
 62
     7
 10
-47.30865704891005
 20
3.999999999999993
 30
0.0
 11
-42.68985489539307
 21
11.99999999999999
 31
0.0
  0
LINE
  5
6C
  8
PATTERN_FILL
  6
CONTINUOUS
 62
     7
 10
-36.91635220349679
 20
22.0
 30
0.0
 11
-27.92779810914413
 21
37.56863237800012
 31
0.0
  0
LINE
  5
6D
  8
PATTERN_FILL
  6
CONTINUOUS
 62
     7
 10
-44.80865704891005
 20
4.0
 30
0.0
 11
-40.18985489539307
 21
11.99999999999999
 31
0.0
  0
LINE
  5
6E
  8
PATTERN_FILL
  6
CONTINUOUS
 62
     7
 10
-34.41635220349679
 20
22.0
 30
0.0
 11
-27.48630490857511
 21
34.00319401365964
 31
0.0
  0
LINE
  5
6F
  8
PATTERN_FILL
  6
CONTINUOUS
 62
     7
 10
-42.30865704891005
 20
3.999999999999996
 30
0.0
 11
-37.68985489539307
 21
12.0
 31
0.0
  0
LINE
  5
70
  8
PATTERN_FILL
  6
CONTINUOUS
 62
     7
 10
-31.91635220349684
 20
22.0
 30
0.0
 11
-27.04481170800614
 21
30.43775564931917
 31
0.0
  0
LINE
  5
71
  8
PATTERN_FILL
  6
CONTINUOUS
 62
     7
 10
-39.80865704891005
 20
4.0
 30
0.0
 11
-35.18985489539307
 21
11.99999999999999
 31
0.0
  0
LINE
  5
72
  8
PATTERN_FILL
  6
CONTINUOUS
 62
     7
 10
-29.41635220349679
 20
22.0
 30
0.0
 11
-26.60331850743711
 21
26.8723172849787
 31
0.0
  0
LINE
  5
73
  8
PATTERN_FILL
  6
CONTINUOUS
 62
     7
 10
-37.30865704891005
 20
3.999999999999996
 30
0.0
 11
-32.68985489539307
 21
11.99999999999999
 31
0.0
  0
LINE
  5
74
  8
PATTERN_FILL
  6
CONTINUOUS
 62
     7
 10
-26.91635220349679
 20
22.0
 30
0.0
 11
-26.16182530686808
 21
23.3068789206382
 31
0.0
  0
LINE
  5
75
  8
PATTERN_FILL
  6
CONTINUOUS
 62
     7
 10
-34.80865704891005
 20
4.0
 30
0.0
 11
-30.18985489539307
 21
12.0
 31
0.0
  0
LINE
  5
76
  8
PATTERN_FILL
  6
CONTINUOUS
 62
     7
 10
-32.30865704891005
 20
3.999999999999996
 30
0.0
 11
-27.68985489539307
 21
12.0
 31
0.0
  0
LINE
  5
77
  8
PATTERN_FILL
  6
CONTINUOUS
 62
     7
 10
-29.80865704891005
 20
3.999999999999996
 30
0.0
 11
-28.13837286665745
 21
6.893017066740157
 31
0.0
  0
LINE
  5
78
  8
PATTERN_FILL
  6
CONTINUOUS
 62
     7
 10
-30.04576606116439
 20
54.67305025090106
 30
0.0
 11
-33.69863220195589
 21
61.0
 31
0.0
  0
LINE
  5
79
  8
PATTERN_FILL
  6
CONTINUOUS
 62
     7
 10
-29.36319109568524
 20
49.16066871179443
 30
0.0
 11
-36.19863220195589
 21
61.0
 31
0.0
  0
LINE
  5
7A
  8
PATTERN_FILL
  6
CONTINUOUS
 62
     7
 10
-28.68061613020615
 20
43.64828717268777
 30
0.0
 11
-38.69863220195589
 21
61.0
 31
0.0
  0
LINE
  5
7B
  8
PATTERN_FILL
  6
CONTINUOUS
 62
     7
 10
-27.998041164727
 20
38.13590563358113
 30
0.0
 11
-41.19863220195589
 21
61.0
 31
0.0
  0
LINE
  5
7C
  8
PATTERN_FILL
  6
CONTINUOUS
 62
     7
 10
-27.31546619924785
 20
32.62352409447448
 30
0.0
 11
-43.69863220195589
 21
61.0
 31
0.0
  0
LINE
  5
7D
  8
PATTERN_FILL
  6
CONTINUOUS
 62
     7
 10
-26.6328912337687
 20
27.11114255536785
 30
0.0
 11
-46.19863220195589
 21
61.0
 31
0.0
  0
LINE
  5
7E
  8
PATTERN_FILL
  6
CONTINUOUS
 62
     7
 10
-26.18197170356052
 20
22.0
 30
0.0
 11
-48.69863220195589
 21
61.0
 31
0.0
  0
LINE
  5
7F
  8
PATTERN_FILL
  6
CONTINUOUS
 62
     7
 10
-28.68197170356052
 20
21.99999999999999
 30
0.0
 11
-51.19863220195589
 21
61.0
 31
0.0
  0
LINE
  5
80
  8
PATTERN_FILL
  6
CONTINUOUS
 62
     7
 10
-31.18197170356052
 20
21.99999999999999
 30
0.0
 11
-53.69863220195589
 21
61.0
 31
0.0
  0
LINE
  5
81
  8
PATTERN_FILL
  6
CONTINUOUS
 62
     7
 10
-27.57269681339619
 20
11.41842549283052
 30
0.0
 11
-27.90846901166429
 21
12.0
 31
0.0
  0
LINE
  5
82
  8
PATTERN_FILL
  6
CONTINUOUS
 62
     7
 10
-33.68197170356052
 20
22.0
 30
0.0
 11
-56.19863220195589
 21
61.0
 31
0.0
  0
LINE
  5
83
  8
PATTERN_FILL
  6
CONTINUOUS
 62
     7
 10
-28.0176315044024
 20
7.85894796478102
 30
0.0
 11
-30.40846901166429
 21
12.0
 31
0.0
  0
LINE
  5
84
  8
PATTERN_FILL
  6
CONTINUOUS
 62
     7
 10
-36.18197170356052
 20
22.0
 30
0.0
 11
-58.69863220195589
 21
61.0
 31
0.0
  0
LINE
  5
85
  8
PATTERN_FILL
  6
CONTINUOUS
 62
     7
 10
-28.46256619540856
 20
4.299470436731479
 30
0.0
 11
-32.90846901166429
 21
12.0
 31
0.0
  0
LINE
  5
86
  8
PATTERN_FILL
  6
CONTINUOUS
 62
     7
 10
-38.68197170356052
 20
21.99999999999999
 30
0.0
 11
-61.19863220195589
 21
61.0
 31
0.0
  0
LINE
  5
87
  8
PATTERN_FILL
  6
CONTINUOUS
 62
     7
 10
-30.78966685814731
 20
3.999999999999996
 30
0.0
 11
-35.40846901166429
 21
12.0
 31
0.0
  0
LINE
  5
88
  8
PATTERN_FILL
  6
CONTINUOUS
 62
     7
 10
-41.18197170356052
 20
22.0
 30
0.0
 11
-63.69863220195589
 21
61.0
 31
0.0
  0
LINE
  5
89
  8
PATTERN_FILL
  6
CONTINUOUS
 62
     7
 10
-33.28966685814731
 20
3.999999999999996
 30
0.0
 11
-37.90846901166429
 21
12.0
 31
0.0
  0
LINE
  5
8A
  8
PATTERN_FILL
  6
CONTINUOUS
 62
     7
 10
-43.68197170356052
 20
21.99999999999999
 30
0.0
 11
-66.19863220195589
 21
61.0
 31
0.0
  0
LINE
  5
8B
  8
PATTERN_FILL
  6
CONTINUOUS
 62
     7
 10
-35.78966685814726
 20
3.999999999999996
 30
0.0
 11
-40.40846901166429
 21
12.0
 31
0.0
  0
LINE
  5
8C
  8
PATTERN_FILL
  6
CONTINUOUS
 62
     7
 10
-46.18197170356052
 20
22.0
 30
0.0
 11
-68.17815993116506
 21
60.09851558305952
 31
0.0
  0
LINE
  5
8D
  8
PATTERN_FILL
  6
CONTINUOUS
 62
     7
 10
-38.28966685814731
 20
3.999999999999996
 30
0.0
 11
-42.90846901166429
 21
12.0
 31
0.0
  0
LINE
  5
8E
  8
PATTERN_FILL
  6
CONTINUOUS
 62
     7
 10
-48.68197170356052
 20
22.0
 30
0.0
 11
-69.52890506212333
 21
58.10794775903328
 31
0.0
  0
LINE
  5
8F
  8
PATTERN_FILL
  6
CONTINUOUS
 62
     7
 10
-40.78966685814726
 20
3.999999999999996
 30
0.0
 11
-45.40846901166429
 21
12.0
 31
0.0
  0
LINE
  5
90
  8
PATTERN_FILL
  6
CONTINUOUS
 62
     7
 10
-51.18197170356052
 20
21.99999999999999
 30
0.0
 11
-69.9703982626923
 21
54.5425093946928
 31
0.0
  0
LINE
  5
91
  8
PATTERN_FILL
  6
CONTINUOUS
 62
     7
 10
-43.28966685814731
 20
3.999999999999996
 30
0.0
 11
-47.90846901166429
 21
12.0
 31
0.0
  0
LINE
  5
92
  8
PATTERN_FILL
  6
CONTINUOUS
 62
     7
 10
-53.68197170356052
 20
22.0
 30
0.0
 11
-70.41189146326133
 21
50.97707103035229
 31
0.0
  0
LINE
  5
93
  8
PATTERN_FILL
  6
CONTINUOUS
 62
     7
 10
-45.78966685814731
 20
3.999999999999996
 30
0.0
 11
-50.40846901166429
 21
12.0
 31
0.0
  0
LINE
  5
94
  8
PATTERN_FILL
  6
CONTINUOUS
 62
     7
 10
-56.18197170356052
 20
21.99999999999998
 30
0.0
 11
-70.8533846638303
 21
47.4116326660118
 31
0.0
  0
LINE
  5
95
  8
PATTERN_FILL
  6
CONTINUOUS
 62
     7
 10
-48.28966685814731
 20
3.999999999999996
 30
0.0
 11
-52.90846901166429
 21
12.0
 31
0.0
  0
LINE
  5
96
  8
PATTERN_FILL
  6
CONTINUOUS
 62
     7
 10
-58.68197170356052
 20
22.0
 30
0.0
 11
-71.29487786439933
 21
43.84619430167132
 31
0.0
  0
LINE
  5
97
  8
PATTERN_FILL
  6
CONTINUOUS
 62
     7
 10
-50.78966685814731
 20
3.999999999999996
 30
0.0
 11
-55.40846901166429
 21
12.0
 31
0.0
  0
LINE
  5
98
  8
PATTERN_FILL
  6
CONTINUOUS
 62
     7
 10
-61.18197170356052
 20
22.0
 30
0.0
 11
-71.73637106496835
 21
40.28075593733085
 31
0.0
  0
LINE
  5
99
  8
PATTERN_FILL
  6
CONTINUOUS
 62
     7
 10
-53.28966685814731
 20
3.999999999999996
 30
0.0
 11
-57.90846901166429
 21
12.0
 31
0.0
  0
LINE
  5
9A
  8
PATTERN_FILL
  6
CONTINUOUS
 62
     7
 10
-63.68197170356052
 20
21.99999999999999
 30
0.0
 11
-72.17786426553732
 21
36.71531757299033
 31
0.0
  0
LINE
  5
9B
  8
PATTERN_FILL
  6
CONTINUOUS
 62
     7
 10
-55.78966685814731
 20
3.999999999999989
 30
0.0
 11
-60.40846901166429
 21
12.0
 31
0.0
  0
LINE
  5
9C
  8
PATTERN_FILL
  6
CONTINUOUS
 62
     7
 10
-66.18197170356052
 20
22.00000000000001
 30
0.0
 11
-72.61935746610635
 21
33.14987920864986
 31
0.0
  0
LINE
  5
9D
  8
PATTERN_FILL
  6
CONTINUOUS
 62
     7
 10
-58.28966685814731
 20
3.999999999999989
 30
0.0
 11
-62.90846901166429
 21
12.0
 31
0.0
  0
LINE
  5
9E
  8
PATTERN_FILL
  6
CONTINUOUS
 62
     7
 10
-68.68197170356052
 20
22.0
 30
0.0
 11
-73.06085066667538
 21
29.58444084430937
 31
0.0
  0
LINE
  5
9F
  8
PATTERN_FILL
  6
CONTINUOUS
 62
     7
 10
-60.78966685814731
 20
3.999999999999996
 30
0.0
 11
-65.4084690116643
 21
12.0
 31
0.0
  0
LINE
  5
A0
  8
PATTERN_FILL
  6
CONTINUOUS
 62
     7
 10
-71.18197170356052
 20
22.0
 30
0.0
 11
-73.50234386724435
 21
26.01900247996888
 31
0.0
  0
LINE
  5
A1
  8
PATTERN_FILL
  6
CONTINUOUS
 62
     7
 10
-63.28966685814726
 20
3.999999999999989
 30
0.0
 11
-67.9084690116643
 21
12.0
 31
0.0
  0
LINE
  5
A2
  8
PATTERN_FILL
  6
CONTINUOUS
 62
     7
 10
-73.68197170356052
 20
21.99999999999999
 30
0.0
 11
-73.94383706781338
 21
22.45356411562842
 31
0.0
  0
LINE
  5
A3
  8
PATTERN_FILL
  6
CONTINUOUS
 62
     7
 10
-65.78966685814731
 20
3.999999999999996
 30
0.0
 11
-70.4084690116643
 21
12.0
 31
0.0
  0
LINE
  5
A4
  8
PATTERN_FILL
  6
CONTINUOUS
 62
     7
 10
-68.28966685814731
 20
3.999999999999996
 30
0.0
 11
-72.38712590676795
 21
11.09700725414379
 31
0.0
  0
LINE
  5
A5
  8
PATTERN_FILL
  6
CONTINUOUS
 62
     7
 10
-70.78966685814731
 20
3.999999999999996
 30
0.0
 11
-71.69628957641748
 21
5.570316611340193
 31
0.0
  0
LINE
  5
A6
  8
PATTERN_FILL
  6
CONTINUOUS
 62
     7
 10
-73.70347526685907
 20
103.7610185154294
 30
0.0
 11
-65.108875211895
 21
118.6473024813614
 31
0.0
  0
LINE
  5
A7
  8
PATTERN_FILL
  6
CONTINUOUS
 62
     7
 10
-73.97730831087182
 20
98.95659875148588
 30
0.0
 11
-61.08504216788219
 21
121.2866587358439
 31
0.0
  0
LINE
  5
A8
  8
PATTERN_FILL
  6
CONTINUOUS
 62
     7
 10
-73.54887602077235
 20
95.36853822661904
 30
0.0
 11
-57.76347445798172
 21
122.7096557512496
 31
0.0
  0
LINE
  5
A9
  8
PATTERN_FILL
  6
CONTINUOUS
 62
     7
 10
-72.76410737058347
 20
92.39767038201126
 30
0.0
 11
-54.79824310817071
 21
123.5154600863961
 31
0.0
  0
LINE
  5
AA
  8
PATTERN_FILL
  6
CONTINUOUS
 62
     7
 10
-71.74221426548309
 20
89.83751414102724
 30
0.0
 11
-52.07013621327098
 21
123.9105528179192
 31
0.0
  0
LINE
  5
AB
  8
PATTERN_FILL
  6
CONTINUOUS
 62
     7
 10
-70.48445554337724
 20
87.68588913245533
 30
0.0
 11
-49.52125098787542
 21
123.9952245120438
 31
0.0
  0
LINE
  5
AC
  8
PATTERN_FILL
  6
CONTINUOUS
 62
     7
 10
-69.1936387986159
 20
85.59152229872049
 30
0.0
 11
-47.11871168013829
 21
123.8264176413036
 31
0.0
  0
LINE
  5
AD
  8
PATTERN_FILL
  6
CONTINUOUS
 62
     7
 10
-67.72009764801089
 20
83.81364341968964
 30
0.0
 11
-44.84225283074318
 21
123.4392330108736
 31
0.0
  0
LINE
  5
AE
  8
PATTERN_FILL
  6
CONTINUOUS
 62
     7
 10
-66.13343152207023
 20
82.2317027455451
 30
0.0
 11
-42.6789189566839
 21
122.8561101755569
 31
0.0
  0
LINE
  5
AF
  8
PATTERN_FILL
  6
CONTINUOUS
 62
     7
 10
-64.44185884566878
 20
80.8314655468455
 30
0.0
 11
-40.62049163308524
 21
122.0912838647956
 31
0.0
  0
LINE
  5
B0
  8
PATTERN_FILL
  6
CONTINUOUS
 62
     7
 10
-62.65019366600995
 20
79.60459364924446
 30
0.0
 11
-38.66215681274412
 21
121.1530922529355
 31
0.0
  0
LINE
  5
B1
  8
PATTERN_FILL
  6
CONTINUOUS
 62
     7
 10
-60.76052505761135
 20
78.54746866953654
 30
0.0
 11
-36.80182542114278
 21
120.0451537231821
 31
0.0
  0
LINE
  5
B2
  8
PATTERN_FILL
  6
CONTINUOUS
 62
     7
 10
-58.77248958363958
 20
77.66072009878273
 30
0.0
 11
-35.03986089511449
 21
118.7668387844749
 31
0.0
  0
LINE
  5
B3
  8
PATTERN_FILL
  6
CONTINUOUS
 62
     7
 10
-56.68322485161582
 20
76.94930574618748
 30
0.0
 11
-33.37912562713825
 21
117.3131896276091
 31
0.0
  0
LINE
  5
B4
  8
PATTERN_FILL
  6
CONTINUOUS
 62
     7
 10
-54.48698960619527
 20
76.42316975770726
 30
0.0
 11
-31.8253608725588
 21
115.6742621066284
 31
0.0
  0
LINE
  5
B5
  8
PATTERN_FILL
  6
CONTINUOUS
 62
     7
 10
-52.174324382968
 20
76.0986964063123
 30
0.0
 11
-30.38802609578607
 21
113.8336719485621
 31
0.0
  0
LINE
  5
B6
  8
PATTERN_FILL
  6
CONTINUOUS
 62
     7
 10
-49.7304327097105
 20
76.00151393366652
 30
0.0
 11
-29.08191776904351
 21
111.7657909117468
 31
0.0
  0
LINE
  5
B7
  8
PATTERN_FILL
  6
CONTINUOUS
 62
     7
 10
-47.1320156381629
 20
76.17197730191921
 30
0.0
 11
-27.93033484059117
 21
109.430264034033
 31
0.0
  0
LINE
  5
B8
  8
PATTERN_FILL
  6
CONTINUOUS
 62
     7
 10
-44.34054225212935
 20
76.67682401558343
 30
0.0
 11
-26.97180822662477
 21
106.7603538109076
 31
0.0
  0
LINE
  5
B9
  8
PATTERN_FILL
  6
CONTINUOUS
 62
     7
 10
-41.28561222434809
 20
77.63799101834618
 30
0.0
 11
-26.27673825440598
 21
103.6341232986839
 31
0.0
  0
LINE
  5
BA
  8
PATTERN_FILL
  6
CONTINUOUS
 62
     7
 10
-37.81135673621714
 20
79.32545102334177
 30
0.0
 11
-26.00099374253688
 21
99.78159978422724
 31
0.0
  0
LINE
  5
BB
  8
PATTERN_FILL
  6
CONTINUOUS
 62
     7
 10
-33.36014092857289
 20
82.70505593871312
 30
0.0
 11
-26.70220955018112
 21
94.23693135939475
 31
0.0
  0
LINE
  5
BC
  8
PATTERN_FILL
  6
CONTINUOUS
 62
     7
 10
-27.66479082942487
 20
108.7828487011139
 30
0.0
 11
-31.22622532195277
 21
114.9514341900005
 31
0.0
  0
LINE
  5
BD
  8
PATTERN_FILL
  6
CONTINUOUS
 62
     7
 10
-26.05817077972125
 20
101.6699741276462
 30
0.0
 11
-36.58284537165616
 21
119.8992452540067
 31
0.0
  0
LINE
  5
BE
  8
PATTERN_FILL
  6
CONTINUOUS
 62
     7
 10
-26.13366102821459
 20
97.47060005459045
 30
0.0
 11
-40.25735512316294
 21
121.9335558176015
 31
0.0
  0
LINE
  5
BF
  8
PATTERN_FILL
  6
CONTINUOUS
 62
     7
 10
-26.72165045159977
 20
94.15890059128452
 30
0.0
 11
-43.41936569977776
 21
123.0801917714464
 31
0.0
  0
LINE
  5
C0
  8
PATTERN_FILL
  6
CONTINUOUS
 62
     7
 10
-27.60776672498207
 20
91.36357197927407
 30
0.0
 11
-46.28324942639551
 21
123.7104568739958
 31
0.0
  0
LINE
  5
C1
  8
PATTERN_FILL
  6
CONTINUOUS
 62
     7
 10
-28.70420176171791
 20
88.932526151177
 30
0.0
 11
-48.93681438965973
 21
123.9764391926318
 31
0.0
  0
LINE
  5
C2
  8
PATTERN_FILL
  6
CONTINUOUS
 62
     7
 10
-29.9650773600336
 20
86.78629973056142
 30
0.0
 11
-51.42593879134392
 21
123.9576021037862
 31
0.0
  0
LINE
  5
C3
  8
PATTERN_FILL
  6
CONTINUOUS
 62
     7
 10
-31.36332808923078
 20
84.87801401632889
 30
0.0
 11
-53.77768806214675
 21
123.7008243085576
 31
0.0
  0
LINE
  5
C4
  8
PATTERN_FILL
  6
CONTINUOUS
 62
     7
 10
-32.88195009579982
 20
83.17821747027654
 30
0.0
 11
-56.00906605557782
 21
123.2355573451491
 31
0.0
  0
LINE
  5
C5
  8
PATTERN_FILL
  6
CONTINUOUS
 62
     7
 10
-36.24081849523412
 20
80.33569415618989
 30
0.0
 11
-60.15019765614352
 21
121.7479536403135
 31
0.0
  0
LINE
  5
C6
  8
PATTERN_FILL
  6
CONTINUOUS
 62
     7
 10
-38.07057712295318
 20
79.17480204606464
 30
0.0
 11
-62.0704390284244
 21
120.7437822409775
 31
0.0
  0
LINE
  5
C7
  8
PATTERN_FILL
  6
CONTINUOUS
 62
     7
 10
-39.99819319845346
 20
78.18340400739544
 30
0.0
 11
-63.89282295292418
 21
119.5701167701858
 31
0.0
  0
LINE
  5
C8
  8
PATTERN_FILL
  6
CONTINUOUS
 62
     7
 10
-42.02497618089069
 20
77.36376808997052
 30
0.0
 11
-65.61603997048684
 21
118.2246891781494
 31
0.0
  0
LINE
  5
C9
  8
PATTERN_FILL
  6
CONTINUOUS
 62
     7
 10
-44.15483813904359
 20
76.72267019567727
 30
0.0
 11
-67.23617801233411
 21
116.7007235629818
 31
0.0
  0
LINE
  5
CA
  8
PATTERN_FILL
  6
CONTINUOUS
 62
     7
 10
-46.39482901390573
 20
76.27232118050695
 30
0.0
 11
-68.7461871374719
 21
114.9860090686909
 31
0.0
  0
LINE
  5
CB
  8
PATTERN_FILL
  6
CONTINUOUS
 62
     7
 10
-48.75622407733954
 20
76.03225038819446
 30
0.0
 11
-70.13479207403805
 21
113.0610163515423
 31
0.0
  0
LINE
  5
CC
  8
PATTERN_FILL
  6
CONTINUOUS
 62
     7
 10
-51.25661060488972
 20
76.03291987354996
 30
0.0
 11
-71.38440554648787
 21
110.8952833567258
 31
0.0
  0
LINE
  5
CD
  8
PATTERN_FILL
  6
CONTINUOUS
 62
     7
 10
-53.92407225332857
 20
76.32297195696525
 30
0.0
 11
-72.46694389804895
 21
108.4401677638492
 31
0.0
  0
LINE
  5
CE
  8
PATTERN_FILL
  6
CONTINUOUS
 62
     7
 10
-56.80653432733186
 20
76.9854157011071
 30
0.0
 11
-73.33448182404584
 21
105.6126605102466
 31
0.0
  0
LINE
  5
CF
  8
PATTERN_FILL
  6
CONTINUOUS
 62
     7
 10
-59.99689296050786
 20
78.18115192921177
 30
0.0
 11
-73.89412319086983
 21
102.2518607726808
 31
0.0
  0
LINE
  5
D0
  8
PATTERN_FILL
  6
CONTINUOUS
 62
     7
 10
-63.72840714146611
 20
80.31419706087296
 30
0.0
 11
-73.91260900991159
 21
97.95375213155845
 31
0.0
  0
LINE
  5
D1
  8
PATTERN_FILL
  6
CONTINUOUS
 62
     7
 10
-33.74081849523412
 20
80.33569415618989
 30
0.0
 11
-33.74872963906159
 21
80.3493966592451
 31
0.0
  0
LINE
  5
D2
  8
PATTERN_FILL
  6
CONTINUOUS
 62
     7
 10
-34.51004182495836
 20
81.66802804563956
 30
0.0
 11
-58.13097432641922
 21
122.5806832603248
 31
0.0
  0
LINE
  5
D3
  8
PATTERN_FILL
  6
CONTINUOUS
 62
     7
 10
-7.290873570753547
 20
55.99232611476873
 30
0.0
 11
-4.399691705101418
 21
61.0
 31
0.0
  0
LINE
  5
D4
  8
PATTERN_FILL
  6
CONTINUOUS
 62
     7
 10
-7.973448536232695
 20
50.47994457566207
 30
0.0
 11
-1.899691705101418
 21
61.0
 31
0.0
  0
LINE
  5
D5
  8
PATTERN_FILL
  6
CONTINUOUS
 62
     7
 10
-8.656023501711843
 20
44.96756303655545
 30
0.0
 11
0.6003082948985821
 21
61.0
 31
0.0
  0
LINE
  5
D6
  8
PATTERN_FILL
  6
CONTINUOUS
 62
     7
 10
-9.338598467190991
 20
39.45518149744881
 30
0.0
 11
3.100308294898582
 21
61.0
 31
0.0
  0
LINE
  5
D7
  8
PATTERN_FILL
  6
CONTINUOUS
 62
     7
 10
-10.02117343267014
 20
33.94279995834216
 30
0.0
 11
5.600308294898582
 21
61.0
 31
0.0
  0
LINE
  5
D8
  8
PATTERN_FILL
  6
CONTINUOUS
 62
     7
 10
-10.70374839814929
 20
28.43041841923556
 30
0.0
 11
8.100308294898582
 21
61.0
 31
0.0
  0
LINE
  5
D9
  8
PATTERN_FILL
  6
CONTINUOUS
 62
     7
 10
-11.38632336362843
 20
22.91803688012893
 30
0.0
 11
10.60030829489858
 21
61.0
 31
0.0
  0
LINE
  5
DA
  8
PATTERN_FILL
  6
CONTINUOUS
 62
     7
 10
-9.416352203496785
 20
22.0
 30
0.0
 11
13.10030829489858
 21
61.00000000000001
 31
0.0
  0
LINE
  5
DB
  8
PATTERN_FILL
  6
CONTINUOUS
 62
     7
 10
-6.916352203496785
 20
22.0
 30
0.0
 11
15.60030829489858
 21
61.0
 31
0.0
  0
LINE
  5
DC
  8
PATTERN_FILL
  6
CONTINUOUS
 62
     7
 10
-4.416352203496785
 20
21.99999999999999
 30
0.0
 11
18.10030829489858
 21
61.0
 31
0.0
  0
LINE
  5
DD
  8
PATTERN_FILL
  6
CONTINUOUS
 62
     7
 10
-9.588854520680911
 20
8.710836165447255
 30
0.0
 11
-7.689854895393069
 21
11.99999999999999
 31
0.0
  0
LINE
  5
DE
  8
PATTERN_FILL
  6
CONTINUOUS
 62
     7
 10
-1.916352203496785
 20
22.0
 30
0.0
 11
20.60030829489858
 21
61.00000000000001
 31
0.0
  0
LINE
  5
DF
  8
PATTERN_FILL
  6
CONTINUOUS
 62
     7
 10
-9.1439198296747
 20
5.151358637397717
 30
0.0
 11
-5.189854895393069
 21
12.0
 31
0.0
  0
LINE
  5
E0
  8
PATTERN_FILL
  6
CONTINUOUS
 62
     7
 10
0.5836477965032145
 20
22.0
 30
0.0
 11
23.10030829489858
 21
61.0
 31
0.0
  0
LINE
  5
E1
  8
PATTERN_FILL
  6
CONTINUOUS
 62
     7
 10
-7.30865704891005
 20
4.000000000000004
 30
0.0
 11
-2.689854895393069
 21
12.0
 31
0.0
  0
LINE
  5
E2
  8
PATTERN_FILL
  6
CONTINUOUS
 62
     7
 10
3.083647796503215
 20
21.99999999999999
 30
0.0
 11
25.60030829489858
 21
61.0
 31
0.0
  0
LINE
  5
E3
  8
PATTERN_FILL
  6
CONTINUOUS
 62
     7
 10
-4.80865704891005
 20
3.999999999999993
 30
0.0
 11
-0.1898548953930685
 21
11.99999999999999
 31
0.0
  0
LINE
  5
E4
  8
PATTERN_FILL
  6
CONTINUOUS
 62
     7
 10
5.583647796503215
 20
22.0
 30
0.0
 11
28.10030829489858
 21
61.0
 31
0.0
  0
LINE
  5
E5
  8
PATTERN_FILL
  6
CONTINUOUS
 62
     7
 10
-2.30865704891005
 20
3.999999999999993
 30
0.0
 11
2.310145104606931
 21
11.99999999999999
 31
0.0
  0
LINE
  5
E6
  8
PATTERN_FILL
  6
CONTINUOUS
 62
     7
 10
8.083647796503215
 20
22.0
 30
0.0
 11
30.33964132724111
 21
60.54851156816235
 31
0.0
  0
LINE
  5
E7
  8
PATTERN_FILL
  6
CONTINUOUS
 62
     7
 10
0.1913429510899505
 20
3.999999999999993
 30
0.0
 11
4.810145104606931
 21
11.99999999999999
 31
0.0
  0
LINE
  5
E8
  8
PATTERN_FILL
  6
CONTINUOUS
 62
     7
 10
10.58364779650321
 20
21.99999999999999
 30
0.0
 11
31.75408674690038
 21
58.66827588062318
 31
0.0
  0
LINE
  5
E9
  8
PATTERN_FILL
  6
CONTINUOUS
 62
     7
 10
2.69134295108995
 20
4.0
 30
0.0
 11
7.310145104606931
 21
11.99999999999999
 31
0.0
  0
LINE
  5
EA
  8
PATTERN_FILL
  6
CONTINUOUS
 62
     7
 10
13.08364779650321
 20
22.0
 30
0.0
 11
32.36473588801084
 21
55.39582419970253
 31
0.0
  0
LINE
  5
EB
  8
PATTERN_FILL
  6
CONTINUOUS
 62
     7
 10
5.19134295108995
 20
4.0
 30
0.0
 11
9.810145104606931
 21
11.99999999999999
 31
0.0
  0
LINE
  5
EC
  8
PATTERN_FILL
  6
CONTINUOUS
 62
     7
 10
15.58364779650321
 20
22.0
 30
0.0
 11
32.80622908857981
 21
51.83038583536204
 31
0.0
  0
LINE
  5
ED
  8
PATTERN_FILL
  6
CONTINUOUS
 62
     7
 10
7.69134295108995
 20
3.999999999999993
 30
0.0
 11
12.31014510460693
 21
12.0
 31
0.0
  0
LINE
  5
EE
  8
PATTERN_FILL
  6
CONTINUOUS
 62
     7
 10
18.08364779650321
 20
22.0
 30
0.0
 11
33.2477222891489
 21
48.26494747102154
 31
0.0
  0
LINE
  5
EF
  8
PATTERN_FILL
  6
CONTINUOUS
 62
     7
 10
10.19134295108995
 20
3.999999999999996
 30
0.0
 11
14.81014510460693
 21
12.0
 31
0.0
  0
LINE
  5
F0
  8
PATTERN_FILL
  6
CONTINUOUS
 62
     7
 10
20.58364779650321
 20
22.0
 30
0.0
 11
33.68921548971787
 21
44.69950910668109
 31
0.0
  0
LINE
  5
F1
  8
PATTERN_FILL
  6
CONTINUOUS
 62
     7
 10
12.69134295108995
 20
3.999999999999996
 30
0.0
 11
17.31014510460693
 21
11.99999999999999
 31
0.0
  0
LINE
  5
F2
  8
PATTERN_FILL
  6
CONTINUOUS
 62
     7
 10
23.08364779650321
 20
22.0
 30
0.0
 11
34.13070869028684
 21
41.13407074234058
 31
0.0
  0
LINE
  5
F3
  8
PATTERN_FILL
  6
CONTINUOUS
 62
     7
 10
15.19134295108995
 20
3.999999999999993
 30
0.0
 11
19.81014510460693
 21
11.99999999999999
 31
0.0
  0
LINE
  5
F4
  8
PATTERN_FILL
  6
CONTINUOUS
 62
     7
 10
25.58364779650321
 20
22.0
 30
0.0
 11
34.57220189085592
 21
37.56863237800012
 31
0.0
  0
LINE
  5
F5
  8
PATTERN_FILL
  6
CONTINUOUS
 62
     7
 10
17.69134295108995
 20
4.0
 30
0.0
 11
22.31014510460693
 21
11.99999999999999
 31
0.0
  0
LINE
  5
F6
  8
PATTERN_FILL
  6
CONTINUOUS
 62
     7
 10
28.08364779650321
 20
22.0
 30
0.0
 11
35.01369509142489
 21
34.00319401365964
 31
0.0
  0
LINE
  5
F7
  8
PATTERN_FILL
  6
CONTINUOUS
 62
     7
 10
20.19134295108995
 20
3.999999999999996
 30
0.0
 11
24.81014510460693
 21
12.0
 31
0.0
  0
LINE
  5
F8
  8
PATTERN_FILL
  6
CONTINUOUS
 62
     7
 10
30.58364779650321
 20
22.0
 30
0.0
 11
35.45518829199386
 21
30.43775564931917
 31
0.0
  0
LINE
  5
F9
  8
PATTERN_FILL
  6
CONTINUOUS
 62
     7
 10
22.69134295108995
 20
4.0
 30
0.0
 11
27.31014510460693
 21
11.99999999999999
 31
0.0
  0
LINE
  5
FA
  8
PATTERN_FILL
  6
CONTINUOUS
 62
     7
 10
33.08364779650321
 20
22.0
 30
0.0
 11
35.89668149256295
 21
26.8723172849787
 31
0.0
  0
LINE
  5
FB
  8
PATTERN_FILL
  6
CONTINUOUS
 62
     7
 10
25.19134295108995
 20
3.999999999999996
 30
0.0
 11
29.81014510460693
 21
11.99999999999999
 31
0.0
  0
LINE
  5
FC
  8
PATTERN_FILL
  6
CONTINUOUS
 62
     7
 10
35.58364779650321
 20
22.0
 30
0.0
 11
36.33817469313192
 21
23.3068789206382
 31
0.0
  0
LINE
  5
FD
  8
PATTERN_FILL
  6
CONTINUOUS
 62
     7
 10
27.69134295108995
 20
4.0
 30
0.0
 11
32.31014510460693
 21
12.0
 31
0.0
  0
LINE
  5
FE
  8
PATTERN_FILL
  6
CONTINUOUS
 62
     7
 10
30.19134295108995
 20
3.999999999999996
 30
0.0
 11
34.81014510460693
 21
12.0
 31
0.0
  0
LINE
  5
FF
  8
PATTERN_FILL
  6
CONTINUOUS
 62
     7
 10
32.69134295108995
 20
3.999999999999996
 30
0.0
 11
34.36162713334249
 21
6.893017066740157
 31
0.0
  0
LINE
  5
100
  8
PATTERN_FILL
  6
CONTINUOUS
 62
     7
 10
32.45423393883561
 20
54.67305025090106
 30
0.0
 11
28.80136779804411
 21
61.0
 31
0.0
  0
LINE
  5
101
  8
PATTERN_FILL
  6
CONTINUOUS
 62
     7
 10
33.13680890431476
 20
49.16066871179443
 30
0.0
 11
26.30136779804411
 21
61.0
 31
0.0
  0
LINE
  5
102
  8
PATTERN_FILL
  6
CONTINUOUS
 62
     7
 10
33.81938386979391
 20
43.64828717268777
 30
0.0
 11
23.80136779804411
 21
61.0
 31
0.0
  0
LINE
  5
103
  8
PATTERN_FILL
  6
CONTINUOUS
 62
     7
 10
34.50195883527306
 20
38.13590563358113
 30
0.0
 11
21.30136779804411
 21
61.0
 31
0.0
  0
LINE
  5
104
  8
PATTERN_FILL
  6
CONTINUOUS
 62
     7
 10
35.18453380075221
 20
32.62352409447448
 30
0.0
 11
18.80136779804411
 21
61.0
 31
0.0
  0
LINE
  5
105
  8
PATTERN_FILL
  6
CONTINUOUS
 62
     7
 10
35.86710876623124
 20
27.11114255536785
 30
0.0
 11
16.30136779804411
 21
61.0
 31
0.0
  0
LINE
  5
106
  8
PATTERN_FILL
  6
CONTINUOUS
 62
     7
 10
36.31802829643948
 20
22.0
 30
0.0
 11
13.80136779804411
 21
61.0
 31
0.0
  0
LINE
  5
107
  8
PATTERN_FILL
  6
CONTINUOUS
 62
     7
 10
33.81802829643948
 20
21.99999999999999
 30
0.0
 11
11.30136779804411
 21
61.0
 31
0.0
  0
LINE
  5
108
  8
PATTERN_FILL
  6
CONTINUOUS
 62
     7
 10
31.31802829643948
 20
21.99999999999999
 30
0.0
 11
8.801367798044112
 21
61.0
 31
0.0
  0
LINE
  5
109
  8
PATTERN_FILL
  6
CONTINUOUS
 62
     7
 10
34.92730318660381
 20
11.41842549283052
 30
0.0
 11
34.59153098833576
 21
12.0
 31
0.0
  0
LINE
  5
10A
  8
PATTERN_FILL
  6
CONTINUOUS
 62
     7
 10
28.81802829643948
 20
22.0
 30
0.0
 11
6.301367798044112
 21
61.0
 31
0.0
  0
LINE
  5
10B
  8
PATTERN_FILL
  6
CONTINUOUS
 62
     7
 10
34.4823684955976
 20
7.85894796478102
 30
0.0
 11
32.09153098833576
 21
12.0
 31
0.0
  0
LINE
  5
10C
  8
PATTERN_FILL
  6
CONTINUOUS
 62
     7
 10
26.31802829643948
 20
22.0
 30
0.0
 11
3.801367798044112
 21
61.0
 31
0.0
  0
LINE
  5
10D
  8
PATTERN_FILL
  6
CONTINUOUS
 62
     7
 10
34.0374338045915
 20
4.299470436731479
 30
0.0
 11
29.59153098833576
 21
12.0
 31
0.0
  0
LINE
  5
10E
  8
PATTERN_FILL
  6
CONTINUOUS
 62
     7
 10
23.81802829643948
 20
21.99999999999999
 30
0.0
 11
1.301367798044112
 21
61.0
 31
0.0
  0
LINE
  5
10F
  8
PATTERN_FILL
  6
CONTINUOUS
 62
     7
 10
31.71033314185274
 20
3.999999999999996
 30
0.0
 11
27.09153098833576
 21
12.0
 31
0.0
  0
LINE
  5
110
  8
PATTERN_FILL
  6
CONTINUOUS
 62
     7
 10
21.31802829643948
 20
22.0
 30
0.0
 11
-1.198632201955888
 21
61.0
 31
0.0
  0
LINE
  5
111
  8
PATTERN_FILL
  6
CONTINUOUS
 62
     7
 10
29.21033314185274
 20
3.999999999999996
 30
0.0
 11
24.59153098833576
 21
12.0
 31
0.0
  0
LINE
  5
112
  8
PATTERN_FILL
  6
CONTINUOUS
 62
     7
 10
18.81802829643948
 20
21.99999999999999
 30
0.0
 11
-3.698632201955888
 21
61.0
 31
0.0
  0
LINE
  5
113
  8
PATTERN_FILL
  6
CONTINUOUS
 62
     7
 10
26.71033314185274
 20
3.999999999999996
 30
0.0
 11
22.09153098833576
 21
12.0
 31
0.0
  0
LINE
  5
114
  8
PATTERN_FILL
  6
CONTINUOUS
 62
     7
 10
16.31802829643948
 20
22.0
 30
0.0
 11
-5.678159931165055
 21
60.09851558305952
 31
0.0
  0
LINE
  5
115
  8
PATTERN_FILL
  6
CONTINUOUS
 62
     7
 10
24.21033314185274
 20
3.999999999999996
 30
0.0
 11
19.59153098833576
 21
12.0
 31
0.0
  0
LINE
  5
116
  8
PATTERN_FILL
  6
CONTINUOUS
 62
     7
 10
13.81802829643948
 20
22.0
 30
0.0
 11
-7.028905062123272
 21
58.10794775903328
 31
0.0
  0
LINE
  5
117
  8
PATTERN_FILL
  6
CONTINUOUS
 62
     7
 10
21.71033314185274
 20
3.999999999999996
 30
0.0
 11
17.09153098833576
 21
12.0
 31
0.0
  0
LINE
  5
118
  8
PATTERN_FILL
  6
CONTINUOUS
 62
     7
 10
11.31802829643948
 20
21.99999999999999
 30
0.0
 11
-7.470398262692242
 21
54.5425093946928
 31
0.0
  0
LINE
  5
119
  8
PATTERN_FILL
  6
CONTINUOUS
 62
     7
 10
19.21033314185274
 20
3.999999999999996
 30
0.0
 11
14.59153098833576
 21
12.0
 31
0.0
  0
LINE
  5
11A
  8
PATTERN_FILL
  6
CONTINUOUS
 62
     7
 10
8.81802829643948
 20
22.0
 30
0.0
 11
-7.911891463261327
 21
50.97707103035229
 31
0.0
  0
LINE
  5
11B
  8
PATTERN_FILL
  6
CONTINUOUS
 62
     7
 10
16.71033314185274
 20
3.999999999999996
 30
0.0
 11
12.09153098833576
 21
12.0
 31
0.0
  0
LINE
  5
11C
  8
PATTERN_FILL
  6
CONTINUOUS
 62
     7
 10
6.318028296439479
 20
21.99999999999998
 30
0.0
 11
-8.353384663830298
 21
47.4116326660118
 31
0.0
  0
LINE
  5
11D
  8
PATTERN_FILL
  6
CONTINUOUS
 62
     7
 10
14.21033314185274
 20
3.999999999999996
 30
0.0
 11
9.591530988335762
 21
12.0
 31
0.0
  0
LINE
  5
11E
  8
PATTERN_FILL
  6
CONTINUOUS
 62
     7
 10
3.818028296439479
 20
22.0
 30
0.0
 11
-8.794877864399268
 21
43.84619430167132
 31
0.0
  0
LINE
  5
11F
  8
PATTERN_FILL
  6
CONTINUOUS
 62
     7
 10
11.71033314185274
 20
3.999999999999996
 30
0.0
 11
7.091530988335762
 21
12.0
 31
0.0
  0
LINE
  5
120
  8
PATTERN_FILL
  6
CONTINUOUS
 62
     7
 10
1.318028296439479
 20
22.0
 30
0.0
 11
-9.236371064968353
 21
40.28075593733085
 31
0.0
  0
LINE
  5
121
  8
PATTERN_FILL
  6
CONTINUOUS
 62
     7
 10
9.210333141852743
 20
3.999999999999996
 30
0.0
 11
4.591530988335762
 21
12.0
 31
0.0
  0
LINE
  5
122
  8
PATTERN_FILL
  6
CONTINUOUS
 62
     7
 10
-1.181971703560521
 20
21.99999999999999
 30
0.0
 11
-9.677864265537323
 21
36.71531757299033
 31
0.0
  0
LINE
  5
123
  8
PATTERN_FILL
  6
CONTINUOUS
 62
     7
 10
6.710333141852743
 20
3.999999999999989
 30
0.0
 11
2.091530988335649
 21
12.0
 31
0.0
  0
LINE
  5
124
  8
PATTERN_FILL
  6
CONTINUOUS
 62
     7
 10
-3.681971703560521
 20
22.00000000000001
 30
0.0
 11
-10.11935746610629
 21
33.14987920864986
 31
0.0
  0
LINE
  5
125
  8
PATTERN_FILL
  6
CONTINUOUS
 62
     7
 10
4.210333141852743
 20
3.999999999999989
 30
0.0
 11
-0.4084690116643515
 21
12.0
 31
0.0
  0
LINE
  5
126
  8
PATTERN_FILL
  6
CONTINUOUS
 62
     7
 10
-6.181971703560521
 20
22.0
 30
0.0
 11
-10.56085066667538
 21
29.58444084430937
 31
0.0
  0
LINE
  5
127
  8
PATTERN_FILL
  6
CONTINUOUS
 62
     7
 10
1.710333141852743
 20
3.999999999999996
 30
0.0
 11
-2.908469011664238
 21
12.0
 31
0.0
  0
LINE
  5
128
  8
PATTERN_FILL
  6
CONTINUOUS
 62
     7
 10
-8.68197170356052
 20
22.0
 30
0.0
 11
-11.00234386724435
 21
26.01900247996888
 31
0.0
  0
LINE
  5
129
  8
PATTERN_FILL
  6
CONTINUOUS
 62
     7
 10
-0.7896668581472568
 20
3.999999999999989
 30
0.0
 11
-5.408469011664238
 21
12.0
 31
0.0
  0
LINE
  5
12A
  8
PATTERN_FILL
  6
CONTINUOUS
 62
     7
 10
-3.289666858147257
 20
3.999999999999996
 30
0.0
 11
-7.908469011664238
 21
12.0
 31
0.0
  0
LINE
  5
12B
  8
PATTERN_FILL
  6
CONTINUOUS
 62
     7
 10
-5.789666858147257
 20
3.999999999999996
 30
0.0
 11
-9.887125906768006
 21
11.09700725414379
 31
0.0
  0
LINE
  5
12C
  8
PATTERN_FILL
  6
CONTINUOUS
 62
     7
 10
-8.289666858147257
 20
3.999999999999996
 30
0.0
 11
-9.196289576417485
 21
5.570316611340193
 31
0.0
  0
LINE
  5
12D
  8
PATTERN_FILL
  6
CONTINUOUS
 62
     7
 10
55.20912642924645
 20
55.99232611476873
 30
0.0
 11
58.10030829489858
 21
61.0
 31
0.0
  0
LINE
  5
12E
  8
PATTERN_FILL
  6
CONTINUOUS
 62
     7
 10
54.5265514637673
 20
50.47994457566207
 30
0.0
 11
60.60030829489858
 21
61.0
 31
0.0
  0
LINE
  5
12F
  8
PATTERN_FILL
  6
CONTINUOUS
 62
     7
 10
53.84397649828816
 20
44.96756303655545
 30
0.0
 11
63.10030829489858
 21
61.0
 31
0.0
  0
LINE
  5
130
  8
PATTERN_FILL
  6
CONTINUOUS
 62
     7
 10
53.16140153280901
 20
39.45518149744881
 30
0.0
 11
65.60030829489858
 21
61.0
 31
0.0
  0
LINE
  5
131
  8
PATTERN_FILL
  6
CONTINUOUS
 62
     7
 10
52.47882656732986
 20
33.94279995834216
 30
0.0
 11
68.10030829489858
 21
61.0
 31
0.0
  0
LINE
  5
132
  8
PATTERN_FILL
  6
CONTINUOUS
 62
     7
 10
51.79625160185071
 20
28.43041841923556
 30
0.0
 11
70.60030829489858
 21
61.0
 31
0.0
  0
LINE
  5
133
  8
PATTERN_FILL
  6
CONTINUOUS
 62
     7
 10
51.11367663637157
 20
22.91803688012893
 30
0.0
 11
73.10030829489858
 21
61.0
 31
0.0
  0
LINE
  5
134
  8
PATTERN_FILL
  6
CONTINUOUS
 62
     7
 10
53.08364779650321
 20
22.0
 30
0.0
 11
75.60030829489858
 21
61.00000000000001
 31
0.0
  0
LINE
  5
135
  8
PATTERN_FILL
  6
CONTINUOUS
 62
     7
 10
55.58364779650321
 20
22.0
 30
0.0
 11
78.10030829489858
 21
61.0
 31
0.0
  0
LINE
  5
136
  8
PATTERN_FILL
  6
CONTINUOUS
 62
     7
 10
58.08364779650321
 20
21.99999999999999
 30
0.0
 11
80.60030829489858
 21
61.0
 31
0.0
  0
LINE
  5
137
  8
PATTERN_FILL
  6
CONTINUOUS
 62
     7
 10
52.91114547931909
 20
8.710836165447255
 30
0.0
 11
54.81014510460693
 21
11.99999999999999
 31
0.0
  0
LINE
  5
138
  8
PATTERN_FILL
  6
CONTINUOUS
 62
     7
 10
60.58364779650321
 20
22.0
 30
0.0
 11
83.10030829489858
 21
61.00000000000001
 31
0.0
  0
LINE
  5
139
  8
PATTERN_FILL
  6
CONTINUOUS
 62
     7
 10
53.3560801703253
 20
5.151358637397717
 30
0.0
 11
57.31014510460693
 21
12.0
 31
0.0
  0
LINE
  5
13A
  8
PATTERN_FILL
  6
CONTINUOUS
 62
     7
 10
63.08364779650321
 20
22.0
 30
0.0
 11
85.60030829489858
 21
61.0
 31
0.0
  0
LINE
  5
13B
  8
PATTERN_FILL
  6
CONTINUOUS
 62
     7
 10
55.19134295108995
 20
4.000000000000004
 30
0.0
 11
59.81014510460693
 21
12.0
 31
0.0
  0
LINE
  5
13C
  8
PATTERN_FILL
  6
CONTINUOUS
 62
     7
 10
65.58364779650321
 20
21.99999999999999
 30
0.0
 11
88.10030829489858
 21
61.0
 31
0.0
  0
LINE
  5
13D
  8
PATTERN_FILL
  6
CONTINUOUS
 62
     7
 10
57.69134295108995
 20
3.999999999999993
 30
0.0
 11
62.31014510460693
 21
11.99999999999999
 31
0.0
  0
LINE
  5
13E
  8
PATTERN_FILL
  6
CONTINUOUS
 62
     7
 10
68.08364779650321
 20
22.0
 30
0.0
 11
90.60030829489858
 21
61.0
 31
0.0
  0
LINE
  5
13F
  8
PATTERN_FILL
  6
CONTINUOUS
 62
     7
 10
60.19134295108995
 20
3.999999999999993
 30
0.0
 11
64.81014510460693
 21
11.99999999999999
 31
0.0
  0
LINE
  5
140
  8
PATTERN_FILL
  6
CONTINUOUS
 62
     7
 10
70.58364779650321
 20
22.0
 30
0.0
 11
92.83964132724111
 21
60.54851156816235
 31
0.0
  0
LINE
  5
141
  8
PATTERN_FILL
  6
CONTINUOUS
 62
     7
 10
62.69134295108995
 20
3.999999999999993
 30
0.0
 11
67.31014510460693
 21
11.99999999999999
 31
0.0
  0
LINE
  5
142
  8
PATTERN_FILL
  6
CONTINUOUS
 62
     7
 10
73.08364779650321
 20
21.99999999999999
 30
0.0
 11
94.25408674690038
 21
58.66827588062318
 31
0.0
  0
LINE
  5
143
  8
PATTERN_FILL
  6
CONTINUOUS
 62
     7
 10
65.19134295108995
 20
4.0
 30
0.0
 11
69.81014510460693
 21
11.99999999999999
 31
0.0
  0
LINE
  5
144
  8
PATTERN_FILL
  6
CONTINUOUS
 62
     7
 10
75.58364779650321
 20
22.0
 30
0.0
 11
94.86473588801084
 21
55.39582419970253
 31
0.0
  0
LINE
  5
145
  8
PATTERN_FILL
  6
CONTINUOUS
 62
     7
 10
67.69134295108995
 20
4.0
 30
0.0
 11
72.31014510460693
 21
11.99999999999999
 31
0.0
  0
LINE
  5
146
  8
PATTERN_FILL
  6
CONTINUOUS
 62
     7
 10
78.08364779650321
 20
22.0
 30
0.0
 11
95.30622908857981
 21
51.83038583536204
 31
0.0
  0
LINE
  5
147
  8
PATTERN_FILL
  6
CONTINUOUS
 62
     7
 10
70.19134295108995
 20
3.999999999999993
 30
0.0
 11
74.81014510460693
 21
12.0
 31
0.0
  0
LINE
  5
148
  8
PATTERN_FILL
  6
CONTINUOUS
 62
     7
 10
80.58364779650321
 20
22.0
 30
0.0
 11
95.7477222891489
 21
48.26494747102154
 31
0.0
  0
LINE
  5
149
  8
PATTERN_FILL
  6
CONTINUOUS
 62
     7
 10
72.69134295108995
 20
3.999999999999996
 30
0.0
 11
77.31014510460693
 21
12.0
 31
0.0
  0
LINE
  5
14A
  8
PATTERN_FILL
  6
CONTINUOUS
 62
     7
 10
83.08364779650321
 20
22.0
 30
0.0
 11
96.18921548971787
 21
44.69950910668109
 31
0.0
  0
LINE
  5
14B
  8
PATTERN_FILL
  6
CONTINUOUS
 62
     7
 10
75.19134295108995
 20
3.999999999999996
 30
0.0
 11
79.81014510460693
 21
11.99999999999999
 31
0.0
  0
LINE
  5
14C
  8
PATTERN_FILL
  6
CONTINUOUS
 62
     7
 10
85.58364779650321
 20
22.0
 30
0.0
 11
96.63070869028684
 21
41.13407074234058
 31
0.0
  0
LINE
  5
14D
  8
PATTERN_FILL
  6
CONTINUOUS
 62
     7
 10
77.69134295108995
 20
3.999999999999993
 30
0.0
 11
82.31014510460693
 21
11.99999999999999
 31
0.0
  0
LINE
  5
14E
  8
PATTERN_FILL
  6
CONTINUOUS
 62
     7
 10
88.08364779650321
 20
22.0
 30
0.0
 11
97.07220189085592
 21
37.56863237800012
 31
0.0
  0
LINE
  5
14F
  8
PATTERN_FILL
  6
CONTINUOUS
 62
     7
 10
80.19134295108995
 20
4.0
 30
0.0
 11
84.81014510460693
 21
11.99999999999999
 31
0.0
  0
LINE
  5
150
  8
PATTERN_FILL
  6
CONTINUOUS
 62
     7
 10
90.58364779650321
 20
22.0
 30
0.0
 11
97.51369509142489
 21
34.00319401365964
 31
0.0
  0
LINE
  5
151
  8
PATTERN_FILL
  6
CONTINUOUS
 62
     7
 10
82.69134295108995
 20
3.999999999999996
 30
0.0
 11
87.31014510460693
 21
12.0
 31
0.0
  0
LINE
  5
152
  8
PATTERN_FILL
  6
CONTINUOUS
 62
     7
 10
93.08364779650321
 20
22.0
 30
0.0
 11
97.95518829199386
 21
30.43775564931917
 31
0.0
  0
LINE
  5
153
  8
PATTERN_FILL
  6
CONTINUOUS
 62
     7
 10
85.19134295108995
 20
4.0
 30
0.0
 11
89.81014510460693
 21
11.99999999999999
 31
0.0
  0
LINE
  5
154
  8
PATTERN_FILL
  6
CONTINUOUS
 62
     7
 10
95.58364779650321
 20
22.0
 30
0.0
 11
98.39668149256295
 21
26.8723172849787
 31
0.0
  0
LINE
  5
155
  8
PATTERN_FILL
  6
CONTINUOUS
 62
     7
 10
87.69134295108995
 20
3.999999999999996
 30
0.0
 11
92.31014510460693
 21
11.99999999999999
 31
0.0
  0
LINE
  5
156
  8
PATTERN_FILL
  6
CONTINUOUS
 62
     7
 10
98.08364779650321
 20
22.0
 30
0.0
 11
98.83817469313192
 21
23.3068789206382
 31
0.0
  0
LINE
  5
157
  8
PATTERN_FILL
  6
CONTINUOUS
 62
     7
 10
90.19134295108995
 20
4.0
 30
0.0
 11
94.81014510460693
 21
12.0
 31
0.0
  0
LINE
  5
158
  8
PATTERN_FILL
  6
CONTINUOUS
 62
     7
 10
92.69134295108995
 20
3.999999999999996
 30
0.0
 11
97.31014510460693
 21
12.0
 31
0.0
  0
LINE
  5
159
  8
PATTERN_FILL
  6
CONTINUOUS
 62
     7
 10
95.19134295108995
 20
3.999999999999996
 30
0.0
 11
96.8616271333425
 21
6.893017066740157
 31
0.0
  0
LINE
  5
15A
  8
PATTERN_FILL
  6
CONTINUOUS
 62
     7
 10
94.95423393883561
 20
54.67305025090106
 30
0.0
 11
91.30136779804411
 21
61.0
 31
0.0
  0
LINE
  5
15B
  8
PATTERN_FILL
  6
CONTINUOUS
 62
     7
 10
95.63680890431476
 20
49.16066871179443
 30
0.0
 11
88.80136779804411
 21
61.0
 31
0.0
  0
LINE
  5
15C
  8
PATTERN_FILL
  6
CONTINUOUS
 62
     7
 10
96.31938386979391
 20
43.64828717268777
 30
0.0
 11
86.30136779804411
 21
61.0
 31
0.0
  0
LINE
  5
15D
  8
PATTERN_FILL
  6
CONTINUOUS
 62
     7
 10
97.00195883527306
 20
38.13590563358113
 30
0.0
 11
83.80136779804411
 21
61.0
 31
0.0
  0
LINE
  5
15E
  8
PATTERN_FILL
  6
CONTINUOUS
 62
     7
 10
97.6845338007522
 20
32.62352409447448
 30
0.0
 11
81.30136779804411
 21
61.0
 31
0.0
  0
LINE
  5
15F
  8
PATTERN_FILL
  6
CONTINUOUS
 62
     7
 10
98.36710876623124
 20
27.11114255536785
 30
0.0
 11
78.80136779804411
 21
61.0
 31
0.0
  0
LINE
  5
160
  8
PATTERN_FILL
  6
CONTINUOUS
 62
     7
 10
98.81802829643948
 20
22.0
 30
0.0
 11
76.30136779804411
 21
61.0
 31
0.0
  0
LINE
  5
161
  8
PATTERN_FILL
  6
CONTINUOUS
 62
     7
 10
96.31802829643948
 20
21.99999999999999
 30
0.0
 11
73.80136779804411
 21
61.0
 31
0.0
  0
LINE
  5
162
  8
PATTERN_FILL
  6
CONTINUOUS
 62
     7
 10
93.81802829643948
 20
21.99999999999999
 30
0.0
 11
71.30136779804411
 21
61.0
 31
0.0
  0
LINE
  5
163
  8
PATTERN_FILL
  6
CONTINUOUS
 62
     7
 10
97.42730318660381
 20
11.41842549283052
 30
0.0
 11
97.09153098833576
 21
12.0
 31
0.0
  0
LINE
  5
164
  8
PATTERN_FILL
  6
CONTINUOUS
 62
     7
 10
91.31802829643948
 20
22.0
 30
0.0
 11
68.80136779804411
 21
61.0
 31
0.0
  0
LINE
  5
165
  8
PATTERN_FILL
  6
CONTINUOUS
 62
     7
 10
96.9823684955976
 20
7.85894796478102
 30
0.0
 11
94.59153098833576
 21
12.0
 31
0.0
  0
LINE
  5
166
  8
PATTERN_FILL
  6
CONTINUOUS
 62
     7
 10
88.81802829643948
 20
22.0
 30
0.0
 11
66.30136779804411
 21
61.0
 31
0.0
  0
LINE
  5
167
  8
PATTERN_FILL
  6
CONTINUOUS
 62
     7
 10
96.5374338045915
 20
4.299470436731479
 30
0.0
 11
92.09153098833576
 21
12.0
 31
0.0
  0
LINE
  5
168
  8
PATTERN_FILL
  6
CONTINUOUS
 62
     7
 10
86.31802829643948
 20
21.99999999999999
 30
0.0
 11
63.80136779804411
 21
61.0
 31
0.0
  0
LINE
  5
169
  8
PATTERN_FILL
  6
CONTINUOUS
 62
     7
 10
94.21033314185274
 20
3.999999999999996
 30
0.0
 11
89.59153098833576
 21
12.0
 31
0.0
  0
LINE
  5
16A
  8
PATTERN_FILL
  6
CONTINUOUS
 62
     7
 10
83.81802829643948
 20
22.0
 30
0.0
 11
61.30136779804411
 21
61.0
 31
0.0
  0
LINE
  5
16B
  8
PATTERN_FILL
  6
CONTINUOUS
 62
     7
 10
91.71033314185274
 20
3.999999999999996
 30
0.0
 11
87.09153098833576
 21
12.0
 31
0.0
  0
LINE
  5
16C
  8
PATTERN_FILL
  6
CONTINUOUS
 62
     7
 10
81.31802829643948
 20
21.99999999999999
 30
0.0
 11
58.80136779804411
 21
61.0
 31
0.0
  0
LINE
  5
16D
  8
PATTERN_FILL
  6
CONTINUOUS
 62
     7
 10
89.21033314185274
 20
3.999999999999996
 30
0.0
 11
84.59153098833576
 21
12.0
 31
0.0
  0
LINE
  5
16E
  8
PATTERN_FILL
  6
CONTINUOUS
 62
     7
 10
78.81802829643948
 20
22.0
 30
0.0
 11
56.82184006883494
 21
60.09851558305952
 31
0.0
  0
LINE
  5
16F
  8
PATTERN_FILL
  6
CONTINUOUS
 62
     7
 10
86.71033314185274
 20
3.999999999999996
 30
0.0
 11
82.09153098833576
 21
12.0
 31
0.0
  0
LINE
  5
170
  8
PATTERN_FILL
  6
CONTINUOUS
 62
     7
 10
76.31802829643948
 20
22.0
 30
0.0
 11
55.47109493787673
 21
58.10794775903328
 31
0.0
  0
LINE
  5
171
  8
PATTERN_FILL
  6
CONTINUOUS
 62
     7
 10
84.21033314185274
 20
3.999999999999996
 30
0.0
 11
79.59153098833576
 21
12.0
 31
0.0
  0
LINE
  5
172
  8
PATTERN_FILL
  6
CONTINUOUS
 62
     7
 10
73.81802829643948
 20
21.99999999999999
 30
0.0
 11
55.02960173730776
 21
54.5425093946928
 31
0.0
  0
LINE
  5
173
  8
PATTERN_FILL
  6
CONTINUOUS
 62
     7
 10
81.71033314185274
 20
3.999999999999996
 30
0.0
 11
77.09153098833576
 21
12.0
 31
0.0
  0
LINE
  5
174
  8
PATTERN_FILL
  6
CONTINUOUS
 62
     7
 10
71.31802829643948
 20
22.0
 30
0.0
 11
54.58810853673867
 21
50.97707103035229
 31
0.0
  0
LINE
  5
175
  8
PATTERN_FILL
  6
CONTINUOUS
 62
     7
 10
79.21033314185274
 20
3.999999999999996
 30
0.0
 11
74.59153098833576
 21
12.0
 31
0.0
  0
LINE
  5
176
  8
PATTERN_FILL
  6
CONTINUOUS
 62
     7
 10
68.81802829643948
 20
21.99999999999998
 30
0.0
 11
54.1466153361697
 21
47.4116326660118
 31
0.0
  0
LINE
  5
177
  8
PATTERN_FILL
  6
CONTINUOUS
 62
     7
 10
76.71033314185274
 20
3.999999999999996
 30
0.0
 11
72.09153098833576
 21
12.0
 31
0.0
  0
LINE
  5
178
  8
PATTERN_FILL
  6
CONTINUOUS
 62
     7
 10
66.31802829643948
 20
22.0
 30
0.0
 11
53.70512213560073
 21
43.84619430167132
 31
0.0
  0
LINE
  5
179
  8
PATTERN_FILL
  6
CONTINUOUS
 62
     7
 10
74.21033314185274
 20
3.999999999999996
 30
0.0
 11
69.59153098833576
 21
12.0
 31
0.0
  0
LINE
  5
17A
  8
PATTERN_FILL
  6
CONTINUOUS
 62
     7
 10
63.81802829643948
 20
22.0
 30
0.0
 11
53.26362893503165
 21
40.28075593733085
 31
0.0
  0
LINE
  5
17B
  8
PATTERN_FILL
  6
CONTINUOUS
 62
     7
 10
71.71033314185274
 20
3.999999999999996
 30
0.0
 11
67.09153098833576
 21
12.0
 31
0.0
  0
LINE
  5
17C
  8
PATTERN_FILL
  6
CONTINUOUS
 62
     7
 10
61.31802829643948
 20
21.99999999999999
 30
0.0
 11
52.82213573446268
 21
36.71531757299033
 31
0.0
  0
LINE
  5
17D
  8
PATTERN_FILL
  6
CONTINUOUS
 62
     7
 10
69.21033314185274
 20
3.999999999999989
 30
0.0
 11
64.59153098833565
 21
12.0
 31
0.0
  0
LINE
  5
17E
  8
PATTERN_FILL
  6
CONTINUOUS
 62
     7
 10
58.81802829643948
 20
22.00000000000001
 30
0.0
 11
52.38064253389371
 21
33.14987920864986
 31
0.0
  0
LINE
  5
17F
  8
PATTERN_FILL
  6
CONTINUOUS
 62
     7
 10
66.71033314185274
 20
3.999999999999989
 30
0.0
 11
62.09153098833565
 21
12.0
 31
0.0
  0
LINE
  5
180
  8
PATTERN_FILL
  6
CONTINUOUS
 62
     7
 10
56.31802829643948
 20
22.0
 30
0.0
 11
51.93914933332462
 21
29.58444084430937
 31
0.0
  0
LINE
  5
181
  8
PATTERN_FILL
  6
CONTINUOUS
 62
     7
 10
64.21033314185274
 20
3.999999999999996
 30
0.0
 11
59.59153098833576
 21
12.0
 31
0.0
  0
LINE
  5
182
  8
PATTERN_FILL
  6
CONTINUOUS
 62
     7
 10
53.81802829643948
 20
22.0
 30
0.0
 11
51.49765613275565
 21
26.01900247996888
 31
0.0
  0
LINE
  5
183
  8
PATTERN_FILL
  6
CONTINUOUS
 62
     7
 10
61.71033314185274
 20
3.999999999999989
 30
0.0
 11
57.09153098833576
 21
12.0
 31
0.0
  0
LINE
  5
184
  8
PATTERN_FILL
  6
CONTINUOUS
 62
     7
 10
51.31802829643948
 20
21.99999999999999
 30
0.0
 11
51.05616293218668
 21
22.45356411562842
 31
0.0
  0
LINE
  5
185
  8
PATTERN_FILL
  6
CONTINUOUS
 62
     7
 10
59.21033314185274
 20
3.999999999999996
 30
0.0
 11
54.59153098833576
 21
12.0
 31
0.0
  0
LINE
  5
186
  8
PATTERN_FILL
  6
CONTINUOUS
 62
     7
 10
56.71033314185274
 20
3.999999999999996
 30
0.0
 11
52.61287409323199
 21
11.09700725414379
 31
0.0
  0
LINE
  5
187
  8
PATTERN_FILL
  6
CONTINUOUS
 62
     7
 10
54.21033314185274
 20
3.999999999999996
 30
0.0
 11
53.30371042358252
 21
5.570316611340193
 31
0.0
  0
LINE
  5
188
  8
SPEC
  6
CONTINUOUS
 62
     7
 10
-164.9999999999999
 20
243.5318150000001
 30
0.0
 11
130.0000000000001
 21
243.5318150000001
 31
0.0
  0
LINE
  5
189
  8
SPEC
  6
CONTINUOUS
 62
     7
 10
-164.9999999999999
 20
236.0318150000001
 30
0.0
 11
130.0000000000001
 21
236.0318150000001
 31
0.0
  0
LINE
  5
18A
  8
SPEC
  6
CONTINUOUS
 62
     7
 10
-164.9999999999999
 20
206.0318150000001
 30
0.0
 11
130.0000000000001
 21
206.0318150000001
 31
0.0
  0
LINE
  5
18B
  8
SPEC
  6
CONTINUOUS
 62
     7
 10
-164.9999999999999
 20
213.5318150000001
 30
0.0
 11
130.0000000000001
 21
213.5318150000001
 31
0.0
  0
LINE
  5
18C
  8
SPEC
  6
CONTINUOUS
 62
     7
 10
-164.9999999999999
 20
221.0318150000001
 30
0.0
 11
130.0000000000001
 21
221.0318150000001
 31
0.0
  0
LINE
  5
18D
  8
SPEC
  6
CONTINUOUS
 62
     7
 10
-164.9999999999999
 20
191.0318150000001
 30
0.0
 11
130.0000000000001
 21
191.0318150000001
 31
0.0
  0
LINE
  5
18E
  8
SPEC
  6
CONTINUOUS
 62
     7
 10
-164.9999999999999
 20
198.5318150000001
 30
0.0
 11
130.0000000000001
 21
198.5318150000001
 31
0.0
  0
LINE
  5
18F
  8
SPEC
  6
CONTINUOUS
 62
     7
 10
-164.9999999999999
 20
228.5318150000001
 30
0.0
 11
130.0000000000001
 21
228.5318150000001
 31
0.0
  0
TEXT
  5
190
  8
SPEC
 62
     7
 10
-98.41362771797691
 20
237.8744410274334
 30
0.0
 40
3.8006225
  1
ダイナミック型
 41
0.7
 11
-98.41362771797691
 21
241.6750635274334
 31
0.0
 73
     3
  0
LINE
  5
191
  8
SPEC
  6
CONTINUOUS
 62
     7
 10
-164.9999999999999
 20
243.5318150000001
 30
0.0
 11
-164.9999999999999
 21
168.5318150000001
 31
0.0
  0
TEXT
  5
192
  8
SPEC
 62
     7
 10
-162.4999999999999
 20
246.3183550000001
 30
0.0
 40
4.8865234375
  1
仕様
 41
0.7
 11
-162.4999999999999
 21
251.2048784375001
 31
0.0
 73
     3
  0
LINE
  5
193
  8
SPEC
  6
CONTINUOUS
 62
     7
 10
-99.99999999999994
 20
243.5318150000001
 30
0.0
 11
-99.99999999999994
 21
168.5318150000001
 31
0.0
  0
LINE
  5
194
  8
SPEC
  6
CONTINUOUS
 62
     7
 10
130.0000000000001
 20
243.5318150000001
 30
0.0
 11
130.0000000000001
 21
168.5318150000001
 31
0.0
  0
TEXT
  5
195
  8
SPEC
 62
     7
 10
-162.981436081511
 20
207.8651901205784
 30
0.0
 40
3.8006225
  1
最大音圧レベル
 41
0.7
 11
-162.981436081511
 21
211.6658126205784
 31
0.0
 73
     3
  0
TEXT
  5
196
  8
SPEC
 62
     7
 10
-163.163371265873
 20
237.9673158280799
 30
0.0
 40
3.8006225
  1
形式
 41
0.7
 11
-163.163371265873
 21
241.7679383280799
 31
0.0
 73
     3
  0
TEXT
  5
197
  8
SPEC
 62
     7
 10
-163.5628413077555
 20
193.0006932242975
 30
0.0
 40
3.800629340277778
  1
端子
 41
0.7
 11
-163.5628413077555
 21
196.8013225645752
 31
0.0
 73
     3
  0
TEXT
  5
198
  8
SPEC
 62
     7
 10
-163.2730270084458
 20
215.3399853006796
 30
0.0
 40
3.8006225
  1
開回路感度
 41
0.7
 11
-163.2730270084458
 21
219.1406078006796
 31
0.0
 73
     3
  0
TEXT
  5
199
  8
SPEC
 62
     7
 10
-163.3091099294257
 20
200.3712872817729
 30
0.0
 40
3.8006225
  1
インピーダンス
 41
0.7
 11
-163.3091099294257
 21
204.1719097817729
 31
0.0
 73
     3
  0
TEXT
  5
19A
  8
SPEC
 62
     7
 10
-163.202866812874
 20
230.4819693765324
 30
0.0
 40
3.8006225
  1
指向性
 41
0.7
 11
-163.202866812874
 21
234.2825918765324
 31
0.0
 73
     3
  0
TEXT
  5
19B
  8
SPEC
 62
     7
 10
-163.090286778627
 20
222.9733689379099
 30
0.0
 40
3.8006225
  1
周波数特性
 41
0.7
 11
-163.090286778627
 21
226.7739914379099
 31
0.0
 73
     3
  0
TEXT
  5
19C
  8
SPEC
 62
     7
 10
-98.25290447677958
 20
207.8721805838984
 30
0.0
 40
3.8006225
  1
156dB SPL(THD3%%%)
 41
0.7
 11
-98.25290447677958
 21
211.6728030838984
 31
0.0
 73
     3
  0
TEXT
  5
19D
  8
SPEC
 62
     7
 10
-97.98871521822457
 20
192.8189429817754
 30
0.0
 40
3.8006225
  1
XLR(3P)
 41
0.7
 11
-97.98871521822457
 21
196.6195654817754
 31
0.0
 73
     3
  0
TEXT
  5
19E
  8
SPEC
 62
     7
 10
-97.8818221297102
 20
215.3430992091267
 30
0.0
 40
3.8006225
  1
-52dBV re 1V/Pa
 41
0.7
 11
-97.8818221297102
 21
219.1437217091267
 31
0.0
 73
     3
  0
TEXT
  5
19F
  8
SPEC
 62
     7
 10
-98.04128656966094
 20
200.3173131244063
 30
0.0
 40
3.8006225
  1
600Ω以下
 41
0.7
 11
-98.04128656966094
 21
204.1179356244063
 31
0.0
 73
     3
  0
TEXT
  5
1A0
  8
SPEC
 62
     7
 10
-98.04053467163129
 20
222.8202786378249
 30
0.0
 40
3.8006225
  1
70Hz～20kHz
 41
0.7
 11
-98.04053467163129
 21
226.6209011378249
 31
0.0
 73
     3
  0
TEXT
  5
1A1
  8
SPEC
 62
     7
 10
-98.14684489054372
 20
230.1076582000001
 30
0.0
 40
3.8006225
  1
スーパーカーディオイド
 41
0.7
 11
-98.14684489054372
 21
233.9082807000001
 31
0.0
 73
     3
  0
LINE
  5
1A2
  8
SPEC
  6
CONTINUOUS
 62
     7
 10
-164.9999999999999
 20
183.5318150000001
 30
0.0
 11
130.0000000000001
 21
183.5318150000001
 31
0.0
  0
LINE
  5
1A3
  8
SPEC
  6
CONTINUOUS
 62
     7
 10
-164.9999999999999
 20
176.0318150000001
 30
0.0
 11
130.0000000000001
 21
176.0318150000001
 31
0.0
  0
TEXT
  5
1A4
  8
SPEC
 62
     7
 10
-98.83505264418642
 20
185.3420695513972
 30
0.0
 40
3.800629340277778
  1
51×186mm
 41
0.7
 11
-98.83505264418642
 21
189.142698891675
 31
0.0
 73
     3
  0
TEXT
  5
1A5
  8
SPEC
 62
     7
 10
-98.09636525846707
 20
177.9797649308945
 30
0.0
 40
3.800629340277778
  1
330g
 41
0.7
 11
-98.09636525846707
 21
181.7803942711723
 31
0.0
 73
     3
  0
TEXT
  5
1A6
  8
SPEC
 62
     7
 10
-163.0446291053166
 20
170.7508262157845
 30
0.0
 40
3.800629340277778
  1
付属品
 41
0.7
 11
-163.0446291053166
 21
174.5514555560623
 31
0.0
 73
     3
  0
TEXT
  5
1A7
  8
SPEC
 62
     7
 10
-98.29295649712117
 20
170.7003627752069
 30
0.0
 40
3.800629340277778
  1
マイクホルダー,マイクポーチ
 41
0.7
 11
-98.29295649712117
 21
174.5009921154847
 31
0.0
 73
     3
  0
LINE
  5
1A8
  8
SPEC
  6
CONTINUOUS
 62
     7
 10
-164.9999999999999
 20
168.5318150000001
 30
0.0
 11
130.0000000000001
 21
168.5318150000001
 31
0.0
  0
TEXT
  5
1A9
  8
SPEC
 62
     7
 10
-163.2451421548547
 20
185.6157636055424
 30
0.0
 40
3.800629340277778
  1
寸法(φ×D)
 41
0.7
 11
-163.2451421548547
 21
189.4163929458201
 31
0.0
 73
     3
  0
TEXT
  5
1AA
  8
SPEC
 62
     7
 10
-163.1388888888888
 20
178.0914825668173
 30
0.0
 40
3.800629340277778
  1
質量
 41
0.7
 11
-163.1388888888888
 21
181.8921119070951
 31
0.0
 73
     3
  0
TEXT
  5
1AB
  8
DIMNSIONS
 62
     7
 10
-39.99999999999999
 20
-231.9292049999999
 30
0.0
 40
4.8865234375
  1
(単位：mm)
 41
0.7
 11
-39.99999999999999
 21
-227.0426815624999
 31
0.0
 73
     3
  0
LINE
  5
1AC
  8
DIMNSIONS
  6
CONTINUOUS
 62
     7
 10
-28.13393039433012
 20
86.88035823659807
 30
0.0
 11
-18.75
 21
81.25
 31
0.0
  0
LINE
  5
1AD
  8
DIMNSIONS
  6
CONTINUOUS
 62
     7
 10
-28.13393039433012
 20
86.88035823659807
 30
0.0
 11
-24.13417453495512
 21
85.8086268841569
 31
0.0
  0
LINE
  5
1AE
  8
DIMNSIONS
  6
CONTINUOUS
 62
     7
 10
-28.13393039433012
 20
86.88035823659807
 30
0.0
 11
-25.20590588739631
 21
83.95233372966425
 31
0.0
  0
LINE
  5
1AF
  8
DIMNSIONS
  6
CONTINUOUS
 62
     7
 10
-18.75
 20
81.25
 30
0.0
 11
-14.75
 21
81.25
 31
0.0
  0
TEXT
  5
1B0
  8
DIMNSIONS
 62
     7
 10
-14.75
 20
78.71000000000001
 30
0.0
 40
5.429470486111112
  1
φ51.0
 41
0.7
 11
-14.75
 21
84.13947048611112
 31
0.0
 73
     3
  0
LINE
  5
1B1
  8
DIMNSIONS
  6
CONTINUOUS
 62
     7
 10
-40.88383949574157
 20
-169.9133742425834
 30
0.0
 11
-25.0
 21
-182.8303085743181
 31
0.0
  0
LINE
  5
1B2
  8
DIMNSIONS
  6
CONTINUOUS
 62
     7
 10
-40.88383949574157
 20
-169.9133742425834
 30
0.0
 11
-37.10098298899577
 21
-171.5976104717926
 31
0.0
  0
LINE
  5
1B3
  8
DIMNSIONS
  6
CONTINUOUS
 62
     7
 10
-40.88383949574157
 20
-169.9133742425834
 30
0.0
 11
-38.44990777663309
 21
-173.2633938564256
 31
0.0
  0
LINE
  5
1B4
  8
DIMNSIONS
  6
CONTINUOUS
 62
     7
 10
-25.0
 20
-182.8303085743181
 30
0.0
 11
-21.0
 21
-182.8303085743181
 31
0.0
  0
TEXT
  5
1B5
  8
DIMNSIONS
 62
     7
 10
-21.0
 20
-185.3703085743181
 30
0.0
 40
5.429470486111112
  1
φ23.5
 41
0.7
 11
-21.0
 21
-179.940838088207
 31
0.0
 73
     3
  0
LINE
  5
1B6
  8
DIMNSIONS
  6
CONTINUOUS
 62
     7
 10
-61.4
 20
-125.0
 30
0.0
 11
-89.5
 21
-125.0
 31
0.0
  0
LINE
  5
1B7
  8
DIMNSIONS
  6
CONTINUOUS
 62
     7
 10
-69.9
 20
61.0
 30
0.0
 11
-89.5
 21
61.0
 31
0.0
  0
LINE
  5
1B8
  8
DIMNSIONS
  6
CONTINUOUS
 62
     7
 10
-87.5
 20
-125.0
 30
0.0
 11
-87.5
 21
61.0
 31
0.0
  0
LINE
  5
1B9
  8
DIMNSIONS
  6
CONTINUOUS
 62
     7
 10
-87.5
 20
-125.0
 30
0.0
 11
-88.57173135244118
 21
-121.000244140625
 31
0.0
  0
LINE
  5
1BA
  8
DIMNSIONS
  6
CONTINUOUS
 62
     7
 10
-87.5
 20
-125.0
 30
0.0
 11
-86.42826864755882
 21
-121.000244140625
 31
0.0
  0
LINE
  5
1BB
  8
DIMNSIONS
  6
CONTINUOUS
 62
     7
 10
-87.5
 20
61.0
 30
0.0
 11
-86.42826864755882
 21
57.000244140625
 31
0.0
  0
LINE
  5
1BC
  8
DIMNSIONS
  6
CONTINUOUS
 62
     7
 10
-87.5
 20
61.0
 30
0.0
 11
-88.57173135244118
 21
57.000244140625
 31
0.0
  0
TEXT
  5
1BD
  8
DIMNSIONS
 62
     7
 10
-89.48777777777778
 20
-37.29166666666666
 30
0.0
 40
5.429470486111112
  1
186
 50
90.0
 41
0.7
 11
-94.9172482638889
 21
-37.29166666666666
 31
0.0
 73
     3
  0
LINE
  5
1BE
  8
DIMNSIONS
  6
CONTINUOUS
 62
     7
 10
-61.4
 20
-125.0
 30
0.0
 11
-77.0
 21
-125.0
 31
0.0
  0
LINE
  5
1BF
  8
DIMNSIONS
  6
CONTINUOUS
 62
     7
 10
-67.4
 20
-17.0
 30
0.0
 11
-77.0
 21
-17.0
 31
0.0
  0
LINE
  5
1C0
  8
DIMNSIONS
  6
CONTINUOUS
 62
     7
 10
-75.0
 20
-125.0
 30
0.0
 11
-75.0
 21
-17.0
 31
0.0
  0
LINE
  5
1C1
  8
DIMNSIONS
  6
CONTINUOUS
 62
     7
 10
-75.0
 20
-125.0
 30
0.0
 11
-76.07173135244118
 21
-121.000244140625
 31
0.0
  0
LINE
  5
1C2
  8
DIMNSIONS
  6
CONTINUOUS
 62
     7
 10
-75.0
 20
-125.0
 30
0.0
 11
-73.92826864755882
 21
-121.000244140625
 31
0.0
  0
LINE
  5
1C3
  8
DIMNSIONS
  6
CONTINUOUS
 62
     7
 10
-75.0
 20
-17.0
 30
0.0
 11
-73.92826864755882
 21
-20.999755859375
 31
0.0
  0
LINE
  5
1C4
  8
DIMNSIONS
  6
CONTINUOUS
 62
     7
 10
-75.0
 20
-17.0
 30
0.0
 11
-76.07173135244118
 21
-20.999755859375
 31
0.0
  0
TEXT
  5
1C5
  8
DIMNSIONS
 62
     7
 10
-76.98777777777778
 20
-76.29166666666666
 30
0.0
 40
5.429470486111112
  1
108
 50
90.0
 41
0.7
 11
-82.4172482638889
 21
-76.29166666666666
 31
0.0
 73
     3
  0
TEXT
  5
1C6
  8
DATA
 62
     7
 10
-176.0
 20
-240.7156294444444
 30
0.0
 40
3.800629340277778
  1
※仕様及び外観は予告なく変更されることがあります。
 41
0.7
 11
-176.0
 21
-236.9150001041666
 31
0.0
 73
     3
  0
TEXT
  5
1C7
  8
DATA
 62
     7
 10
-176.0
 20
-245.6545183333333
 30
0.0
 40
3.800629340277778
  1
　また、同一商品でも若干の個体差があることがあります。ご了承ください。
 41
0.7
 11
-176.0
 21
-241.8538889930555
 31
0.0
 73
     3
  0
TEXT
  5
1C8
  8
DATA
 62
     7
 10
99.99999999999997
 20
-219.7064049999999
 30
0.0
 40
4.8865234375
  1
AKG
 41
0.7
 11
99.99999999999997
 21
-214.8198815624999
 31
0.0
 73
     3
  0
TEXT
  5
1C9
  8
DATA
 62
     7
 10
94.99999999999997
 20
-226.914315
 30
0.0
 40
3.800629340277778
  1
ハンドヘルド型マイクロホン
 41
0.7
 11
94.99999999999997
 21
-223.1136856597222
 31
0.0
 73
     3
  0
LINE
  5
1CA
  8
DATA
  6
CONTINUOUS
 62
     7
 10
-59.0
 20
-125.0
 30
0.0
 11
-61.75
 21
-122.0
 31
0.0
  0
LINE
  5
1CB
  8
DATA
  6
CONTINUOUS
 62
     7
 10
-41.0
 20
-125.0
 30
0.0
 11
-38.25
 21
-122.0
 31
0.0
  0
LINE
  5
1CC
  8
DATA
  6
CONTINUOUS
 62
     7
 10
-59.0
 20
-125.0
 30
0.0
 11
-41.0
 21
-125.0
 31
0.0
  0
LINE
  5
1CD
  8
DATA
  6
CONTINUOUS
 62
     7
 10
-61.75
 20
-122.0
 30
0.0
 11
-65.0
 21
-17.0
 31
0.0
  0
LINE
  5
1CE
  8
DATA
  6
CONTINUOUS
 62
     7
 10
-38.25
 20
-122.0
 30
0.0
 11
-35.0
 21
-17.0
 31
0.0
  0
LINE
  5
1CF
  8
DATA
  6
CONTINUOUS
 62
     7
 10
-65.0
 20
-17.0
 30
0.0
 11
-69.69
 21
-3.600000000000005
 31
0.0
  0
LINE
  5
1D0
  8
DATA
  6
CONTINUOUS
 62
     7
 10
-35.0
 20
-17.0
 30
0.0
 11
-30.31
 21
-3.600000000000003
 31
0.0
  0
LINE
  5
1D1
  8
DATA
  6
CONTINUOUS
 62
     7
 10
-65.0
 20
-17.0
 30
0.0
 11
-35.0
 21
-17.0
 31
0.0
  0
LINE
  5
1D2
  8
DATA
  6
CONTINUOUS
 62
     7
 10
-61.75
 20
-122.0
 30
0.0
 11
-38.25
 21
-122.0
 31
0.0
  0
TEXT
  5
1D3
  8
DATA
 62
     7
 10
-52.57469144000567
 20
-116.5589153577584
 30
0.0
 40
3.800629340277778
  1
D5
 41
0.7
 11
-52.57469144000567
 21
-112.7582860174806
 31
0.0
 73
     3
  0
CIRCLE
  5
1D4
  8
DATA
  6
CONTINUOUS
 62
     7
 10
-50.0
 20
-162.5
 30
0.0
 40
25.5
  0
ARC
  5
1D5
  8
DATA
  6
CONTINUOUS
 62
     7
 10
-50.0
 20
-162.5
 30
0.0
 40
8.999999999999973
 50
232.2839103945659
 51
219.5344945789209
  0
CIRCLE
  5
1D6
  8
DATA
  6
CONTINUOUS
 62
     7
 10
-50.0
 20
-162.5
 30
0.0
 40
11.75
  0
CIRCLE
  5
1D7
  8
DATA
  6
CONTINUOUS
 62
     7
 10
-50.0
 20
-158.4
 30
0.0
 40
1.175000000000011
  0
CIRCLE
  5
1D8
  8
DATA
  6
CONTINUOUS
 62
     7
 10
-54.10000000000002
 20
-161.9944776699018
 30
0.0
 40
1.175000000000011
  0
CIRCLE
  5
1D9
  8
DATA
  6
CONTINUOUS
 62
     7
 10
-45.89999999999998
 20
-161.9944776699018
 30
0.0
 40
1.174999999999955
  0
ARC
  5
1DA
  8
DATA
  6
CONTINUOUS
 62
     7
 10
-56.25
 20
-168.9515728053371
 30
0.0
 40
0.9999999999999724
 50
133.723071001949
 51
318.0953339715361
  0
CIRCLE
  5
1DB
  8
DATA
  6
CONTINUOUS
 62
     7
 10
-50.0
 20
-36.0
 30
0.0
 40
9.0
  0
LINE
  5
1DC
  8
DATA
  6
CONTINUOUS
 62
     7
 10
3.5
 20
-125.0
 30
0.0
 11
0.75
 21
-122.0
 31
0.0
  0
LINE
  5
1DD
  8
DATA
  6
CONTINUOUS
 62
     7
 10
21.5
 20
-125.0
 30
0.0
 11
24.25
 21
-122.0
 31
0.0
  0
LINE
  5
1DE
  8
DATA
  6
CONTINUOUS
 62
     7
 10
3.5
 20
-125.0
 30
0.0
 11
21.5
 21
-125.0
 31
0.0
  0
LINE
  5
1DF
  8
DATA
  6
CONTINUOUS
 62
     7
 10
0.75
 20
-122.0
 30
0.0
 11
-1.633333333333326
 21
-44.99999999999915
 31
0.0
  0
LINE
  5
1E0
  8
DATA
  6
CONTINUOUS
 62
     7
 10
-2.190476190476147
 20
-27.00000000000085
 30
0.0
 11
-2.5
 21
-17.0
 31
0.0
  0
LINE
  5
1E1
  8
DATA
  6
CONTINUOUS
 62
     7
 10
24.25
 20
-122.0
 30
0.0
 11
27.5
 21
-17.0
 31
0.0
  0
LINE
  5
1E2
  8
DATA
  6
CONTINUOUS
 62
     7
 10
-2.5
 20
-17.0
 30
0.0
 11
-7.189999999999941
 21
-3.600000000000005
 31
0.0
  0
LINE
  5
1E3
  8
DATA
  6
CONTINUOUS
 62
     7
 10
27.5
 20
-17.0
 30
0.0
 11
32.19000000000005
 21
-3.600000000000003
 31
0.0
  0
LINE
  5
1E4
  8
DATA
  6
CONTINUOUS
 62
     7
 10
-2.5
 20
-17.0
 30
0.0
 11
27.5
 21
-17.0
 31
0.0
  0
LINE
  5
1E5
  8
DATA
  6
CONTINUOUS
 62
     7
 10
0.75
 20
-122.0
 30
0.0
 11
24.25
 21
-122.0
 31
0.0
  0
LINE
  5
1E6
  8
DATA
  6
CONTINUOUS
 62
     7
 10
66.0
 20
-125.0
 30
0.0
 11
63.25
 21
-122.0
 31
0.0
  0
LINE
  5
1E7
  8
DATA
  6
CONTINUOUS
 62
     7
 10
84.0
 20
-125.0
 30
0.0
 11
86.75
 21
-122.0
 31
0.0
  0
LINE
  5
1E8
  8
DATA
  6
CONTINUOUS
 62
     7
 10
66.0
 20
-125.0
 30
0.0
 11
84.0
 21
-125.0
 31
0.0
  0
LINE
  5
1E9
  8
DATA
  6
CONTINUOUS
 62
     7
 10
63.25
 20
-122.0
 30
0.0
 11
60.0
 21
-17.0
 31
0.0
  0
LINE
  5
1EA
  8
DATA
  6
CONTINUOUS
 62
     7
 10
86.75
 20
-122.0
 30
0.0
 11
90.0
 21
-17.0
 31
0.0
  0
LINE
  5
1EB
  8
DATA
  6
CONTINUOUS
 62
     7
 10
60.0
 20
-17.0
 30
0.0
 11
55.31000000000006
 21
-3.600000000000005
 31
0.0
  0
LINE
  5
1EC
  8
DATA
  6
CONTINUOUS
 62
     7
 10
90.0
 20
-17.0
 30
0.0
 11
94.69000000000005
 21
-3.600000000000003
 31
0.0
  0
LINE
  5
1ED
  8
DATA
  6
CONTINUOUS
 62
     7
 10
60.0
 20
-17.0
 30
0.0
 11
90.0
 21
-17.0
 31
0.0
  0
LINE
  5
1EE
  8
DATA
  6
CONTINUOUS
 62
     7
 10
63.25
 20
-122.0
 30
0.0
 11
86.75
 21
-122.0
 31
0.0
  0
ARC
  5
1EF
  8
DATA
  6
CONTINUOUS
 62
     7
 10
-27.96901762279708
 20
-36.80652968378952
 30
0.0
 40
27.58081258442054
 50
342.7182113978559
 51
20.8275381452105
  0
LINE
  5
1F0
  8
DATA
  6
CONTINUOUS
 62
     7
 10
-1.234092357581744
 20
-43.58480334898312
 30
0.0
 11
-1.704475908281779
 21
-28.38779632636539
 31
0.0
  0
CIRCLE
  5
1F1
  8
DATA
  6
CONTINUOUS
 62
     7
 10
75.0
 20
-108.0
 30
0.0
 40
2.350000000000023
  0
LINE
  5
1F2
  8
DATA
  6
CONTINUOUS
 62
     7
 10
73.75
 20
-108.0
 30
0.0
 11
76.25
 21
-108.0
 31
0.0
  0
LINE
  5
1F3
  8
DATA
  6
CONTINUOUS
 62
     7
 10
75.0
 20
-109.25
 30
0.0
 11
75.0
 21
-106.75
 31
0.0
  0
CIRCLE
  5
1F4
  8
DATA
  6
CONTINUOUS
 62
     7
 10
-50.0
 20
-162.5
 30
0.0
 40
23.5
  0
CIRCLE
  5
1F5
  8
DATA
  6
CONTINUOUS
 62
     7
 10
-50.0
 20
-162.5
 30
0.0
 40
15.0
  0
CIRCLE
  5
1F6
  8
DATA
  6
CONTINUOUS
 62
     7
 10
-50.0
 20
100.0
 30
0.0
 40
25.5
  0
ARC
  5
1F7
  8
DATA
  6
CONTINUOUS
 62
     7
 10
-50.0
 20
100.0000000000001
 30
0.0
 40
24.00000000000001
 50
215.3071914203523
 51
205.0517650019565
  0
CIRCLE
  5
1F8
  8
DATA
  6
CONTINUOUS
 62
     7
 10
-50.0
 20
100.0
 30
0.0
 40
19.5
  0
CIRCLE
  5
1F9
  8
DATA
  6
CONTINUOUS
 62
     7
 10
-50.0
 20
100.0
 30
0.0
 40
17.5
  0
LINE
  5
1FA
  8
DATA
  6
CONTINUOUS
 62
     7
 10
-67.5
 20
61.0
 30
0.0
 11
-32.5
 21
61.0
 31
0.0
  0
LINE
  5
1FB
  8
DATA
  6
CONTINUOUS
 62
     7
 10
-69.5
 20
58.3413810651074
 30
0.0
 11
-67.5
 21
61.0
 31
0.0
  0
LINE
  5
1FC
  8
DATA
  6
CONTINUOUS
 62
     7
 10
-30.5
 20
58.3413810651074
 30
0.0
 11
-32.5
 21
61.0
 31
0.0
  0
LINE
  5
1FD
  8
DATA
  6
CONTINUOUS
 62
     7
 10
-74.0
 20
22.0
 30
0.0
 11
-69.5
 21
58.3413810651074
 31
0.0
  0
LINE
  5
1FE
  8
DATA
  6
CONTINUOUS
 62
     7
 10
-26.0
 20
22.0
 30
0.0
 11
-30.5
 21
58.3413810651074
 31
0.0
  0
LINE
  5
1FF
  8
DATA
  6
CONTINUOUS
 62
     7
 10
-75.5
 20
21.0
 30
0.0
 11
-75.0
 21
22.0
 31
0.0
  0
LINE
  5
200
  8
DATA
  6
CONTINUOUS
 62
     7
 10
-75.0
 20
22.0
 30
0.0
 11
-25.0
 21
22.0
 31
0.0
  0
LINE
  5
201
  8
DATA
  6
CONTINUOUS
 62
     7
 10
-24.5
 20
21.0
 30
0.0
 11
-25.0
 21
22.0
 31
0.0
  0
LINE
  5
202
  8
DATA
  6
CONTINUOUS
 62
     7
 10
-73.5
 20
12.0
 30
0.0
 11
-75.5
 21
21.0
 31
0.0
  0
LINE
  5
203
  8
DATA
  6
CONTINUOUS
 62
     7
 10
-26.5
 20
12.0
 30
0.0
 11
-24.5
 21
21.0
 31
0.0
  0
LINE
  5
204
  8
DATA
  6
CONTINUOUS
 62
     7
 10
-73.5
 20
12.0
 30
0.0
 11
-26.5
 21
12.0
 31
0.0
  0
LINE
  5
205
  8
DATA
  6
CONTINUOUS
 62
     7
 10
-72.0
 20
2.999999999999996
 30
0.0
 11
-28.0
 21
2.999999999999996
 31
0.0
  0
LINE
  5
206
  8
DATA
  6
CONTINUOUS
 62
     7
 10
-72.0
 20
2.999999999999996
 30
0.0
 11
-71.5
 21
3.999999999999996
 31
0.0
  0
LINE
  5
207
  8
DATA
  6
CONTINUOUS
 62
     7
 10
-28.0
 20
2.999999999999996
 30
0.0
 11
-28.5
 21
3.999999999999996
 31
0.0
  0
LINE
  5
208
  8
DATA
  6
CONTINUOUS
 62
     7
 10
-28.5
 20
3.999999999999996
 30
0.0
 11
-71.5
 21
3.999999999999996
 31
0.0
  0
LINE
  5
209
  8
DATA
  6
CONTINUOUS
 62
     7
 10
-69.79499999999996
 20
-3.30000000000001
 30
0.0
 11
-72.0
 21
2.999999999999996
 31
0.0
  0
LINE
  5
20A
  8
DATA
  6
CONTINUOUS
 62
     7
 10
-30.20499999999998
 20
-3.300000000000004
 30
0.0
 11
-28.0
 21
2.999999999999996
 31
0.0
  0
LINE
  5
20B
  8
DATA
  6
CONTINUOUS
 62
     7
 10
-30.20499999999998
 20
-3.300000000000004
 30
0.0
 11
-69.79499999999996
 21
-3.300000000000004
 31
0.0
  0
LINE
  5
20C
  8
DATA
  6
CONTINUOUS
 62
     7
 10
-30.31
 20
-3.600000000000005
 30
0.0
 11
-69.69
 21
-3.600000000000005
 31
0.0
  0
LINE
  5
20D
  8
DATA
  6
CONTINUOUS
 62
     7
 10
-66.5
 20
-3.600000000000005
 30
0.0
 11
-66.5
 21
-3.300000000000004
 31
0.0
  0
LINE
  5
20E
  8
DATA
  6
CONTINUOUS
 62
     7
 10
-33.5
 20
-3.600000000000005
 30
0.0
 11
-33.5
 21
-3.300000000000004
 31
0.0
  0
LINE
  5
20F
  8
DATA
  6
CONTINUOUS
 62
     7
 10
-9.5
 20
2.999999999999996
 30
0.0
 11
34.5
 21
2.999999999999996
 31
0.0
  0
LINE
  5
210
  8
DATA
  6
CONTINUOUS
 62
     7
 10
-9.5
 20
2.999999999999996
 30
0.0
 11
-9.0
 21
3.999999999999996
 31
0.0
  0
LINE
  5
211
  8
DATA
  6
CONTINUOUS
 62
     7
 10
34.5
 20
2.999999999999996
 30
0.0
 11
34.0
 21
3.999999999999996
 31
0.0
  0
LINE
  5
212
  8
DATA
  6
CONTINUOUS
 62
     7
 10
34.0
 20
3.999999999999996
 30
0.0
 11
-9.0
 21
3.999999999999996
 31
0.0
  0
LINE
  5
213
  8
DATA
  6
CONTINUOUS
 62
     7
 10
-7.294999999999959
 20
-3.30000000000001
 30
0.0
 11
-9.5
 21
2.999999999999996
 31
0.0
  0
LINE
  5
214
  8
DATA
  6
CONTINUOUS
 62
     7
 10
32.29500000000007
 20
-3.300000000000004
 30
0.0
 11
34.5
 21
2.999999999999996
 31
0.0
  0
LINE
  5
215
  8
DATA
  6
CONTINUOUS
 62
     7
 10
32.29500000000007
 20
-3.300000000000004
 30
0.0
 11
-7.294999999999959
 21
-3.300000000000004
 31
0.0
  0
LINE
  5
216
  8
DATA
  6
CONTINUOUS
 62
     7
 10
32.19000000000005
 20
-3.600000000000005
 30
0.0
 11
-7.189999999999941
 21
-3.600000000000005
 31
0.0
  0
LINE
  5
217
  8
DATA
  6
CONTINUOUS
 62
     7
 10
-4.0
 20
-3.600000000000005
 30
0.0
 11
-4.0
 21
-3.300000000000004
 31
0.0
  0
LINE
  5
218
  8
DATA
  6
CONTINUOUS
 62
     7
 10
29.0
 20
-3.600000000000005
 30
0.0
 11
29.0
 21
-3.300000000000004
 31
0.0
  0
LINE
  5
219
  8
DATA
  6
CONTINUOUS
 62
     7
 10
-13.0
 20
21.0
 30
0.0
 11
-12.5
 21
22.0
 31
0.0
  0
LINE
  5
21A
  8
DATA
  6
CONTINUOUS
 62
     7
 10
-12.5
 20
22.0
 30
0.0
 11
37.5
 21
22.0
 31
0.0
  0
LINE
  5
21B
  8
DATA
  6
CONTINUOUS
 62
     7
 10
38.0
 20
21.0
 30
0.0
 11
37.5
 21
22.0
 31
0.0
  0
LINE
  5
21C
  8
DATA
  6
CONTINUOUS
 62
     7
 10
-11.0
 20
12.0
 30
0.0
 11
-13.0
 21
21.0
 31
0.0
  0
LINE
  5
21D
  8
DATA
  6
CONTINUOUS
 62
     7
 10
36.0
 20
12.0
 30
0.0
 11
38.0
 21
21.0
 31
0.0
  0
LINE
  5
21E
  8
DATA
  6
CONTINUOUS
 62
     7
 10
-11.0
 20
12.0
 30
0.0
 11
36.0
 21
12.0
 31
0.0
  0
LINE
  5
21F
  8
DATA
  6
CONTINUOUS
 62
     7
 10
-11.18197170356052
 20
21.99999999999999
 30
0.0
 11
-11.44383706781332
 21
22.45356411562842
 31
0.0
  0
LINE
  5
220
  8
DATA
  6
CONTINUOUS
 62
     7
 10
-5.0
 20
61.0
 30
0.0
 11
30.0
 21
61.0
 31
0.0
  0
LINE
  5
221
  8
DATA
  6
CONTINUOUS
 62
     7
 10
-7.0
 20
58.3413810651074
 30
0.0
 11
-5.0
 21
61.0
 31
0.0
  0
LINE
  5
222
  8
DATA
  6
CONTINUOUS
 62
     7
 10
32.0
 20
58.3413810651074
 30
0.0
 11
30.0
 21
61.0
 31
0.0
  0
LINE
  5
223
  8
DATA
  6
CONTINUOUS
 62
     7
 10
-11.5
 20
22.0
 30
0.0
 11
-7.0
 21
58.3413810651074
 31
0.0
  0
LINE
  5
224
  8
DATA
  6
CONTINUOUS
 62
     7
 10
36.5
 20
22.0
 30
0.0
 11
32.0
 21
58.3413810651074
 31
0.0
  0
LINE
  5
225
  8
DATA
  6
CONTINUOUS
 62
     7
 10
49.5
 20
21.0
 30
0.0
 11
50.0
 21
22.0
 31
0.0
  0
LINE
  5
226
  8
DATA
  6
CONTINUOUS
 62
     7
 10
50.0
 20
22.0
 30
0.0
 11
100.0
 21
22.0
 31
0.0
  0
LINE
  5
227
  8
DATA
  6
CONTINUOUS
 62
     7
 10
51.5
 20
12.0
 30
0.0
 11
49.5
 21
21.0
 31
0.0
  0
LINE
  5
228
  8
DATA
  6
CONTINUOUS
 62
     7
 10
98.5
 20
12.0
 30
0.0
 11
100.5
 21
21.0
 31
0.0
  0
LINE
  5
229
  8
DATA
  6
CONTINUOUS
 62
     7
 10
51.5
 20
12.0
 30
0.0
 11
98.5
 21
12.0
 31
0.0
  0
LINE
  5
22A
  8
DATA
  6
CONTINUOUS
 62
     7
 10
53.0
 20
2.999999999999996
 30
0.0
 11
97.0
 21
2.999999999999996
 31
0.0
  0
LINE
  5
22B
  8
DATA
  6
CONTINUOUS
 62
     7
 10
53.0
 20
2.999999999999996
 30
0.0
 11
53.5
 21
3.999999999999996
 31
0.0
  0
LINE
  5
22C
  8
DATA
  6
CONTINUOUS
 62
     7
 10
97.0
 20
2.999999999999996
 30
0.0
 11
96.5
 21
3.999999999999996
 31
0.0
  0
LINE
  5
22D
  8
DATA
  6
CONTINUOUS
 62
     7
 10
96.5
 20
3.999999999999996
 30
0.0
 11
53.5
 21
3.999999999999996
 31
0.0
  0
LINE
  5
22E
  8
DATA
  6
CONTINUOUS
 62
     7
 10
55.20500000000004
 20
-3.30000000000001
 30
0.0
 11
53.0
 21
2.999999999999996
 31
0.0
  0
LINE
  5
22F
  8
DATA
  6
CONTINUOUS
 62
     7
 10
94.79500000000007
 20
-3.300000000000004
 30
0.0
 11
97.0
 21
2.999999999999996
 31
0.0
  0
LINE
  5
230
  8
DATA
  6
CONTINUOUS
 62
     7
 10
94.79500000000007
 20
-3.300000000000004
 30
0.0
 11
55.20500000000004
 21
-3.300000000000004
 31
0.0
  0
LINE
  5
231
  8
DATA
  6
CONTINUOUS
 62
     7
 10
94.69000000000005
 20
-3.600000000000005
 30
0.0
 11
55.31000000000006
 21
-3.600000000000005
 31
0.0
  0
LINE
  5
232
  8
DATA
  6
CONTINUOUS
 62
     7
 10
58.5
 20
-3.600000000000005
 30
0.0
 11
58.5
 21
-3.300000000000004
 31
0.0
  0
LINE
  5
233
  8
DATA
  6
CONTINUOUS
 62
     7
 10
91.5
 20
-3.600000000000005
 30
0.0
 11
91.5
 21
-3.300000000000004
 31
0.0
  0
LINE
  5
234
  8
DATA
  6
CONTINUOUS
 62
     7
 10
51.0
 20
22.0
 30
0.0
 11
55.5
 21
58.3413810651074
 31
0.0
  0
LINE
  5
235
  8
DATA
  6
CONTINUOUS
 62
     7
 10
99.0
 20
22.0
 30
0.0
 11
94.5
 21
58.3413810651074
 31
0.0
  0
LINE
  5
236
  8
DATA
  6
CONTINUOUS
 62
     7
 10
100.5
 20
21.0
 30
0.0
 11
100.0
 21
22.0
 31
0.0
  0
LINE
  5
237
  8
DATA
  6
CONTINUOUS
 62
     7
 10
52.5
 20
12.0
 30
0.0
 11
53.5
 21
3.999999999999996
 31
0.0
  0
LINE
  5
238
  8
DATA
  6
CONTINUOUS
 62
     7
 10
97.5
 20
12.0
 30
0.0
 11
96.5
 21
3.999999999999996
 31
0.0
  0
LINE
  5
239
  8
DATA
  6
CONTINUOUS
 62
     7
 10
57.5
 20
61.0
 30
0.0
 11
92.5
 21
61.0
 31
0.0
  0
LINE
  5
23A
  8
DATA
  6
CONTINUOUS
 62
     7
 10
55.5
 20
58.3413810651074
 30
0.0
 11
57.5
 21
61.0
 31
0.0
  0
LINE
  5
23B
  8
DATA
  6
CONTINUOUS
 62
     7
 10
94.5
 20
58.3413810651074
 30
0.0
 11
92.5
 21
61.0
 31
0.0
  0
LINE
  5
23C
  8
DATA
  6
CONTINUOUS
 62
     7
 10
-69.5855613068295
 20
86.12895864412378
 30
0.0
 11
-71.80545484454876
 21
89.97392703884746
 31
0.0
  0
LINE
  5
23D
  8
DATA
  6
CONTINUOUS
 62
     7
 10
-72.5
 20
12.0
 30
0.0
 11
-71.5
 21
3.999999999999996
 31
0.0
  0
LINE
  5
23E
  8
DATA
  6
CONTINUOUS
 62
     7
 10
-27.5
 20
12.0
 30
0.0
 11
-28.5
 21
3.999999999999996
 31
0.0
  0
LINE
  5
23F
  8
DATA
  6
CONTINUOUS
 62
     7
 10
-10.0
 20
12.0
 30
0.0
 11
-9.0
 21
3.999999999999996
 31
0.0
  0
LINE
  5
240
  8
DATA
  6
CONTINUOUS
 62
     7
 10
35.0
 20
12.0
 30
0.0
 11
34.0
 21
3.999999999999996
 31
0.0
  0
TEXT
  5
241
  8
DATA
 62
     7
 10
99.99999999999997
 20
-234.2064049999999
 30
0.0
 40
4.8865234375
  1
D5
 41
0.7
 11
99.99999999999997
 21
-229.3198815624999
 31
0.0
 73
     3
  0
ENDSEC
  0
EOF
