  0
SECTION
  2
HEADER
  9
$ACADVER
  1
AC1009
  9
$INSBASE
 10
0.0
 20
0.0
 30
0.0
  9
$EXTMIN
 10
-450.02746372486871
 20
-673.98230819777791
 30
-0.0015258207003583
  9
$EXTMAX
 10
450.02746791582013
 20
664.1680137850426
 30
0.0000000349246037
  9
$LIMMIN
 10
0.0
 20
0.0
  9
$LIMMAX
 10
0.0
 20
0.0
  9
$ORTHOMODE
 70
     0
  9
$REGENMODE
 70
     1
  9
$FILLMODE
 70
     1
  9
$QTEXTMODE
 70
     0
  9
$MIRRTEXT
 70
     1
  9
$DRAGMODE
 70
     2
  9
$LTSCALE
 40
25.399999999999999
  9
$OSMODE
 70
   231
  9
$ATTMODE
 70
     1
  9
$TEXTSIZE
 40
0.0
  9
$TRACEWID
 40
1.0
  9
$TEXTSTYLE
  7
STANDARD
  9
$CLAYER
  8
DATA
  9
$CELTYPE
  6
CONTINUOUS
  9
$CECOLOR
 62
   256
  9
$DIMSCALE
 40
1.0
  9
$DIMASZ
 40
0.18
  9
$DIMEXO
 40
0.0625
  9
$DIMDLI
 40
0.38
  9
$DIMRND
 40
0.0
  9
$DIMDLE
 40
0.0
  9
$DIMEXE
 40
0.18
  9
$DIMTP
 40
0.0
  9
$DIMTM
 40
0.0
  9
$DIMTXT
 40
0.18
  9
$DIMCEN
 40
0.09
  9
$DIMTSZ
 40
0.0
  9
$DIMTOL
 70
     0
  9
$DIMLIM
 70
     0
  9
$DIMTIH
 70
     1
  9
$DIMTOH
 70
     1
  9
$DIMSE1
 70
     0
  9
$DIMSE2
 70
     0
  9
$DIMTAD
 70
     0
  9
$DIMZIN
 70
     0
  9
$DIMBLK
  1

  9
$DIMASO
 70
     1
  9
$DIMSHO
 70
     1
  9
$DIMPOST
  1

  9
$DIMAPOST
  1

  9
$DIMALT
 70
     0
  9
$DIMALTD
 70
     2
  9
$DIMALTF
 40
25.399999999999999
  9
$DIMLFAC
 40
1.0
  9
$DIMTOFL
 70
     0
  9
$DIMTVP
 40
0.0
  9
$DIMTIX
 70
     0
  9
$DIMSOXD
 70
     0
  9
$DIMSAH
 70
     0
  9
$DIMBLK1
  1

  9
$DIMBLK2
  1

  9
$DIMSTYLE
  2
STANDARD
  9
$DIMCLRD
 70
     0
  9
$DIMCLRE
 70
     0
  9
$DIMCLRT
 70
     0
  9
$DIMTFAC
 40
1.0
  9
$DIMGAP
 40
0.09
  9
$LUNITS
 70
     2
  9
$LUPREC
 70
     4
  9
$SKETCHINC
 40
0.1
  9
$FILLETRAD
 40
0.0
  9
$AUNITS
 70
     0
  9
$AUPREC
 70
     0
  9
$MENU
  1
acad
  9
$ELEVATION
 40
0.0
  9
$PELEVATION
 40
0.0
  9
$THICKNESS
 40
0.0
  9
$LIMCHECK
 70
     0
  9
$BLIPMODE
 70
     0
  9
$CHAMFERA
 40
0.0
  9
$CHAMFERB
 40
0.0
  9
$SKPOLY
 70
     0
  9
$TDCREATE
 40
2456696.7204166669
  9
$TDUPDATE
 40
2456696.7210385762
  9
$TDINDWG
 40
0.0004997685
  9
$TDUSRTIMER
 40
0.0004997106
  9
$USRTIMER
 70
     1
  9
$ANGBASE
 50
0.0
  9
$ANGDIR
 70
     0
  9
$PDMODE
 70
     1
  9
$PDSIZE
 40
-2.0
  9
$PLINEWID
 40
0.0
  9
$COORDS
 70
     2
  9
$SPLFRAME
 70
     0
  9
$SPLINETYPE
 70
     6
  9
$SPLINESEGS
 70
     8
  9
$ATTDIA
 70
     0
  9
$ATTREQ
 70
     1
  9
$HANDLING
 70
     1
  9
$HANDSEED
  5
79A
  9
$SURFTAB1
 70
     6
  9
$SURFTAB2
 70
     6
  9
$SURFTYPE
 70
     6
  9
$SURFU
 70
     6
  9
$SURFV
 70
     6
  9
$UCSNAME
  2

  9
$UCSORG
 10
0.0
 20
0.0
 30
0.0
  9
$UCSXDIR
 10
1.0
 20
0.0
 30
0.0
  9
$UCSYDIR
 10
0.0
 20
1.0
 30
0.0
  9
$PUCSNAME
  2

  9
$PUCSORG
 10
0.0
 20
0.0
 30
0.0
  9
$PUCSXDIR
 10
1.0
 20
0.0
 30
0.0
  9
$PUCSYDIR
 10
0.0
 20
1.0
 30
0.0
  9
$USERI1
 70
     0
  9
$USERI2
 70
     0
  9
$USERI3
 70
     0
  9
$USERI4
 70
     0
  9
$USERI5
 70
     0
  9
$USERR1
 40
0.0
  9
$USERR2
 40
0.0
  9
$USERR3
 40
0.0
  9
$USERR4
 40
0.0
  9
$USERR5
 40
0.0
  9
$WORLDVIEW
 70
     1
  9
$SHADEDGE
 70
     3
  9
$SHADEDIF
 70
    70
  9
$TILEMODE
 70
     1
  9
$MAXACTVP
 70
    64
  9
$PLIMCHECK
 70
     0
  9
$PEXTMIN
 10
1.0000000000000000E+020
 20
1.0000000000000000E+020
 30
1.0000000000000000E+020
  9
$PEXTMAX
 10
-1.0000000000000000E+020
 20
-1.0000000000000000E+020
 30
-1.0000000000000000E+020
  9
$PLIMMIN
 10
0.0
 20
0.0
  9
$PLIMMAX
 10
12.0
 20
9.0
  9
$UNITMODE
 70
     0
  9
$VISRETAIN
 70
     0
  9
$PLINEGEN
 70
     1
  9
$PSLTSCALE
 70
     0
  0
ENDSEC
  0
SECTION
  2
TABLES
  0
TABLE
  2
VPORT
 70
     1
  0
VPORT
  2
*ACTIVE
 70
     0
 10
0.0
 20
0.0
 11
1.0
 21
1.0
 12
0.0000020954754518
 22
-4.9071472063676529
 13
0.0
 23
0.0
 14
1.0
 24
1.0
 15
0.0
 25
0.0
 16
0.0
 26
0.0
 36
1.0
 17
0.0
 27
0.0
 37
0.0
 40
1348.686938691347
 41
2.1787122207621552
 42
50.0
 43
0.0
 44
0.0
 50
0.0
 51
0.0
 71
     0
 72
  2000
 73
     1
 74
     1
 75
     0
 76
     0
 77
     0
 78
     0
  0
ENDTAB
  0
TABLE
  2
LTYPE
 70
    11
  0
LTYPE
  2
CONTINUOUS
 70
     0
  3
Solid line
 72
    65
 73
     0
 40
0.0
  0
LTYPE
  2
STYLE_01
 70
     0
  3

 72
    65
 73
     2
 40
0.4166412353515625
 49
0.208282470703125
 49
-0.2083587646484375
  0
ENDTAB
  0
TABLE
  2
LAYER
 70
     5
  0
LAYER
  2
0
 70
     0
 62
     7
  6
CONTINUOUS
  0
LAYER
  2
DATA
 70
     0
 62
     7
  6
CONTINUOUS
  0
LAYER
  2
HIBINO-BASE
 70
     0
 62
     7
  6
CONTINUOUS
  0
LAYER
  2
SPEC
 70
     0
 62
     7
  6
CONTINUOUS
  0
LAYER
  2
DIMNSIONS
 70
     0
 62
     7
  6
CONTINUOUS
  0
ENDTAB
  0
TABLE
  2
STYLE
 70
     3
  0
STYLE
  2
STANDARD
 70
     0
 40
0.0
 41
1.0
 50
0.0
 71
     0
 42
0.0
  3
txt
  4
BIGFONT.SHX
  0
ENDTAB
  0
TABLE
  2
VIEW
 70
     0
  0
ENDTAB
  0
TABLE
  2
UCS
 70
     0
  0
ENDTAB
  0
TABLE
  2
APPID
 70
     4
  0
APPID
  2
ACAD
 70
     0
  0
APPID
  2
ACADANNOTATIVE
 70
     0
  0
APPID
  2
ACAD_NAV_VCDISPLAY
 70
     0
  0
APPID
  2
ACAD_MLEADERVER
 70
     0
  0
ENDTAB
  0
TABLE
  2
DIMSTYLE
 70
     2
  0
DIMSTYLE
  2
STANDARD
 70
     0
  3

  4

  5

  6

  7

 40
1.0
 41
0.18
 42
0.0625
 43
0.38
 44
0.18
 45
0.0
 46
0.0
 47
0.0
 48
0.0
140
0.18
141
0.09
142
0.0
143
25.399999999999999
144
1.0
145
0.0
146
1.0
147
0.09
 71
     0
 72
     0
 73
     1
 74
     1
 75
     0
 76
     0
 77
     0
 78
     0
170
     0
171
     2
172
     0
173
     0
174
     0
175
     0
176
     0
177
     0
178
     0
  0
ENDTAB
  0
ENDSEC
  0
SECTION
  2
BLOCKS
  0
BLOCK
  8
0
  2
$MODEL_SPACE
 70
     0
 10
0.0
 20
0.0
 30
0.0
  3
$MODEL_SPACE
  1

  0
ENDBLK
  5
6AD
  8
0
  0
BLOCK
 67
     1
  8
0
  2
$PAPER_SPACE
 70
     0
 10
0.0
 20
0.0
 30
0.0
  3
$PAPER_SPACE
  1

  0
ENDBLK
  5
6A9
 67
     1
  8
0
  0
ENDSEC
  0
SECTION
  2
ENTITIES
  0
LINE
  5
2C
  8
HIBINO-BASE
  6
CONTINUOUS
 62
     7
 10
-450.0
 20
664.12726000000021
 30
0.0
 11
450.0
 21
664.12726000000021
 31
0.0
  0
LINE
  5
2D
  8
HIBINO-BASE
  6
CONTINUOUS
 62
     7
 10
450.0
 20
-635.87274000000002
 30
0.0
 11
-450.0
 21
-635.87274000000002
 31
0.0
  0
LINE
  5
2E
  8
HIBINO-BASE
  6
CONTINUOUS
 62
     7
 10
-450.0
 20
-635.87274000000002
 30
0.0
 11
-450.0
 21
664.12726000000021
 31
0.0
  0
LINE
  5
2F
  8
HIBINO-BASE
  6
CONTINUOUS
 62
     7
 10
450.0
 20
664.12726000000021
 30
0.0
 11
450.0
 21
-635.87274000000002
 31
0.0
  0
LINE
  5
30
  8
HIBINO-BASE
  6
CONTINUOUS
 62
     7
 10
0.0000000000000355
 20
-523.37274000000002
 30
0.0
 11
450.0
 21
-523.37274000000002
 31
0.0
  0
LINE
  5
31
  8
HIBINO-BASE
  6
CONTINUOUS
 62
     7
 10
0.0000000000000355
 20
-635.87274000000002
 30
0.0
 11
0.0000000000000355
 21
-523.37274000000002
 31
0.0
  0
TEXT
  5
32
  8
HIBINO-BASE
 62
     7
 10
4.5000000000000631
 20
-535.91620666666654
 30
0.0
 40
8.1442057291666661
  1
NOTE
 41
0.7
 11
4.5000000000000631
 21
-527.7720009374998
 31
0.0
 73
     3
  0
LINE
  5
33
  8
HIBINO-BASE
  6
CONTINUOUS
 62
     7
 10
175.00000000000011
 20
-635.87274000000002
 30
0.0
 11
175.00000000000011
 21
-523.37274000000002
 31
0.0
  0
TEXT
  5
34
  8
HIBINO-BASE
 62
     7
 10
179.5
 20
-535.91620666666654
 30
0.0
 40
8.1442057291666661
  1
TITLE
 41
0.7
 11
179.5
 21
-527.7720009374998
 31
0.0
 73
     3
  0
LINE
  5
35
  8
HIBINO-BASE
  6
CONTINUOUS
 62
     7
 10
0.0000000000000355
 20
-585.87274000000002
 30
0.0
 11
450.0
 21
-585.87274000000002
 31
0.0
  0
TEXT
  5
36
  8
HIBINO-BASE
 62
     7
 10
242.0
 20
-598.13460666666651
 30
0.0
 40
8.1442057291666661
  1
DRAWN
 41
0.7
 11
242.0
 21
-589.99040093749977
 31
0.0
 73
     3
  0
TEXT
  5
37
  8
HIBINO-BASE
 62
     7
 10
117.0
 20
-598.13460666666651
 30
0.0
 40
8.1442057291666661
  1
DATE
 41
0.7
 11
117.0
 21
-589.99040093749977
 31
0.0
 73
     3
  0
TEXT
  5
38
  8
HIBINO-BASE
 62
     7
 10
67.0
 20
-598.13460666666651
 30
0.0
 40
8.1442057291666661
  1
SCALE
 41
0.7
 11
67.0
 21
-589.99040093749977
 31
0.0
 73
     3
  0
TEXT
  5
39
  8
HIBINO-BASE
 62
     7
 10
179.5
 20
-598.13460666666651
 30
0.0
 40
8.1442057291666661
  1
DESIGN
 41
0.7
 11
179.5
 21
-589.99040093749977
 31
0.0
 73
     3
  0
TEXT
  5
3A
  8
HIBINO-BASE
 62
     7
 10
367.0
 20
-598.13460666666651
 30
0.0
 40
8.1442057291666661
  1
DRAWING NO.
 41
0.7
 11
367.0
 21
-589.99040093749977
 31
0.0
 73
     3
  0
TEXT
  5
3B
  8
HIBINO-BASE
 62
     7
 10
304.49999999999989
 20
-598.13460666666651
 30
0.0
 40
8.1442057291666661
  1
CHECK
 41
0.7
 11
304.49999999999989
 21
-589.99040093749977
 31
0.0
 73
     3
  0
LINE
  5
3C
  8
HIBINO-BASE
  6
CONTINUOUS
 62
     7
 10
71.875000000000014
 20
-629.62274000000002
 30
0.0
 11
90.625000000000114
 21
-610.87274000000002
 31
0.0
  0
TEXT
  5
3D
  8
HIBINO-BASE
 62
     7
 10
68.750000000000014
 20
-616.41745666666679
 30
0.0
 40
8.1442057291666661
  1
1
 41
0.7
 11
68.750000000000014
 21
-608.27325093750005
 31
0.0
 73
     3
  0
LINE
  5
3E
  8
HIBINO-BASE
  6
CONTINUOUS
 62
     7
 10
62.500000000000028
 20
-635.87274000000002
 30
0.0
 11
62.500000000000028
 21
-585.87274000000002
 31
0.0
  0
LINE
  5
3F
  8
HIBINO-BASE
  6
CONTINUOUS
 62
     7
 10
112.4999999999999
 20
-635.87274000000002
 30
0.0
 11
112.4999999999999
 21
-585.87274000000002
 31
0.0
  0
LINE
  5
40
  8
HIBINO-BASE
  6
CONTINUOUS
 62
     7
 10
237.5
 20
-585.87274000000002
 30
0.0
 11
237.5
 21
-635.87274000000002
 31
0.0
  0
LINE
  5
41
  8
HIBINO-BASE
  6
CONTINUOUS
 62
     7
 10
362.5
 20
-585.87274000000002
 30
0.0
 11
362.5
 21
-635.87274000000002
 31
0.0
  0
LINE
  5
42
  8
HIBINO-BASE
  6
CONTINUOUS
 62
     7
 10
300.0
 20
-635.87274000000002
 30
0.0
 11
300.0
 21
-585.87274000000002
 31
0.0
  0
TEXT
  5
43
  8
HIBINO-BASE
 62
     7
 10
116.7827000000001
 20
-621.55450666666638
 30
0.0
 40
8.1442057291666661
  1
'14.01.
 41
0.7
 11
116.7827000000001
 21
-613.41030093749987
 31
0.0
 73
     3
  0
TEXT
  5
44
  8
HIBINO-BASE
 62
     7
 10
87.500000000000057
 20
-625.79245666666679
 30
0.0
 40
8.1442057291666661
  1
5
 41
0.7
 11
87.500000000000057
 21
-617.64825093750005
 31
0.0
 73
     3
  0
TEXT
  5
45
  8
HIBINO-BASE
 62
     7
 10
245.02905005517309
 20
-621.55450666666638
 30
0.0
 40
8.1442057291666661
  1
N.Sasaki
 41
0.7
 11
245.02905005517309
 21
-613.41030093749987
 31
0.0
 73
     3
  0
TEXT
  5
46
  8
HIBINO-BASE
 62
     7
 10
19.416666666666799
 20
-625.99274000000003
 30
0.0
 40
16.288411458333329
  1
A4
 41
0.7
 11
19.416666666666799
 21
-609.70432854166665
 31
0.0
 73
     3
  0
TEXT
  5
47
  8
HIBINO-BASE
 62
     7
 10
4.7916666666666776
 20
-598.97001499999988
 30
0.0
 40
8.1442057291666661
  1
PAPER SIZE
 41
0.7
 11
4.7916666666666794
 21
-590.82580927083325
 31
0.0
 73
     3
  0
TEXT
  5
48
  8
HIBINO-BASE
 62
     7
 10
-414.07999999999993
 20
-667.91612899999996
 30
0.0
 40
18.00022089843749
  1
Hibino Corporation
 41
0.7
 11
-414.07999999999993
 21
-649.91590810156254
 31
0.0
 73
     3
  0
TEXT
  5
49
  8
HIBINO-BASE
 62
     7
 10
250.34195
 20
-667.91612899999996
 30
0.0
 40
18.00022089843749
  1
ヒビノ株式会社
 41
0.7
 11
250.34195
 21
-649.91590810156254
 31
0.0
 73
     3
  0
LINE
  5
4A
  8
SPEC
  6
CONTINUOUS
 62
     7
 10
-412.49999999999989
 20
614.12725999999986
 30
0.0
 11
325.0
 21
614.12725999999986
 31
0.0
  0
LINE
  5
4B
  8
SPEC
  6
CONTINUOUS
 62
     7
 10
-260.0
 20
595.37725999999975
 30
0.0
 11
325.0
 21
595.37725999999975
 31
0.0
  0
LINE
  5
4C
  8
SPEC
  6
CONTINUOUS
 62
     7
 10
-412.49999999999989
 20
614.12725999999986
 30
0.0
 11
-412.49999999999989
 21
257.87725999999992
 31
0.0
  0
TEXT
  5
4D
  8
SPEC
 62
     7
 10
-406.24999999999989
 20
621.09360999999967
 30
0.0
 40
12.21630859375
  1
仕様
 41
0.7
 11
-406.24999999999989
 21
633.30991859374979
 31
0.0
 73
     3
  0
LINE
  5
4E
  8
SPEC
  6
CONTINUOUS
 62
     7
 10
-260.0
 20
614.12725999999986
 30
0.0
 11
-260.0
 21
370.37725999999992
 31
0.0
  0
LINE
  5
4F
  8
SPEC
  6
CONTINUOUS
 62
     7
 10
325.0
 20
614.12725999999986
 30
0.0
 11
325.0
 21
257.87725999999992
 31
0.0
  0
TEXT
  5
50
  8
SPEC
 62
     7
 10
-408.0
 20
299.31684888888873
 30
0.0
 40
9.5015733506944464
  1
寸法(W\U+00D7H\U+00D7D)
 41
0.7
 11
-408.0
 21
308.81842223958319
 31
0.0
 73
     3
  0
TEXT
  5
51
  8
SPEC
 62
     7
 10
-408.0
 20
280.56684888888873
 30
0.0
 40
9.5015733506944464
  1
質量
 41
0.7
 11
-408.0
 21
290.06842223958319
 31
0.0
 73
     3
  0
LINE
  5
52
  8
SPEC
  6
CONTINUOUS
 62
     7
 10
-260.0
 20
576.62725999999975
 30
0.0
 11
325.0
 21
576.62725999999975
 31
0.0
  0
LINE
  5
53
  8
SPEC
  6
CONTINUOUS
 62
     7
 10
-260.0
 20
557.87725999999986
 30
0.0
 11
325.0
 21
557.87725999999986
 31
0.0
  0
LINE
  5
54
  8
SPEC
  6
CONTINUOUS
 62
     7
 10
-260.0
 20
539.12725999999986
 30
0.0
 11
325.0
 21
539.12725999999986
 31
0.0
  0
LINE
  5
55
  8
SPEC
  6
CONTINUOUS
 62
     7
 10
-412.49999999999989
 20
520.37725999999986
 30
0.0
 11
325.0
 21
520.37725999999986
 31
0.0
  0
LINE
  5
56
  8
SPEC
  6
CONTINUOUS
 62
     7
 10
-260.0
 20
501.62725999999992
 30
0.0
 11
325.0
 21
501.62725999999992
 31
0.0
  0
LINE
  5
57
  8
SPEC
  6
CONTINUOUS
 62
     7
 10
-260.0
 20
482.87725999999992
 30
0.0
 11
325.0
 21
482.87725999999992
 31
0.0
  0
LINE
  5
58
  8
SPEC
  6
CONTINUOUS
 62
     7
 10
-260.0
 20
464.12725999999992
 30
0.0
 11
325.0
 21
464.12725999999992
 31
0.0
  0
LINE
  5
59
  8
SPEC
  6
CONTINUOUS
 62
     7
 10
-370.0
 20
445.37725999999992
 30
0.0
 11
325.0
 21
445.37725999999992
 31
0.0
  0
LINE
  5
5A
  8
SPEC
  6
CONTINUOUS
 62
     7
 10
-260.0
 20
426.62725999999981
 30
0.0
 11
325.0
 21
426.62725999999981
 31
0.0
  0
LINE
  5
5B
  8
SPEC
  6
CONTINUOUS
 62
     7
 10
-260.0
 20
407.87725999999981
 30
0.0
 11
325.0
 21
407.87725999999981
 31
0.0
  0
LINE
  5
5C
  8
SPEC
  6
CONTINUOUS
 62
     7
 10
-260.0
 20
389.12725999999992
 30
0.0
 11
325.0
 21
389.12725999999992
 31
0.0
  0
LINE
  5
5D
  8
SPEC
  6
CONTINUOUS
 62
     7
 10
-412.49999999999989
 20
370.37725999999992
 30
0.0
 11
325.0
 21
370.37725999999992
 31
0.0
  0
LINE
  5
5E
  8
SPEC
  6
CONTINUOUS
 62
     7
 10
-412.49999999999989
 20
351.62725999999992
 30
0.0
 11
325.0
 21
351.62725999999992
 31
0.0
  0
LINE
  5
5F
  8
SPEC
  6
CONTINUOUS
 62
     7
 10
-412.49999999999989
 20
332.87725999999981
 30
0.0
 11
325.0
 21
332.87725999999981
 31
0.0
  0
LINE
  5
60
  8
SPEC
  6
CONTINUOUS
 62
     7
 10
-412.49999999999989
 20
314.12725999999981
 30
0.0
 11
325.0
 21
314.12725999999981
 31
0.0
  0
LINE
  5
61
  8
SPEC
  6
CONTINUOUS
 62
     7
 10
-412.49999999999989
 20
295.37725999999981
 30
0.0
 11
325.0
 21
295.37725999999981
 31
0.0
  0
LINE
  5
62
  8
SPEC
  6
CONTINUOUS
 62
     7
 10
-412.49999999999989
 20
276.62725999999992
 30
0.0
 11
325.0
 21
276.62725999999992
 31
0.0
  0
LINE
  5
63
  8
SPEC
  6
CONTINUOUS
 62
     7
 10
-412.49999999999989
 20
257.87725999999992
 30
0.0
 11
325.0
 21
257.87725999999992
 31
0.0
  0
TEXT
  5
64
  8
SPEC
 62
     7
 10
-408.0
 20
599.31684888888856
 30
0.0
 40
9.5015733506944464
  1
入力
 41
0.7
 11
-408.0
 21
608.81842223958313
 31
0.0
 73
     3
  0
TEXT
  5
65
  8
SPEC
 62
     7
 10
-255.5
 20
599.31684888888856
 30
0.0
 40
9.5015733506944464
  1
チャンネル数
 41
0.7
 11
-255.5
 21
608.81842223958313
 31
0.0
 73
     3
  0
TEXT
  5
66
  8
SPEC
 62
     7
 10
-365.5
 20
599.31684888888856
 30
0.0
 40
9.5015733506944464
  1
マイク/ ライン
 41
0.7
 11
-365.5
 21
608.81842223958313
 31
0.0
 73
     3
  0
TEXT
  5
67
  8
SPEC
 62
     7
 10
-143.32104771646809
 20
599.31684888888856
 30
0.0
 40
9.5015733506944464
  1
6
 41
0.7
 11
-143.32104771646809
 21
608.81842223958313
 31
0.0
 73
     3
  0
LINE
  5
68
  8
SPEC
  6
CONTINUOUS
 62
     7
 10
-370.0
 20
614.12725999999986
 30
0.0
 11
-370.0
 21
370.37725999999992
 31
0.0
  0
LINE
  5
69
  8
SPEC
  6
CONTINUOUS
 62
     7
 10
-147.82104771646809
 20
614.12725999999986
 30
0.0
 11
-147.82104771646809
 21
257.87725999999992
 31
0.0
  0
TEXT
  5
6A
  8
SPEC
 62
     7
 10
-143.32104771646809
 20
299.31684888888873
 30
0.0
 40
9.5015733506944464
  1
482\U+00D744.5\U+00D7220mm(除突起部)
 41
0.7
 11
-143.32104771646809
 21
308.81842223958319
 31
0.0
 73
     3
  0
TEXT
  5
6B
  8
SPEC
 62
     7
 10
-143.32104771646809
 20
280.56684888888873
 30
0.0
 40
9.5015733506944464
  1
3.2kg
 41
0.7
 11
-143.32104771646809
 21
290.06842223958319
 31
0.0
 73
     3
  0
TEXT
  5
6C
  8
SPEC
 62
     7
 10
-408.0
 20
261.81684888888873
 30
0.0
 40
9.5015733506944464
  1
付属品
 41
0.7
 11
-408.0
 21
271.31842223958319
 31
0.0
 73
     3
  0
TEXT
  5
6D
  8
SPEC
 62
     7
 10
-255.5
 20
580.56684888888856
 30
0.0
 40
9.5015733506944464
  1
端子・型式
 41
0.7
 11
-255.5
 21
590.06842223958313
 31
0.0
 73
     3
  0
TEXT
  5
6E
  8
SPEC
 62
     7
 10
-143.32104771646809
 20
580.56684888888856
 30
0.0
 40
9.5015733506944464
  1
XLR、電子バランス
 41
0.7
 11
-143.32104771646809
 21
590.06842223958313
 31
0.0
 73
     3
  0
TEXT
  5
6F
  8
SPEC
 62
     7
 10
-143.32104771646809
 20
561.81684888888856
 30
0.0
 40
9.5015733506944464
  1
8k\U+03A9
 41
0.7
 11
-143.32104771646809
 21
571.31842223958313
 31
0.0
 73
     3
  0
TEXT
  5
70
  8
SPEC
 62
     7
 10
-255.5
 20
561.81684888888856
 30
0.0
 40
9.5015733506944464
  1
インピーダンス
 41
0.7
 11
-255.5
 21
571.31842223958313
 31
0.0
 73
     3
  0
TEXT
  5
71
  8
SPEC
 62
     7
 10
-255.5
 20
543.06684888888856
 30
0.0
 40
9.5015733506944464
  1
最大レベル
 41
0.7
 11
-255.5
 21
552.56842223958313
 31
0.0
 73
     3
  0
TEXT
  5
72
  8
SPEC
 62
     7
 10
-143.32104771646809
 20
543.06684888888856
 30
0.0
 40
9.5015733506944464
  1
+20dBu
 41
0.7
 11
-143.32104771646809
 21
552.56842223958313
 31
0.0
 73
     3
  0
TEXT
  5
73
  8
SPEC
 62
     7
 10
-255.5
 20
524.31684888888856
 30
0.0
 40
9.5015733506944464
  1
ファンタム電源^I
 41
0.7
 11
-255.5
 21
533.81842223958313
 31
0.0
 73
     3
  0
TEXT
  5
74
  8
SPEC
 62
     7
 10
-143.3210477164682
 20
524.31684888888856
 30
0.0
 40
9.5015733506944464
  1
48V
 41
0.7
 11
-143.3210477164682
 21
533.81842223958313
 31
0.0
 73
     3
  0
TEXT
  5
75
  8
SPEC
 62
     7
 10
-408.0
 20
505.56684888888861
 30
0.0
 40
9.5015733506944464
  1
出力
 41
0.7
 11
-408.0
 21
515.06842223958313
 31
0.0
 73
     3
  0
TEXT
  5
76
  8
SPEC
 62
     7
 10
-255.5
 20
505.56684888888861
 30
0.0
 40
9.5015733506944464
  1
チャンネル数
 41
0.7
 11
-255.5
 21
515.06842223958313
 31
0.0
 73
     3
  0
TEXT
  5
77
  8
SPEC
 62
     7
 10
-255.5
 20
486.81684888888861
 30
0.0
 40
9.5015733506944464
  1
端子・型式
 41
0.7
 11
-255.5
 21
496.31842223958307
 31
0.0
 73
     3
  0
TEXT
  5
78
  8
SPEC
 62
     7
 10
-143.3210477164682
 20
505.56684888888861
 30
0.0
 40
9.5015733506944464
  1
1ステレオ
 41
0.7
 11
-143.3210477164682
 21
515.06842223958313
 31
0.0
 73
     3
  0
TEXT
  5
79
  8
SPEC
 62
     7
 10
-143.3210477164682
 20
486.81684888888861
 30
0.0
 40
9.5015733506944464
  1
XLR、電子バランス
 41
0.7
 11
-143.3210477164682
 21
496.31842223958307
 31
0.0
 73
     3
  0
TEXT
  5
7A
  8
SPEC
 62
     7
 10
-255.5
 20
468.06684888888861
 30
0.0
 40
9.5015733506944464
  1
インピーダンス
 41
0.7
 11
-255.5
 21
477.56842223958307
 31
0.0
 73
     3
  0
TEXT
  5
7B
  8
SPEC
 62
     7
 10
-143.32104771646809
 20
468.06684888888861
 30
0.0
 40
9.5015733506944464
  1
100\U+03A9
 41
0.7
 11
-143.32104771646809
 21
477.56842223958307
 31
0.0
 73
     3
  0
TEXT
  5
7C
  8
SPEC
 62
     7
 10
-255.5
 20
449.31684888888861
 30
0.0
 40
9.5015733506944464
  1
最大レベル
 41
0.7
 11
-255.5
 21
458.81842223958307
 31
0.0
 73
     3
  0
TEXT
  5
7D
  8
SPEC
 62
     7
 10
-143.32104771646809
 20
449.31684888888861
 30
0.0
 40
9.5015733506944464
  1
+20dBu
 41
0.7
 11
-143.32104771646809
 21
458.81842223958307
 31
0.0
 73
     3
  0
TEXT
  5
7E
  8
SPEC
 62
     7
 10
-365.5
 20
505.56684888888861
 30
0.0
 40
9.5015733506944464
  1
メイン
 41
0.7
 11
-365.5
 21
515.06842223958313
 31
0.0
 73
     3
  0
TEXT
  5
7F
  8
SPEC
 62
     7
 10
-365.5
 20
430.56684888888861
 30
0.0
 40
9.5015733506944464
  1
レコーディング
 41
0.7
 11
-365.5
 21
440.06842223958307
 31
0.0
 73
     3
  0
TEXT
  5
80
  8
SPEC
 62
     7
 10
-255.5
 20
430.56684888888861
 30
0.0
 40
9.5015733506944464
  1
チャンネル数
 41
0.7
 11
-255.5
 21
440.06842223958307
 31
0.0
 73
     3
  0
TEXT
  5
81
  8
SPEC
 62
     7
 10
-143.3210477164682
 20
430.56684888888861
 30
0.0
 40
9.5015733506944464
  1
1ステレオ
 41
0.7
 11
-143.3210477164682
 21
440.06842223958307
 31
0.0
 73
     3
  0
TEXT
  5
82
  8
SPEC
 62
     7
 10
-255.5
 20
393.06684888888873
 30
0.0
 40
9.5015733506944464
  1
インピーダンス
 41
0.7
 11
-255.5
 21
402.56842223958307
 31
0.0
 73
     3
  0
TEXT
  5
83
  8
SPEC
 62
     7
 10
-143.3210477164682
 20
411.81684888888861
 30
0.0
 40
9.5015733506944464
  1
RCA、アンバランス
 41
0.7
 11
-143.3210477164682
 21
421.31842223958307
 31
0.0
 73
     3
  0
TEXT
  5
84
  8
SPEC
 62
     7
 10
-255.5
 20
411.81684888888861
 30
0.0
 40
9.5015733506944464
  1
端子・形式
 41
0.7
 11
-255.5
 21
421.31842223958307
 31
0.0
 73
     3
  0
TEXT
  5
85
  8
SPEC
 62
     7
 10
-143.3210477164682
 20
393.06684888888873
 30
0.0
 40
9.5015733506944464
  1
100\U+03A9
 41
0.7
 11
-143.3210477164682
 21
402.56842223958307
 31
0.0
 73
     3
  0
TEXT
  5
86
  8
SPEC
 62
     7
 10
-255.5
 20
374.31684888888873
 30
0.0
 40
9.5015733506944464
  1
最大レベル
 41
0.7
 11
-255.5
 21
383.81842223958307
 31
0.0
 73
     3
  0
TEXT
  5
87
  8
SPEC
 62
     7
 10
-408.0
 20
355.56684888888873
 30
0.0
 40
9.5015733506944464
  1
AD-DA変換
 41
0.7
 11
-408.0
 21
365.06842223958319
 31
0.0
 73
     3
  0
TEXT
  5
88
  8
SPEC
 62
     7
 10
-143.3210477164682
 20
374.31684888888873
 30
0.0
 40
9.5015733506944464
  1
+20dBu
 41
0.7
 11
-143.3210477164682
 21
383.81842223958307
 31
0.0
 73
     3
  0
TEXT
  5
89
  8
SPEC
 62
     7
 10
-408.0
 20
336.81684888888873
 30
0.0
 40
9.5015733506944464
  1
電源
 41
0.7
 11
-408.0
 21
346.31842223958319
 31
0.0
 73
     3
  0
TEXT
  5
8A
  8
SPEC
 62
     7
 10
-408.0
 20
318.06684888888873
 30
0.0
 40
9.5015733506944464
  1
消費電力
 41
0.7
 11
-408.0
 21
327.56842223958319
 31
0.0
 73
     3
  0
TEXT
  5
8B
  8
SPEC
 62
     7
 10
-143.32104771646809
 20
355.56684888888873
 30
0.0
 40
9.5015733506944464
  1
24bit、48kHz
 41
0.7
 11
-143.32104771646809
 21
365.06842223958319
 31
0.0
 73
     3
  0
TEXT
  5
8C
  8
SPEC
 62
     7
 10
-143.3210477164682
 20
336.81684888888873
 30
0.0
 40
9.5015733506944464
  1
AC100V、50/60Hz
 41
0.7
 11
-143.3210477164682
 21
346.31842223958319
 31
0.0
 73
     3
  0
TEXT
  5
8D
  8
SPEC
 62
     7
 10
-143.3210477164682
 20
318.06684888888873
 30
0.0
 40
9.5015733506944464
  1
75W
 41
0.7
 11
-143.3210477164682
 21
327.56842223958319
 31
0.0
 73
     3
  0
TEXT
  5
8E
  8
SPEC
 62
     7
 10
-143.3210477164682
 20
261.81684888888873
 30
0.0
 40
9.5015733506944464
  1
ゴム足\U+00D74(1シート)、2ピン・ブロックコネクタ ー、電源ケーブル
 41
0.7
 11
-143.3210477164682
 21
271.31842223958319
 31
0.0
 73
     3
  0
TEXT
  5
8F
  8
DIMNSIONS
 62
     7
 10
-99.999999999999957
 20
-574.52528999999993
 30
0.0
 40
12.21630859375
  1
(単位：mm)
 41
0.7
 11
-99.999999999999957
 21
-562.30898140624993
 31
0.0
 73
     3
  0
LINE
  5
90
  8
DIMNSIONS
  6
CONTINUOUS
 62
     7
 10
-360.0
 20
-430.0
 30
0.0
 11
-360.0
 21
-470.0
 31
0.0
  0
LINE
  5
91
  8
DIMNSIONS
  6
CONTINUOUS
 62
     7
 10
122.0
 20
-430.0
 30
0.0
 11
122.0
 21
-470.0
 31
0.0
  0
LINE
  5
92
  8
DIMNSIONS
  6
CONTINUOUS
 62
     7
 10
-360.0
 20
-460.0
 30
0.0
 11
122.0
 21
-460.0
 31
0.0
  0
LINE
  5
93
  8
DIMNSIONS
  6
CONTINUOUS
 62
     7
 10
-360.0
 20
-460.0
 30
0.0
 11
-347.49688720703119
 21
-456.64980102424869
 31
0.0
  0
LINE
  5
94
  8
DIMNSIONS
  6
CONTINUOUS
 62
     7
 10
-360.0
 20
-460.0
 30
0.0
 11
-347.49688720703119
 21
-463.3501989757512
 31
0.0
  0
LINE
  5
95
  8
DIMNSIONS
  6
CONTINUOUS
 62
     7
 10
122.0
 20
-460.0
 30
0.0
 11
109.49688720703119
 21
-463.3501989757512
 31
0.0
  0
LINE
  5
96
  8
DIMNSIONS
  6
CONTINUOUS
 62
     7
 10
122.0
 20
-460.0
 30
0.0
 11
109.49688720703119
 21
-456.64980102424869
 31
0.0
  0
TEXT
  5
97
  8
DIMNSIONS
 62
     7
 10
-132.2291666666666
 20
-453.53055555555551
 30
0.0
 40
13.57367621527778
  1
482
 41
0.7
 11
-132.2291666666666
 21
-439.95687934027768
 31
0.0
 73
     3
  0
LINE
  5
98
  8
DIMNSIONS
  6
CONTINUOUS
 62
     7
 10
-370.0
 20
-420.0
 30
0.0
 11
-410.0
 21
-420.0
 31
0.0
  0
LINE
  5
99
  8
DIMNSIONS
  6
CONTINUOUS
 62
     7
 10
-370.0
 20
-375.5
 30
0.0
 11
-410.0
 21
-375.5
 31
0.0
  0
LINE
  5
9A
  8
DIMNSIONS
  6
CONTINUOUS
 62
     7
 10
-400.0
 20
-420.0
 30
0.0
 11
-400.0
 21
-375.5
 31
0.0
  0
LINE
  5
9B
  8
DIMNSIONS
  6
CONTINUOUS
 62
     7
 10
-400.0
 20
-420.0
 30
0.0
 11
-403.35019897575108
 21
-407.49688720703119
 31
0.0
  0
LINE
  5
9C
  8
DIMNSIONS
  6
CONTINUOUS
 62
     7
 10
-400.0
 20
-420.0
 30
0.0
 11
-396.6498010242488
 21
-407.49688720703119
 31
0.0
  0
LINE
  5
9D
  8
DIMNSIONS
  6
CONTINUOUS
 62
     7
 10
-400.0
 20
-375.5
 30
0.0
 11
-396.6498010242488
 21
-388.00311279296881
 31
0.0
  0
LINE
  5
9E
  8
DIMNSIONS
  6
CONTINUOUS
 62
     7
 10
-400.0
 20
-375.5
 30
0.0
 11
-403.35019897575108
 21
-388.00311279296881
 31
0.0
  0
TEXT
  5
9F
  8
DIMNSIONS
 62
     7
 10
-406.46944444444449
 20
-415.3888888888888
 30
0.0
 40
13.57367621527778
  1
44.5
 50
90.0
 41
0.7
 11
-420.04312065972221
 21
-415.3888888888888
 31
0.0
 73
     3
  0
LINE
  5
A0
  8
DIMNSIONS
  6
CONTINUOUS
 62
     7
 10
-341.5
 20
-50.0
 30
0.0
 11
-341.5
 21
-10.0
 31
0.0
  0
LINE
  5
A1
  8
DIMNSIONS
  6
CONTINUOUS
 62
     7
 10
103.5
 20
-50.0
 30
0.0
 11
103.5
 21
-10.0
 31
0.0
  0
LINE
  5
A2
  8
DIMNSIONS
  6
CONTINUOUS
 62
     7
 10
-341.5
 20
-20.0
 30
0.0
 11
103.5
 21
-20.0
 31
0.0
  0
LINE
  5
A3
  8
DIMNSIONS
  6
CONTINUOUS
 62
     7
 10
-341.5
 20
-20.0
 30
0.0
 11
-328.99688720703119
 21
-16.649801024248781
 31
0.0
  0
LINE
  5
A4
  8
DIMNSIONS
  6
CONTINUOUS
 62
     7
 10
-341.5
 20
-20.0
 30
0.0
 11
-328.99688720703119
 21
-23.350198975751219
 31
0.0
  0
LINE
  5
A5
  8
DIMNSIONS
  6
CONTINUOUS
 62
     7
 10
103.5
 20
-20.0
 30
0.0
 11
90.996887207031236
 21
-23.350198975751219
 31
0.0
  0
LINE
  5
A6
  8
DIMNSIONS
  6
CONTINUOUS
 62
     7
 10
103.5
 20
-20.0
 30
0.0
 11
90.996887207031236
 21
-16.649801024248781
 31
0.0
  0
TEXT
  5
A7
  8
DIMNSIONS
 62
     7
 10
-132.2291666666666
 20
-13.53055555555555
 30
0.0
 40
13.57367621527778
  1
445
 41
0.7
 11
-132.2291666666666
 21
0.0431206597222236
 31
0.0
 73
     3
  0
LINE
  5
A8
  8
DIMNSIONS
  6
CONTINUOUS
 62
     7
 10
-370.0
 20
-280.0
 30
0.0
 11
-410.0
 21
-280.0
 31
0.0
  0
LINE
  5
A9
  8
DIMNSIONS
  6
CONTINUOUS
 62
     7
 10
-351.5
 20
-60.0
 30
0.0
 11
-410.0
 21
-60.0
 31
0.0
  0
LINE
  5
AA
  8
DIMNSIONS
  6
CONTINUOUS
 62
     7
 10
-400.0
 20
-280.0
 30
0.0
 11
-400.0
 21
-60.0
 31
0.0
  0
LINE
  5
AB
  8
DIMNSIONS
  6
CONTINUOUS
 62
     7
 10
-400.0
 20
-280.0
 30
0.0
 11
-403.35019897575108
 21
-267.49688720703131
 31
0.0
  0
LINE
  5
AC
  8
DIMNSIONS
  6
CONTINUOUS
 62
     7
 10
-400.0
 20
-280.0
 30
0.0
 11
-396.6498010242488
 21
-267.49688720703131
 31
0.0
  0
LINE
  5
AD
  8
DIMNSIONS
  6
CONTINUOUS
 62
     7
 10
-400.0
 20
-60.0
 30
0.0
 11
-396.6498010242488
 21
-72.50311279296875
 31
0.0
  0
LINE
  5
AE
  8
DIMNSIONS
  6
CONTINUOUS
 62
     7
 10
-400.0
 20
-60.0
 30
0.0
 11
-403.35019897575108
 21
-72.50311279296875
 31
0.0
  0
TEXT
  5
AF
  8
DIMNSIONS
 62
     7
 10
-406.46944444444449
 20
-183.22916666666671
 30
0.0
 40
13.57367621527778
  1
220
 50
90.0
 41
0.7
 11
-420.04312065972221
 21
-183.22916666666671
 31
0.0
 73
     3
  0
LINE
  5
B0
  8
DIMNSIONS
  6
CONTINUOUS
 62
     7
 10
-370.0
 20
-280.0
 30
0.0
 11
-410.0
 21
-280.0
 31
0.0
  0
LINE
  5
B1
  8
DIMNSIONS
  6
CONTINUOUS
 62
     7
 10
-320.0
 20
-298.0
 30
0.0
 11
-410.0
 21
-298.0
 31
0.0
  0
LINE
  5
B2
  8
DIMNSIONS
  6
CONTINUOUS
 62
     7
 10
-400.0
 20
-298.0
 30
0.0
 11
-400.0
 21
-280.0
 31
0.0
  0
LINE
  5
B3
  8
DIMNSIONS
  6
CONTINUOUS
 62
     7
 10
-400.0
 20
-280.0
 30
0.0
 11
-400.0
 21
-255.0
 31
0.0
  0
LINE
  5
B4
  8
DIMNSIONS
  6
CONTINUOUS
 62
     7
 10
-400.0
 20
-280.0
 30
0.0
 11
-403.35019897575108
 21
-267.49688720703131
 31
0.0
  0
LINE
  5
B5
  8
DIMNSIONS
  6
CONTINUOUS
 62
     7
 10
-400.0
 20
-280.0
 30
0.0
 11
-396.6498010242488
 21
-267.49688720703131
 31
0.0
  0
LINE
  5
B6
  8
DIMNSIONS
  6
CONTINUOUS
 62
     7
 10
-400.0
 20
-298.0
 30
0.0
 11
-400.0
 21
-345.27777777777783
 31
0.0
  0
LINE
  5
B7
  8
DIMNSIONS
  6
CONTINUOUS
 62
     7
 10
-400.0
 20
-298.0
 30
0.0
 11
-396.6498010242488
 21
-310.50311279296881
 31
0.0
  0
LINE
  5
B8
  8
DIMNSIONS
  6
CONTINUOUS
 62
     7
 10
-400.0
 20
-298.0
 30
0.0
 11
-403.35019897575108
 21
-310.50311279296881
 31
0.0
  0
TEXT
  5
B9
  8
DIMNSIONS
 62
     7
 10
-404.96944444444449
 20
-345.27777777777783
 30
0.0
 40
13.57367621527778
  1
18.0
 50
90.0
 41
0.7
 11
-418.54312065972221
 21
-345.27777777777783
 31
0.0
 73
     3
  0
LINE
  5
BA
  8
DIMNSIONS
  6
CONTINUOUS
 62
     7
 10
-350.0
 20
-60.0
 30
0.0
 11
-410.1388888888888
 21
-60.0
 31
0.0
  0
LINE
  5
BB
  8
DIMNSIONS
  6
CONTINUOUS
 62
     7
 10
-94.149999999824999
 20
-51.5
 30
0.0
 11
-410.1388888888888
 21
-51.5
 31
0.0
  0
LINE
  5
BC
  8
DIMNSIONS
  6
CONTINUOUS
 62
     7
 10
-400.1388888888888
 20
-51.5
 30
0.0
 11
-400.1388888888888
 21
-60.0
 31
0.0
  0
LINE
  5
BD
  8
DIMNSIONS
  6
CONTINUOUS
 62
     7
 10
-400.1388888888888
 20
-60.0
 30
0.0
 11
-400.1388888888888
 21
-85.0
 31
0.0
  0
LINE
  5
BE
  8
DIMNSIONS
  6
CONTINUOUS
 62
     7
 10
-400.1388888888888
 20
-60.0
 30
0.0
 11
-396.78868991313772
 21
-72.50311279296875
 31
0.0
  0
LINE
  5
BF
  8
DIMNSIONS
  6
CONTINUOUS
 62
     7
 10
-400.1388888888888
 20
-60.0
 30
0.0
 11
-403.48908786464
 21
-72.50311279296875
 31
0.0
  0
LINE
  5
C0
  8
DIMNSIONS
  6
CONTINUOUS
 62
     7
 10
-400.1388888888888
 20
-51.5
 30
0.0
 11
-400.1388888888888
 21
-21.91447374548671
 31
0.0
  0
LINE
  5
C1
  8
DIMNSIONS
  6
CONTINUOUS
 62
     7
 10
-400.1388888888888
 20
-51.5
 30
0.0
 11
-403.48908786464
 21
-38.99688720703125
 31
0.0
  0
LINE
  5
C2
  8
DIMNSIONS
  6
CONTINUOUS
 62
     7
 10
-400.1388888888888
 20
-51.5
 30
0.0
 11
-396.78868991313772
 21
-38.99688720703125
 31
0.0
  0
TEXT
  5
C3
  8
DIMNSIONS
 62
     7
 10
-405.10833333333341
 20
-48.372807078820038
 30
0.0
 40
13.57367621527778
  1
8.5
 50
90.0
 41
0.7
 11
-418.68200954861118
 21
-48.372807078820038
 31
0.0
 73
     3
  0
LINE
  5
C4
  8
DATA
  6
CONTINUOUS
 62
     7
 10
-360.0
 20
84.500000000000014
 30
0.0
 11
-360.0
 21
40.0
 31
0.0
  0
LINE
  5
C5
  8
DATA
  6
CONTINUOUS
 62
     7
 10
122.0
 20
84.500000000000014
 30
0.0
 11
-360.0
 21
84.500000000000014
 31
0.0
  0
LINE
  5
C6
  8
DATA
  6
CONTINUOUS
 62
     7
 10
122.0
 20
40.0
 30
0.0
 11
122.0
 21
84.500000000000014
 31
0.0
  0
LINE
  5
C7
  8
DATA
  6
CONTINUOUS
 62
     7
 10
-360.0
 20
40.0
 30
0.0
 11
122.0
 21
40.0
 31
0.0
  0
LINE
  5
C8
  8
DATA
  6
CONTINUOUS
 62
     7
 10
-352.34999999999991
 20
43.0
 30
0.0
 11
-349.34999999999991
 21
43.0
 31
0.0
  0
LINE
  5
C9
  8
DATA
  6
CONTINUOUS
 62
     7
 10
-352.34999999999991
 20
49.5
 30
0.0
 11
-349.34999999999991
 21
49.5
 31
0.0
  0
ARC
  5
CA
  8
DATA
  6
CONTINUOUS
 62
     7
 10
-349.34999999999991
 20
46.25
 30
0.0
 40
3.25
 50
270.0
 51
90.0
  0
ARC
  5
CB
  8
DATA
  6
CONTINUOUS
 62
     7
 10
-352.34999999999991
 20
46.25
 30
0.0
 40
3.25
 50
90.0
 51
270.0
  0
LINE
  5
CC
  8
DATA
  6
CONTINUOUS
 62
     7
 10
-352.34999999999991
 20
81.5
 30
0.0
 11
-349.34999999999991
 21
81.5
 31
0.0
  0
LINE
  5
CD
  8
DATA
  6
CONTINUOUS
 62
     7
 10
-352.34999999999991
 20
75.0
 30
0.0
 11
-349.34999999999991
 21
75.0
 31
0.0
  0
ARC
  5
CE
  8
DATA
  6
CONTINUOUS
 62
     7
 10
-349.34999999999991
 20
78.25
 30
0.0
 40
3.25
 50
270.0
 51
90.0
  0
ARC
  5
CF
  8
DATA
  6
CONTINUOUS
 62
     7
 10
-352.34999999999991
 20
78.25
 30
0.0
 40
3.25
 50
90.0
 51
270.0
  0
LINE
  5
D0
  8
DATA
  6
CONTINUOUS
 62
     7
 10
114.34999999999989
 20
43.0
 30
0.0
 11
111.34999999999989
 21
43.0
 31
0.0
  0
LINE
  5
D1
  8
DATA
  6
CONTINUOUS
 62
     7
 10
114.34999999999989
 20
49.5
 30
0.0
 11
111.34999999999989
 21
49.5
 31
0.0
  0
ARC
  5
D2
  8
DATA
  6
CONTINUOUS
 62
     7
 10
111.34999999999989
 20
46.25
 30
0.0
 40
3.25
 50
90.0
 51
270.0
  0
ARC
  5
D3
  8
DATA
  6
CONTINUOUS
 62
     7
 10
114.34999999999989
 20
46.25
 30
0.0
 40
3.25
 50
270.0
 51
90.0
  0
LINE
  5
D4
  8
DATA
  6
CONTINUOUS
 62
     7
 10
114.34999999999989
 20
81.5
 30
0.0
 11
111.34999999999989
 21
81.5
 31
0.0
  0
LINE
  5
D5
  8
DATA
  6
CONTINUOUS
 62
     7
 10
114.34999999999989
 20
75.0
 30
0.0
 11
111.34999999999989
 21
75.0
 31
0.0
  0
ARC
  5
D6
  8
DATA
  6
CONTINUOUS
 62
     7
 10
111.34999999999989
 20
78.25
 30
0.0
 40
3.25
 50
90.0
 51
270.0
  0
ARC
  5
D7
  8
DATA
  6
CONTINUOUS
 62
     7
 10
114.34999999999989
 20
78.25
 30
0.0
 40
3.25
 50
270.0
 51
90.0
  0
LINE
  5
D8
  8
DATA
  6
CONTINUOUS
 62
     7
 10
103.5
 20
84.500000000000014
 30
0.0
 11
103.5
 21
40.0
 31
0.0
  0
LINE
  5
D9
  8
DATA
  6
CONTINUOUS
 62
     7
 10
-341.5
 20
84.500000000000014
 30
0.0
 11
103.5
 21
84.500000000000014
 31
0.0
  0
LINE
  5
DA
  8
DATA
  6
CONTINUOUS
 62
     7
 10
-341.5
 20
40.0
 30
0.0
 11
-341.5
 21
84.500000000000014
 31
0.0
  0
LINE
  5
DB
  8
DATA
  6
CONTINUOUS
 62
     7
 10
103.5
 20
40.0
 30
0.0
 11
-341.5
 21
40.0
 31
0.0
  0
LINE
  5
DC
  8
DATA
  6
CONTINUOUS
 62
     7
 10
97.5
 20
84.500000000000014
 30
0.0
 11
97.5
 21
46.0
 31
0.0
  0
LINE
  5
DD
  8
DATA
  6
CONTINUOUS
 62
     7
 10
-335.5
 20
46.0
 30
0.0
 11
-335.5
 21
84.500000000000014
 31
0.0
  0
LINE
  5
DE
  8
DATA
  6
CONTINUOUS
 62
     7
 10
97.5
 20
46.0
 30
0.0
 11
83.499999999999986
 21
46.0
 31
0.0
  0
LINE
  5
DF
  8
DATA
  6
CONTINUOUS
 62
     7
 10
83.499999999999986
 20
43.0
 30
0.0
 11
33.5
 21
43.0
 31
0.0
  0
LINE
  5
E0
  8
DATA
  6
CONTINUOUS
 62
     7
 10
23.5
 20
43.0
 30
0.0
 11
-261.5
 21
43.0
 31
0.0
  0
LINE
  5
E1
  8
DATA
  6
CONTINUOUS
 62
     7
 10
-271.5
 20
46.0
 30
0.0
 11
-335.5
 21
46.0
 31
0.0
  0
LINE
  5
E2
  8
DATA
  6
CONTINUOUS
 62
     7
 10
103.5
 20
40.0
 30
0.0
 11
97.5
 21
46.0
 31
0.0
  0
LINE
  5
E3
  8
DATA
  6
CONTINUOUS
 62
     7
 10
-335.5
 20
46.0
 30
0.0
 11
-341.5
 21
40.0
 31
0.0
  0
LINE
  5
E4
  8
DATA
  6
CONTINUOUS
 62
     7
 10
-261.5
 20
47.0
 30
0.0
 11
-261.5
 21
43.0
 31
0.0
  0
LINE
  5
E5
  8
DATA
  6
CONTINUOUS
 62
     7
 10
-264.5
 20
50.0
 30
0.0
 11
-261.5
 21
47.0
 31
0.0
  0
LINE
  5
E6
  8
DATA
  6
CONTINUOUS
 62
     7
 10
-268.5
 20
50.0
 30
0.0
 11
-264.5
 21
50.0
 31
0.0
  0
LINE
  5
E7
  8
DATA
  6
CONTINUOUS
 62
     7
 10
-271.5
 20
47.0
 30
0.0
 11
-268.5
 21
50.0
 31
0.0
  0
LINE
  5
E8
  8
DATA
  6
CONTINUOUS
 62
     7
 10
-271.5
 20
46.0
 30
0.0
 11
-271.5
 21
47.0
 31
0.0
  0
LINE
  5
E9
  8
DATA
  6
CONTINUOUS
 62
     7
 10
23.5
 20
47.0
 30
0.0
 11
23.5
 21
43.0
 31
0.0
  0
LINE
  5
EA
  8
DATA
  6
CONTINUOUS
 62
     7
 10
26.5
 20
50.0
 30
0.0
 11
23.5
 21
47.0
 31
0.0
  0
LINE
  5
EB
  8
DATA
  6
CONTINUOUS
 62
     7
 10
30.5
 20
50.0
 30
0.0
 11
26.5
 21
50.0
 31
0.0
  0
LINE
  5
EC
  8
DATA
  6
CONTINUOUS
 62
     7
 10
33.5
 20
47.0
 30
0.0
 11
30.5
 21
50.0
 31
0.0
  0
LINE
  5
ED
  8
DATA
  6
CONTINUOUS
 62
     7
 10
33.5
 20
43.0
 30
0.0
 11
33.5
 21
47.0
 31
0.0
  0
ARC
  5
EE
  8
DATA
  6
CONTINUOUS
 62
     7
 10
-122.149999999825
 20
66.499999999999517
 30
0.0
 40
8.1499999991849812
 50
231.25940399999971
 51
218.8581659999997
  0
CIRCLE
  5
EF
  8
DATA
  6
CONTINUOUS
 62
     7
 10
-117.650000000275
 20
66.499999999999517
 30
0.0
 40
1.1749999998824869
  0
CIRCLE
  5
F0
  8
DATA
  6
CONTINUOUS
 62
     7
 10
-112.24999999982499
 20
56.599999999999532
 30
0.0
 40
1.7499999998249789
  0
CIRCLE
  5
F1
  8
DATA
  6
CONTINUOUS
 62
     7
 10
-132.04999999982499
 20
76.399999999999537
 30
0.0
 40
1.7499999998250071
  0
CIRCLE
  5
F2
  8
DATA
  6
CONTINUOUS
 62
     7
 10
-126.649999999375
 20
66.499999999999517
 30
0.0
 40
1.1749999998824869
  0
CIRCLE
  5
F3
  8
DATA
  6
CONTINUOUS
 62
     7
 10
-122.149999999825
 20
70.449999999604557
 30
0.0
 40
1.1749999998825149
  0
ARC
  5
F4
  8
DATA
  6
CONTINUOUS
 62
     7
 10
-127.7274946659339
 20
60.91104866722511
 30
0.0
 40
0.9041666665762379
 50
148.25746799999879
 51
301.86010099999902
  0
CIRCLE
  5
F5
  8
DATA
  6
CONTINUOUS
 62
     7
 10
-122.149999999825
 20
66.499999999999517
 30
0.0
 40
10.90000000000002
  0
LINE
  5
F6
  8
DATA
  6
CONTINUOUS
 62
     7
 10
-130.5499999998251
 20
76.399999999999622
 30
0.0
 11
-133.5499999998251
 21
76.399999999999622
 31
0.0
  0
LINE
  5
F7
  8
DATA
  6
CONTINUOUS
 62
     7
 10
-132.0499999998251
 20
77.899999999999622
 30
0.0
 11
-132.0499999998251
 21
74.899999999999622
 31
0.0
  0
LINE
  5
F8
  8
DATA
  6
CONTINUOUS
 62
     7
 10
-110.74999999982489
 20
56.599999999999447
 30
0.0
 11
-113.74999999982489
 21
56.599999999999447
 31
0.0
  0
LINE
  5
F9
  8
DATA
  6
CONTINUOUS
 62
     7
 10
-112.24999999982489
 20
58.099999999999447
 30
0.0
 11
-112.24999999982489
 21
55.099999999999447
 31
0.0
  0
LINE
  5
FA
  8
DATA
  6
CONTINUOUS
 62
     7
 10
89.849999999674992
 20
52.083801668108073
 30
0.0
 11
89.849999999674992
 21
52.90000000135975
 31
0.0
  0
LINE
  5
FB
  8
DATA
  6
CONTINUOUS
 62
     7
 10
87.249999999934985
 20
55.20000000112978
 30
0.0
 11
87.249999999935056
 21
57.774033005748002
 31
0.0
  0
LINE
  5
FC
  8
DATA
  6
CONTINUOUS
 62
     7
 10
84.954167500164587
 20
50.28374250162139
 30
0.0
 11
84.954167500164587
 21
51.62916750148689
 31
0.0
  0
LINE
  5
FD
  8
DATA
  6
CONTINUOUS
 62
     7
 10
84.745832500185401
 20
51.62916750148689
 30
0.0
 11
84.745832500185401
 21
50.28374250162139
 31
0.0
  0
LINE
  5
FE
  8
DATA
  6
CONTINUOUS
 62
     7
 10
82.450000000415017
 20
55.20000000112978
 30
0.0
 11
82.450000000414931
 21
57.774033005748002
 31
0.0
  0
LINE
  5
FF
  8
DATA
  6
CONTINUOUS
 62
     7
 10
79.850000000675024
 20
52.083801668108073
 30
0.0
 11
79.850000000675024
 21
52.90000000135975
 31
0.0
  0
LINE
  5
100
  8
DATA
  6
CONTINUOUS
 62
     7
 10
87.849999999874996
 20
54.900000001159782
 30
0.0
 11
87.549999999904969
 21
54.900000001159782
 31
0.0
  0
LINE
  5
101
  8
DATA
  6
CONTINUOUS
 62
     7
 10
82.150000000445019
 20
54.900000001159782
 30
0.0
 11
81.850000000475006
 21
54.900000001159782
 31
0.0
  0
LINE
  5
102
  8
DATA
  6
CONTINUOUS
 62
     7
 10
85.435777500116416
 20
50.682082501581561
 30
0.0
 11
85.217822500138212
 21
50.807920001568966
 31
0.0
  0
LINE
  5
103
  8
DATA
  6
CONTINUOUS
 62
     7
 10
84.586345000201376
 20
51.172502501532527
 30
0.0
 11
84.270607500232941
 21
51.354795001514297
 31
0.0
  0
LINE
  5
104
  8
DATA
  6
CONTINUOUS
 62
     7
 10
84.264222500233572
 20
51.11791750153796
 30
0.0
 11
84.482177500211776
 21
50.992080001550534
 31
0.0
  0
LINE
  5
105
  8
DATA
  6
CONTINUOUS
 62
     7
 10
85.11365500014864
 20
50.627497501586973
 30
0.0
 11
85.429392500117061
 21
50.445205001605217
 31
0.0
  0
CIRCLE
  5
106
  8
DATA
  6
CONTINUOUS
 62
     7
 10
89.349999999724986
 20
66.499999999999744
 30
0.0
 40
1.649999999834989
  0
CIRCLE
  5
107
  8
DATA
  6
CONTINUOUS
 62
     7
 10
80.350000000624988
 20
66.499999999999744
 30
0.0
 40
1.649999999834989
  0
CIRCLE
  5
108
  8
DATA
  6
CONTINUOUS
 62
     7
 10
84.850000000175015
 20
70.449999999604728
 30
0.0
 40
1.649999999835017
  0
ARC
  5
109
  8
DATA
  6
CONTINUOUS
 62
     7
 10
87.849999999874996
 20
52.90000000135975
 30
0.0
 40
1.999999999799996
 50
0.0
 51
90.0
  0
ARC
  5
10A
  8
DATA
  6
CONTINUOUS
 62
     7
 10
84.850001337308314
 20
50.899999763193108
 30
0.0
 40
0.8333347356833595
 50
149.9999705882982
 51
214.9998819560993
  0
ARC
  5
10B
  8
DATA
  6
CONTINUOUS
 62
     7
 10
84.252701250234708
 20
50.481767501601581
 30
0.0
 40
0.1041669781228943
 50
214.9998495222124
 51
34.999849522194452
  0
ARC
  5
10C
  8
DATA
  6
CONTINUOUS
 62
     7
 10
84.849998512141653
 20
50.899998544693098
 30
0.0
 40
0.6249977663041639
 50
159.59391565579881
 51
214.9999498171029
  0
ARC
  5
10D
  8
DATA
  6
CONTINUOUS
 62
     7
 10
84.534261250206569
 20
51.082291251541541
 30
0.0
 40
0.1041671091896071
 50
239.9998758982004
 51
59.999875898213972
  0
ARC
  5
10E
  8
DATA
  6
CONTINUOUS
 62
     7
 10
84.218523721738123
 20
51.264583857823283
 30
0.0
 40
0.1041670313895701
 50
59.99983309389232
 51
149.99991870248701
  0
ARC
  5
10F
  8
DATA
  6
CONTINUOUS
 62
     7
 10
84.850000238541654
 20
50.900001338693102
 30
0.0
 40
0.8333347356833453
 50
239.9999705882999
 51
304.99988195610092
  0
ARC
  5
110
  8
DATA
  6
CONTINUOUS
 62
     7
 10
85.268232500133152
 20
50.302701251619482
 30
0.0
 40
0.1041669781228943
 50
304.99984952221229
 51
124.9998495221944
  0
ARC
  5
111
  8
DATA
  6
CONTINUOUS
 62
     7
 10
84.850002833341662
 20
50.89999597769306
 30
0.0
 40
0.6249948996374536
 50
279.59396132730012
 51
304.99997980370108
  0
ARC
  5
112
  8
DATA
  6
CONTINUOUS
 62
     7
 10
84.850000000175015
 20
51.62916750148689
 30
0.0
 40
0.1041674999895577
 50
0.0
 51
180.0
  0
ARC
  5
113
  8
DATA
  6
CONTINUOUS
 62
     7
 10
84.84999908290834
 20
50.899996625726402
 30
0.0
 40
0.624995857937507
 50
239.99987786889881
 51
260.4058753920994
  0
ARC
  5
114
  8
DATA
  6
CONTINUOUS
 62
     7
 10
84.485416250211443
 20
50.268523751622887
 30
0.0
 40
0.1041671091896071
 50
59.9998758982005
 51
239.99987589819841
  0
ARC
  5
115
  8
DATA
  6
CONTINUOUS
 62
     7
 10
84.849998663041617
 20
50.900000239926399
 30
0.0
 40
0.8333347356833311
 50
329.99997058830161
 51
34.999881956102449
  0
ARC
  5
116
  8
DATA
  6
CONTINUOUS
 62
     7
 10
85.447298750115266
 20
51.318232501517933
 30
0.0
 40
0.1041669781229176
 50
34.999849522203398
 51
214.9998495222035
  0
ARC
  5
117
  8
DATA
  6
CONTINUOUS
 62
     7
 10
84.850001488208335
 20
50.900001458426431
 30
0.0
 40
0.6249977663041639
 50
339.59391565579881
 51
34.999949817098688
  0
ARC
  5
118
  8
DATA
  6
CONTINUOUS
 62
     7
 10
85.165738750143419
 20
50.717708751577987
 30
0.0
 40
0.1041671091895929
 50
59.999875898214043
 51
239.99987589821399
  0
ARC
  5
119
  8
DATA
  6
CONTINUOUS
 62
     7
 10
85.481476278611808
 20
50.535416145296239
 30
0.0
 40
0.1041670313896052
 50
239.9998330939215
 51
329.99991870249471
  0
CIRCLE
  5
11A
  8
DATA
  6
CONTINUOUS
 62
     7
 10
84.850000000175015
 20
50.900000001559718
 30
0.0
 40
1.0416674998958511
  0
CIRCLE
  5
11B
  8
DATA
  6
CONTINUOUS
 62
     7
 10
84.850000000175015
 20
50.900000001559718
 30
0.0
 40
1.2499999998750011
  0
ARC
  5
11C
  8
DATA
  6
CONTINUOUS
 62
     7
 10
84.850000000175015
 20
59.500000000699771
 30
0.0
 40
9.9999999990000497
 50
247.97568699999999
 51
292.02431299999978
  0
ARC
  5
11D
  8
DATA
  6
CONTINUOUS
 62
     7
 10
87.849999999874996
 20
52.083801668108073
 30
0.0
 40
1.9999999998000051
 50
292.02431300000057
 51
0.0
  0
ARC
  5
11E
  8
DATA
  6
CONTINUOUS
 62
     7
 10
87.549999999904969
 20
55.20000000112978
 30
0.0
 40
0.299999999969998
 50
180.0
 51
270.0
  0
ARC
  5
11F
  8
DATA
  6
CONTINUOUS
 62
     7
 10
81.850000000475006
 20
52.083801668108073
 30
0.0
 40
1.999999999799968
 50
180.0
 51
247.97568700000019
  0
ARC
  5
120
  8
DATA
  6
CONTINUOUS
 62
     7
 10
81.850000000475006
 20
52.90000000135975
 30
0.0
 40
1.999999999800024
 50
90.0
 51
180.0
  0
ARC
  5
121
  8
DATA
  6
CONTINUOUS
 62
     7
 10
82.150000000445019
 20
55.20000000112978
 30
0.0
 40
0.2999999999700549
 50
270.0
 51
0.0
  0
TEXT
  5
122
  8
DATA
 62
     7
 10
88.186989333174608
 20
54.333348563583087
 30
0.0
 40
1.9219512193199979
  1
PUSH
 50
180.0
 41
0.7
  0
LINE
  5
123
  8
DATA
  6
CONTINUOUS
 62
     7
 10
86.400000000020015
 20
58.753549200569211
 30
0.0
 11
83.300000000330016
 21
58.753549200569211
 31
0.0
  0
CIRCLE
  5
124
  8
DATA
  6
CONTINUOUS
 62
     7
 10
94.750000000175021
 20
56.54999999999977
 30
0.0
 40
1.7499999998249931
  0
ARC
  5
125
  8
DATA
  6
CONTINUOUS
 62
     7
 10
84.850000000175015
 20
66.499999999999744
 30
0.0
 40
10.9
 50
282.7212066677078
 51
257.28018975266917
  0
CIRCLE
  5
126
  8
DATA
  6
CONTINUOUS
 62
     7
 10
74.950000000175024
 20
76.349999999999767
 30
0.0
 40
1.7499999998249789
  0
ARC
  5
127
  8
DATA
  6
CONTINUOUS
 62
     7
 10
84.850000000175015
 20
66.499999999999744
 30
0.0
 40
9.0499999990949735
 50
285.37844319759989
 51
254.62155680240011
  0
ARC
  5
128
  8
DATA
  6
CONTINUOUS
 62
     7
 10
84.850000000175015
 20
66.499999999999744
 30
0.0
 40
7.8999999992099639
 50
281.3149807061364
 51
309.29188431492821
  0
ARC
  5
129
  8
DATA
  6
CONTINUOUS
 62
     7
 10
84.850000000175015
 20
66.499999999999744
 30
0.0
 40
7.8999999992099657
 50
320.69269781841291
 51
258.68494534751619
  0
CIRCLE
  5
12A
  8
DATA
  6
CONTINUOUS
 62
     7
 10
89.349999999724986
 20
66.499999999999744
 30
0.0
 40
1.999999999799968
  0
CIRCLE
  5
12B
  8
DATA
  6
CONTINUOUS
 62
     7
 10
80.350000000624988
 20
66.499999999999744
 30
0.0
 40
1.999999999799968
  0
CIRCLE
  5
12C
  8
DATA
  6
CONTINUOUS
 62
     7
 10
84.850000000175015
 20
70.449999999604728
 30
0.0
 40
1.999999999800024
  0
ARC
  5
12D
  8
DATA
  6
CONTINUOUS
 62
     7
 10
90.294722332963843
 20
61.055278000544241
 30
0.0
 40
0.7999999999200194
 50
236.61291399999959
 51
33.387086000000487
  0
LINE
  5
12E
  8
DATA
  6
CONTINUOUS
 62
     7
 10
87.249999999935056
 20
57.774033005748002
 30
0.0
 11
82.450000000414931
 21
57.774033005748002
 31
0.0
  0
LINE
  5
12F
  8
DATA
  6
CONTINUOUS
 62
     7
 10
76.45000000017491
 20
76.349999999999682
 30
0.0
 11
73.45000000017491
 21
76.349999999999682
 31
0.0
  0
LINE
  5
130
  8
DATA
  6
CONTINUOUS
 62
     7
 10
74.95000000017491
 20
77.849999999999682
 30
0.0
 11
74.95000000017491
 21
74.849999999999682
 31
0.0
  0
LINE
  5
131
  8
DATA
  6
CONTINUOUS
 62
     7
 10
96.250000000175064
 20
56.549999999999507
 30
0.0
 11
93.250000000175078
 21
56.549999999999507
 31
0.0
  0
LINE
  5
132
  8
DATA
  6
CONTINUOUS
 62
     7
 10
94.750000000175064
 20
58.0499999999995
 30
0.0
 11
94.750000000175064
 21
55.049999999999507
 31
0.0
  0
CIRCLE
  5
133
  8
DATA
  6
CONTINUOUS
 62
     7
 10
68.850000000174987
 20
72.499999999999787
 30
0.0
 40
2.9999999999998792
  0
LINE
  5
134
  8
DATA
  6
CONTINUOUS
 62
     7
 10
71.808039891725002
 20
71.999999999999758
 30
0.0
 11
65.891960108624971
 21
71.999999999999758
 31
0.0
  0
LINE
  5
135
  8
DATA
  6
CONTINUOUS
 62
     7
 10
71.808039891725002
 20
72.999999999999787
 30
0.0
 11
65.891960108624971
 21
72.999999999999787
 31
0.0
  0
CIRCLE
  5
136
  8
DATA
  6
CONTINUOUS
 62
     7
 10
55.850000000174973
 20
72.499999999999787
 30
0.0
 40
2.9999999999998792
  0
LINE
  5
137
  8
DATA
  6
CONTINUOUS
 62
     7
 10
58.808039891724988
 20
71.999999999999758
 30
0.0
 11
52.891960108624971
 21
71.999999999999758
 31
0.0
  0
LINE
  5
138
  8
DATA
  6
CONTINUOUS
 62
     7
 10
58.808039891724988
 20
72.999999999999787
 30
0.0
 11
52.891960108624971
 21
72.999999999999787
 31
0.0
  0
LINE
  5
139
  8
DATA
  6
CONTINUOUS
 62
     7
 10
44.849999999674978
 20
52.083801668108073
 30
0.0
 11
44.849999999674978
 21
52.90000000135975
 31
0.0
  0
LINE
  5
13A
  8
DATA
  6
CONTINUOUS
 62
     7
 10
42.249999999934992
 20
55.20000000112978
 30
0.0
 11
42.249999999935092
 21
57.774033005748002
 31
0.0
  0
LINE
  5
13B
  8
DATA
  6
CONTINUOUS
 62
     7
 10
39.954167500164573
 20
50.28374250162139
 30
0.0
 11
39.954167500164573
 21
51.62916750148689
 31
0.0
  0
LINE
  5
13C
  8
DATA
  6
CONTINUOUS
 62
     7
 10
39.745832500185401
 20
51.62916750148689
 30
0.0
 11
39.745832500185401
 21
50.28374250162139
 31
0.0
  0
LINE
  5
13D
  8
DATA
  6
CONTINUOUS
 62
     7
 10
37.450000000415031
 20
55.20000000112978
 30
0.0
 11
37.450000000414953
 21
57.774033005748002
 31
0.0
  0
LINE
  5
13E
  8
DATA
  6
CONTINUOUS
 62
     7
 10
34.85000000067501
 20
52.083801668108073
 30
0.0
 11
34.85000000067501
 21
52.90000000135975
 31
0.0
  0
LINE
  5
13F
  8
DATA
  6
CONTINUOUS
 62
     7
 10
42.849999999875003
 20
54.900000001159782
 30
0.0
 11
42.54999999990499
 21
54.900000001159782
 31
0.0
  0
LINE
  5
140
  8
DATA
  6
CONTINUOUS
 62
     7
 10
37.150000000445033
 20
54.900000001159782
 30
0.0
 11
36.850000000474978
 21
54.900000001159782
 31
0.0
  0
LINE
  5
141
  8
DATA
  6
CONTINUOUS
 62
     7
 10
40.435777500116423
 20
50.682082501581561
 30
0.0
 11
40.217822500138219
 21
50.807920001568966
 31
0.0
  0
LINE
  5
142
  8
DATA
  6
CONTINUOUS
 62
     7
 10
39.586345000201362
 20
51.172502501532527
 30
0.0
 11
39.270607500232963
 21
51.354795001514297
 31
0.0
  0
LINE
  5
143
  8
DATA
  6
CONTINUOUS
 62
     7
 10
39.264222500233593
 20
51.11791750153796
 30
0.0
 11
39.482177500211783
 21
50.992080001550534
 31
0.0
  0
LINE
  5
144
  8
DATA
  6
CONTINUOUS
 62
     7
 10
40.113655000148633
 20
50.627497501586973
 30
0.0
 11
40.429392500117068
 21
50.445205001605217
 31
0.0
  0
CIRCLE
  5
145
  8
DATA
  6
CONTINUOUS
 62
     7
 10
44.349999999724979
 20
66.499999999999744
 30
0.0
 40
1.649999999834989
  0
CIRCLE
  5
146
  8
DATA
  6
CONTINUOUS
 62
     7
 10
35.350000000624988
 20
66.499999999999744
 30
0.0
 40
1.649999999834989
  0
CIRCLE
  5
147
  8
DATA
  6
CONTINUOUS
 62
     7
 10
39.850000000175022
 20
70.449999999604728
 30
0.0
 40
1.649999999835017
  0
ARC
  5
148
  8
DATA
  6
CONTINUOUS
 62
     7
 10
42.849999999875003
 20
52.90000000135975
 30
0.0
 40
1.999999999799996
 50
0.0
 51
90.0
  0
ARC
  5
149
  8
DATA
  6
CONTINUOUS
 62
     7
 10
39.850001337308328
 20
50.899999763193108
 30
0.0
 40
0.8333347356833595
 50
149.9999705882982
 51
214.9998819560993
  0
ARC
  5
14A
  8
DATA
  6
CONTINUOUS
 62
     7
 10
39.252701250234708
 20
50.481767501601581
 30
0.0
 40
0.1041669781228943
 50
214.9998495222124
 51
34.999849522194452
  0
ARC
  5
14B
  8
DATA
  6
CONTINUOUS
 62
     7
 10
39.849998512141681
 20
50.899998544693098
 30
0.0
 40
0.6249977663041639
 50
159.59391565579881
 51
214.9999498171029
  0
ARC
  5
14C
  8
DATA
  6
CONTINUOUS
 62
     7
 10
39.53426125020659
 20
51.082291251541541
 30
0.0
 40
0.1041671091896071
 50
239.9998758982004
 51
59.999875898213972
  0
ARC
  5
14D
  8
DATA
  6
CONTINUOUS
 62
     7
 10
39.21852372173813
 20
51.264583857823283
 30
0.0
 40
0.1041670313895701
 50
59.99983309389232
 51
149.99991870248701
  0
ARC
  5
14E
  8
DATA
  6
CONTINUOUS
 62
     7
 10
39.850000238541668
 20
50.900001338693102
 30
0.0
 40
0.8333347356833453
 50
239.9999705882999
 51
304.99988195610092
  0
ARC
  5
14F
  8
DATA
  6
CONTINUOUS
 62
     7
 10
40.268232500133173
 20
50.302701251619482
 30
0.0
 40
0.1041669781228943
 50
304.99984952221229
 51
124.9998495221944
  0
ARC
  5
150
  8
DATA
  6
CONTINUOUS
 62
     7
 10
39.850002833341676
 20
50.89999597769306
 30
0.0
 40
0.6249948996374536
 50
279.59396132730012
 51
304.99997980370108
  0
ARC
  5
151
  8
DATA
  6
CONTINUOUS
 62
     7
 10
39.850000000175022
 20
51.62916750148689
 30
0.0
 40
0.1041674999895577
 50
0.0
 51
180.0
  0
ARC
  5
152
  8
DATA
  6
CONTINUOUS
 62
     7
 10
39.849999082908347
 20
50.899996625726402
 30
0.0
 40
0.624995857937507
 50
239.99987786889881
 51
260.4058753920994
  0
ARC
  5
153
  8
DATA
  6
CONTINUOUS
 62
     7
 10
39.485416250211443
 20
50.268523751622887
 30
0.0
 40
0.1041671091896071
 50
59.9998758982005
 51
239.99987589819841
  0
ARC
  5
154
  8
DATA
  6
CONTINUOUS
 62
     7
 10
39.849998663041639
 20
50.900000239926399
 30
0.0
 40
0.8333347356833311
 50
329.99997058830161
 51
34.999881956102449
  0
ARC
  5
155
  8
DATA
  6
CONTINUOUS
 62
     7
 10
40.447298750115273
 20
51.318232501517933
 30
0.0
 40
0.1041669781229176
 50
34.999849522203398
 51
214.9998495222035
  0
ARC
  5
156
  8
DATA
  6
CONTINUOUS
 62
     7
 10
39.850001488208342
 20
50.900001458426431
 30
0.0
 40
0.6249977663041639
 50
339.59391565579881
 51
34.999949817098688
  0
ARC
  5
157
  8
DATA
  6
CONTINUOUS
 62
     7
 10
40.165738750143412
 20
50.717708751577987
 30
0.0
 40
0.1041671091895929
 50
59.999875898214043
 51
239.99987589821399
  0
ARC
  5
158
  8
DATA
  6
CONTINUOUS
 62
     7
 10
40.481476278611837
 20
50.535416145296239
 30
0.0
 40
0.1041670313896052
 50
239.9998330939215
 51
329.99991870249471
  0
CIRCLE
  5
159
  8
DATA
  6
CONTINUOUS
 62
     7
 10
39.850000000175022
 20
50.900000001559718
 30
0.0
 40
1.0416674998958511
  0
CIRCLE
  5
15A
  8
DATA
  6
CONTINUOUS
 62
     7
 10
39.850000000175022
 20
50.900000001559718
 30
0.0
 40
1.2499999998750011
  0
ARC
  5
15B
  8
DATA
  6
CONTINUOUS
 62
     7
 10
39.850000000175022
 20
59.500000000699771
 30
0.0
 40
9.9999999990000497
 50
247.97568699999999
 51
292.02431299999978
  0
ARC
  5
15C
  8
DATA
  6
CONTINUOUS
 62
     7
 10
42.849999999875003
 20
52.083801668108073
 30
0.0
 40
1.9999999998000051
 50
292.02431300000057
 51
0.0
  0
ARC
  5
15D
  8
DATA
  6
CONTINUOUS
 62
     7
 10
42.54999999990499
 20
55.20000000112978
 30
0.0
 40
0.299999999969998
 50
180.0
 51
270.0
  0
ARC
  5
15E
  8
DATA
  6
CONTINUOUS
 62
     7
 10
36.850000000474978
 20
52.083801668108073
 30
0.0
 40
1.999999999799968
 50
180.0
 51
247.97568700000019
  0
ARC
  5
15F
  8
DATA
  6
CONTINUOUS
 62
     7
 10
36.850000000474978
 20
52.90000000135975
 30
0.0
 40
1.999999999800024
 50
90.0
 51
180.0
  0
ARC
  5
160
  8
DATA
  6
CONTINUOUS
 62
     7
 10
37.150000000445033
 20
55.20000000112978
 30
0.0
 40
0.2999999999700549
 50
270.0
 51
0.0
  0
TEXT
  5
161
  8
DATA
 62
     7
 10
43.18698933317463
 20
54.333348563583087
 30
0.0
 40
1.9219512193199979
  1
PUSH
 50
180.0
 41
0.7
  0
LINE
  5
162
  8
DATA
  6
CONTINUOUS
 62
     7
 10
41.400000000020007
 20
58.753549200569211
 30
0.0
 11
38.300000000330023
 21
58.753549200569211
 31
0.0
  0
CIRCLE
  5
163
  8
DATA
  6
CONTINUOUS
 62
     7
 10
49.750000000175007
 20
56.54999999999977
 30
0.0
 40
1.7499999998249789
  0
ARC
  5
164
  8
DATA
  6
CONTINUOUS
 62
     7
 10
39.850000000175022
 20
66.499999999999744
 30
0.0
 40
10.9
 50
282.7212066677078
 51
257.28018975266917
  0
CIRCLE
  5
165
  8
DATA
  6
CONTINUOUS
 62
     7
 10
29.95000000017502
 20
76.349999999999767
 30
0.0
 40
1.7499999998249789
  0
ARC
  5
166
  8
DATA
  6
CONTINUOUS
 62
     7
 10
39.850000000175022
 20
66.499999999999744
 30
0.0
 40
9.0499999990949735
 50
285.37844319759989
 51
254.62155680240011
  0
ARC
  5
167
  8
DATA
  6
CONTINUOUS
 62
     7
 10
39.850000000175022
 20
66.499999999999744
 30
0.0
 40
7.8999999992099639
 50
281.3149807061364
 51
309.29188431492821
  0
ARC
  5
168
  8
DATA
  6
CONTINUOUS
 62
     7
 10
39.850000000175022
 20
66.499999999999744
 30
0.0
 40
7.8999999992099657
 50
320.69269781841291
 51
258.6849453475163
  0
CIRCLE
  5
169
  8
DATA
  6
CONTINUOUS
 62
     7
 10
44.349999999724979
 20
66.499999999999744
 30
0.0
 40
1.999999999799968
  0
CIRCLE
  5
16A
  8
DATA
  6
CONTINUOUS
 62
     7
 10
35.350000000624988
 20
66.499999999999744
 30
0.0
 40
1.999999999799968
  0
CIRCLE
  5
16B
  8
DATA
  6
CONTINUOUS
 62
     7
 10
39.850000000175022
 20
70.449999999604728
 30
0.0
 40
1.999999999800024
  0
ARC
  5
16C
  8
DATA
  6
CONTINUOUS
 62
     7
 10
45.29472233296385
 20
61.055278000544241
 30
0.0
 40
0.7999999999200194
 50
236.61291399999959
 51
33.387086000000487
  0
LINE
  5
16D
  8
DATA
  6
CONTINUOUS
 62
     7
 10
42.249999999935092
 20
57.774033005748002
 30
0.0
 11
37.450000000414953
 21
57.774033005748002
 31
0.0
  0
LINE
  5
16E
  8
DATA
  6
CONTINUOUS
 62
     7
 10
31.450000000174899
 20
76.349999999999682
 30
0.0
 11
28.450000000174899
 21
76.349999999999682
 31
0.0
  0
LINE
  5
16F
  8
DATA
  6
CONTINUOUS
 62
     7
 10
29.950000000174899
 20
77.849999999999682
 30
0.0
 11
29.950000000174899
 21
74.849999999999682
 31
0.0
  0
LINE
  5
170
  8
DATA
  6
CONTINUOUS
 62
     7
 10
51.250000000175071
 20
56.549999999999507
 30
0.0
 11
48.250000000175071
 21
56.549999999999507
 31
0.0
  0
LINE
  5
171
  8
DATA
  6
CONTINUOUS
 62
     7
 10
49.750000000175078
 20
58.0499999999995
 30
0.0
 11
49.750000000175078
 21
55.049999999999507
 31
0.0
  0
LINE
  5
172
  8
DATA
  6
CONTINUOUS
 62
     7
 10
64.850000000174987
 20
76.999999999999787
 30
0.0
 11
64.850000000174987
 21
74.499999999999787
 31
0.0
  0
LINE
  5
173
  8
DATA
  6
CONTINUOUS
 62
     7
 10
64.350000000174987
 20
76.499999999999787
 30
0.0
 11
64.350000000174987
 21
74.999999999999787
 31
0.0
  0
LINE
  5
174
  8
DATA
  6
CONTINUOUS
 62
     7
 10
59.85000000017498
 20
76.999999999999787
 30
0.0
 11
64.850000000174987
 21
76.999999999999787
 31
0.0
  0
LINE
  5
175
  8
DATA
  6
CONTINUOUS
 62
     7
 10
60.35000000017498
 20
76.499999999999787
 30
0.0
 11
64.350000000174987
 21
76.499999999999787
 31
0.0
  0
LINE
  5
176
  8
DATA
  6
CONTINUOUS
 62
     7
 10
59.85000000017498
 20
74.499999999999787
 30
0.0
 11
59.85000000017498
 21
76.999999999999787
 31
0.0
  0
LINE
  5
177
  8
DATA
  6
CONTINUOUS
 62
     7
 10
60.35000000017498
 20
74.999999999999787
 30
0.0
 11
60.35000000017498
 21
76.499999999999787
 31
0.0
  0
LINE
  5
178
  8
DATA
  6
CONTINUOUS
 62
     7
 10
64.850000000174987
 20
74.499999999999787
 30
0.0
 11
59.85000000017498
 21
74.499999999999787
 31
0.0
  0
LINE
  5
179
  8
DATA
  6
CONTINUOUS
 62
     7
 10
64.850000000174987
 20
74.499999999999787
 30
0.0
 11
59.85000000017498
 21
74.499999999999787
 31
0.0
  0
LINE
  5
17A
  8
DATA
  6
CONTINUOUS
 62
     7
 10
64.350000000174987
 20
74.999999999999787
 30
0.0
 11
60.35000000017498
 21
74.999999999999787
 31
0.0
  0
POLYLINE
  5
17B
  8
DATA
  6
CONTINUOUS
 62
     7
 66
     1
 10
0.0
 20
0.0
 30
0.0
 70
     1
  0
VERTEX
  5
6DD
  8
DATA
  6
CONTINUOUS
 62
     7
 10
60.440000000175132
 20
76.499999999999787
 30
0.0
  0
VERTEX
  5
6DE
  8
DATA
  6
CONTINUOUS
 62
     7
 10
61.940000000175132
 20
76.499999999999787
 30
0.0
  0
VERTEX
  5
6DF
  8
DATA
  6
CONTINUOUS
 62
     7
 10
61.940000000175132
 20
74.999999999999787
 30
0.0
  0
VERTEX
  5
6E0
  8
DATA
  6
CONTINUOUS
 62
     7
 10
60.440000000175132
 20
74.999999999999787
 30
0.0
  0
SEQEND
  5
6E1
  8
DATA
  6
CONTINUOUS
 62
     7
  0
ARC
  5
182
  8
DATA
  6
CONTINUOUS
 62
     7
 10
-146.14999999982501
 20
66.499999999999517
 30
0.0
 40
8.1499999991849812
 50
231.25940399999971
 51
218.85816599999981
  0
CIRCLE
  5
183
  8
DATA
  6
CONTINUOUS
 62
     7
 10
-141.65000000027501
 20
66.499999999999517
 30
0.0
 40
1.1749999998825149
  0
CIRCLE
  5
184
  8
DATA
  6
CONTINUOUS
 62
     7
 10
-136.24999999982501
 20
56.599999999999532
 30
0.0
 40
1.7499999998249789
  0
CIRCLE
  5
185
  8
DATA
  6
CONTINUOUS
 62
     7
 10
-156.04999999982499
 20
76.399999999999537
 30
0.0
 40
1.7499999998250071
  0
CIRCLE
  5
186
  8
DATA
  6
CONTINUOUS
 62
     7
 10
-150.64999999937501
 20
66.499999999999517
 30
0.0
 40
1.174999999882459
  0
CIRCLE
  5
187
  8
DATA
  6
CONTINUOUS
 62
     7
 10
-146.14999999982501
 20
70.449999999604557
 30
0.0
 40
1.1749999998825149
  0
ARC
  5
188
  8
DATA
  6
CONTINUOUS
 62
     7
 10
-151.7274946659339
 20
60.91104866722511
 30
0.0
 40
0.904166666576226
 50
148.25746799999831
 51
301.86010099999902
  0
CIRCLE
  5
189
  8
DATA
  6
CONTINUOUS
 62
     7
 10
-146.14999999982501
 20
66.499999999999517
 30
0.0
 40
10.900000000000009
  0
LINE
  5
18A
  8
DATA
  6
CONTINUOUS
 62
     7
 10
-154.5499999998251
 20
76.399999999999622
 30
0.0
 11
-157.5499999998251
 21
76.399999999999622
 31
0.0
  0
LINE
  5
18B
  8
DATA
  6
CONTINUOUS
 62
     7
 10
-156.0499999998251
 20
77.899999999999622
 30
0.0
 11
-156.0499999998251
 21
74.899999999999622
 31
0.0
  0
LINE
  5
18C
  8
DATA
  6
CONTINUOUS
 62
     7
 10
-134.74999999982489
 20
56.599999999999447
 30
0.0
 11
-137.74999999982489
 21
56.599999999999447
 31
0.0
  0
LINE
  5
18D
  8
DATA
  6
CONTINUOUS
 62
     7
 10
-136.24999999982489
 20
58.099999999999447
 30
0.0
 11
-136.24999999982489
 21
55.099999999999447
 31
0.0
  0
CIRCLE
  5
18E
  8
DATA
  6
CONTINUOUS
 62
     7
 10
-169.14999999982501
 20
69.499999999999773
 30
0.0
 40
3.999999999999909
  0
CIRCLE
  5
18F
  8
DATA
  6
CONTINUOUS
 62
     7
 10
-169.14999999982501
 20
69.499999999999773
 30
0.0
 40
2.500000000000008
  0
CIRCLE
  5
190
  8
DATA
  6
CONTINUOUS
 62
     7
 10
-169.14999999982501
 20
69.499999999999773
 30
0.0
 40
2.0000000000000391
  0
CIRCLE
  5
191
  8
DATA
  6
CONTINUOUS
 62
     7
 10
-169.14999999982501
 20
54.499999999999773
 30
0.0
 40
3.999999999999909
  0
CIRCLE
  5
192
  8
DATA
  6
CONTINUOUS
 62
     7
 10
-169.14999999982501
 20
54.499999999999773
 30
0.0
 40
2.500000000000008
  0
CIRCLE
  5
193
  8
DATA
  6
CONTINUOUS
 62
     7
 10
-169.14999999982501
 20
54.499999999999773
 30
0.0
 40
2.0000000000000391
  0
CIRCLE
  5
194
  8
DATA
  6
CONTINUOUS
 62
     7
 10
28.5
 20
46.0
 30
0.0
 40
3.0
  0
LINE
  5
195
  8
DATA
  6
CONTINUOUS
 62
     7
 10
30.0
 20
46.0
 30
0.0
 11
27.0
 21
46.0
 31
0.0
  0
LINE
  5
196
  8
DATA
  6
CONTINUOUS
 62
     7
 10
28.5
 20
47.5
 30
0.0
 11
28.5
 21
44.5
 31
0.0
  0
CIRCLE
  5
197
  8
DATA
  6
CONTINUOUS
 62
     7
 10
-266.5
 20
46.0
 30
0.0
 40
3.0
  0
LINE
  5
198
  8
DATA
  6
CONTINUOUS
 62
     7
 10
-265.0
 20
46.0
 30
0.0
 11
-268.0
 21
46.0
 31
0.0
  0
LINE
  5
199
  8
DATA
  6
CONTINUOUS
 62
     7
 10
-266.5
 20
47.5
 30
0.0
 11
-266.5
 21
44.5
 31
0.0
  0
LINE
  5
19A
  8
DATA
  6
CONTINUOUS
 62
     7
 10
-180.14999999982501
 20
76.499999999999787
 30
0.0
 11
-180.14999999982501
 21
62.499999999999773
 31
0.0
  0
LINE
  5
19B
  8
DATA
  6
CONTINUOUS
 62
     7
 10
-212.14999999982501
 20
76.499999999999787
 30
0.0
 11
-180.14999999982501
 21
76.499999999999787
 31
0.0
  0
LINE
  5
19C
  8
DATA
  6
CONTINUOUS
 62
     7
 10
-212.14999999982501
 20
62.499999999999773
 30
0.0
 11
-212.14999999982501
 21
76.499999999999787
 31
0.0
  0
LINE
  5
19D
  8
DATA
  6
CONTINUOUS
 62
     7
 10
-180.14999999982501
 20
62.499999999999773
 30
0.0
 11
-212.14999999982501
 21
62.499999999999773
 31
0.0
  0
LINE
  5
19E
  8
DATA
  6
CONTINUOUS
 62
     7
 10
-182.14999999982501
 20
75.499999999999787
 30
0.0
 11
-182.14999999982501
 21
64.499999999999773
 31
0.0
  0
LINE
  5
19F
  8
DATA
  6
CONTINUOUS
 62
     7
 10
-210.14999999982501
 20
75.499999999999787
 30
0.0
 11
-196.64999999982501
 21
75.499999999999787
 31
0.0
  0
LINE
  5
1A0
  8
DATA
  6
CONTINUOUS
 62
     7
 10
-210.14999999982501
 20
64.499999999999773
 30
0.0
 11
-210.14999999982501
 21
75.499999999999787
 31
0.0
  0
LINE
  5
1A1
  8
DATA
  6
CONTINUOUS
 62
     7
 10
-182.14999999982501
 20
64.499999999999773
 30
0.0
 11
-195.64999999982501
 21
64.499999999999773
 31
0.0
  0
LINE
  5
1A2
  8
DATA
  6
CONTINUOUS
 62
     7
 10
-195.64999999982501
 20
75.499999999999787
 30
0.0
 11
-195.64999999982501
 21
64.499999999999773
 31
0.0
  0
LINE
  5
1A3
  8
DATA
  6
CONTINUOUS
 62
     7
 10
-196.64999999982501
 20
75.499999999999787
 30
0.0
 11
-196.64999999982501
 21
64.499999999999773
 31
0.0
  0
LINE
  5
1A4
  8
DATA
  6
CONTINUOUS
 62
     7
 10
-205.89999999982501
 20
75.499999999999787
 30
0.0
 11
-205.89999999982501
 21
74.499999999999787
 31
0.0
  0
LINE
  5
1A5
  8
DATA
  6
CONTINUOUS
 62
     7
 10
-205.89999999982501
 20
74.499999999999787
 30
0.0
 11
-206.89999999982501
 21
74.499999999999787
 31
0.0
  0
LINE
  5
1A6
  8
DATA
  6
CONTINUOUS
 62
     7
 10
-206.89999999982501
 20
74.499999999999787
 30
0.0
 11
-206.89999999982501
 21
73.499999999999787
 31
0.0
  0
LINE
  5
1A7
  8
DATA
  6
CONTINUOUS
 62
     7
 10
-206.89999999982501
 20
73.499999999999787
 30
0.0
 11
-210.14999999982501
 21
73.499999999999787
 31
0.0
  0
LINE
  5
1A8
  8
DATA
  6
CONTINUOUS
 62
     7
 10
-200.89999999982501
 20
75.499999999999787
 30
0.0
 11
-200.89999999982501
 21
74.499999999999787
 31
0.0
  0
LINE
  5
1A9
  8
DATA
  6
CONTINUOUS
 62
     7
 10
-200.89999999982501
 20
74.499999999999787
 30
0.0
 11
-199.89999999982501
 21
74.499999999999787
 31
0.0
  0
LINE
  5
1AA
  8
DATA
  6
CONTINUOUS
 62
     7
 10
-199.89999999982501
 20
74.499999999999787
 30
0.0
 11
-199.89999999982501
 21
73.499999999999787
 31
0.0
  0
LINE
  5
1AB
  8
DATA
  6
CONTINUOUS
 62
     7
 10
-199.89999999982501
 20
73.499999999999787
 30
0.0
 11
-196.64999999982501
 21
73.499999999999787
 31
0.0
  0
LINE
  5
1AC
  8
DATA
  6
CONTINUOUS
 62
     7
 10
-195.64999999982501
 20
75.499999999999787
 30
0.0
 11
-182.14999999982501
 21
75.499999999999787
 31
0.0
  0
LINE
  5
1AD
  8
DATA
  6
CONTINUOUS
 62
     7
 10
-191.39999999982501
 20
75.499999999999787
 30
0.0
 11
-191.39999999982501
 21
74.499999999999787
 31
0.0
  0
LINE
  5
1AE
  8
DATA
  6
CONTINUOUS
 62
     7
 10
-191.39999999982501
 20
74.499999999999787
 30
0.0
 11
-192.39999999982501
 21
74.499999999999787
 31
0.0
  0
LINE
  5
1AF
  8
DATA
  6
CONTINUOUS
 62
     7
 10
-192.39999999982501
 20
74.499999999999787
 30
0.0
 11
-192.39999999982501
 21
73.499999999999787
 31
0.0
  0
LINE
  5
1B0
  8
DATA
  6
CONTINUOUS
 62
     7
 10
-192.39999999982501
 20
73.499999999999787
 30
0.0
 11
-195.64999999982501
 21
73.499999999999787
 31
0.0
  0
LINE
  5
1B1
  8
DATA
  6
CONTINUOUS
 62
     7
 10
-186.39999999982501
 20
75.499999999999787
 30
0.0
 11
-186.39999999982501
 21
74.499999999999787
 31
0.0
  0
LINE
  5
1B2
  8
DATA
  6
CONTINUOUS
 62
     7
 10
-186.39999999982501
 20
74.499999999999787
 30
0.0
 11
-185.39999999982501
 21
74.499999999999787
 31
0.0
  0
LINE
  5
1B3
  8
DATA
  6
CONTINUOUS
 62
     7
 10
-185.39999999982501
 20
74.499999999999787
 30
0.0
 11
-185.39999999982501
 21
73.499999999999787
 31
0.0
  0
LINE
  5
1B4
  8
DATA
  6
CONTINUOUS
 62
     7
 10
-185.39999999982501
 20
73.499999999999787
 30
0.0
 11
-182.14999999982501
 21
73.499999999999787
 31
0.0
  0
LINE
  5
1B5
  8
DATA
  6
CONTINUOUS
 62
     7
 10
-196.64999999982501
 20
64.499999999999773
 30
0.0
 11
-210.14999999982501
 21
64.499999999999773
 31
0.0
  0
LINE
  5
1B6
  8
DATA
  6
CONTINUOUS
 62
     7
 10
-216.6499999998251
 20
63.899999999999821
 30
0.0
 11
-244.44999999982511
 21
63.899999999999821
 31
0.0
  0
LINE
  5
1B7
  8
DATA
  6
CONTINUOUS
 62
     7
 10
-216.6499999998251
 20
76.499999999999815
 30
0.0
 11
-244.44999999982511
 21
76.499999999999815
 31
0.0
  0
POLYLINE
  5
1B8
  8
DATA
  6
CONTINUOUS
 62
     7
 66
     1
 10
0.0
 20
0.0
 30
0.0
 70
   129
  0
VERTEX
  5
6E2
  8
DATA
  6
CONTINUOUS
 62
     7
 10
-236.63999999982519
 20
68.779999999999802
 30
0.0
 42
-0.4142135623730951
  0
VERTEX
  5
6E3
  8
DATA
  6
CONTINUOUS
 62
     7
 10
-236.03999999982511
 20
69.379999999999811
 30
0.0
 42
-0.4142135623730951
  0
VERTEX
  5
6E4
  8
DATA
  6
CONTINUOUS
 62
     7
 10
-235.4399999998252
 20
68.779999999999802
 30
0.0
 42
-0.4142135623730951
  0
VERTEX
  5
6E5
  8
DATA
  6
CONTINUOUS
 62
     7
 10
-236.03999999982511
 20
68.179999999999794
 30
0.0
 42
-0.4142135623731091
  0
VERTEX
  5
6E6
  8
DATA
  6
CONTINUOUS
 62
     7
 10
-236.63999999982519
 20
68.779999999999802
 30
0.0
  0
SEQEND
  5
6E7
  8
DATA
  6
CONTINUOUS
 62
     7
  0
LINE
  5
1BF
  8
DATA
  6
CONTINUOUS
 62
     7
 10
-224.41999999982511
 20
66.289999999999822
 30
0.0
 11
-236.6799999998251
 21
66.289999999999822
 31
0.0
  0
LINE
  5
1C0
  8
DATA
  6
CONTINUOUS
 62
     7
 10
-224.7048799998251
 20
74.109999999999815
 30
0.0
 11
-236.3951299998252
 21
74.109999999999815
 31
0.0
  0
POLYLINE
  5
1C1
  8
DATA
  6
CONTINUOUS
 62
     7
 66
     1
 10
0.0
 20
0.0
 30
0.0
 70
   129
  0
VERTEX
  5
6E8
  8
DATA
  6
CONTINUOUS
 62
     7
 10
-219.5549999998251
 20
70.199999999999804
 30
0.0
 42
-0.4142135623730951
  0
VERTEX
  5
6E9
  8
DATA
  6
CONTINUOUS
 62
     7
 10
-218.0549999998251
 20
71.699999999999804
 30
0.0
 42
-0.4142135623730951
  0
VERTEX
  5
6EA
  8
DATA
  6
CONTINUOUS
 62
     7
 10
-216.5549999998251
 20
70.199999999999804
 30
0.0
 42
-0.4142135623730951
  0
VERTEX
  5
6EB
  8
DATA
  6
CONTINUOUS
 62
     7
 10
-218.0549999998251
 20
68.699999999999818
 30
0.0
 42
-0.4142135623730951
  0
VERTEX
  5
6EC
  8
DATA
  6
CONTINUOUS
 62
     7
 10
-219.5549999998251
 20
70.199999999999804
 30
0.0
  0
SEQEND
  5
6ED
  8
DATA
  6
CONTINUOUS
 62
     7
  0
ARC
  5
1C8
  8
DATA
  6
CONTINUOUS
 62
     7
 10
-216.6499999998251
 20
65.399999999999821
 30
0.0
 40
1.5
 50
270.0
 51
0.0
  0
ARC
  5
1C9
  8
DATA
  6
CONTINUOUS
 62
     7
 10
-216.6499999998251
 20
74.999999999999815
 30
0.0
 40
1.5
 50
0.0
 51
90.0
  0
POLYLINE
  5
1CA
  8
DATA
  6
CONTINUOUS
 62
     7
 66
     1
 10
0.0
 20
0.0
 30
0.0
 70
   129
  0
VERTEX
  5
6EE
  8
DATA
  6
CONTINUOUS
 62
     7
 10
-225.65999999982509
 20
68.779999999999802
 30
0.0
 42
-0.4142135623731091
  0
VERTEX
  5
6EF
  8
DATA
  6
CONTINUOUS
 62
     7
 10
-225.0599999998251
 20
69.379999999999811
 30
0.0
 42
-0.4142135623730951
  0
VERTEX
  5
6F0
  8
DATA
  6
CONTINUOUS
 62
     7
 10
-224.4599999998251
 20
68.779999999999802
 30
0.0
 42
-0.4142135623730813
  0
VERTEX
  5
6F1
  8
DATA
  6
CONTINUOUS
 62
     7
 10
-225.0599999998251
 20
68.179999999999794
 30
0.0
 42
-0.4142135623730951
  0
VERTEX
  5
6F2
  8
DATA
  6
CONTINUOUS
 62
     7
 10
-225.65999999982509
 20
68.779999999999802
 30
0.0
  0
SEQEND
  5
6F3
  8
DATA
  6
CONTINUOUS
 62
     7
  0
POLYLINE
  5
1D1
  8
DATA
  6
CONTINUOUS
 62
     7
 66
     1
 10
0.0
 20
0.0
 30
0.0
 70
   129
  0
VERTEX
  5
6F4
  8
DATA
  6
CONTINUOUS
 62
     7
 10
-228.40999999982509
 20
68.779999999999802
 30
0.0
 42
-0.4142135623730951
  0
VERTEX
  5
6F5
  8
DATA
  6
CONTINUOUS
 62
     7
 10
-227.8099999998251
 20
69.379999999999811
 30
0.0
 42
-0.4142135623730951
  0
VERTEX
  5
6F6
  8
DATA
  6
CONTINUOUS
 62
     7
 10
-227.2099999998251
 20
68.779999999999802
 30
0.0
 42
-0.4142135623730813
  0
VERTEX
  5
6F7
  8
DATA
  6
CONTINUOUS
 62
     7
 10
-227.8099999998251
 20
68.179999999999794
 30
0.0
 42
-0.4142135623730951
  0
VERTEX
  5
6F8
  8
DATA
  6
CONTINUOUS
 62
     7
 10
-228.40999999982509
 20
68.779999999999802
 30
0.0
  0
SEQEND
  5
6F9
  8
DATA
  6
CONTINUOUS
 62
     7
  0
POLYLINE
  5
1D8
  8
DATA
  6
CONTINUOUS
 62
     7
 66
     1
 10
0.0
 20
0.0
 30
0.0
 70
   129
  0
VERTEX
  5
6FA
  8
DATA
  6
CONTINUOUS
 62
     7
 10
-231.1499999998251
 20
68.779999999999802
 30
0.0
 42
-0.4142135623730951
  0
VERTEX
  5
6FB
  8
DATA
  6
CONTINUOUS
 62
     7
 10
-230.5499999998251
 20
69.379999999999811
 30
0.0
 42
-0.4142135623730813
  0
VERTEX
  5
6FC
  8
DATA
  6
CONTINUOUS
 62
     7
 10
-229.94999999982511
 20
68.779999999999802
 30
0.0
 42
-0.4142135623730951
  0
VERTEX
  5
6FD
  8
DATA
  6
CONTINUOUS
 62
     7
 10
-230.5499999998251
 20
68.179999999999794
 30
0.0
 42
-0.4142135623730951
  0
VERTEX
  5
6FE
  8
DATA
  6
CONTINUOUS
 62
     7
 10
-231.1499999998251
 20
68.779999999999802
 30
0.0
  0
SEQEND
  5
6FF
  8
DATA
  6
CONTINUOUS
 62
     7
  0
POLYLINE
  5
1DF
  8
DATA
  6
CONTINUOUS
 62
     7
 66
     1
 10
0.0
 20
0.0
 30
0.0
 70
   129
  0
VERTEX
  5
700
  8
DATA
  6
CONTINUOUS
 62
     7
 10
-233.88999999982519
 20
68.779999999999802
 30
0.0
 42
-0.4142135623730951
  0
VERTEX
  5
701
  8
DATA
  6
CONTINUOUS
 62
     7
 10
-233.2899999998252
 20
69.379999999999811
 30
0.0
 42
-0.4142135623731091
  0
VERTEX
  5
702
  8
DATA
  6
CONTINUOUS
 62
     7
 10
-232.68999999982509
 20
68.779999999999802
 30
0.0
 42
-0.4142135623730951
  0
VERTEX
  5
703
  8
DATA
  6
CONTINUOUS
 62
     7
 10
-233.2899999998252
 20
68.179999999999794
 30
0.0
 42
-0.4142135623731229
  0
VERTEX
  5
704
  8
DATA
  6
CONTINUOUS
 62
     7
 10
-233.88999999982519
 20
68.779999999999802
 30
0.0
  0
SEQEND
  5
705
  8
DATA
  6
CONTINUOUS
 62
     7
  0
POLYLINE
  5
1E6
  8
DATA
  6
CONTINUOUS
 62
     7
 66
     1
 10
0.0
 20
0.0
 30
0.0
 70
   129
  0
VERTEX
  5
706
  8
DATA
  6
CONTINUOUS
 62
     7
 10
-227.03999999982511
 20
71.619999999999834
 30
0.0
 42
-0.4142135623730951
  0
VERTEX
  5
707
  8
DATA
  6
CONTINUOUS
 62
     7
 10
-226.43999999982509
 20
72.219999999999843
 30
0.0
 42
-0.4142135623731091
  0
VERTEX
  5
708
  8
DATA
  6
CONTINUOUS
 62
     7
 10
-225.8399999998251
 20
71.619999999999834
 30
0.0
 42
-0.4142135623730951
  0
VERTEX
  5
709
  8
DATA
  6
CONTINUOUS
 62
     7
 10
-226.43999999982509
 20
71.019999999999825
 30
0.0
 42
-0.4142135623730951
  0
VERTEX
  5
70A
  8
DATA
  6
CONTINUOUS
 62
     7
 10
-227.03999999982511
 20
71.619999999999834
 30
0.0
  0
SEQEND
  5
70B
  8
DATA
  6
CONTINUOUS
 62
     7
  0
POLYLINE
  5
1ED
  8
DATA
  6
CONTINUOUS
 62
     7
 66
     1
 10
0.0
 20
0.0
 30
0.0
 70
   129
  0
VERTEX
  5
70C
  8
DATA
  6
CONTINUOUS
 62
     7
 10
-229.77999999982509
 20
71.619999999999834
 30
0.0
 42
-0.4142135623730951
  0
VERTEX
  5
70D
  8
DATA
  6
CONTINUOUS
 62
     7
 10
-229.1799999998251
 20
72.219999999999843
 30
0.0
 42
-0.4142135623730951
  0
VERTEX
  5
70E
  8
DATA
  6
CONTINUOUS
 62
     7
 10
-228.57999999982511
 20
71.619999999999834
 30
0.0
 42
-0.4142135623730951
  0
VERTEX
  5
70F
  8
DATA
  6
CONTINUOUS
 62
     7
 10
-229.1799999998251
 20
71.019999999999825
 30
0.0
 42
-0.4142135623730951
  0
VERTEX
  5
710
  8
DATA
  6
CONTINUOUS
 62
     7
 10
-229.77999999982509
 20
71.619999999999834
 30
0.0
  0
SEQEND
  5
711
  8
DATA
  6
CONTINUOUS
 62
     7
  0
POLYLINE
  5
1F4
  8
DATA
  6
CONTINUOUS
 62
     7
 66
     1
 10
0.0
 20
0.0
 30
0.0
 70
   129
  0
VERTEX
  5
712
  8
DATA
  6
CONTINUOUS
 62
     7
 10
-232.5199999998251
 20
71.619999999999834
 30
0.0
 42
-0.4142135623730951
  0
VERTEX
  5
713
  8
DATA
  6
CONTINUOUS
 62
     7
 10
-231.91999999982511
 20
72.219999999999843
 30
0.0
 42
-0.4142135623730951
  0
VERTEX
  5
714
  8
DATA
  6
CONTINUOUS
 62
     7
 10
-231.31999999982509
 20
71.619999999999834
 30
0.0
 42
-0.4142135623731091
  0
VERTEX
  5
715
  8
DATA
  6
CONTINUOUS
 62
     7
 10
-231.91999999982511
 20
71.019999999999825
 30
0.0
 42
-0.4142135623731091
  0
VERTEX
  5
716
  8
DATA
  6
CONTINUOUS
 62
     7
 10
-232.5199999998251
 20
71.619999999999834
 30
0.0
  0
SEQEND
  5
717
  8
DATA
  6
CONTINUOUS
 62
     7
  0
POLYLINE
  5
1FB
  8
DATA
  6
CONTINUOUS
 62
     7
 66
     1
 10
0.0
 20
0.0
 30
0.0
 70
   129
  0
VERTEX
  5
718
  8
DATA
  6
CONTINUOUS
 62
     7
 10
-235.2599999998252
 20
71.619999999999834
 30
0.0
 42
-0.4142135623730673
  0
VERTEX
  5
719
  8
DATA
  6
CONTINUOUS
 62
     7
 10
-234.6599999998252
 20
72.219999999999843
 30
0.0
 42
-0.4142135623730951
  0
VERTEX
  5
71A
  8
DATA
  6
CONTINUOUS
 62
     7
 10
-234.0599999998251
 20
71.619999999999834
 30
0.0
 42
-0.4142135623730951
  0
VERTEX
  5
71B
  8
DATA
  6
CONTINUOUS
 62
     7
 10
-234.6599999998252
 20
71.019999999999825
 30
0.0
 42
-0.4142135623730951
  0
VERTEX
  5
71C
  8
DATA
  6
CONTINUOUS
 62
     7
 10
-235.2599999998252
 20
71.619999999999834
 30
0.0
  0
SEQEND
  5
71D
  8
DATA
  6
CONTINUOUS
 62
     7
  0
LINE
  5
202
  8
DATA
  6
CONTINUOUS
 62
     7
 10
-215.1499999998251
 20
74.999999999999815
 30
0.0
 11
-215.1499999998251
 21
65.399999999999821
 31
0.0
  0
ARC
  5
203
  8
DATA
  6
CONTINUOUS
 62
     7
 10
-224.41999999982511
 20
68.289999999999822
 30
0.0
 40
2.0
 50
270.0
 51
0.0
  0
LINE
  5
204
  8
DATA
  6
CONTINUOUS
 62
     7
 10
-222.41999999982511
 20
68.289999999999822
 30
0.0
 11
-223.22765999982511
 21
72.870469999999813
 31
0.0
  0
ARC
  5
205
  8
DATA
  6
CONTINUOUS
 62
     7
 10
-224.7048799998251
 20
72.609999999999815
 30
0.0
 40
1.49999800166532
 50
9.9999255496015902
 51
90.000000000000028
  0
POLYLINE
  5
206
  8
DATA
  6
CONTINUOUS
 62
     7
 66
     1
 10
0.0
 20
0.0
 30
0.0
 70
   129
  0
VERTEX
  5
71E
  8
DATA
  6
CONTINUOUS
 62
     7
 10
-244.54499999982511
 20
70.199999999999804
 30
0.0
 42
-0.4142135623730951
  0
VERTEX
  5
71F
  8
DATA
  6
CONTINUOUS
 62
     7
 10
-243.04499999982519
 20
71.699999999999804
 30
0.0
 42
-0.4142135623730951
  0
VERTEX
  5
720
  8
DATA
  6
CONTINUOUS
 62
     7
 10
-241.54499999982511
 20
70.199999999999804
 30
0.0
 42
-0.4142135623730951
  0
VERTEX
  5
721
  8
DATA
  6
CONTINUOUS
 62
     7
 10
-243.04499999982519
 20
68.699999999999818
 30
0.0
 42
-0.4142135623730951
  0
VERTEX
  5
722
  8
DATA
  6
CONTINUOUS
 62
     7
 10
-244.54499999982511
 20
70.199999999999804
 30
0.0
  0
SEQEND
  5
723
  8
DATA
  6
CONTINUOUS
 62
     7
  0
ARC
  5
20D
  8
DATA
  6
CONTINUOUS
 62
     7
 10
-244.44999999982511
 20
74.999999999999815
 30
0.0
 40
1.5
 50
90.0
 51
180.0
  0
LINE
  5
20E
  8
DATA
  6
CONTINUOUS
 62
     7
 10
-245.94999999982511
 20
74.999999999999815
 30
0.0
 11
-245.94999999982511
 21
65.399999999999821
 31
0.0
  0
ARC
  5
20F
  8
DATA
  6
CONTINUOUS
 62
     7
 10
-244.44999999982511
 20
65.399999999999821
 30
0.0
 40
1.5
 50
180.0
 51
270.0
  0
ARC
  5
210
  8
DATA
  6
CONTINUOUS
 62
     7
 10
-236.6799999998251
 20
68.289999999999822
 30
0.0
 40
2.0
 50
180.0
 51
270.0
  0
LINE
  5
211
  8
DATA
  6
CONTINUOUS
 62
     7
 10
-238.6799999998251
 20
68.289999999999822
 30
0.0
 11
-237.8723399998251
 21
72.870469999999813
 31
0.0
  0
ARC
  5
212
  8
DATA
  6
CONTINUOUS
 62
     7
 10
-236.3951299998252
 20
72.609999999999815
 30
0.0
 40
1.5
 50
90.0
 51
170.00007445039839
  0
LINE
  5
213
  8
DATA
  6
CONTINUOUS
 62
     7
 10
83.499999999999986
 20
46.0
 30
0.0
 11
83.499999999999986
 21
43.0
 31
0.0
  0
LINE
  5
214
  8
DATA
  6
CONTINUOUS
 62
     7
 10
-246.9499999998252
 20
76.499999999999787
 30
0.0
 11
-246.9499999998252
 21
52.909999999999862
 31
0.0
  0
LINE
  5
215
  8
DATA
  6
CONTINUOUS
 62
     7
 10
-255.94999999982511
 20
76.499999999999787
 30
0.0
 11
-246.9499999998252
 21
76.499999999999787
 31
0.0
  0
LINE
  5
216
  8
DATA
  6
CONTINUOUS
 62
     7
 10
-255.94999999982511
 20
52.909999999999862
 30
0.0
 11
-255.94999999982511
 21
76.499999999999787
 31
0.0
  0
LINE
  5
217
  8
DATA
  6
CONTINUOUS
 62
     7
 10
-246.9499999998252
 20
52.909999999999862
 30
0.0
 11
-255.94999999982511
 21
52.909999999999862
 31
0.0
  0
LINE
  5
218
  8
DATA
  6
CONTINUOUS
 62
     7
 10
-254.9499999998252
 20
71.099999999999682
 30
0.0
 11
-254.24999999982541
 21
72.599999999999682
 31
0.0
  0
LINE
  5
219
  8
DATA
  6
CONTINUOUS
 62
     7
 10
-252.6999999998252
 20
72.599999999999682
 30
0.0
 11
-251.9499999998252
 21
71.099999999999682
 31
0.0
  0
LINE
  5
21A
  8
DATA
  6
CONTINUOUS
 62
     7
 10
-252.6999999998252
 20
72.599999999999682
 30
0.0
 11
-251.9499999998252
 21
72.599999999999682
 31
0.0
  0
LINE
  5
21B
  8
DATA
  6
CONTINUOUS
 62
     7
 10
-254.24999999982541
 20
72.599999999999682
 30
0.0
 11
-254.9499999998252
 21
72.599999999999682
 31
0.0
  0
LINE
  5
21C
  8
DATA
  6
CONTINUOUS
 62
     7
 10
-254.9499999998252
 20
71.099999999999682
 30
0.0
 11
-251.9499999998252
 21
71.099999999999682
 31
0.0
  0
LINE
  5
21D
  8
DATA
  6
CONTINUOUS
 62
     7
 10
-254.9499999998252
 20
75.999999999999787
 30
0.0
 11
-251.9499999998252
 21
75.999999999999787
 31
0.0
  0
LINE
  5
21E
  8
DATA
  6
CONTINUOUS
 62
     7
 10
-251.9499999998252
 20
72.599999999999682
 30
0.0
 11
-251.9499999998252
 21
75.999999999999787
 31
0.0
  0
LINE
  5
21F
  8
DATA
  6
CONTINUOUS
 62
     7
 10
-254.9499999998252
 20
72.599999999999682
 30
0.0
 11
-254.9499999998252
 21
75.999999999999787
 31
0.0
  0
CIRCLE
  5
220
  8
DATA
  6
CONTINUOUS
 62
     7
 10
-253.4499999998252
 20
74.299999999999699
 30
0.0
 40
0.5
  0
LINE
  5
221
  8
DATA
  6
CONTINUOUS
 62
     7
 10
-250.9499999998252
 20
71.099999999999682
 30
0.0
 11
-250.24999999982541
 21
72.599999999999682
 31
0.0
  0
LINE
  5
222
  8
DATA
  6
CONTINUOUS
 62
     7
 10
-248.6999999998252
 20
72.599999999999682
 30
0.0
 11
-247.9499999998252
 21
71.099999999999682
 31
0.0
  0
LINE
  5
223
  8
DATA
  6
CONTINUOUS
 62
     7
 10
-248.6999999998252
 20
72.599999999999682
 30
0.0
 11
-247.9499999998252
 21
72.599999999999682
 31
0.0
  0
LINE
  5
224
  8
DATA
  6
CONTINUOUS
 62
     7
 10
-250.24999999982541
 20
72.599999999999682
 30
0.0
 11
-250.9499999998252
 21
72.599999999999682
 31
0.0
  0
LINE
  5
225
  8
DATA
  6
CONTINUOUS
 62
     7
 10
-250.9499999998252
 20
71.099999999999682
 30
0.0
 11
-247.9499999998252
 21
71.099999999999682
 31
0.0
  0
LINE
  5
226
  8
DATA
  6
CONTINUOUS
 62
     7
 10
-250.9499999998252
 20
75.999999999999787
 30
0.0
 11
-247.9499999998252
 21
75.999999999999787
 31
0.0
  0
LINE
  5
227
  8
DATA
  6
CONTINUOUS
 62
     7
 10
-247.9499999998252
 20
72.599999999999682
 30
0.0
 11
-247.9499999998252
 21
75.999999999999787
 31
0.0
  0
LINE
  5
228
  8
DATA
  6
CONTINUOUS
 62
     7
 10
-250.9499999998252
 20
72.599999999999682
 30
0.0
 11
-250.9499999998252
 21
75.999999999999787
 31
0.0
  0
CIRCLE
  5
229
  8
DATA
  6
CONTINUOUS
 62
     7
 10
-249.4499999998252
 20
74.299999999999699
 30
0.0
 40
0.5
  0
LINE
  5
22A
  8
DATA
  6
CONTINUOUS
 62
     7
 10
-254.9499999998252
 20
53.909999999999847
 30
0.0
 11
-254.24999999982541
 21
55.409999999999862
 31
0.0
  0
LINE
  5
22B
  8
DATA
  6
CONTINUOUS
 62
     7
 10
-252.6999999998252
 20
55.409999999999862
 30
0.0
 11
-251.9499999998252
 21
53.909999999999847
 31
0.0
  0
LINE
  5
22C
  8
DATA
  6
CONTINUOUS
 62
     7
 10
-252.6999999998252
 20
55.409999999999862
 30
0.0
 11
-251.9499999998252
 21
55.409999999999862
 31
0.0
  0
LINE
  5
22D
  8
DATA
  6
CONTINUOUS
 62
     7
 10
-254.24999999982541
 20
55.409999999999862
 30
0.0
 11
-254.9499999998252
 21
55.409999999999862
 31
0.0
  0
LINE
  5
22E
  8
DATA
  6
CONTINUOUS
 62
     7
 10
-254.9499999998252
 20
53.909999999999847
 30
0.0
 11
-251.9499999998252
 21
53.909999999999847
 31
0.0
  0
LINE
  5
22F
  8
DATA
  6
CONTINUOUS
 62
     7
 10
-254.9499999998252
 20
58.809999999999931
 30
0.0
 11
-251.9499999998252
 21
58.809999999999931
 31
0.0
  0
LINE
  5
230
  8
DATA
  6
CONTINUOUS
 62
     7
 10
-251.9499999998252
 20
55.409999999999862
 30
0.0
 11
-251.9499999998252
 21
58.809999999999931
 31
0.0
  0
LINE
  5
231
  8
DATA
  6
CONTINUOUS
 62
     7
 10
-254.9499999998252
 20
55.409999999999862
 30
0.0
 11
-254.9499999998252
 21
58.809999999999931
 31
0.0
  0
CIRCLE
  5
232
  8
DATA
  6
CONTINUOUS
 62
     7
 10
-253.4499999998252
 20
57.109999999999893
 30
0.0
 40
0.5
  0
LINE
  5
233
  8
DATA
  6
CONTINUOUS
 62
     7
 10
-250.9499999998252
 20
53.909999999999847
 30
0.0
 11
-250.24999999982541
 21
55.409999999999862
 31
0.0
  0
LINE
  5
234
  8
DATA
  6
CONTINUOUS
 62
     7
 10
-248.6999999998252
 20
55.409999999999862
 30
0.0
 11
-247.9499999998252
 21
53.909999999999847
 31
0.0
  0
LINE
  5
235
  8
DATA
  6
CONTINUOUS
 62
     7
 10
-248.6999999998252
 20
55.409999999999862
 30
0.0
 11
-247.9499999998252
 21
55.409999999999862
 31
0.0
  0
LINE
  5
236
  8
DATA
  6
CONTINUOUS
 62
     7
 10
-250.24999999982541
 20
55.409999999999862
 30
0.0
 11
-250.9499999998252
 21
55.409999999999862
 31
0.0
  0
LINE
  5
237
  8
DATA
  6
CONTINUOUS
 62
     7
 10
-250.9499999998252
 20
53.909999999999847
 30
0.0
 11
-247.9499999998252
 21
53.909999999999847
 31
0.0
  0
LINE
  5
238
  8
DATA
  6
CONTINUOUS
 62
     7
 10
-250.9499999998252
 20
58.809999999999931
 30
0.0
 11
-247.9499999998252
 21
58.809999999999931
 31
0.0
  0
LINE
  5
239
  8
DATA
  6
CONTINUOUS
 62
     7
 10
-247.9499999998252
 20
55.409999999999862
 30
0.0
 11
-247.9499999998252
 21
58.809999999999931
 31
0.0
  0
LINE
  5
23A
  8
DATA
  6
CONTINUOUS
 62
     7
 10
-250.9499999998252
 20
55.409999999999862
 30
0.0
 11
-250.9499999998252
 21
58.809999999999931
 31
0.0
  0
CIRCLE
  5
23B
  8
DATA
  6
CONTINUOUS
 62
     7
 10
-249.4499999998252
 20
57.109999999999893
 30
0.0
 40
0.5
  0
LINE
  5
23C
  8
DATA
  6
CONTINUOUS
 62
     7
 10
-250.1999999998252
 20
69.599999999999682
 30
0.0
 11
-250.1999999998252
 21
66.849999999999682
 31
0.0
  0
LINE
  5
23D
  8
DATA
  6
CONTINUOUS
 62
     7
 10
-252.6999999998252
 20
69.599999999999682
 30
0.0
 11
-250.1999999998252
 21
69.599999999999682
 31
0.0
  0
LINE
  5
23E
  8
DATA
  6
CONTINUOUS
 62
     7
 10
-252.6999999998252
 20
66.849999999999682
 30
0.0
 11
-252.6999999998252
 21
69.599999999999682
 31
0.0
  0
LINE
  5
23F
  8
DATA
  6
CONTINUOUS
 62
     7
 10
-250.1999999998252
 20
66.849999999999682
 30
0.0
 11
-252.6999999998252
 21
66.849999999999682
 31
0.0
  0
LINE
  5
240
  8
DATA
  6
CONTINUOUS
 62
     7
 10
-250.1999999998252
 20
59.809999999999732
 30
0.0
 11
-250.1999999998252
 21
62.559999999999718
 31
0.0
  0
LINE
  5
241
  8
DATA
  6
CONTINUOUS
 62
     7
 10
-252.6999999998252
 20
59.809999999999732
 30
0.0
 11
-250.1999999998252
 21
59.809999999999732
 31
0.0
  0
LINE
  5
242
  8
DATA
  6
CONTINUOUS
 62
     7
 10
-252.6999999998252
 20
62.559999999999718
 30
0.0
 11
-252.6999999998252
 21
59.809999999999732
 31
0.0
  0
LINE
  5
243
  8
DATA
  6
CONTINUOUS
 62
     7
 10
-250.1999999998252
 20
62.559999999999718
 30
0.0
 11
-252.6999999998252
 21
62.559999999999718
 31
0.0
  0
LINE
  5
244
  8
DATA
  6
CONTINUOUS
 62
     7
 10
20.849999999674989
 20
52.083801668108073
 30
0.0
 11
20.849999999674989
 21
52.90000000135975
 31
0.0
  0
LINE
  5
245
  8
DATA
  6
CONTINUOUS
 62
     7
 10
18.249999999935
 20
55.20000000112978
 30
0.0
 11
18.249999999935081
 21
57.774033005748002
 31
0.0
  0
LINE
  5
246
  8
DATA
  6
CONTINUOUS
 62
     7
 10
15.954167500164569
 20
50.28374250162139
 30
0.0
 11
15.954167500164569
 21
51.62916750148689
 31
0.0
  0
LINE
  5
247
  8
DATA
  6
CONTINUOUS
 62
     7
 10
15.745832500185401
 20
51.62916750148689
 30
0.0
 11
15.745832500185401
 21
50.28374250162139
 31
0.0
  0
LINE
  5
248
  8
DATA
  6
CONTINUOUS
 62
     7
 10
13.450000000415031
 20
55.20000000112978
 30
0.0
 11
13.45000000041494
 21
57.774033005748002
 31
0.0
  0
LINE
  5
249
  8
DATA
  6
CONTINUOUS
 62
     7
 10
10.85000000067501
 20
52.083801668108073
 30
0.0
 11
10.85000000067501
 21
52.90000000135975
 31
0.0
  0
LINE
  5
24A
  8
DATA
  6
CONTINUOUS
 62
     7
 10
18.849999999874999
 20
54.900000001159782
 30
0.0
 11
18.549999999905001
 21
54.900000001159782
 31
0.0
  0
LINE
  5
24B
  8
DATA
  6
CONTINUOUS
 62
     7
 10
13.150000000445029
 20
54.900000001159782
 30
0.0
 11
12.85000000047498
 21
54.900000001159782
 31
0.0
  0
LINE
  5
24C
  8
DATA
  6
CONTINUOUS
 62
     7
 10
16.435777500116409
 20
50.682082501581561
 30
0.0
 11
16.217822500138219
 21
50.807920001568966
 31
0.0
  0
LINE
  5
24D
  8
DATA
  6
CONTINUOUS
 62
     7
 10
15.58634500020136
 20
51.172502501532527
 30
0.0
 11
15.27060750023295
 21
51.354795001514297
 31
0.0
  0
LINE
  5
24E
  8
DATA
  6
CONTINUOUS
 62
     7
 10
15.264222500233579
 20
51.11791750153796
 30
0.0
 11
15.482177500211771
 21
50.992080001550534
 31
0.0
  0
LINE
  5
24F
  8
DATA
  6
CONTINUOUS
 62
     7
 10
16.11365500014864
 20
50.627497501586973
 30
0.0
 11
16.429392500117071
 21
50.445205001605217
 31
0.0
  0
CIRCLE
  5
250
  8
DATA
  6
CONTINUOUS
 62
     7
 10
20.349999999724989
 20
66.499999999999744
 30
0.0
 40
1.649999999834989
  0
CIRCLE
  5
251
  8
DATA
  6
CONTINUOUS
 62
     7
 10
11.350000000624989
 20
66.499999999999744
 30
0.0
 40
1.649999999834989
  0
CIRCLE
  5
252
  8
DATA
  6
CONTINUOUS
 62
     7
 10
15.85000000017501
 20
70.449999999604728
 30
0.0
 40
1.649999999835017
  0
ARC
  5
253
  8
DATA
  6
CONTINUOUS
 62
     7
 10
18.849999999874999
 20
52.90000000135975
 30
0.0
 40
1.999999999799996
 50
0.0
 51
90.0
  0
ARC
  5
254
  8
DATA
  6
CONTINUOUS
 62
     7
 10
15.850001337308329
 20
50.899999763193108
 30
0.0
 40
0.8333347356833595
 50
149.9999705882982
 51
214.9998819560993
  0
ARC
  5
255
  8
DATA
  6
CONTINUOUS
 62
     7
 10
15.252701250234701
 20
50.481767501601581
 30
0.0
 40
0.1041669781228943
 50
214.9998495222124
 51
34.999849522194452
  0
ARC
  5
256
  8
DATA
  6
CONTINUOUS
 62
     7
 10
15.849998512141671
 20
50.899998544693098
 30
0.0
 40
0.6249977663041639
 50
159.59391565579881
 51
214.9999498171029
  0
ARC
  5
257
  8
DATA
  6
CONTINUOUS
 62
     7
 10
15.53426125020658
 20
51.082291251541541
 30
0.0
 40
0.1041671091896071
 50
239.9998758982004
 51
59.999875898213972
  0
ARC
  5
258
  8
DATA
  6
CONTINUOUS
 62
     7
 10
15.21852372173813
 20
51.264583857823283
 30
0.0
 40
0.1041670313895701
 50
59.99983309389232
 51
149.99991870248701
  0
ARC
  5
259
  8
DATA
  6
CONTINUOUS
 62
     7
 10
15.85000023854167
 20
50.900001338693102
 30
0.0
 40
0.8333347356833453
 50
239.9999705882999
 51
304.99988195610092
  0
ARC
  5
25A
  8
DATA
  6
CONTINUOUS
 62
     7
 10
16.268232500133159
 20
50.302701251619482
 30
0.0
 40
0.1041669781228943
 50
304.99984952221229
 51
124.9998495221944
  0
ARC
  5
25B
  8
DATA
  6
CONTINUOUS
 62
     7
 10
15.850002833341669
 20
50.89999597769306
 30
0.0
 40
0.6249948996374536
 50
279.59396132730012
 51
304.99997980370108
  0
ARC
  5
25C
  8
DATA
  6
CONTINUOUS
 62
     7
 10
15.85000000017501
 20
51.62916750148689
 30
0.0
 40
0.1041674999895577
 50
0.0
 51
180.0
  0
ARC
  5
25D
  8
DATA
  6
CONTINUOUS
 62
     7
 10
15.84999908290834
 20
50.899996625726402
 30
0.0
 40
0.624995857937507
 50
239.99987786889881
 51
260.4058753920994
  0
ARC
  5
25E
  8
DATA
  6
CONTINUOUS
 62
     7
 10
15.485416250211451
 20
50.268523751622887
 30
0.0
 40
0.1041671091896071
 50
59.9998758982005
 51
239.99987589819841
  0
ARC
  5
25F
  8
DATA
  6
CONTINUOUS
 62
     7
 10
15.849998663041641
 20
50.900000239926399
 30
0.0
 40
0.8333347356833311
 50
329.99997058830161
 51
34.999881956102449
  0
ARC
  5
260
  8
DATA
  6
CONTINUOUS
 62
     7
 10
16.447298750115259
 20
51.318232501517933
 30
0.0
 40
0.1041669781229176
 50
34.999849522203398
 51
214.9998495222035
  0
ARC
  5
261
  8
DATA
  6
CONTINUOUS
 62
     7
 10
15.85000148820834
 20
50.900001458426431
 30
0.0
 40
0.6249977663041639
 50
339.59391565579881
 51
34.999949817098688
  0
ARC
  5
262
  8
DATA
  6
CONTINUOUS
 62
     7
 10
16.165738750143419
 20
50.717708751577987
 30
0.0
 40
0.1041671091895929
 50
59.999875898214043
 51
239.99987589821399
  0
ARC
  5
263
  8
DATA
  6
CONTINUOUS
 62
     7
 10
16.48147627861184
 20
50.535416145296239
 30
0.0
 40
0.1041670313896052
 50
239.9998330939215
 51
329.99991870249471
  0
CIRCLE
  5
264
  8
DATA
  6
CONTINUOUS
 62
     7
 10
15.85000000017501
 20
50.900000001559718
 30
0.0
 40
1.0416674998958511
  0
CIRCLE
  5
265
  8
DATA
  6
CONTINUOUS
 62
     7
 10
15.85000000017501
 20
50.900000001559718
 30
0.0
 40
1.2499999998750011
  0
ARC
  5
266
  8
DATA
  6
CONTINUOUS
 62
     7
 10
15.85000000017501
 20
59.500000000699771
 30
0.0
 40
9.9999999990000497
 50
247.97568699999999
 51
292.02431299999978
  0
ARC
  5
267
  8
DATA
  6
CONTINUOUS
 62
     7
 10
18.849999999874999
 20
52.083801668108073
 30
0.0
 40
1.9999999998000051
 50
292.02431300000057
 51
0.0
  0
ARC
  5
268
  8
DATA
  6
CONTINUOUS
 62
     7
 10
18.549999999905001
 20
55.20000000112978
 30
0.0
 40
0.299999999969998
 50
180.0
 51
270.0
  0
ARC
  5
269
  8
DATA
  6
CONTINUOUS
 62
     7
 10
12.85000000047498
 20
52.083801668108073
 30
0.0
 40
1.999999999799968
 50
180.0
 51
247.97568700000019
  0
ARC
  5
26A
  8
DATA
  6
CONTINUOUS
 62
     7
 10
12.85000000047498
 20
52.90000000135975
 30
0.0
 40
1.999999999800024
 50
90.0
 51
180.0
  0
ARC
  5
26B
  8
DATA
  6
CONTINUOUS
 62
     7
 10
13.150000000445029
 20
55.20000000112978
 30
0.0
 40
0.2999999999700549
 50
270.0
 51
0.0
  0
TEXT
  5
26C
  8
DATA
 62
     7
 10
19.18698933317464
 20
54.333348563583087
 30
0.0
 40
1.9219512193199979
  1
PUSH
 50
180.0
 41
0.7
  0
LINE
  5
26D
  8
DATA
  6
CONTINUOUS
 62
     7
 10
17.400000000020011
 20
58.753549200569211
 30
0.0
 11
14.300000000330011
 21
58.753549200569211
 31
0.0
  0
CIRCLE
  5
26E
  8
DATA
  6
CONTINUOUS
 62
     7
 10
25.750000000175021
 20
56.54999999999977
 30
0.0
 40
1.7499999998249789
  0
ARC
  5
26F
  8
DATA
  6
CONTINUOUS
 62
     7
 10
15.85000000017501
 20
66.499999999999744
 30
0.0
 40
10.9
 50
282.7212066677078
 51
257.28018975266917
  0
CIRCLE
  5
270
  8
DATA
  6
CONTINUOUS
 62
     7
 10
5.9500000001750131
 20
76.349999999999767
 30
0.0
 40
1.7499999998249789
  0
ARC
  5
271
  8
DATA
  6
CONTINUOUS
 62
     7
 10
15.85000000017501
 20
66.499999999999744
 30
0.0
 40
9.0499999990949735
 50
285.37844319759989
 51
254.62155680240011
  0
ARC
  5
272
  8
DATA
  6
CONTINUOUS
 62
     7
 10
15.85000000017501
 20
66.499999999999744
 30
0.0
 40
7.8999999992099639
 50
281.3149807061364
 51
309.29188431492821
  0
ARC
  5
273
  8
DATA
  6
CONTINUOUS
 62
     7
 10
15.85000000017501
 20
66.499999999999744
 30
0.0
 40
7.8999999992099692
 50
320.69269781841291
 51
258.6849453475163
  0
CIRCLE
  5
274
  8
DATA
  6
CONTINUOUS
 62
     7
 10
20.349999999724989
 20
66.499999999999744
 30
0.0
 40
1.999999999799968
  0
CIRCLE
  5
275
  8
DATA
  6
CONTINUOUS
 62
     7
 10
11.350000000624989
 20
66.499999999999744
 30
0.0
 40
1.999999999799968
  0
CIRCLE
  5
276
  8
DATA
  6
CONTINUOUS
 62
     7
 10
15.85000000017501
 20
70.449999999604728
 30
0.0
 40
1.999999999800024
  0
ARC
  5
277
  8
DATA
  6
CONTINUOUS
 62
     7
 10
21.294722332963861
 20
61.055278000544241
 30
0.0
 40
0.7999999999200194
 50
236.61291399999959
 51
33.387086000000487
  0
LINE
  5
278
  8
DATA
  6
CONTINUOUS
 62
     7
 10
18.249999999935081
 20
57.774033005748002
 30
0.0
 11
13.45000000041494
 21
57.774033005748002
 31
0.0
  0
LINE
  5
279
  8
DATA
  6
CONTINUOUS
 62
     7
 10
7.4500000001748949
 20
76.349999999999682
 30
0.0
 11
4.4500000001748949
 21
76.349999999999682
 31
0.0
  0
LINE
  5
27A
  8
DATA
  6
CONTINUOUS
 62
     7
 10
5.9500000001748949
 20
77.849999999999682
 30
0.0
 11
5.9500000001748949
 21
74.849999999999682
 31
0.0
  0
LINE
  5
27B
  8
DATA
  6
CONTINUOUS
 62
     7
 10
27.250000000175081
 20
56.549999999999507
 30
0.0
 11
24.250000000175081
 21
56.549999999999507
 31
0.0
  0
LINE
  5
27C
  8
DATA
  6
CONTINUOUS
 62
     7
 10
25.750000000175081
 20
58.0499999999995
 30
0.0
 11
25.750000000175081
 21
55.049999999999507
 31
0.0
  0
CIRCLE
  5
27D
  8
DATA
  6
CONTINUOUS
 62
     7
 10
-0.1499999998250132
 20
72.499999999999787
 30
0.0
 40
2.9999999999998792
  0
LINE
  5
27E
  8
DATA
  6
CONTINUOUS
 62
     7
 10
2.8080398917250018
 20
71.999999999999758
 30
0.0
 11
-3.1080398913750278
 21
71.999999999999758
 31
0.0
  0
LINE
  5
27F
  8
DATA
  6
CONTINUOUS
 62
     7
 10
2.8080398917250018
 20
72.999999999999787
 30
0.0
 11
-3.1080398913750278
 21
72.999999999999787
 31
0.0
  0
CIRCLE
  5
280
  8
DATA
  6
CONTINUOUS
 62
     7
 10
-13.14999999982501
 20
72.499999999999787
 30
0.0
 40
2.9999999999998792
  0
LINE
  5
281
  8
DATA
  6
CONTINUOUS
 62
     7
 10
-10.191960108274991
 20
71.999999999999758
 30
0.0
 11
-16.108039891375022
 21
71.999999999999758
 31
0.0
  0
LINE
  5
282
  8
DATA
  6
CONTINUOUS
 62
     7
 10
-10.191960108274991
 20
72.999999999999787
 30
0.0
 11
-16.108039891375022
 21
72.999999999999787
 31
0.0
  0
LINE
  5
283
  8
DATA
  6
CONTINUOUS
 62
     7
 10
-24.150000000325011
 20
52.083801668108073
 30
0.0
 11
-24.150000000325011
 21
52.90000000135975
 31
0.0
  0
LINE
  5
284
  8
DATA
  6
CONTINUOUS
 62
     7
 10
-26.750000000065
 20
55.20000000112978
 30
0.0
 11
-26.750000000064912
 21
57.774033005748002
 31
0.0
  0
LINE
  5
285
  8
DATA
  6
CONTINUOUS
 62
     7
 10
-29.045832499835431
 20
50.28374250162139
 30
0.0
 11
-29.045832499835431
 21
51.62916750148689
 31
0.0
  0
LINE
  5
286
  8
DATA
  6
CONTINUOUS
 62
     7
 10
-29.254167499814599
 20
51.62916750148689
 30
0.0
 11
-29.254167499814599
 21
50.28374250162139
 31
0.0
  0
LINE
  5
287
  8
DATA
  6
CONTINUOUS
 62
     7
 10
-31.549999999584969
 20
55.20000000112978
 30
0.0
 11
-31.549999999585051
 21
57.774033005748002
 31
0.0
  0
LINE
  5
288
  8
DATA
  6
CONTINUOUS
 62
     7
 10
-34.14999999932499
 20
52.083801668108073
 30
0.0
 11
-34.14999999932499
 21
52.90000000135975
 31
0.0
  0
LINE
  5
289
  8
DATA
  6
CONTINUOUS
 62
     7
 10
-26.150000000125001
 20
54.900000001159782
 30
0.0
 11
-26.450000000094999
 21
54.900000001159782
 31
0.0
  0
LINE
  5
28A
  8
DATA
  6
CONTINUOUS
 62
     7
 10
-31.849999999554971
 20
54.900000001159782
 30
0.0
 11
-32.149999999525022
 21
54.900000001159782
 31
0.0
  0
LINE
  5
28B
  8
DATA
  6
CONTINUOUS
 62
     7
 10
-28.564222499883591
 20
50.682082501581561
 30
0.0
 11
-28.782177499861771
 21
50.807920001568966
 31
0.0
  0
LINE
  5
28C
  8
DATA
  6
CONTINUOUS
 62
     7
 10
-29.413654999798641
 20
51.172502501532527
 30
0.0
 11
-29.729392499767041
 21
51.354795001514297
 31
0.0
  0
LINE
  5
28D
  8
DATA
  6
CONTINUOUS
 62
     7
 10
-29.73577749976641
 20
51.11791750153796
 30
0.0
 11
-29.517822499788231
 21
50.992080001550534
 31
0.0
  0
LINE
  5
28E
  8
DATA
  6
CONTINUOUS
 62
     7
 10
-28.88634499985136
 20
50.627497501586973
 30
0.0
 11
-28.570607499882929
 21
50.445205001605217
 31
0.0
  0
CIRCLE
  5
28F
  8
DATA
  6
CONTINUOUS
 62
     7
 10
-24.650000000275011
 20
66.499999999999744
 30
0.0
 40
1.649999999834989
  0
CIRCLE
  5
290
  8
DATA
  6
CONTINUOUS
 62
     7
 10
-33.649999999375012
 20
66.499999999999744
 30
0.0
 40
1.649999999834989
  0
CIRCLE
  5
291
  8
DATA
  6
CONTINUOUS
 62
     7
 10
-29.149999999824981
 20
70.449999999604728
 30
0.0
 40
1.649999999835017
  0
ARC
  5
292
  8
DATA
  6
CONTINUOUS
 62
     7
 10
-26.150000000125001
 20
52.90000000135975
 30
0.0
 40
1.999999999799996
 50
0.0
 51
90.0
  0
ARC
  5
293
  8
DATA
  6
CONTINUOUS
 62
     7
 10
-29.149998662691679
 20
50.899999763193108
 30
0.0
 40
0.8333347356833595
 50
149.9999705882982
 51
214.9998819560993
  0
ARC
  5
294
  8
DATA
  6
CONTINUOUS
 62
     7
 10
-29.747298749765289
 20
50.481767501601581
 30
0.0
 40
0.1041669781228943
 50
214.9998495222124
 51
34.999849522194452
  0
ARC
  5
295
  8
DATA
  6
CONTINUOUS
 62
     7
 10
-29.150001487858329
 20
50.899998544693098
 30
0.0
 40
0.6249977663041639
 50
159.59391565579881
 51
214.9999498171029
  0
ARC
  5
296
  8
DATA
  6
CONTINUOUS
 62
     7
 10
-29.46573874979342
 20
51.082291251541541
 30
0.0
 40
0.1041671091896071
 50
239.9998758982004
 51
59.999875898213972
  0
ARC
  5
297
  8
DATA
  6
CONTINUOUS
 62
     7
 10
-29.78147627826187
 20
51.264583857823283
 30
0.0
 40
0.1041670313895701
 50
59.99983309389232
 51
149.99991870248701
  0
ARC
  5
298
  8
DATA
  6
CONTINUOUS
 62
     7
 10
-29.149999761458329
 20
50.900001338693102
 30
0.0
 40
0.8333347356833453
 50
239.9999705882999
 51
304.99988195610092
  0
ARC
  5
299
  8
DATA
  6
CONTINUOUS
 62
     7
 10
-28.73176749986683
 20
50.302701251619482
 30
0.0
 40
0.1041669781228943
 50
304.99984952221229
 51
124.9998495221944
  0
ARC
  5
29A
  8
DATA
  6
CONTINUOUS
 62
     7
 10
-29.14999716665832
 20
50.89999597769306
 30
0.0
 40
0.6249948996374536
 50
279.59396132730012
 51
304.99997980370108
  0
ARC
  5
29B
  8
DATA
  6
CONTINUOUS
 62
     7
 10
-29.149999999824981
 20
51.62916750148689
 30
0.0
 40
0.1041674999895577
 50
0.0
 51
180.0
  0
ARC
  5
29C
  8
DATA
  6
CONTINUOUS
 62
     7
 10
-29.15000091709166
 20
50.899996625726402
 30
0.0
 40
0.624995857937507
 50
239.99987786889881
 51
260.4058753920994
  0
ARC
  5
29D
  8
DATA
  6
CONTINUOUS
 62
     7
 10
-29.51458374978856
 20
50.268523751622887
 30
0.0
 40
0.1041671091896071
 50
59.9998758982005
 51
239.99987589819841
  0
ARC
  5
29E
  8
DATA
  6
CONTINUOUS
 62
     7
 10
-29.150001336958361
 20
50.900000239926399
 30
0.0
 40
0.8333347356833311
 50
329.99997058830161
 51
34.999881956102449
  0
ARC
  5
29F
  8
DATA
  6
CONTINUOUS
 62
     7
 10
-28.552701249884731
 20
51.318232501517933
 30
0.0
 40
0.1041669781229176
 50
34.999849522203398
 51
214.9998495222035
  0
ARC
  5
2A0
  8
DATA
  6
CONTINUOUS
 62
     7
 10
-29.149998511791662
 20
50.900001458426431
 30
0.0
 40
0.6249977663041639
 50
339.59391565579881
 51
34.999949817098688
  0
ARC
  5
2A1
  8
DATA
  6
CONTINUOUS
 62
     7
 10
-28.834261249856581
 20
50.717708751577987
 30
0.0
 40
0.1041671091895929
 50
59.999875898214043
 51
239.99987589821399
  0
ARC
  5
2A2
  8
DATA
  6
CONTINUOUS
 62
     7
 10
-28.518523721388171
 20
50.535416145296239
 30
0.0
 40
0.1041670313896052
 50
239.9998330939215
 51
329.99991870249471
  0
CIRCLE
  5
2A3
  8
DATA
  6
CONTINUOUS
 62
     7
 10
-29.149999999824981
 20
50.900000001559718
 30
0.0
 40
1.0416674998958511
  0
CIRCLE
  5
2A4
  8
DATA
  6
CONTINUOUS
 62
     7
 10
-29.149999999824981
 20
50.900000001559718
 30
0.0
 40
1.2499999998750011
  0
ARC
  5
2A5
  8
DATA
  6
CONTINUOUS
 62
     7
 10
-29.149999999824981
 20
59.500000000699771
 30
0.0
 40
9.9999999990000497
 50
247.97568699999999
 51
292.02431299999978
  0
ARC
  5
2A6
  8
DATA
  6
CONTINUOUS
 62
     7
 10
-26.150000000125001
 20
52.083801668108073
 30
0.0
 40
1.9999999998000051
 50
292.02431300000057
 51
0.0
  0
ARC
  5
2A7
  8
DATA
  6
CONTINUOUS
 62
     7
 10
-26.450000000094999
 20
55.20000000112978
 30
0.0
 40
0.299999999969998
 50
180.0
 51
270.0
  0
ARC
  5
2A8
  8
DATA
  6
CONTINUOUS
 62
     7
 10
-32.149999999525022
 20
52.083801668108073
 30
0.0
 40
1.999999999799968
 50
180.0
 51
247.97568700000019
  0
ARC
  5
2A9
  8
DATA
  6
CONTINUOUS
 62
     7
 10
-32.149999999525022
 20
52.90000000135975
 30
0.0
 40
1.999999999800024
 50
90.0
 51
180.0
  0
ARC
  5
2AA
  8
DATA
  6
CONTINUOUS
 62
     7
 10
-31.849999999554971
 20
55.20000000112978
 30
0.0
 40
0.2999999999700549
 50
270.0
 51
0.0
  0
TEXT
  5
2AB
  8
DATA
 62
     7
 10
-25.81301066682536
 20
54.333348563583087
 30
0.0
 40
1.9219512193199979
  1
PUSH
 50
180.0
 41
0.7
  0
LINE
  5
2AC
  8
DATA
  6
CONTINUOUS
 62
     7
 10
-27.599999999979978
 20
58.753549200569211
 30
0.0
 11
-30.699999999669991
 21
58.753549200569211
 31
0.0
  0
CIRCLE
  5
2AD
  8
DATA
  6
CONTINUOUS
 62
     7
 10
-19.249999999824979
 20
56.54999999999977
 30
0.0
 40
1.7499999998249789
  0
ARC
  5
2AE
  8
DATA
  6
CONTINUOUS
 62
     7
 10
-29.149999999824981
 20
66.499999999999744
 30
0.0
 40
10.9
 50
282.7212066677078
 51
257.28018975266917
  0
CIRCLE
  5
2AF
  8
DATA
  6
CONTINUOUS
 62
     7
 10
-39.04999999982499
 20
76.349999999999767
 30
0.0
 40
1.7499999998249789
  0
ARC
  5
2B0
  8
DATA
  6
CONTINUOUS
 62
     7
 10
-29.149999999824981
 20
66.499999999999744
 30
0.0
 40
9.0499999990949735
 50
285.37844319759989
 51
254.62155680240011
  0
ARC
  5
2B1
  8
DATA
  6
CONTINUOUS
 62
     7
 10
-29.149999999824981
 20
66.499999999999744
 30
0.0
 40
7.8999999992099639
 50
281.3149807061364
 51
309.29188431492821
  0
ARC
  5
2B2
  8
DATA
  6
CONTINUOUS
 62
     7
 10
-29.149999999824981
 20
66.499999999999744
 30
0.0
 40
7.8999999992099692
 50
320.69269781841291
 51
258.6849453475163
  0
CIRCLE
  5
2B3
  8
DATA
  6
CONTINUOUS
 62
     7
 10
-24.650000000275011
 20
66.499999999999744
 30
0.0
 40
1.999999999799968
  0
CIRCLE
  5
2B4
  8
DATA
  6
CONTINUOUS
 62
     7
 10
-33.649999999375012
 20
66.499999999999744
 30
0.0
 40
1.999999999799968
  0
CIRCLE
  5
2B5
  8
DATA
  6
CONTINUOUS
 62
     7
 10
-29.149999999824981
 20
70.449999999604728
 30
0.0
 40
1.999999999800024
  0
ARC
  5
2B6
  8
DATA
  6
CONTINUOUS
 62
     7
 10
-23.705277667036139
 20
61.055278000544241
 30
0.0
 40
0.7999999999200194
 50
236.61291399999959
 51
33.387086000000487
  0
LINE
  5
2B7
  8
DATA
  6
CONTINUOUS
 62
     7
 10
-26.750000000064912
 20
57.774033005748002
 30
0.0
 11
-31.549999999585051
 21
57.774033005748002
 31
0.0
  0
LINE
  5
2B8
  8
DATA
  6
CONTINUOUS
 62
     7
 10
-37.549999999825111
 20
76.349999999999682
 30
0.0
 11
-40.549999999825097
 21
76.349999999999682
 31
0.0
  0
LINE
  5
2B9
  8
DATA
  6
CONTINUOUS
 62
     7
 10
-39.049999999825111
 20
77.849999999999682
 30
0.0
 11
-39.049999999825111
 21
74.849999999999682
 31
0.0
  0
LINE
  5
2BA
  8
DATA
  6
CONTINUOUS
 62
     7
 10
-17.749999999824919
 20
56.549999999999507
 30
0.0
 11
-20.749999999824919
 21
56.549999999999507
 31
0.0
  0
LINE
  5
2BB
  8
DATA
  6
CONTINUOUS
 62
     7
 10
-19.249999999824919
 20
58.0499999999995
 30
0.0
 11
-19.249999999824919
 21
55.049999999999507
 31
0.0
  0
LINE
  5
2BC
  8
DATA
  6
CONTINUOUS
 62
     7
 10
-4.1499999998250132
 20
76.999999999999787
 30
0.0
 11
-4.1499999998250132
 21
74.499999999999787
 31
0.0
  0
LINE
  5
2BD
  8
DATA
  6
CONTINUOUS
 62
     7
 10
-4.6499999998250132
 20
76.499999999999787
 30
0.0
 11
-4.6499999998250132
 21
74.999999999999787
 31
0.0
  0
LINE
  5
2BE
  8
DATA
  6
CONTINUOUS
 62
     7
 10
-9.1499999998250114
 20
76.999999999999787
 30
0.0
 11
-4.1499999998250132
 21
76.999999999999787
 31
0.0
  0
LINE
  5
2BF
  8
DATA
  6
CONTINUOUS
 62
     7
 10
-8.6499999998250132
 20
76.499999999999787
 30
0.0
 11
-4.6499999998250132
 21
76.499999999999787
 31
0.0
  0
LINE
  5
2C0
  8
DATA
  6
CONTINUOUS
 62
     7
 10
-9.1499999998250114
 20
74.499999999999787
 30
0.0
 11
-9.1499999998250114
 21
76.999999999999787
 31
0.0
  0
LINE
  5
2C1
  8
DATA
  6
CONTINUOUS
 62
     7
 10
-8.6499999998250132
 20
74.999999999999787
 30
0.0
 11
-8.6499999998250132
 21
76.499999999999787
 31
0.0
  0
LINE
  5
2C2
  8
DATA
  6
CONTINUOUS
 62
     7
 10
-4.1499999998250132
 20
74.499999999999787
 30
0.0
 11
-9.1499999998250114
 21
74.499999999999787
 31
0.0
  0
LINE
  5
2C3
  8
DATA
  6
CONTINUOUS
 62
     7
 10
-4.1499999998250132
 20
74.499999999999787
 30
0.0
 11
-9.1499999998250114
 21
74.499999999999787
 31
0.0
  0
LINE
  5
2C4
  8
DATA
  6
CONTINUOUS
 62
     7
 10
-4.6499999998250132
 20
74.999999999999787
 30
0.0
 11
-8.6499999998250132
 21
74.999999999999787
 31
0.0
  0
POLYLINE
  5
2C5
  8
DATA
  6
CONTINUOUS
 62
     7
 66
     1
 10
0.0
 20
0.0
 30
0.0
 70
     1
  0
VERTEX
  5
724
  8
DATA
  6
CONTINUOUS
 62
     7
 10
-8.5599999998248677
 20
76.499999999999787
 30
0.0
  0
VERTEX
  5
725
  8
DATA
  6
CONTINUOUS
 62
     7
 10
-7.0599999998248668
 20
76.499999999999787
 30
0.0
  0
VERTEX
  5
726
  8
DATA
  6
CONTINUOUS
 62
     7
 10
-7.0599999998248668
 20
74.999999999999787
 30
0.0
  0
VERTEX
  5
727
  8
DATA
  6
CONTINUOUS
 62
     7
 10
-8.5599999998248677
 20
74.999999999999787
 30
0.0
  0
SEQEND
  5
728
  8
DATA
  6
CONTINUOUS
 62
     7
  0
LINE
  5
2CC
  8
DATA
  6
CONTINUOUS
 62
     7
 10
-48.150000000325008
 20
52.083801668108073
 30
0.0
 11
-48.150000000325008
 21
52.90000000135975
 31
0.0
  0
LINE
  5
2CD
  8
DATA
  6
CONTINUOUS
 62
     7
 10
-50.750000000065
 20
55.20000000112978
 30
0.0
 11
-50.750000000064929
 21
57.774033005748002
 31
0.0
  0
LINE
  5
2CE
  8
DATA
  6
CONTINUOUS
 62
     7
 10
-53.045832499835441
 20
50.28374250162139
 30
0.0
 11
-53.045832499835441
 21
51.62916750148689
 31
0.0
  0
LINE
  5
2CF
  8
DATA
  6
CONTINUOUS
 62
     7
 10
-53.254167499814599
 20
51.62916750148689
 30
0.0
 11
-53.254167499814599
 21
50.28374250162139
 31
0.0
  0
LINE
  5
2D0
  8
DATA
  6
CONTINUOUS
 62
     7
 10
-55.549999999584962
 20
55.20000000112978
 30
0.0
 11
-55.549999999585069
 21
57.774033005748002
 31
0.0
  0
LINE
  5
2D1
  8
DATA
  6
CONTINUOUS
 62
     7
 10
-58.14999999932499
 20
52.083801668108073
 30
0.0
 11
-58.14999999932499
 21
52.90000000135975
 31
0.0
  0
LINE
  5
2D2
  8
DATA
  6
CONTINUOUS
 62
     7
 10
-50.150000000124997
 20
54.900000001159782
 30
0.0
 11
-50.450000000094988
 21
54.900000001159782
 31
0.0
  0
LINE
  5
2D3
  8
DATA
  6
CONTINUOUS
 62
     7
 10
-55.84999999955496
 20
54.900000001159782
 30
0.0
 11
-56.149999999525022
 21
54.900000001159782
 31
0.0
  0
LINE
  5
2D4
  8
DATA
  6
CONTINUOUS
 62
     7
 10
-52.56422249988357
 20
50.682082501581561
 30
0.0
 11
-52.782177499861781
 21
50.807920001568966
 31
0.0
  0
LINE
  5
2D5
  8
DATA
  6
CONTINUOUS
 62
     7
 10
-53.413654999798638
 20
51.172502501532527
 30
0.0
 11
-53.72939249976703
 21
51.354795001514297
 31
0.0
  0
LINE
  5
2D6
  8
DATA
  6
CONTINUOUS
 62
     7
 10
-53.735777499766428
 20
51.11791750153796
 30
0.0
 11
-53.51782249978821
 21
50.992080001550534
 31
0.0
  0
LINE
  5
2D7
  8
DATA
  6
CONTINUOUS
 62
     7
 10
-52.88634499985136
 20
50.627497501586973
 30
0.0
 11
-52.570607499882918
 21
50.445205001605217
 31
0.0
  0
CIRCLE
  5
2D8
  8
DATA
  6
CONTINUOUS
 62
     7
 10
-48.650000000275007
 20
66.499999999999744
 30
0.0
 40
1.649999999834989
  0
CIRCLE
  5
2D9
  8
DATA
  6
CONTINUOUS
 62
     7
 10
-57.649999999375012
 20
66.499999999999744
 30
0.0
 40
1.649999999834989
  0
CIRCLE
  5
2DA
  8
DATA
  6
CONTINUOUS
 62
     7
 10
-53.149999999824971
 20
70.449999999604728
 30
0.0
 40
1.649999999835017
  0
ARC
  5
2DB
  8
DATA
  6
CONTINUOUS
 62
     7
 10
-50.150000000124997
 20
52.90000000135975
 30
0.0
 40
1.999999999799996
 50
0.0
 51
90.0
  0
ARC
  5
2DC
  8
DATA
  6
CONTINUOUS
 62
     7
 10
-53.149998662691672
 20
50.899999763193108
 30
0.0
 40
0.8333347356833595
 50
149.9999705882982
 51
214.9998819560993
  0
ARC
  5
2DD
  8
DATA
  6
CONTINUOUS
 62
     7
 10
-53.747298749765292
 20
50.481767501601581
 30
0.0
 40
0.1041669781228943
 50
214.9998495222124
 51
34.999849522194452
  0
ARC
  5
2DE
  8
DATA
  6
CONTINUOUS
 62
     7
 10
-53.150001487858319
 20
50.899998544693098
 30
0.0
 40
0.6249977663041639
 50
159.59391565579881
 51
214.9999498171029
  0
ARC
  5
2DF
  8
DATA
  6
CONTINUOUS
 62
     7
 10
-53.465738749793417
 20
51.082291251541541
 30
0.0
 40
0.1041671091896071
 50
239.9998758982004
 51
59.999875898213972
  0
ARC
  5
2E0
  8
DATA
  6
CONTINUOUS
 62
     7
 10
-53.781476278261863
 20
51.264583857823283
 30
0.0
 40
0.1041670313895701
 50
59.99983309389232
 51
149.99991870248701
  0
ARC
  5
2E1
  8
DATA
  6
CONTINUOUS
 62
     7
 10
-53.149999761458332
 20
50.900001338693102
 30
0.0
 40
0.8333347356833453
 50
239.9999705882999
 51
304.99988195610092
  0
ARC
  5
2E2
  8
DATA
  6
CONTINUOUS
 62
     7
 10
-52.73176749986682
 20
50.302701251619482
 30
0.0
 40
0.1041669781228943
 50
304.99984952221229
 51
124.9998495221944
  0
ARC
  5
2E3
  8
DATA
  6
CONTINUOUS
 62
     7
 10
-53.149997166658309
 20
50.89999597769306
 30
0.0
 40
0.6249948996374536
 50
279.59396132730012
 51
304.99997980370108
  0
ARC
  5
2E4
  8
DATA
  6
CONTINUOUS
 62
     7
 10
-53.149999999824971
 20
51.62916750148689
 30
0.0
 40
0.1041674999895577
 50
0.0
 51
180.0
  0
ARC
  5
2E5
  8
DATA
  6
CONTINUOUS
 62
     7
 10
-53.150000917091653
 20
50.899996625726402
 30
0.0
 40
0.624995857937507
 50
239.99987786889881
 51
260.4058753920994
  0
ARC
  5
2E6
  8
DATA
  6
CONTINUOUS
 62
     7
 10
-53.514583749788557
 20
50.268523751622887
 30
0.0
 40
0.1041671091896071
 50
59.9998758982005
 51
239.99987589819841
  0
ARC
  5
2E7
  8
DATA
  6
CONTINUOUS
 62
     7
 10
-53.150001336958361
 20
50.900000239926399
 30
0.0
 40
0.8333347356833311
 50
329.99997058830161
 51
34.999881956102449
  0
ARC
  5
2E8
  8
DATA
  6
CONTINUOUS
 62
     7
 10
-52.552701249884741
 20
51.318232501517933
 30
0.0
 40
0.1041669781229176
 50
34.999849522203398
 51
214.9998495222035
  0
ARC
  5
2E9
  8
DATA
  6
CONTINUOUS
 62
     7
 10
-53.149998511791658
 20
50.900001458426431
 30
0.0
 40
0.6249977663041639
 50
339.59391565579881
 51
34.999949817098688
  0
ARC
  5
2EA
  8
DATA
  6
CONTINUOUS
 62
     7
 10
-52.834261249856567
 20
50.717708751577987
 30
0.0
 40
0.1041671091895929
 50
59.999875898214043
 51
239.99987589821399
  0
ARC
  5
2EB
  8
DATA
  6
CONTINUOUS
 62
     7
 10
-52.518523721388163
 20
50.535416145296239
 30
0.0
 40
0.1041670313896052
 50
239.9998330939215
 51
329.99991870249471
  0
CIRCLE
  5
2EC
  8
DATA
  6
CONTINUOUS
 62
     7
 10
-53.149999999824971
 20
50.900000001559718
 30
0.0
 40
1.0416674998958511
  0
CIRCLE
  5
2ED
  8
DATA
  6
CONTINUOUS
 62
     7
 10
-53.149999999824971
 20
50.900000001559718
 30
0.0
 40
1.2499999998750011
  0
ARC
  5
2EE
  8
DATA
  6
CONTINUOUS
 62
     7
 10
-53.149999999824971
 20
59.500000000699771
 30
0.0
 40
9.9999999990000497
 50
247.97568699999999
 51
292.02431299999978
  0
ARC
  5
2EF
  8
DATA
  6
CONTINUOUS
 62
     7
 10
-50.150000000124997
 20
52.083801668108073
 30
0.0
 40
1.9999999998000051
 50
292.02431300000057
 51
0.0
  0
ARC
  5
2F0
  8
DATA
  6
CONTINUOUS
 62
     7
 10
-50.450000000094988
 20
55.20000000112978
 30
0.0
 40
0.299999999969998
 50
180.0
 51
270.0
  0
ARC
  5
2F1
  8
DATA
  6
CONTINUOUS
 62
     7
 10
-56.149999999525022
 20
52.083801668108073
 30
0.0
 40
1.999999999799968
 50
180.0
 51
247.97568700000019
  0
ARC
  5
2F2
  8
DATA
  6
CONTINUOUS
 62
     7
 10
-56.149999999525022
 20
52.90000000135975
 30
0.0
 40
1.999999999800024
 50
90.0
 51
180.0
  0
ARC
  5
2F3
  8
DATA
  6
CONTINUOUS
 62
     7
 10
-55.84999999955496
 20
55.20000000112978
 30
0.0
 40
0.2999999999700549
 50
270.0
 51
0.0
  0
TEXT
  5
2F4
  8
DATA
 62
     7
 10
-49.81301066682537
 20
54.333348563583087
 30
0.0
 40
1.9219512193199979
  1
PUSH
 50
180.0
 41
0.7
  0
LINE
  5
2F5
  8
DATA
  6
CONTINUOUS
 62
     7
 10
-51.599999999979993
 20
58.753549200569211
 30
0.0
 11
-54.699999999669977
 21
58.753549200569211
 31
0.0
  0
CIRCLE
  5
2F6
  8
DATA
  6
CONTINUOUS
 62
     7
 10
-43.249999999824972
 20
56.54999999999977
 30
0.0
 40
1.7499999998249789
  0
ARC
  5
2F7
  8
DATA
  6
CONTINUOUS
 62
     7
 10
-53.149999999824971
 20
66.499999999999744
 30
0.0
 40
10.9
 50
282.7212066677078
 51
257.28018975266917
  0
CIRCLE
  5
2F8
  8
DATA
  6
CONTINUOUS
 62
     7
 10
-63.04999999982499
 20
76.349999999999767
 30
0.0
 40
1.7499999998249789
  0
ARC
  5
2F9
  8
DATA
  6
CONTINUOUS
 62
     7
 10
-53.149999999824971
 20
66.499999999999744
 30
0.0
 40
9.0499999990949735
 50
285.37844319759989
 51
254.62155680240011
  0
ARC
  5
2FA
  8
DATA
  6
CONTINUOUS
 62
     7
 10
-53.149999999824971
 20
66.499999999999744
 30
0.0
 40
7.8999999992099639
 50
281.3149807061364
 51
309.29188431492821
  0
ARC
  5
2FB
  8
DATA
  6
CONTINUOUS
 62
     7
 10
-53.149999999824971
 20
66.499999999999744
 30
0.0
 40
7.8999999992099657
 50
320.69269781841291
 51
258.6849453475163
  0
CIRCLE
  5
2FC
  8
DATA
  6
CONTINUOUS
 62
     7
 10
-48.650000000275007
 20
66.499999999999744
 30
0.0
 40
1.999999999799968
  0
CIRCLE
  5
2FD
  8
DATA
  6
CONTINUOUS
 62
     7
 10
-57.649999999375012
 20
66.499999999999744
 30
0.0
 40
1.999999999799968
  0
CIRCLE
  5
2FE
  8
DATA
  6
CONTINUOUS
 62
     7
 10
-53.149999999824971
 20
70.449999999604728
 30
0.0
 40
1.999999999800024
  0
ARC
  5
2FF
  8
DATA
  6
CONTINUOUS
 62
     7
 10
-47.705277667036142
 20
61.055278000544241
 30
0.0
 40
0.7999999999200194
 50
236.61291399999959
 51
33.387086000000487
  0
LINE
  5
300
  8
DATA
  6
CONTINUOUS
 62
     7
 10
-50.750000000064929
 20
57.774033005748002
 30
0.0
 11
-55.549999999585069
 21
57.774033005748002
 31
0.0
  0
LINE
  5
301
  8
DATA
  6
CONTINUOUS
 62
     7
 10
-61.549999999825111
 20
76.349999999999682
 30
0.0
 11
-64.549999999825104
 21
76.349999999999682
 31
0.0
  0
LINE
  5
302
  8
DATA
  6
CONTINUOUS
 62
     7
 10
-63.049999999825097
 20
77.849999999999682
 30
0.0
 11
-63.049999999825097
 21
74.849999999999682
 31
0.0
  0
LINE
  5
303
  8
DATA
  6
CONTINUOUS
 62
     7
 10
-41.749999999824922
 20
56.549999999999507
 30
0.0
 11
-44.749999999824922
 21
56.549999999999507
 31
0.0
  0
LINE
  5
304
  8
DATA
  6
CONTINUOUS
 62
     7
 10
-43.249999999824922
 20
58.0499999999995
 30
0.0
 11
-43.249999999824922
 21
55.049999999999507
 31
0.0
  0
CIRCLE
  5
305
  8
DATA
  6
CONTINUOUS
 62
     7
 10
-69.149999999825013
 20
72.499999999999787
 30
0.0
 40
2.9999999999998792
  0
LINE
  5
306
  8
DATA
  6
CONTINUOUS
 62
     7
 10
-66.191960108274998
 20
71.999999999999758
 30
0.0
 11
-72.108039891375043
 21
71.999999999999758
 31
0.0
  0
LINE
  5
307
  8
DATA
  6
CONTINUOUS
 62
     7
 10
-66.191960108274998
 20
72.999999999999787
 30
0.0
 11
-72.108039891375043
 21
72.999999999999787
 31
0.0
  0
CIRCLE
  5
308
  8
DATA
  6
CONTINUOUS
 62
     7
 10
-82.149999999824999
 20
72.499999999999787
 30
0.0
 40
2.9999999999998792
  0
LINE
  5
309
  8
DATA
  6
CONTINUOUS
 62
     7
 10
-79.191960108275012
 20
71.999999999999758
 30
0.0
 11
-85.108039891375057
 21
71.999999999999758
 31
0.0
  0
LINE
  5
30A
  8
DATA
  6
CONTINUOUS
 62
     7
 10
-79.191960108275012
 20
72.999999999999787
 30
0.0
 11
-85.108039891375057
 21
72.999999999999787
 31
0.0
  0
LINE
  5
30B
  8
DATA
  6
CONTINUOUS
 62
     7
 10
-93.150000000324994
 20
52.083801668108073
 30
0.0
 11
-93.150000000324994
 21
52.90000000135975
 31
0.0
  0
LINE
  5
30C
  8
DATA
  6
CONTINUOUS
 62
     7
 10
-95.750000000065
 20
55.20000000112978
 30
0.0
 11
-95.750000000064929
 21
57.774033005748002
 31
0.0
  0
LINE
  5
30D
  8
DATA
  6
CONTINUOUS
 62
     7
 10
-98.045832499835413
 20
50.28374250162139
 30
0.0
 11
-98.045832499835413
 21
51.62916750148689
 31
0.0
  0
LINE
  5
30E
  8
DATA
  6
CONTINUOUS
 62
     7
 10
-98.254167499814585
 20
51.62916750148689
 30
0.0
 11
-98.254167499814585
 21
50.28374250162139
 31
0.0
  0
LINE
  5
30F
  8
DATA
  6
CONTINUOUS
 62
     7
 10
-100.5499999995849
 20
55.20000000112978
 30
0.0
 11
-100.549999999585
 21
57.774033005748002
 31
0.0
  0
LINE
  5
310
  8
DATA
  6
CONTINUOUS
 62
     7
 10
-103.149999999325
 20
52.083801668108073
 30
0.0
 11
-103.149999999325
 21
52.90000000135975
 31
0.0
  0
LINE
  5
311
  8
DATA
  6
CONTINUOUS
 62
     7
 10
-95.150000000125004
 20
54.900000001159782
 30
0.0
 11
-95.450000000094988
 21
54.900000001159782
 31
0.0
  0
LINE
  5
312
  8
DATA
  6
CONTINUOUS
 62
     7
 10
-100.8499999995549
 20
54.900000001159782
 30
0.0
 11
-101.14999999952499
 21
54.900000001159782
 31
0.0
  0
LINE
  5
313
  8
DATA
  6
CONTINUOUS
 62
     7
 10
-97.56422249988357
 20
50.682082501581561
 30
0.0
 11
-97.782177499861774
 21
50.807920001568966
 31
0.0
  0
LINE
  5
314
  8
DATA
  6
CONTINUOUS
 62
     7
 10
-98.413654999798666
 20
51.172502501532527
 30
0.0
 11
-98.729392499767059
 21
51.354795001514297
 31
0.0
  0
LINE
  5
315
  8
DATA
  6
CONTINUOUS
 62
     7
 10
-98.735777499766414
 20
51.11791750153796
 30
0.0
 11
-98.517822499788224
 21
50.992080001550534
 31
0.0
  0
LINE
  5
316
  8
DATA
  6
CONTINUOUS
 62
     7
 10
-97.88634499985136
 20
50.627497501586973
 30
0.0
 11
-97.570607499882925
 21
50.445205001605217
 31
0.0
  0
CIRCLE
  5
317
  8
DATA
  6
CONTINUOUS
 62
     7
 10
-93.650000000274986
 20
66.499999999999744
 30
0.0
 40
1.649999999834989
  0
CIRCLE
  5
318
  8
DATA
  6
CONTINUOUS
 62
     7
 10
-102.649999999375
 20
66.499999999999744
 30
0.0
 40
1.649999999834989
  0
CIRCLE
  5
319
  8
DATA
  6
CONTINUOUS
 62
     7
 10
-98.149999999824985
 20
70.449999999604728
 30
0.0
 40
1.649999999835017
  0
ARC
  5
31A
  8
DATA
  6
CONTINUOUS
 62
     7
 10
-95.150000000125004
 20
52.90000000135975
 30
0.0
 40
1.999999999799996
 50
0.0
 51
90.0
  0
ARC
  5
31B
  8
DATA
  6
CONTINUOUS
 62
     7
 10
-98.149998662691686
 20
50.899999763193108
 30
0.0
 40
0.8333347356833595
 50
149.9999705882982
 51
214.9998819560993
  0
ARC
  5
31C
  8
DATA
  6
CONTINUOUS
 62
     7
 10
-98.747298749765278
 20
50.481767501601581
 30
0.0
 40
0.1041669781228943
 50
214.9998495222124
 51
34.999849522194452
  0
ARC
  5
31D
  8
DATA
  6
CONTINUOUS
 62
     7
 10
-98.150001487858319
 20
50.899998544693098
 30
0.0
 40
0.6249977663041639
 50
159.59391565579881
 51
214.9999498171029
  0
ARC
  5
31E
  8
DATA
  6
CONTINUOUS
 62
     7
 10
-98.465738749793417
 20
51.082291251541541
 30
0.0
 40
0.1041671091896071
 50
239.9998758982004
 51
59.999875898213972
  0
ARC
  5
31F
  8
DATA
  6
CONTINUOUS
 62
     7
 10
-98.781476278261849
 20
51.264583857823283
 30
0.0
 40
0.1041670313895701
 50
59.99983309389232
 51
149.99991870248701
  0
ARC
  5
320
  8
DATA
  6
CONTINUOUS
 62
     7
 10
-98.149999761458318
 20
50.900001338693102
 30
0.0
 40
0.8333347356833453
 50
239.9999705882999
 51
304.99988195610092
  0
ARC
  5
321
  8
DATA
  6
CONTINUOUS
 62
     7
 10
-97.731767499866848
 20
50.302701251619482
 30
0.0
 40
0.1041669781228943
 50
304.99984952221229
 51
124.9998495221944
  0
ARC
  5
322
  8
DATA
  6
CONTINUOUS
 62
     7
 10
-98.149997166658295
 20
50.89999597769306
 30
0.0
 40
0.6249948996374536
 50
279.59396132730012
 51
304.99997980370108
  0
ARC
  5
323
  8
DATA
  6
CONTINUOUS
 62
     7
 10
-98.149999999824985
 20
51.62916750148689
 30
0.0
 40
0.1041674999895577
 50
0.0
 51
180.0
  0
ARC
  5
324
  8
DATA
  6
CONTINUOUS
 62
     7
 10
-98.150000917091646
 20
50.899996625726402
 30
0.0
 40
0.624995857937507
 50
239.99987786889881
 51
260.4058753920994
  0
ARC
  5
325
  8
DATA
  6
CONTINUOUS
 62
     7
 10
-98.514583749788571
 20
50.268523751622887
 30
0.0
 40
0.1041671091896071
 50
59.9998758982005
 51
239.99987589819841
  0
ARC
  5
326
  8
DATA
  6
CONTINUOUS
 62
     7
 10
-98.150001336958354
 20
50.900000239926399
 30
0.0
 40
0.8333347356833311
 50
329.99997058830161
 51
34.999881956102449
  0
ARC
  5
327
  8
DATA
  6
CONTINUOUS
 62
     7
 10
-97.55270124988472
 20
51.318232501517933
 30
0.0
 40
0.1041669781229176
 50
34.999849522203398
 51
214.9998495222035
  0
ARC
  5
328
  8
DATA
  6
CONTINUOUS
 62
     7
 10
-98.149998511791665
 20
50.900001458426431
 30
0.0
 40
0.6249977663041639
 50
339.59391565579881
 51
34.999949817098688
  0
ARC
  5
329
  8
DATA
  6
CONTINUOUS
 62
     7
 10
-97.834261249856596
 20
50.717708751577987
 30
0.0
 40
0.1041671091895929
 50
59.999875898214043
 51
239.99987589821399
  0
ARC
  5
32A
  8
DATA
  6
CONTINUOUS
 62
     7
 10
-97.518523721388149
 20
50.535416145296239
 30
0.0
 40
0.1041670313896052
 50
239.9998330939215
 51
329.99991870249471
  0
CIRCLE
  5
32B
  8
DATA
  6
CONTINUOUS
 62
     7
 10
-98.149999999824985
 20
50.900000001559718
 30
0.0
 40
1.0416674998958511
  0
CIRCLE
  5
32C
  8
DATA
  6
CONTINUOUS
 62
     7
 10
-98.149999999824985
 20
50.900000001559718
 30
0.0
 40
1.2499999998750011
  0
ARC
  5
32D
  8
DATA
  6
CONTINUOUS
 62
     7
 10
-98.149999999824985
 20
59.500000000699771
 30
0.0
 40
9.9999999990000497
 50
247.97568699999999
 51
292.02431299999978
  0
ARC
  5
32E
  8
DATA
  6
CONTINUOUS
 62
     7
 10
-95.150000000125004
 20
52.083801668108073
 30
0.0
 40
1.9999999998000051
 50
292.02431300000057
 51
0.0
  0
ARC
  5
32F
  8
DATA
  6
CONTINUOUS
 62
     7
 10
-95.450000000094988
 20
55.20000000112978
 30
0.0
 40
0.299999999969998
 50
180.0
 51
270.0
  0
ARC
  5
330
  8
DATA
  6
CONTINUOUS
 62
     7
 10
-101.14999999952499
 20
52.083801668108073
 30
0.0
 40
1.999999999799968
 50
180.0
 51
247.97568700000019
  0
ARC
  5
331
  8
DATA
  6
CONTINUOUS
 62
     7
 10
-101.14999999952499
 20
52.90000000135975
 30
0.0
 40
1.999999999800024
 50
90.0
 51
180.0
  0
ARC
  5
332
  8
DATA
  6
CONTINUOUS
 62
     7
 10
-100.8499999995549
 20
55.20000000112978
 30
0.0
 40
0.2999999999700549
 50
270.0
 51
0.0
  0
TEXT
  5
333
  8
DATA
 62
     7
 10
-94.813010666825349
 20
54.333348563583087
 30
0.0
 40
1.9219512193199979
  1
PUSH
 50
180.0
 41
0.7
  0
LINE
  5
334
  8
DATA
  6
CONTINUOUS
 62
     7
 10
-96.599999999979985
 20
58.753549200569211
 30
0.0
 11
-99.699999999669984
 21
58.753549200569211
 31
0.0
  0
CIRCLE
  5
335
  8
DATA
  6
CONTINUOUS
 62
     7
 10
-88.249999999824979
 20
56.54999999999977
 30
0.0
 40
1.7499999998249931
  0
ARC
  5
336
  8
DATA
  6
CONTINUOUS
 62
     7
 10
-98.149999999824985
 20
66.499999999999744
 30
0.0
 40
10.9
 50
282.7212066677078
 51
257.28018975266917
  0
CIRCLE
  5
337
  8
DATA
  6
CONTINUOUS
 62
     7
 10
-108.049999999825
 20
76.349999999999767
 30
0.0
 40
1.7499999998249789
  0
ARC
  5
338
  8
DATA
  6
CONTINUOUS
 62
     7
 10
-98.149999999824985
 20
66.499999999999744
 30
0.0
 40
9.0499999990949735
 50
285.37844319759989
 51
254.62155680240011
  0
ARC
  5
339
  8
DATA
  6
CONTINUOUS
 62
     7
 10
-98.149999999824985
 20
66.499999999999744
 30
0.0
 40
7.8999999992099639
 50
281.3149807061364
 51
309.29188431492821
  0
ARC
  5
33A
  8
DATA
  6
CONTINUOUS
 62
     7
 10
-98.149999999824985
 20
66.499999999999744
 30
0.0
 40
7.8999999992099657
 50
320.69269781841291
 51
258.68494534751619
  0
CIRCLE
  5
33B
  8
DATA
  6
CONTINUOUS
 62
     7
 10
-93.650000000274986
 20
66.499999999999744
 30
0.0
 40
1.999999999799968
  0
CIRCLE
  5
33C
  8
DATA
  6
CONTINUOUS
 62
     7
 10
-102.649999999375
 20
66.499999999999744
 30
0.0
 40
1.999999999799968
  0
CIRCLE
  5
33D
  8
DATA
  6
CONTINUOUS
 62
     7
 10
-98.149999999824985
 20
70.449999999604728
 30
0.0
 40
1.999999999800024
  0
ARC
  5
33E
  8
DATA
  6
CONTINUOUS
 62
     7
 10
-92.705277667036128
 20
61.055278000544241
 30
0.0
 40
0.7999999999200194
 50
236.61291399999959
 51
33.387086000000487
  0
LINE
  5
33F
  8
DATA
  6
CONTINUOUS
 62
     7
 10
-95.750000000064929
 20
57.774033005748002
 30
0.0
 11
-100.549999999585
 21
57.774033005748002
 31
0.0
  0
LINE
  5
340
  8
DATA
  6
CONTINUOUS
 62
     7
 10
-106.5499999998251
 20
76.349999999999682
 30
0.0
 11
-109.5499999998251
 21
76.349999999999682
 31
0.0
  0
LINE
  5
341
  8
DATA
  6
CONTINUOUS
 62
     7
 10
-108.0499999998251
 20
77.849999999999682
 30
0.0
 11
-108.0499999998251
 21
74.849999999999682
 31
0.0
  0
LINE
  5
342
  8
DATA
  6
CONTINUOUS
 62
     7
 10
-86.749999999824936
 20
56.549999999999507
 30
0.0
 11
-89.749999999824936
 21
56.549999999999507
 31
0.0
  0
LINE
  5
343
  8
DATA
  6
CONTINUOUS
 62
     7
 10
-88.249999999824936
 20
58.0499999999995
 30
0.0
 11
-88.249999999824936
 21
55.049999999999507
 31
0.0
  0
LINE
  5
344
  8
DATA
  6
CONTINUOUS
 62
     7
 10
-73.149999999825013
 20
76.999999999999787
 30
0.0
 11
-73.149999999825013
 21
74.499999999999787
 31
0.0
  0
LINE
  5
345
  8
DATA
  6
CONTINUOUS
 62
     7
 10
-73.649999999825013
 20
76.499999999999787
 30
0.0
 11
-73.649999999825013
 21
74.999999999999787
 31
0.0
  0
LINE
  5
346
  8
DATA
  6
CONTINUOUS
 62
     7
 10
-78.149999999825013
 20
76.999999999999787
 30
0.0
 11
-73.149999999825013
 21
76.999999999999787
 31
0.0
  0
LINE
  5
347
  8
DATA
  6
CONTINUOUS
 62
     7
 10
-77.649999999825013
 20
76.499999999999787
 30
0.0
 11
-73.649999999825013
 21
76.499999999999787
 31
0.0
  0
LINE
  5
348
  8
DATA
  6
CONTINUOUS
 62
     7
 10
-78.149999999825013
 20
74.499999999999787
 30
0.0
 11
-78.149999999825013
 21
76.999999999999787
 31
0.0
  0
LINE
  5
349
  8
DATA
  6
CONTINUOUS
 62
     7
 10
-77.649999999825013
 20
74.999999999999787
 30
0.0
 11
-77.649999999825013
 21
76.499999999999787
 31
0.0
  0
LINE
  5
34A
  8
DATA
  6
CONTINUOUS
 62
     7
 10
-73.149999999825013
 20
74.499999999999787
 30
0.0
 11
-78.149999999825013
 21
74.499999999999787
 31
0.0
  0
LINE
  5
34B
  8
DATA
  6
CONTINUOUS
 62
     7
 10
-73.149999999825013
 20
74.499999999999787
 30
0.0
 11
-78.149999999825013
 21
74.499999999999787
 31
0.0
  0
LINE
  5
34C
  8
DATA
  6
CONTINUOUS
 62
     7
 10
-73.649999999825013
 20
74.999999999999787
 30
0.0
 11
-77.649999999825013
 21
74.999999999999787
 31
0.0
  0
POLYLINE
  5
34D
  8
DATA
  6
CONTINUOUS
 62
     7
 66
     1
 10
0.0
 20
0.0
 30
0.0
 70
     1
  0
VERTEX
  5
729
  8
DATA
  6
CONTINUOUS
 62
     7
 10
-77.559999999824853
 20
76.499999999999787
 30
0.0
  0
VERTEX
  5
72A
  8
DATA
  6
CONTINUOUS
 62
     7
 10
-76.059999999824853
 20
76.499999999999787
 30
0.0
  0
VERTEX
  5
72B
  8
DATA
  6
CONTINUOUS
 62
     7
 10
-76.059999999824853
 20
74.999999999999787
 30
0.0
  0
VERTEX
  5
72C
  8
DATA
  6
CONTINUOUS
 62
     7
 10
-77.559999999824853
 20
74.999999999999787
 30
0.0
  0
SEQEND
  5
72D
  8
DATA
  6
CONTINUOUS
 62
     7
  0
LINE
  5
354
  8
DATA
  6
CONTINUOUS
 62
     7
 10
-281.0
 20
78.5
 30
0.0
 11
-281.0
 21
54.5
 31
0.0
  0
LINE
  5
355
  8
DATA
  6
CONTINUOUS
 62
     7
 10
-282.0
 20
79.5
 30
0.0
 11
-282.0
 21
53.5
 31
0.0
  0
LINE
  5
356
  8
DATA
  6
CONTINUOUS
 62
     7
 10
-310.5
 20
82.5
 30
0.0
 11
-285.0
 21
82.5
 31
0.0
  0
LINE
  5
357
  8
DATA
  6
CONTINUOUS
 62
     7
 10
-311.5
 20
81.5
 30
0.0
 11
-284.0
 21
81.5
 31
0.0
  0
LINE
  5
358
  8
DATA
  6
CONTINUOUS
 62
     7
 10
-314.5
 20
54.5
 30
0.0
 11
-314.5
 21
78.5
 31
0.0
  0
LINE
  5
359
  8
DATA
  6
CONTINUOUS
 62
     7
 10
-313.5
 20
53.5
 30
0.0
 11
-313.5
 21
79.5
 31
0.0
  0
LINE
  5
35A
  8
DATA
  6
CONTINUOUS
 62
     7
 10
-285.0
 20
50.5
 30
0.0
 11
-310.5
 21
50.5
 31
0.0
  0
LINE
  5
35B
  8
DATA
  6
CONTINUOUS
 62
     7
 10
-284.0
 20
51.5
 30
0.0
 11
-311.5
 21
51.5
 31
0.0
  0
ARC
  5
35C
  8
DATA
  6
CONTINUOUS
 62
     7
 10
-285.0
 20
54.5
 30
0.0
 40
4.0
 50
270.0
 51
0.0
  0
ARC
  5
35D
  8
DATA
  6
CONTINUOUS
 62
     7
 10
-310.5
 20
54.5
 30
0.0
 40
4.0
 50
180.0
 51
270.0
  0
ARC
  5
35E
  8
DATA
  6
CONTINUOUS
 62
     7
 10
-285.0
 20
78.5
 30
0.0
 40
4.0
 50
0.0
 51
90.0
  0
ARC
  5
35F
  8
DATA
  6
CONTINUOUS
 62
     7
 10
-310.5
 20
78.5
 30
0.0
 40
4.0
 50
90.0
 51
180.0
  0
ARC
  5
360
  8
DATA
  6
CONTINUOUS
 62
     7
 10
-284.0
 20
53.5
 30
0.0
 40
2.0
 50
270.0
 51
0.0
  0
ARC
  5
361
  8
DATA
  6
CONTINUOUS
 62
     7
 10
-311.5
 20
53.5
 30
0.0
 40
2.0
 50
180.0
 51
270.0
  0
ARC
  5
362
  8
DATA
  6
CONTINUOUS
 62
     7
 10
-311.5
 20
79.5
 30
0.0
 40
2.0
 50
90.0
 51
180.0
  0
ARC
  5
363
  8
DATA
  6
CONTINUOUS
 62
     7
 10
-284.0
 20
79.5
 30
0.0
 40
2.0
 50
0.0
 51
90.0
  0
LINE
  5
364
  8
DATA
  6
CONTINUOUS
 62
     7
 10
-283.75301031252889
 20
58.148770951054303
 30
0.0
 11
-287.70891859334
 21
53.544863217083041
 31
0.0
  0
LINE
  5
365
  8
DATA
  6
CONTINUOUS
 62
     7
 10
-299.0
 20
55.5
 30
0.0
 11
-299.0
 21
77.5
 31
0.0
  0
LINE
  5
366
  8
DATA
  6
CONTINUOUS
 62
     7
 10
-289.98431749465072
 20
52.5
 30
0.0
 11
-296.0
 21
52.5
 31
0.0
  0
LINE
  5
367
  8
DATA
  6
CONTINUOUS
 62
     7
 10
-283.0
 20
72.884902032555843
 30
0.0
 11
-283.0
 21
60.136492597663391
 31
0.0
  0
ARC
  5
368
  8
DATA
  6
CONTINUOUS
 62
     7
 10
-296.0
 20
55.5
 30
0.0
 40
3.0
 50
180.0
 51
270.0
  0
LINE
  5
369
  8
DATA
  6
CONTINUOUS
 62
     7
 10
-283.7283352398772
 20
74.844376252242455
 30
0.0
 11
-287.70918912610182
 21
79.459474219686626
 31
0.0
  0
LINE
  5
36A
  8
DATA
  6
CONTINUOUS
 62
     7
 10
-289.98085388622462
 20
80.5
 30
0.0
 11
-296.0
 21
80.5
 31
0.0
  0
ARC
  5
36B
  8
DATA
  6
CONTINUOUS
 62
     7
 10
-296.0
 20
77.5
 30
0.0
 40
3.0
 50
90.0
 51
180.0
  0
ARC
  5
36C
  8
DATA
  6
CONTINUOUS
 62
     7
 10
-286.0
 20
72.884902032555843
 30
0.0
 40
3.0
 50
0.0
 51
40.78013242750086
  0
ARC
  5
36D
  8
DATA
  6
CONTINUOUS
 62
     7
 10
-289.98085388622428
 20
77.5
 30
0.0
 40
2.9999999999998779
 50
40.780132427503681
 51
90.000000000004349
  0
ARC
  5
36E
  8
DATA
  6
CONTINUOUS
 62
     7
 10
-286.0
 20
60.136492597663853
 30
0.0
 40
3.0000000000002802
 50
318.50353164477758
 51
359.9999999999913
  0
ARC
  5
36F
  8
DATA
  6
CONTINUOUS
 62
     7
 10
-289.98431749465072
 20
55.499999999999773
 30
0.0
 40
2.9999999999997722
 50
270.0
 51
319.32917624461919
  0
POLYLINE
  5
370
  8
DATA
  6
CONTINUOUS
 62
     7
 66
     1
 10
0.0
 20
0.0
 30
0.0
 70
     1
  0
VERTEX
  5
72E
  8
DATA
  6
CONTINUOUS
 62
     7
 10
-310.75
 20
79.0
 30
0.0
  0
VERTEX
  5
72F
  8
DATA
  6
CONTINUOUS
 62
     7
 10
-301.75
 20
79.0
 30
0.0
  0
VERTEX
  5
730
  8
DATA
  6
CONTINUOUS
 62
     7
 10
-301.75
 20
54.0
 30
0.0
  0
VERTEX
  5
731
  8
DATA
  6
CONTINUOUS
 62
     7
 10
-310.75
 20
54.0
 30
0.0
  0
SEQEND
  5
732
  8
DATA
  6
CONTINUOUS
 62
     7
  0
ARC
  5
377
  8
DATA
  6
CONTINUOUS
 62
     7
 10
-306.2822720599849
 20
60.00000000000454
 30
0.0
 40
2.5
 50
180.0
 51
0.0
  0
ARC
  5
378
  8
DATA
  6
CONTINUOUS
 62
     7
 10
-306.2822720599849
 20
73.000000000004547
 30
0.0
 40
2.5
 50
0.0
 51
180.0
  0
LINE
  5
379
  8
DATA
  6
CONTINUOUS
 62
     7
 10
-303.7822720599849
 20
60.00000000000454
 30
0.0
 11
-303.7822720599849
 21
73.000000000004547
 31
0.0
  0
LINE
  5
37A
  8
DATA
  6
CONTINUOUS
 62
     7
 10
-308.7822720599849
 20
60.00000000000454
 30
0.0
 11
-308.7822720599849
 21
73.000000000004547
 31
0.0
  0
ARC
  5
37B
  8
DATA
  6
CONTINUOUS
 62
     7
 10
-306.2822720599849
 20
70.000000000004533
 30
0.0
 40
2.5
 50
0.0
 51
180.0
  0
CIRCLE
  5
37C
  8
DATA
  6
CONTINUOUS
 62
     7
 10
-306.2822720599849
 20
60.00000000000454
 30
0.0
 40
1.5
  0
LINE
  5
37D
  8
DATA
  6
CONTINUOUS
 62
     7
 10
-304.7822720599849
 20
70.000000000004533
 30
0.0
 11
-307.7822720599849
 21
70.000000000004533
 31
0.0
  0
LINE
  5
37E
  8
DATA
  6
CONTINUOUS
 62
     7
 10
70.850000000174987
 20
68.5
 30
0.0
 11
66.850000000174987
 21
68.5
 31
0.0
  0
LINE
  5
37F
  8
DATA
  6
CONTINUOUS
 62
     7
 10
66.850000000174987
 20
68.5
 30
0.0
 11
66.850000000174987
 21
67.0
 31
0.0
  0
LINE
  5
380
  8
DATA
  6
CONTINUOUS
 62
     7
 10
66.850000000174987
 20
67.0
 30
0.0
 11
70.850000000174987
 21
68.5
 31
0.0
  0
LINE
  5
381
  8
DATA
  6
CONTINUOUS
 62
     7
 10
57.85000000017498
 20
68.5
 30
0.0
 11
53.85000000017498
 21
68.5
 31
0.0
  0
LINE
  5
382
  8
DATA
  6
CONTINUOUS
 62
     7
 10
53.85000000017498
 20
68.5
 30
0.0
 11
53.85000000017498
 21
67.0
 31
0.0
  0
LINE
  5
383
  8
DATA
  6
CONTINUOUS
 62
     7
 10
53.85000000017498
 20
67.0
 30
0.0
 11
57.85000000017498
 21
68.5
 31
0.0
  0
LINE
  5
384
  8
DATA
  6
CONTINUOUS
 62
     7
 10
1.8500000001749859
 20
68.5
 30
0.0
 11
-2.1499999998250119
 21
68.5
 31
0.0
  0
LINE
  5
385
  8
DATA
  6
CONTINUOUS
 62
     7
 10
-2.1499999998250119
 20
68.5
 30
0.0
 11
-2.1499999998250119
 21
67.0
 31
0.0
  0
LINE
  5
386
  8
DATA
  6
CONTINUOUS
 62
     7
 10
-2.1499999998250119
 20
67.0
 30
0.0
 11
1.8500000001749859
 21
68.5
 31
0.0
  0
LINE
  5
387
  8
DATA
  6
CONTINUOUS
 62
     7
 10
-11.14999999982501
 20
68.5
 30
0.0
 11
-15.14999999982501
 21
68.5
 31
0.0
  0
LINE
  5
388
  8
DATA
  6
CONTINUOUS
 62
     7
 10
-15.14999999982501
 20
68.5
 30
0.0
 11
-15.14999999982501
 21
67.0
 31
0.0
  0
LINE
  5
389
  8
DATA
  6
CONTINUOUS
 62
     7
 10
-15.14999999982501
 20
67.0
 30
0.0
 11
-11.14999999982501
 21
68.5
 31
0.0
  0
LINE
  5
38A
  8
DATA
  6
CONTINUOUS
 62
     7
 10
-67.149999999825013
 20
68.5
 30
0.0
 11
-71.149999999825013
 21
68.5
 31
0.0
  0
LINE
  5
38B
  8
DATA
  6
CONTINUOUS
 62
     7
 10
-71.149999999825013
 20
68.5
 30
0.0
 11
-71.149999999825013
 21
67.0
 31
0.0
  0
LINE
  5
38C
  8
DATA
  6
CONTINUOUS
 62
     7
 10
-71.149999999825013
 20
67.0
 30
0.0
 11
-67.149999999825013
 21
68.5
 31
0.0
  0
LINE
  5
38D
  8
DATA
  6
CONTINUOUS
 62
     7
 10
-80.149999999825013
 20
68.5
 30
0.0
 11
-84.149999999825013
 21
68.5
 31
0.0
  0
LINE
  5
38E
  8
DATA
  6
CONTINUOUS
 62
     7
 10
-84.149999999825013
 20
68.5
 30
0.0
 11
-84.149999999825013
 21
67.0
 31
0.0
  0
LINE
  5
38F
  8
DATA
  6
CONTINUOUS
 62
     7
 10
-84.149999999825013
 20
67.0
 30
0.0
 11
-80.149999999825013
 21
68.5
 31
0.0
  0
LINE
  5
390
  8
DATA
  6
CONTINUOUS
 62
     7
 10
62.35000000017498
 20
76.999999999999787
 30
0.0
 11
62.35000000017498
 21
80.0
 31
0.0
  0
LINE
  5
391
  8
DATA
  6
CONTINUOUS
 62
     7
 10
80.350000000174987
 20
80.0
 30
0.0
 11
44.35000000017498
 21
80.0
 31
0.0
  0
LINE
  5
392
  8
DATA
  6
CONTINUOUS
 62
     7
 10
80.350000000174987
 20
80.0
 30
0.0
 11
82.06065618867251
 21
77.037056567240143
 31
0.0
  0
LINE
  5
393
  8
DATA
  6
CONTINUOUS
 62
     7
 10
44.35000000017498
 20
80.0
 30
0.0
 11
42.639343811677449
 21
77.037056567239674
 31
0.0
  0
LINE
  5
394
  8
DATA
  6
CONTINUOUS
 62
     7
 10
-6.6499999998250132
 20
76.999999999999787
 30
0.0
 11
-6.6499999998250132
 21
80.0
 31
0.0
  0
LINE
  5
395
  8
DATA
  6
CONTINUOUS
 62
     7
 10
11.35000000017498
 20
80.0
 30
0.0
 11
-24.64999999982501
 21
80.0
 31
0.0
  0
LINE
  5
396
  8
DATA
  6
CONTINUOUS
 62
     7
 10
11.35000000017498
 20
80.0
 30
0.0
 11
13.06065618867251
 21
77.037056567240143
 31
0.0
  0
LINE
  5
397
  8
DATA
  6
CONTINUOUS
 62
     7
 10
-24.64999999982501
 20
80.0
 30
0.0
 11
-26.36065618832253
 21
77.037056567239674
 31
0.0
  0
LINE
  5
398
  8
DATA
  6
CONTINUOUS
 62
     7
 10
-75.649999999825013
 20
76.999999999999787
 30
0.0
 11
-75.649999999825013
 21
80.0
 31
0.0
  0
LINE
  5
399
  8
DATA
  6
CONTINUOUS
 62
     7
 10
-57.649999999825013
 20
80.0
 30
0.0
 11
-93.649999999824985
 21
80.0
 31
0.0
  0
LINE
  5
39A
  8
DATA
  6
CONTINUOUS
 62
     7
 10
-57.649999999825013
 20
80.0
 30
0.0
 11
-55.939343811327497
 21
77.037056567240143
 31
0.0
  0
LINE
  5
39B
  8
DATA
  6
CONTINUOUS
 62
     7
 10
-93.649999999824985
 20
80.0
 30
0.0
 11
-95.360656188322508
 21
77.037056567239674
 31
0.0
  0
LINE
  5
39C
  8
DATA
  6
CONTINUOUS
 62
     7
 10
58.241250000109169
 20
47.259999999999991
 30
0.0
 11
54.241250000109169
 21
47.259999999999991
 31
0.0
  0
LINE
  5
39D
  8
DATA
  6
CONTINUOUS
 62
     7
 10
54.241250000109169
 20
47.259999999999991
 30
0.0
 11
54.241250000109169
 21
45.759999999999991
 31
0.0
  0
LINE
  5
39E
  8
DATA
  6
CONTINUOUS
 62
     7
 10
54.241250000109169
 20
45.759999999999991
 30
0.0
 11
58.241250000109169
 21
47.259999999999991
 31
0.0
  0
CIRCLE
  5
39F
  8
DATA
  6
CONTINUOUS
 62
     7
 10
-179.64999999982501
 20
80.519999999999968
 30
0.0
 40
0.7499999999999633
  0
LINE
  5
3A0
  8
DATA
  6
CONTINUOUS
 62
     7
 10
-178.89999999982501
 20
80.519999999999968
 30
0.0
 11
-176.89999999982501
 21
80.519999999999968
 31
0.0
  0
LINE
  5
3A1
  8
DATA
  6
CONTINUOUS
 62
     7
 10
-178.89999999982501
 20
80.519999999999968
 30
0.0
 11
-178.40499999982509
 21
81.014999999999873
 31
0.0
  0
LINE
  5
3A2
  8
DATA
  6
CONTINUOUS
 62
     7
 10
-178.89999999982501
 20
80.519999999999968
 30
0.0
 11
-178.40499999982509
 21
80.025000000000105
 31
0.0
  0
CIRCLE
  5
3A3
  8
DATA
  6
CONTINUOUS
 62
     7
 10
-214.79544371746371
 20
80.652083333333394
 30
0.0
 40
0.7499999999999633
  0
LINE
  5
3A4
  8
DATA
  6
CONTINUOUS
 62
     7
 10
-214.04544371746371
 20
80.652083333333394
 30
0.0
 11
-212.04544371746371
 21
80.652083333333394
 31
0.0
  0
LINE
  5
3A5
  8
DATA
  6
CONTINUOUS
 62
     7
 10
-214.04544371746371
 20
80.652083333333394
 30
0.0
 11
-213.55044371746379
 21
81.147083333333285
 31
0.0
  0
LINE
  5
3A6
  8
DATA
  6
CONTINUOUS
 62
     7
 10
-214.04544371746371
 20
80.652083333333394
 30
0.0
 11
-213.55044371746379
 21
80.157083333333503
 31
0.0
  0
LINE
  5
3A7
  8
DATA
  6
STYLE_01
 62
     7
 10
-184.64999999982501
 20
56.0
 30
0.0
 11
-184.64999999982501
 21
43.0
 31
0.0
  0
LINE
  5
3A8
  8
DATA
  6
STYLE_01
 62
     7
 10
-242.64999999982501
 20
56.0
 30
0.0
 11
-184.64999999982501
 21
56.0
 31
0.0
  0
LINE
  5
3A9
  8
DATA
  6
STYLE_01
 62
     7
 10
-242.64999999982501
 20
43.0
 30
0.0
 11
-242.64999999982501
 21
56.0
 31
0.0
  0
LINE
  5
3AA
  8
DATA
  6
CONTINUOUS
 62
     7
 10
-184.64999999982501
 20
43.0
 30
0.0
 11
-242.64999999982501
 21
43.0
 31
0.0
  0
LINE
  5
3AB
  8
DATA
  6
CONTINUOUS
 62
     7
 10
-253.4928203230277
 20
78.799999999999955
 30
0.0
 11
-253.4928203230277
 21
80.992820323027644
 31
0.0
  0
LINE
  5
3AC
  8
DATA
  6
CONTINUOUS
 62
     7
 10
-254.9928203230277
 20
80.992820323027644
 30
0.0
 11
-254.59282032302761
 21
81.685640646055376
 31
0.0
  0
LINE
  5
3AD
  8
DATA
  6
CONTINUOUS
 62
     7
 10
-253.05282032302759
 20
80.992820323027644
 30
0.0
 11
-252.65282032302761
 21
81.685640646055177
 31
0.0
  0
LINE
  5
3AE
  8
DATA
  6
CONTINUOUS
 62
     7
 10
-251.9928203230277
 20
80.992820323027644
 30
0.0
 11
-251.59282032302761
 21
81.685640646055376
 31
0.0
  0
LINE
  5
3AF
  8
DATA
  6
CONTINUOUS
 62
     7
 10
-251.9928203230277
 20
80.992820323027644
 30
0.0
 11
-254.9928203230277
 21
80.992820323027644
 31
0.0
  0
LINE
  5
3B0
  8
DATA
  6
CONTINUOUS
 62
     7
 10
-254.05282032302759
 20
80.992820323027644
 30
0.0
 11
-253.65282032302761
 21
81.685640646055177
 31
0.0
  0
LINE
  5
3B1
  8
DATA
  6
CONTINUOUS
 62
     7
 10
-249.4499999998252
 20
78.799999999999955
 30
0.0
 11
-249.4499999998252
 21
81.685640646055177
 31
0.0
  0
LINE
  5
3B2
  8
DATA
  6
CONTINUOUS
 62
     7
 10
-247.9499999998252
 20
81.685640646055177
 30
0.0
 11
-250.9499999998252
 21
81.685640646055177
 31
0.0
  0
LINE
  5
3B3
  8
DATA
  6
CONTINUOUS
 62
     7
 10
-249.4499999998252
 20
49.024359353944639
 30
0.0
 11
-249.4499999998252
 21
51.909999999999847
 31
0.0
  0
LINE
  5
3B4
  8
DATA
  6
CONTINUOUS
 62
     7
 10
-247.9499999998252
 20
51.909999999999847
 30
0.0
 11
-250.9499999998252
 21
51.909999999999847
 31
0.0
  0
LINE
  5
3B5
  8
DATA
  6
CONTINUOUS
 62
     7
 10
-3.4499999999998181
 20
47.885640646055442
 30
0.0
 11
-3.4499999999998181
 21
49.885640646055442
 31
0.0
  0
LINE
  5
3B6
  8
DATA
  6
CONTINUOUS
 62
     7
 10
-2.4499999999998181
 20
49.885640646055442
 30
0.0
 11
-4.4499999999998172
 21
49.885640646055442
 31
0.0
  0
POLYLINE
  5
3B7
  8
DATA
  6
CONTINUOUS
 62
     7
 66
     1
 10
0.0
 20
0.0
 30
0.0
 70
     1
  0
VERTEX
  5
733
  8
DATA
  6
CONTINUOUS
 62
     7
 10
-220.55499999982521
 20
68.756624327025747
 30
0.0
  0
VERTEX
  5
734
  8
DATA
  6
CONTINUOUS
 62
     7
 10
-218.05499999982521
 20
67.313248654051677
 30
0.0
  0
VERTEX
  5
735
  8
DATA
  6
CONTINUOUS
 62
     7
 10
-215.55499999982521
 20
68.756624327025747
 30
0.0
  0
VERTEX
  5
736
  8
DATA
  6
CONTINUOUS
 62
     7
 10
-215.55499999982521
 20
71.643375672973889
 30
0.0
  0
VERTEX
  5
737
  8
DATA
  6
CONTINUOUS
 62
     7
 10
-218.05499999982521
 20
73.086751345947945
 30
0.0
  0
VERTEX
  5
738
  8
DATA
  6
CONTINUOUS
 62
     7
 10
-220.55499999982521
 20
71.643375672973889
 30
0.0
  0
SEQEND
  5
739
  8
DATA
  6
CONTINUOUS
 62
     7
  0
POLYLINE
  5
3C0
  8
DATA
  6
CONTINUOUS
 62
     7
 66
     1
 10
0.0
 20
0.0
 30
0.0
 70
     1
  0
VERTEX
  5
73A
  8
DATA
  6
CONTINUOUS
 62
     7
 10
-245.544999999825
 20
68.756624327025747
 30
0.0
  0
VERTEX
  5
73B
  8
DATA
  6
CONTINUOUS
 62
     7
 10
-243.044999999825
 20
67.313248654051677
 30
0.0
  0
VERTEX
  5
73C
  8
DATA
  6
CONTINUOUS
 62
     7
 10
-240.544999999825
 20
68.756624327025747
 30
0.0
  0
VERTEX
  5
73D
  8
DATA
  6
CONTINUOUS
 62
     7
 10
-240.544999999825
 20
71.643375672973889
 30
0.0
  0
VERTEX
  5
73E
  8
DATA
  6
CONTINUOUS
 62
     7
 10
-243.044999999825
 20
73.086751345947945
 30
0.0
  0
VERTEX
  5
73F
  8
DATA
  6
CONTINUOUS
 62
     7
 10
-245.544999999825
 20
71.643375672973889
 30
0.0
  0
SEQEND
  5
740
  8
DATA
  6
CONTINUOUS
 62
     7
  0
CIRCLE
  5
3C9
  8
DATA
  6
CONTINUOUS
 62
     7
 10
-266.5
 20
46.0
 30
0.0
 40
3.0
  0
LINE
  5
3CA
  8
DATA
  6
CONTINUOUS
 62
     7
 10
-265.0
 20
46.0
 30
0.0
 11
-268.0
 21
46.0
 31
0.0
  0
LINE
  5
3CB
  8
DATA
  6
CONTINUOUS
 62
     7
 10
-266.5
 20
47.5
 30
0.0
 11
-266.5
 21
44.5
 31
0.0
  0
LINE
  5
3CC
  8
DATA
  6
CONTINUOUS
 62
     7
 10
-360.0
 20
-420.0
 30
0.0
 11
-360.0
 21
-375.5
 31
0.0
  0
LINE
  5
3CD
  8
DATA
  6
CONTINUOUS
 62
     7
 10
122.0
 20
-420.0
 30
0.0
 11
-360.0
 21
-420.0
 31
0.0
  0
LINE
  5
3CE
  8
DATA
  6
CONTINUOUS
 62
     7
 10
122.0
 20
-375.5
 30
0.0
 11
122.0
 21
-420.0
 31
0.0
  0
LINE
  5
3CF
  8
DATA
  6
CONTINUOUS
 62
     7
 10
-360.0
 20
-375.5
 30
0.0
 11
122.0
 21
-375.5
 31
0.0
  0
LINE
  5
3D0
  8
DATA
  6
CONTINUOUS
 62
     7
 10
-352.34999999999991
 20
-378.5
 30
0.0
 11
-349.34999999999991
 21
-378.5
 31
0.0
  0
LINE
  5
3D1
  8
DATA
  6
CONTINUOUS
 62
     7
 10
-352.34999999999991
 20
-385.0
 30
0.0
 11
-349.34999999999991
 21
-385.0
 31
0.0
  0
ARC
  5
3D2
  8
DATA
  6
CONTINUOUS
 62
     7
 10
-349.34999999999991
 20
-381.75
 30
0.0
 40
3.25
 50
270.0
 51
90.0
  0
ARC
  5
3D3
  8
DATA
  6
CONTINUOUS
 62
     7
 10
-352.34999999999991
 20
-381.75
 30
0.0
 40
3.25
 50
90.0
 51
270.0
  0
LINE
  5
3D4
  8
DATA
  6
CONTINUOUS
 62
     7
 10
-352.34999999999991
 20
-417.0
 30
0.0
 11
-349.34999999999991
 21
-417.0
 31
0.0
  0
LINE
  5
3D5
  8
DATA
  6
CONTINUOUS
 62
     7
 10
-352.34999999999991
 20
-410.5
 30
0.0
 11
-349.34999999999991
 21
-410.5
 31
0.0
  0
ARC
  5
3D6
  8
DATA
  6
CONTINUOUS
 62
     7
 10
-349.34999999999991
 20
-413.75
 30
0.0
 40
3.25
 50
270.0
 51
90.0
  0
ARC
  5
3D7
  8
DATA
  6
CONTINUOUS
 62
     7
 10
-352.34999999999991
 20
-413.75
 30
0.0
 40
3.25
 50
90.0
 51
270.0
  0
LINE
  5
3D8
  8
DATA
  6
CONTINUOUS
 62
     7
 10
114.34999999999989
 20
-378.5
 30
0.0
 11
111.34999999999989
 21
-378.5
 31
0.0
  0
LINE
  5
3D9
  8
DATA
  6
CONTINUOUS
 62
     7
 10
114.34999999999989
 20
-385.0
 30
0.0
 11
111.34999999999989
 21
-385.0
 31
0.0
  0
ARC
  5
3DA
  8
DATA
  6
CONTINUOUS
 62
     7
 10
111.34999999999989
 20
-381.75
 30
0.0
 40
3.25
 50
90.0
 51
270.0
  0
ARC
  5
3DB
  8
DATA
  6
CONTINUOUS
 62
     7
 10
114.34999999999989
 20
-381.75
 30
0.0
 40
3.25
 50
270.0
 51
90.0
  0
LINE
  5
3DC
  8
DATA
  6
CONTINUOUS
 62
     7
 10
114.34999999999989
 20
-417.0
 30
0.0
 11
111.34999999999989
 21
-417.0
 31
0.0
  0
LINE
  5
3DD
  8
DATA
  6
CONTINUOUS
 62
     7
 10
114.34999999999989
 20
-410.5
 30
0.0
 11
111.34999999999989
 21
-410.5
 31
0.0
  0
ARC
  5
3DE
  8
DATA
  6
CONTINUOUS
 62
     7
 10
111.34999999999989
 20
-413.75
 30
0.0
 40
3.25
 50
90.0
 51
270.0
  0
ARC
  5
3DF
  8
DATA
  6
CONTINUOUS
 62
     7
 10
114.34999999999989
 20
-413.75
 30
0.0
 40
3.25
 50
270.0
 51
90.0
  0
CIRCLE
  5
3E0
  8
DATA
  6
CONTINUOUS
 62
     7
 10
67.0
 20
-390.5
 30
0.0
 40
2.9999999999998641
  0
CIRCLE
  5
3E1
  8
DATA
  6
CONTINUOUS
 62
     7
 10
67.0
 20
-390.5
 30
0.0
 40
3.499999999999948
  0
CIRCLE
  5
3E2
  8
DATA
  6
CONTINUOUS
 62
     7
 10
67.0
 20
-390.5
 30
0.0
 40
7.4999999999999796
  0
CIRCLE
  5
3E3
  8
DATA
  6
CONTINUOUS
 62
     7
 10
67.0
 20
-390.5
 30
0.0
 40
11.500000000000011
  0
CIRCLE
  5
3E4
  8
DATA
  6
CONTINUOUS
 62
     7
 10
41.0
 20
-390.5
 30
0.0
 40
2.9999999999998641
  0
CIRCLE
  5
3E5
  8
DATA
  6
CONTINUOUS
 62
     7
 10
41.0
 20
-390.5
 30
0.0
 40
3.499999999999948
  0
CIRCLE
  5
3E6
  8
DATA
  6
CONTINUOUS
 62
     7
 10
41.0
 20
-390.5
 30
0.0
 40
7.4999999999999796
  0
CIRCLE
  5
3E7
  8
DATA
  6
CONTINUOUS
 62
     7
 10
41.0
 20
-390.5
 30
0.0
 40
11.500000000000011
  0
CIRCLE
  5
3E8
  8
DATA
  6
CONTINUOUS
 62
     7
 10
-30.0
 20
-397.5
 30
0.0
 40
2.9999999999998641
  0
CIRCLE
  5
3E9
  8
DATA
  6
CONTINUOUS
 62
     7
 10
-30.0
 20
-397.5
 30
0.0
 40
3.499999999999948
  0
CIRCLE
  5
3EA
  8
DATA
  6
CONTINUOUS
 62
     7
 10
-30.0
 20
-397.5
 30
0.0
 40
7.4999999999999796
  0
CIRCLE
  5
3EB
  8
DATA
  6
CONTINUOUS
 62
     7
 10
-30.0
 20
-397.5
 30
0.0
 40
11.500000000000011
  0
CIRCLE
  5
3EC
  8
DATA
  6
CONTINUOUS
 62
     7
 10
-307.0
 20
-390.5
 30
0.0
 40
2.9999999999998641
  0
CIRCLE
  5
3ED
  8
DATA
  6
CONTINUOUS
 62
     7
 10
-307.0
 20
-390.5
 30
0.0
 40
3.499999999999948
  0
CIRCLE
  5
3EE
  8
DATA
  6
CONTINUOUS
 62
     7
 10
-307.0
 20
-390.5
 30
0.0
 40
7.4999999999999796
  0
CIRCLE
  5
3EF
  8
DATA
  6
CONTINUOUS
 62
     7
 10
-307.0
 20
-390.5
 30
0.0
 40
11.500000000000011
  0
CIRCLE
  5
3F0
  8
DATA
  6
CONTINUOUS
 62
     7
 10
-263.0
 20
-390.5
 30
0.0
 40
2.9999999999998641
  0
CIRCLE
  5
3F1
  8
DATA
  6
CONTINUOUS
 62
     7
 10
-263.0
 20
-390.5
 30
0.0
 40
3.499999999999948
  0
CIRCLE
  5
3F2
  8
DATA
  6
CONTINUOUS
 62
     7
 10
-263.0
 20
-390.5
 30
0.0
 40
7.4999999999999796
  0
CIRCLE
  5
3F3
  8
DATA
  6
CONTINUOUS
 62
     7
 10
-263.0
 20
-390.5
 30
0.0
 40
11.500000000000011
  0
CIRCLE
  5
3F4
  8
DATA
  6
CONTINUOUS
 62
     7
 10
-219.0
 20
-390.5
 30
0.0
 40
2.9999999999998641
  0
CIRCLE
  5
3F5
  8
DATA
  6
CONTINUOUS
 62
     7
 10
-219.0
 20
-390.5
 30
0.0
 40
3.499999999999948
  0
CIRCLE
  5
3F6
  8
DATA
  6
CONTINUOUS
 62
     7
 10
-219.0
 20
-390.5
 30
0.0
 40
7.4999999999999796
  0
CIRCLE
  5
3F7
  8
DATA
  6
CONTINUOUS
 62
     7
 10
-219.0
 20
-390.5
 30
0.0
 40
11.500000000000011
  0
CIRCLE
  5
3F8
  8
DATA
  6
CONTINUOUS
 62
     7
 10
-175.0
 20
-390.5
 30
0.0
 40
2.9999999999998641
  0
CIRCLE
  5
3F9
  8
DATA
  6
CONTINUOUS
 62
     7
 10
-175.0
 20
-390.5
 30
0.0
 40
3.499999999999948
  0
CIRCLE
  5
3FA
  8
DATA
  6
CONTINUOUS
 62
     7
 10
-175.0
 20
-390.5
 30
0.0
 40
7.4999999999999796
  0
CIRCLE
  5
3FB
  8
DATA
  6
CONTINUOUS
 62
     7
 10
-175.0
 20
-390.5
 30
0.0
 40
11.500000000000011
  0
CIRCLE
  5
3FC
  8
DATA
  6
CONTINUOUS
 62
     7
 10
-131.0
 20
-390.5
 30
0.0
 40
2.9999999999998641
  0
CIRCLE
  5
3FD
  8
DATA
  6
CONTINUOUS
 62
     7
 10
-131.0
 20
-390.5
 30
0.0
 40
3.499999999999948
  0
CIRCLE
  5
3FE
  8
DATA
  6
CONTINUOUS
 62
     7
 10
-131.0
 20
-390.5
 30
0.0
 40
7.4999999999999796
  0
CIRCLE
  5
3FF
  8
DATA
  6
CONTINUOUS
 62
     7
 10
-131.0
 20
-390.5
 30
0.0
 40
11.500000000000011
  0
CIRCLE
  5
400
  8
DATA
  6
CONTINUOUS
 62
     7
 10
-87.0
 20
-390.5
 30
0.0
 40
2.9999999999998641
  0
CIRCLE
  5
401
  8
DATA
  6
CONTINUOUS
 62
     7
 10
-87.0
 20
-390.5
 30
0.0
 40
3.499999999999948
  0
CIRCLE
  5
402
  8
DATA
  6
CONTINUOUS
 62
     7
 10
-87.0
 20
-390.5
 30
0.0
 40
7.4999999999999796
  0
CIRCLE
  5
403
  8
DATA
  6
CONTINUOUS
 62
     7
 10
-87.0
 20
-390.5
 30
0.0
 40
11.500000000000011
  0
LINE
  5
404
  8
DATA
  6
CONTINUOUS
 62
     7
 10
-21.644760927938929
 20
-386.0
 30
0.0
 11
-19.644760927938929
 21
-386.0
 31
0.0
  0
LINE
  5
405
  8
DATA
  6
CONTINUOUS
 62
     7
 10
-17.689265851300661
 20
-393.5
 30
0.0
 11
-16.689265851300661
 21
-393.5
 31
0.0
  0
LINE
  5
406
  8
DATA
  6
CONTINUOUS
 62
     7
 10
-18.988944636231729
 20
-389.5
 30
0.0
 11
-17.488944636231729
 21
-389.5
 31
0.0
  0
LINE
  5
407
  8
DATA
  6
CONTINUOUS
 62
     7
 10
-18.5
 20
-397.4999999999996
 30
0.0
 11
-16.5
 21
-397.4999999999996
 31
0.0
  0
LINE
  5
408
  8
DATA
  6
CONTINUOUS
 62
     7
 10
-19.062850062605769
 20
-393.94630456468758
 30
0.0
 11
-17.689265851300661
 21
-393.5
 31
0.0
  0
LINE
  5
409
  8
DATA
  6
CONTINUOUS
 62
     7
 10
-20.696304564688489
 20
-390.74046959863608
 30
0.0
 11
-18.988944636231729
 21
-389.5
 31
0.0
  0
LINE
  5
40A
  8
DATA
  6
CONTINUOUS
 62
     7
 10
-23.24046959863654
 20
-388.19630456468741
 30
0.0
 11
-21.644760927938929
 21
-386.0
 31
0.0
  0
LINE
  5
40B
  8
DATA
  6
CONTINUOUS
 62
     7
 10
-26.44630456468758
 20
-386.56285006260401
 30
0.0
 11
-24.963744708390092
 21
-382.0
 31
0.0
  0
LINE
  5
40C
  8
DATA
  6
CONTINUOUS
 62
     7
 10
-30.0
 20
-386.0
 30
0.0
 11
-30.0
 21
-381.9999999999996
 31
0.0
  0
LINE
  5
40D
  8
DATA
  6
CONTINUOUS
 62
     7
 10
-24.963744708390092
 20
-382.0
 30
0.0
 11
-23.463744708390092
 21
-382.0
 31
0.0
  0
LINE
  5
40E
  8
DATA
  6
CONTINUOUS
 62
     7
 10
-17.689265851301109
 20
-401.49999999999972
 30
0.0
 11
-16.689265851301109
 21
-401.49999999999972
 31
0.0
  0
LINE
  5
40F
  8
DATA
  6
CONTINUOUS
 62
     7
 10
-18.988944636232191
 20
-405.49999999999972
 30
0.0
 11
-17.488944636232191
 21
-405.49999999999972
 31
0.0
  0
LINE
  5
410
  8
DATA
  6
CONTINUOUS
 62
     7
 10
-19.06285006260623
 20
-401.05369543531208
 30
0.0
 11
-17.689265851301109
 21
-401.49999999999972
 31
0.0
  0
LINE
  5
411
  8
DATA
  6
CONTINUOUS
 62
     7
 10
-20.696304564688941
 20
-404.25953040136358
 30
0.0
 11
-18.988944636232191
 21
-405.49999999999972
 31
0.0
  0
LINE
  5
412
  8
DATA
  6
CONTINUOUS
 62
     7
 10
-26.446304564688031
 20
-408.4371499373957
 30
0.0
 11
-26.075664600613891
 21
-409.57786245304658
 31
0.0
  0
LINE
  5
413
  8
DATA
  6
CONTINUOUS
 62
     7
 10
-26.075664600613891
 20
-409.57786245304658
 30
0.0
 11
-24.075664600613891
 21
-409.57786245304658
 31
0.0
  0
LINE
  5
414
  8
DATA
  6
CONTINUOUS
 62
     7
 10
-38.35523907206106
 20
-386.0
 30
0.0
 11
-40.35523907206106
 21
-386.0
 31
0.0
  0
LINE
  5
415
  8
DATA
  6
CONTINUOUS
 62
     7
 10
-42.310734148699339
 20
-393.5
 30
0.0
 11
-43.310734148699332
 21
-393.5
 31
0.0
  0
LINE
  5
416
  8
DATA
  6
CONTINUOUS
 62
     7
 10
-41.011055363768257
 20
-389.5
 30
0.0
 11
-42.51105536376825
 21
-389.5
 31
0.0
  0
LINE
  5
417
  8
DATA
  6
CONTINUOUS
 62
     7
 10
-41.5
 20
-397.4999999999996
 30
0.0
 11
-43.5
 21
-397.4999999999996
 31
0.0
  0
LINE
  5
418
  8
DATA
  6
CONTINUOUS
 62
     7
 10
-40.937149937394231
 20
-393.94630456468758
 30
0.0
 11
-42.310734148699339
 21
-393.5
 31
0.0
  0
LINE
  5
419
  8
DATA
  6
CONTINUOUS
 62
     7
 10
-39.303695435311511
 20
-390.74046959863608
 30
0.0
 11
-41.011055363768257
 21
-389.5
 31
0.0
  0
LINE
  5
41A
  8
DATA
  6
CONTINUOUS
 62
     7
 10
-36.759530401363463
 20
-388.19630456468741
 30
0.0
 11
-38.35523907206106
 21
-386.0
 31
0.0
  0
LINE
  5
41B
  8
DATA
  6
CONTINUOUS
 62
     7
 10
-33.55369543531242
 20
-386.56285006260401
 30
0.0
 11
-35.036255291609912
 21
-382.0
 31
0.0
  0
LINE
  5
41C
  8
DATA
  6
CONTINUOUS
 62
     7
 10
-35.036255291609912
 20
-382.0
 30
0.0
 11
-36.536255291609898
 21
-382.0
 31
0.0
  0
LINE
  5
41D
  8
DATA
  6
CONTINUOUS
 62
     7
 10
-42.310734148698877
 20
-401.49999999999972
 30
0.0
 11
-43.310734148698877
 21
-401.49999999999972
 31
0.0
  0
LINE
  5
41E
  8
DATA
  6
CONTINUOUS
 62
     7
 10
-41.011055363767809
 20
-405.49999999999972
 30
0.0
 11
-42.511055363767817
 21
-405.49999999999972
 31
0.0
  0
LINE
  5
41F
  8
DATA
  6
CONTINUOUS
 62
     7
 10
-40.937149937393777
 20
-401.05369543531208
 30
0.0
 11
-42.310734148698877
 21
-401.49999999999972
 31
0.0
  0
LINE
  5
420
  8
DATA
  6
CONTINUOUS
 62
     7
 10
-39.303695435311063
 20
-404.25953040136358
 30
0.0
 11
-41.011055363767809
 21
-405.49999999999972
 31
0.0
  0
LINE
  5
421
  8
DATA
  6
CONTINUOUS
 62
     7
 10
-33.553695435311958
 20
-408.4371499373957
 30
0.0
 11
-33.924335399386109
 21
-409.57786245304658
 31
0.0
  0
LINE
  5
422
  8
DATA
  6
CONTINUOUS
 62
     7
 10
-33.924335399386109
 20
-409.57786245304658
 30
0.0
 11
-35.924335399386109
 21
-409.57786245304658
 31
0.0
  0
POLYLINE
  5
423
  8
DATA
  6
CONTINUOUS
 62
     7
 66
     1
 10
0.0
 20
0.0
 30
0.0
 70
     1
  0
VERTEX
  5
741
  8
DATA
  6
CONTINUOUS
 62
     7
 10
31.0
 20
-413.0
 30
0.0
  0
VERTEX
  5
742
  8
DATA
  6
CONTINUOUS
 62
     7
 10
51.0
 20
-413.0
 30
0.0
  0
VERTEX
  5
743
  8
DATA
  6
CONTINUOUS
 62
     7
 10
51.0
 20
-415.0
 30
0.0
  0
VERTEX
  5
744
  8
DATA
  6
CONTINUOUS
 62
     7
 10
31.0
 20
-415.0
 30
0.0
  0
SEQEND
  5
745
  8
DATA
  6
CONTINUOUS
 62
     7
  0
CIRCLE
  5
42A
  8
DATA
  6
CONTINUOUS
 62
     7
 10
32.25
 20
-414.0
 30
0.0
 40
1.000000000000081
  0
CIRCLE
  5
42B
  8
DATA
  6
CONTINUOUS
 62
     7
 10
34.75
 20
-414.0
 30
0.0
 40
1.000000000000081
  0
CIRCLE
  5
42C
  8
DATA
  6
CONTINUOUS
 62
     7
 10
37.25
 20
-414.0
 30
0.0
 40
1.000000000000081
  0
CIRCLE
  5
42D
  8
DATA
  6
CONTINUOUS
 62
     7
 10
39.75
 20
-414.0
 30
0.0
 40
1.000000000000081
  0
CIRCLE
  5
42E
  8
DATA
  6
CONTINUOUS
 62
     7
 10
42.25
 20
-414.0
 30
0.0
 40
1.000000000000081
  0
CIRCLE
  5
42F
  8
DATA
  6
CONTINUOUS
 62
     7
 10
44.75
 20
-414.0
 30
0.0
 40
1.000000000000081
  0
CIRCLE
  5
430
  8
DATA
  6
CONTINUOUS
 62
     7
 10
47.25
 20
-414.0
 30
0.0
 40
1.000000000000081
  0
CIRCLE
  5
431
  8
DATA
  6
CONTINUOUS
 62
     7
 10
49.75
 20
-414.0
 30
0.0
 40
1.000000000000081
  0
POLYLINE
  5
432
  8
DATA
  6
CONTINUOUS
 62
     7
 66
     1
 10
0.0
 20
0.0
 30
0.0
 70
     1
  0
VERTEX
  5
746
  8
DATA
  6
CONTINUOUS
 62
     7
 10
31.0
 20
-408.0
 30
0.0
  0
VERTEX
  5
747
  8
DATA
  6
CONTINUOUS
 62
     7
 10
51.0
 20
-408.0
 30
0.0
  0
VERTEX
  5
748
  8
DATA
  6
CONTINUOUS
 62
     7
 10
51.0
 20
-410.0
 30
0.0
  0
VERTEX
  5
749
  8
DATA
  6
CONTINUOUS
 62
     7
 10
31.0
 20
-410.0
 30
0.0
  0
SEQEND
  5
74A
  8
DATA
  6
CONTINUOUS
 62
     7
  0
CIRCLE
  5
439
  8
DATA
  6
CONTINUOUS
 62
     7
 10
32.25
 20
-409.0
 30
0.0
 40
1.000000000000081
  0
CIRCLE
  5
43A
  8
DATA
  6
CONTINUOUS
 62
     7
 10
34.75
 20
-409.0
 30
0.0
 40
1.000000000000081
  0
CIRCLE
  5
43B
  8
DATA
  6
CONTINUOUS
 62
     7
 10
37.25
 20
-409.0
 30
0.0
 40
1.000000000000081
  0
CIRCLE
  5
43C
  8
DATA
  6
CONTINUOUS
 62
     7
 10
39.75
 20
-409.0
 30
0.0
 40
1.000000000000081
  0
CIRCLE
  5
43D
  8
DATA
  6
CONTINUOUS
 62
     7
 10
42.25
 20
-409.0
 30
0.0
 40
1.000000000000081
  0
CIRCLE
  5
43E
  8
DATA
  6
CONTINUOUS
 62
     7
 10
44.75
 20
-409.0
 30
0.0
 40
1.000000000000081
  0
CIRCLE
  5
43F
  8
DATA
  6
CONTINUOUS
 62
     7
 10
47.25
 20
-409.0
 30
0.0
 40
1.000000000000081
  0
CIRCLE
  5
440
  8
DATA
  6
CONTINUOUS
 62
     7
 10
49.75
 20
-409.0
 30
0.0
 40
1.000000000000081
  0
CIRCLE
  5
441
  8
DATA
  6
CONTINUOUS
 62
     7
 10
86.0
 20
-409.0
 30
0.0
 40
7.5
  0
POLYLINE
  5
442
  8
DATA
  6
CONTINUOUS
 62
     7
 66
     1
 10
0.0
 20
0.0
 30
0.0
 70
     1
  0
VERTEX
  5
74B
  8
DATA
  6
CONTINUOUS
 62
     7
 10
91.5
 20
-409.0
 30
0.0
  0
VERTEX
  5
74C
  8
DATA
  6
CONTINUOUS
 62
     7
 10
88.75
 20
-404.23686027918541
 30
0.0
  0
VERTEX
  5
74D
  8
DATA
  6
CONTINUOUS
 62
     7
 10
83.250000000000014
 20
-404.23686027918541
 30
0.0
  0
VERTEX
  5
74E
  8
DATA
  6
CONTINUOUS
 62
     7
 10
80.5
 20
-409.0
 30
0.0
  0
VERTEX
  5
74F
  8
DATA
  6
CONTINUOUS
 62
     7
 10
83.250000000000014
 20
-413.76313972081448
 30
0.0
  0
VERTEX
  5
750
  8
DATA
  6
CONTINUOUS
 62
     7
 10
88.75
 20
-413.76313972081448
 30
0.0
  0
SEQEND
  5
751
  8
DATA
  6
CONTINUOUS
 62
     7
  0
CIRCLE
  5
44B
  8
DATA
  6
CONTINUOUS
 62
     7
 10
86.0
 20
-409.0
 30
0.0
 40
3.1999999999998181
  0
CIRCLE
  5
44C
  8
DATA
  6
CONTINUOUS
 62
     7
 10
86.0
 20
-409.0
 30
0.0
 40
6.5
  0
LINE
  5
44D
  8
DATA
  6
CONTINUOUS
 62
     7
 10
180.0
 20
-420.0
 30
0.0
 11
180.0
 21
-375.5
 31
0.0
  0
LINE
  5
44E
  8
DATA
  6
CONTINUOUS
 62
     7
 10
183.0
 20
-420.0
 30
0.0
 11
183.0
 21
-375.5
 31
0.0
  0
LINE
  5
44F
  8
DATA
  6
CONTINUOUS
 62
     7
 10
400.0
 20
-420.0
 30
0.0
 11
180.0
 21
-420.0
 31
0.0
  0
LINE
  5
450
  8
DATA
  6
CONTINUOUS
 62
     7
 10
400.0
 20
-375.5
 30
0.0
 11
400.0
 21
-420.0
 31
0.0
  0
LINE
  5
451
  8
DATA
  6
CONTINUOUS
 62
     7
 10
180.0
 20
-375.5
 30
0.0
 11
400.0
 21
-375.5
 31
0.0
  0
LINE
  5
452
  8
DATA
  6
CONTINUOUS
 62
     7
 10
162.0
 20
-387.21281292110177
 30
0.0
 11
180.0
 21
-386.71281292110177
 31
0.0
  0
LINE
  5
453
  8
DATA
  6
CONTINUOUS
 62
     7
 10
162.0
 20
-393.21281292110177
 30
0.0
 11
162.0
 21
-387.21281292110177
 31
0.0
  0
LINE
  5
454
  8
DATA
  6
CONTINUOUS
 62
     7
 10
180.0
 20
-393.71281292110177
 30
0.0
 11
180.0
 21
-386.71281292110177
 31
0.0
  0
LINE
  5
455
  8
DATA
  6
CONTINUOUS
 62
     7
 10
162.0
 20
-393.21281292110177
 30
0.0
 11
180.0
 21
-393.71281292110177
 31
0.0
  0
LINE
  5
456
  8
DATA
  6
CONTINUOUS
 62
     7
 10
162.0
 20
-394.0
 30
0.0
 11
180.0
 21
-393.5
 31
0.0
  0
LINE
  5
457
  8
DATA
  6
CONTINUOUS
 62
     7
 10
162.0
 20
-400.0
 30
0.0
 11
162.0
 21
-394.0
 31
0.0
  0
LINE
  5
458
  8
DATA
  6
CONTINUOUS
 62
     7
 10
180.0
 20
-400.49999999999989
 30
0.0
 11
180.0
 21
-393.5
 31
0.0
  0
LINE
  5
459
  8
DATA
  6
CONTINUOUS
 62
     7
 10
162.0
 20
-400.0
 30
0.0
 11
180.0
 21
-400.49999999999989
 31
0.0
  0
LINE
  5
45A
  8
DATA
  6
CONTINUOUS
 62
     7
 10
180.0
 20
-416.5
 30
0.0
 11
180.0
 21
-401.49999999999989
 31
0.0
  0
LINE
  5
45B
  8
DATA
  6
CONTINUOUS
 62
     7
 10
178.0
 20
-415.5
 30
0.0
 11
178.0
 21
-402.5
 31
0.0
  0
LINE
  5
45C
  8
DATA
  6
CONTINUOUS
 62
     7
 10
179.0
 20
-416.5
 30
0.0
 11
179.0
 21
-401.49999999999989
 31
0.0
  0
LINE
  5
45D
  8
DATA
  6
CONTINUOUS
 62
     7
 10
178.0
 20
-409.0
 30
0.0
 11
176.0
 21
-409.0
 31
0.0
  0
LINE
  5
45E
  8
DATA
  6
CONTINUOUS
 62
     7
 10
178.0
 20
-402.5
 30
0.0
 11
179.0
 21
-401.49999999999989
 31
0.0
  0
LINE
  5
45F
  8
DATA
  6
CONTINUOUS
 62
     7
 10
179.0
 20
-401.49999999999989
 30
0.0
 11
180.0
 21
-401.49999999999989
 31
0.0
  0
LINE
  5
460
  8
DATA
  6
CONTINUOUS
 62
     7
 10
178.0
 20
-415.5
 30
0.0
 11
179.0
 21
-416.5
 31
0.0
  0
LINE
  5
461
  8
DATA
  6
CONTINUOUS
 62
     7
 10
179.0
 20
-416.5
 30
0.0
 11
180.0
 21
-416.5
 31
0.0
  0
LINE
  5
462
  8
DATA
  6
CONTINUOUS
 62
     7
 10
176.5
 20
-404.23686027918541
 30
0.0
 11
178.0
 21
-404.23686027918541
 31
0.0
  0
LINE
  5
463
  8
DATA
  6
CONTINUOUS
 62
     7
 10
176.5
 20
-413.76313972081448
 30
0.0
 11
178.0
 21
-413.76313972081448
 31
0.0
  0
ARC
  5
464
  8
DATA
  6
CONTINUOUS
 62
     7
 10
198.93749999999861
 20
-409.0
 30
0.0
 40
22.937499999998678
 50
168.0148997076146
 51
191.9851002923854
  0
LINE
  5
465
  8
DATA
  6
CONTINUOUS
 62
     7
 10
400.0
 20
-410.99999999999972
 30
0.0
 11
400.0
 21
-404.99999999999977
 31
0.0
  0
LINE
  5
466
  8
DATA
  6
CONTINUOUS
 62
     7
 10
407.5
 20
-410.99999999999972
 30
0.0
 11
400.0
 21
-410.99999999999972
 31
0.0
  0
LINE
  5
467
  8
DATA
  6
CONTINUOUS
 62
     7
 10
408.49999999999989
 20
-405.99999999999972
 30
0.0
 11
408.49999999999989
 21
-407.49999999999972
 31
0.0
  0
LINE
  5
468
  8
DATA
  6
CONTINUOUS
 62
     7
 10
408.49999999999989
 20
-408.49999999999977
 30
0.0
 11
408.49999999999989
 21
-409.99999999999972
 31
0.0
  0
LINE
  5
469
  8
DATA
  6
CONTINUOUS
 62
     7
 10
408.49999999999989
 20
-409.99999999999972
 30
0.0
 11
407.5
 21
-410.99999999999972
 31
0.0
  0
LINE
  5
46A
  8
DATA
  6
CONTINUOUS
 62
     7
 10
400.0
 20
-404.99999999999977
 30
0.0
 11
407.5
 21
-404.99999999999977
 31
0.0
  0
LINE
  5
46B
  8
DATA
  6
CONTINUOUS
 62
     7
 10
407.5
 20
-404.99999999999977
 30
0.0
 11
408.49999999999989
 21
-405.99999999999972
 31
0.0
  0
LINE
  5
46C
  8
DATA
  6
CONTINUOUS
 62
     7
 10
400.0
 20
-408.49999999999977
 30
0.0
 11
400.0
 21
-407.49999999999972
 31
0.0
  0
LINE
  5
46D
  8
DATA
  6
CONTINUOUS
 62
     7
 10
408.49999999999989
 20
-408.49999999999977
 30
0.0
 11
400.0
 21
-408.49999999999977
 31
0.0
  0
LINE
  5
46E
  8
DATA
  6
CONTINUOUS
 62
     7
 10
400.0
 20
-407.49999999999972
 30
0.0
 11
408.49999999999989
 21
-407.49999999999972
 31
0.0
  0
LINE
  5
46F
  8
DATA
  6
CONTINUOUS
 62
     7
 10
400.0
 20
-393.27403300574792
 30
0.0
 11
403.5
 21
-393.27403300574792
 31
0.0
  0
LINE
  5
470
  8
DATA
  6
CONTINUOUS
 62
     7
 10
400.0
 20
-392.77403300574792
 30
0.0
 11
403.0
 21
-392.77403300574792
 31
0.0
  0
LINE
  5
471
  8
DATA
  6
CONTINUOUS
 62
     7
 10
403.5
 20
-393.27403300574792
 30
0.0
 11
403.5
 21
-384.94000000000011
 31
0.0
  0
LINE
  5
472
  8
DATA
  6
CONTINUOUS
 62
     7
 10
403.0
 20
-392.77403300574792
 30
0.0
 11
403.0
 21
-390.40000000115958
 31
0.0
  0
LINE
  5
473
  8
DATA
  6
CONTINUOUS
 62
     7
 10
403.0
 20
-390.40000000115958
 30
0.0
 11
403.0
 21
-384.94000000000011
 31
0.0
  0
LINE
  5
474
  8
DATA
  6
CONTINUOUS
 62
     7
 10
403.5
 20
-384.94000000000011
 30
0.0
 11
403.0
 21
-384.94000000000011
 31
0.0
  0
LINE
  5
475
  8
DATA
  6
CONTINUOUS
 62
     7
 10
403.0
 20
-390.40000000115958
 30
0.0
 11
403.5
 21
-390.40000000115958
 31
0.0
  0
LINE
  5
476
  8
DATA
  6
CONTINUOUS
 62
     7
 10
400.0
 20
-384.5
 30
0.0
 11
400.0
 21
-378.5
 31
0.0
  0
LINE
  5
477
  8
DATA
  6
CONTINUOUS
 62
     7
 10
402.0
 20
-380.5
 30
0.0
 11
402.0
 21
-382.5
 31
0.0
  0
ARC
  5
478
  8
DATA
  6
CONTINUOUS
 62
     7
 10
400.0
 20
-380.5
 30
0.0
 40
2.0
 50
0.0
 51
90.0
  0
ARC
  5
479
  8
DATA
  6
CONTINUOUS
 62
     7
 10
400.0
 20
-382.5
 30
0.0
 40
2.0
 50
270.0
 51
0.0
  0
LINE
  5
47A
  8
DATA
  6
CONTINUOUS
 62
     7
 10
400.0
 20
-393.99999999999977
 30
0.0
 11
400.0
 21
-385.99999999999977
 31
0.0
  0
LINE
  5
47B
  8
DATA
  6
CONTINUOUS
 62
     7
 10
404.49999999999989
 20
-393.99999999999977
 30
0.0
 11
400.0
 21
-393.99999999999977
 31
0.0
  0
LINE
  5
47C
  8
DATA
  6
CONTINUOUS
 62
     7
 10
405.0
 20
-386.49999999999977
 30
0.0
 11
405.0
 21
-393.49999999999977
 31
0.0
  0
LINE
  5
47D
  8
DATA
  6
CONTINUOUS
 62
     7
 10
400.0
 20
-385.99999999999977
 30
0.0
 11
403.0
 21
-385.99999999999977
 31
0.0
  0
LINE
  5
47E
  8
DATA
  6
CONTINUOUS
 62
     7
 10
403.5
 20
-385.99999999999977
 30
0.0
 11
404.49999999999989
 21
-385.99999999999977
 31
0.0
  0
ARC
  5
47F
  8
DATA
  6
CONTINUOUS
 62
     7
 10
404.49999999999989
 20
-386.49999999999977
 30
0.0
 40
0.5
 50
0.0
 51
90.0
  0
ARC
  5
480
  8
DATA
  6
CONTINUOUS
 62
     7
 10
404.49999999999989
 20
-393.49999999999977
 30
0.0
 40
0.5
 50
270.0
 51
0.0
  0
LINE
  5
481
  8
DATA
  6
CONTINUOUS
 62
     7
 10
400.0
 20
-408.99999999999977
 30
0.0
 11
400.0
 21
-400.99999999999977
 31
0.0
  0
LINE
  5
482
  8
DATA
  6
CONTINUOUS
 62
     7
 10
405.0
 20
-401.49999999999972
 30
0.0
 11
405.0
 21
-404.99999999999977
 31
0.0
  0
LINE
  5
483
  8
DATA
  6
CONTINUOUS
 62
     7
 10
405.0
 20
-407.49999999999972
 30
0.0
 11
405.0
 21
-408.49999999999977
 31
0.0
  0
LINE
  5
484
  8
DATA
  6
CONTINUOUS
 62
     7
 10
400.0
 20
-400.99999999999977
 30
0.0
 11
404.49999999999989
 21
-400.99999999999977
 31
0.0
  0
ARC
  5
485
  8
DATA
  6
CONTINUOUS
 62
     7
 10
404.49999999999989
 20
-401.49999999999972
 30
0.0
 40
0.5
 50
0.0
 51
90.0
  0
LINE
  5
486
  8
DATA
  6
CONTINUOUS
 62
     7
 10
400.0
 20
-417.99999999999972
 30
0.0
 11
400.0
 21
-385.99999999999977
 31
0.0
  0
LINE
  5
487
  8
DATA
  6
CONTINUOUS
 62
     7
 10
400.49999999999989
 20
-417.99999999999972
 30
0.0
 11
400.0
 21
-417.99999999999972
 31
0.0
  0
LINE
  5
488
  8
DATA
  6
CONTINUOUS
 62
     7
 10
401.0
 20
-393.99999999999977
 30
0.0
 11
401.0
 21
-400.99999999999977
 31
0.0
  0
LINE
  5
489
  8
DATA
  6
CONTINUOUS
 62
     7
 10
401.0
 20
-410.99999999999972
 30
0.0
 11
401.0
 21
-417.49999999999977
 31
0.0
  0
LINE
  5
48A
  8
DATA
  6
CONTINUOUS
 62
     7
 10
400.0
 20
-385.99999999999977
 30
0.0
 11
400.49999999999989
 21
-385.99999999999977
 31
0.0
  0
LINE
  5
48B
  8
DATA
  6
CONTINUOUS
 62
     7
 10
401.0
 20
-400.99999999999977
 30
0.0
 11
401.0
 21
-393.99999999999977
 31
0.0
  0
LINE
  5
48C
  8
DATA
  6
CONTINUOUS
 62
     7
 10
403.0
 20
-393.99999999999977
 30
0.0
 11
403.0
 21
-400.99999999999977
 31
0.0
  0
POLYLINE
  5
48D
  8
DATA
  6
CONTINUOUS
 62
     7
 66
     1
 10
0.0
 20
0.0
 30
0.0
 70
   128
  0
VERTEX
  5
752
  8
DATA
  6
CONTINUOUS
 62
     7
 10
403.0
 20
-410.99999999999972
 30
0.0
  0
VERTEX
  5
753
  8
DATA
  6
CONTINUOUS
 62
     7
 10
403.0
 20
-414.99999999999972
 30
0.0
  0
VERTEX
  5
754
  8
DATA
  6
CONTINUOUS
 62
     7
 10
403.0
 20
-414.99999999999972
 30
0.0
 42
-0.4142135623730951
  0
VERTEX
  5
755
  8
DATA
  6
CONTINUOUS
 62
     7
 10
402.0
 20
-415.99999999999972
 30
0.0
  0
VERTEX
  5
756
  8
DATA
  6
CONTINUOUS
 62
     7
 10
401.0
 20
-415.99999999999972
 30
0.0
  0
VERTEX
  5
757
  8
DATA
  6
CONTINUOUS
 62
     7
 10
401.0
 20
-410.99999999999972
 30
0.0
  0
SEQEND
  5
758
  8
DATA
  6
CONTINUOUS
 62
     7
  0
ARC
  5
495
  8
DATA
  6
CONTINUOUS
 62
     7
 10
400.49999999999989
 20
-417.49999999999977
 30
0.0
 40
0.5
 50
270.0
 51
0.0
  0
LINE
  5
496
  8
DATA
  6
CONTINUOUS
 62
     7
 10
406.07692307692292
 20
-407.49999999999972
 30
0.0
 11
406.69230769230762
 21
-408.49999999999977
 31
0.0
  0
LINE
  5
497
  8
DATA
  6
CONTINUOUS
 62
     7
 10
403.0
 20
-411.99999999999972
 30
0.0
 11
404.33333333333343
 21
-410.99999999999972
 31
0.0
  0
LINE
  5
498
  8
DATA
  6
CONTINUOUS
 62
     7
 10
-360.0
 20
-280.0
 30
0.0
 11
-360.0
 21
-277.0
 31
0.0
  0
LINE
  5
499
  8
DATA
  6
CONTINUOUS
 62
     7
 10
122.0
 20
-280.0
 30
0.0
 11
-360.0
 21
-280.0
 31
0.0
  0
LINE
  5
49A
  8
DATA
  6
CONTINUOUS
 62
     7
 10
122.0
 20
-277.0
 30
0.0
 11
122.0
 21
-280.0
 31
0.0
  0
LINE
  5
49B
  8
DATA
  6
CONTINUOUS
 62
     7
 10
-360.0
 20
-277.0
 30
0.0
 11
122.0
 21
-277.0
 31
0.0
  0
LINE
  5
49C
  8
DATA
  6
CONTINUOUS
 62
     7
 10
-341.5
 20
-277.0
 30
0.0
 11
-341.5
 21
-60.0
 31
0.0
  0
LINE
  5
49D
  8
DATA
  6
CONTINUOUS
 62
     7
 10
103.5
 20
-277.0
 30
0.0
 11
-341.5
 21
-277.0
 31
0.0
  0
LINE
  5
49E
  8
DATA
  6
CONTINUOUS
 62
     7
 10
103.5
 20
-60.0
 30
0.0
 11
103.5
 21
-277.0
 31
0.0
  0
LINE
  5
49F
  8
DATA
  6
CONTINUOUS
 62
     7
 10
-341.5
 20
-60.0
 30
0.0
 11
103.5
 21
-60.0
 31
0.0
  0
LINE
  5
4A0
  8
DATA
  6
CONTINUOUS
 62
     7
 10
-310.0
 20
-298.0
 30
0.0
 11
-310.5
 21
-280.0
 31
0.0
  0
LINE
  5
4A1
  8
DATA
  6
CONTINUOUS
 62
     7
 10
-304.0
 20
-298.0
 30
0.0
 11
-310.0
 21
-298.0
 31
0.0
  0
LINE
  5
4A2
  8
DATA
  6
CONTINUOUS
 62
     7
 10
-303.5
 20
-280.0
 30
0.0
 11
-310.5
 21
-280.0
 31
0.0
  0
LINE
  5
4A3
  8
DATA
  6
CONTINUOUS
 62
     7
 10
-304.0
 20
-298.0
 30
0.0
 11
-303.5
 21
-280.0
 31
0.0
  0
LINE
  5
4A4
  8
DATA
  6
CONTINUOUS
 62
     7
 10
-266.0
 20
-298.0
 30
0.0
 11
-266.5
 21
-280.0
 31
0.0
  0
LINE
  5
4A5
  8
DATA
  6
CONTINUOUS
 62
     7
 10
-260.0
 20
-298.0
 30
0.0
 11
-266.0
 21
-298.0
 31
0.0
  0
LINE
  5
4A6
  8
DATA
  6
CONTINUOUS
 62
     7
 10
-259.5
 20
-280.0
 30
0.0
 11
-266.5
 21
-280.0
 31
0.0
  0
LINE
  5
4A7
  8
DATA
  6
CONTINUOUS
 62
     7
 10
-260.0
 20
-298.0
 30
0.0
 11
-259.5
 21
-280.0
 31
0.0
  0
LINE
  5
4A8
  8
DATA
  6
CONTINUOUS
 62
     7
 10
-222.0
 20
-298.0
 30
0.0
 11
-222.5
 21
-280.0
 31
0.0
  0
LINE
  5
4A9
  8
DATA
  6
CONTINUOUS
 62
     7
 10
-216.0
 20
-298.0
 30
0.0
 11
-222.0
 21
-298.0
 31
0.0
  0
LINE
  5
4AA
  8
DATA
  6
CONTINUOUS
 62
     7
 10
-215.5
 20
-280.0
 30
0.0
 11
-222.5
 21
-280.0
 31
0.0
  0
LINE
  5
4AB
  8
DATA
  6
CONTINUOUS
 62
     7
 10
-216.0
 20
-298.0
 30
0.0
 11
-215.5
 21
-280.0
 31
0.0
  0
LINE
  5
4AC
  8
DATA
  6
CONTINUOUS
 62
     7
 10
-178.0
 20
-298.0
 30
0.0
 11
-178.5
 21
-280.0
 31
0.0
  0
LINE
  5
4AD
  8
DATA
  6
CONTINUOUS
 62
     7
 10
-172.0
 20
-298.0
 30
0.0
 11
-178.0
 21
-298.0
 31
0.0
  0
LINE
  5
4AE
  8
DATA
  6
CONTINUOUS
 62
     7
 10
-171.5
 20
-280.0
 30
0.0
 11
-178.5
 21
-280.0
 31
0.0
  0
LINE
  5
4AF
  8
DATA
  6
CONTINUOUS
 62
     7
 10
-172.0
 20
-298.0
 30
0.0
 11
-171.5
 21
-280.0
 31
0.0
  0
LINE
  5
4B0
  8
DATA
  6
CONTINUOUS
 62
     7
 10
-134.0
 20
-298.0
 30
0.0
 11
-134.5
 21
-280.0
 31
0.0
  0
LINE
  5
4B1
  8
DATA
  6
CONTINUOUS
 62
     7
 10
-128.0
 20
-298.0
 30
0.0
 11
-134.0
 21
-298.0
 31
0.0
  0
LINE
  5
4B2
  8
DATA
  6
CONTINUOUS
 62
     7
 10
-127.5
 20
-280.0
 30
0.0
 11
-134.5
 21
-280.0
 31
0.0
  0
LINE
  5
4B3
  8
DATA
  6
CONTINUOUS
 62
     7
 10
-128.0
 20
-298.0
 30
0.0
 11
-127.5
 21
-280.0
 31
0.0
  0
LINE
  5
4B4
  8
DATA
  6
CONTINUOUS
 62
     7
 10
-90.0
 20
-298.0
 30
0.0
 11
-90.5
 21
-280.0
 31
0.0
  0
LINE
  5
4B5
  8
DATA
  6
CONTINUOUS
 62
     7
 10
-84.0
 20
-298.0
 30
0.0
 11
-90.0
 21
-298.0
 31
0.0
  0
LINE
  5
4B6
  8
DATA
  6
CONTINUOUS
 62
     7
 10
-83.499999999999986
 20
-280.0
 30
0.0
 11
-90.5
 21
-280.0
 31
0.0
  0
LINE
  5
4B7
  8
DATA
  6
CONTINUOUS
 62
     7
 10
-84.0
 20
-298.0
 30
0.0
 11
-83.499999999999986
 21
-280.0
 31
0.0
  0
LINE
  5
4B8
  8
DATA
  6
CONTINUOUS
 62
     7
 10
-33.0
 20
-298.0
 30
0.0
 11
-33.5
 21
-280.0
 31
0.0
  0
LINE
  5
4B9
  8
DATA
  6
CONTINUOUS
 62
     7
 10
-27.0
 20
-298.0
 30
0.0
 11
-33.0
 21
-298.0
 31
0.0
  0
LINE
  5
4BA
  8
DATA
  6
CONTINUOUS
 62
     7
 10
-26.5
 20
-280.0
 30
0.0
 11
-33.5
 21
-280.0
 31
0.0
  0
LINE
  5
4BB
  8
DATA
  6
CONTINUOUS
 62
     7
 10
-27.0
 20
-298.0
 30
0.0
 11
-26.5
 21
-280.0
 31
0.0
  0
LINE
  5
4BC
  8
DATA
  6
CONTINUOUS
 62
     7
 10
38.0
 20
-298.0
 30
0.0
 11
37.5
 21
-280.0
 31
0.0
  0
LINE
  5
4BD
  8
DATA
  6
CONTINUOUS
 62
     7
 10
44.0
 20
-298.0
 30
0.0
 11
38.0
 21
-298.0
 31
0.0
  0
LINE
  5
4BE
  8
DATA
  6
CONTINUOUS
 62
     7
 10
44.5
 20
-280.0
 30
0.0
 11
37.5
 21
-280.0
 31
0.0
  0
LINE
  5
4BF
  8
DATA
  6
CONTINUOUS
 62
     7
 10
44.0
 20
-298.0
 30
0.0
 11
44.5
 21
-280.0
 31
0.0
  0
LINE
  5
4C0
  8
DATA
  6
CONTINUOUS
 62
     7
 10
64.0
 20
-298.0
 30
0.0
 11
63.5
 21
-280.0
 31
0.0
  0
LINE
  5
4C1
  8
DATA
  6
CONTINUOUS
 62
     7
 10
70.0
 20
-298.0
 30
0.0
 11
64.0
 21
-298.0
 31
0.0
  0
LINE
  5
4C2
  8
DATA
  6
CONTINUOUS
 62
     7
 10
70.5
 20
-280.0
 30
0.0
 11
63.5
 21
-280.0
 31
0.0
  0
LINE
  5
4C3
  8
DATA
  6
CONTINUOUS
 62
     7
 10
70.0
 20
-298.0
 30
0.0
 11
70.5
 21
-280.0
 31
0.0
  0
LINE
  5
4C4
  8
DATA
  6
CONTINUOUS
 62
     7
 10
93.499999999999986
 20
-280.0
 30
0.0
 11
78.5
 21
-280.0
 31
0.0
  0
LINE
  5
4C5
  8
DATA
  6
CONTINUOUS
 62
     7
 10
92.5
 20
-282.0
 30
0.0
 11
79.5
 21
-282.0
 31
0.0
  0
LINE
  5
4C6
  8
DATA
  6
CONTINUOUS
 62
     7
 10
93.499999999999986
 20
-281.0
 30
0.0
 11
78.5
 21
-281.0
 31
0.0
  0
LINE
  5
4C7
  8
DATA
  6
CONTINUOUS
 62
     7
 10
88.75
 20
-282.0
 30
0.0
 11
88.75
 21
-283.83455318477007
 31
0.0
  0
LINE
  5
4C8
  8
DATA
  6
CONTINUOUS
 62
     7
 10
79.5
 20
-282.0
 30
0.0
 11
78.5
 21
-281.0
 31
0.0
  0
LINE
  5
4C9
  8
DATA
  6
CONTINUOUS
 62
     7
 10
78.5
 20
-281.0
 30
0.0
 11
78.5
 21
-280.0
 31
0.0
  0
LINE
  5
4CA
  8
DATA
  6
CONTINUOUS
 62
     7
 10
92.5
 20
-282.0
 30
0.0
 11
93.499999999999986
 21
-281.0
 31
0.0
  0
LINE
  5
4CB
  8
DATA
  6
CONTINUOUS
 62
     7
 10
93.499999999999986
 20
-281.0
 30
0.0
 11
93.499999999999986
 21
-280.0
 31
0.0
  0
LINE
  5
4CC
  8
DATA
  6
CONTINUOUS
 62
     7
 10
80.5
 20
-283.33083865042482
 30
0.0
 11
80.5
 21
-282.0
 31
0.0
  0
LINE
  5
4CD
  8
DATA
  6
CONTINUOUS
 62
     7
 10
91.5
 20
-283.33083865042482
 30
0.0
 11
91.5
 21
-282.0
 31
0.0
  0
ARC
  5
4CE
  8
DATA
  6
CONTINUOUS
 62
     7
 10
86.0
 20
-261.06250000000131
 30
0.0
 40
22.9374999999986
 50
256.1263248469657
 51
283.87367515303538
  0
LINE
  5
4CF
  8
DATA
  6
CONTINUOUS
 62
     7
 10
83.250000000000014
 20
-282.0
 30
0.0
 11
88.75
 21
-282.0
 31
0.0
  0
LINE
  5
4D0
  8
DATA
  6
CONTINUOUS
 62
     7
 10
83.308384572681462
 20
-282.03370834875398
 30
0.0
 11
83.308384572681462
 21
-283.8415279125652
 31
0.0
  0
CIRCLE
  5
4D1
  8
DATA
  6
CONTINUOUS
 62
     7
 10
-119.0
 20
-270.0
 30
0.0
 40
3.0
  0
LINE
  5
4D2
  8
DATA
  6
CONTINUOUS
 62
     7
 10
-120.5
 20
-270.0
 30
0.0
 11
-117.5
 21
-270.0
 31
0.0
  0
LINE
  5
4D3
  8
DATA
  6
CONTINUOUS
 62
     7
 10
-119.0
 20
-271.5
 30
0.0
 11
-119.0
 21
-268.5
 31
0.0
  0
CIRCLE
  5
4D4
  8
DATA
  6
CONTINUOUS
 62
     7
 10
61.0
 20
-270.0
 30
0.0
 40
3.0
  0
LINE
  5
4D5
  8
DATA
  6
CONTINUOUS
 62
     7
 10
59.5
 20
-270.0
 30
0.0
 11
62.5
 21
-270.0
 31
0.0
  0
LINE
  5
4D6
  8
DATA
  6
CONTINUOUS
 62
     7
 10
61.0
 20
-271.5
 30
0.0
 11
61.0
 21
-268.5
 31
0.0
  0
CIRCLE
  5
4D7
  8
DATA
  6
CONTINUOUS
 62
     7
 10
-299.0
 20
-270.0
 30
0.0
 40
3.0
  0
LINE
  5
4D8
  8
DATA
  6
CONTINUOUS
 62
     7
 10
-300.5
 20
-270.0
 30
0.0
 11
-297.5
 21
-270.0
 31
0.0
  0
LINE
  5
4D9
  8
DATA
  6
CONTINUOUS
 62
     7
 10
-299.0
 20
-271.5
 30
0.0
 11
-299.0
 21
-268.5
 31
0.0
  0
LINE
  5
4DA
  8
DATA
  6
CONTINUOUS
 62
     7
 10
25.5
 20
-60.0
 30
0.0
 11
31.5
 21
-60.0
 31
0.0
  0
LINE
  5
4DB
  8
DATA
  6
CONTINUOUS
 62
     7
 10
29.5
 20
-58.0
 30
0.0
 11
27.5
 21
-58.0
 31
0.0
  0
ARC
  5
4DC
  8
DATA
  6
CONTINUOUS
 62
     7
 10
29.5
 20
-60.0
 30
0.0
 40
2.0
 50
0.0
 51
90.0
  0
ARC
  5
4DD
  8
DATA
  6
CONTINUOUS
 62
     7
 10
27.5
 20
-60.0
 30
0.0
 40
2.0
 50
90.0
 51
180.0
  0
LINE
  5
4DE
  8
DATA
  6
CONTINUOUS
 62
     7
 10
87.249999999934985
 20
-60.0
 30
0.0
 11
87.249999999934985
 21
-57.0
 31
0.0
  0
LINE
  5
4DF
  8
DATA
  6
CONTINUOUS
 62
     7
 10
82.450000000415017
 20
-60.0
 30
0.0
 11
82.450000000415017
 21
-57.0
 31
0.0
  0
LINE
  5
4E0
  8
DATA
  6
CONTINUOUS
 62
     7
 10
89.849999999674765
 20
-56.5
 30
0.0
 11
79.850000000675223
 21
-56.5
 31
0.0
  0
LINE
  5
4E1
  8
DATA
  6
CONTINUOUS
 62
     7
 10
89.849999999674765
 20
-57.0
 30
0.0
 11
79.850000000675223
 21
-57.0
 31
0.0
  0
LINE
  5
4E2
  8
DATA
  6
CONTINUOUS
 62
     7
 10
89.849999999674765
 20
-57.0
 30
0.0
 11
89.849999999674765
 21
-56.5
 31
0.0
  0
LINE
  5
4E3
  8
DATA
  6
CONTINUOUS
 62
     7
 10
79.850000000675223
 20
-57.0
 30
0.0
 11
79.850000000675223
 21
-56.5
 31
0.0
  0
LINE
  5
4E4
  8
DATA
  6
CONTINUOUS
 62
     7
 10
87.249999999934985
 20
-60.0
 30
0.0
 11
82.450000000415017
 21
-60.0
 31
0.0
  0
LINE
  5
4E5
  8
DATA
  6
CONTINUOUS
 62
     7
 10
42.249999999934971
 20
-60.0
 30
0.0
 11
42.249999999934971
 21
-57.0
 31
0.0
  0
LINE
  5
4E6
  8
DATA
  6
CONTINUOUS
 62
     7
 10
37.450000000415002
 20
-60.0
 30
0.0
 11
37.450000000415002
 21
-57.0
 31
0.0
  0
LINE
  5
4E7
  8
DATA
  6
CONTINUOUS
 62
     7
 10
44.849999999674772
 20
-56.5
 30
0.0
 11
34.850000000675209
 21
-56.5
 31
0.0
  0
LINE
  5
4E8
  8
DATA
  6
CONTINUOUS
 62
     7
 10
44.849999999674772
 20
-57.0
 30
0.0
 11
34.850000000675209
 21
-57.0
 31
0.0
  0
LINE
  5
4E9
  8
DATA
  6
CONTINUOUS
 62
     7
 10
44.849999999674772
 20
-57.0
 30
0.0
 11
44.849999999674772
 21
-56.5
 31
0.0
  0
LINE
  5
4EA
  8
DATA
  6
CONTINUOUS
 62
     7
 10
34.850000000675209
 20
-57.0
 30
0.0
 11
34.850000000675209
 21
-56.5
 31
0.0
  0
LINE
  5
4EB
  8
DATA
  6
CONTINUOUS
 62
     7
 10
42.249999999934971
 20
-60.0
 30
0.0
 11
37.450000000415002
 21
-60.0
 31
0.0
  0
LINE
  5
4EC
  8
DATA
  6
CONTINUOUS
 62
     7
 10
65.850000000174987
 20
-60.0
 30
0.0
 11
71.850000000174987
 21
-60.0
 31
0.0
  0
LINE
  5
4ED
  8
DATA
  6
CONTINUOUS
 62
     7
 10
65.850000000174987
 20
-52.5
 30
0.0
 11
65.850000000174987
 21
-60.0
 31
0.0
  0
LINE
  5
4EE
  8
DATA
  6
CONTINUOUS
 62
     7
 10
70.850000000174987
 20
-51.5
 30
0.0
 11
69.350000000174987
 21
-51.5
 31
0.0
  0
LINE
  5
4EF
  8
DATA
  6
CONTINUOUS
 62
     7
 10
68.350000000174987
 20
-51.5
 30
0.0
 11
66.850000000174987
 21
-51.5
 31
0.0
  0
LINE
  5
4F0
  8
DATA
  6
CONTINUOUS
 62
     7
 10
66.850000000174987
 20
-51.5
 30
0.0
 11
65.850000000174987
 21
-52.5
 31
0.0
  0
LINE
  5
4F1
  8
DATA
  6
CONTINUOUS
 62
     7
 10
71.850000000174987
 20
-60.0
 30
0.0
 11
71.850000000174987
 21
-52.5
 31
0.0
  0
LINE
  5
4F2
  8
DATA
  6
CONTINUOUS
 62
     7
 10
71.850000000174987
 20
-52.5
 30
0.0
 11
70.850000000174987
 21
-51.5
 31
0.0
  0
LINE
  5
4F3
  8
DATA
  6
CONTINUOUS
 62
     7
 10
68.350000000174987
 20
-60.0
 30
0.0
 11
69.350000000174987
 21
-60.0
 31
0.0
  0
LINE
  5
4F4
  8
DATA
  6
CONTINUOUS
 62
     7
 10
69.350000000174987
 20
-51.5
 30
0.0
 11
68.350000000174987
 21
-51.5
 31
0.0
  0
LINE
  5
4F5
  8
DATA
  6
CONTINUOUS
 62
     7
 10
52.85000000017498
 20
-60.0
 30
0.0
 11
58.85000000017498
 21
-60.0
 31
0.0
  0
LINE
  5
4F6
  8
DATA
  6
CONTINUOUS
 62
     7
 10
52.85000000017498
 20
-52.5
 30
0.0
 11
52.85000000017498
 21
-60.0
 31
0.0
  0
LINE
  5
4F7
  8
DATA
  6
CONTINUOUS
 62
     7
 10
57.85000000017498
 20
-51.5
 30
0.0
 11
56.35000000017498
 21
-51.5
 31
0.0
  0
LINE
  5
4F8
  8
DATA
  6
CONTINUOUS
 62
     7
 10
55.35000000017498
 20
-51.5
 30
0.0
 11
53.85000000017498
 21
-51.5
 31
0.0
  0
LINE
  5
4F9
  8
DATA
  6
CONTINUOUS
 62
     7
 10
53.85000000017498
 20
-51.5
 30
0.0
 11
52.85000000017498
 21
-52.5
 31
0.0
  0
LINE
  5
4FA
  8
DATA
  6
CONTINUOUS
 62
     7
 10
58.85000000017498
 20
-60.0
 30
0.0
 11
58.85000000017498
 21
-52.5
 31
0.0
  0
LINE
  5
4FB
  8
DATA
  6
CONTINUOUS
 62
     7
 10
58.85000000017498
 20
-52.5
 30
0.0
 11
57.85000000017498
 21
-51.5
 31
0.0
  0
LINE
  5
4FC
  8
DATA
  6
CONTINUOUS
 62
     7
 10
55.35000000017498
 20
-60.0
 30
0.0
 11
56.35000000017498
 21
-60.0
 31
0.0
  0
LINE
  5
4FD
  8
DATA
  6
CONTINUOUS
 62
     7
 10
56.35000000017498
 20
-51.5
 30
0.0
 11
55.35000000017498
 21
-51.5
 31
0.0
  0
LINE
  5
4FE
  8
DATA
  6
CONTINUOUS
 62
     7
 10
18.249999999934971
 20
-60.0
 30
0.0
 11
18.249999999934971
 21
-57.0
 31
0.0
  0
LINE
  5
4FF
  8
DATA
  6
CONTINUOUS
 62
     7
 10
13.450000000415001
 20
-60.0
 30
0.0
 11
13.450000000415001
 21
-57.0
 31
0.0
  0
LINE
  5
500
  8
DATA
  6
CONTINUOUS
 62
     7
 10
20.849999999674768
 20
-56.5
 30
0.0
 11
10.8500000006752
 21
-56.5
 31
0.0
  0
LINE
  5
501
  8
DATA
  6
CONTINUOUS
 62
     7
 10
20.849999999674768
 20
-57.0
 30
0.0
 11
10.8500000006752
 21
-57.0
 31
0.0
  0
LINE
  5
502
  8
DATA
  6
CONTINUOUS
 62
     7
 10
20.849999999674768
 20
-57.0
 30
0.0
 11
20.849999999674768
 21
-56.5
 31
0.0
  0
LINE
  5
503
  8
DATA
  6
CONTINUOUS
 62
     7
 10
10.8500000006752
 20
-57.0
 30
0.0
 11
10.8500000006752
 21
-56.5
 31
0.0
  0
LINE
  5
504
  8
DATA
  6
CONTINUOUS
 62
     7
 10
18.249999999934971
 20
-60.0
 30
0.0
 11
13.450000000415001
 21
-60.0
 31
0.0
  0
LINE
  5
505
  8
DATA
  6
CONTINUOUS
 62
     7
 10
-26.750000000065029
 20
-60.0
 30
0.0
 11
-26.750000000065029
 21
-57.0
 31
0.0
  0
LINE
  5
506
  8
DATA
  6
CONTINUOUS
 62
     7
 10
-31.549999999585001
 20
-60.0
 30
0.0
 11
-31.549999999585001
 21
-57.0
 31
0.0
  0
LINE
  5
507
  8
DATA
  6
CONTINUOUS
 62
     7
 10
-24.150000000325239
 20
-56.5
 30
0.0
 11
-34.149999999324791
 21
-56.5
 31
0.0
  0
LINE
  5
508
  8
DATA
  6
CONTINUOUS
 62
     7
 10
-24.150000000325239
 20
-57.0
 30
0.0
 11
-34.149999999324791
 21
-57.0
 31
0.0
  0
LINE
  5
509
  8
DATA
  6
CONTINUOUS
 62
     7
 10
-24.150000000325239
 20
-57.0
 30
0.0
 11
-24.150000000325239
 21
-56.5
 31
0.0
  0
LINE
  5
50A
  8
DATA
  6
CONTINUOUS
 62
     7
 10
-34.149999999324791
 20
-57.0
 30
0.0
 11
-34.149999999324791
 21
-56.5
 31
0.0
  0
LINE
  5
50B
  8
DATA
  6
CONTINUOUS
 62
     7
 10
-26.750000000065029
 20
-60.0
 30
0.0
 11
-31.549999999585001
 21
-60.0
 31
0.0
  0
LINE
  5
50C
  8
DATA
  6
CONTINUOUS
 62
     7
 10
-3.1499999998250119
 20
-60.0
 30
0.0
 11
2.8500000001749859
 21
-60.0
 31
0.0
  0
LINE
  5
50D
  8
DATA
  6
CONTINUOUS
 62
     7
 10
-3.1499999998250119
 20
-52.5
 30
0.0
 11
-3.1499999998250119
 21
-60.0
 31
0.0
  0
LINE
  5
50E
  8
DATA
  6
CONTINUOUS
 62
     7
 10
1.8500000001749859
 20
-51.5
 30
0.0
 11
0.3500000001749868
 21
-51.5
 31
0.0
  0
LINE
  5
50F
  8
DATA
  6
CONTINUOUS
 62
     7
 10
-0.6499999998250133
 20
-51.5
 30
0.0
 11
-2.1499999998250119
 21
-51.5
 31
0.0
  0
LINE
  5
510
  8
DATA
  6
CONTINUOUS
 62
     7
 10
-2.1499999998250119
 20
-51.5
 30
0.0
 11
-3.1499999998250119
 21
-52.5
 31
0.0
  0
LINE
  5
511
  8
DATA
  6
CONTINUOUS
 62
     7
 10
2.8500000001749859
 20
-60.0
 30
0.0
 11
2.8500000001749859
 21
-52.5
 31
0.0
  0
LINE
  5
512
  8
DATA
  6
CONTINUOUS
 62
     7
 10
2.8500000001749859
 20
-52.5
 30
0.0
 11
1.8500000001749859
 21
-51.5
 31
0.0
  0
LINE
  5
513
  8
DATA
  6
CONTINUOUS
 62
     7
 10
-0.6499999998250133
 20
-60.0
 30
0.0
 11
0.3500000001749868
 21
-60.0
 31
0.0
  0
LINE
  5
514
  8
DATA
  6
CONTINUOUS
 62
     7
 10
0.3500000001749868
 20
-51.5
 30
0.0
 11
-0.6499999998250133
 21
-51.5
 31
0.0
  0
LINE
  5
515
  8
DATA
  6
CONTINUOUS
 62
     7
 10
-16.14999999982501
 20
-60.0
 30
0.0
 11
-10.14999999982501
 21
-60.0
 31
0.0
  0
LINE
  5
516
  8
DATA
  6
CONTINUOUS
 62
     7
 10
-16.14999999982501
 20
-52.5
 30
0.0
 11
-16.14999999982501
 21
-60.0
 31
0.0
  0
LINE
  5
517
  8
DATA
  6
CONTINUOUS
 62
     7
 10
-11.14999999982501
 20
-51.5
 30
0.0
 11
-12.64999999982501
 21
-51.5
 31
0.0
  0
LINE
  5
518
  8
DATA
  6
CONTINUOUS
 62
     7
 10
-13.64999999982501
 20
-51.5
 30
0.0
 11
-15.14999999982501
 21
-51.5
 31
0.0
  0
LINE
  5
519
  8
DATA
  6
CONTINUOUS
 62
     7
 10
-15.14999999982501
 20
-51.5
 30
0.0
 11
-16.14999999982501
 21
-52.5
 31
0.0
  0
LINE
  5
51A
  8
DATA
  6
CONTINUOUS
 62
     7
 10
-10.14999999982501
 20
-60.0
 30
0.0
 11
-10.14999999982501
 21
-52.5
 31
0.0
  0
LINE
  5
51B
  8
DATA
  6
CONTINUOUS
 62
     7
 10
-10.14999999982501
 20
-52.5
 30
0.0
 11
-11.14999999982501
 21
-51.5
 31
0.0
  0
LINE
  5
51C
  8
DATA
  6
CONTINUOUS
 62
     7
 10
-13.64999999982501
 20
-60.0
 30
0.0
 11
-12.64999999982501
 21
-60.0
 31
0.0
  0
LINE
  5
51D
  8
DATA
  6
CONTINUOUS
 62
     7
 10
-12.64999999982501
 20
-51.5
 30
0.0
 11
-13.64999999982501
 21
-51.5
 31
0.0
  0
LINE
  5
51E
  8
DATA
  6
CONTINUOUS
 62
     7
 10
-50.750000000065029
 20
-60.0
 30
0.0
 11
-50.750000000065029
 21
-57.0
 31
0.0
  0
LINE
  5
51F
  8
DATA
  6
CONTINUOUS
 62
     7
 10
-55.549999999584998
 20
-60.0
 30
0.0
 11
-55.549999999584998
 21
-57.0
 31
0.0
  0
LINE
  5
520
  8
DATA
  6
CONTINUOUS
 62
     7
 10
-48.150000000325242
 20
-56.5
 30
0.0
 11
-58.149999999324791
 21
-56.5
 31
0.0
  0
LINE
  5
521
  8
DATA
  6
CONTINUOUS
 62
     7
 10
-48.150000000325242
 20
-57.0
 30
0.0
 11
-58.149999999324791
 21
-57.0
 31
0.0
  0
LINE
  5
522
  8
DATA
  6
CONTINUOUS
 62
     7
 10
-48.150000000325242
 20
-57.0
 30
0.0
 11
-48.150000000325242
 21
-56.5
 31
0.0
  0
LINE
  5
523
  8
DATA
  6
CONTINUOUS
 62
     7
 10
-58.149999999324791
 20
-57.0
 30
0.0
 11
-58.149999999324791
 21
-56.5
 31
0.0
  0
LINE
  5
524
  8
DATA
  6
CONTINUOUS
 62
     7
 10
-50.750000000065029
 20
-60.0
 30
0.0
 11
-55.549999999584998
 21
-60.0
 31
0.0
  0
LINE
  5
525
  8
DATA
  6
CONTINUOUS
 62
     7
 10
-95.750000000065043
 20
-60.0
 30
0.0
 11
-95.750000000065043
 21
-57.0
 31
0.0
  0
LINE
  5
526
  8
DATA
  6
CONTINUOUS
 62
     7
 10
-100.549999999585
 20
-60.0
 30
0.0
 11
-100.549999999585
 21
-57.0
 31
0.0
  0
LINE
  5
527
  8
DATA
  6
CONTINUOUS
 62
     7
 10
-93.150000000325235
 20
-56.5
 30
0.0
 11
-103.14999999932481
 21
-56.5
 31
0.0
  0
LINE
  5
528
  8
DATA
  6
CONTINUOUS
 62
     7
 10
-93.150000000325235
 20
-57.0
 30
0.0
 11
-103.14999999932481
 21
-57.0
 31
0.0
  0
LINE
  5
529
  8
DATA
  6
CONTINUOUS
 62
     7
 10
-93.150000000325235
 20
-57.0
 30
0.0
 11
-93.150000000325235
 21
-56.5
 31
0.0
  0
LINE
  5
52A
  8
DATA
  6
CONTINUOUS
 62
     7
 10
-103.14999999932481
 20
-57.0
 30
0.0
 11
-103.14999999932481
 21
-56.5
 31
0.0
  0
LINE
  5
52B
  8
DATA
  6
CONTINUOUS
 62
     7
 10
-95.750000000065043
 20
-60.0
 30
0.0
 11
-100.549999999585
 21
-60.0
 31
0.0
  0
LINE
  5
52C
  8
DATA
  6
CONTINUOUS
 62
     7
 10
-72.149999999825013
 20
-60.0
 30
0.0
 11
-66.149999999825013
 21
-60.0
 31
0.0
  0
LINE
  5
52D
  8
DATA
  6
CONTINUOUS
 62
     7
 10
-72.149999999825013
 20
-52.5
 30
0.0
 11
-72.149999999825013
 21
-60.0
 31
0.0
  0
LINE
  5
52E
  8
DATA
  6
CONTINUOUS
 62
     7
 10
-67.149999999825013
 20
-51.5
 30
0.0
 11
-68.649999999825013
 21
-51.5
 31
0.0
  0
LINE
  5
52F
  8
DATA
  6
CONTINUOUS
 62
     7
 10
-69.649999999825013
 20
-51.5
 30
0.0
 11
-71.149999999825013
 21
-51.5
 31
0.0
  0
LINE
  5
530
  8
DATA
  6
CONTINUOUS
 62
     7
 10
-71.149999999825013
 20
-51.5
 30
0.0
 11
-72.149999999825013
 21
-52.5
 31
0.0
  0
LINE
  5
531
  8
DATA
  6
CONTINUOUS
 62
     7
 10
-66.149999999825013
 20
-60.0
 30
0.0
 11
-66.149999999825013
 21
-52.5
 31
0.0
  0
LINE
  5
532
  8
DATA
  6
CONTINUOUS
 62
     7
 10
-66.149999999825013
 20
-52.5
 30
0.0
 11
-67.149999999825013
 21
-51.5
 31
0.0
  0
LINE
  5
533
  8
DATA
  6
CONTINUOUS
 62
     7
 10
-69.649999999825013
 20
-60.0
 30
0.0
 11
-68.649999999825013
 21
-60.0
 31
0.0
  0
LINE
  5
534
  8
DATA
  6
CONTINUOUS
 62
     7
 10
-68.649999999825013
 20
-51.5
 30
0.0
 11
-69.649999999825013
 21
-51.5
 31
0.0
  0
LINE
  5
535
  8
DATA
  6
CONTINUOUS
 62
     7
 10
-85.149999999825013
 20
-60.0
 30
0.0
 11
-79.149999999825013
 21
-60.0
 31
0.0
  0
LINE
  5
536
  8
DATA
  6
CONTINUOUS
 62
     7
 10
-85.149999999825013
 20
-52.5
 30
0.0
 11
-85.149999999825013
 21
-60.0
 31
0.0
  0
LINE
  5
537
  8
DATA
  6
CONTINUOUS
 62
     7
 10
-80.149999999825013
 20
-51.5
 30
0.0
 11
-81.649999999825013
 21
-51.5
 31
0.0
  0
LINE
  5
538
  8
DATA
  6
CONTINUOUS
 62
     7
 10
-82.649999999825013
 20
-51.5
 30
0.0
 11
-84.149999999825013
 21
-51.5
 31
0.0
  0
LINE
  5
539
  8
DATA
  6
CONTINUOUS
 62
     7
 10
-84.149999999825013
 20
-51.5
 30
0.0
 11
-85.149999999825013
 21
-52.5
 31
0.0
  0
LINE
  5
53A
  8
DATA
  6
CONTINUOUS
 62
     7
 10
-79.149999999825013
 20
-60.0
 30
0.0
 11
-79.149999999825013
 21
-52.5
 31
0.0
  0
LINE
  5
53B
  8
DATA
  6
CONTINUOUS
 62
     7
 10
-79.149999999825013
 20
-52.5
 30
0.0
 11
-80.149999999825013
 21
-51.5
 31
0.0
  0
LINE
  5
53C
  8
DATA
  6
CONTINUOUS
 62
     7
 10
-82.649999999825013
 20
-60.0
 30
0.0
 11
-81.649999999825013
 21
-60.0
 31
0.0
  0
LINE
  5
53D
  8
DATA
  6
CONTINUOUS
 62
     7
 10
-81.649999999825013
 20
-51.5
 30
0.0
 11
-82.649999999825013
 21
-51.5
 31
0.0
  0
LINE
  5
53E
  8
DATA
  6
CONTINUOUS
 62
     7
 10
-173.14999999982501
 20
-55.5
 30
0.0
 11
-173.14999999982501
 21
-60.0
 31
0.0
  0
LINE
  5
53F
  8
DATA
  6
CONTINUOUS
 62
     7
 10
-165.64999999982501
 20
-55.0
 30
0.0
 11
-172.64999999982501
 21
-55.0
 31
0.0
  0
LINE
  5
540
  8
DATA
  6
CONTINUOUS
 62
     7
 10
-165.14999999982501
 20
-60.0
 30
0.0
 11
-165.14999999982501
 21
-55.5
 31
0.0
  0
ARC
  5
541
  8
DATA
  6
CONTINUOUS
 62
     7
 10
-165.64999999982501
 20
-55.5
 30
0.0
 40
0.5
 50
0.0
 51
90.0
  0
ARC
  5
542
  8
DATA
  6
CONTINUOUS
 62
     7
 10
-172.64999999982501
 20
-55.5
 30
0.0
 40
0.5
 50
90.0
 51
180.0
  0
LINE
  5
543
  8
DATA
  6
CONTINUOUS
 62
     7
 10
-173.14999999982501
 20
-60.0
 30
0.0
 11
-165.14999999982501
 21
-60.0
 31
0.0
  0
LINE
  5
544
  8
DATA
  6
CONTINUOUS
 62
     7
 10
-218.05000499982501
 20
-60.0
 30
0.0
 11
-243.05000499982501
 21
-60.0
 31
0.0
  0
LINE
  5
545
  8
DATA
  6
CONTINUOUS
 62
     7
 10
-223.02562960968771
 20
-55.0
 30
0.0
 11
-238.0743803899623
 21
-55.0
 31
0.0
  0
LINE
  5
546
  8
DATA
  6
CONTINUOUS
 62
     7
 10
-222.30000499982501
 20
-60.0
 30
0.0
 11
-222.52625344024869
 21
-55.47503119152816
 31
0.0
  0
LINE
  5
547
  8
DATA
  6
CONTINUOUS
 62
     7
 10
-238.80000499982501
 20
-60.0
 30
0.0
 11
-238.57375655940129
 21
-55.47503119152816
 31
0.0
  0
ARC
  5
548
  8
DATA
  6
CONTINUOUS
 62
     7
 10
-223.02562960968771
 20
-55.5
 30
0.0
 40
0.5000000000001464
 50
2.862405226098736
 51
90.0
  0
ARC
  5
549
  8
DATA
  6
CONTINUOUS
 62
     7
 10
-238.0743803899627
 20
-55.5
 30
0.0
 40
0.5
 50
89.999999999947889
 51
177.13759477389871
  0
LINE
  5
54A
  8
DATA
  6
CONTINUOUS
 62
     7
 10
-240.80000499982501
 20
-60.0
 30
0.0
 11
-240.80000499982501
 21
-55.0
 31
0.0
  0
LINE
  5
54B
  8
DATA
  6
CONTINUOUS
 62
     7
 10
-245.80000499982501
 20
-60.0
 30
0.0
 11
-240.80000499982501
 21
-60.0
 31
0.0
  0
LINE
  5
54C
  8
DATA
  6
CONTINUOUS
 62
     7
 10
-245.80000499982501
 20
-55.0
 30
0.0
 11
-245.80000499982501
 21
-60.0
 31
0.0
  0
LINE
  5
54D
  8
DATA
  6
CONTINUOUS
 62
     7
 10
-240.80000499982501
 20
-55.0
 30
0.0
 11
-245.80000499982501
 21
-55.0
 31
0.0
  0
LINE
  5
54E
  8
DATA
  6
CONTINUOUS
 62
     7
 10
-243.30000499982501
 20
-55.0
 30
0.0
 11
-243.30000499982501
 21
-60.0
 31
0.0
  0
LINE
  5
54F
  8
DATA
  6
CONTINUOUS
 62
     7
 10
-215.55000499982501
 20
-60.0
 30
0.0
 11
-215.55000499982501
 21
-55.0
 31
0.0
  0
LINE
  5
550
  8
DATA
  6
CONTINUOUS
 62
     7
 10
-220.55000499982501
 20
-60.0
 30
0.0
 11
-215.55000499982501
 21
-60.0
 31
0.0
  0
LINE
  5
551
  8
DATA
  6
CONTINUOUS
 62
     7
 10
-220.55000499982501
 20
-55.0
 30
0.0
 11
-220.55000499982501
 21
-60.0
 31
0.0
  0
LINE
  5
552
  8
DATA
  6
CONTINUOUS
 62
     7
 10
-215.55000499982501
 20
-55.0
 30
0.0
 11
-220.55000499982501
 21
-55.0
 31
0.0
  0
LINE
  5
553
  8
DATA
  6
CONTINUOUS
 62
     7
 10
-218.05000499982501
 20
-55.0
 30
0.0
 11
-218.05000499982501
 21
-60.0
 31
0.0
  0
LINE
  5
554
  8
DATA
  6
CONTINUOUS
 62
     7
 10
-269.5
 20
-60.0
 30
0.0
 11
-263.5
 21
-60.0
 31
0.0
  0
LINE
  5
555
  8
DATA
  6
CONTINUOUS
 62
     7
 10
-265.5
 20
-58.0
 30
0.0
 11
-267.5
 21
-58.0
 31
0.0
  0
ARC
  5
556
  8
DATA
  6
CONTINUOUS
 62
     7
 10
-265.5
 20
-60.0
 30
0.0
 40
2.0
 50
0.0
 51
90.0
  0
ARC
  5
557
  8
DATA
  6
CONTINUOUS
 62
     7
 10
-267.5
 20
-60.0
 30
0.0
 40
2.0
 50
90.0
 51
180.0
  0
LINE
  5
558
  8
DATA
  6
CONTINUOUS
 62
     7
 10
-281.0
 20
-60.0
 30
0.0
 11
-281.0
 21
-59.0
 31
0.0
  0
LINE
  5
559
  8
DATA
  6
CONTINUOUS
 62
     7
 10
-314.5
 20
-60.0
 30
0.0
 11
-281.0
 21
-60.0
 31
0.0
  0
LINE
  5
55A
  8
DATA
  6
CONTINUOUS
 62
     7
 10
-314.5
 20
-59.0
 30
0.0
 11
-314.5
 21
-60.0
 31
0.0
  0
LINE
  5
55B
  8
DATA
  6
CONTINUOUS
 62
     7
 10
-281.0
 20
-59.0
 30
0.0
 11
-314.5
 21
-59.0
 31
0.0
  0
LINE
  5
55C
  8
DATA
  6
CONTINUOUS
 62
     7
 10
-282.25
 20
-59.0
 30
0.0
 11
-282.25
 21
-57.0
 31
0.0
  0
LINE
  5
55D
  8
DATA
  6
CONTINUOUS
 62
     7
 10
-313.25
 20
-59.0
 30
0.0
 11
-282.25
 21
-59.0
 31
0.0
  0
LINE
  5
55E
  8
DATA
  6
CONTINUOUS
 62
     7
 10
-313.25
 20
-57.0
 30
0.0
 11
-313.25
 21
-59.0
 31
0.0
  0
LINE
  5
55F
  8
DATA
  6
CONTINUOUS
 62
     7
 10
-282.25
 20
-57.0
 30
0.0
 11
-313.25
 21
-57.0
 31
0.0
  0
ARC
  5
560
  8
DATA
  6
CONTINUOUS
 62
     7
 10
-306.2822720599849
 20
-55.5
 30
0.0
 40
2.5
 50
0.0
 51
180.0
  0
LINE
  5
561
  8
DATA
  6
CONTINUOUS
 62
     7
 10
-303.7822720599849
 20
-55.5
 30
0.0
 11
-303.7822720599849
 21
-57.0
 31
0.0
  0
LINE
  5
562
  8
DATA
  6
CONTINUOUS
 62
     7
 10
-303.7822720599849
 20
-57.0
 30
0.0
 11
-308.7822720599849
 21
-57.0
 31
0.0
  0
LINE
  5
563
  8
DATA
  6
CONTINUOUS
 62
     7
 10
-308.7822720599849
 20
-55.5
 30
0.0
 11
-308.7822720599849
 21
-57.0
 31
0.0
  0
LINE
  5
564
  8
DATA
  6
CONTINUOUS
 62
     7
 10
60.440000000175132
 20
-60.0
 30
0.0
 11
60.440000000175132
 21
-58.0
 31
0.0
  0
LINE
  5
565
  8
DATA
  6
CONTINUOUS
 62
     7
 10
61.940000000175132
 20
-60.0
 30
0.0
 11
60.440000000175132
 21
-60.0
 31
0.0
  0
LINE
  5
566
  8
DATA
  6
CONTINUOUS
 62
     7
 10
61.940000000175132
 20
-58.0
 30
0.0
 11
61.940000000175132
 21
-60.0
 31
0.0
  0
LINE
  5
567
  8
DATA
  6
CONTINUOUS
 62
     7
 10
60.440000000175132
 20
-58.0
 30
0.0
 11
61.940000000175132
 21
-58.0
 31
0.0
  0
LINE
  5
568
  8
DATA
  6
CONTINUOUS
 62
     7
 10
-8.5599999998248677
 20
-60.0
 30
0.0
 11
-8.5599999998248677
 21
-58.0
 31
0.0
  0
LINE
  5
569
  8
DATA
  6
CONTINUOUS
 62
     7
 10
-7.0599999998248668
 20
-60.0
 30
0.0
 11
-8.5599999998248677
 21
-60.0
 31
0.0
  0
LINE
  5
56A
  8
DATA
  6
CONTINUOUS
 62
     7
 10
-7.0599999998248668
 20
-58.0
 30
0.0
 11
-7.0599999998248668
 21
-60.0
 31
0.0
  0
LINE
  5
56B
  8
DATA
  6
CONTINUOUS
 62
     7
 10
-8.5599999998248677
 20
-58.0
 30
0.0
 11
-7.0599999998248668
 21
-58.0
 31
0.0
  0
LINE
  5
56C
  8
DATA
  6
CONTINUOUS
 62
     7
 10
-77.559999999824853
 20
-60.0
 30
0.0
 11
-77.559999999824853
 21
-58.0
 31
0.0
  0
LINE
  5
56D
  8
DATA
  6
CONTINUOUS
 62
     7
 10
-76.059999999824853
 20
-60.0
 30
0.0
 11
-77.559999999824853
 21
-60.0
 31
0.0
  0
LINE
  5
56E
  8
DATA
  6
CONTINUOUS
 62
     7
 10
-76.059999999824853
 20
-58.0
 30
0.0
 11
-76.059999999824853
 21
-60.0
 31
0.0
  0
LINE
  5
56F
  8
DATA
  6
CONTINUOUS
 62
     7
 10
-77.559999999824853
 20
-58.0
 30
0.0
 11
-76.059999999824853
 21
-58.0
 31
0.0
  0
TEXT
  5
570
  8
DATA
 62
     7
 10
5.330208333333605
 20
47.275416666666658
 30
0.0
 40
2.0360514322916661
  1
 Input:
 50
180.0
 41
0.7
 11
5.330208333333605
 21
45.239365234375001
 31
0.0
 73
     3
  0
TEXT
  5
571
  8
DATA
 62
     7
 10
5.330208333333605
 20
49.921250000000001
 30
0.0
 40
2.0360514322916661
  1
Pin1=
 50
180.0
 41
0.7
 11
5.330208333333605
 21
47.885198567708329
 31
0.0
 73
     3
  0
TEXT
  5
572
  8
DATA
 62
     7
 10
5.330208333333605
 20
52.567083333333329
 30
0.0
 40
2.0360514322916661
  1
Pin2= a
 50
180.0
 41
0.7
 11
5.330208333333605
 21
50.531031901041672
 31
0.0
 73
     3
  0
TEXT
  5
573
  8
DATA
 62
     7
 10
5.330208333333605
 20
55.212916666666658
 30
0.0
 40
2.0360514322916661
  1
Pin3= b
 50
180.0
 41
0.7
 11
5.330208333333605
 21
53.176865234375001
 31
0.0
 73
     3
  0
TEXT
  5
574
  8
DATA
 62
     7
 10
-437.5
 20
-596.49135111111104
 30
0.0
 40
9.5015733506944464
  1
※仕様及び外観は予告なく変更されることがあります。
 41
0.7
 11
-437.5
 21
-586.98977776041659
 31
0.0
 73
     3
  0
TEXT
  5
575
  8
DATA
 62
     7
 10
-437.5
 20
-608.83857333333333
 30
0.0
 40
9.5015733506944464
  1
　また、同一商品でも若干の個体差があることがあります。ご了承ください。
 41
0.7
 11
-437.5
 21
-599.33699998263887
 31
0.0
 73
     3
  0
TEXT
  5
576
  8
DATA
 62
     7
 10
250.0
 20
-580.2182899999998
 30
0.0
 40
12.21630859375
  1
DMM6
 41
0.7
 11
250.0
 21
-568.0019814062498
 31
0.0
 73
     3
  0
TEXT
  5
577
  8
DATA
 62
     7
 10
250.0
 20
-543.96828999999991
 30
0.0
 40
12.21630859375
  1
AKG
 41
0.7
 11
250.0
 21
-531.75198140624991
 31
0.0
 73
     3
  0
TEXT
  5
578
  8
DATA
 62
     7
 10
71.443929524914566
 20
65.219937065972132
 30
0.0
 40
2.8504720052083332
  1
IN 1
 50
180.0
 41
0.7
 72
     1
 11
68.850000000174987
 21
65.599999999999909
 31
0.0
 73
     1
  0
TEXT
  5
579
  8
DATA
 62
     7
 10
58.776484592188872
 20
65.219937065972132
 30
0.0
 40
2.8504720052083332
  1
IN 2
 50
180.0
 41
0.7
 72
     1
 11
55.850000000174973
 21
65.599999999999909
 31
0.0
 73
     1
  0
TEXT
  5
57A
  8
DATA
 62
     7
 10
3.4276236626042862
 20
65.219937065972132
 30
0.0
 40
2.8504720052083332
  1
IN 3
 50
180.0
 41
0.7
 72
     1
 11
0.5011390705903978
 21
65.599999999999909
 31
0.0
 73
     1
  0
TEXT
  5
57B
  8
DATA
 62
     7
 10
-9.5723763373957134
 20
65.219937065972132
 30
0.0
 40
2.8504720052083332
  1
IN 4
 50
180.0
 41
0.7
 72
     1
 11
-12.4988609294096
 21
65.599999999999909
 31
0.0
 73
     1
  0
TEXT
  5
57C
  8
DATA
 62
     7
 10
-79.223515407811121
 20
65.372020399305299
 30
0.0
 40
2.8504720052083332
  1
IN 6
 50
180.0
 41
0.7
 72
     1
 11
-82.149999999824999
 21
65.752083333333076
 31
0.0
 73
     1
  0
TEXT
  5
57D
  8
DATA
 62
     7
 10
-66.223515407811121
 20
65.219937065972132
 30
0.0
 40
2.8504720052083332
  1
IN 5
 50
180.0
 41
0.7
 72
     1
 11
-69.149999999825013
 21
65.599999999999909
 31
0.0
 73
     1
  0
TEXT
  5
57E
  8
DATA
 62
     7
 10
59.85000000017498
 20
79.27541666666643
 30
0.0
 40
2.0360514322916661
  1
ON
 50
180.0
 41
0.7
 11
59.85000000017498
 21
77.239365234374759
 31
0.0
 73
     3
  0
TEXT
  5
57F
  8
DATA
 62
     7
 10
68.650629340452767
 20
79.27541666666643
 30
0.0
 40
2.0360514322916661
  1
OFF
 50
180.0
 41
0.7
 72
     2
 11
64.850000000174987
 21
77.239365234374759
 31
0.0
 73
     3
  0
TEXT
  5
580
  8
DATA
 62
     7
 10
68.288483344359008
 20
82.275416666666686
 30
0.0
 40
2.0360514322916661
  1
PHANT.PWR
 50
180.0
 41
0.7
 72
     1
 11
62.35000000017498
 21
80.239365234375015
 31
0.0
 73
     3
  0
TEXT
  5
581
  8
DATA
 62
     7
 10
-9.1499999998250114
 20
79.27541666666643
 30
0.0
 40
2.0360514322916661
  1
ON
 50
180.0
 41
0.7
 11
-9.1499999998250114
 21
77.239365234374759
 31
0.0
 73
     3
  0
TEXT
  5
582
  8
DATA
 62
     7
 10
-0.3493706595472359
 20
79.27541666666643
 30
0.0
 40
2.0360514322916661
  1
OFF
 50
180.0
 41
0.7
 72
     2
 11
-4.1499999998250132
 21
77.239365234374759
 31
0.0
 73
     3
  0
TEXT
  5
583
  8
DATA
 62
     7
 10
-0.711516655640987
 20
82.275416666666686
 30
0.0
 40
2.0360514322916661
  1
PHANT.PWR
 50
180.0
 41
0.7
 72
     1
 11
-6.6499999998250132
 21
80.239365234375015
 31
0.0
 73
     3
  0
TEXT
  5
584
  8
DATA
 62
     7
 10
-78.149999999825013
 20
79.27541666666643
 30
0.0
 40
2.0360514322916661
  1
ON
 50
180.0
 41
0.7
 11
-78.149999999825013
 21
77.239365234374759
 31
0.0
 73
     3
  0
TEXT
  5
585
  8
DATA
 62
     7
 10
-69.349370659547233
 20
79.27541666666643
 30
0.0
 40
2.0360514322916661
  1
OFF
 50
180.0
 41
0.7
 72
     2
 11
-73.149999999825013
 21
77.239365234374759
 31
0.0
 73
     3
  0
TEXT
  5
586
  8
DATA
 62
     7
 10
-69.711516655640992
 20
82.275416666666686
 30
0.0
 40
2.0360514322916661
  1
PHANT.PWR
 50
180.0
 41
0.7
 72
     1
 11
-75.649999999825013
 21
80.239365234375015
 31
0.0
 73
     3
  0
TEXT
  5
587
  8
DATA
 62
     7
 10
72.698860929584512
 20
47.275416666666658
 30
0.0
 40
2.0360514322916661
  1
GAIN: LINE
 50
180.0
 41
0.7
 11
72.698860929584512
 21
45.239365234375001
 31
0.0
 73
     3
  0
TEXT
  5
588
  8
DATA
 62
     7
 10
53.30289143387472
 20
47.275416666666658
 30
0.0
 40
2.0360514322916661
  1
MIC
 50
180.0
 41
0.7
 11
53.30289143387472
 21
45.239365234375001
 31
0.0
 73
     3
  0
TEXT
  5
589
  8
DATA
 62
     7
 10
-118.34329513888881
 20
81.985583333333295
 30
0.0
 40
2.8504720052083332
  1
OUT L
 50
180.0
 41
0.7
 72
     1
 11
-122.59999999999989
 21
79.135111328124935
 31
0.0
 73
     3
  0
TEXT
  5
58A
  8
DATA
 62
     7
 10
-141.89329513871391
 20
81.985583333333295
 30
0.0
 40
2.8504720052083332
  1
OUT R
 50
180.0
 41
0.7
 72
     1
 11
-146.14999999982501
 21
79.135111328124935
 31
0.0
 73
     3
  0
TEXT
  5
58B
  8
DATA
 62
     7
 10
-162.1663435870646
 20
81.985583333333295
 30
0.0
 40
2.8504720052083332
  1
REC(OUT)
 50
180.0
 41
0.7
 72
     1
 11
-169.14999999982501
 21
79.135111328124935
 31
0.0
 73
     3
  0
TEXT
  5
58C
  8
DATA
 62
     7
 10
-160.95747135399171
 20
70.925236002603938
 30
0.0
 40
2.8504720052083332
  1
R 
 50
180.0
 41
0.7
 72
     2
 11
-164.14999999982501
 21
69.499999999999773
 31
0.0
 73
     2
  0
TEXT
  5
58D
  8
DATA
 62
     7
 10
-162.81977973072779
 20
55.925236002603938
 30
0.0
 40
2.8504720052083332
  1
L
 50
180.0
 41
0.7
 72
     2
 11
-164.14999999982501
 21
54.499999999999773
 31
0.0
 73
     2
  0
TEXT
  5
58E
  8
DATA
 62
     7
 10
-181.1850219724812
 20
81.985583333333295
 30
0.0
 40
2.8504720052083332
  1
IN-EXPANSION-OUT
 50
180.0
 41
0.7
 72
     1
 11
-196.14999999982501
 21
79.135111328124935
 31
0.0
 73
     3
  0
TEXT
  5
58F
  8
DATA
 62
     7
 10
-225.8942290579848
 20
81.985583333333295
 30
0.0
 40
2.8504720052083332
  1
RS232
 50
180.0
 41
0.7
 72
     1
 11
-230.5499999998251
 21
79.135111328124935
 31
0.0
 73
     3
  0
TEXT
  5
590
  8
DATA
 62
     7
 10
-201.096863389757
 20
59.185583333333327
 30
0.0
 40
2.8504720052083332
  1
CONTROL IN/OUT
 50
180.0
 41
0.7
 72
     1
 11
-214.0
 21
56.335111328125002
 31
0.0
 73
     3
  0
TEXT
  5
591
  8
DATA
 62
     7
 10
-253.4499999998252
 20
51.529937065972071
 30
0.0
 40
2.8504720052083332
  1
VCA
 50
180.0
 41
0.7
 11
-253.4499999998252
 21
51.909999999999847
 31
0.0
 73
     1
  0
TEXT
  5
592
  8
DATA
 62
     7
 10
-318.14318067079859
 20
73.368769986166214
 30
0.0
 40
2.0360514322916661
  1
100-200V AC
 50
180.0
 41
0.7
 72
     1
 11
-324.98431348329859
 21
73.640243510471763
 31
0.0
 73
     1
  0
TEXT
  5
593
  8
DATA
 62
     7
 10
-320.47106614171872
 20
76.014603319499543
 30
0.0
 40
2.0360514322916661
  1
50/60Hz
 50
180.0
 41
0.7
 72
     1
 11
-324.98431348329859
 21
76.286076843805091
 31
0.0
 73
     1
  0
TEXT
  5
594
  8
DATA
 62
     7
 10
-317.38305480274312
 20
78.660436652832885
 30
0.0
 40
2.0360514322916661
  1
max.75W/0,7A
 50
180.0
 41
0.7
 72
     1
 11
-324.98431348329859
 21
78.931910177138434
 31
0.0
 73
     1
  0
TEXT
  5
595
  8
DATA
 62
     7
 10
-87.285047200520836
 20
-378.83711588541672
 30
0.0
 40
1.221630859375
  1
8
 41
0.7
 72
     1
 11
-87.0
 21
-379.0
 31
0.0
 73
     1
  0
TEXT
  5
596
  8
DATA
 62
     7
 10
-90.875125392338944
 20
-379.4960224931902
 30
0.0
 40
1.221630859375
  1
7
 50
18.0
 41
0.7
 72
     1
 11
-90.553695435311951
 21
-379.56285006260572
 31
0.0
 73
     1
  0
TEXT
  5
597
  8
DATA
 62
     7
 10
-94.085879311168597
 20
-381.23207508855029
 30
0.0
 40
1.221630859375
  1
6
 50
36.0
 41
0.7
 72
     1
 11
-93.759530401363435
 21
-381.19630456468849
 31
0.0
 73
     1
  0
TEXT
  5
598
  8
DATA
 62
     7
 10
-96.603017992796978
 20
-383.87533674767252
 30
0.0
 40
1.221630859375
  1
5
 50
54.0
 41
0.7
 72
     1
 11
-96.303695435311951
 21
-383.74046959863688
 31
0.0
 73
     1
  0
TEXT
  5
599
  8
DATA
 62
     7
 10
-98.180146365129133
 20
-387.16706660267511
 30
0.0
 40
1.221630859375
  1
4
 50
72.0
 41
0.7
 72
     1
 11
-97.937149937393755
 21
-386.94630456468809
 31
0.0
 73
     1
  0
TEXT
  5
59A
  8
DATA
 62
     7
 10
-83.667066602676044
 20
-379.3198536348699
 30
0.0
 40
1.221630859375
  1
9
 50
342.00000000000688
 41
0.7
 72
     1
 11
-83.446304564688944
 21
-379.56285006260532
 31
0.0
 73
     1
  0
TEXT
  5
59B
  8
DATA
 62
     7
 10
-80.548292769737856
 20
-380.77132210169771
 30
0.0
 40
1.221630859375
  1
10
 50
324.00000000000688
 41
0.7
 72
     1
 11
-80.240469598636977
 21
-381.19630456468781
 31
0.0
 73
     1
  0
TEXT
  5
59C
  8
DATA
 62
     7
 10
-77.815848358887024
 20
-383.29881667412059
 30
0.0
 40
1.221630859375
  1
11
 50
306.00000000000688
 41
0.7
 72
     1
 11
-77.696304564688504
 21
-383.74046959863603
 31
0.0
 73
     1
  0
TEXT
  5
59D
  8
DATA
 62
     7
 10
-76.084106922350713
 20
-386.35377861015257
 30
0.0
 40
1.221630859375
  1
12
 50
288.00000000000699
 41
0.7
 72
     1
 11
-76.06285006260623
 21
-386.94630456468673
 31
0.0
 73
     1
  0
TEXT
  5
59E
  8
DATA
 62
     7
 10
-75.337115885416281
 20
-389.92990559895691
 30
0.0
 40
1.221630859375
  1
13
 50
270.00000000000688
 41
0.7
 72
     1
 11
-75.499999999999545
 21
-390.49999999999852
 31
0.0
 73
     1
  0
TEXT
  5
59F
  8
DATA
 62
     7
 10
-83.446304564688944
 20
-404.27541666666662
 30
0.0
 40
2.0360514322916661
  1
PEAK
 41
0.7
 11
-83.446304564688944
 21
-402.23936523437487
 31
0.0
 73
     3
  0
TEXT
  5
5A0
  8
DATA
 62
     7
 10
-98.662884114583335
 20
-390.78504720052081
 30
0.0
 40
1.221630859375
  1
3
 50
90.0
 41
0.7
 72
     1
 11
-98.500000000000014
 21
-390.5
 31
0.0
 73
     1
  0
TEXT
  5
5A1
  8
DATA
 62
     7
 10
-98.003977506809733
 20
-394.37512539233887
 30
0.0
 40
1.221630859375
  1
2
 50
108.0
 41
0.7
 72
     1
 11
-97.937149937394224
 21
-394.05369543531202
 31
0.0
 73
     1
  0
TEXT
  5
5A2
  8
DATA
 62
     7
 10
-96.351698181786887
 20
-397.47057529645849
 30
0.0
 40
1.221630859375
  1
1
 50
126.0
 41
0.7
 72
     1
 11
-96.303695435311951
 21
-397.25953040136352
 31
0.0
 73
     1
  0
TEXT
  5
5A3
  8
DATA
 62
     7
 10
-92.929088772985125
 20
-404.24173327072759
 30
0.0
 40
2.0360514322916661
  1
ON
 41
0.7
 72
     2
 11
-90.553695435311511
 21
-402.20568183843591
 31
0.0
 73
     3
  0
TEXT
  5
5A4
  8
DATA
 62
     7
 10
-75.731769205710052
 20
-393.56183739981782
 30
0.0
 40
1.221630859375
  1
14
 50
252.00000000000691
 41
0.7
 72
     1
 11
-76.062850062605321
 21
-394.05369543531202
 31
0.0
 73
     1
  0
TEXT
  5
5A5
  8
DATA
 62
     7
 10
-77.229435466529651
 20
-396.89405522290792
 30
0.0
 40
1.221630859375
  1
15
 50
234.00000000000691
 41
0.7
 72
     1
 11
-77.696304564688035
 21
-397.25953040136392
 31
0.0
 73
     1
  0
TEXT
  5
5A6
  8
DATA
 62
     7
 10
-131.28504720052081
 20
-378.83711588541672
 30
0.0
 40
1.221630859375
  1
8
 41
0.7
 72
     1
 11
-131.0
 21
-379.0
 31
0.0
 73
     1
  0
TEXT
  5
5A7
  8
DATA
 62
     7
 10
-134.8751253923389
 20
-379.4960224931902
 30
0.0
 40
1.221630859375
  1
7
 50
18.0
 41
0.7
 72
     1
 11
-134.55369543531191
 21
-379.56285006260572
 31
0.0
 73
     1
  0
TEXT
  5
5A8
  8
DATA
 62
     7
 10
-138.08587931116861
 20
-381.23207508855029
 30
0.0
 40
1.221630859375
  1
6
 50
36.0
 41
0.7
 72
     1
 11
-137.75953040136341
 21
-381.19630456468849
 31
0.0
 73
     1
  0
TEXT
  5
5A9
  8
DATA
 62
     7
 10
-140.60301799279699
 20
-383.87533674767252
 30
0.0
 40
1.221630859375
  1
5
 50
54.0
 41
0.7
 72
     1
 11
-140.30369543531191
 21
-383.74046959863688
 31
0.0
 73
     1
  0
TEXT
  5
5AA
  8
DATA
 62
     7
 10
-142.1801463651291
 20
-387.16706660267511
 30
0.0
 40
1.221630859375
  1
4
 50
72.0
 41
0.7
 72
     1
 11
-141.93714993739371
 21
-386.94630456468809
 31
0.0
 73
     1
  0
TEXT
  5
5AB
  8
DATA
 62
     7
 10
-127.667066602676
 20
-379.3198536348699
 30
0.0
 40
1.221630859375
  1
9
 50
342.00000000000688
 41
0.7
 72
     1
 11
-127.4463045646889
 21
-379.56285006260532
 31
0.0
 73
     1
  0
TEXT
  5
5AC
  8
DATA
 62
     7
 10
-124.5482927697379
 20
-380.77132210169771
 30
0.0
 40
1.221630859375
  1
10
 50
324.00000000000688
 41
0.7
 72
     1
 11
-124.24046959863701
 21
-381.19630456468781
 31
0.0
 73
     1
  0
TEXT
  5
5AD
  8
DATA
 62
     7
 10
-121.815848358887
 20
-383.29881667412059
 30
0.0
 40
1.221630859375
  1
11
 50
306.00000000000688
 41
0.7
 72
     1
 11
-121.6963045646885
 21
-383.74046959863603
 31
0.0
 73
     1
  0
TEXT
  5
5AE
  8
DATA
 62
     7
 10
-120.0841069223507
 20
-386.35377861015257
 30
0.0
 40
1.221630859375
  1
12
 50
288.00000000000699
 41
0.7
 72
     1
 11
-120.0628500626062
 21
-386.94630456468673
 31
0.0
 73
     1
  0
TEXT
  5
5AF
  8
DATA
 62
     7
 10
-119.3371158854163
 20
-389.92990559895691
 30
0.0
 40
1.221630859375
  1
13
 50
270.00000000000688
 41
0.7
 72
     1
 11
-119.4999999999995
 21
-390.49999999999852
 31
0.0
 73
     1
  0
TEXT
  5
5B0
  8
DATA
 62
     7
 10
-127.4463045646889
 20
-404.27541666666662
 30
0.0
 40
2.0360514322916661
  1
PEAK
 41
0.7
 11
-127.4463045646889
 21
-402.23936523437487
 31
0.0
 73
     3
  0
TEXT
  5
5B1
  8
DATA
 62
     7
 10
-142.66288411458331
 20
-390.78504720052081
 30
0.0
 40
1.221630859375
  1
3
 50
90.0
 41
0.7
 72
     1
 11
-142.5
 21
-390.5
 31
0.0
 73
     1
  0
TEXT
  5
5B2
  8
DATA
 62
     7
 10
-142.00397750680969
 20
-394.37512539233887
 30
0.0
 40
1.221630859375
  1
2
 50
108.0
 41
0.7
 72
     1
 11
-141.9371499373942
 21
-394.05369543531202
 31
0.0
 73
     1
  0
TEXT
  5
5B3
  8
DATA
 62
     7
 10
-140.35169818178679
 20
-397.47057529645849
 30
0.0
 40
1.221630859375
  1
1
 50
126.0
 41
0.7
 72
     1
 11
-140.30369543531191
 21
-397.25953040136352
 31
0.0
 73
     1
  0
TEXT
  5
5B4
  8
DATA
 62
     7
 10
-136.9290887729851
 20
-404.24173327072759
 30
0.0
 40
2.0360514322916661
  1
ON
 41
0.7
 72
     2
 11
-134.55369543531151
 21
-402.20568183843591
 31
0.0
 73
     3
  0
TEXT
  5
5B5
  8
DATA
 62
     7
 10
-119.73176920570999
 20
-393.56183739981782
 30
0.0
 40
1.221630859375
  1
14
 50
252.00000000000691
 41
0.7
 72
     1
 11
-120.06285006260531
 21
-394.05369543531202
 31
0.0
 73
     1
  0
TEXT
  5
5B6
  8
DATA
 62
     7
 10
-121.22943546652959
 20
-396.89405522290792
 30
0.0
 40
1.221630859375
  1
15
 50
234.00000000000691
 41
0.7
 72
     1
 11
-121.69630456468801
 21
-397.25953040136392
 31
0.0
 73
     1
  0
TEXT
  5
5B7
  8
DATA
 62
     7
 10
-175.28504720052081
 20
-378.83711588541672
 30
0.0
 40
1.221630859375
  1
8
 41
0.7
 72
     1
 11
-175.0
 21
-379.0
 31
0.0
 73
     1
  0
TEXT
  5
5B8
  8
DATA
 62
     7
 10
-178.8751253923389
 20
-379.4960224931902
 30
0.0
 40
1.221630859375
  1
7
 50
18.0
 41
0.7
 72
     1
 11
-178.55369543531191
 21
-379.56285006260572
 31
0.0
 73
     1
  0
TEXT
  5
5B9
  8
DATA
 62
     7
 10
-182.08587931116861
 20
-381.23207508855029
 30
0.0
 40
1.221630859375
  1
6
 50
36.0
 41
0.7
 72
     1
 11
-181.75953040136341
 21
-381.19630456468849
 31
0.0
 73
     1
  0
TEXT
  5
5BA
  8
DATA
 62
     7
 10
-184.60301799279699
 20
-383.87533674767252
 30
0.0
 40
1.221630859375
  1
5
 50
54.0
 41
0.7
 72
     1
 11
-184.30369543531199
 21
-383.74046959863688
 31
0.0
 73
     1
  0
TEXT
  5
5BB
  8
DATA
 62
     7
 10
-186.1801463651291
 20
-387.16706660267511
 30
0.0
 40
1.221630859375
  1
4
 50
72.0
 41
0.7
 72
     1
 11
-185.93714993739371
 21
-386.94630456468809
 31
0.0
 73
     1
  0
TEXT
  5
5BC
  8
DATA
 62
     7
 10
-171.66706660267599
 20
-379.3198536348699
 30
0.0
 40
1.221630859375
  1
9
 50
342.00000000000688
 41
0.7
 72
     1
 11
-171.44630456468889
 21
-379.56285006260532
 31
0.0
 73
     1
  0
TEXT
  5
5BD
  8
DATA
 62
     7
 10
-168.54829276973791
 20
-380.77132210169771
 30
0.0
 40
1.221630859375
  1
10
 50
324.00000000000688
 41
0.7
 72
     1
 11
-168.24046959863699
 21
-381.19630456468781
 31
0.0
 73
     1
  0
TEXT
  5
5BE
  8
DATA
 62
     7
 10
-165.815848358887
 20
-383.29881667412059
 30
0.0
 40
1.221630859375
  1
11
 50
306.00000000000688
 41
0.7
 72
     1
 11
-165.6963045646884
 21
-383.74046959863603
 31
0.0
 73
     1
  0
TEXT
  5
5BF
  8
DATA
 62
     7
 10
-164.08410692235071
 20
-386.35377861015257
 30
0.0
 40
1.221630859375
  1
12
 50
288.00000000000699
 41
0.7
 72
     1
 11
-164.0628500626062
 21
-386.94630456468673
 31
0.0
 73
     1
  0
TEXT
  5
5C0
  8
DATA
 62
     7
 10
-163.3371158854163
 20
-389.92990559895691
 30
0.0
 40
1.221630859375
  1
13
 50
270.00000000000688
 41
0.7
 72
     1
 11
-163.4999999999996
 21
-390.49999999999852
 31
0.0
 73
     1
  0
TEXT
  5
5C1
  8
DATA
 62
     7
 10
-171.44630456468889
 20
-404.27541666666662
 30
0.0
 40
2.0360514322916661
  1
PEAK
 41
0.7
 11
-171.44630456468889
 21
-402.23936523437487
 31
0.0
 73
     3
  0
TEXT
  5
5C2
  8
DATA
 62
     7
 10
-186.66288411458331
 20
-390.78504720052081
 30
0.0
 40
1.221630859375
  1
3
 50
90.0
 41
0.7
 72
     1
 11
-186.5
 21
-390.5
 31
0.0
 73
     1
  0
TEXT
  5
5C3
  8
DATA
 62
     7
 10
-186.00397750680969
 20
-394.37512539233887
 30
0.0
 40
1.221630859375
  1
2
 50
108.0
 41
0.7
 72
     1
 11
-185.9371499373942
 21
-394.05369543531202
 31
0.0
 73
     1
  0
TEXT
  5
5C4
  8
DATA
 62
     7
 10
-184.3516981817869
 20
-397.47057529645849
 30
0.0
 40
1.221630859375
  1
1
 50
126.0
 41
0.7
 72
     1
 11
-184.30369543531199
 21
-397.25953040136352
 31
0.0
 73
     1
  0
TEXT
  5
5C5
  8
DATA
 62
     7
 10
-180.9290887729851
 20
-404.24173327072759
 30
0.0
 40
2.0360514322916661
  1
ON
 41
0.7
 72
     2
 11
-178.55369543531151
 21
-402.20568183843591
 31
0.0
 73
     3
  0
TEXT
  5
5C6
  8
DATA
 62
     7
 10
-163.73176920571001
 20
-393.56183739981782
 30
0.0
 40
1.221630859375
  1
14
 50
252.00000000000691
 41
0.7
 72
     1
 11
-164.06285006260529
 21
-394.05369543531202
 31
0.0
 73
     1
  0
TEXT
  5
5C7
  8
DATA
 62
     7
 10
-165.22943546652959
 20
-396.89405522290792
 30
0.0
 40
1.221630859375
  1
15
 50
234.00000000000691
 41
0.7
 72
     1
 11
-165.69630456468801
 21
-397.25953040136392
 31
0.0
 73
     1
  0
TEXT
  5
5C8
  8
DATA
 62
     7
 10
-219.28504720052081
 20
-378.83711588541672
 30
0.0
 40
1.221630859375
  1
8
 41
0.7
 72
     1
 11
-219.0
 21
-379.0
 31
0.0
 73
     1
  0
TEXT
  5
5C9
  8
DATA
 62
     7
 10
-222.87512539233899
 20
-379.4960224931902
 30
0.0
 40
1.221630859375
  1
7
 50
18.0
 41
0.7
 72
     1
 11
-222.55369543531199
 21
-379.56285006260572
 31
0.0
 73
     1
  0
TEXT
  5
5CA
  8
DATA
 62
     7
 10
-226.08587931116861
 20
-381.23207508855029
 30
0.0
 40
1.221630859375
  1
6
 50
36.0
 41
0.7
 72
     1
 11
-225.75953040136341
 21
-381.19630456468849
 31
0.0
 73
     1
  0
TEXT
  5
5CB
  8
DATA
 62
     7
 10
-228.60301799279699
 20
-383.87533674767252
 30
0.0
 40
1.221630859375
  1
5
 50
54.0
 41
0.7
 72
     1
 11
-228.30369543531199
 21
-383.74046959863688
 31
0.0
 73
     1
  0
TEXT
  5
5CC
  8
DATA
 62
     7
 10
-230.18014636512919
 20
-387.16706660267511
 30
0.0
 40
1.221630859375
  1
4
 50
72.0
 41
0.7
 72
     1
 11
-229.9371499373938
 21
-386.94630456468809
 31
0.0
 73
     1
  0
TEXT
  5
5CD
  8
DATA
 62
     7
 10
-215.66706660267599
 20
-379.3198536348699
 30
0.0
 40
1.221630859375
  1
9
 50
342.00000000000688
 41
0.7
 72
     1
 11
-215.44630456468889
 21
-379.56285006260532
 31
0.0
 73
     1
  0
TEXT
  5
5CE
  8
DATA
 62
     7
 10
-212.5482927697378
 20
-380.77132210169771
 30
0.0
 40
1.221630859375
  1
10
 50
324.00000000000688
 41
0.7
 72
     1
 11
-212.24046959863699
 21
-381.19630456468781
 31
0.0
 73
     1
  0
TEXT
  5
5CF
  8
DATA
 62
     7
 10
-209.815848358887
 20
-383.29881667412059
 30
0.0
 40
1.221630859375
  1
11
 50
306.00000000000688
 41
0.7
 72
     1
 11
-209.69630456468849
 21
-383.74046959863603
 31
0.0
 73
     1
  0
TEXT
  5
5D0
  8
DATA
 62
     7
 10
-208.08410692235071
 20
-386.35377861015257
 30
0.0
 40
1.221630859375
  1
12
 50
288.00000000000699
 41
0.7
 72
     1
 11
-208.0628500626062
 21
-386.94630456468673
 31
0.0
 73
     1
  0
TEXT
  5
5D1
  8
DATA
 62
     7
 10
-207.3371158854163
 20
-389.92990559895691
 30
0.0
 40
1.221630859375
  1
13
 50
270.00000000000688
 41
0.7
 72
     1
 11
-207.4999999999996
 21
-390.49999999999852
 31
0.0
 73
     1
  0
TEXT
  5
5D2
  8
DATA
 62
     7
 10
-215.44630456468889
 20
-404.27541666666662
 30
0.0
 40
2.0360514322916661
  1
PEAK
 41
0.7
 11
-215.44630456468889
 21
-402.23936523437487
 31
0.0
 73
     3
  0
TEXT
  5
5D3
  8
DATA
 62
     7
 10
-230.66288411458331
 20
-390.78504720052081
 30
0.0
 40
1.221630859375
  1
3
 50
90.0
 41
0.7
 72
     1
 11
-230.5
 21
-390.5
 31
0.0
 73
     1
  0
TEXT
  5
5D4
  8
DATA
 62
     7
 10
-230.0039775068098
 20
-394.37512539233887
 30
0.0
 40
1.221630859375
  1
2
 50
108.0
 41
0.7
 72
     1
 11
-229.9371499373942
 21
-394.05369543531202
 31
0.0
 73
     1
  0
TEXT
  5
5D5
  8
DATA
 62
     7
 10
-228.3516981817869
 20
-397.47057529645849
 30
0.0
 40
1.221630859375
  1
1
 50
126.0
 41
0.7
 72
     1
 11
-228.30369543531199
 21
-397.25953040136352
 31
0.0
 73
     1
  0
TEXT
  5
5D6
  8
DATA
 62
     7
 10
-224.92908877298521
 20
-404.24173327072759
 30
0.0
 40
2.0360514322916661
  1
ON
 41
0.7
 72
     2
 11
-222.5536954353116
 21
-402.20568183843591
 31
0.0
 73
     3
  0
TEXT
  5
5D7
  8
DATA
 62
     7
 10
-207.73176920571001
 20
-393.56183739981782
 30
0.0
 40
1.221630859375
  1
14
 50
252.00000000000691
 41
0.7
 72
     1
 11
-208.06285006260529
 21
-394.05369543531202
 31
0.0
 73
     1
  0
TEXT
  5
5D8
  8
DATA
 62
     7
 10
-209.22943546652971
 20
-396.89405522290792
 30
0.0
 40
1.221630859375
  1
15
 50
234.00000000000691
 41
0.7
 72
     1
 11
-209.69630456468801
 21
-397.25953040136392
 31
0.0
 73
     1
  0
TEXT
  5
5D9
  8
DATA
 62
     7
 10
-263.28504720052081
 20
-378.83711588541672
 30
0.0
 40
1.221630859375
  1
8
 41
0.7
 72
     1
 11
-263.0
 21
-379.0
 31
0.0
 73
     1
  0
TEXT
  5
5DA
  8
DATA
 62
     7
 10
-266.87512539233899
 20
-379.4960224931902
 30
0.0
 40
1.221630859375
  1
7
 50
18.0
 41
0.7
 72
     1
 11
-266.55369543531202
 21
-379.56285006260572
 31
0.0
 73
     1
  0
TEXT
  5
5DB
  8
DATA
 62
     7
 10
-270.08587931116858
 20
-381.23207508855029
 30
0.0
 40
1.221630859375
  1
6
 50
36.0
 41
0.7
 72
     1
 11
-269.75953040136352
 21
-381.19630456468849
 31
0.0
 73
     1
  0
TEXT
  5
5DC
  8
DATA
 62
     7
 10
-272.60301799279699
 20
-383.87533674767252
 30
0.0
 40
1.221630859375
  1
5
 50
54.0
 41
0.7
 72
     1
 11
-272.30369543531202
 21
-383.74046959863688
 31
0.0
 73
     1
  0
TEXT
  5
5DD
  8
DATA
 62
     7
 10
-274.18014636512919
 20
-387.16706660267511
 30
0.0
 40
1.221630859375
  1
4
 50
72.0
 41
0.7
 72
     1
 11
-273.93714993739371
 21
-386.94630456468809
 31
0.0
 73
     1
  0
TEXT
  5
5DE
  8
DATA
 62
     7
 10
-259.6670666026759
 20
-379.3198536348699
 30
0.0
 40
1.221630859375
  1
9
 50
342.00000000000688
 41
0.7
 72
     1
 11
-259.44630456468889
 21
-379.56285006260532
 31
0.0
 73
     1
  0
TEXT
  5
5DF
  8
DATA
 62
     7
 10
-256.54829276973788
 20
-380.77132210169771
 30
0.0
 40
1.221630859375
  1
10
 50
324.00000000000688
 41
0.7
 72
     1
 11
-256.24046959863699
 21
-381.19630456468781
 31
0.0
 73
     1
  0
TEXT
  5
5E0
  8
DATA
 62
     7
 10
-253.815848358887
 20
-383.29881667412059
 30
0.0
 40
1.221630859375
  1
11
 50
306.00000000000688
 41
0.7
 72
     1
 11
-253.69630456468849
 21
-383.74046959863603
 31
0.0
 73
     1
  0
TEXT
  5
5E1
  8
DATA
 62
     7
 10
-252.08410692235071
 20
-386.35377861015257
 30
0.0
 40
1.221630859375
  1
12
 50
288.00000000000699
 41
0.7
 72
     1
 11
-252.0628500626062
 21
-386.94630456468673
 31
0.0
 73
     1
  0
TEXT
  5
5E2
  8
DATA
 62
     7
 10
-251.3371158854163
 20
-389.92990559895691
 30
0.0
 40
1.221630859375
  1
13
 50
270.00000000000688
 41
0.7
 72
     1
 11
-251.4999999999996
 21
-390.49999999999852
 31
0.0
 73
     1
  0
TEXT
  5
5E3
  8
DATA
 62
     7
 10
-259.44630456468889
 20
-404.27541666666662
 30
0.0
 40
2.0360514322916661
  1
PEAK
 41
0.7
 11
-259.44630456468889
 21
-402.23936523437487
 31
0.0
 73
     3
  0
TEXT
  5
5E4
  8
DATA
 62
     7
 10
-274.66288411458328
 20
-390.78504720052081
 30
0.0
 40
1.221630859375
  1
3
 50
90.0
 41
0.7
 72
     1
 11
-274.5
 21
-390.5
 31
0.0
 73
     1
  0
TEXT
  5
5E5
  8
DATA
 62
     7
 10
-274.0039775068098
 20
-394.37512539233887
 30
0.0
 40
1.221630859375
  1
2
 50
108.0
 41
0.7
 72
     1
 11
-273.93714993739428
 21
-394.05369543531202
 31
0.0
 73
     1
  0
TEXT
  5
5E6
  8
DATA
 62
     7
 10
-272.35169818178701
 20
-397.47057529645849
 30
0.0
 40
1.221630859375
  1
1
 50
126.0
 41
0.7
 72
     1
 11
-272.30369543531202
 21
-397.25953040136352
 31
0.0
 73
     1
  0
TEXT
  5
5E7
  8
DATA
 62
     7
 10
-268.92908877298521
 20
-404.24173327072759
 30
0.0
 40
2.0360514322916661
  1
ON
 41
0.7
 72
     2
 11
-266.55369543531151
 21
-402.20568183843591
 31
0.0
 73
     3
  0
TEXT
  5
5E8
  8
DATA
 62
     7
 10
-251.73176920571001
 20
-393.56183739981782
 30
0.0
 40
1.221630859375
  1
14
 50
252.00000000000691
 41
0.7
 72
     1
 11
-252.06285006260529
 21
-394.05369543531202
 31
0.0
 73
     1
  0
TEXT
  5
5E9
  8
DATA
 62
     7
 10
-253.22943546652959
 20
-396.89405522290792
 30
0.0
 40
1.221630859375
  1
15
 50
234.00000000000691
 41
0.7
 72
     1
 11
-253.69630456468809
 21
-397.25953040136392
 31
0.0
 73
     1
  0
TEXT
  5
5EA
  8
DATA
 62
     7
 10
-307.28504720052081
 20
-378.83711588541672
 30
0.0
 40
1.221630859375
  1
8
 41
0.7
 72
     1
 11
-307.0
 21
-379.0
 31
0.0
 73
     1
  0
TEXT
  5
5EB
  8
DATA
 62
     7
 10
-310.87512539233899
 20
-379.4960224931902
 30
0.0
 40
1.221630859375
  1
7
 50
18.0
 41
0.7
 72
     1
 11
-310.55369543531202
 21
-379.56285006260572
 31
0.0
 73
     1
  0
TEXT
  5
5EC
  8
DATA
 62
     7
 10
-314.08587931116858
 20
-381.23207508855029
 30
0.0
 40
1.221630859375
  1
6
 50
36.0
 41
0.7
 72
     1
 11
-313.75953040136352
 21
-381.19630456468849
 31
0.0
 73
     1
  0
TEXT
  5
5ED
  8
DATA
 62
     7
 10
-316.60301799279699
 20
-383.87533674767252
 30
0.0
 40
1.221630859375
  1
5
 50
54.0
 41
0.7
 72
     1
 11
-316.30369543531202
 21
-383.74046959863688
 31
0.0
 73
     1
  0
TEXT
  5
5EE
  8
DATA
 62
     7
 10
-318.18014636512919
 20
-387.16706660267511
 30
0.0
 40
1.221630859375
  1
4
 50
72.0
 41
0.7
 72
     1
 11
-317.93714993739383
 21
-386.94630456468809
 31
0.0
 73
     1
  0
TEXT
  5
5EF
  8
DATA
 62
     7
 10
-303.66706660267602
 20
-379.3198536348699
 30
0.0
 40
1.221630859375
  1
9
 50
342.00000000000688
 41
0.7
 72
     1
 11
-303.44630456468889
 21
-379.56285006260532
 31
0.0
 73
     1
  0
TEXT
  5
5F0
  8
DATA
 62
     7
 10
-300.54829276973783
 20
-380.77132210169771
 30
0.0
 40
1.221630859375
  1
10
 50
324.00000000000688
 41
0.7
 72
     1
 11
-300.24046959863688
 21
-381.19630456468781
 31
0.0
 73
     1
  0
TEXT
  5
5F1
  8
DATA
 62
     7
 10
-297.81584835888702
 20
-383.29881667412059
 30
0.0
 40
1.221630859375
  1
11
 50
306.00000000000688
 41
0.7
 72
     1
 11
-297.69630456468849
 21
-383.74046959863603
 31
0.0
 73
     1
  0
TEXT
  5
5F2
  8
DATA
 62
     7
 10
-296.08410692235083
 20
-386.35377861015257
 30
0.0
 40
1.221630859375
  1
12
 50
288.00000000000699
 41
0.7
 72
     1
 11
-296.06285006260617
 21
-386.94630456468673
 31
0.0
 73
     1
  0
TEXT
  5
5F3
  8
DATA
 62
     7
 10
-295.33711588541632
 20
-389.92990559895691
 30
0.0
 40
1.221630859375
  1
13
 50
270.00000000000688
 41
0.7
 72
     1
 11
-295.4999999999996
 21
-390.49999999999852
 31
0.0
 73
     1
  0
TEXT
  5
5F4
  8
DATA
 62
     7
 10
-303.44630456468889
 20
-404.27541666666662
 30
0.0
 40
2.0360514322916661
  1
PEAK
 41
0.7
 11
-303.44630456468889
 21
-402.23936523437487
 31
0.0
 73
     3
  0
TEXT
  5
5F5
  8
DATA
 62
     7
 10
-318.66288411458328
 20
-390.78504720052081
 30
0.0
 40
1.221630859375
  1
3
 50
90.0
 41
0.7
 72
     1
 11
-318.5
 21
-390.5
 31
0.0
 73
     1
  0
TEXT
  5
5F6
  8
DATA
 62
     7
 10
-318.0039775068098
 20
-394.37512539233887
 30
0.0
 40
1.221630859375
  1
2
 50
108.0
 41
0.7
 72
     1
 11
-317.93714993739428
 21
-394.05369543531202
 31
0.0
 73
     1
  0
TEXT
  5
5F7
  8
DATA
 62
     7
 10
-316.35169818178701
 20
-397.47057529645849
 30
0.0
 40
1.221630859375
  1
1
 50
126.0
 41
0.7
 72
     1
 11
-316.30369543531202
 21
-397.25953040136352
 31
0.0
 73
     1
  0
TEXT
  5
5F8
  8
DATA
 62
     7
 10
-312.9290887729851
 20
-404.24173327072759
 30
0.0
 40
2.0360514322916661
  1
ON
 41
0.7
 72
     2
 11
-310.55369543531151
 21
-402.20568183843591
 31
0.0
 73
     3
  0
TEXT
  5
5F9
  8
DATA
 62
     7
 10
-295.7317692057099
 20
-393.56183739981782
 30
0.0
 40
1.221630859375
  1
14
 50
252.00000000000691
 41
0.7
 72
     1
 11
-296.06285006260532
 21
-394.05369543531202
 31
0.0
 73
     1
  0
TEXT
  5
5FA
  8
DATA
 62
     7
 10
-297.22943546652959
 20
-396.89405522290792
 30
0.0
 40
1.221630859375
  1
15
 50
234.00000000000691
 41
0.7
 72
     1
 11
-297.69630456468809
 21
-397.25953040136392
 31
0.0
 73
     1
  0
TEXT
  5
5FB
  8
DATA
 62
     7
 10
-309.59392952473962
 20
-412.42523600260409
 30
0.0
 40
2.8504720052083332
  1
IN 1
 41
0.7
 72
     1
 11
-307.0
 21
-411.0
 31
0.0
 73
     2
  0
TEXT
  5
5FC
  8
DATA
 62
     7
 10
-265.92648459201388
 20
-412.42523600260409
 30
0.0
 40
2.8504720052083332
  1
IN 2
 41
0.7
 72
     1
 11
-263.0
 21
-411.0
 31
0.0
 73
     2
  0
TEXT
  5
5FD
  8
DATA
 62
     7
 10
-221.92648459201391
 20
-412.42523600260409
 30
0.0
 40
2.8504720052083332
  1
IN 3
 41
0.7
 72
     1
 11
-219.0
 21
-411.0
 31
0.0
 73
     2
  0
TEXT
  5
5FE
  8
DATA
 62
     7
 10
-177.92648459201379
 20
-412.42523600260409
 30
0.0
 40
2.8504720052083332
  1
IN 4
 41
0.7
 72
     1
 11
-175.0
 21
-411.0
 31
0.0
 73
     2
  0
TEXT
  5
5FF
  8
DATA
 62
     7
 10
-133.92648459201391
 20
-412.42523600260409
 30
0.0
 40
2.8504720052083332
  1
IN 5
 41
0.7
 72
     1
 11
-131.0
 21
-411.0
 31
0.0
 73
     2
  0
TEXT
  5
600
  8
DATA
 62
     7
 10
-89.926484592013878
 20
-412.42523600260409
 30
0.0
 40
2.8504720052083332
  1
IN 6
 41
0.7
 72
     1
 11
-87.0
 21
-411.0
 31
0.0
 73
     2
  0
TEXT
  5
601
  8
DATA
 62
     7
 10
-43.235691677517359
 20
-415.92523600260409
 30
0.0
 40
2.8504720052083332
  1
SYSTEM CONTROL
 41
0.7
 72
     1
 11
-30.0
 21
-414.5
 31
0.0
 73
     2
  0
TEXT
  5
602
  8
DATA
 62
     7
 10
-24.075664600613891
 20
-410.59588816919239
 30
0.0
 40
2.0360514322916661
  1
 REMOTE CONTROL
 41
0.7
 11
-24.075664600613891
 21
-409.57786245304658
 31
0.0
 73
     2
  0
TEXT
  5
603
  8
DATA
 62
     7
 10
-16.689265851301109
 20
-402.51802571614559
 30
0.0
 40
2.0360514322916661
  1
 B
 41
0.7
 11
-16.689265851301109
 21
-401.49999999999972
 31
0.0
 73
     2
  0
TEXT
  5
604
  8
DATA
 62
     7
 10
-17.488944636232191
 20
-406.51802571614559
 30
0.0
 40
2.0360514322916661
  1
 C
 41
0.7
 11
-17.488944636232191
 21
-405.49999999999972
 31
0.0
 73
     2
  0
TEXT
  5
605
  8
DATA
 62
     7
 10
-16.5
 20
-398.51802571614542
 30
0.0
 40
2.0360514322916661
  1
 A
 41
0.7
 11
-16.5
 21
-397.4999999999996
 31
0.0
 73
     2
  0
TEXT
  5
606
  8
DATA
 62
     7
 10
-16.689265851300661
 20
-394.51802571614581
 30
0.0
 40
2.0360514322916661
  1
 ROUTING TO REC
 41
0.7
 11
-16.689265851300661
 21
-393.5
 31
0.0
 73
     2
  0
TEXT
  5
607
  8
DATA
 62
     7
 10
-17.488944636231729
 20
-390.51802571614581
 30
0.0
 40
2.0360514322916661
  1
 ROUTING TO OUT
 41
0.7
 11
-17.488944636231729
 21
-389.5
 31
0.0
 73
     2
  0
TEXT
  5
608
  8
DATA
 62
     7
 10
-19.644760927938929
 20
-387.01802571614581
 30
0.0
 40
2.0360514322916661
  1
 DELAY
 41
0.7
 11
-19.644760927938929
 21
-386.0
 31
0.0
 73
     2
  0
TEXT
  5
609
  8
DATA
 62
     7
 10
-23.463744708390092
 20
-383.01802571614581
 30
0.0
 40
2.0360514322916661
  1
 PAN/BALANCE
 41
0.7
 11
-23.463744708390092
 21
-382.0
 31
0.0
 73
     2
  0
TEXT
  5
60A
  8
DATA
 62
     7
 10
-51.693599584144629
 20
-383.01802571614581
 30
0.0
 40
2.0360514322916661
  1
AUTOMIXING 
 41
0.7
 72
     2
 11
-37.536255291609912
 21
-382.0
 31
0.0
 73
     2
  0
TEXT
  5
60B
  8
DATA
 62
     7
 10
-35.117528579513817
 20
-381.50474105929419
 30
0.0
 40
2.0360514322916661
  1
PRIORITY
 41
0.7
 72
     1
 11
-30.129202570399229
 21
-381.77621458359971
 31
0.0
 73
     1
  0
TEXT
  5
60C
  8
DATA
 62
     7
 10
-56.462740699665218
 20
-387.01802571614581
 30
0.0
 40
2.0360514322916661
  1
COMPRESSOR 
 41
0.7
 72
     2
 11
-41.355239072061053
 21
-386.0
 31
0.0
 73
     2
  0
TEXT
  5
60D
  8
DATA
 62
     7
 10
-53.392691648490469
 20
-390.51802571614581
 30
0.0
 40
2.0360514322916661
  1
LIMITER 
 41
0.7
 72
     2
 11
-43.51105536376825
 21
-389.5
 31
0.0
 73
     2
  0
TEXT
  5
60E
  8
DATA
 62
     7
 10
-55.047512034984052
 20
-394.51802571614581
 30
0.0
 40
2.0360514322916661
  1
LOW CUT 
 41
0.7
 72
     2
 11
-44.310734148699332
 21
-393.5
 31
0.0
 73
     2
  0
TEXT
  5
60F
  8
DATA
 62
     7
 10
-51.056085611979171
 20
-398.51802571614542
 30
0.0
 40
2.0360514322916661
  1
BASS 
 41
0.7
 72
     2
 11
-44.5
 21
-397.4999999999996
 31
0.0
 73
     2
  0
TEXT
  5
610
  8
DATA
 62
     7
 10
-53.717291765886387
 20
-402.51802571614559
 30
0.0
 40
2.0360514322916661
  1
TREBLE 
 41
0.7
 72
     2
 11
-44.310734148698877
 21
-401.49999999999972
 31
0.0
 73
     2
  0
TEXT
  5
611
  8
DATA
 62
     7
 10
-51.96745564588587
 20
-406.51802571614559
 30
0.0
 40
2.0360514322916661
  1
LEVEL 
 41
0.7
 72
     2
 11
-43.511055363767809
 21
-405.49999999999972
 31
0.0
 73
     2
  0
TEXT
  5
612
  8
DATA
 62
     7
 10
-46.33089301657359
 20
-410.59588816919239
 30
0.0
 40
2.0360514322916661
  1
LOCKED 
 41
0.7
 72
     2
 11
-36.924335399386109
 21
-409.57786245304658
 31
0.0
 73
     2
  0
TEXT
  5
613
  8
DATA
 62
     7
 10
38.339559461805557
 20
-405.18558333333323
 30
0.0
 40
2.8504720052083332
  1
OUT
 41
0.7
 72
     1
 11
41.0
 21
-402.33511132812492
 31
0.0
 73
     3
  0
TEXT
  5
614
  8
DATA
 62
     7
 10
58.353568250868051
 20
-405.18558333333323
 30
0.0
 40
2.8504720052083332
  1
HEADPHONE
 41
0.7
 72
     1
 11
67.0
 21
-402.33511132812492
 31
0.0
 73
     3
  0
TEXT
  5
615
  8
DATA
 62
     7
 10
31.537381998697921
 20
-411.90721028645828
 30
0.0
 40
0.8144205729166667
  1
-50
 41
0.7
 72
     1
 11
32.25
 21
-411.5
 31
0.0
 73
     2
  0
TEXT
  5
616
  8
DATA
 62
     7
 10
34.037381998697917
 20
-411.90721028645828
 30
0.0
 40
0.8144205729166667
  1
-40
 41
0.7
 72
     1
 11
34.75
 21
-411.5
 31
0.0
 73
     2
  0
TEXT
  5
617
  8
DATA
 62
     7
 10
36.537381998697917
 20
-411.90721028645828
 30
0.0
 40
0.8144205729166667
  1
-30
 41
0.7
 72
     1
 11
37.25
 21
-411.5
 31
0.0
 73
     2
  0
TEXT
  5
618
  8
DATA
 62
     7
 10
39.037381998697917
 20
-411.90721028645828
 30
0.0
 40
0.8144205729166667
  1
-20
 41
0.7
 72
     1
 11
39.75
 21
-411.5
 31
0.0
 73
     2
  0
TEXT
  5
619
  8
DATA
 62
     7
 10
41.632397732204858
 20
-411.90721028645828
 30
0.0
 40
0.8144205729166667
  1
-10
 41
0.7
 72
     1
 11
42.25
 21
-411.5
 31
0.0
 73
     2
  0
TEXT
  5
61A
  8
DATA
 62
     7
 10
44.274921332465269
 20
-411.90721028645828
 30
0.0
 40
0.8144205729166667
  1
-5
 41
0.7
 72
     1
 11
44.75
 21
-411.5
 31
0.0
 73
     2
  0
TEXT
  5
61B
  8
DATA
 62
     7
 10
47.107476399739582
 20
-411.90721028645828
 30
0.0
 40
0.8144205729166667
  1
0
 41
0.7
 72
     1
 11
47.25
 21
-411.5
 31
0.0
 73
     2
  0
TEXT
  5
61C
  8
DATA
 62
     7
 10
49.274921332465269
 20
-411.90721028645828
 30
0.0
 40
0.8144205729166667
  1
+5
 41
0.7
 72
     1
 11
49.75
 21
-411.5
 31
0.0
 73
     2
  0
TEXT
  5
61D
  8
DATA
 62
     7
 10
51.774921332465269
 20
-411.90721028645828
 30
0.0
 40
0.8144205729166667
  1
dB
 41
0.7
 72
     1
 11
52.25
 21
-411.5
 31
0.0
 73
     2
  0
TEXT
  5
61E
  8
DATA
 62
     7
 10
52.059968532986112
 20
-409.40721028645828
 30
0.0
 40
0.8144205729166667
  1
L
 41
0.7
 72
     1
 11
52.25
 21
-409.0
 31
0.0
 73
     2
  0
TEXT
  5
61F
  8
DATA
 62
     7
 10
52.059968532986112
 20
-414.40721028645828
 30
0.0
 40
0.8144205729166667
  1
R
 41
0.7
 72
     1
 11
52.25
 21
-414.0
 31
0.0
 73
     2
  0
TEXT
  5
620
  8
DATA
 62
     7
 10
66.714952799479164
 20
-378.83711588541672
 30
0.0
 40
1.221630859375
  1
8
 41
0.7
 72
     1
 11
67.0
 21
-379.0
 31
0.0
 73
     1
  0
TEXT
  5
621
  8
DATA
 62
     7
 10
63.124874607661042
 20
-379.4960224931902
 30
0.0
 40
1.221630859375
  1
7
 50
18.0
 41
0.7
 72
     1
 11
63.446304564688042
 21
-379.56285006260572
 31
0.0
 73
     1
  0
TEXT
  5
622
  8
DATA
 62
     7
 10
59.914120688831382
 20
-381.23207508855029
 30
0.0
 40
1.221630859375
  1
6
 50
36.0
 41
0.7
 72
     1
 11
60.240469598636537
 21
-381.19630456468849
 31
0.0
 73
     1
  0
TEXT
  5
623
  8
DATA
 62
     7
 10
57.396982007203007
 20
-383.87533674767252
 30
0.0
 40
1.221630859375
  1
5
 50
54.0
 41
0.7
 72
     1
 11
57.696304564688042
 21
-383.74046959863688
 31
0.0
 73
     1
  0
TEXT
  5
624
  8
DATA
 62
     7
 10
70.332933397323956
 20
-379.3198536348699
 30
0.0
 40
1.221630859375
  1
9
 50
342.00000000000688
 41
0.7
 72
     1
 11
70.553695435311056
 21
-379.56285006260532
 31
0.0
 73
     1
  0
TEXT
  5
625
  8
DATA
 62
     7
 10
73.451707230262144
 20
-380.77132210169771
 30
0.0
 40
1.221630859375
  1
10
 50
324.00000000000688
 41
0.7
 72
     1
 11
73.759530401363023
 21
-381.19630456468781
 31
0.0
 73
     1
  0
TEXT
  5
626
  8
DATA
 62
     7
 10
76.184151641112976
 20
-383.29881667412059
 30
0.0
 40
1.221630859375
  1
11
 50
306.00000000000688
 41
0.7
 72
     1
 11
76.303695435311496
 21
-383.74046959863603
 31
0.0
 73
     1
  0
TEXT
  5
627
  8
DATA
 62
     7
 10
77.915893077649272
 20
-386.35377861015257
 30
0.0
 40
1.221630859375
  1
12
 50
288.00000000000699
 41
0.7
 72
     1
 11
77.93714993739377
 21
-386.94630456468673
 31
0.0
 73
     1
  0
TEXT
  5
628
  8
DATA
 62
     7
 10
78.662884114583719
 20
-389.92990559895691
 30
0.0
 40
1.221630859375
  1
13
 50
270.00000000000688
 41
0.7
 72
     1
 11
78.500000000000455
 21
-390.49999999999852
 31
0.0
 73
     1
  0
TEXT
  5
629
  8
DATA
 62
     7
 10
57.648301818213099
 20
-397.47057529645849
 30
0.0
 40
1.221630859375
  1
1
 50
126.0
 41
0.7
 72
     1
 11
57.696304564688042
 21
-397.25953040136352
 31
0.0
 73
     1
  0
TEXT
  5
62A
  8
DATA
 62
     7
 10
78.268230794289948
 20
-393.56183739981782
 30
0.0
 40
1.221630859375
  1
14
 50
252.00000000000691
 41
0.7
 72
     1
 11
77.937149937394679
 21
-394.05369543531202
 31
0.0
 73
     1
  0
TEXT
  5
62B
  8
DATA
 62
     7
 10
76.770564533470335
 20
-396.89405522290792
 30
0.0
 40
1.221630859375
  1
15
 50
234.00000000000691
 41
0.7
 72
     1
 11
76.303695435311965
 21
-397.25953040136392
 31
0.0
 73
     1
  0
TEXT
  5
62C
  8
DATA
 62
     7
 10
40.714952799479157
 20
-378.83711588541672
 30
0.0
 40
1.221630859375
  1
8
 41
0.7
 72
     1
 11
41.0
 21
-379.0
 31
0.0
 73
     1
  0
TEXT
  5
62D
  8
DATA
 62
     7
 10
37.124874607661042
 20
-379.4960224931902
 30
0.0
 40
1.221630859375
  1
7
 50
18.0
 41
0.7
 72
     1
 11
37.446304564688042
 21
-379.56285006260572
 31
0.0
 73
     1
  0
TEXT
  5
62E
  8
DATA
 62
     7
 10
33.914120688831382
 20
-381.23207508855029
 30
0.0
 40
1.221630859375
  1
6
 50
36.0
 41
0.7
 72
     1
 11
34.240469598636537
 21
-381.19630456468849
 31
0.0
 73
     1
  0
TEXT
  5
62F
  8
DATA
 62
     7
 10
31.396982007203
 20
-383.87533674767252
 30
0.0
 40
1.221630859375
  1
5
 50
54.0
 41
0.7
 72
     1
 11
31.696304564688042
 21
-383.74046959863688
 31
0.0
 73
     1
  0
TEXT
  5
630
  8
DATA
 62
     7
 10
29.819853634870839
 20
-387.16706660267511
 30
0.0
 40
1.221630859375
  1
4
 50
72.0
 41
0.7
 72
     1
 11
30.06285006260623
 21
-386.94630456468809
 31
0.0
 73
     1
  0
TEXT
  5
631
  8
DATA
 62
     7
 10
44.332933397323949
 20
-379.3198536348699
 30
0.0
 40
1.221630859375
  1
9
 50
342.00000000000688
 41
0.7
 72
     1
 11
44.553695435311042
 21
-379.56285006260532
 31
0.0
 73
     1
  0
TEXT
  5
632
  8
DATA
 62
     7
 10
47.45170723026213
 20
-380.77132210169771
 30
0.0
 40
1.221630859375
  1
10
 50
324.00000000000688
 41
0.7
 72
     1
 11
47.759530401363001
 21
-381.19630456468781
 31
0.0
 73
     1
  0
TEXT
  5
633
  8
DATA
 62
     7
 10
50.18415164111299
 20
-383.29881667412059
 30
0.0
 40
1.221630859375
  1
11
 50
306.00000000000688
 41
0.7
 72
     1
 11
50.303695435311511
 21
-383.74046959863603
 31
0.0
 73
     1
  0
TEXT
  5
634
  8
DATA
 62
     7
 10
51.915893077649258
 20
-386.35377861015257
 30
0.0
 40
1.221630859375
  1
12
 50
288.00000000000699
 41
0.7
 72
     1
 11
51.937149937393762
 21
-386.94630456468673
 31
0.0
 73
     1
  0
TEXT
  5
635
  8
DATA
 62
     7
 10
29.337115885416669
 20
-390.78504720052081
 30
0.0
 40
1.221630859375
  1
3
 50
90.0
 41
0.7
 72
     1
 11
29.5
 21
-390.5
 31
0.0
 73
     1
  0
TEXT
  5
636
  8
DATA
 62
     7
 10
29.996022493190271
 20
-394.37512539233887
 30
0.0
 40
1.221630859375
  1
2
 50
108.0
 41
0.7
 72
     1
 11
30.062850062605769
 21
-394.05369543531202
 31
0.0
 73
     1
  0
TEXT
  5
637
  8
DATA
 62
     7
 10
31.648301818213099
 20
-397.47057529645849
 30
0.0
 40
1.221630859375
  1
1
 50
126.0
 41
0.7
 72
     1
 11
31.696304564688042
 21
-397.25953040136352
 31
0.0
 73
     1
  0
TEXT
  5
638
  8
DATA
 62
     7
 10
52.268230794289948
 20
-393.56183739981782
 30
0.0
 40
1.221630859375
  1
14
 50
252.00000000000691
 41
0.7
 72
     1
 11
51.937149937394679
 21
-394.05369543531202
 31
0.0
 73
     1
  0
TEXT
  5
639
  8
DATA
 62
     7
 10
50.770564533470363
 20
-396.89405522290792
 30
0.0
 40
1.221630859375
  1
15
 50
234.00000000000691
 41
0.7
 72
     1
 11
50.303695435311973
 21
-397.25953040136392
 31
0.0
 73
     1
  0
TEXT
  5
63A
  8
DATA
 62
     7
 10
237.5
 20
-561.35306500000002
 30
0.0
 40
8.1442057291666661
  1
オートマチックミキサー
 41
0.7
 11
237.5
 21
-553.20885927083327
 31
0.0
 73
     3
  0
ENDSEC
  0
EOF
