  0
SECTION
  2
HEADER
  9
$ACADVER
  1
AC1009
  9
$INSBASE
 10
0.0
 20
0.0
 30
0.0
  9
$EXTMIN
 10
24.990845861601201
 20
5.9532181312715693
 30
-0.0015258207003583
  9
$EXTMAX
 10
475.01449695557181
 20
675.02060093686509
 30
0.0000000349246037
  9
$LIMMIN
 10
0.0
 20
0.0
  9
$LIMMAX
 10
0.0
 20
0.0
  9
$ORTHOMODE
 70
     0
  9
$REGENMODE
 70
     1
  9
$FILLMODE
 70
     1
  9
$QTEXTMODE
 70
     0
  9
$MIRRTEXT
 70
     1
  9
$DRAGMODE
 70
     2
  9
$LTSCALE
 40
12.699999999999999
  9
$OSMODE
 70
   231
  9
$ATTMODE
 70
     1
  9
$TEXTSIZE
 40
0.0
  9
$TRACEWID
 40
1.0
  9
$TEXTSTYLE
  7
STANDARD
  9
$CLAYER
  8
DATA
  9
$CELTYPE
  6
BYLAYER
  9
$CECOLOR
 62
   256
  9
$DIMSCALE
 40
1.0
  9
$DIMASZ
 40
0.18
  9
$DIMEXO
 40
0.0625
  9
$DIMDLI
 40
0.38
  9
$DIMRND
 40
0.0
  9
$DIMDLE
 40
0.0
  9
$DIMEXE
 40
0.18
  9
$DIMTP
 40
0.0
  9
$DIMTM
 40
0.0
  9
$DIMTXT
 40
0.18
  9
$DIMCEN
 40
0.09
  9
$DIMTSZ
 40
0.0
  9
$DIMTOL
 70
     0
  9
$DIMLIM
 70
     0
  9
$DIMTIH
 70
     1
  9
$DIMTOH
 70
     1
  9
$DIMSE1
 70
     0
  9
$DIMSE2
 70
     0
  9
$DIMTAD
 70
     0
  9
$DIMZIN
 70
     0
  9
$DIMBLK
  1

  9
$DIMASO
 70
     1
  9
$DIMSHO
 70
     1
  9
$DIMPOST
  1

  9
$DIMAPOST
  1

  9
$DIMALT
 70
     0
  9
$DIMALTD
 70
     2
  9
$DIMALTF
 40
25.399999999999999
  9
$DIMLFAC
 40
1.0
  9
$DIMTOFL
 70
     0
  9
$DIMTVP
 40
0.0
  9
$DIMTIX
 70
     0
  9
$DIMSOXD
 70
     0
  9
$DIMSAH
 70
     0
  9
$DIMBLK1
  1

  9
$DIMBLK2
  1

  9
$DIMSTYLE
  2
STANDARD
  9
$DIMCLRD
 70
     0
  9
$DIMCLRE
 70
     0
  9
$DIMCLRT
 70
     0
  9
$DIMTFAC
 40
1.0
  9
$DIMGAP
 40
0.09
  9
$LUNITS
 70
     2
  9
$LUPREC
 70
     4
  9
$SKETCHINC
 40
0.1
  9
$FILLETRAD
 40
0.0
  9
$AUNITS
 70
     0
  9
$AUPREC
 70
     0
  9
$MENU
  1
acad
  9
$ELEVATION
 40
0.0
  9
$PELEVATION
 40
0.0
  9
$THICKNESS
 40
0.0
  9
$LIMCHECK
 70
     0
  9
$BLIPMODE
 70
     0
  9
$CHAMFERA
 40
0.0
  9
$CHAMFERB
 40
0.0
  9
$SKPOLY
 70
     0
  9
$TDCREATE
 40
2454998.550381945
  9
$TDUPDATE
 40
2454998.5581796989
  9
$TDINDWG
 40
0.0003068403
  9
$TDUSRTIMER
 40
0.0003068403
  9
$USRTIMER
 70
     1
  9
$ANGBASE
 50
0.0
  9
$ANGDIR
 70
     0
  9
$PDMODE
 70
     1
  9
$PDSIZE
 40
-2.0
  9
$PLINEWID
 40
0.0
  9
$COORDS
 70
     1
  9
$SPLFRAME
 70
     0
  9
$SPLINETYPE
 70
     6
  9
$SPLINESEGS
 70
     8
  9
$ATTDIA
 70
     0
  9
$ATTREQ
 70
     1
  9
$HANDLING
 70
     1
  9
$HANDSEED
  5
5EB
  9
$SURFTAB1
 70
     6
  9
$SURFTAB2
 70
     6
  9
$SURFTYPE
 70
     6
  9
$SURFU
 70
     6
  9
$SURFV
 70
     6
  9
$UCSNAME
  2

  9
$UCSORG
 10
0.0
 20
0.0
 30
0.0
  9
$UCSXDIR
 10
1.0
 20
0.0
 30
0.0
  9
$UCSYDIR
 10
0.0
 20
1.0
 30
0.0
  9
$PUCSNAME
  2

  9
$PUCSORG
 10
0.0
 20
0.0
 30
0.0
  9
$PUCSXDIR
 10
1.0
 20
0.0
 30
0.0
  9
$PUCSYDIR
 10
0.0
 20
1.0
 30
0.0
  9
$USERI1
 70
     0
  9
$USERI2
 70
     0
  9
$USERI3
 70
     0
  9
$USERI4
 70
     0
  9
$USERI5
 70
     0
  9
$USERR1
 40
0.0
  9
$USERR2
 40
0.0
  9
$USERR3
 40
0.0
  9
$USERR4
 40
0.0
  9
$USERR5
 40
0.0
  9
$WORLDVIEW
 70
     1
  9
$SHADEDGE
 70
     3
  9
$SHADEDIF
 70
    70
  9
$TILEMODE
 70
     1
  9
$MAXACTVP
 70
    64
  9
$PLIMCHECK
 70
     0
  9
$PEXTMIN
 10
1.0000000000000000E+020
 20
1.0000000000000000E+020
 30
1.0000000000000000E+020
  9
$PEXTMAX
 10
-1.0000000000000000E+020
 20
-1.0000000000000000E+020
 30
-1.0000000000000000E+020
  9
$PLIMMIN
 10
0.0
 20
0.0
  9
$PLIMMAX
 10
12.0
 20
9.0
  9
$UNITMODE
 70
     0
  9
$VISRETAIN
 70
     0
  9
$PLINEGEN
 70
     1
  9
$PSLTSCALE
 70
     0
  0
ENDSEC
  0
SECTION
  2
TABLES
  0
TABLE
  2
VPORT
 70
     1
  0
VPORT
  2
*ACTIVE
 70
     0
 10
0.0
 20
0.0
 11
1.0
 21
1.0
 12
250.00267140858659
 22
340.48690953406827
 13
0.0
 23
0.0
 14
1.0
 24
1.0
 15
0.0
 25
0.0
 16
0.0
 26
0.0
 36
1.0
 17
0.0
 27
0.0
 37
0.0
 40
673.993032249561
 41
1.961916461916462
 42
50.0
 43
0.0
 44
0.0
 50
0.0
 51
0.0
 71
     0
 72
  2000
 73
     1
 74
     1
 75
     0
 76
     0
 77
     0
 78
     0
  0
ENDTAB
  0
TABLE
  2
LTYPE
 70
    11
  0
LTYPE
  2
CONTINUOUS
 70
     0
  3
Solid line
 72
    65
 73
     0
 40
0.0
  0
LTYPE
  2
STYLE_05
 70
     0
  3

 72
    65
 73
     2
 40
0.208282470703125
 49
0.069427490234375
 49
-0.13885498046875
  0
ENDTAB
  0
TABLE
  2
LAYER
 70
     6
  0
LAYER
  2
0
 70
     0
 62
     7
  6
CONTINUOUS
  0
LAYER
  2
DATA
 70
     0
 62
     7
  6
CONTINUOUS
  0
LAYER
  2
HIBINO-BASE
 70
     0
 62
     7
  6
CONTINUOUS
  0
LAYER
  2
PATTERN_FILL
 70
     0
 62
     7
  6
CONTINUOUS
  0
LAYER
  2
SPEC
 70
     0
 62
     7
  6
CONTINUOUS
  0
LAYER
  2
DIMNSIONS
 70
     0
 62
     7
  6
CONTINUOUS
  0
ENDTAB
  0
TABLE
  2
STYLE
 70
     3
  0
STYLE
  2
STANDARD
 70
     0
 40
0.0
 41
1.0
 50
0.0
 71
     0
 42
0.0
  3
txt
  4
BIGFONT.SHX
  0
ENDTAB
  0
TABLE
  2
VIEW
 70
     0
  0
ENDTAB
  0
TABLE
  2
UCS
 70
     0
  0
ENDTAB
  0
TABLE
  2
APPID
 70
     3
  0
APPID
  2
ACAD
 70
     0
  0
APPID
  2
ACADANNOTATIVE
 70
     0
  0
APPID
  2
ACAD_MLEADERVER
 70
     0
  0
ENDTAB
  0
TABLE
  2
DIMSTYLE
 70
     2
  0
DIMSTYLE
  2
STANDARD
 70
     0
  3

  4

  5

  6

  7

 40
1.0
 41
0.18
 42
0.0625
 43
0.38
 44
0.18
 45
0.0
 46
0.0
 47
0.0
 48
0.0
140
0.18
141
0.09
142
0.0
143
25.399999999999999
144
1.0
145
0.0
146
1.0
147
0.09
 71
     0
 72
     0
 73
     1
 74
     1
 75
     0
 76
     0
 77
     0
 78
     0
170
     0
171
     2
172
     0
173
     0
174
     0
175
     0
176
     0
177
     0
178
     0
  0
ENDTAB
  0
ENDSEC
  0
SECTION
  2
BLOCKS
  0
BLOCK
  8
0
  2
$MODEL_SPACE
 70
     0
 10
0.0
 20
0.0
 30
0.0
  3
$MODEL_SPACE
  1

  0
ENDBLK
  5
52C
  8
0
  0
BLOCK
 67
     1
  8
0
  2
$PAPER_SPACE
 70
     0
 10
0.0
 20
0.0
 30
0.0
  3
$PAPER_SPACE
  1

  0
ENDBLK
  5
528
 67
     1
  8
0
  0
ENDSEC
  0
SECTION
  2
ENTITIES
  0
LINE
  5
2D
  8
HIBINO-BASE
  6
CONTINUOUS
 62
     7
 10
25.0
 20
675.0
 30
0.0
 11
475.0
 21
675.0
 31
0.0
  0
LINE
  5
2E
  8
HIBINO-BASE
  6
CONTINUOUS
 62
     7
 10
475.0
 20
25.0
 30
0.0
 11
25.0
 21
25.0
 31
0.0
  0
LINE
  5
2F
  8
HIBINO-BASE
  6
CONTINUOUS
 62
     7
 10
25.0
 20
25.0
 30
0.0
 11
25.0
 21
675.0
 31
0.0
  0
TEXT
  5
30
  8
HIBINO-BASE
 62
     7
 10
42.960000000000008
 20
8.9783055000000491
 30
0.0
 40
9.0001104492187487
  1
Hibino Corporation
 41
0.7
 11
42.960000000000008
 21
17.9784159492188
 31
0.0
 73
     3
  0
LINE
  5
31
  8
HIBINO-BASE
  6
CONTINUOUS
 62
     7
 10
475.0
 20
675.0
 30
0.0
 11
475.0
 21
25.0
 31
0.0
  0
LINE
  5
32
  8
HIBINO-BASE
  6
CONTINUOUS
 62
     7
 10
250.0
 20
81.250000000000057
 30
0.0
 11
475.0
 21
81.250000000000057
 31
0.0
  0
LINE
  5
33
  8
HIBINO-BASE
  6
CONTINUOUS
 62
     7
 10
250.0
 20
25.0
 30
0.0
 11
250.0
 21
81.250000000000057
 31
0.0
  0
TEXT
  5
34
  8
HIBINO-BASE
 62
     7
 10
252.25
 20
74.978266666666713
 30
0.0
 40
4.072102864583333
  1
NOTE
 41
0.7
 11
252.25
 21
79.050369531250041
 31
0.0
 73
     3
  0
LINE
  5
35
  8
HIBINO-BASE
  6
CONTINUOUS
 62
     7
 10
337.5
 20
25.0
 30
0.0
 11
337.5
 21
81.250000000000057
 31
0.0
  0
TEXT
  5
36
  8
HIBINO-BASE
 62
     7
 10
339.75
 20
74.978266666666713
 30
0.0
 40
4.072102864583333
  1
TITLE
 41
0.7
 11
339.75
 21
79.050369531250041
 31
0.0
 73
     3
  0
TEXT
  5
37
  8
HIBINO-BASE
 62
     7
 10
375.170975
 20
8.9783055000000491
 30
0.0
 40
9.0001104492187487
  1
ヒビノ株式会社
 41
0.7
 11
375.170975
 21
17.9784159492188
 31
0.0
 73
     3
  0
LINE
  5
38
  8
HIBINO-BASE
  6
CONTINUOUS
 62
     7
 10
250.0
 20
50.000000000000071
 30
0.0
 11
475.0
 21
50.000000000000071
 31
0.0
  0
TEXT
  5
39
  8
HIBINO-BASE
 62
     7
 10
371.0
 20
43.869066666666733
 30
0.0
 40
4.072102864583333
  1
DRAWN
 41
0.7
 11
371.0
 21
47.941169531250068
 31
0.0
 73
     3
  0
TEXT
  5
3A
  8
HIBINO-BASE
 62
     7
 10
308.5
 20
43.869066666666733
 30
0.0
 40
4.072102864583333
  1
DATE
 41
0.7
 11
308.5
 21
47.941169531250068
 31
0.0
 73
     3
  0
TEXT
  5
3B
  8
HIBINO-BASE
 62
     7
 10
283.5
 20
43.869066666666733
 30
0.0
 40
4.072102864583333
  1
SCALE
 41
0.7
 11
283.5
 21
47.941169531250068
 31
0.0
 73
     3
  0
TEXT
  5
3C
  8
HIBINO-BASE
 62
     7
 10
339.75
 20
43.869066666666733
 30
0.0
 40
4.072102864583333
  1
DESIGN
 41
0.7
 11
339.75
 21
47.941169531250068
 31
0.0
 73
     3
  0
TEXT
  5
3D
  8
HIBINO-BASE
 62
     7
 10
433.49999999999989
 20
43.869066666666733
 30
0.0
 40
4.072102864583333
  1
DRAWING NO.
 41
0.7
 11
433.49999999999989
 21
47.941169531250068
 31
0.0
 73
     3
  0
TEXT
  5
3E
  8
HIBINO-BASE
 62
     7
 10
402.24999999999989
 20
43.869066666666733
 30
0.0
 40
4.072102864583333
  1
CHECK
 41
0.7
 11
402.24999999999989
 21
47.941169531250068
 31
0.0
 73
     3
  0
LINE
  5
3F
  8
HIBINO-BASE
  6
CONTINUOUS
 62
     7
 10
285.9375
 20
28.125
 30
0.0
 11
295.3125
 21
37.50000000000005
 31
0.0
  0
TEXT
  5
40
  8
HIBINO-BASE
 62
     7
 10
284.375
 20
34.727641666666699
 30
0.0
 40
4.072102864583333
  1
1
 41
0.7
 11
284.375
 21
38.799744531250028
 31
0.0
 73
     3
  0
LINE
  5
41
  8
HIBINO-BASE
  6
CONTINUOUS
 62
     7
 10
281.25
 20
25.0
 30
0.0
 11
281.25
 21
50.000000000000071
 31
0.0
  0
LINE
  5
42
  8
HIBINO-BASE
  6
CONTINUOUS
 62
     7
 10
306.25
 20
25.0
 30
0.0
 11
306.25
 21
50.000000000000071
 31
0.0
  0
LINE
  5
43
  8
HIBINO-BASE
  6
CONTINUOUS
 62
     7
 10
368.75
 20
50.000000000000071
 30
0.0
 11
368.75
 21
25.0
 31
0.0
  0
LINE
  5
44
  8
HIBINO-BASE
  6
CONTINUOUS
 62
     7
 10
431.25
 20
50.000000000000071
 30
0.0
 11
431.25
 21
25.0
 31
0.0
  0
LINE
  5
45
  8
HIBINO-BASE
  6
CONTINUOUS
 62
     7
 10
400.0
 20
25.0
 30
0.0
 11
400.0
 21
50.000000000000071
 31
0.0
  0
TEXT
  5
46
  8
HIBINO-BASE
 62
     7
 10
308.39134999999999
 20
32.159116666666677
 30
0.0
 40
4.072102864583333
  1
'09.03.
 41
0.7
 11
308.39134999999999
 21
36.231219531250012
 31
0.0
 73
     3
  0
TEXT
  5
47
  8
HIBINO-BASE
 62
     7
 10
293.75
 20
30.040141666666699
 30
0.0
 40
4.072102864583333
  1
2.5
 41
0.7
 11
293.75
 21
34.112244531250028
 31
0.0
 73
     3
  0
TEXT
  5
48
  8
HIBINO-BASE
 62
     7
 10
372.5145250275865
 20
32.159116666666677
 30
0.0
 40
4.072102864583333
  1
N.Sasaki
 41
0.7
 11
372.5145250275865
 21
36.231219531250012
 31
0.0
 73
     3
  0
TEXT
  5
49
  8
HIBINO-BASE
 62
     7
 10
259.70833333333343
 20
29.940000000000008
 30
0.0
 40
8.1442057291666661
  1
A4
 41
0.7
 11
259.70833333333343
 21
38.084205729166683
 31
0.0
 73
     3
  0
TEXT
  5
4A
  8
HIBINO-BASE
 62
     7
 10
252.39583333333329
 20
43.451362500000052
 30
0.0
 40
4.072102864583333
  1
PAPER SIZE
 41
0.7
 11
252.39583333333329
 21
47.523465364583387
 31
0.0
 73
     3
  0
LINE
  5
4B
  8
PATTERN_FILL
  6
STYLE_05
 62
     7
 10
168.0490732639858
 20
323.30824111340371
 30
0.0
 11
166.02749828516639
 21
321.2866661345841
 31
0.0
  0
LINE
  5
4C
  8
PATTERN_FILL
  6
STYLE_05
 62
     7
 10
171.0618978614666
 20
323.52106571088461
 30
0.0
 11
165.9057591547315
 21
318.36492700414931
 31
0.0
  0
LINE
  5
4D
  8
PATTERN_FILL
  6
STYLE_05
 62
     7
 10
174.03683705901241
 20
323.69600490843061
 30
0.0
 11
165.78402002429681
 21
315.44318787371452
 31
0.0
  0
LINE
  5
4E
  8
PATTERN_FILL
  6
STYLE_05
 62
     7
 10
176.97535912278809
 20
323.83452697220622
 30
0.0
 11
165.662280893862
 21
312.52144874327968
 31
0.0
  0
LINE
  5
4F
  8
PATTERN_FILL
  6
STYLE_05
 62
     7
 10
179.87882598459359
 20
323.93799383401171
 30
0.0
 11
165.5405417634272
 21
309.59970961284489
 31
0.0
  0
LINE
  5
50
  8
PATTERN_FILL
  6
STYLE_05
 62
     7
 10
182.74850369459699
 20
324.00767154401512
 30
0.0
 11
165.41880263299251
 21
306.6779704824101
 31
0.0
  0
LINE
  5
51
  8
PATTERN_FILL
  6
STYLE_05
 62
     7
 10
185.58557158173301
 20
324.04473943115107
 30
0.0
 11
165.29706350255771
 21
303.75623135197532
 31
0.0
  0
LINE
  5
52
  8
PATTERN_FILL
  6
STYLE_05
 62
     7
 10
188.3911303121325
 20
324.05029816155059
 30
0.0
 11
165.1753243721229
 21
300.83449222154047
 31
0.0
  0
LINE
  5
53
  8
PATTERN_FILL
  6
STYLE_05
 62
     7
 10
191.16620900363
 20
324.0253768530481
 30
0.0
 11
165.0535852416881
 21
297.91275309110569
 31
0.0
  0
LINE
  5
54
  8
PATTERN_FILL
  6
STYLE_05
 62
     7
 10
193.91177152826421
 20
323.97093937768233
 30
0.0
 11
164.93184611125329
 21
294.99101396067078
 31
0.0
  0
LINE
  5
55
  8
PATTERN_FILL
  6
STYLE_05
 62
     7
 10
196.6287221134094
 20
323.8878899628275
 30
0.0
 11
164.81010698081849
 21
292.069274830236
 31
0.0
  0
LINE
  5
56
  8
PATTERN_FILL
  6
STYLE_05
 62
     7
 10
199.3179103347764
 20
323.77707818419452
 30
0.0
 11
164.6883678503838
 21
289.1475356998011
 31
0.0
  0
LINE
  5
57
  8
PATTERN_FILL
  6
STYLE_05
 62
     7
 10
201.9801355801923
 20
323.63930342961032
 30
0.0
 11
164.56662871994899
 21
286.22579656936642
 31
0.0
  0
LINE
  5
58
  8
PATTERN_FILL
  6
STYLE_05
 62
     7
 10
204.6161510512396
 20
323.47531890065761
 30
0.0
 11
164.4448895895143
 21
283.30405743893169
 31
0.0
  0
LINE
  5
59
  8
PATTERN_FILL
  6
STYLE_05
 62
     7
 10
207.22666735999451
 20
323.28583520941248
 30
0.0
 11
164.3231504590795
 21
280.38231830849679
 31
0.0
  0
LINE
  5
5A
  8
PATTERN_FILL
  6
STYLE_05
 62
     7
 10
208.9104888454624
 20
322.16965669488047
 30
0.0
 11
164.2014113286447
 21
277.46057917806201
 31
0.0
  0
LINE
  5
5B
  8
PATTERN_FILL
  6
STYLE_05
 62
     7
 10
209.03271567647059
 20
319.49188352588851
 30
0.0
 11
164.07967219820981
 21
274.53884004762722
 31
0.0
  0
LINE
  5
5C
  8
PATTERN_FILL
  6
STYLE_05
 62
     7
 10
209.14471567647061
 20
316.80388352588852
 30
0.0
 11
163.95793306777509
 21
271.61710091719237
 31
0.0
  0
LINE
  5
5D
  8
PATTERN_FILL
  6
STYLE_05
 62
     7
 10
209.25671567647049
 20
314.11588352588848
 30
0.0
 11
163.83619393734031
 21
268.69536178675781
 31
0.0
  0
LINE
  5
5E
  8
PATTERN_FILL
  6
STYLE_05
 62
     7
 10
209.3687156764706
 20
311.42788352588838
 30
0.0
 11
163.71445480690559
 21
265.77362265632308
 31
0.0
  0
LINE
  5
5F
  8
PATTERN_FILL
  6
STYLE_05
 62
     7
 10
209.48071567647051
 20
308.73988352588839
 30
0.0
 11
165.8482489391927
 21
265.10741678861041
 31
0.0
  0
LINE
  5
60
  8
PATTERN_FILL
  6
STYLE_05
 62
     7
 10
209.59271567647059
 20
306.05188352588851
 30
0.0
 11
168.4771343244999
 21
264.93630217391762
 31
0.0
  0
LINE
  5
61
  8
PATTERN_FILL
  6
STYLE_05
 62
     7
 10
209.7047156764705
 20
303.36388352588841
 30
0.0
 11
171.12711756079869
 21
264.78628541021641
 31
0.0
  0
LINE
  5
62
  8
PATTERN_FILL
  6
STYLE_05
 62
     7
 10
209.81671567647049
 20
300.67588352588831
 30
0.0
 11
173.7986834344743
 21
264.65785128389211
 31
0.0
  0
LINE
  5
63
  8
PATTERN_FILL
  6
STYLE_05
 62
     7
 10
209.9287156764706
 20
297.98788352588832
 30
0.0
 11
176.4923404651278
 21
264.55150831454569
 31
0.0
  0
LINE
  5
64
  8
PATTERN_FILL
  6
STYLE_05
 62
     7
 10
210.0407156764706
 20
295.29988352588828
 30
0.0
 11
179.2086225370692
 21
264.46779038648708
 31
0.0
  0
LINE
  5
65
  8
PATTERN_FILL
  6
STYLE_05
 62
     7
 10
210.15271567647059
 20
292.61188352588817
 30
0.0
 11
181.94809067956359
 21
264.40725852898152
 31
0.0
  0
LINE
  5
66
  8
PATTERN_FILL
  6
STYLE_05
 62
     7
 10
210.26471567647059
 20
289.92388352588819
 30
0.0
 11
184.71133501278001
 21
264.3705028621979
 31
0.0
  0
LINE
  5
67
  8
PATTERN_FILL
  6
STYLE_05
 62
     7
 10
210.3767156764705
 20
287.2358835258882
 30
0.0
 11
187.4927156764704
 21
264.35188352588841
 31
0.0
  0
LINE
  5
68
  8
PATTERN_FILL
  6
STYLE_05
 62
     7
 10
210.4887156764706
 20
284.54788352588821
 30
0.0
 11
190.31167117915641
 21
264.37083902857432
 31
0.0
  0
LINE
  5
69
  8
PATTERN_FILL
  6
STYLE_05
 62
     7
 10
210.6007156764706
 20
281.85988352588822
 30
0.0
 11
193.1501089456481
 21
264.40927679506598
 31
0.0
  0
LINE
  5
6A
  8
PATTERN_FILL
  6
STYLE_05
 62
     7
 10
210.71271567647059
 20
279.17188352588812
 30
0.0
 11
196.01502017065599
 21
264.474188020074
 31
0.0
  0
LINE
  5
6B
  8
PATTERN_FILL
  6
STYLE_05
 62
     7
 10
210.8247156764705
 20
276.48388352588807
 30
0.0
 11
198.90717693281161
 21
264.56634478222941
 31
0.0
  0
LINE
  5
6C
  8
PATTERN_FILL
  6
STYLE_05
 62
     7
 10
210.9367156764705
 20
273.79588352588809
 30
0.0
 11
201.82739685476699
 21
264.68656470418489
 31
0.0
  0
LINE
  5
6D
  8
PATTERN_FILL
  6
STYLE_05
 62
     7
 10
211.04871567647061
 20
271.10788352588821
 30
0.0
 11
204.776546937982
 21
264.8357147873997
 31
0.0
  0
LINE
  5
6E
  8
PATTERN_FILL
  6
STYLE_05
 62
     7
 10
211.16071567647049
 20
268.41988352588822
 30
0.0
 11
207.75554782602401
 21
265.01471567544172
 31
0.0
  0
LINE
  5
6F
  8
PATTERN_FILL
  6
STYLE_05
 62
     7
 10
205.855903145723
 20
323.38869605663621
 30
0.0
 11
209.00141132864451
 21
320.24318787371448
 31
0.0
  0
LINE
  5
70
  8
PATTERN_FILL
  6
STYLE_05
 62
     7
 10
202.85678476228361
 20
323.58781444007559
 30
0.0
 11
209.12315045907931
 21
317.32144874327969
 31
0.0
  0
LINE
  5
71
  8
PATTERN_FILL
  6
STYLE_05
 62
     7
 10
199.89501447381329
 20
323.74958472854581
 30
0.0
 11
209.24488958951409
 21
314.3997096128449
 31
0.0
  0
LINE
  5
72
  8
PATTERN_FILL
  6
STYLE_05
 62
     7
 10
196.9691632809384
 20
323.87543592142077
 30
0.0
 11
209.36662871994881
 21
311.47797048241011
 31
0.0
  0
LINE
  5
73
  8
PATTERN_FILL
  6
STYLE_05
 62
     7
 10
194.07790462364301
 20
323.96669457871599
 30
0.0
 11
209.48836785038361
 21
308.55623135197533
 31
0.0
  0
LINE
  5
74
  8
PATTERN_FILL
  6
STYLE_05
 62
     7
 10
191.22000441427329
 20
324.02459478808572
 30
0.0
 11
209.61010698081839
 21
305.63449222154048
 31
0.0
  0
LINE
  5
75
  8
PATTERN_FILL
  6
STYLE_05
 62
     7
 10
188.39431229072451
 20
324.05028691163449
 30
0.0
 11
209.73184611125319
 21
302.7127530911057
 31
0.0
  0
LINE
  5
76
  8
PATTERN_FILL
  6
STYLE_05
 62
     7
 10
185.59975391179611
 20
324.04484529056288
 30
0.0
 11
209.85358524168799
 21
299.7910139606708
 31
0.0
  0
LINE
  5
77
  8
PATTERN_FILL
  6
STYLE_05
 62
     7
 10
182.83532414663179
 20
324.00927505572719
 30
0.0
 11
209.9753243721228
 21
296.86927483023601
 31
0.0
  0
LINE
  5
78
  8
PATTERN_FILL
  6
STYLE_05
 62
     7
 10
180.1000810344328
 20
323.94451816792628
 30
0.0
 11
210.09706350255749
 21
293.94753569980128
 31
0.0
  0
LINE
  5
79
  8
PATTERN_FILL
  6
STYLE_05
 62
     7
 10
177.39314041041419
 20
323.85145879194482
 30
0.0
 11
210.21880263299229
 21
291.02579656936638
 31
0.0
  0
LINE
  5
7A
  8
PATTERN_FILL
  6
STYLE_05
 62
     7
 10
174.71367111020999
 20
323.73092809214899
 30
0.0
 11
210.3405417634271
 21
288.10405743893159
 31
0.0
  0
LINE
  5
7B
  8
PATTERN_FILL
  6
STYLE_05
 62
     7
 10
172.06089067829299
 20
323.58370852406603
 30
0.0
 11
210.4622808938619
 21
285.1823183084968
 31
0.0
  0
LINE
  5
7C
  8
PATTERN_FILL
  6
STYLE_05
 62
     7
 10
169.43406151705781
 20
323.41053768530151
 30
0.0
 11
210.58402002429671
 21
282.2605791780619
 31
0.0
  0
LINE
  5
7D
  8
PATTERN_FILL
  6
STYLE_05
 62
     7
 10
166.88350120256089
 20
323.16109799979841
 30
0.0
 11
210.70575915473151
 21
279.33884004762729
 31
0.0
  0
LINE
  5
7E
  8
PATTERN_FILL
  6
STYLE_05
 62
     7
 10
166.02471567647069
 20
321.21988352588852
 30
0.0
 11
210.8274982851662
 21
276.41710091719239
 31
0.0
  0
LINE
  5
7F
  8
PATTERN_FILL
  6
STYLE_05
 62
     7
 10
165.9127156764707
 20
318.53188352588847
 30
0.0
 11
210.949237415601
 21
273.49536178675771
 31
0.0
  0
LINE
  5
80
  8
PATTERN_FILL
  6
STYLE_05
 62
     7
 10
165.8007156764707
 20
315.84388352588849
 30
0.0
 11
211.07097654603569
 21
270.57362265632293
 31
0.0
  0
LINE
  5
81
  8
PATTERN_FILL
  6
STYLE_05
 62
     7
 10
165.68871567647071
 20
313.15588352588838
 30
0.0
 11
211.19271567647061
 21
267.65188352588831
 31
0.0
  0
LINE
  5
82
  8
PATTERN_FILL
  6
STYLE_05
 62
     7
 10
165.57671567647071
 20
310.4678835258884
 30
0.0
 11
210.81625526270719
 21
265.22834393965172
 31
0.0
  0
LINE
  5
83
  8
PATTERN_FILL
  6
STYLE_05
 62
     7
 10
165.46471567647069
 20
307.77988352588829
 30
0.0
 11
208.20068718709169
 21
265.0439120152671
 31
0.0
  0
LINE
  5
84
  8
PATTERN_FILL
  6
STYLE_05
 62
     7
 10
165.35271567647069
 20
305.09188352588842
 30
0.0
 11
205.56432107814641
 21
264.88027812421262
 31
0.0
  0
LINE
  5
85
  8
PATTERN_FILL
  6
STYLE_05
 62
     7
 10
165.2407156764707
 20
302.40388352588832
 30
0.0
 11
202.90668660784209
 21
264.73791259451679
 31
0.0
  0
LINE
  5
86
  8
PATTERN_FILL
  6
STYLE_05
 62
     7
 10
165.1287156764707
 20
299.71588352588827
 30
0.0
 11
200.22729069222359
 21
264.61730851013527
 31
0.0
  0
LINE
  5
87
  8
PATTERN_FILL
  6
STYLE_05
 62
     7
 10
165.01671567647071
 20
297.02788352588823
 30
0.0
 11
197.5256159475417
 21
264.51898325481721
 31
0.0
  0
LINE
  5
88
  8
PATTERN_FILL
  6
STYLE_05
 62
     7
 10
164.90471567647069
 20
294.33988352588818
 30
0.0
 11
194.8011190074462
 21
264.44348019491269
 31
0.0
  0
LINE
  5
89
  8
PATTERN_FILL
  6
STYLE_05
 62
     7
 10
164.79271567647081
 20
291.65188352588819
 30
0.0
 11
192.05322868562021
 21
264.39137051673868
 31
0.0
  0
LINE
  5
8A
  8
PATTERN_FILL
  6
STYLE_05
 62
     7
 10
164.68071567647081
 20
288.96388352588821
 30
0.0
 11
189.28134396611131
 21
264.3632552362476
 31
0.0
  0
LINE
  5
8B
  8
PATTERN_FILL
  6
STYLE_05
 62
     7
 10
164.56871567647079
 20
286.2758835258881
 30
0.0
 11
186.48483180115451
 21
264.35976740120441
 31
0.0
  0
LINE
  5
8C
  8
PATTERN_FILL
  6
STYLE_05
 62
     7
 10
164.45671567647079
 20
283.58788352588817
 30
0.0
 11
183.66302469341679
 21
264.38157450894209
 31
0.0
  0
LINE
  5
8D
  8
PATTERN_FILL
  6
STYLE_05
 62
     7
 10
164.3447156764708
 20
280.89988352588807
 30
0.0
 11
180.81521803624261
 21
264.42938116611629
 31
0.0
  0
LINE
  5
8E
  8
PATTERN_FILL
  6
STYLE_05
 62
     7
 10
164.23271567647069
 20
278.21188352588808
 30
0.0
 11
177.94066718156569
 21
264.50393202079317
 31
0.0
  0
LINE
  5
8F
  8
PATTERN_FILL
  6
STYLE_05
 62
     7
 10
164.12071567647081
 20
275.5238835258881
 30
0.0
 11
175.03858420054121
 21
264.60601500181758
 31
0.0
  0
LINE
  5
90
  8
PATTERN_FILL
  6
STYLE_05
 62
     7
 10
164.00871567647081
 20
272.83588352588811
 30
0.0
 11
172.10813429652009
 21
264.73646490583877
 31
0.0
  0
LINE
  5
91
  8
PATTERN_FILL
  6
STYLE_05
 62
     7
 10
163.89671567647071
 20
270.14788352588818
 30
0.0
 11
169.1484318235558
 21
264.89616737880328
 31
0.0
  0
LINE
  5
92
  8
PATTERN_FILL
  6
STYLE_05
 62
     7
 10
163.7847156764708
 20
267.4598835258883
 30
0.0
 11
166.15853585597969
 21
265.08606334637932
 31
0.0
  0
LINE
  5
93
  8
PATTERN_FILL
  6
STYLE_05
 62
     7
 10
198.4927156764704
 20
165.25188352588989
 30
0.0
 11
176.4927156764704
 21
165.25188352588989
 31
0.0
  0
LINE
  5
94
  8
PATTERN_FILL
  6
STYLE_05
 62
     7
 10
206.81257806703971
 20
207.2518835258897
 30
0.0
 11
168.17285328590151
 21
207.2518835258897
 31
0.0
  0
LINE
  5
95
  8
PATTERN_FILL
  6
STYLE_05
 62
     7
 10
176.4927156764704
 20
167.25188352589009
 30
0.0
 11
176.4927156764704
 21
207.2518835258897
 31
0.0
  0
LINE
  5
96
  8
PATTERN_FILL
  6
STYLE_05
 62
     7
 10
198.4927156764704
 20
207.2518835258897
 30
0.0
 11
198.4927156764704
 21
167.25188352589009
 31
0.0
  0
LINE
  5
97
  8
PATTERN_FILL
  6
STYLE_05
 62
     7
 10
175.9927156764704
 20
165.75188352589001
 30
0.0
 11
175.9927156764704
 21
166.75188352589009
 31
0.0
  0
LINE
  5
98
  8
PATTERN_FILL
  6
STYLE_05
 62
     7
 10
198.9927156764704
 20
166.75188352589009
 30
0.0
 11
198.9927156764704
 21
165.75188352589001
 31
0.0
  0
LINE
  5
99
  8
PATTERN_FILL
  6
STYLE_05
 62
     7
 10
176.4927156764704
 20
167.25188352589009
 30
0.0
 11
198.4927156764704
 21
167.25188352589009
 31
0.0
  0
LINE
  5
9A
  8
PATTERN_FILL
  6
STYLE_05
 62
     7
 10
166.3771186947402
 20
208.92803976098199
 30
0.0
 11
162.49271567647071
 21
265.25188352588827
 31
0.0
  0
LINE
  5
9B
  8
PATTERN_FILL
  6
STYLE_05
 62
     7
 10
208.60831265820099
 20
208.92803976098199
 30
0.0
 11
212.49271567647051
 21
265.25188352588827
 31
0.0
  0
LINE
  5
9C
  8
PATTERN_FILL
  6
STYLE_05
 62
     7
 10
162.49271567647071
 20
265.25188352588827
 30
0.0
 11
164.8961092373884
 21
322.933328987913
 31
0.0
  0
LINE
  5
9D
  8
PATTERN_FILL
  6
STYLE_05
 62
     7
 10
212.49271567647051
 20
265.25188352588827
 30
0.0
 11
210.0893221155529
 21
322.93332898791209
 31
0.0
  0
ARC
  5
9E
  8
PATTERN_FILL
  6
STYLE_05
 62
     7
 10
187.4927156764704
 20
70.688515470329662
 30
0.0
 40
254.5633680555589
 50
85.217696828262703
 51
94.782303171737183
  0
ARC
  5
9F
  8
PATTERN_FILL
  6
STYLE_05
 62
     7
 10
166.3948088470305
 20
322.87088317084448
 30
0.0
 40
1.50000000000364
 50
94.782303171873124
 51
177.6140559696112
  0
ARC
  5
A0
  8
PATTERN_FILL
  6
STYLE_05
 62
     7
 10
208.59062250590981
 20
322.87088317084363
 30
0.0
 40
1.500000000004623
 50
2.3859440303888242
 51
85.217696828086673
  0
LINE
  5
A1
  8
PATTERN_FILL
  6
STYLE_05
 62
     7
 10
163.693231915138
 20
265.26427325390199
 30
0.0
 11
166.05739680319289
 21
322.00423056722173
 31
0.0
  0
LINE
  5
A2
  8
PATTERN_FILL
  6
STYLE_05
 62
     7
 10
211.29219943780339
 20
265.2642732538983
 30
0.0
 11
208.92803454974859
 21
322.0042305672153
 31
0.0
  0
ARC
  5
A3
  8
PATTERN_FILL
  6
STYLE_05
 62
     7
 10
187.4927156764704
 20
69.488515470329617
 30
0.0
 40
254.5633680555589
 50
85.439717953155039
 51
94.560282046844733
  0
ARC
  5
A4
  8
PATTERN_FILL
  6
STYLE_05
 62
     7
 10
167.35626979820481
 20
321.95011085909618
 30
0.0
 40
1.2999999999918881
 50
94.560282046489249
 51
177.614055969611
  0
ARC
  5
A5
  8
PATTERN_FILL
  6
STYLE_05
 62
     7
 10
207.62916155472939
 20
321.95011085908948
 30
0.0
 40
1.299999999999101
 50
2.3859440303887212
 51
85.439717953194275
  0
ARC
  5
A6
  8
PATTERN_FILL
  6
STYLE_05
 62
     7
 10
168.17285328590151
 20
209.05188352588959
 30
0.0
 40
1.799999999999979
 50
183.94518622903789
 51
270.0
  0
ARC
  5
A7
  8
PATTERN_FILL
  6
STYLE_05
 62
     7
 10
206.81257806703971
 20
209.05188352588959
 30
0.0
 40
1.7999999999999541
 50
270.0
 51
356.0548137709622
  0
ARC
  5
A8
  8
PATTERN_FILL
  6
STYLE_05
 62
     7
 10
187.4927156764704
 20
577.35814466552233
 30
0.0
 40
313.00000000000398
 50
265.41877991472307
 51
274.58122008527698
  0
LINE
  5
A9
  8
PATTERN_FILL
  6
STYLE_05
 62
     7
 10
175.0624082707152
 20
264.60506721015798
 30
0.0
 11
176.2062236569821
 21
253.47791786239159
 31
0.0
  0
LINE
  5
AA
  8
PATTERN_FILL
  6
STYLE_05
 62
     7
 10
178.64376981652401
 20
256.7766943759342
 30
0.0
 11
176.64376981652401
 21
258.37669437593428
 31
0.0
  0
LINE
  5
AB
  8
PATTERN_FILL
  6
STYLE_05
 62
     7
 10
178.64376981652401
 20
259.97669437593419
 30
0.0
 11
176.64376981652401
 21
258.37669437593428
 31
0.0
  0
LINE
  5
AC
  8
PATTERN_FILL
  6
STYLE_05
 62
     7
 10
178.64376981652401
 20
256.7766943759342
 30
0.0
 11
178.64376981652401
 21
259.97669437593419
 31
0.0
  0
LINE
  5
AD
  8
PATTERN_FILL
  6
STYLE_05
 62
     7
 10
199.8729159988128
 20
264.6030797345428
 30
0.0
 11
198.72930491511431
 21
253.47791786239159
 31
0.0
  0
LINE
  5
AE
  8
PATTERN_FILL
  6
STYLE_05
 62
     7
 10
196.2917717718633
 20
256.77682099970212
 30
0.0
 11
198.2917717718633
 21
258.37682099970209
 31
0.0
  0
LINE
  5
AF
  8
PATTERN_FILL
  6
STYLE_05
 62
     7
 10
196.2917717718633
 20
259.97682099970211
 30
0.0
 11
198.2917717718633
 21
258.37682099970209
 31
0.0
  0
LINE
  5
B0
  8
PATTERN_FILL
  6
STYLE_05
 62
     7
 10
196.2917717718633
 20
256.77682099970212
 30
0.0
 11
196.2917717718633
 21
259.97682099970211
 31
0.0
  0
ARC
  5
B1
  8
PATTERN_FILL
  6
STYLE_05
 62
     7
 10
176.4927156764704
 20
165.75188352589001
 30
0.0
 40
0.5
 50
180.0
 51
270.0
  0
ARC
  5
B2
  8
PATTERN_FILL
  6
STYLE_05
 62
     7
 10
176.4927156764704
 20
166.75188352589009
 30
0.0
 40
0.5
 50
90.0
 51
180.0
  0
ARC
  5
B3
  8
PATTERN_FILL
  6
STYLE_05
 62
     7
 10
198.4927156764704
 20
166.75188352589009
 30
0.0
 40
0.5
 50
0.0
 51
90.0
  0
ARC
  5
B4
  8
PATTERN_FILL
  6
STYLE_05
 62
     7
 10
198.4927156764704
 20
165.75188352589001
 30
0.0
 40
0.500000000000057
 50
270.0
 51
0.0
  0
ARC
  5
B5
  8
PATTERN_FILL
  6
STYLE_05
 62
     7
 10
187.4927156764704
 20
574.88586033262698
 30
0.0
 40
313.00000000000358
 50
267.77073479977679
 51
272.22008677343359
  0
TEXT
  5
B6
  8
PATTERN_FILL
 62
     7
 10
184.11503539021311
 20
256.62623086352409
 30
0.0
 40
3.3934190538194442
  1
XLS
 41
0.7
 11
184.11503539021311
 21
260.0196499173436
 31
0.0
 73
     3
  0
LINE
  5
B7
  8
PATTERN_FILL
  6
STYLE_05
 62
     7
 10
156.99271567647091
 20
252.00951515898211
 30
0.0
 11
217.99271567647051
 21
252.00951515898211
 31
0.0
  0
ARC
  5
B8
  8
PATTERN_FILL
  6
STYLE_05
 62
     7
 10
187.4927156764704
 20
210.93470208877719
 30
0.0
 40
123.0748130702051
 50
76.609311163382799
 51
103.39068883661319
  0
LINE
  5
B9
  8
PATTERN_FILL
  6
STYLE_05
 62
     7
 10
157.45367453511739
 20
328.76899493053679
 30
0.0
 11
155.5310358721878
 21
253.509515158982
 31
0.0
  0
LINE
  5
BA
  8
PATTERN_FILL
  6
STYLE_05
 62
     7
 10
217.53175681782469
 20
328.76899493050593
 30
0.0
 11
219.4543954807537
 21
253.509515158982
 31
0.0
  0
LINE
  5
BB
  8
PATTERN_FILL
  6
STYLE_05
 62
     7
 10
156.99271567647091
 20
252.00951515898211
 30
0.0
 11
155.53103587218769
 21
253.509515158982
 31
0.0
  0
LINE
  5
BC
  8
PATTERN_FILL
  6
STYLE_05
 62
     7
 10
217.99271567647051
 20
252.00951515898211
 30
0.0
 11
219.4543954807537
 21
253.509515158982
 31
0.0
  0
ARC
  5
BD
  8
PATTERN_FILL
  6
STYLE_05
 62
     7
 10
159.45302221552811
 20
328.71791800092399
 30
0.0
 40
1.999999999975598
 50
103.39068883593499
 51
178.5365946465449
  0
ARC
  5
BE
  8
PATTERN_FILL
  6
STYLE_05
 62
     7
 10
215.53240913737389
 20
328.71791800089198
 30
0.0
 40
2.0000000000157478
 50
1.463405353454956
 51
76.609311162946781
  0
LINE
  5
BF
  8
PATTERN_FILL
  6
STYLE_05
 62
     7
 10
176.1034181836624
 20
254.47801968750329
 30
0.0
 11
198.83211038843399
 21
254.47801968750329
 31
0.0
  0
LINE
  5
C0
  8
PATTERN_FILL
  6
STYLE_05
 62
     7
 10
176.2062236569821
 20
253.47791786239159
 30
0.0
 11
198.7293049151142
 21
253.47791786239159
 31
0.0
  0
CIRCLE
  5
C1
  8
PATTERN_FILL
  6
CONTINUOUS
 62
     7
 10
177.5029514963216
 20
249.47202989683029
 30
0.0
 40
1.5
  0
LINE
  5
C2
  8
PATTERN_FILL
  6
CONTINUOUS
 62
     7
 10
184.19285120512049
 20
249.41553706721359
 30
0.0
 11
184.19285120512049
 21
248.99520791695389
 31
0.0
  0
LINE
  5
C3
  8
PATTERN_FILL
  6
CONTINUOUS
 62
     7
 10
180.79285120512051
 20
248.99520791695389
 30
0.0
 11
180.79285120512051
 21
249.41553706721359
 31
0.0
  0
ARC
  5
C4
  8
PATTERN_FILL
  6
CONTINUOUS
 62
     7
 10
182.4928512051205
 20
249.28632575168331
 30
0.0
 40
1.704903388483066
 50
4.3465035361003652
 51
175.65349646389959
  0
ARC
  5
C5
  8
PATTERN_FILL
  6
CONTINUOUS
 62
     7
 10
182.4928512051205
 20
243.6508656550651
 30
0.0
 40
5.2246714121485454
 50
75.320684267071215
 51
104.6793157329288
  0
LINE
  5
C6
  8
PATTERN_FILL
  6
CONTINUOUS
 62
     7
 10
189.190414117746
 20
249.36874618963509
 30
0.0
 11
189.190414117746
 21
249.2326244047099
 31
0.0
  0
LINE
  5
C7
  8
PATTERN_FILL
  6
CONTINUOUS
 62
     7
 10
185.790414117746
 20
249.2326244047099
 30
0.0
 11
185.790414117746
 21
249.36874618963509
 31
0.0
  0
ARC
  5
C8
  8
PATTERN_FILL
  6
CONTINUOUS
 62
     7
 10
187.49041411774601
 20
249.23953487410481
 30
0.0
 40
1.7049033884830711
 50
4.3465035360993927
 51
175.65349646390061
  0
ARC
  5
C9
  8
PATTERN_FILL
  6
CONTINUOUS
 62
     7
 10
181.0928512051205
 20
248.99520791695389
 30
0.0
 40
0.3000000000000114
 50
180.0
 51
284.67931573292219
  0
ARC
  5
CA
  8
PATTERN_FILL
  6
CONTINUOUS
 62
     7
 10
183.89285120512051
 20
248.99520791695389
 30
0.0
 40
0.2999999999999823
 50
255.32068426707639
 51
0.0
  0
ARC
  5
CB
  8
PATTERN_FILL
  6
CONTINUOUS
 62
     7
 10
187.49041411774601
 20
247.20360653643601
 30
0.0
 40
2.1651396531991982
 50
55.394751612325777
 51
124.60524838767419
  0
ARC
  5
CC
  8
PATTERN_FILL
  6
CONTINUOUS
 62
     7
 10
186.09041411774601
 20
249.2326244047099
 30
0.0
 40
0.3000000000000043
 50
180.0
 51
304.60524838766293
  0
ARC
  5
CD
  8
PATTERN_FILL
  6
CONTINUOUS
 62
     7
 10
188.89041411774599
 20
249.2326244047099
 30
0.0
 40
0.3000000000000255
 50
235.39475161232821
 51
0.0
  0
ARC
  5
CE
  8
PATTERN_FILL
  6
CONTINUOUS
 62
     7
 10
192.4940338481189
 20
249.80015663599181
 30
0.0
 40
1.1500000000000641
 50
292.3099426292186
 51
247.6900573707868
  0
ARC
  5
CF
  8
PATTERN_FILL
  6
CONTINUOUS
 62
     7
 10
192.49403384811899
 20
248.5026846485936
 30
0.0
 40
0.4951086844944261
 50
151.85348682968561
 51
28.146513170320549
  0
CIRCLE
  5
D0
  8
PATTERN_FILL
  6
CONTINUOUS
 62
     7
 10
197.47290812715349
 20
249.9801728994297
 30
0.0
 40
1.0000000000000071
  0
CIRCLE
  5
D1
  8
PATTERN_FILL
  6
CONTINUOUS
 62
     7
 10
197.47290812715349
 20
247.98017289942979
 30
0.0
 40
1.0000000000000071
  0
LINE
  5
D2
  8
PATTERN_FILL
  6
STYLE_05
 62
     7
 10
177.9927156764704
 20
165.25188352588989
 30
0.0
 11
177.9927156764704
 21
167.25188352589009
 31
0.0
  0
LINE
  5
D3
  8
PATTERN_FILL
  6
STYLE_05
 62
     7
 10
196.9927156764704
 20
165.25188352588989
 30
0.0
 11
196.9927156764704
 21
167.25188352589009
 31
0.0
  0
CIRCLE
  5
D4
  8
PATTERN_FILL
  6
STYLE_05
 62
     7
 10
187.4927156764704
 20
293.3062102211133
 30
0.0
 40
16.000000000000089
  0
CIRCLE
  5
D5
  8
PATTERN_FILL
  6
STYLE_05
 62
     7
 10
187.4927156764704
 20
293.3062102211133
 30
0.0
 40
14.50000000000008
  0
LINE
  5
D6
  8
PATTERN_FILL
  6
STYLE_05
 62
     7
 10
312.21424941259971
 20
327.03913344310592
 30
0.0
 11
308.72037370581921
 21
323.54525773632548
 31
0.0
  0
LINE
  5
D7
  8
PATTERN_FILL
  6
STYLE_05
 62
     7
 10
315.01424941259972
 20
327.03913344310592
 30
0.0
 11
308.5428173343476
 21
320.5677013648538
 31
0.0
  0
LINE
  5
D8
  8
PATTERN_FILL
  6
STYLE_05
 62
     7
 10
317.38304529640533
 20
326.60792932691157
 30
0.0
 11
308.36526096287599
 21
317.59014499338218
 31
0.0
  0
LINE
  5
D9
  8
PATTERN_FILL
  6
STYLE_05
 62
     7
 10
317.30238686019129
 20
323.7272708906977
 30
0.0
 11
308.18770459140433
 21
314.61258862191062
 31
0.0
  0
LINE
  5
DA
  8
PATTERN_FILL
  6
STYLE_05
 62
     7
 10
317.22172842397742
 20
320.8466124544837
 30
0.0
 11
308.01014821993272
 21
311.635032250439
 31
0.0
  0
LINE
  5
DB
  8
PATTERN_FILL
  6
STYLE_05
 62
     7
 10
317.14106998776339
 20
317.9659540182696
 30
0.0
 11
307.83259184846111
 21
308.65747587896732
 31
0.0
  0
LINE
  5
DC
  8
PATTERN_FILL
  6
STYLE_05
 62
     7
 10
329.01424941259972
 20
327.03913344310592
 30
0.0
 11
328.47735213541972
 21
326.50223616592598
 31
0.0
  0
LINE
  5
DD
  8
PATTERN_FILL
  6
STYLE_05
 62
     7
 10
317.06041155154941
 20
315.08529558205561
 30
0.0
 11
307.65503547698938
 21
305.6799195074957
 31
0.0
  0
LINE
  5
DE
  8
PATTERN_FILL
  6
STYLE_05
 62
     7
 10
331.81424941259968
 20
327.03913344310592
 30
0.0
 11
328.55361672685939
 21
323.77850075736569
 31
0.0
  0
LINE
  5
DF
  8
PATTERN_FILL
  6
STYLE_05
 62
     7
 10
317.00516086274882
 20
312.2300448932549
 30
0.0
 11
307.47747910551777
 21
302.70236313602408
 31
0.0
  0
LINE
  5
E0
  8
PATTERN_FILL
  6
STYLE_05
 62
     7
 10
334.61424941259958
 20
327.03913344310592
 30
0.0
 11
328.62988131829911
 21
321.0547653488054
 31
0.0
  0
LINE
  5
E1
  8
PATTERN_FILL
  6
STYLE_05
 62
     7
 10
316.89909467912128
 20
309.32397870962762
 30
0.0
 11
307.29992273404628
 21
299.7248067645524
 31
0.0
  0
LINE
  5
E2
  8
PATTERN_FILL
  6
STYLE_05
 62
     7
 10
336.60516086274868
 20
326.23004489325501
 30
0.0
 11
328.70614590973878
 21
318.33102994024512
 31
0.0
  0
LINE
  5
E3
  8
PATTERN_FILL
  6
STYLE_05
 62
     7
 10
316.8184362429073
 20
306.44332027341358
 30
0.0
 11
307.12236636257461
 21
296.74725039308078
 31
0.0
  0
LINE
  5
E4
  8
PATTERN_FILL
  6
STYLE_05
 62
     7
 10
337.11361473611601
 20
323.93849876662222
 30
0.0
 11
328.78241050117862
 21
315.60729453168477
 31
0.0
  0
LINE
  5
E5
  8
PATTERN_FILL
  6
STYLE_05
 62
     7
 10
316.73777780669337
 20
303.56266183719958
 30
0.0
 11
306.94480999110289
 21
293.76969402160921
 31
0.0
  0
LINE
  5
E6
  8
PATTERN_FILL
  6
STYLE_05
 62
     7
 10
337.2711868676451
 20
321.29607089815153
 30
0.0
 11
328.85867509261823
 21
312.88355912312448
 31
0.0
  0
LINE
  5
E7
  8
PATTERN_FILL
  6
STYLE_05
 62
     7
 10
316.65711937047939
 20
300.68200340098559
 30
0.0
 11
306.76725361963122
 21
290.79213765013748
 31
0.0
  0
LINE
  5
E8
  8
PATTERN_FILL
  6
STYLE_05
 62
     7
 10
337.42875899917442
 20
318.65364302968072
 30
0.0
 11
328.93493968405789
 21
310.1598237145642
 31
0.0
  0
LINE
  5
E9
  8
PATTERN_FILL
  6
STYLE_05
 62
     7
 10
316.5764609342653
 20
297.80134496477172
 30
0.0
 11
306.58969724815961
 21
287.8145812786658
 31
0.0
  0
LINE
  5
EA
  8
PATTERN_FILL
  6
STYLE_05
 62
     7
 10
337.58633113070363
 20
316.01121516120992
 30
0.0
 11
329.01120427549762
 21
307.4360883060038
 31
0.0
  0
LINE
  5
EB
  8
PATTERN_FILL
  6
STYLE_05
 62
     7
 10
316.49580249805138
 20
294.92068652855772
 30
0.0
 11
306.412140876688
 21
284.83702490719418
 31
0.0
  0
LINE
  5
EC
  8
PATTERN_FILL
  6
STYLE_05
 62
     7
 10
337.74390326223278
 20
313.36878729273923
 30
0.0
 11
329.08746886693717
 21
304.71235289744362
 31
0.0
  0
LINE
  5
ED
  8
PATTERN_FILL
  6
STYLE_05
 62
     7
 10
316.41514406183751
 20
292.04002809234368
 30
0.0
 11
306.23458450521639
 21
281.85946853572261
 31
0.0
  0
LINE
  5
EE
  8
PATTERN_FILL
  6
STYLE_05
 62
     7
 10
337.90147539376198
 20
310.72635942426842
 30
0.0
 11
329.16373345837701
 21
301.98861748888322
 31
0.0
  0
LINE
  5
EF
  8
PATTERN_FILL
  6
STYLE_05
 62
     7
 10
316.33448562562347
 20
289.15936965612968
 30
0.0
 11
306.05702813374472
 21
278.88191216425099
 31
0.0
  0
LINE
  5
F0
  8
PATTERN_FILL
  6
STYLE_05
 62
     7
 10
338.05904752529119
 20
308.08393155579762
 30
0.0
 11
329.23999804981668
 21
299.26488208032288
 31
0.0
  0
LINE
  5
F1
  8
PATTERN_FILL
  6
STYLE_05
 62
     7
 10
316.25382718940949
 20
286.27871121991569
 30
0.0
 11
305.87947176227311
 21
275.9043557927792
 31
0.0
  0
LINE
  5
F2
  8
PATTERN_FILL
  6
STYLE_05
 62
     7
 10
338.21661965682051
 20
305.44150368732681
 30
0.0
 11
329.31626264125629
 21
296.54114667176259
 31
0.0
  0
LINE
  5
F3
  8
PATTERN_FILL
  6
STYLE_05
 62
     7
 10
316.17316875319551
 20
283.3980527837017
 30
0.0
 11
305.7019153908015
 21
272.92679942130769
 31
0.0
  0
LINE
  5
F4
  8
PATTERN_FILL
  6
STYLE_05
 62
     7
 10
338.37419178834961
 20
302.79907581885612
 30
0.0
 11
329.39252723269601
 21
293.81741126320242
 31
0.0
  0
LINE
  5
F5
  8
PATTERN_FILL
  6
STYLE_05
 62
     7
 10
316.09251031698159
 20
280.5173943474876
 30
0.0
 11
305.52435901932989
 21
269.94924304983613
 31
0.0
  0
LINE
  5
F6
  8
PATTERN_FILL
  6
STYLE_05
 62
     7
 10
338.53176391987893
 20
300.15664795038521
 30
0.0
 11
329.46879182413568
 21
291.09367585464202
 31
0.0
  0
LINE
  5
F7
  8
PATTERN_FILL
  6
STYLE_05
 62
     7
 10
316.01185188076738
 20
277.63673591127372
 30
0.0
 11
306.92207237631789
 21
268.54695640682411
 31
0.0
  0
LINE
  5
F8
  8
PATTERN_FILL
  6
STYLE_05
 62
     7
 10
338.68933605140808
 20
297.51422008191452
 30
0.0
 11
329.54505641557552
 21
288.36994044608173
 31
0.0
  0
LINE
  5
F9
  8
PATTERN_FILL
  6
STYLE_05
 62
     7
 10
315.9311934445534
 20
274.75607747505973
 30
0.0
 11
309.88765514545349
 21
268.71253917595959
 31
0.0
  0
LINE
  5
FA
  8
PATTERN_FILL
  6
STYLE_05
 62
     7
 10
338.84690818293723
 20
294.8717922134436
 30
0.0
 11
329.62132100701518
 21
285.64620503752133
 31
0.0
  0
LINE
  5
FB
  8
PATTERN_FILL
  6
STYLE_05
 62
     7
 10
315.85053500833948
 20
271.87541903884579
 30
0.0
 11
312.81798610831362
 21
268.84287013881982
 31
0.0
  0
LINE
  5
FC
  8
PATTERN_FILL
  6
STYLE_05
 62
     7
 10
339.00448031446649
 20
292.22936434497279
 30
0.0
 11
329.69758559845479
 21
282.92246962896098
 31
0.0
  0
LINE
  5
FD
  8
PATTERN_FILL
  6
STYLE_05
 62
     7
 10
315.7698765721255
 20
268.99476060263169
 30
0.0
 11
315.71434354908467
 21
268.93922757959092
 31
0.0
  0
LINE
  5
FE
  8
PATTERN_FILL
  6
STYLE_05
 62
     7
 10
339.1620524459957
 20
289.5869364765021
 30
0.0
 11
329.7738501898944
 21
280.19873422040069
 31
0.0
  0
LINE
  5
FF
  8
PATTERN_FILL
  6
STYLE_05
 62
     7
 10
339.31962457752502
 20
286.9445086080313
 30
0.0
 11
329.85011478133413
 21
277.47499881184041
 31
0.0
  0
LINE
  5
100
  8
PATTERN_FILL
  6
STYLE_05
 62
     7
 10
339.47719670905428
 20
284.30208073956049
 30
0.0
 11
329.92637937277379
 21
274.75126340328012
 31
0.0
  0
LINE
  5
101
  8
PATTERN_FILL
  6
STYLE_05
 62
     7
 10
339.63476884058338
 20
281.65965287108969
 30
0.0
 11
330.00264396421358
 21
272.02752799471978
 31
0.0
  0
LINE
  5
102
  8
PATTERN_FILL
  6
STYLE_05
 62
     7
 10
339.79234097211258
 20
279.01722500261889
 30
0.0
 11
330.07890855565319
 21
269.30379258615949
 31
0.0
  0
LINE
  5
103
  8
PATTERN_FILL
  6
STYLE_05
 62
     7
 10
339.94991310364168
 20
276.37479713414808
 30
0.0
 11
332.44055582151611
 21
268.86543985202229
 31
0.0
  0
LINE
  5
104
  8
PATTERN_FILL
  6
STYLE_05
 62
     7
 10
340.107485235171
 20
273.73236926567739
 30
0.0
 11
335.12845775574499
 21
268.75334178625133
 31
0.0
  0
LINE
  5
105
  8
PATTERN_FILL
  6
STYLE_05
 62
     7
 10
340.26505736670009
 20
271.08994139720659
 30
0.0
 11
337.79004142335208
 21
268.61492545385852
 31
0.0
  0
LINE
  5
106
  8
PATTERN_FILL
  6
STYLE_05
 62
     7
 10
336.09296610425412
 20
326.74223965174951
 30
0.0
 11
336.7475355981951
 21
326.08767015780859
 31
0.0
  0
LINE
  5
107
  8
PATTERN_FILL
  6
STYLE_05
 62
     7
 10
332.99607231289781
 20
327.03913344310592
 30
0.0
 11
337.1780998966986
 21
322.85710585930508
 31
0.0
  0
LINE
  5
108
  8
PATTERN_FILL
  6
STYLE_05
 62
     7
 10
330.19607231289768
 20
327.03913344310592
 30
0.0
 11
337.35565626817021
 21
319.87954948783329
 31
0.0
  0
LINE
  5
109
  8
PATTERN_FILL
  6
STYLE_05
 62
     7
 10
328.4930339371374
 20
325.94217181886631
 30
0.0
 11
337.53321263964187
 21
316.90199311636172
 31
0.0
  0
LINE
  5
10A
  8
PATTERN_FILL
  6
STYLE_05
 62
     7
 10
328.57369237335138
 20
323.06151338265221
 30
0.0
 11
337.71076901111348
 21
313.92443674489022
 31
0.0
  0
LINE
  5
10B
  8
PATTERN_FILL
  6
STYLE_05
 62
     7
 10
328.65435080956553
 20
320.18085494643839
 30
0.0
 11
337.88832538258521
 21
310.94688037341848
 31
0.0
  0
LINE
  5
10C
  8
PATTERN_FILL
  6
STYLE_05
 62
     7
 10
328.73500924577939
 20
317.30019651022428
 30
0.0
 11
338.06588175405682
 21
307.9693240019468
 31
0.0
  0
LINE
  5
10D
  8
PATTERN_FILL
  6
STYLE_05
 62
     7
 10
316.19607231289802
 20
327.03913344310592
 30
0.0
 11
317.36246015215949
 21
325.87274560384429
 31
0.0
  0
LINE
  5
10E
  8
PATTERN_FILL
  6
STYLE_05
 62
     7
 10
328.81566768199338
 20
314.41953807401018
 30
0.0
 11
338.24343812552843
 21
304.99176763047518
 31
0.0
  0
LINE
  5
10F
  8
PATTERN_FILL
  6
STYLE_05
 62
     7
 10
313.39607231289779
 20
327.03913344310592
 30
0.0
 11
317.28619556071982
 21
323.14901019528401
 31
0.0
  0
LINE
  5
110
  8
PATTERN_FILL
  6
STYLE_05
 62
     7
 10
328.89632611820741
 20
311.5388796377963
 30
0.0
 11
338.42099449699998
 21
302.01421125900362
 31
0.0
  0
LINE
  5
111
  8
PATTERN_FILL
  6
STYLE_05
 62
     7
 10
310.60673767727047
 20
327.02846807873328
 30
0.0
 11
317.20993096927998
 21
320.42527478672372
 31
0.0
  0
LINE
  5
112
  8
PATTERN_FILL
  6
STYLE_05
 62
     7
 10
328.97698455442139
 20
308.65822120158231
 30
0.0
 11
338.5985508684717
 21
299.03665488753199
 31
0.0
  0
LINE
  5
113
  8
PATTERN_FILL
  6
STYLE_05
 62
     7
 10
308.98489653278409
 20
325.85030922321982
 30
0.0
 11
317.13366637784043
 21
317.70153937816337
 31
0.0
  0
LINE
  5
114
  8
PATTERN_FILL
  6
STYLE_05
 62
     7
 10
329.05764299063537
 20
305.77756276536832
 30
0.0
 11
338.7761072399432
 21
296.05909851606032
 31
0.0
  0
LINE
  5
115
  8
PATTERN_FILL
  6
STYLE_05
 62
     7
 10
308.7074063249176
 20
323.32779943108608
 30
0.0
 11
317.0574017864007
 21
314.97780396960309
 31
0.0
  0
LINE
  5
116
  8
PATTERN_FILL
  6
STYLE_05
 62
     7
 10
329.13830142684941
 20
302.89690432915432
 30
0.0
 11
338.95366361141492
 21
293.0815421445887
 31
0.0
  0
LINE
  5
117
  8
PATTERN_FILL
  6
STYLE_05
 62
     7
 10
308.54983419338851
 20
320.68537156261527
 30
0.0
 11
317.00516086274882
 21
312.23004489325501
 31
0.0
  0
LINE
  5
118
  8
PATTERN_FILL
  6
STYLE_05
 62
     7
 10
329.21895986306328
 20
300.01624589294039
 30
0.0
 11
339.13121998288648
 21
290.10398577311707
 31
0.0
  0
LINE
  5
119
  8
PATTERN_FILL
  6
STYLE_05
 62
     7
 10
308.3922620618593
 20
318.04294369414453
 30
0.0
 11
316.90487260352143
 21
309.53033315248251
 31
0.0
  0
LINE
  5
11A
  8
PATTERN_FILL
  6
STYLE_05
 62
     7
 10
329.2996182992772
 20
297.1355874567264
 30
0.0
 11
339.3087763543582
 21
287.1264294016454
 31
0.0
  0
LINE
  5
11B
  8
PATTERN_FILL
  6
STYLE_05
 62
     7
 10
308.23468993032998
 20
315.40051582567372
 30
0.0
 11
316.8286080120817
 21
306.806597743922
 31
0.0
  0
LINE
  5
11C
  8
PATTERN_FILL
  6
STYLE_05
 62
     7
 10
329.38027673549118
 20
294.25492902051241
 30
0.0
 11
339.48633272582993
 21
284.14887303017377
 31
0.0
  0
LINE
  5
11D
  8
PATTERN_FILL
  6
STYLE_05
 62
     7
 10
308.07711779880083
 20
312.75808795720292
 30
0.0
 11
316.75234342064192
 21
304.08286233536182
 31
0.0
  0
LINE
  5
11E
  8
PATTERN_FILL
  6
STYLE_05
 62
     7
 10
329.46093517170539
 20
291.37427058429842
 30
0.0
 11
339.66388909730148
 21
281.17131665870221
 31
0.0
  0
LINE
  5
11F
  8
PATTERN_FILL
  6
STYLE_05
 62
     7
 10
307.91954566727162
 20
310.11566008873223
 30
0.0
 11
316.67607882920231
 21
301.35912692680148
 31
0.0
  0
LINE
  5
120
  8
PATTERN_FILL
  6
STYLE_05
 62
     7
 10
329.54159360791942
 20
288.49361214808442
 30
0.0
 11
339.84144546877309
 21
278.19376028723048
 31
0.0
  0
LINE
  5
121
  8
PATTERN_FILL
  6
STYLE_05
 62
     7
 10
307.76197353574241
 20
307.47323222026142
 30
0.0
 11
316.59981423776259
 21
298.63539151824119
 31
0.0
  0
LINE
  5
122
  8
PATTERN_FILL
  6
STYLE_05
 62
     7
 10
329.62225204413329
 20
285.61295371187032
 30
0.0
 11
340.0190018402447
 21
275.2162039157588
 31
0.0
  0
LINE
  5
123
  8
PATTERN_FILL
  6
STYLE_05
 62
     7
 10
307.60440140421321
 20
304.83080435179062
 30
0.0
 11
316.52354964632292
 21
295.91165610968079
 31
0.0
  0
LINE
  5
124
  8
PATTERN_FILL
  6
STYLE_05
 62
     7
 10
329.70291048034733
 20
282.73229527565638
 30
0.0
 11
340.19655821171631
 21
272.23864754428729
 31
0.0
  0
LINE
  5
125
  8
PATTERN_FILL
  6
STYLE_05
 62
     7
 10
307.446829272684
 20
302.18837648331981
 30
0.0
 11
316.44728505488331
 21
293.18792070112062
 31
0.0
  0
LINE
  5
126
  8
PATTERN_FILL
  6
STYLE_05
 62
     7
 10
329.78356891656131
 20
279.85163683944239
 30
0.0
 11
340.37411458318792
 21
269.26109117281572
 31
0.0
  0
LINE
  5
127
  8
PATTERN_FILL
  6
STYLE_05
 62
     7
 10
307.28925714115468
 20
299.54594861484901
 30
0.0
 11
316.37102046344347
 21
290.46418529256022
 31
0.0
  0
LINE
  5
128
  8
PATTERN_FILL
  6
STYLE_05
 62
     7
 10
329.86422735277529
 20
276.9709784032284
 30
0.0
 11
338.24677852102002
 21
268.58842723498373
 31
0.0
  0
LINE
  5
129
  8
PATTERN_FILL
  6
STYLE_05
 62
     7
 10
307.13168500962553
 20
296.90352074637821
 30
0.0
 11
316.2947558720038
 21
287.74044988399987
 31
0.0
  0
LINE
  5
12A
  8
PATTERN_FILL
  6
STYLE_05
 62
     7
 10
329.94488578898932
 20
274.09031996701441
 30
0.0
 11
335.2894613830498
 21
268.74574437295371
 31
0.0
  0
LINE
  5
12B
  8
PATTERN_FILL
  6
STYLE_05
 62
     7
 10
306.97411287809632
 20
294.26109287790752
 30
0.0
 11
316.21849128056419
 21
285.01671447543958
 31
0.0
  0
LINE
  5
12C
  8
PATTERN_FILL
  6
STYLE_05
 62
     7
 10
330.0255442252033
 20
271.20966153080042
 30
0.0
 11
332.36709238739559
 21
268.86811336860808
 31
0.0
  0
LINE
  5
12D
  8
PATTERN_FILL
  6
STYLE_05
 62
     7
 10
306.81654074656711
 20
291.6186650094366
 30
0.0
 11
316.14222668912453
 21
282.2929790668793
 31
0.0
  0
LINE
  5
12E
  8
PATTERN_FILL
  6
STYLE_05
 62
     7
 10
306.65896861503779
 20
288.97623714096591
 30
0.0
 11
316.0659620976848
 21
279.56924365831901
 31
0.0
  0
LINE
  5
12F
  8
PATTERN_FILL
  6
STYLE_05
 62
     7
 10
306.50139648350859
 20
286.3338092724951
 30
0.0
 11
315.98969750624508
 21
276.84550824975872
 31
0.0
  0
LINE
  5
130
  8
PATTERN_FILL
  6
STYLE_05
 62
     7
 10
306.34382435197938
 20
283.6913814040243
 30
0.0
 11
315.91343291480541
 21
274.12177284119838
 31
0.0
  0
LINE
  5
131
  8
PATTERN_FILL
  6
STYLE_05
 62
     7
 10
306.18625222045023
 20
281.04895353555361
 30
0.0
 11
315.83716832336569
 21
271.39803743263798
 31
0.0
  0
LINE
  5
132
  8
PATTERN_FILL
  6
STYLE_05
 62
     7
 10
306.02868008892108
 20
278.4065256670828
 30
0.0
 11
315.50194854487319
 21
268.93325721113058
 31
0.0
  0
LINE
  5
133
  8
PATTERN_FILL
  6
STYLE_05
 62
     7
 10
305.87110795739181
 20
275.764097798612
 30
0.0
 11
312.7932957009881
 21
268.8419100550156
 31
0.0
  0
LINE
  5
134
  8
PATTERN_FILL
  6
STYLE_05
 62
     7
 10
305.71353582586261
 20
273.12166993014119
 30
0.0
 11
310.11154225286481
 21
268.72366350313888
 31
0.0
  0
LINE
  5
135
  8
PATTERN_FILL
  6
STYLE_05
 62
     7
 10
305.55596369433329
 20
270.47924206167039
 30
0.0
 11
307.45593742815731
 21
268.57926832784648
 31
0.0
  0
LINE
  5
136
  8
PATTERN_FILL
  6
STYLE_05
 62
     7
 10
333.9287190116587
 20
168.23913344310509
 30
0.0
 11
311.92871901165881
 21
168.23913344310509
 31
0.0
  0
LINE
  5
137
  8
PATTERN_FILL
  6
STYLE_05
 62
     7
 10
311.92871901165881
 20
170.23913344310509
 30
0.0
 11
311.92871901165881
 21
210.2391334431058
 31
0.0
  0
LINE
  5
138
  8
PATTERN_FILL
  6
STYLE_05
 62
     7
 10
333.9287190116587
 20
210.2391334431058
 30
0.0
 11
333.9287190116587
 21
170.23913344310509
 31
0.0
  0
LINE
  5
139
  8
PATTERN_FILL
  6
STYLE_05
 62
     7
 10
311.42871901165881
 20
168.73913344310509
 30
0.0
 11
311.42871901165881
 21
169.73913344310509
 31
0.0
  0
LINE
  5
13A
  8
PATTERN_FILL
  6
STYLE_05
 62
     7
 10
311.92871901165881
 20
170.23913344310509
 30
0.0
 11
333.9287190116587
 21
170.23913344310509
 31
0.0
  0
ARC
  5
13B
  8
PATTERN_FILL
  6
STYLE_05
 62
     7
 10
311.92871901165881
 20
168.73913344310509
 30
0.0
 40
0.5
 50
180.0
 51
270.0
  0
ARC
  5
13C
  8
PATTERN_FILL
  6
STYLE_05
 62
     7
 10
311.92871901165881
 20
169.73913344310509
 30
0.0
 40
0.5
 50
90.0
 51
180.0
  0
LINE
  5
13D
  8
PATTERN_FILL
  6
STYLE_05
 62
     7
 10
317.91491497325768
 20
328.23913344310591
 30
0.0
 11
327.94252305005972
 21
328.23913344310591
 31
0.0
  0
LINE
  5
13E
  8
PATTERN_FILL
  6
STYLE_05
 62
     7
 10
308.15293992573521
 20
210.2391334431058
 30
0.0
 11
337.7044980975823
 21
210.2391334431058
 31
0.0
  0
LINE
  5
13F
  8
PATTERN_FILL
  6
STYLE_05
 62
     7
 10
306.35460362270959
 20
211.9617607010056
 30
0.0
 11
303.92871901165881
 21
268.34539458273588
 31
0.0
  0
LINE
  5
140
  8
PATTERN_FILL
  6
STYLE_05
 62
     7
 10
339.50283440060792
 20
211.9617607010056
 30
0.0
 11
341.92871901165847
 21
268.34539458273588
 31
0.0
  0
LINE
  5
141
  8
PATTERN_FILL
  6
STYLE_05
 62
     7
 10
333.9287190116587
 20
170.23913344310509
 30
0.0
 11
333.9287190116587
 21
168.23913344310509
 31
0.0
  0
LINE
  5
142
  8
PATTERN_FILL
  6
STYLE_05
 62
     7
 10
328.42871901165859
 20
170.23913344310509
 30
0.0
 11
328.42871901165859
 21
168.23913344310509
 31
0.0
  0
LINE
  5
143
  8
PATTERN_FILL
  6
STYLE_05
 62
     7
 10
310.81300863376612
 20
327.03913344310592
 30
0.0
 11
317.39511901165878
 21
327.03913344310592
 31
0.0
  0
LINE
  5
144
  8
PATTERN_FILL
  6
STYLE_05
 62
     7
 10
328.46231901165868
 20
327.03913344310592
 30
0.0
 11
335.04442938955151
 21
327.03913344310592
 31
0.0
  0
LINE
  5
145
  8
PATTERN_FILL
  6
STYLE_05
 62
     7
 10
305.43502549504728
 20
268.4511520367729
 30
0.0
 11
308.81655510288368
 21
325.15818510847538
 31
0.0
  0
LINE
  5
146
  8
PATTERN_FILL
  6
STYLE_05
 62
     7
 10
340.42241252827017
 20
268.45115203677329
 30
0.0
 11
337.04088292043377
 21
325.15818510847538
 31
0.0
  0
LINE
  5
147
  8
PATTERN_FILL
  6
STYLE_05
 62
     7
 10
317.73550285805487
 20
265.7391334431058
 30
0.0
 11
328.12193516526253
 21
265.7391334431058
 31
0.0
  0
LINE
  5
148
  8
PATTERN_FILL
  6
STYLE_05
 62
     7
 10
317.41511085808509
 20
327.75312795833082
 30
0.0
 11
315.73628639736393
 21
267.79511150400521
 31
0.0
  0
LINE
  5
149
  8
PATTERN_FILL
  6
STYLE_05
 62
     7
 10
328.44232716523243
 20
327.75312795833082
 30
0.0
 11
330.12115162595359
 21
267.79511150400521
 31
0.0
  0
ARC
  5
14A
  8
PATTERN_FILL
  6
STYLE_05
 62
     7
 10
317.73550285805487
 20
267.7391334431058
 30
0.0
 40
2.0000000000000342
 50
178.39613722884511
 51
270.0
  0
ARC
  5
14B
  8
PATTERN_FILL
  6
STYLE_05
 62
     7
 10
328.12193516526253
 20
267.7391334431058
 30
0.0
 40
1.9999999999999849
 50
270.0
 51
1.6038627711549791
  0
ARC
  5
14C
  8
PATTERN_FILL
  6
STYLE_05
 62
     7
 10
322.92871901165881
 20
8.5079060201595098
 30
0.0
 40
260.53122742294642
 50
85.817825349864563
 51
88.425103098928304
  0
ARC
  5
14D
  8
PATTERN_FILL
  6
STYLE_05
 62
     7
 10
322.92871901165881
 20
8.5079060201595098
 30
0.0
 40
260.53122742294642
 50
91.574896901071781
 51
94.182174650135394
  0
LINE
  5
14E
  8
PATTERN_FILL
  6
STYLE_05
 62
     7
 10
304.15960037600672
 20
262.97913344310592
 30
0.0
 11
304.15960037600672
 21
257.6694018034018
 31
0.0
  0
LINE
  5
14F
  8
PATTERN_FILL
  6
STYLE_05
 62
     7
 10
341.69783764731068
 20
262.97913344310592
 30
0.0
 11
341.69783764731068
 21
257.70661353269099
 31
0.0
  0
LINE
  5
150
  8
PATTERN_FILL
  6
STYLE_05
 62
     7
 10
341.69783764731068
 20
257.70661353269099
 30
0.0
 11
341.47098946404247
 21
257.70661353269099
 31
0.0
  0
LINE
  5
151
  8
PATTERN_FILL
  6
STYLE_05
 62
     7
 10
304.15960037600672
 20
257.6694018034018
 30
0.0
 11
304.38804957991198
 21
257.6694018034018
 31
0.0
  0
ARC
  5
152
  8
PATTERN_FILL
  6
STYLE_05
 62
     7
 10
310.81300863376612
 20
325.03913344310592
 30
0.0
 40
2.0
 50
90.0
 51
176.58740366535559
  0
ARC
  5
153
  8
PATTERN_FILL
  6
STYLE_05
 62
     7
 10
335.04442938955151
 20
325.03913344310592
 30
0.0
 40
1.9999999999999889
 50
3.4125963346443631
 51
31.619002479529481
  0
ARC
  5
154
  8
PATTERN_FILL
  6
STYLE_05
 62
     7
 10
335.04442938955151
 20
325.03913344310592
 30
0.0
 40
1.999999999999984
 50
37.487001011581043
 51
90.0
  0
ARC
  5
155
  8
PATTERN_FILL
  6
STYLE_05
 62
     7
 10
308.15293992573521
 20
212.03913344310581
 30
0.0
 40
1.7999999999999909
 50
182.46360993853801
 51
270.0
  0
ARC
  5
156
  8
PATTERN_FILL
  6
STYLE_05
 62
     7
 10
337.7044980975823
 20
212.03913344310581
 30
0.0
 40
1.8000000000000109
 50
270.0
 51
357.53639006146199
  0
ARC
  5
157
  8
PATTERN_FILL
  6
STYLE_05
 62
     7
 10
161.12288739338729
 20
459.72154041644228
 30
0.0
 40
1.9999999999999689
 50
101.7467055531703
 51
161.9730515435418
  0
ARC
  5
158
  8
PATTERN_FILL
  6
STYLE_05
 62
     7
 10
187.55016411309509
 20
332.63085605140321
 30
0.0
 40
131.80925624620929
 50
78.253294446827056
 51
101.7467055531728
  0
ARC
  5
159
  8
PATTERN_FILL
  6
STYLE_05
 62
     7
 10
187.55016411309509
 20
542.24936854382156
 30
0.0
 40
131.8092562462092
 50
258.25329444682723
 51
281.74670555317289
  0
ARC
  5
15A
  8
PATTERN_FILL
  6
STYLE_05
 62
     7
 10
145.5118439173786
 20
437.44011229761247
 30
0.0
 40
73.999999999999872
 50
341.97305154354279
 51
18.026948456457198
  0
ARC
  5
15B
  8
PATTERN_FILL
  6
STYLE_05
 62
     7
 10
229.5884843088123
 20
437.44011229761247
 30
0.0
 40
74.000000000000114
 50
161.97305154354279
 51
198.02694845645721
  0
ARC
  5
15C
  8
PATTERN_FILL
  6
STYLE_05
 62
     7
 10
213.9774408328031
 20
459.72154041644228
 30
0.0
 40
2.0000000000000639
 50
18.026948456456029
 51
78.253294446826075
  0
ARC
  5
15D
  8
PATTERN_FILL
  6
STYLE_05
 62
     7
 10
161.1228873933874
 20
415.15868417878249
 30
0.0
 40
2.000000000000028
 50
198.02694845645681
 51
258.25329444682683
  0
ARC
  5
15E
  8
PATTERN_FILL
  6
STYLE_05
 62
     7
 10
213.9774408328031
 20
415.15868417878249
 30
0.0
 40
2.0000000000000369
 50
281.74670555317368
 51
341.97305154354359
  0
LINE
  5
15F
  8
PATTERN_FILL
  6
STYLE_05
 62
     7
 10
179.40642325769821
 20
431.69011229761247
 30
0.0
 11
191.53110610103701
 21
419.56542945427361
 31
0.0
  0
LINE
  5
160
  8
PATTERN_FILL
  6
STYLE_05
 62
     7
 10
182.20642325769811
 20
431.69011229761247
 30
0.0
 11
194.28397992944821
 21
419.61255562586229
 31
0.0
  0
LINE
  5
161
  8
PATTERN_FILL
  6
STYLE_05
 62
     7
 10
185.00642325769809
 20
431.69011229761247
 30
0.0
 11
197.0133368178121
 21
419.6831987374984
 31
0.0
  0
LINE
  5
162
  8
PATTERN_FILL
  6
STYLE_05
 62
     7
 10
178.4876475799602
 20
455.00888797535032
 30
0.0
 11
190.50642325769809
 21
442.99011229761248
 31
0.0
  0
LINE
  5
163
  8
PATTERN_FILL
  6
STYLE_05
 62
     7
 10
181.22043220838711
 20
455.0761033469235
 30
0.0
 11
193.3064232576981
 21
442.99011229761248
 31
0.0
  0
LINE
  5
164
  8
PATTERN_FILL
  6
STYLE_05
 62
     7
 10
183.9768213323153
 20
455.11971422299519
 30
0.0
 11
196.10642325769811
 21
442.99011229761248
 31
0.0
  0
LINE
  5
165
  8
PATTERN_FILL
  6
STYLE_05
 62
     7
 10
177.4219032435301
 20
442.99011229761248
 30
0.0
 11
189.56541557492901
 21
455.13362462901131
 31
0.0
  0
LINE
  5
166
  8
PATTERN_FILL
  6
STYLE_05
 62
     7
 10
180.22190324353011
 20
442.99011229761248
 30
0.0
 11
192.33532323408869
 21
455.1035322881711
 31
0.0
  0
LINE
  5
167
  8
PATTERN_FILL
  6
STYLE_05
 62
     7
 10
183.02190324353009
 20
442.99011229761248
 30
0.0
 11
195.0812866024356
 21
455.0494956565181
 31
0.0
  0
LINE
  5
168
  8
PATTERN_FILL
  6
STYLE_05
 62
     7
 10
182.02074801697421
 20
419.58895707105648
 30
0.0
 11
194.12190324353011
 21
431.69011229761247
 31
0.0
  0
LINE
  5
169
  8
PATTERN_FILL
  6
STYLE_05
 62
     7
 10
184.78412547853159
 20
419.55233453261388
 30
0.0
 11
196.9219032435301
 21
431.69011229761247
 31
0.0
  0
LINE
  5
16A
  8
PATTERN_FILL
  6
STYLE_05
 62
     7
 10
179.28115009295411
 20
419.64935914703648
 30
0.0
 11
191.32190324352999
 21
431.69011229761247
 31
0.0
  0
LINE
  5
16B
  8
PATTERN_FILL
  6
STYLE_05
 62
     7
 10
186.75742714413539
 20
455.13910841117507
 30
0.0
 11
198.90642325769821
 21
442.99011229761248
 31
0.0
  0
LINE
  5
16C
  8
PATTERN_FILL
  6
STYLE_05
 62
     7
 10
189.5628947054891
 20
455.13364084982129
 30
0.0
 11
201.70642325769811
 21
442.99011229761248
 31
0.0
  0
LINE
  5
16D
  8
PATTERN_FILL
  6
STYLE_05
 62
     7
 10
192.39390444823141
 20
455.10263110707911
 30
0.0
 11
204.50642325769809
 21
442.99011229761248
 31
0.0
  0
LINE
  5
16E
  8
PATTERN_FILL
  6
STYLE_05
 62
     7
 10
185.82190324352999
 20
442.99011229761248
 30
0.0
 11
197.80390418731201
 21
454.97211324139431
 31
0.0
  0
LINE
  5
16F
  8
PATTERN_FILL
  6
STYLE_05
 62
     7
 10
188.62190324353011
 20
442.99011229761248
 30
0.0
 11
200.50374483697871
 21
454.87195389106091
 31
0.0
  0
LINE
  5
170
  8
PATTERN_FILL
  6
STYLE_05
 62
     7
 10
191.4219032435301
 20
442.99011229761248
 30
0.0
 11
203.1813497355337
 21
454.74955878961589
 31
0.0
  0
ARC
  5
171
  8
PATTERN_FILL
  6
STYLE_05
 62
     7
 10
187.55016411309509
 20
731.34011229761245
 30
0.0
 40
313.0
 50
265.72462579550398
 51
274.27537420449602
  0
ARC
  5
172
  8
PATTERN_FILL
  6
STYLE_05
 62
     7
 10
164.3501641130953
 20
453.6741259023089
 30
0.0
 40
1.8000000000000189
 50
94.275374204496401
 51
180.0
  0
ARC
  5
173
  8
PATTERN_FILL
  6
STYLE_05
 62
     7
 10
210.75016411309531
 20
453.6741259023089
 30
0.0
 40
1.7999999999999681
 50
0.0
 51
85.724625795503584
  0
ARC
  5
174
  8
PATTERN_FILL
  6
STYLE_05
 62
     7
 10
164.3501641130953
 20
421.00609869291588
 30
0.0
 40
1.8000000000000389
 50
180.0
 51
265.72462579550358
  0
ARC
  5
175
  8
PATTERN_FILL
  6
STYLE_05
 62
     7
 10
210.75016411309531
 20
421.00609869291588
 30
0.0
 40
1.8000000000000189
 50
274.27537420449642
 51
0.0
  0
LINE
  5
176
  8
PATTERN_FILL
  6
STYLE_05
 62
     7
 10
162.55016411309521
 20
421.00609869291588
 30
0.0
 11
162.55016411309521
 21
453.6741259023089
 31
0.0
  0
LINE
  5
177
  8
PATTERN_FILL
  6
STYLE_05
 62
     7
 10
212.55016411309529
 20
421.00609869291588
 30
0.0
 11
212.55016411309529
 21
453.6741259023089
 31
0.0
  0
ARC
  5
178
  8
PATTERN_FILL
  6
STYLE_05
 62
     7
 10
187.55016411309509
 20
143.34011229761251
 30
0.0
 40
312.99999999999989
 50
85.724625795503954
 51
94.275374204495989
  0
LINE
  5
179
  8
PATTERN_FILL
  6
STYLE_05
 62
     7
 10
163.75016411309531
 20
444.54637144221527
 30
0.0
 11
165.30642325769821
 21
442.99011229761248
 31
0.0
  0
LINE
  5
17A
  8
PATTERN_FILL
  6
STYLE_05
 62
     7
 10
163.75016411309531
 20
447.34637144221529
 30
0.0
 11
168.10642325769811
 21
442.99011229761248
 31
0.0
  0
LINE
  5
17B
  8
PATTERN_FILL
  6
STYLE_05
 62
     7
 10
163.75016411309531
 20
450.1463714422153
 30
0.0
 11
170.90642325769809
 21
442.99011229761248
 31
0.0
  0
LINE
  5
17C
  8
PATTERN_FILL
  6
STYLE_05
 62
     7
 10
163.7846045826771
 20
452.91193097263351
 30
0.0
 11
173.70642325769811
 21
442.99011229761248
 31
0.0
  0
LINE
  5
17D
  8
PATTERN_FILL
  6
STYLE_05
 62
     7
 10
165.1746398141091
 20
454.3218957412015
 30
0.0
 11
176.506423257698
 21
442.99011229761248
 31
0.0
  0
LINE
  5
17E
  8
PATTERN_FILL
  6
STYLE_05
 62
     7
 10
167.78133856548379
 20
454.51519698982679
 30
0.0
 11
179.3064232576981
 21
442.99011229761248
 31
0.0
  0
LINE
  5
17F
  8
PATTERN_FILL
  6
STYLE_05
 62
     7
 10
170.42524536064121
 20
454.67129019466933
 30
0.0
 11
182.10642325769811
 21
442.99011229761248
 31
0.0
  0
LINE
  5
180
  8
PATTERN_FILL
  6
STYLE_05
 62
     7
 10
173.0905939285588
 20
454.8059416267518
 30
0.0
 11
184.90642325769809
 21
442.99011229761248
 31
0.0
  0
LINE
  5
181
  8
PATTERN_FILL
  6
STYLE_05
 62
     7
 10
175.77788584753901
 20
454.91864970777152
 30
0.0
 11
187.70642325769811
 21
442.99011229761248
 31
0.0
  0
LINE
  5
182
  8
PATTERN_FILL
  6
STYLE_05
 62
     7
 10
195.2511749277401
 20
455.04536062757052
 30
0.0
 11
207.3064232576981
 21
442.99011229761248
 31
0.0
  0
LINE
  5
183
  8
PATTERN_FILL
  6
STYLE_05
 62
     7
 10
198.13546586047221
 20
454.96106969483827
 30
0.0
 11
210.106423257698
 21
442.99011229761248
 31
0.0
  0
LINE
  5
184
  8
PATTERN_FILL
  6
STYLE_05
 62
     7
 10
201.0475814825497
 20
454.84895407276082
 30
0.0
 11
211.3501641130953
 21
444.54637144221522
 31
0.0
  0
LINE
  5
185
  8
PATTERN_FILL
  6
STYLE_05
 62
     7
 10
203.9883742719224
 20
454.70816128338799
 30
0.0
 11
211.3501641130953
 21
447.34637144221529
 31
0.0
  0
LINE
  5
186
  8
PATTERN_FILL
  6
STYLE_05
 62
     7
 10
206.95874908350319
 20
454.53778647180741
 30
0.0
 11
211.3501641130953
 21
450.1463714422153
 31
0.0
  0
LINE
  5
187
  8
PATTERN_FILL
  6
STYLE_05
 62
     7
 10
209.98946127422141
 20
454.30707428108923
 30
0.0
 11
211.2957350810677
 21
453.00080047424279
 31
0.0
  0
LINE
  5
188
  8
PATTERN_FILL
  6
STYLE_05
 62
     7
 10
163.75016411309531
 20
451.71837316717739
 30
0.0
 11
166.46060028101951
 21
454.42880933510179
 31
0.0
  0
LINE
  5
189
  8
PATTERN_FILL
  6
STYLE_05
 62
     7
 10
163.75016411309531
 20
448.91837316717749
 30
0.0
 11
169.44800103654521
 21
454.61621009062759
 31
0.0
  0
LINE
  5
18A
  8
PATTERN_FILL
  6
STYLE_05
 62
     7
 10
163.75016411309531
 20
446.11837316717742
 30
0.0
 11
172.4052870978341
 21
454.77349615191639
 31
0.0
  0
LINE
  5
18B
  8
PATTERN_FILL
  6
STYLE_05
 62
     7
 10
163.75016411309531
 20
443.31837316717753
 30
0.0
 11
175.33339471169839
 21
454.90160376578081
 31
0.0
  0
LINE
  5
18C
  8
PATTERN_FILL
  6
STYLE_05
 62
     7
 10
166.22190324353011
 20
442.99011229761248
 30
0.0
 11
178.23320522423751
 21
455.00141427831971
 31
0.0
  0
LINE
  5
18D
  8
PATTERN_FILL
  6
STYLE_05
 62
     7
 10
169.0219032435302
 20
442.99011229761248
 30
0.0
 11
181.10554947246121
 21
455.07375852654337
 31
0.0
  0
LINE
  5
18E
  8
PATTERN_FILL
  6
STYLE_05
 62
     7
 10
171.8219032435301
 20
442.99011229761248
 30
0.0
 11
183.95121173173769
 21
455.11942078582013
 31
0.0
  0
LINE
  5
18F
  8
PATTERN_FILL
  6
STYLE_05
 62
     7
 10
174.62190324353011
 20
442.99011229761248
 30
0.0
 11
186.77093327285399
 21
455.13914232693628
 31
0.0
  0
LINE
  5
190
  8
PATTERN_FILL
  6
STYLE_05
 62
     7
 10
194.22190324353011
 20
442.99011229761248
 30
0.0
 11
205.83723422706001
 21
454.6054432811423
 31
0.0
  0
LINE
  5
191
  8
PATTERN_FILL
  6
STYLE_05
 62
     7
 10
197.02190324353009
 20
442.99011229761248
 30
0.0
 11
208.471889486561
 21
454.44009854064331
 31
0.0
  0
LINE
  5
192
  8
PATTERN_FILL
  6
STYLE_05
 62
     7
 10
199.8219032435301
 20
442.99011229761248
 30
0.0
 11
210.74210234471769
 21
453.91031139879999
 31
0.0
  0
LINE
  5
193
  8
PATTERN_FILL
  6
STYLE_05
 62
     7
 10
202.6219032435302
 20
442.99011229761248
 30
0.0
 11
211.3501641130953
 21
451.71837316717762
 31
0.0
  0
LINE
  5
194
  8
PATTERN_FILL
  6
STYLE_05
 62
     7
 10
205.4219032435301
 20
442.99011229761248
 30
0.0
 11
211.3501641130953
 21
448.91837316717772
 31
0.0
  0
LINE
  5
195
  8
PATTERN_FILL
  6
STYLE_05
 62
     7
 10
208.22190324353011
 20
442.99011229761248
 30
0.0
 11
211.3501641130953
 21
446.11837316717759
 31
0.0
  0
LINE
  5
196
  8
PATTERN_FILL
  6
STYLE_05
 62
     7
 10
211.0219032435302
 20
442.99011229761248
 30
0.0
 11
211.3501641130953
 21
443.31837316717758
 31
0.0
  0
LINE
  5
197
  8
PATTERN_FILL
  6
STYLE_05
 62
     7
 10
162.55016411309521
 20
442.99011229761248
 30
0.0
 11
212.55016411309529
 21
442.99011229761248
 31
0.0
  0
LINE
  5
198
  8
PATTERN_FILL
  6
STYLE_05
 62
     7
 10
208.05016411309529
 20
447.56027289944558
 30
0.0
 11
208.05016411309529
 21
442.99011229761248
 31
0.0
  0
LINE
  5
199
  8
PATTERN_FILL
  6
STYLE_05
 62
     7
 10
167.05016411309521
 20
442.99011229761248
 30
0.0
 11
167.05016411309521
 21
447.56027289944558
 31
0.0
  0
ARC
  5
19A
  8
PATTERN_FILL
  6
STYLE_05
 62
     7
 10
187.55016411309509
 20
142.1401122976126
 30
0.0
 40
312.99999999999989
 50
85.946145734786768
 51
94.053854265213161
  0
LINE
  5
19B
  8
PATTERN_FILL
  6
STYLE_05
 62
     7
 10
163.75016411309531
 20
442.99011229761248
 30
0.0
 11
163.75016411309531
 21
452.56150331311562
 31
0.0
  0
LINE
  5
19C
  8
PATTERN_FILL
  6
STYLE_05
 62
     7
 10
211.3501641130953
 20
442.99011229761248
 30
0.0
 11
211.3501641130953
 21
452.56150331311562
 31
0.0
  0
ARC
  5
19D
  8
PATTERN_FILL
  6
STYLE_05
 62
     7
 10
165.55016411309521
 20
452.56150331311562
 30
0.0
 40
1.8000000000000469
 50
94.053854265213502
 51
180.0
  0
ARC
  5
19E
  8
PATTERN_FILL
  6
STYLE_05
 62
     7
 10
209.55016411309529
 20
452.56150331311562
 30
0.0
 40
1.8000000000000751
 50
0.0
 51
85.946145734786512
  0
ARC
  5
19F
  8
PATTERN_FILL
  6
STYLE_05
 62
     7
 10
187.55016411309509
 20
240.21511229761251
 30
0.0
 40
210.62500000000011
 50
85.038490904742133
 51
94.961509095257867
  0
ARC
  5
1A0
  8
PATTERN_FILL
  6
STYLE_05
 62
     7
 10
169.55016411309521
 20
447.56027289944558
 30
0.0
 40
2.499999999999996
 50
94.961509095258691
 51
180.0
  0
ARC
  5
1A1
  8
PATTERN_FILL
  6
STYLE_05
 62
     7
 10
205.55016411309529
 20
447.56027289944558
 30
0.0
 40
2.5000000000000209
 50
0.0
 51
85.038490904741309
  0
LINE
  5
1A2
  8
PATTERN_FILL
  6
STYLE_05
 62
     7
 10
163.75016411309531
 20
422.1463714422153
 30
0.0
 11
165.58473718841199
 21
420.3117983668987
 31
0.0
  0
LINE
  5
1A3
  8
PATTERN_FILL
  6
STYLE_05
 62
     7
 10
163.75016411309531
 20
424.94637144221531
 30
0.0
 11
168.58109313208121
 21
420.11544242322941
 31
0.0
  0
LINE
  5
1A4
  8
PATTERN_FILL
  6
STYLE_05
 62
     7
 10
163.75016411309531
 20
427.74637144221538
 30
0.0
 11
171.54705069378869
 21
419.94948486152191
 31
0.0
  0
LINE
  5
1A5
  8
PATTERN_FILL
  6
STYLE_05
 62
     7
 10
163.75016411309531
 20
430.54637144221539
 30
0.0
 11
174.48356300659091
 21
419.81297254871981
 31
0.0
  0
LINE
  5
1A6
  8
PATTERN_FILL
  6
STYLE_05
 62
     7
 10
165.40642325769821
 20
431.69011229761247
 30
0.0
 11
177.3915269315236
 21
419.7050086237868
 31
0.0
  0
LINE
  5
1A7
  8
PATTERN_FILL
  6
STYLE_05
 62
     7
 10
168.20642325769811
 20
431.69011229761247
 30
0.0
 11
180.2717875899522
 21
419.62474796535838
 31
0.0
  0
LINE
  5
1A8
  8
PATTERN_FILL
  6
STYLE_05
 62
     7
 10
171.00642325769809
 20
431.69011229761247
 30
0.0
 11
183.12514243446111
 21
419.57139312084922
 31
0.0
  0
LINE
  5
1A9
  8
PATTERN_FILL
  6
STYLE_05
 62
     7
 10
173.8064232576981
 20
431.69011229761247
 30
0.0
 11
185.95234491452831
 21
419.54419064078212
 31
0.0
  0
LINE
  5
1AA
  8
PATTERN_FILL
  6
STYLE_05
 62
     7
 10
176.60642325769811
 20
431.69011229761247
 30
0.0
 11
188.7541077852903
 21
419.5424277700202
 31
0.0
  0
LINE
  5
1AB
  8
PATTERN_FILL
  6
STYLE_05
 62
     7
 10
187.8064232576981
 20
431.69011229761247
 30
0.0
 11
199.71975403841719
 21
419.77678151689338
 31
0.0
  0
LINE
  5
1AC
  8
PATTERN_FILL
  6
STYLE_05
 62
     7
 10
190.60642325769811
 20
431.69011229761247
 30
0.0
 11
202.4037806368471
 21
419.89275491846348
 31
0.0
  0
LINE
  5
1AD
  8
PATTERN_FILL
  6
STYLE_05
 62
     7
 10
193.40642325769821
 20
431.69011229761247
 30
0.0
 11
205.06593930395121
 21
420.03059625135921
 31
0.0
  0
LINE
  5
1AE
  8
PATTERN_FILL
  6
STYLE_05
 62
     7
 10
196.20642325769811
 20
431.69011229761247
 30
0.0
 11
207.70672808971889
 21
420.18980746559163
 31
0.0
  0
LINE
  5
1AF
  8
PATTERN_FILL
  6
STYLE_05
 62
     7
 10
199.00642325769809
 20
431.69011229761247
 30
0.0
 11
210.24026889934569
 21
420.45626665596478
 31
0.0
  0
LINE
  5
1B0
  8
PATTERN_FILL
  6
STYLE_05
 62
     7
 10
201.8064232576981
 20
431.69011229761247
 30
0.0
 11
211.3501641130953
 21
422.1463714422153
 31
0.0
  0
LINE
  5
1B1
  8
PATTERN_FILL
  6
STYLE_05
 62
     7
 10
204.6064232576982
 20
431.69011229761247
 30
0.0
 11
211.3501641130953
 21
424.9463714422152
 31
0.0
  0
LINE
  5
1B2
  8
PATTERN_FILL
  6
STYLE_05
 62
     7
 10
207.40642325769821
 20
431.69011229761247
 30
0.0
 11
211.3501641130953
 21
427.74637144221521
 31
0.0
  0
LINE
  5
1B3
  8
PATTERN_FILL
  6
STYLE_05
 62
     7
 10
210.20642325769819
 20
431.69011229761247
 30
0.0
 11
211.3501641130953
 21
430.54637144221527
 31
0.0
  0
LINE
  5
1B4
  8
PATTERN_FILL
  6
STYLE_05
 62
     7
 10
163.75016411309531
 20
429.31837316717753
 30
0.0
 11
166.1219032435302
 21
431.69011229761242
 31
0.0
  0
LINE
  5
1B5
  8
PATTERN_FILL
  6
STYLE_05
 62
     7
 10
163.75016411309531
 20
426.51837316717751
 30
0.0
 11
168.9219032435301
 21
431.69011229761247
 31
0.0
  0
LINE
  5
1B6
  8
PATTERN_FILL
  6
STYLE_05
 62
     7
 10
163.75016411309531
 20
423.71837316717762
 30
0.0
 11
171.72190324353011
 21
431.69011229761247
 31
0.0
  0
LINE
  5
1B7
  8
PATTERN_FILL
  6
STYLE_05
 62
     7
 10
164.01336428070661
 20
421.18157333478888
 30
0.0
 11
174.52190324353009
 21
431.69011229761247
 31
0.0
  0
LINE
  5
1B8
  8
PATTERN_FILL
  6
STYLE_05
 62
     7
 10
165.92017233454109
 20
420.28838138862329
 30
0.0
 11
177.3219032435301
 21
431.69011229761247
 31
0.0
  0
LINE
  5
1B9
  8
PATTERN_FILL
  6
STYLE_05
 62
     7
 10
168.5491730544644
 20
420.11738210854662
 30
0.0
 11
180.12190324353011
 21
431.69011229761247
 31
0.0
  0
LINE
  5
1BA
  8
PATTERN_FILL
  6
STYLE_05
 62
     7
 10
171.1992742427675
 20
419.96748329684971
 30
0.0
 11
182.9219032435301
 21
431.69011229761247
 31
0.0
  0
LINE
  5
1BB
  8
PATTERN_FILL
  6
STYLE_05
 62
     7
 10
173.8709608127964
 20
419.83916986687871
 30
0.0
 11
185.72190324352999
 21
431.69011229761247
 31
0.0
  0
LINE
  5
1BC
  8
PATTERN_FILL
  6
STYLE_05
 62
     7
 10
176.56474141975011
 20
419.73295047383232
 30
0.0
 11
188.52190324353009
 21
431.69011229761247
 31
0.0
  0
LINE
  5
1BD
  8
PATTERN_FILL
  6
STYLE_05
 62
     7
 10
187.57190399851831
 20
419.5401130526007
 30
0.0
 11
199.72190324352999
 21
431.69011229761247
 31
0.0
  0
LINE
  5
1BE
  8
PATTERN_FILL
  6
STYLE_05
 62
     7
 10
190.3847386711231
 20
419.55294772520551
 30
0.0
 11
202.52190324353009
 21
431.69011229761247
 31
0.0
  0
LINE
  5
1BF
  8
PATTERN_FILL
  6
STYLE_05
 62
     7
 10
193.22332073525209
 20
419.5915297893344
 30
0.0
 11
205.3219032435301
 21
431.69011229761247
 31
0.0
  0
LINE
  5
1C0
  8
PATTERN_FILL
  6
STYLE_05
 62
     7
 10
196.0883804071297
 20
419.65658946121209
 30
0.0
 11
208.12190324353011
 21
431.69011229761247
 31
0.0
  0
LINE
  5
1C1
  8
PATTERN_FILL
  6
STYLE_05
 62
     7
 10
198.980690007318
 20
419.74889906140049
 30
0.0
 11
210.9219032435301
 21
431.69011229761247
 31
0.0
  0
LINE
  5
1C2
  8
PATTERN_FILL
  6
STYLE_05
 62
     7
 10
201.90106742051799
 20
419.86927647460033
 30
0.0
 11
211.3501641130953
 21
429.31837316717758
 31
0.0
  0
LINE
  5
1C3
  8
PATTERN_FILL
  6
STYLE_05
 62
     7
 10
204.85037993257569
 20
420.01858898665802
 30
0.0
 11
211.3501641130953
 21
426.51837316717757
 31
0.0
  0
LINE
  5
1C4
  8
PATTERN_FILL
  6
STYLE_05
 62
     7
 10
207.82954849631079
 20
420.19775755039308
 30
0.0
 11
211.3501641130953
 21
423.71837316717762
 31
0.0
  0
LINE
  5
1C5
  8
PATTERN_FILL
  6
STYLE_05
 62
     7
 10
212.55016411309529
 20
431.69011229761247
 30
0.0
 11
162.55016411309521
 21
431.69011229761247
 31
0.0
  0
LINE
  5
1C6
  8
PATTERN_FILL
  6
STYLE_05
 62
     7
 10
167.05016411309521
 20
427.11995169577921
 30
0.0
 11
167.05016411309521
 21
431.69011229761247
 31
0.0
  0
LINE
  5
1C7
  8
PATTERN_FILL
  6
STYLE_05
 62
     7
 10
208.05016411309529
 20
431.69011229761247
 30
0.0
 11
208.05016411309529
 21
427.11995169577921
 31
0.0
  0
ARC
  5
1C8
  8
PATTERN_FILL
  6
STYLE_05
 62
     7
 10
187.55016411309509
 20
732.54011229761238
 30
0.0
 40
313.0
 50
265.9461457347868
 51
274.0538542652132
  0
LINE
  5
1C9
  8
PATTERN_FILL
  6
STYLE_05
 62
     7
 10
163.75016411309531
 20
422.11872128210911
 30
0.0
 11
163.75016411309531
 21
431.69011229761247
 31
0.0
  0
LINE
  5
1CA
  8
PATTERN_FILL
  6
STYLE_05
 62
     7
 10
211.3501641130953
 20
422.11872128210911
 30
0.0
 11
211.3501641130953
 21
431.69011229761247
 31
0.0
  0
ARC
  5
1CB
  8
PATTERN_FILL
  6
STYLE_05
 62
     7
 10
165.55016411309521
 20
422.11872128210911
 30
0.0
 40
1.7999999999999261
 50
180.0
 51
265.94614573478651
  0
ARC
  5
1CC
  8
PATTERN_FILL
  6
STYLE_05
 62
     7
 10
209.55016411309529
 20
422.11872128210911
 30
0.0
 40
1.8000000000000469
 50
274.0538542652136
 51
0.0
  0
ARC
  5
1CD
  8
PATTERN_FILL
  6
STYLE_05
 62
     7
 10
187.55016411309509
 20
634.46511229761245
 30
0.0
 40
210.625
 50
265.03849090474222
 51
274.96150909525778
  0
ARC
  5
1CE
  8
PATTERN_FILL
  6
STYLE_05
 62
     7
 10
169.55016411309521
 20
427.11995169577921
 30
0.0
 40
2.499999999999972
 50
180.0
 51
265.03849090474142
  0
ARC
  5
1CF
  8
PATTERN_FILL
  6
STYLE_05
 62
     7
 10
205.55016411309529
 20
427.11995169577921
 30
0.0
 40
2.499999999999968
 50
274.96150909525869
 51
0.0
  0
ARC
  5
1D0
  8
PATTERN_FILL
  6
STYLE_05
 62
     7
 10
317.91491497325768
 20
327.73913344310591
 30
0.0
 40
0.5
 50
90.0
 51
178.39613722884499
  0
ARC
  5
1D1
  8
PATTERN_FILL
  6
STYLE_05
 62
     7
 10
327.94252305005972
 20
327.73913344310591
 30
0.0
 40
0.4999999999999801
 50
1.6038627711550091
 51
90.000000000001606
  0
LINE
  5
1D2
  8
SPEC
  6
CONTINUOUS
 62
     7
 10
43.75
 20
650.0
 30
0.0
 11
412.5
 21
650.0
 31
0.0
  0
LINE
  5
1D3
  8
SPEC
  6
CONTINUOUS
 62
     7
 10
43.75
 20
640.625
 30
0.0
 11
412.5
 21
640.625
 31
0.0
  0
LINE
  5
1D4
  8
SPEC
  6
CONTINUOUS
 62
     7
 10
43.75
 20
631.25
 30
0.0
 11
412.5
 21
631.25
 31
0.0
  0
TEXT
  5
1D5
  8
SPEC
 62
     7
 10
127.4655356933537
 20
642.94415515686524
 30
0.0
 40
4.7507781249999992
  1
サスペンション付ホルダー
 41
0.7
 11
127.4655356933537
 21
647.69493328186525
 31
0.0
 73
     3
  0
TEXT
  5
1D6
  8
SPEC
 62
     7
 10
46.875
 20
653.48317499999985
 30
0.0
 40
6.108154296875
  1
仕様
 41
0.7
 11
46.875
 21
659.59132929687496
 31
0.0
 73
     3
  0
TEXT
  5
1D7
  8
SPEC
 62
     7
 10
46.152711659217033
 20
643.0176947486143
 30
0.0
 40
4.7507781249999992
  1
形式
 41
0.7
 11
46.152711659217033
 21
647.76847287361431
 31
0.0
 73
     3
  0
TEXT
  5
1D8
  8
SPEC
 62
     7
 10
46.120047382074652
 20
624.24347805962839
 30
0.0
 40
4.7507781249999992
  1
質量
 41
0.7
 11
46.120047382074652
 21
628.9942561846284
 31
0.0
 73
     3
  0
TEXT
  5
1D9
  8
SPEC
 62
     7
 10
127.2553897298036
 20
624.14605664906173
 30
0.0
 40
4.7507781249999992
  1
約120g
 41
0.7
 11
127.2553897298036
 21
628.89683477406174
 31
0.0
 73
     3
  0
LINE
  5
1DA
  8
SPEC
  6
CONTINUOUS
 62
     7
 10
43.75
 20
603.11999999999989
 30
0.0
 11
412.5
 21
603.11999999999989
 31
0.0
  0
TEXT
  5
1DB
  8
SPEC
 62
     7
 10
46.185479100266413
 20
614.77524441099661
 30
0.0
 40
4.7507781249999992
  1
適合機種
 41
0.7
 11
46.185479100266413
 21
619.52602253599662
 31
0.0
 73
     3
  0
TEXT
  5
1DC
  8
SPEC
 62
     7
 10
127.6960113478606
 20
614.29532842296601
 30
0.0
 40
4.7507781249999992
  1
C451B、C414B-XLS、C414B-XLII、C214、C4000B、C3000B、C2000B、C4500B-BC
 41
0.7
 11
127.6960113478606
 21
619.04610654796591
 31
0.0
 73
     3
  0
TEXT
  5
1DD
  8
SPEC
 62
     7
 10
127.6225744115178
 20
605.89368261748882
 30
0.0
 40
4.7507781249999992
  1
C480B、SE300B
 41
0.7
 11
127.6225744115178
 21
610.64446074248883
 31
0.0
 73
     3
  0
TEXT
  5
1DE
  8
SPEC
 62
     7
 10
46.120047382074652
 20
633.62347805962827
 30
0.0
 40
4.7507781249999992
  1
寸法
 41
0.7
 11
46.120047382074652
 21
638.37425618462828
 31
0.0
 73
     3
  0
TEXT
  5
1DF
  8
SPEC
 62
     7
 10
127.2553897298036
 20
633.52605664906162
 30
0.0
 40
4.7507781249999992
  1
100(W)\U+00D770(H)\U+00D7146(D)mm(突起は含まず)
 41
0.7
 11
127.2553897298036
 21
638.27683477406163
 31
0.0
 73
     3
  0
LINE
  5
1E0
  8
SPEC
  6
CONTINUOUS
 62
     7
 10
43.75
 20
621.86999999999989
 30
0.0
 11
412.5
 21
621.86999999999989
 31
0.0
  0
LINE
  5
1E1
  8
SPEC
  6
CONTINUOUS
 62
     7
 10
43.75
 20
650.0
 30
0.0
 11
43.75
 21
603.11999999999989
 31
0.0
  0
LINE
  5
1E2
  8
SPEC
  6
CONTINUOUS
 62
     7
 10
412.5
 20
603.11999999999989
 30
0.0
 11
412.5
 21
650.0
 31
0.0
  0
LINE
  5
1E3
  8
SPEC
  6
CONTINUOUS
 62
     7
 10
125.0
 20
650.0
 30
0.0
 11
125.0
 21
603.11999999999989
 31
0.0
  0
TEXT
  5
1E4
  8
DIMNSIONS
 62
     7
 10
200.0
 20
55.67372499999999
 30
0.0
 40
6.108154296875
  1
(単位：mm)
 41
0.7
 11
200.0
 21
61.78187929687499
 31
0.0
 73
     3
  0
LINE
  5
1E5
  8
DIMNSIONS
  6
CONTINUOUS
 62
     7
 10
152.50000000011451
 20
174.99999999962759
 30
0.0
 11
107.5
 21
174.99999999962759
 31
0.0
  0
LINE
  5
1E6
  8
DIMNSIONS
  6
CONTINUOUS
 62
     7
 10
151.30000000011461
 20
244.99999999962719
 30
0.0
 11
107.5
 21
244.99999999962719
 31
0.0
  0
LINE
  5
1E7
  8
DIMNSIONS
  6
CONTINUOUS
 62
     7
 10
112.5
 20
174.99999999962759
 30
0.0
 11
112.5
 21
244.99999999962719
 31
0.0
  0
LINE
  5
1E8
  8
DIMNSIONS
  6
CONTINUOUS
 62
     7
 10
112.5
 20
174.99999999962759
 30
0.0
 11
110.8249005121244
 21
181.25155639611199
 31
0.0
  0
LINE
  5
1E9
  8
DIMNSIONS
  6
CONTINUOUS
 62
     7
 10
112.5
 20
174.99999999962759
 30
0.0
 11
114.1750994878756
 21
181.25155639611199
 31
0.0
  0
LINE
  5
1EA
  8
DIMNSIONS
  6
CONTINUOUS
 62
     7
 10
112.5
 20
244.99999999962719
 30
0.0
 11
114.1750994878756
 21
238.74844360314279
 31
0.0
  0
LINE
  5
1EB
  8
DIMNSIONS
  6
CONTINUOUS
 62
     7
 10
112.5
 20
244.99999999962719
 30
0.0
 11
110.8249005121244
 21
238.74844360314279
 31
0.0
  0
TEXT
  5
1EC
  8
DIMNSIONS
 62
     7
 10
110.0152777777777
 20
205.59027777740519
 30
0.0
 40
6.7868381076388884
  1
70
 50
90.0
 41
0.7
 11
103.2284396701388
 21
205.59027777740519
 31
0.0
 73
     3
  0
LINE
  5
1ED
  8
DIMNSIONS
  6
CONTINUOUS
 62
     7
 10
182.59999999999999
 20
387.50010000036042
 30
0.0
 11
107.5
 21
387.50010000036042
 31
0.0
  0
LINE
  5
1EE
  8
DIMNSIONS
  6
CONTINUOUS
 62
     7
 10
171.94999999999999
 20
533.56349846794478
 30
0.0
 11
107.5
 21
533.56349846794478
 31
0.0
  0
LINE
  5
1EF
  8
DIMNSIONS
  6
CONTINUOUS
 62
     7
 10
112.5
 20
387.50010000036042
 30
0.0
 11
112.5
 21
533.56349846794478
 31
0.0
  0
LINE
  5
1F0
  8
DIMNSIONS
  6
CONTINUOUS
 62
     7
 10
112.5
 20
387.50010000036042
 30
0.0
 11
110.8249005121244
 21
393.75165639684479
 31
0.0
  0
LINE
  5
1F1
  8
DIMNSIONS
  6
CONTINUOUS
 62
     7
 10
112.5
 20
387.50010000036042
 30
0.0
 11
114.1750994878756
 21
393.75165639684479
 31
0.0
  0
LINE
  5
1F2
  8
DIMNSIONS
  6
CONTINUOUS
 62
     7
 10
112.5
 20
533.56349846794478
 30
0.0
 11
114.1750994878756
 21
527.31194207146052
 31
0.0
  0
LINE
  5
1F3
  8
DIMNSIONS
  6
CONTINUOUS
 62
     7
 10
112.5
 20
533.56349846794478
 30
0.0
 11
110.8249005121244
 21
527.31194207146052
 31
0.0
  0
TEXT
  5
1F4
  8
DIMNSIONS
 62
     7
 10
110.0152777777777
 20
453.91721590081931
 30
0.0
 40
6.7868381076388884
  1
146
 50
90.0
 41
0.7
 11
103.2284396701388
 21
453.91721590081931
 31
0.0
 73
     3
  0
LINE
  5
1F5
  8
DIMNSIONS
  6
CONTINUOUS
 62
     7
 10
137.5000000001146
 20
432.5
 30
0.0
 11
137.5000000001146
 21
357.5
 31
0.0
  0
LINE
  5
1F6
  8
DIMNSIONS
  6
CONTINUOUS
 62
     7
 10
237.50000000011451
 20
432.5
 30
0.0
 11
237.50000000011451
 21
357.5
 31
0.0
  0
LINE
  5
1F7
  8
DIMNSIONS
  6
CONTINUOUS
 62
     7
 10
137.5000000001146
 20
362.5
 30
0.0
 11
237.50000000011451
 21
362.5
 31
0.0
  0
LINE
  5
1F8
  8
DIMNSIONS
  6
CONTINUOUS
 62
     7
 10
137.5000000001146
 20
362.5
 30
0.0
 11
143.751556396599
 21
364.17509948787563
 31
0.0
  0
LINE
  5
1F9
  8
DIMNSIONS
  6
CONTINUOUS
 62
     7
 10
137.5000000001146
 20
362.5
 30
0.0
 11
143.751556396599
 21
360.82490051212449
 31
0.0
  0
LINE
  5
1FA
  8
DIMNSIONS
  6
CONTINUOUS
 62
     7
 10
237.50000000011451
 20
362.5
 30
0.0
 11
231.24844360363011
 21
360.82490051212449
 31
0.0
  0
LINE
  5
1FB
  8
DIMNSIONS
  6
CONTINUOUS
 62
     7
 10
237.50000000011451
 20
362.5
 30
0.0
 11
231.24844360363011
 21
364.17509948787563
 31
0.0
  0
TEXT
  5
1FC
  8
DIMNSIONS
 62
     7
 10
180.8854166667812
 20
364.98472222222222
 30
0.0
 40
6.7868381076388884
  1
100
 41
0.7
 11
180.8854166667812
 21
371.77156032986107
 31
0.0
 73
     3
  0
TEXT
  5
1FD
  8
DATA
 62
     7
 10
375.0
 20
71.311548065214012
 30
0.0
 40
6.108154296875
  1
AKG
 41
0.7
 11
375.0
 21
77.419702362089012
 31
0.0
 73
     3
  0
TEXT
  5
1FE
  8
DATA
 62
     7
 10
368.75
 20
62.259834500000032
 30
0.0
 40
4.0721092773437491
  1
サスペンション付ホルダー
 41
0.7
 11
368.75
 21
66.331943777343781
 31
0.0
 73
     3
  0
TEXT
  5
1FF
  8
DATA
 62
     7
 10
50.0
 20
35.595000000000063
 30
0.0
 40
4.072102864583333
  1
仕様および外観は予告なく変更されることがありますので、ご了承ください。
 41
0.7
 11
50.0
 21
39.667102864583399
 31
0.0
 73
     3
  0
TEXT
  5
200
  8
DATA
 62
     7
 10
374.97153223041198
 20
52.826968482614738
 30
0.0
 40
6.108154296875
  1
H 85
 41
0.7
 11
374.97153223041198
 21
58.935122779489753
 31
0.0
 73
     3
  0
LINE
  5
201
  8
DATA
  6
CONTINUOUS
 62
     7
 10
137.5000000001146
 20
212.4999999996277
 30
0.0
 11
137.5000000001146
 21
226.49999999962759
 31
0.0
  0
LINE
  5
202
  8
DATA
  6
CONTINUOUS
 62
     7
 10
237.5000000001146
 20
226.49999999962759
 30
0.0
 11
237.5000000001146
 21
212.4999999996277
 31
0.0
  0
LINE
  5
203
  8
DATA
  6
CONTINUOUS
 62
     7
 10
237.5000000001146
 20
212.4999999996277
 30
0.0
 11
137.5000000001146
 21
212.4999999996277
 31
0.0
  0
LINE
  5
204
  8
DATA
  6
CONTINUOUS
 62
     7
 10
137.5000000001146
 20
226.49999999962759
 30
0.0
 11
237.5000000001146
 21
226.49999999962759
 31
0.0
  0
LINE
  5
205
  8
DATA
  6
CONTINUOUS
 62
     7
 10
161.5000000001144
 20
212.4999999996277
 30
0.0
 11
161.5000000001144
 21
226.49999999962759
 31
0.0
  0
LINE
  5
206
  8
DATA
  6
CONTINUOUS
 62
     7
 10
213.5000000001144
 20
226.49999999962759
 30
0.0
 11
213.5000000001144
 21
212.4999999996277
 31
0.0
  0
LINE
  5
207
  8
DATA
  6
CONTINUOUS
 62
     7
 10
154.5000000001146
 20
212.4999999996277
 30
0.0
 11
154.5000000001146
 21
226.49999999962759
 31
0.0
  0
LINE
  5
208
  8
DATA
  6
CONTINUOUS
 62
     7
 10
220.5000000001144
 20
226.49999999962759
 30
0.0
 11
220.5000000001144
 21
212.4999999996277
 31
0.0
  0
LINE
  5
209
  8
DATA
  6
CONTINUOUS
 62
     7
 10
159.00000000011451
 20
212.4999999996277
 30
0.0
 11
159.00000000011451
 21
226.49999999962759
 31
0.0
  0
LINE
  5
20A
  8
DATA
  6
CONTINUOUS
 62
     7
 10
216.0000000001144
 20
226.49999999962759
 30
0.0
 11
216.0000000001144
 21
212.4999999996277
 31
0.0
  0
LINE
  5
20B
  8
DATA
  6
CONTINUOUS
 62
     7
 10
151.0000000001146
 20
212.4999999996277
 30
0.0
 11
151.0000000001146
 21
226.49999999962759
 31
0.0
  0
LINE
  5
20C
  8
DATA
  6
CONTINUOUS
 62
     7
 10
224.00000000011451
 20
226.49999999962759
 30
0.0
 11
224.00000000011451
 21
212.4999999996277
 31
0.0
  0
LINE
  5
20D
  8
DATA
  6
CONTINUOUS
 62
     7
 10
148.0000000001146
 20
212.4999999996277
 30
0.0
 11
148.0000000001146
 21
226.49999999962759
 31
0.0
  0
LINE
  5
20E
  8
DATA
  6
CONTINUOUS
 62
     7
 10
227.00000000011451
 20
226.49999999962759
 30
0.0
 11
227.00000000011451
 21
212.4999999996277
 31
0.0
  0
LINE
  5
20F
  8
DATA
  6
CONTINUOUS
 62
     7
 10
146.5000000001146
 20
212.4999999996277
 30
0.0
 11
146.5000000001146
 21
226.49999999962759
 31
0.0
  0
LINE
  5
210
  8
DATA
  6
CONTINUOUS
 62
     7
 10
228.50000000011451
 20
226.49999999962759
 30
0.0
 11
228.50000000011451
 21
212.4999999996277
 31
0.0
  0
LINE
  5
211
  8
DATA
  6
CONTINUOUS
 62
     7
 10
172.00000000011431
 20
226.49999999962759
 30
0.0
 11
172.00000000011431
 21
244.19999999962721
 31
0.0
  0
LINE
  5
212
  8
DATA
  6
CONTINUOUS
 62
     7
 10
203.0000000001144
 20
244.19999999962721
 30
0.0
 11
203.0000000001144
 21
226.49999999962759
 31
0.0
  0
LINE
  5
213
  8
DATA
  6
CONTINUOUS
 62
     7
 10
153.5000000001146
 20
233.49999999962751
 30
0.0
 11
155.5000000001146
 21
233.49999999962751
 31
0.0
  0
LINE
  5
214
  8
DATA
  6
CONTINUOUS
 62
     7
 10
159.00000000011451
 20
233.49999999962751
 30
0.0
 11
172.00000000011431
 21
233.49999999962751
 31
0.0
  0
LINE
  5
215
  8
DATA
  6
CONTINUOUS
 62
     7
 10
175.50000000011431
 20
233.49999999962751
 30
0.0
 11
199.5000000001144
 21
233.49999999962751
 31
0.0
  0
LINE
  5
216
  8
DATA
  6
CONTINUOUS
 62
     7
 10
203.0000000001144
 20
233.49999999962751
 30
0.0
 11
216.0000000001144
 21
233.49999999962751
 31
0.0
  0
LINE
  5
217
  8
DATA
  6
CONTINUOUS
 62
     7
 10
219.5000000001144
 20
233.49999999962751
 30
0.0
 11
221.50000000011451
 21
233.49999999962751
 31
0.0
  0
LINE
  5
218
  8
DATA
  6
CONTINUOUS
 62
     7
 10
151.5000000001146
 20
242.49999999962731
 30
0.0
 11
155.5000000001146
 21
242.49999999962731
 31
0.0
  0
LINE
  5
219
  8
DATA
  6
CONTINUOUS
 62
     7
 10
160.00000000011451
 20
242.49999999962731
 30
0.0
 11
170.00000000011431
 21
242.49999999962731
 31
0.0
  0
LINE
  5
21A
  8
DATA
  6
CONTINUOUS
 62
     7
 10
176.50000000011431
 20
242.49999999962731
 30
0.0
 11
198.5000000001144
 21
242.49999999962731
 31
0.0
  0
LINE
  5
21B
  8
DATA
  6
CONTINUOUS
 62
     7
 10
205.0000000001144
 20
242.49999999962731
 30
0.0
 11
215.0000000001144
 21
242.49999999962731
 31
0.0
  0
LINE
  5
21C
  8
DATA
  6
CONTINUOUS
 62
     7
 10
219.5000000001144
 20
242.49999999962731
 30
0.0
 11
223.50000000011451
 21
242.49999999962731
 31
0.0
  0
LINE
  5
21D
  8
DATA
  6
CONTINUOUS
 62
     7
 10
156.30000000011461
 20
244.99999999962719
 30
0.0
 11
158.2000000001145
 21
244.99999999962719
 31
0.0
  0
LINE
  5
21E
  8
DATA
  6
CONTINUOUS
 62
     7
 10
172.8000000001143
 20
244.99999999962719
 30
0.0
 11
174.7000000001143
 21
244.99999999962719
 31
0.0
  0
LINE
  5
21F
  8
DATA
  6
CONTINUOUS
 62
     7
 10
200.30000000011441
 20
244.99999999962719
 30
0.0
 11
202.20000000011439
 21
244.99999999962719
 31
0.0
  0
LINE
  5
220
  8
DATA
  6
CONTINUOUS
 62
     7
 10
216.80000000011441
 20
244.99999999962719
 30
0.0
 11
218.70000000011439
 21
244.99999999962719
 31
0.0
  0
LINE
  5
221
  8
DATA
  6
CONTINUOUS
 62
     7
 10
151.5000000001146
 20
239.2999999996274
 30
0.0
 11
151.5000000001146
 21
239.99999999962731
 31
0.0
  0
LINE
  5
222
  8
DATA
  6
CONTINUOUS
 62
     7
 10
223.50000000011451
 20
239.99999999962731
 30
0.0
 11
223.50000000011451
 21
239.2999999996274
 31
0.0
  0
LINE
  5
223
  8
DATA
  6
CONTINUOUS
 62
     7
 10
155.5000000001146
 20
226.49999999962759
 30
0.0
 11
155.5000000001146
 21
244.19999999962721
 31
0.0
  0
LINE
  5
224
  8
DATA
  6
CONTINUOUS
 62
     7
 10
219.5000000001144
 20
244.19999999962721
 30
0.0
 11
219.5000000001144
 21
226.49999999962759
 31
0.0
  0
LINE
  5
225
  8
DATA
  6
CONTINUOUS
 62
     7
 10
219.5000000001144
 20
212.4999999996277
 30
0.0
 11
219.5000000001144
 21
212.4704320973228
 31
0.0
  0
LINE
  5
226
  8
DATA
  6
CONTINUOUS
 62
     7
 10
159.00000000011451
 20
226.49999999962759
 30
0.0
 11
159.00000000011451
 21
244.19999999962721
 31
0.0
  0
LINE
  5
227
  8
DATA
  6
CONTINUOUS
 62
     7
 10
216.0000000001144
 20
244.19999999962721
 30
0.0
 11
216.0000000001144
 21
226.49999999962759
 31
0.0
  0
LINE
  5
228
  8
DATA
  6
CONTINUOUS
 62
     7
 10
152.30000000011461
 20
238.49999999962739
 30
0.0
 11
155.5000000001146
 21
238.49999999962739
 31
0.0
  0
LINE
  5
229
  8
DATA
  6
CONTINUOUS
 62
     7
 10
219.5000000001144
 20
238.49999999962739
 30
0.0
 11
222.70000000011439
 21
238.49999999962739
 31
0.0
  0
LINE
  5
22A
  8
DATA
  6
CONTINUOUS
 62
     7
 10
151.5000000001146
 20
240.79999999962729
 30
0.0
 11
155.5000000001146
 21
240.79999999962729
 31
0.0
  0
LINE
  5
22B
  8
DATA
  6
CONTINUOUS
 62
     7
 10
176.3000000001143
 20
240.79999999962729
 30
0.0
 11
198.70000000011439
 21
240.79999999962729
 31
0.0
  0
LINE
  5
22C
  8
DATA
  6
CONTINUOUS
 62
     7
 10
219.5000000001144
 20
240.79999999962729
 30
0.0
 11
223.50000000011451
 21
240.79999999962729
 31
0.0
  0
LINE
  5
22D
  8
DATA
  6
CONTINUOUS
 62
     7
 10
170.00000000011431
 20
240.79999999962729
 30
0.0
 11
170.00000000011431
 21
242.49999999962731
 31
0.0
  0
LINE
  5
22E
  8
DATA
  6
CONTINUOUS
 62
     7
 10
205.0000000001144
 20
240.79999999962729
 30
0.0
 11
205.0000000001144
 21
242.49999999962731
 31
0.0
  0
LINE
  5
22F
  8
DATA
  6
CONTINUOUS
 62
     7
 10
172.00000000011431
 20
240.79999999962729
 30
0.0
 11
170.00000000011431
 21
240.79999999962729
 31
0.0
  0
LINE
  5
230
  8
DATA
  6
CONTINUOUS
 62
     7
 10
203.0000000001144
 20
240.79999999962729
 30
0.0
 11
205.0000000001144
 21
240.79999999962729
 31
0.0
  0
LINE
  5
231
  8
DATA
  6
CONTINUOUS
 62
     7
 10
160.00000000011451
 20
240.79999999962729
 30
0.0
 11
160.00000000011451
 21
242.49999999962731
 31
0.0
  0
LINE
  5
232
  8
DATA
  6
CONTINUOUS
 62
     7
 10
159.00000000011451
 20
240.79999999962729
 30
0.0
 11
160.00000000011451
 21
240.79999999962729
 31
0.0
  0
LINE
  5
233
  8
DATA
  6
CONTINUOUS
 62
     7
 10
215.0000000001144
 20
242.49999999962731
 30
0.0
 11
215.0000000001144
 21
240.79999999962729
 31
0.0
  0
LINE
  5
234
  8
DATA
  6
CONTINUOUS
 62
     7
 10
216.0000000001144
 20
240.79999999962729
 30
0.0
 11
215.0000000001144
 21
240.79999999962729
 31
0.0
  0
LINE
  5
235
  8
DATA
  6
CONTINUOUS
 62
     7
 10
153.5000000001146
 20
233.49999999962751
 30
0.0
 11
153.5000000001146
 21
238.49999999962739
 31
0.0
  0
LINE
  5
236
  8
DATA
  6
CONTINUOUS
 62
     7
 10
221.50000000011451
 20
238.49999999962739
 30
0.0
 11
221.50000000011451
 21
233.49999999962751
 31
0.0
  0
LINE
  5
237
  8
DATA
  6
CONTINUOUS
 62
     7
 10
176.3000000001143
 20
238.49999999962739
 30
0.0
 11
198.70000000011439
 21
238.49999999962739
 31
0.0
  0
LINE
  5
238
  8
DATA
  6
CONTINUOUS
 62
     7
 10
176.50000000011431
 20
240.79999999962729
 30
0.0
 11
176.50000000011431
 21
242.49999999962731
 31
0.0
  0
LINE
  5
239
  8
DATA
  6
CONTINUOUS
 62
     7
 10
198.5000000001144
 20
240.79999999962729
 30
0.0
 11
198.5000000001144
 21
242.49999999962731
 31
0.0
  0
LINE
  5
23A
  8
DATA
  6
CONTINUOUS
 62
     7
 10
172.00000000011431
 20
212.4999999996277
 30
0.0
 11
172.00000000011431
 21
194.79999999962769
 31
0.0
  0
LINE
  5
23B
  8
DATA
  6
CONTINUOUS
 62
     7
 10
203.0000000001144
 20
194.79999999962769
 30
0.0
 11
203.0000000001144
 21
212.4999999996277
 31
0.0
  0
LINE
  5
23C
  8
DATA
  6
CONTINUOUS
 62
     7
 10
153.5000000001146
 20
205.4999999996277
 30
0.0
 11
155.5000000001146
 21
205.4999999996277
 31
0.0
  0
LINE
  5
23D
  8
DATA
  6
CONTINUOUS
 62
     7
 10
159.00000000011451
 20
205.4999999996277
 30
0.0
 11
172.00000000011431
 21
205.4999999996277
 31
0.0
  0
LINE
  5
23E
  8
DATA
  6
CONTINUOUS
 62
     7
 10
175.50000000011431
 20
205.4999999996277
 30
0.0
 11
199.5000000001144
 21
205.4999999996277
 31
0.0
  0
LINE
  5
23F
  8
DATA
  6
CONTINUOUS
 62
     7
 10
203.0000000001144
 20
205.4999999996277
 30
0.0
 11
216.0000000001144
 21
205.4999999996277
 31
0.0
  0
LINE
  5
240
  8
DATA
  6
CONTINUOUS
 62
     7
 10
219.5000000001144
 20
205.4999999996277
 30
0.0
 11
221.50000000011451
 21
205.4999999996277
 31
0.0
  0
LINE
  5
241
  8
DATA
  6
CONTINUOUS
 62
     7
 10
151.5000000001146
 20
196.49999999962759
 30
0.0
 11
155.5000000001146
 21
196.49999999962759
 31
0.0
  0
LINE
  5
242
  8
DATA
  6
CONTINUOUS
 62
     7
 10
160.00000000011451
 20
196.49999999962759
 30
0.0
 11
170.00000000011431
 21
196.49999999962759
 31
0.0
  0
LINE
  5
243
  8
DATA
  6
CONTINUOUS
 62
     7
 10
176.50000000011431
 20
196.49999999962759
 30
0.0
 11
198.5000000001144
 21
196.49999999962759
 31
0.0
  0
LINE
  5
244
  8
DATA
  6
CONTINUOUS
 62
     7
 10
205.0000000001144
 20
196.49999999962759
 30
0.0
 11
215.0000000001144
 21
196.49999999962759
 31
0.0
  0
LINE
  5
245
  8
DATA
  6
CONTINUOUS
 62
     7
 10
219.5000000001144
 20
196.49999999962759
 30
0.0
 11
223.50000000011451
 21
196.49999999962759
 31
0.0
  0
LINE
  5
246
  8
DATA
  6
CONTINUOUS
 62
     7
 10
156.30000000011461
 20
193.99999999962759
 30
0.0
 11
158.2000000001145
 21
193.99999999962759
 31
0.0
  0
LINE
  5
247
  8
DATA
  6
CONTINUOUS
 62
     7
 10
172.8000000001143
 20
193.99999999962759
 30
0.0
 11
174.7000000001143
 21
193.99999999962759
 31
0.0
  0
LINE
  5
248
  8
DATA
  6
CONTINUOUS
 62
     7
 10
200.30000000011441
 20
193.99999999962759
 30
0.0
 11
202.20000000011439
 21
193.99999999962759
 31
0.0
  0
LINE
  5
249
  8
DATA
  6
CONTINUOUS
 62
     7
 10
216.80000000011441
 20
193.99999999962759
 30
0.0
 11
218.70000000011439
 21
193.99999999962759
 31
0.0
  0
LINE
  5
24A
  8
DATA
  6
CONTINUOUS
 62
     7
 10
151.5000000001146
 20
199.69999999962761
 30
0.0
 11
151.5000000001146
 21
198.99999999962759
 31
0.0
  0
LINE
  5
24B
  8
DATA
  6
CONTINUOUS
 62
     7
 10
223.50000000011451
 20
198.99999999962759
 30
0.0
 11
223.50000000011451
 21
199.69999999962761
 31
0.0
  0
LINE
  5
24C
  8
DATA
  6
CONTINUOUS
 62
     7
 10
155.5000000001146
 20
212.4999999996277
 30
0.0
 11
155.5000000001146
 21
194.79999999962769
 31
0.0
  0
LINE
  5
24D
  8
DATA
  6
CONTINUOUS
 62
     7
 10
219.5000000001144
 20
194.79999999962769
 30
0.0
 11
219.5000000001144
 21
212.4999999996277
 31
0.0
  0
LINE
  5
24E
  8
DATA
  6
CONTINUOUS
 62
     7
 10
159.00000000011451
 20
212.4999999996277
 30
0.0
 11
159.00000000011451
 21
194.79999999962769
 31
0.0
  0
LINE
  5
24F
  8
DATA
  6
CONTINUOUS
 62
     7
 10
216.0000000001144
 20
194.79999999962769
 30
0.0
 11
216.0000000001144
 21
212.4999999996277
 31
0.0
  0
LINE
  5
250
  8
DATA
  6
CONTINUOUS
 62
     7
 10
152.30000000011461
 20
200.4999999996277
 30
0.0
 11
155.5000000001146
 21
200.4999999996277
 31
0.0
  0
LINE
  5
251
  8
DATA
  6
CONTINUOUS
 62
     7
 10
219.5000000001144
 20
200.4999999996277
 30
0.0
 11
222.70000000011439
 21
200.4999999996277
 31
0.0
  0
LINE
  5
252
  8
DATA
  6
CONTINUOUS
 62
     7
 10
151.5000000001146
 20
198.19999999962769
 30
0.0
 11
155.5000000001146
 21
198.19999999962769
 31
0.0
  0
LINE
  5
253
  8
DATA
  6
CONTINUOUS
 62
     7
 10
176.3000000001143
 20
198.19999999962769
 30
0.0
 11
198.70000000011439
 21
198.19999999962769
 31
0.0
  0
LINE
  5
254
  8
DATA
  6
CONTINUOUS
 62
     7
 10
219.5000000001144
 20
198.19999999962769
 30
0.0
 11
223.50000000011451
 21
198.19999999962769
 31
0.0
  0
LINE
  5
255
  8
DATA
  6
CONTINUOUS
 62
     7
 10
170.00000000011431
 20
198.19999999962769
 30
0.0
 11
170.00000000011431
 21
196.49999999962759
 31
0.0
  0
LINE
  5
256
  8
DATA
  6
CONTINUOUS
 62
     7
 10
205.0000000001144
 20
198.19999999962769
 30
0.0
 11
205.0000000001144
 21
196.49999999962759
 31
0.0
  0
LINE
  5
257
  8
DATA
  6
CONTINUOUS
 62
     7
 10
172.00000000011431
 20
198.19999999962769
 30
0.0
 11
170.00000000011431
 21
198.19999999962769
 31
0.0
  0
LINE
  5
258
  8
DATA
  6
CONTINUOUS
 62
     7
 10
203.0000000001144
 20
198.19999999962769
 30
0.0
 11
205.0000000001144
 21
198.19999999962769
 31
0.0
  0
LINE
  5
259
  8
DATA
  6
CONTINUOUS
 62
     7
 10
160.00000000011451
 20
198.19999999962769
 30
0.0
 11
160.00000000011451
 21
196.49999999962759
 31
0.0
  0
LINE
  5
25A
  8
DATA
  6
CONTINUOUS
 62
     7
 10
159.00000000011451
 20
198.19999999962769
 30
0.0
 11
160.00000000011451
 21
198.19999999962769
 31
0.0
  0
LINE
  5
25B
  8
DATA
  6
CONTINUOUS
 62
     7
 10
215.0000000001144
 20
196.49999999962759
 30
0.0
 11
215.0000000001144
 21
198.19999999962769
 31
0.0
  0
LINE
  5
25C
  8
DATA
  6
CONTINUOUS
 62
     7
 10
216.0000000001144
 20
198.19999999962769
 30
0.0
 11
215.0000000001144
 21
198.19999999962769
 31
0.0
  0
LINE
  5
25D
  8
DATA
  6
CONTINUOUS
 62
     7
 10
153.5000000001146
 20
205.4999999996277
 30
0.0
 11
153.5000000001146
 21
200.4999999996277
 31
0.0
  0
LINE
  5
25E
  8
DATA
  6
CONTINUOUS
 62
     7
 10
221.50000000011451
 20
200.4999999996277
 30
0.0
 11
221.50000000011451
 21
205.4999999996277
 31
0.0
  0
LINE
  5
25F
  8
DATA
  6
CONTINUOUS
 62
     7
 10
176.3000000001143
 20
200.4999999996277
 30
0.0
 11
198.70000000011439
 21
200.4999999996277
 31
0.0
  0
LINE
  5
260
  8
DATA
  6
CONTINUOUS
 62
     7
 10
176.50000000011431
 20
198.19999999962769
 30
0.0
 11
176.50000000011431
 21
196.49999999962759
 31
0.0
  0
LINE
  5
261
  8
DATA
  6
CONTINUOUS
 62
     7
 10
198.5000000001144
 20
198.19999999962769
 30
0.0
 11
198.5000000001144
 21
196.49999999962759
 31
0.0
  0
LINE
  5
262
  8
DATA
  6
CONTINUOUS
 62
     7
 10
157.50000000011451
 20
174.99999999962759
 30
0.0
 11
157.50000000011451
 21
191.99999999962759
 31
0.0
  0
LINE
  5
263
  8
DATA
  6
CONTINUOUS
 62
     7
 10
217.5000000001144
 20
191.99999999962759
 30
0.0
 11
217.5000000001144
 21
174.99999999962759
 31
0.0
  0
LINE
  5
264
  8
DATA
  6
CONTINUOUS
 62
     7
 10
157.50000000011451
 20
174.99999999962759
 30
0.0
 11
217.5000000001144
 21
174.99999999962759
 31
0.0
  0
LINE
  5
265
  8
DATA
  6
CONTINUOUS
 62
     7
 10
157.50000000011451
 20
191.99999999962759
 30
0.0
 11
217.5000000001144
 21
191.99999999962759
 31
0.0
  0
LINE
  5
266
  8
DATA
  6
CONTINUOUS
 62
     7
 10
160.50000000011451
 20
191.99999999962759
 30
0.0
 11
160.50000000011451
 21
196.49999999962759
 31
0.0
  0
LINE
  5
267
  8
DATA
  6
CONTINUOUS
 62
     7
 10
214.5000000001144
 20
191.99999999962759
 30
0.0
 11
214.5000000001144
 21
196.49999999962759
 31
0.0
  0
LINE
  5
268
  8
DATA
  6
CONTINUOUS
 62
     7
 10
188.75000000011431
 20
191.99999999962759
 30
0.0
 11
188.75000000011431
 21
174.99999999962759
 31
0.0
  0
LINE
  5
269
  8
DATA
  6
CONTINUOUS
 62
     7
 10
186.25000000011431
 20
174.99999999962759
 30
0.0
 11
186.25000000011431
 21
191.99999999962759
 31
0.0
  0
LINE
  5
26A
  8
DATA
  6
CONTINUOUS
 62
     7
 10
198.7500000001144
 20
191.99999999962759
 30
0.0
 11
198.7500000001144
 21
174.99999999962759
 31
0.0
  0
LINE
  5
26B
  8
DATA
  6
CONTINUOUS
 62
     7
 10
196.2500000001144
 20
174.99999999962759
 30
0.0
 11
196.2500000001144
 21
191.99999999962759
 31
0.0
  0
LINE
  5
26C
  8
DATA
  6
CONTINUOUS
 62
     7
 10
207.7500000001144
 20
191.99999999962759
 30
0.0
 11
207.7500000001144
 21
174.99999999962759
 31
0.0
  0
LINE
  5
26D
  8
DATA
  6
CONTINUOUS
 62
     7
 10
205.2500000001144
 20
174.99999999962759
 30
0.0
 11
205.2500000001144
 21
191.99999999962759
 31
0.0
  0
LINE
  5
26E
  8
DATA
  6
CONTINUOUS
 62
     7
 10
215.7500000001144
 20
191.99999999962759
 30
0.0
 11
215.7500000001144
 21
174.99999999962759
 31
0.0
  0
LINE
  5
26F
  8
DATA
  6
CONTINUOUS
 62
     7
 10
213.2500000001144
 20
174.99999999962759
 30
0.0
 11
213.2500000001144
 21
191.99999999962759
 31
0.0
  0
LINE
  5
270
  8
DATA
  6
CONTINUOUS
 62
     7
 10
178.75000000011431
 20
191.99999999962759
 30
0.0
 11
178.75000000011431
 21
174.99999999962759
 31
0.0
  0
LINE
  5
271
  8
DATA
  6
CONTINUOUS
 62
     7
 10
176.25000000011431
 20
174.99999999962759
 30
0.0
 11
176.25000000011431
 21
191.99999999962759
 31
0.0
  0
LINE
  5
272
  8
DATA
  6
CONTINUOUS
 62
     7
 10
169.75000000011431
 20
191.99999999962759
 30
0.0
 11
169.75000000011431
 21
174.99999999962759
 31
0.0
  0
LINE
  5
273
  8
DATA
  6
CONTINUOUS
 62
     7
 10
167.2500000001144
 20
174.99999999962759
 30
0.0
 11
167.2500000001144
 21
191.99999999962759
 31
0.0
  0
LINE
  5
274
  8
DATA
  6
CONTINUOUS
 62
     7
 10
161.7500000001144
 20
191.99999999962759
 30
0.0
 11
161.7500000001144
 21
174.99999999962759
 31
0.0
  0
LINE
  5
275
  8
DATA
  6
CONTINUOUS
 62
     7
 10
159.25000000011451
 20
174.99999999962759
 30
0.0
 11
159.25000000011451
 21
191.99999999962759
 31
0.0
  0
LINE
  5
276
  8
DATA
  6
CONTINUOUS
 62
     7
 10
170.40000000011429
 20
233.49999999962751
 30
0.0
 11
159.00000000011451
 21
226.49999999962759
 31
0.0
  0
LINE
  5
277
  8
DATA
  6
CONTINUOUS
 62
     7
 10
161.80000000011449
 20
226.49999999962759
 30
0.0
 11
172.00000000011431
 21
232.99999999962751
 31
0.0
  0
LINE
  5
278
  8
DATA
  6
CONTINUOUS
 62
     7
 10
204.60000000011439
 20
233.49999999962751
 30
0.0
 11
216.0000000001144
 21
226.49999999962759
 31
0.0
  0
LINE
  5
279
  8
DATA
  6
CONTINUOUS
 62
     7
 10
213.20000000011439
 20
226.49999999962759
 30
0.0
 11
203.0000000001144
 21
232.99999999962751
 31
0.0
  0
LINE
  5
27A
  8
DATA
  6
CONTINUOUS
 62
     7
 10
170.40000000011429
 20
205.4999999996277
 30
0.0
 11
159.00000000011451
 21
212.4999999996277
 31
0.0
  0
LINE
  5
27B
  8
DATA
  6
CONTINUOUS
 62
     7
 10
161.80000000011449
 20
212.4999999996277
 30
0.0
 11
172.00000000011431
 21
205.9999999996277
 31
0.0
  0
LINE
  5
27C
  8
DATA
  6
CONTINUOUS
 62
     7
 10
204.60000000011439
 20
205.4999999996277
 30
0.0
 11
216.0000000001144
 21
212.4999999996277
 31
0.0
  0
LINE
  5
27D
  8
DATA
  6
CONTINUOUS
 62
     7
 10
213.20000000011439
 20
212.4999999996277
 30
0.0
 11
203.0000000001144
 21
205.9999999996277
 31
0.0
  0
ARC
  5
27E
  8
DATA
  6
CONTINUOUS
 62
     7
 10
156.30000000011461
 20
244.19999999962721
 30
0.0
 40
0.7999999999999689
 50
90.0
 51
180.0
  0
ARC
  5
27F
  8
DATA
  6
CONTINUOUS
 62
     7
 10
158.2000000001145
 20
244.19999999962721
 30
0.0
 40
0.7999999999999972
 50
0.0
 51
90.0
  0
ARC
  5
280
  8
DATA
  6
CONTINUOUS
 62
     7
 10
172.8000000001143
 20
244.19999999962721
 30
0.0
 40
0.7999999999999689
 50
90.0
 51
180.0
  0
ARC
  5
281
  8
DATA
  6
CONTINUOUS
 62
     7
 10
174.7000000001143
 20
244.19999999962721
 30
0.0
 40
0.8000000000000113
 50
0.0
 51
89.999999999998977
  0
ARC
  5
282
  8
DATA
  6
CONTINUOUS
 62
     7
 10
200.30000000011441
 20
244.19999999962721
 30
0.0
 40
0.7999999999999689
 50
90.0
 51
180.0
  0
ARC
  5
283
  8
DATA
  6
CONTINUOUS
 62
     7
 10
202.20000000011439
 20
244.19999999962721
 30
0.0
 40
0.8000000000000184
 50
0.0
 51
89.999999999998977
  0
ARC
  5
284
  8
DATA
  6
CONTINUOUS
 62
     7
 10
216.80000000011441
 20
244.19999999962721
 30
0.0
 40
0.7999999999999689
 50
90.0
 51
180.0
  0
ARC
  5
285
  8
DATA
  6
CONTINUOUS
 62
     7
 10
218.70000000011439
 20
244.19999999962721
 30
0.0
 40
0.8000000000000184
 50
0.0
 51
89.999999999998977
  0
ARC
  5
286
  8
DATA
  6
CONTINUOUS
 62
     7
 10
156.30000000011461
 20
194.79999999962769
 30
0.0
 40
0.7999999999999972
 50
180.0
 51
270.0
  0
ARC
  5
287
  8
DATA
  6
CONTINUOUS
 62
     7
 10
158.2000000001145
 20
194.79999999962769
 30
0.0
 40
0.799999999999983
 50
270.0
 51
0.0
  0
ARC
  5
288
  8
DATA
  6
CONTINUOUS
 62
     7
 10
172.8000000001143
 20
194.79999999962769
 30
0.0
 40
0.8000000000000113
 50
180.0
 51
269.99999999999898
  0
ARC
  5
289
  8
DATA
  6
CONTINUOUS
 62
     7
 10
174.7000000001143
 20
194.79999999962769
 30
0.0
 40
0.799999999999983
 50
270.0
 51
0.0
  0
ARC
  5
28A
  8
DATA
  6
CONTINUOUS
 62
     7
 10
200.30000000011441
 20
194.79999999962769
 30
0.0
 40
0.8000000000000184
 50
180.0
 51
269.99999999999898
  0
ARC
  5
28B
  8
DATA
  6
CONTINUOUS
 62
     7
 10
202.20000000011439
 20
194.79999999962769
 30
0.0
 40
0.799999999999983
 50
270.0
 51
0.0
  0
ARC
  5
28C
  8
DATA
  6
CONTINUOUS
 62
     7
 10
216.80000000011441
 20
194.79999999962769
 30
0.0
 40
0.8000000000000113
 50
180.0
 51
269.99999999999898
  0
ARC
  5
28D
  8
DATA
  6
CONTINUOUS
 62
     7
 10
218.70000000011439
 20
194.79999999962769
 30
0.0
 40
0.799999999999983
 50
270.0
 51
0.0
  0
ARC
  5
28E
  8
DATA
  6
CONTINUOUS
 62
     7
 10
176.3000000001143
 20
239.99999999962731
 30
0.0
 40
0.8000000000000113
 50
90.0
 51
180.0
  0
ARC
  5
28F
  8
DATA
  6
CONTINUOUS
 62
     7
 10
176.3000000001143
 20
239.2999999996274
 30
0.0
 40
0.8000000000000113
 50
180.0
 51
269.99999999999898
  0
ARC
  5
290
  8
DATA
  6
CONTINUOUS
 62
     7
 10
198.70000000011439
 20
239.99999999962731
 30
0.0
 40
0.8000000000000184
 50
0.0
 51
89.999999999998977
  0
ARC
  5
291
  8
DATA
  6
CONTINUOUS
 62
     7
 10
198.70000000011439
 20
239.2999999996274
 30
0.0
 40
0.8000000000000113
 50
270.0
 51
0.0
  0
LINE
  5
292
  8
DATA
  6
CONTINUOUS
 62
     7
 10
175.50000000011431
 20
244.19999999962721
 30
0.0
 11
175.50000000011431
 21
226.49999999962759
 31
0.0
  0
LINE
  5
293
  8
DATA
  6
CONTINUOUS
 62
     7
 10
199.5000000001144
 20
244.19999999962721
 30
0.0
 11
199.5000000001144
 21
226.49999999962759
 31
0.0
  0
ARC
  5
294
  8
DATA
  6
CONTINUOUS
 62
     7
 10
176.3000000001143
 20
199.69999999962761
 30
0.0
 40
0.8000000000000113
 50
90.0
 51
180.0
  0
ARC
  5
295
  8
DATA
  6
CONTINUOUS
 62
     7
 10
176.3000000001143
 20
198.99999999962759
 30
0.0
 40
0.8000000000000113
 50
180.0
 51
269.99999999999898
  0
ARC
  5
296
  8
DATA
  6
CONTINUOUS
 62
     7
 10
198.70000000011439
 20
199.69999999962761
 30
0.0
 40
0.8000000000000184
 50
0.0
 51
89.999999999998977
  0
ARC
  5
297
  8
DATA
  6
CONTINUOUS
 62
     7
 10
198.70000000011439
 20
198.99999999962759
 30
0.0
 40
0.8000000000000113
 50
270.0
 51
0.0
  0
LINE
  5
298
  8
DATA
  6
CONTINUOUS
 62
     7
 10
175.50000000011431
 20
194.79999999962769
 30
0.0
 11
175.50000000011431
 21
212.4999999996277
 31
0.0
  0
LINE
  5
299
  8
DATA
  6
CONTINUOUS
 62
     7
 10
199.5000000001144
 20
194.79999999962769
 30
0.0
 11
199.5000000001144
 21
212.4999999996277
 31
0.0
  0
ARC
  5
29A
  8
DATA
  6
CONTINUOUS
 62
     7
 10
152.30000000011461
 20
239.2999999996274
 30
0.0
 40
0.7999999999999972
 50
180.0
 51
270.0
  0
ARC
  5
29B
  8
DATA
  6
CONTINUOUS
 62
     7
 10
152.30000000011461
 20
239.99999999962731
 30
0.0
 40
0.8000000000000113
 50
90.0
 51
180.0
  0
ARC
  5
29C
  8
DATA
  6
CONTINUOUS
 62
     7
 10
222.70000000011439
 20
239.99999999962731
 30
0.0
 40
0.8000000000000255
 50
0.0
 51
89.999999999998977
  0
ARC
  5
29D
  8
DATA
  6
CONTINUOUS
 62
     7
 10
222.70000000011439
 20
239.2999999996274
 30
0.0
 40
0.8000000000000113
 50
270.0
 51
0.0
  0
ARC
  5
29E
  8
DATA
  6
CONTINUOUS
 62
     7
 10
152.30000000011461
 20
199.69999999962761
 30
0.0
 40
0.8000000000000113
 50
90.0
 51
180.0
  0
ARC
  5
29F
  8
DATA
  6
CONTINUOUS
 62
     7
 10
152.30000000011461
 20
198.99999999962759
 30
0.0
 40
0.7999999999999972
 50
180.0
 51
270.0
  0
ARC
  5
2A0
  8
DATA
  6
CONTINUOUS
 62
     7
 10
222.70000000011439
 20
199.69999999962761
 30
0.0
 40
0.8000000000000255
 50
0.0
 51
89.999999999998977
  0
ARC
  5
2A1
  8
DATA
  6
CONTINUOUS
 62
     7
 10
222.70000000011439
 20
198.99999999962759
 30
0.0
 40
0.8000000000000113
 50
270.0
 51
0.0
  0
LINE
  5
2A2
  8
DATA
  6
CONTINUOUS
 62
     7
 10
151.5000000001146
 20
242.49999999962731
 30
0.0
 11
151.5000000001146
 21
240.79999999962729
 31
0.0
  0
LINE
  5
2A3
  8
DATA
  6
CONTINUOUS
 62
     7
 10
223.50000000011451
 20
242.49999999962731
 30
0.0
 11
223.50000000011451
 21
240.79999999962729
 31
0.0
  0
LINE
  5
2A4
  8
DATA
  6
CONTINUOUS
 62
     7
 10
151.5000000001146
 20
196.49999999962759
 30
0.0
 11
151.5000000001146
 21
198.19999999962769
 31
0.0
  0
LINE
  5
2A5
  8
DATA
  6
CONTINUOUS
 62
     7
 10
223.50000000011451
 20
196.49999999962759
 30
0.0
 11
223.50000000011451
 21
198.19999999962769
 31
0.0
  0
LINE
  5
2A6
  8
DATA
  6
CONTINUOUS
 62
     7
 10
273.0357384224244
 20
212.50000000008009
 30
0.0
 11
273.0357384224244
 21
226.50000000007989
 31
0.0
  0
LINE
  5
2A7
  8
DATA
  6
CONTINUOUS
 62
     7
 10
373.03573842242417
 20
226.50000000007989
 30
0.0
 11
373.03573842242417
 21
212.50000000008009
 31
0.0
  0
LINE
  5
2A8
  8
DATA
  6
CONTINUOUS
 62
     7
 10
373.03573842242417
 20
212.50000000008009
 30
0.0
 11
273.0357384224244
 21
212.50000000008009
 31
0.0
  0
LINE
  5
2A9
  8
DATA
  6
CONTINUOUS
 62
     7
 10
273.0357384224244
 20
226.50000000007989
 30
0.0
 11
373.03573842242417
 21
226.50000000007989
 31
0.0
  0
LINE
  5
2AA
  8
DATA
  6
CONTINUOUS
 62
     7
 10
297.0357384224244
 20
212.50000000008009
 30
0.0
 11
297.0357384224244
 21
226.50000000007989
 31
0.0
  0
LINE
  5
2AB
  8
DATA
  6
CONTINUOUS
 62
     7
 10
349.03573842242429
 20
226.50000000007989
 30
0.0
 11
349.03573842242429
 21
212.50000000008009
 31
0.0
  0
LINE
  5
2AC
  8
DATA
  6
CONTINUOUS
 62
     7
 10
290.0357384224244
 20
212.50000000008009
 30
0.0
 11
290.0357384224244
 21
226.50000000007989
 31
0.0
  0
LINE
  5
2AD
  8
DATA
  6
CONTINUOUS
 62
     7
 10
356.03573842242417
 20
226.50000000007989
 30
0.0
 11
356.03573842242417
 21
212.50000000008009
 31
0.0
  0
LINE
  5
2AE
  8
DATA
  6
CONTINUOUS
 62
     7
 10
294.5357384224244
 20
212.50000000008009
 30
0.0
 11
294.5357384224244
 21
226.50000000007989
 31
0.0
  0
LINE
  5
2AF
  8
DATA
  6
CONTINUOUS
 62
     7
 10
351.53573842242417
 20
226.50000000007989
 30
0.0
 11
351.53573842242417
 21
212.50000000008009
 31
0.0
  0
LINE
  5
2B0
  8
DATA
  6
CONTINUOUS
 62
     7
 10
286.5357384224244
 20
212.50000000008009
 30
0.0
 11
286.5357384224244
 21
226.50000000007989
 31
0.0
  0
LINE
  5
2B1
  8
DATA
  6
CONTINUOUS
 62
     7
 10
359.53573842242417
 20
226.50000000007989
 30
0.0
 11
359.53573842242417
 21
212.50000000008009
 31
0.0
  0
LINE
  5
2B2
  8
DATA
  6
CONTINUOUS
 62
     7
 10
283.5357384224244
 20
212.50000000008009
 30
0.0
 11
283.5357384224244
 21
226.50000000007989
 31
0.0
  0
LINE
  5
2B3
  8
DATA
  6
CONTINUOUS
 62
     7
 10
362.53573842242417
 20
226.50000000007989
 30
0.0
 11
362.53573842242417
 21
212.50000000008009
 31
0.0
  0
LINE
  5
2B4
  8
DATA
  6
CONTINUOUS
 62
     7
 10
282.0357384224244
 20
212.50000000008009
 30
0.0
 11
282.0357384224244
 21
226.50000000007989
 31
0.0
  0
LINE
  5
2B5
  8
DATA
  6
CONTINUOUS
 62
     7
 10
364.03573842242417
 20
226.50000000007989
 30
0.0
 11
364.03573842242417
 21
212.50000000008009
 31
0.0
  0
LINE
  5
2B6
  8
DATA
  6
CONTINUOUS
 62
     7
 10
307.5357384224244
 20
226.50000000007989
 30
0.0
 11
307.5357384224244
 21
244.2000000000796
 31
0.0
  0
LINE
  5
2B7
  8
DATA
  6
CONTINUOUS
 62
     7
 10
338.5357384224244
 20
244.2000000000796
 30
0.0
 11
338.5357384224244
 21
226.50000000007989
 31
0.0
  0
LINE
  5
2B8
  8
DATA
  6
CONTINUOUS
 62
     7
 10
289.0357384224244
 20
233.50000000007981
 30
0.0
 11
291.0357384224244
 21
233.50000000007981
 31
0.0
  0
LINE
  5
2B9
  8
DATA
  6
CONTINUOUS
 62
     7
 10
294.5357384224244
 20
233.50000000007981
 30
0.0
 11
307.5357384224244
 21
233.50000000007981
 31
0.0
  0
LINE
  5
2BA
  8
DATA
  6
CONTINUOUS
 62
     7
 10
311.0357384224244
 20
233.50000000007981
 30
0.0
 11
335.0357384224244
 21
233.50000000007981
 31
0.0
  0
LINE
  5
2BB
  8
DATA
  6
CONTINUOUS
 62
     7
 10
338.5357384224244
 20
233.50000000007981
 30
0.0
 11
351.53573842242417
 21
233.50000000007981
 31
0.0
  0
LINE
  5
2BC
  8
DATA
  6
CONTINUOUS
 62
     7
 10
355.03573842242417
 20
233.50000000007981
 30
0.0
 11
357.03573842242417
 21
233.50000000007981
 31
0.0
  0
LINE
  5
2BD
  8
DATA
  6
CONTINUOUS
 62
     7
 10
287.0357384224244
 20
242.50000000007961
 30
0.0
 11
291.0357384224244
 21
242.50000000007961
 31
0.0
  0
LINE
  5
2BE
  8
DATA
  6
CONTINUOUS
 62
     7
 10
295.5357384224244
 20
242.50000000007961
 30
0.0
 11
305.5357384224244
 21
242.50000000007961
 31
0.0
  0
LINE
  5
2BF
  8
DATA
  6
CONTINUOUS
 62
     7
 10
312.0357384224244
 20
242.50000000007961
 30
0.0
 11
334.0357384224244
 21
242.50000000007961
 31
0.0
  0
LINE
  5
2C0
  8
DATA
  6
CONTINUOUS
 62
     7
 10
340.5357384224244
 20
242.50000000007961
 30
0.0
 11
350.53573842242417
 21
242.50000000007961
 31
0.0
  0
LINE
  5
2C1
  8
DATA
  6
CONTINUOUS
 62
     7
 10
355.03573842242417
 20
242.50000000007961
 30
0.0
 11
359.03573842242417
 21
242.50000000007961
 31
0.0
  0
LINE
  5
2C2
  8
DATA
  6
CONTINUOUS
 62
     7
 10
291.83573842242441
 20
245.0000000000795
 30
0.0
 11
293.73573842242439
 21
245.0000000000795
 31
0.0
  0
LINE
  5
2C3
  8
DATA
  6
CONTINUOUS
 62
     7
 10
308.33573842242441
 20
245.0000000000795
 30
0.0
 11
310.23573842242439
 21
245.0000000000795
 31
0.0
  0
LINE
  5
2C4
  8
DATA
  6
CONTINUOUS
 62
     7
 10
335.83573842242441
 20
245.0000000000795
 30
0.0
 11
337.73573842242439
 21
245.0000000000795
 31
0.0
  0
LINE
  5
2C5
  8
DATA
  6
CONTINUOUS
 62
     7
 10
352.33573842242419
 20
245.0000000000795
 30
0.0
 11
354.23573842242422
 21
245.0000000000795
 31
0.0
  0
LINE
  5
2C6
  8
DATA
  6
CONTINUOUS
 62
     7
 10
287.0357384224244
 20
239.30000000007971
 30
0.0
 11
287.0357384224244
 21
240.00000000007961
 31
0.0
  0
LINE
  5
2C7
  8
DATA
  6
CONTINUOUS
 62
     7
 10
359.03573842242417
 20
240.00000000007961
 30
0.0
 11
359.03573842242417
 21
239.30000000007971
 31
0.0
  0
LINE
  5
2C8
  8
DATA
  6
CONTINUOUS
 62
     7
 10
291.0357384224244
 20
226.50000000007989
 30
0.0
 11
291.0357384224244
 21
244.2000000000796
 31
0.0
  0
LINE
  5
2C9
  8
DATA
  6
CONTINUOUS
 62
     7
 10
355.03573842242417
 20
244.2000000000796
 30
0.0
 11
355.03573842242417
 21
226.50000000007989
 31
0.0
  0
LINE
  5
2CA
  8
DATA
  6
CONTINUOUS
 62
     7
 10
355.03573842242417
 20
212.50000000008009
 30
0.0
 11
355.03573842242417
 21
212.4704320977753
 31
0.0
  0
LINE
  5
2CB
  8
DATA
  6
CONTINUOUS
 62
     7
 10
294.5357384224244
 20
226.50000000007989
 30
0.0
 11
294.5357384224244
 21
244.2000000000796
 31
0.0
  0
LINE
  5
2CC
  8
DATA
  6
CONTINUOUS
 62
     7
 10
351.53573842242417
 20
244.2000000000796
 30
0.0
 11
351.53573842242417
 21
226.50000000007989
 31
0.0
  0
LINE
  5
2CD
  8
DATA
  6
CONTINUOUS
 62
     7
 10
287.83573842242441
 20
238.50000000007969
 30
0.0
 11
291.0357384224244
 21
238.50000000007969
 31
0.0
  0
LINE
  5
2CE
  8
DATA
  6
CONTINUOUS
 62
     7
 10
355.03573842242417
 20
238.50000000007969
 30
0.0
 11
358.23573842242422
 21
238.50000000007969
 31
0.0
  0
LINE
  5
2CF
  8
DATA
  6
CONTINUOUS
 62
     7
 10
287.0357384224244
 20
240.80000000007959
 30
0.0
 11
291.0357384224244
 21
240.80000000007959
 31
0.0
  0
LINE
  5
2D0
  8
DATA
  6
CONTINUOUS
 62
     7
 10
311.83573842242441
 20
240.80000000007959
 30
0.0
 11
334.23573842242439
 21
240.80000000007959
 31
0.0
  0
LINE
  5
2D1
  8
DATA
  6
CONTINUOUS
 62
     7
 10
355.03573842242417
 20
240.80000000007959
 30
0.0
 11
359.03573842242417
 21
240.80000000007959
 31
0.0
  0
LINE
  5
2D2
  8
DATA
  6
CONTINUOUS
 62
     7
 10
305.5357384224244
 20
240.80000000007959
 30
0.0
 11
305.5357384224244
 21
242.50000000007961
 31
0.0
  0
LINE
  5
2D3
  8
DATA
  6
CONTINUOUS
 62
     7
 10
340.5357384224244
 20
240.80000000007959
 30
0.0
 11
340.5357384224244
 21
242.50000000007961
 31
0.0
  0
LINE
  5
2D4
  8
DATA
  6
CONTINUOUS
 62
     7
 10
307.5357384224244
 20
240.80000000007959
 30
0.0
 11
305.5357384224244
 21
240.80000000007959
 31
0.0
  0
LINE
  5
2D5
  8
DATA
  6
CONTINUOUS
 62
     7
 10
338.5357384224244
 20
240.80000000007959
 30
0.0
 11
340.5357384224244
 21
240.80000000007959
 31
0.0
  0
LINE
  5
2D6
  8
DATA
  6
CONTINUOUS
 62
     7
 10
295.5357384224244
 20
240.80000000007959
 30
0.0
 11
295.5357384224244
 21
242.50000000007961
 31
0.0
  0
LINE
  5
2D7
  8
DATA
  6
CONTINUOUS
 62
     7
 10
294.5357384224244
 20
240.80000000007959
 30
0.0
 11
295.5357384224244
 21
240.80000000007959
 31
0.0
  0
LINE
  5
2D8
  8
DATA
  6
CONTINUOUS
 62
     7
 10
350.53573842242417
 20
242.50000000007961
 30
0.0
 11
350.53573842242417
 21
240.80000000007959
 31
0.0
  0
LINE
  5
2D9
  8
DATA
  6
CONTINUOUS
 62
     7
 10
351.53573842242417
 20
240.80000000007959
 30
0.0
 11
350.53573842242417
 21
240.80000000007959
 31
0.0
  0
LINE
  5
2DA
  8
DATA
  6
CONTINUOUS
 62
     7
 10
289.0357384224244
 20
233.50000000007981
 30
0.0
 11
289.0357384224244
 21
238.50000000007969
 31
0.0
  0
LINE
  5
2DB
  8
DATA
  6
CONTINUOUS
 62
     7
 10
357.03573842242417
 20
238.50000000007969
 30
0.0
 11
357.03573842242417
 21
233.50000000007981
 31
0.0
  0
LINE
  5
2DC
  8
DATA
  6
CONTINUOUS
 62
     7
 10
311.83573842242441
 20
238.50000000007969
 30
0.0
 11
334.23573842242439
 21
238.50000000007969
 31
0.0
  0
LINE
  5
2DD
  8
DATA
  6
CONTINUOUS
 62
     7
 10
312.0357384224244
 20
240.80000000007959
 30
0.0
 11
312.0357384224244
 21
242.50000000007961
 31
0.0
  0
LINE
  5
2DE
  8
DATA
  6
CONTINUOUS
 62
     7
 10
334.0357384224244
 20
240.80000000007959
 30
0.0
 11
334.0357384224244
 21
242.50000000007961
 31
0.0
  0
LINE
  5
2DF
  8
DATA
  6
CONTINUOUS
 62
     7
 10
307.5357384224244
 20
212.50000000008009
 30
0.0
 11
307.5357384224244
 21
194.8000000000801
 31
0.0
  0
LINE
  5
2E0
  8
DATA
  6
CONTINUOUS
 62
     7
 10
338.5357384224244
 20
194.8000000000801
 30
0.0
 11
338.5357384224244
 21
212.50000000008009
 31
0.0
  0
LINE
  5
2E1
  8
DATA
  6
CONTINUOUS
 62
     7
 10
289.0357384224244
 20
205.50000000008009
 30
0.0
 11
291.0357384224244
 21
205.50000000008009
 31
0.0
  0
LINE
  5
2E2
  8
DATA
  6
CONTINUOUS
 62
     7
 10
294.5357384224244
 20
205.50000000008009
 30
0.0
 11
307.5357384224244
 21
205.50000000008009
 31
0.0
  0
LINE
  5
2E3
  8
DATA
  6
CONTINUOUS
 62
     7
 10
311.0357384224244
 20
205.50000000008009
 30
0.0
 11
335.0357384224244
 21
205.50000000008009
 31
0.0
  0
LINE
  5
2E4
  8
DATA
  6
CONTINUOUS
 62
     7
 10
338.5357384224244
 20
205.50000000008009
 30
0.0
 11
351.53573842242417
 21
205.50000000008009
 31
0.0
  0
LINE
  5
2E5
  8
DATA
  6
CONTINUOUS
 62
     7
 10
355.03573842242417
 20
205.50000000008009
 30
0.0
 11
357.03573842242417
 21
205.50000000008009
 31
0.0
  0
LINE
  5
2E6
  8
DATA
  6
CONTINUOUS
 62
     7
 10
287.0357384224244
 20
196.50000000008009
 30
0.0
 11
291.0357384224244
 21
196.50000000008009
 31
0.0
  0
LINE
  5
2E7
  8
DATA
  6
CONTINUOUS
 62
     7
 10
295.5357384224244
 20
196.50000000008009
 30
0.0
 11
305.5357384224244
 21
196.50000000008009
 31
0.0
  0
LINE
  5
2E8
  8
DATA
  6
CONTINUOUS
 62
     7
 10
312.0357384224244
 20
196.50000000008009
 30
0.0
 11
334.0357384224244
 21
196.50000000008009
 31
0.0
  0
LINE
  5
2E9
  8
DATA
  6
CONTINUOUS
 62
     7
 10
340.5357384224244
 20
196.50000000008009
 30
0.0
 11
350.53573842242417
 21
196.50000000008009
 31
0.0
  0
LINE
  5
2EA
  8
DATA
  6
CONTINUOUS
 62
     7
 10
355.03573842242417
 20
196.50000000008009
 30
0.0
 11
359.03573842242417
 21
196.50000000008009
 31
0.0
  0
LINE
  5
2EB
  8
DATA
  6
CONTINUOUS
 62
     7
 10
291.83573842242441
 20
194.00000000008009
 30
0.0
 11
293.73573842242439
 21
194.00000000008009
 31
0.0
  0
LINE
  5
2EC
  8
DATA
  6
CONTINUOUS
 62
     7
 10
308.33573842242441
 20
194.00000000008009
 30
0.0
 11
310.23573842242439
 21
194.00000000008009
 31
0.0
  0
LINE
  5
2ED
  8
DATA
  6
CONTINUOUS
 62
     7
 10
335.83573842242441
 20
194.00000000008009
 30
0.0
 11
337.73573842242439
 21
194.00000000008009
 31
0.0
  0
LINE
  5
2EE
  8
DATA
  6
CONTINUOUS
 62
     7
 10
352.33573842242419
 20
194.00000000008009
 30
0.0
 11
354.23573842242422
 21
194.00000000008009
 31
0.0
  0
LINE
  5
2EF
  8
DATA
  6
CONTINUOUS
 62
     7
 10
287.0357384224244
 20
199.70000000008011
 30
0.0
 11
287.0357384224244
 21
199.00000000008009
 31
0.0
  0
LINE
  5
2F0
  8
DATA
  6
CONTINUOUS
 62
     7
 10
359.03573842242417
 20
199.00000000008009
 30
0.0
 11
359.03573842242417
 21
199.70000000008011
 31
0.0
  0
LINE
  5
2F1
  8
DATA
  6
CONTINUOUS
 62
     7
 10
291.0357384224244
 20
212.50000000008009
 30
0.0
 11
291.0357384224244
 21
194.8000000000801
 31
0.0
  0
LINE
  5
2F2
  8
DATA
  6
CONTINUOUS
 62
     7
 10
355.03573842242417
 20
194.8000000000801
 30
0.0
 11
355.03573842242417
 21
212.50000000008009
 31
0.0
  0
LINE
  5
2F3
  8
DATA
  6
CONTINUOUS
 62
     7
 10
294.5357384224244
 20
212.50000000008009
 30
0.0
 11
294.5357384224244
 21
194.8000000000801
 31
0.0
  0
LINE
  5
2F4
  8
DATA
  6
CONTINUOUS
 62
     7
 10
351.53573842242417
 20
194.8000000000801
 30
0.0
 11
351.53573842242417
 21
212.50000000008009
 31
0.0
  0
LINE
  5
2F5
  8
DATA
  6
CONTINUOUS
 62
     7
 10
287.83573842242441
 20
200.50000000008009
 30
0.0
 11
291.0357384224244
 21
200.50000000008009
 31
0.0
  0
LINE
  5
2F6
  8
DATA
  6
CONTINUOUS
 62
     7
 10
355.03573842242417
 20
200.50000000008009
 30
0.0
 11
358.23573842242422
 21
200.50000000008009
 31
0.0
  0
LINE
  5
2F7
  8
DATA
  6
CONTINUOUS
 62
     7
 10
287.0357384224244
 20
198.20000000008011
 30
0.0
 11
291.0357384224244
 21
198.20000000008011
 31
0.0
  0
LINE
  5
2F8
  8
DATA
  6
CONTINUOUS
 62
     7
 10
311.83573842242441
 20
198.20000000008011
 30
0.0
 11
334.23573842242439
 21
198.20000000008011
 31
0.0
  0
LINE
  5
2F9
  8
DATA
  6
CONTINUOUS
 62
     7
 10
355.03573842242417
 20
198.20000000008011
 30
0.0
 11
359.03573842242417
 21
198.20000000008011
 31
0.0
  0
LINE
  5
2FA
  8
DATA
  6
CONTINUOUS
 62
     7
 10
305.5357384224244
 20
198.20000000008011
 30
0.0
 11
305.5357384224244
 21
196.50000000008009
 31
0.0
  0
LINE
  5
2FB
  8
DATA
  6
CONTINUOUS
 62
     7
 10
340.5357384224244
 20
198.20000000008011
 30
0.0
 11
340.5357384224244
 21
196.50000000008009
 31
0.0
  0
LINE
  5
2FC
  8
DATA
  6
CONTINUOUS
 62
     7
 10
307.5357384224244
 20
198.20000000008011
 30
0.0
 11
305.5357384224244
 21
198.20000000008011
 31
0.0
  0
LINE
  5
2FD
  8
DATA
  6
CONTINUOUS
 62
     7
 10
338.5357384224244
 20
198.20000000008011
 30
0.0
 11
340.5357384224244
 21
198.20000000008011
 31
0.0
  0
LINE
  5
2FE
  8
DATA
  6
CONTINUOUS
 62
     7
 10
295.5357384224244
 20
198.20000000008011
 30
0.0
 11
295.5357384224244
 21
196.50000000008009
 31
0.0
  0
LINE
  5
2FF
  8
DATA
  6
CONTINUOUS
 62
     7
 10
294.5357384224244
 20
198.20000000008011
 30
0.0
 11
295.5357384224244
 21
198.20000000008011
 31
0.0
  0
LINE
  5
300
  8
DATA
  6
CONTINUOUS
 62
     7
 10
350.53573842242417
 20
196.50000000008009
 30
0.0
 11
350.53573842242417
 21
198.20000000008011
 31
0.0
  0
LINE
  5
301
  8
DATA
  6
CONTINUOUS
 62
     7
 10
351.53573842242417
 20
198.20000000008011
 30
0.0
 11
350.53573842242417
 21
198.20000000008011
 31
0.0
  0
LINE
  5
302
  8
DATA
  6
CONTINUOUS
 62
     7
 10
289.0357384224244
 20
205.50000000008009
 30
0.0
 11
289.0357384224244
 21
200.50000000008009
 31
0.0
  0
LINE
  5
303
  8
DATA
  6
CONTINUOUS
 62
     7
 10
357.03573842242417
 20
200.50000000008009
 30
0.0
 11
357.03573842242417
 21
205.50000000008009
 31
0.0
  0
LINE
  5
304
  8
DATA
  6
CONTINUOUS
 62
     7
 10
311.83573842242441
 20
200.50000000008009
 30
0.0
 11
334.23573842242439
 21
200.50000000008009
 31
0.0
  0
LINE
  5
305
  8
DATA
  6
CONTINUOUS
 62
     7
 10
312.0357384224244
 20
198.20000000008011
 30
0.0
 11
312.0357384224244
 21
196.50000000008009
 31
0.0
  0
LINE
  5
306
  8
DATA
  6
CONTINUOUS
 62
     7
 10
334.0357384224244
 20
198.20000000008011
 30
0.0
 11
334.0357384224244
 21
196.50000000008009
 31
0.0
  0
LINE
  5
307
  8
DATA
  6
CONTINUOUS
 62
     7
 10
293.0357384224244
 20
175.00000000008009
 30
0.0
 11
293.0357384224244
 21
192.00000000008009
 31
0.0
  0
LINE
  5
308
  8
DATA
  6
CONTINUOUS
 62
     7
 10
353.03573842242417
 20
192.00000000008009
 30
0.0
 11
353.03573842242417
 21
175.00000000008009
 31
0.0
  0
LINE
  5
309
  8
DATA
  6
CONTINUOUS
 62
     7
 10
293.0357384224244
 20
175.00000000008009
 30
0.0
 11
353.03573842242417
 21
175.00000000008009
 31
0.0
  0
LINE
  5
30A
  8
DATA
  6
CONTINUOUS
 62
     7
 10
293.0357384224244
 20
192.00000000008009
 30
0.0
 11
353.03573842242417
 21
192.00000000008009
 31
0.0
  0
LINE
  5
30B
  8
DATA
  6
CONTINUOUS
 62
     7
 10
296.0357384224244
 20
192.00000000008009
 30
0.0
 11
296.0357384224244
 21
196.50000000008009
 31
0.0
  0
LINE
  5
30C
  8
DATA
  6
CONTINUOUS
 62
     7
 10
350.03573842242417
 20
192.00000000008009
 30
0.0
 11
350.03573842242417
 21
196.50000000008009
 31
0.0
  0
LINE
  5
30D
  8
DATA
  6
CONTINUOUS
 62
     7
 10
324.2857384224244
 20
192.00000000008009
 30
0.0
 11
324.2857384224244
 21
175.00000000008009
 31
0.0
  0
LINE
  5
30E
  8
DATA
  6
CONTINUOUS
 62
     7
 10
321.7857384224244
 20
175.00000000008009
 30
0.0
 11
321.7857384224244
 21
192.00000000008009
 31
0.0
  0
LINE
  5
30F
  8
DATA
  6
CONTINUOUS
 62
     7
 10
334.2857384224244
 20
192.00000000008009
 30
0.0
 11
334.2857384224244
 21
175.00000000008009
 31
0.0
  0
LINE
  5
310
  8
DATA
  6
CONTINUOUS
 62
     7
 10
331.7857384224244
 20
175.00000000008009
 30
0.0
 11
331.7857384224244
 21
192.00000000008009
 31
0.0
  0
LINE
  5
311
  8
DATA
  6
CONTINUOUS
 62
     7
 10
343.28573842242417
 20
192.00000000008009
 30
0.0
 11
343.28573842242417
 21
175.00000000008009
 31
0.0
  0
LINE
  5
312
  8
DATA
  6
CONTINUOUS
 62
     7
 10
340.7857384224244
 20
175.00000000008009
 30
0.0
 11
340.7857384224244
 21
192.00000000008009
 31
0.0
  0
LINE
  5
313
  8
DATA
  6
CONTINUOUS
 62
     7
 10
351.28573842242417
 20
192.00000000008009
 30
0.0
 11
351.28573842242417
 21
175.00000000008009
 31
0.0
  0
LINE
  5
314
  8
DATA
  6
CONTINUOUS
 62
     7
 10
348.78573842242417
 20
175.00000000008009
 30
0.0
 11
348.78573842242417
 21
192.00000000008009
 31
0.0
  0
LINE
  5
315
  8
DATA
  6
CONTINUOUS
 62
     7
 10
314.2857384224244
 20
192.00000000008009
 30
0.0
 11
314.2857384224244
 21
175.00000000008009
 31
0.0
  0
LINE
  5
316
  8
DATA
  6
CONTINUOUS
 62
     7
 10
311.7857384224244
 20
175.00000000008009
 30
0.0
 11
311.7857384224244
 21
192.00000000008009
 31
0.0
  0
LINE
  5
317
  8
DATA
  6
CONTINUOUS
 62
     7
 10
305.2857384224244
 20
192.00000000008009
 30
0.0
 11
305.2857384224244
 21
175.00000000008009
 31
0.0
  0
LINE
  5
318
  8
DATA
  6
CONTINUOUS
 62
     7
 10
302.7857384224244
 20
175.00000000008009
 30
0.0
 11
302.7857384224244
 21
192.00000000008009
 31
0.0
  0
LINE
  5
319
  8
DATA
  6
CONTINUOUS
 62
     7
 10
297.2857384224244
 20
192.00000000008009
 30
0.0
 11
297.2857384224244
 21
175.00000000008009
 31
0.0
  0
LINE
  5
31A
  8
DATA
  6
CONTINUOUS
 62
     7
 10
294.7857384224244
 20
175.00000000008009
 30
0.0
 11
294.7857384224244
 21
192.00000000008009
 31
0.0
  0
LINE
  5
31B
  8
DATA
  6
CONTINUOUS
 62
     7
 10
305.93573842242438
 20
233.50000000007981
 30
0.0
 11
294.5357384224244
 21
226.50000000007989
 31
0.0
  0
LINE
  5
31C
  8
DATA
  6
CONTINUOUS
 62
     7
 10
297.33573842242441
 20
226.50000000007989
 30
0.0
 11
307.5357384224244
 21
233.00000000007981
 31
0.0
  0
LINE
  5
31D
  8
DATA
  6
CONTINUOUS
 62
     7
 10
340.13573842242431
 20
233.50000000007981
 30
0.0
 11
351.53573842242417
 21
226.50000000007989
 31
0.0
  0
LINE
  5
31E
  8
DATA
  6
CONTINUOUS
 62
     7
 10
348.73573842242422
 20
226.50000000007989
 30
0.0
 11
338.5357384224244
 21
233.00000000007981
 31
0.0
  0
LINE
  5
31F
  8
DATA
  6
CONTINUOUS
 62
     7
 10
305.93573842242438
 20
205.50000000008009
 30
0.0
 11
294.5357384224244
 21
212.50000000008009
 31
0.0
  0
LINE
  5
320
  8
DATA
  6
CONTINUOUS
 62
     7
 10
297.33573842242441
 20
212.50000000008009
 30
0.0
 11
307.5357384224244
 21
206.00000000008009
 31
0.0
  0
LINE
  5
321
  8
DATA
  6
CONTINUOUS
 62
     7
 10
340.13573842242431
 20
205.50000000008009
 30
0.0
 11
351.53573842242417
 21
212.50000000008009
 31
0.0
  0
LINE
  5
322
  8
DATA
  6
CONTINUOUS
 62
     7
 10
348.73573842242422
 20
212.50000000008009
 30
0.0
 11
338.5357384224244
 21
206.00000000008009
 31
0.0
  0
ARC
  5
323
  8
DATA
  6
CONTINUOUS
 62
     7
 10
291.83573842242441
 20
244.2000000000796
 30
0.0
 40
0.7999999999999689
 50
90.0
 51
180.0
  0
ARC
  5
324
  8
DATA
  6
CONTINUOUS
 62
     7
 10
293.73573842242439
 20
244.2000000000796
 30
0.0
 40
0.8000000000000042
 50
0.0
 51
90.0
  0
ARC
  5
325
  8
DATA
  6
CONTINUOUS
 62
     7
 10
308.33573842242441
 20
244.2000000000796
 30
0.0
 40
0.7999999999999689
 50
90.0
 51
180.0
  0
ARC
  5
326
  8
DATA
  6
CONTINUOUS
 62
     7
 10
310.23573842242439
 20
244.2000000000796
 30
0.0
 40
0.8000000000000113
 50
0.0
 51
89.999999999998977
  0
ARC
  5
327
  8
DATA
  6
CONTINUOUS
 62
     7
 10
335.83573842242441
 20
244.2000000000796
 30
0.0
 40
0.7999999999999689
 50
90.0
 51
180.0
  0
ARC
  5
328
  8
DATA
  6
CONTINUOUS
 62
     7
 10
337.73573842242439
 20
244.2000000000796
 30
0.0
 40
0.8000000000000113
 50
0.0
 51
89.999999999998977
  0
ARC
  5
329
  8
DATA
  6
CONTINUOUS
 62
     7
 10
352.33573842242419
 20
244.2000000000796
 30
0.0
 40
0.7999999999999689
 50
90.0
 51
180.0
  0
ARC
  5
32A
  8
DATA
  6
CONTINUOUS
 62
     7
 10
354.23573842242422
 20
244.2000000000796
 30
0.0
 40
0.7999999999999972
 50
0.0
 51
89.999999999998977
  0
ARC
  5
32B
  8
DATA
  6
CONTINUOUS
 62
     7
 10
291.83573842242441
 20
194.8000000000801
 30
0.0
 40
0.8000000000000042
 50
180.0
 51
270.0
  0
ARC
  5
32C
  8
DATA
  6
CONTINUOUS
 62
     7
 10
293.73573842242439
 20
194.8000000000801
 30
0.0
 40
0.8000000000000113
 50
270.0
 51
0.0
  0
ARC
  5
32D
  8
DATA
  6
CONTINUOUS
 62
     7
 10
308.33573842242441
 20
194.8000000000801
 30
0.0
 40
0.8000000000000113
 50
180.0
 51
269.99999999999898
  0
ARC
  5
32E
  8
DATA
  6
CONTINUOUS
 62
     7
 10
310.23573842242439
 20
194.8000000000801
 30
0.0
 40
0.8000000000000113
 50
270.0
 51
0.0
  0
ARC
  5
32F
  8
DATA
  6
CONTINUOUS
 62
     7
 10
335.83573842242441
 20
194.8000000000801
 30
0.0
 40
0.8000000000000113
 50
180.0
 51
269.99999999999898
  0
ARC
  5
330
  8
DATA
  6
CONTINUOUS
 62
     7
 10
337.73573842242439
 20
194.8000000000801
 30
0.0
 40
0.8000000000000113
 50
270.0
 51
0.0
  0
ARC
  5
331
  8
DATA
  6
CONTINUOUS
 62
     7
 10
352.33573842242419
 20
194.8000000000801
 30
0.0
 40
0.8000000000000113
 50
180.0
 51
269.99999999999898
  0
ARC
  5
332
  8
DATA
  6
CONTINUOUS
 62
     7
 10
354.23573842242422
 20
194.8000000000801
 30
0.0
 40
0.8000000000000113
 50
270.0
 51
0.0
  0
ARC
  5
333
  8
DATA
  6
CONTINUOUS
 62
     7
 10
311.83573842242441
 20
240.00000000007961
 30
0.0
 40
0.8000000000000113
 50
90.0
 51
180.0
  0
ARC
  5
334
  8
DATA
  6
CONTINUOUS
 62
     7
 10
311.83573842242441
 20
239.30000000007971
 30
0.0
 40
0.8000000000000184
 50
180.0
 51
269.99999999999898
  0
ARC
  5
335
  8
DATA
  6
CONTINUOUS
 62
     7
 10
334.23573842242439
 20
240.00000000007961
 30
0.0
 40
0.7999999999999972
 50
0.0
 51
89.999999999998977
  0
ARC
  5
336
  8
DATA
  6
CONTINUOUS
 62
     7
 10
334.23573842242439
 20
239.30000000007971
 30
0.0
 40
0.8000000000000113
 50
270.0
 51
0.0
  0
LINE
  5
337
  8
DATA
  6
CONTINUOUS
 62
     7
 10
311.0357384224244
 20
244.2000000000796
 30
0.0
 11
311.0357384224244
 21
226.50000000007989
 31
0.0
  0
LINE
  5
338
  8
DATA
  6
CONTINUOUS
 62
     7
 10
335.0357384224244
 20
244.2000000000796
 30
0.0
 11
335.0357384224244
 21
226.50000000007989
 31
0.0
  0
ARC
  5
339
  8
DATA
  6
CONTINUOUS
 62
     7
 10
311.83573842242441
 20
199.70000000008011
 30
0.0
 40
0.8000000000000113
 50
90.0
 51
180.0
  0
ARC
  5
33A
  8
DATA
  6
CONTINUOUS
 62
     7
 10
311.83573842242441
 20
199.00000000008009
 30
0.0
 40
0.8000000000000184
 50
180.0
 51
269.99999999999898
  0
ARC
  5
33B
  8
DATA
  6
CONTINUOUS
 62
     7
 10
334.23573842242439
 20
199.70000000008011
 30
0.0
 40
0.7999999999999972
 50
0.0
 51
89.999999999998977
  0
ARC
  5
33C
  8
DATA
  6
CONTINUOUS
 62
     7
 10
334.23573842242439
 20
199.00000000008009
 30
0.0
 40
0.8000000000000113
 50
270.0
 51
0.0
  0
LINE
  5
33D
  8
DATA
  6
CONTINUOUS
 62
     7
 10
311.0357384224244
 20
194.8000000000801
 30
0.0
 11
311.0357384224244
 21
212.50000000008009
 31
0.0
  0
LINE
  5
33E
  8
DATA
  6
CONTINUOUS
 62
     7
 10
335.0357384224244
 20
194.8000000000801
 30
0.0
 11
335.0357384224244
 21
212.50000000008009
 31
0.0
  0
ARC
  5
33F
  8
DATA
  6
CONTINUOUS
 62
     7
 10
287.83573842242441
 20
239.30000000007971
 30
0.0
 40
0.8000000000000042
 50
180.0
 51
270.0
  0
ARC
  5
340
  8
DATA
  6
CONTINUOUS
 62
     7
 10
287.83573842242441
 20
240.00000000007961
 30
0.0
 40
0.8000000000000113
 50
90.0
 51
180.0
  0
ARC
  5
341
  8
DATA
  6
CONTINUOUS
 62
     7
 10
358.23573842242422
 20
240.00000000007961
 30
0.0
 40
0.8000000000000113
 50
0.0
 51
89.999999999998977
  0
ARC
  5
342
  8
DATA
  6
CONTINUOUS
 62
     7
 10
358.23573842242422
 20
239.30000000007971
 30
0.0
 40
0.8000000000000113
 50
270.0
 51
0.0
  0
ARC
  5
343
  8
DATA
  6
CONTINUOUS
 62
     7
 10
287.83573842242441
 20
199.70000000008011
 30
0.0
 40
0.8000000000000113
 50
90.0
 51
180.0
  0
ARC
  5
344
  8
DATA
  6
CONTINUOUS
 62
     7
 10
287.83573842242441
 20
199.00000000008009
 30
0.0
 40
0.8000000000000042
 50
180.0
 51
270.0
  0
ARC
  5
345
  8
DATA
  6
CONTINUOUS
 62
     7
 10
358.23573842242422
 20
199.70000000008011
 30
0.0
 40
0.8000000000000113
 50
0.0
 51
89.999999999998977
  0
ARC
  5
346
  8
DATA
  6
CONTINUOUS
 62
     7
 10
358.23573842242422
 20
199.00000000008009
 30
0.0
 40
0.8000000000000113
 50
270.0
 51
0.0
  0
LINE
  5
347
  8
DATA
  6
CONTINUOUS
 62
     7
 10
287.0357384224244
 20
242.50000000007961
 30
0.0
 11
287.0357384224244
 21
240.80000000007959
 31
0.0
  0
LINE
  5
348
  8
DATA
  6
CONTINUOUS
 62
     7
 10
359.03573842242417
 20
242.50000000007961
 30
0.0
 11
359.03573842242417
 21
240.80000000007959
 31
0.0
  0
LINE
  5
349
  8
DATA
  6
CONTINUOUS
 62
     7
 10
287.0357384224244
 20
196.50000000008009
 30
0.0
 11
287.0357384224244
 21
198.20000000008011
 31
0.0
  0
LINE
  5
34A
  8
DATA
  6
CONTINUOUS
 62
     7
 10
359.03573842242417
 20
196.50000000008009
 30
0.0
 11
359.03573842242417
 21
198.20000000008011
 31
0.0
  0
LINE
  5
34B
  8
DATA
  6
CONTINUOUS
 62
     7
 10
373.03573842242417
 20
226.50000000007989
 30
0.0
 11
396.53573842242417
 21
226.50000000007989
 31
0.0
  0
LINE
  5
34C
  8
DATA
  6
CONTINUOUS
 62
     7
 10
395.03573842242417
 20
183.50000000008009
 30
0.0
 11
418.03573842242457
 21
183.50000000008009
 31
0.0
  0
LINE
  5
34D
  8
DATA
  6
CONTINUOUS
 62
     7
 10
395.03573842242417
 20
183.50000000008009
 30
0.0
 11
396.16526531813889
 21
215.87977101056649
 31
0.0
  0
LINE
  5
34E
  8
DATA
  6
CONTINUOUS
 62
     7
 10
396.42190417507118
 20
223.23675157595929
 30
0.0
 11
396.53573842242417
 21
226.50000000007989
 31
0.0
  0
LINE
  5
34F
  8
DATA
  6
CONTINUOUS
 62
     7
 10
418.03573842242457
 20
183.50000000008009
 30
0.0
 11
416.90621152672071
 21
215.87977101025999
 31
0.0
  0
ARC
  5
350
  8
DATA
  6
CONTINUOUS
 62
     7
 10
406.5357384224244
 20
218.1698140136611
 30
0.0
 40
10.33018598641911
 50
35.80356021729083
 51
58.850822400246372
  0
ARC
  5
351
  8
DATA
  6
CONTINUOUS
 62
     7
 10
406.5357384224244
 20
218.1698140136611
 30
0.0
 40
10.330185986418909
 50
121.1491775997453
 51
144.19643978271631
  0
LINE
  5
352
  8
DATA
  6
CONTINUOUS
 62
     7
 10
407.58143924812822
 20
235.50000000007981
 30
0.0
 11
405.49003759672053
 21
235.50000000007981
 31
0.0
  0
LINE
  5
353
  8
DATA
  6
CONTINUOUS
 62
     7
 10
390.53573842242417
 20
220.5457008257836
 30
0.0
 11
390.53573842242417
 21
218.45429917437659
 31
0.0
  0
LINE
  5
354
  8
DATA
  6
CONTINUOUS
 62
     7
 10
422.5357384224248
 20
218.45429917437659
 30
0.0
 11
422.5357384224248
 21
220.54570082578371
 31
0.0
  0
LINE
  5
355
  8
DATA
  6
CONTINUOUS
 62
     7
 10
405.49003759672058
 20
203.50000000008009
 30
0.0
 11
407.58143924812799
 21
203.50000000008009
 31
0.0
  0
ARC
  5
356
  8
DATA
  6
CONTINUOUS
 62
     7
 10
422.23632337005671
 20
235.2005849477118
 30
0.0
 40
13.20398017013159
 50
184.6834335159684
 51
265.3165664840314
  0
ARC
  5
357
  8
DATA
  6
CONTINUOUS
 62
     7
 10
390.83515347479317
 20
235.20058494771061
 30
0.0
 40
13.20398017013032
 50
274.68343351596423
 51
355.316566484036
  0
ARC
  5
358
  8
DATA
  6
CONTINUOUS
 62
     7
 10
390.83515347479278
 20
203.79941505244881
 30
0.0
 40
13.203980170131141
 50
4.6834335159658602
 51
85.316566484034013
  0
ARC
  5
359
  8
DATA
  6
CONTINUOUS
 62
     7
 10
422.23632337005603
 20
203.79941505244881
 30
0.0
 40
13.20398017013148
 50
94.683433515965987
 51
175.3165664840341
  0
LINE
  5
35A
  8
DATA
  6
CONTINUOUS
 62
     7
 10
396.53573842242417
 20
226.50000000007989
 30
0.0
 11
396.58818922625369
 21
227.03129218466171
 31
0.0
  0
LINE
  5
35B
  8
DATA
  6
CONTINUOUS
 62
     7
 10
397.58335143657632
 20
227.9330467005631
 30
0.0
 11
401.85912645006221
 21
227.9330467005631
 31
0.0
  0
ARC
  5
35C
  8
DATA
  6
CONTINUOUS
 62
     7
 10
397.58335143657632
 20
226.9330467005631
 30
0.0
 40
1.0
 50
90.0
 51
174.3618534133968
  0
LINE
  5
35D
  8
DATA
  6
CONTINUOUS
 62
     7
 10
384.97616156459821
 20
219.50000000008009
 30
0.0
 11
383.07616156459812
 21
226.50000000007989
 31
0.0
  0
LINE
  5
35E
  8
DATA
  6
CONTINUOUS
 62
     7
 10
384.97616156459821
 20
219.50000000008009
 30
0.0
 11
383.07616156459812
 21
212.50000000008009
 31
0.0
  0
LINE
  5
35F
  8
DATA
  6
CONTINUOUS
 62
     7
 10
373.03573842242417
 20
212.50000000008009
 30
0.0
 11
396.04736632940092
 21
212.50000000008009
 31
0.0
  0
CIRCLE
  5
360
  8
DATA
  6
CONTINUOUS
 62
     7
 10
187.50000000011431
 20
437.50000000026051
 30
0.0
 40
13.50000000000008
  0
CIRCLE
  5
361
  8
DATA
  6
CONTINUOUS
 62
     7
 10
187.50000000011431
 20
437.50000000026051
 30
0.0
 40
24.500000000000089
  0
ARC
  5
362
  8
DATA
  6
CONTINUOUS
 62
     7
 10
187.50000000011431
 20
437.50000000026051
 30
0.0
 40
49.999999999999723
 50
148.20725009746761
 51
211.79274990253239
  0
ARC
  5
363
  8
DATA
  6
CONTINUOUS
 62
     7
 10
187.50000000011431
 20
437.50000000026051
 30
0.0
 40
49.999999999999751
 50
216.3776354544442
 51
222.1096034196419
  0
ARC
  5
364
  8
DATA
  6
CONTINUOUS
 62
     7
 10
187.50000000011431
 20
437.50000000026051
 30
0.0
 40
49.999999999999801
 50
227.84157138483971
 51
233.57353935003729
  0
ARC
  5
365
  8
DATA
  6
CONTINUOUS
 62
     7
 10
187.50000000011431
 20
437.50000000026051
 30
0.0
 40
49.999999999999929
 50
238.20725009746801
 51
301.79274990253208
  0
ARC
  5
366
  8
DATA
  6
CONTINUOUS
 62
     7
 10
187.50000000011431
 20
437.50000000026051
 30
0.0
 40
50.000000000000092
 50
306.42646064996279
 51
312.15842861516057
  0
ARC
  5
367
  8
DATA
  6
CONTINUOUS
 62
     7
 10
187.50000000011431
 20
437.50000000026051
 30
0.0
 40
50.000000000000142
 50
317.89039658035819
 51
323.62236454555608
  0
ARC
  5
368
  8
DATA
  6
CONTINUOUS
 62
     7
 10
187.50000000011431
 20
437.50000000026051
 30
0.0
 40
50.000000000000199
 50
328.20725009746809
 51
31.79274990253203
  0
ARC
  5
369
  8
DATA
  6
CONTINUOUS
 62
     7
 10
187.50000000011431
 20
437.50000000026051
 30
0.0
 40
50.000000000000142
 50
36.377635454443812
 51
42.10960341964153
  0
ARC
  5
36A
  8
DATA
  6
CONTINUOUS
 62
     7
 10
187.50000000011431
 20
437.50000000026051
 30
0.0
 40
50.000000000000028
 50
47.841571384839263
 51
53.573539350036981
  0
ARC
  5
36B
  8
DATA
  6
CONTINUOUS
 62
     7
 10
187.50000000011431
 20
437.50000000026051
 30
0.0
 40
50.0
 50
58.207250097467849
 51
78.463040967184455
  0
ARC
  5
36C
  8
DATA
  6
CONTINUOUS
 62
     7
 10
187.50000000011431
 20
437.50000000026051
 30
0.0
 40
49.999999999999929
 50
101.5369590328156
 51
121.79274990253199
  0
ARC
  5
36D
  8
DATA
  6
CONTINUOUS
 62
     7
 10
187.50000000011431
 20
437.50000000026051
 30
0.0
 40
49.999999999999808
 50
126.42646064996271
 51
132.15842861516029
  0
ARC
  5
36E
  8
DATA
  6
CONTINUOUS
 62
     7
 10
187.50000000011431
 20
437.50000000026051
 30
0.0
 40
49.999999999999723
 50
137.8903965803581
 51
143.6223645455558
  0
LINE
  5
36F
  8
DATA
  6
CONTINUOUS
 62
     7
 10
199.0000000001144
 20
533.56349846794478
 30
0.0
 11
176.64569693731201
 21
533.56349846794478
 31
0.0
  0
LINE
  5
370
  8
DATA
  6
CONTINUOUS
 62
     7
 10
199.0000000001144
 20
510.56349846794473
 30
0.0
 11
191.6500000001144
 21
510.56349846794473
 31
0.0
  0
LINE
  5
371
  8
DATA
  6
CONTINUOUS
 62
     7
 10
183.35000000011431
 20
510.56349846794473
 30
0.0
 11
176.64569693731201
 21
510.56349846794473
 31
0.0
  0
LINE
  5
372
  8
DATA
  6
CONTINUOUS
 62
     7
 10
197.5000000001144
 20
499.77782338270998
 30
0.0
 11
197.5000000001144
 21
486.489794855924
 31
0.0
  0
POLYLINE
  5
373
  8
DATA
  6
CONTINUOUS
 62
     7
 66
     1
 10
0.0
 20
0.0
 30
0.0
  0
VERTEX
  5
55B
  8
DATA
  6
CONTINUOUS
 62
     7
 10
177.50000000011431
 20
498.25378599148593
 30
0.0
  0
VERTEX
  5
55C
  8
DATA
  6
CONTINUOUS
 62
     7
 10
177.50000000011431
 20
509.77782338271021
 30
0.0
  0
VERTEX
  5
55D
  8
DATA
  6
CONTINUOUS
 62
     7
 10
197.5000000001144
 20
509.77782338271021
 30
0.0
  0
VERTEX
  5
55E
  8
DATA
  6
CONTINUOUS
 62
     7
 10
197.5000000001144
 20
504.77782338270998
 30
0.0
  0
SEQEND
  5
55F
  8
DATA
  6
CONTINUOUS
 62
     7
  0
LINE
  5
37A
  8
DATA
  6
CONTINUOUS
 62
     7
 10
199.0000000001144
 20
533.56349846794478
 30
0.0
 11
199.0000000001144
 21
510.56349846794473
 31
0.0
  0
LINE
  5
37B
  8
DATA
  6
CONTINUOUS
 62
     7
 10
183.35000000011431
 20
509.77782338271021
 30
0.0
 11
183.35000000011431
 21
533.56349846794478
 31
0.0
  0
LINE
  5
37C
  8
DATA
  6
CONTINUOUS
 62
     7
 10
191.6500000001144
 20
533.56349846794478
 30
0.0
 11
191.6500000001144
 21
509.77782338271021
 31
0.0
  0
LINE
  5
37D
  8
DATA
  6
CONTINUOUS
 62
     7
 10
197.0000000001144
 20
533.56349846794478
 30
0.0
 11
197.0000000001144
 21
510.56349846794473
 31
0.0
  0
ARC
  5
37E
  8
DATA
  6
CONTINUOUS
 62
     7
 10
180.6827691823172
 20
522.06349846794467
 30
0.0
 40
5.4999999999999867
 50
147.53258424631849
 51
212.4674157536829
  0
ARC
  5
37F
  8
DATA
  6
CONTINUOUS
 62
     7
 10
278.73157335284333
 20
522.06349846794467
 30
0.0
 40
102.731573352729
 50
173.57271203559381
 51
186.4272879644061
  0
LINE
  5
380
  8
DATA
  6
CONTINUOUS
 62
     7
 10
209.54481282258601
 20
529.55058455420408
 30
0.0
 11
199.0000000001144
 21
528.56349846794478
 31
0.0
  0
LINE
  5
381
  8
DATA
  6
CONTINUOUS
 62
     7
 10
209.54481282258601
 20
514.57641238168549
 30
0.0
 11
199.0000000001144
 21
515.56349846794478
 31
0.0
  0
ARC
  5
382
  8
DATA
  6
CONTINUOUS
 62
     7
 10
307.09006853830402
 20
522.06349846794467
 30
0.0
 40
97.832169406120585
 50
171.2408721233906
 51
188.7591278766094
  0
ARC
  5
383
  8
DATA
  6
CONTINUOUS
 62
     7
 10
121.7912789243248
 20
522.06349846794467
 30
0.0
 40
97.832169406120087
 50
351.24087212339049
 51
8.7591278766095098
  0
LINE
  5
384
  8
DATA
  6
CONTINUOUS
 62
     7
 10
211.68372844367519
 20
538.06349846794478
 30
0.0
 11
217.19761901895299
 21
538.06349846794478
 31
0.0
  0
LINE
  5
385
  8
DATA
  6
CONTINUOUS
 62
     7
 10
211.68372844367519
 20
506.06349846794473
 30
0.0
 11
217.19761901895299
 21
506.06349846794473
 31
0.0
  0
ARC
  5
386
  8
DATA
  6
CONTINUOUS
 62
     7
 10
211.68372844367519
 20
536.76349846794471
 30
0.0
 40
1.3000000000000109
 50
90.0
 51
171.2408721233904
  0
ARC
  5
387
  8
DATA
  6
CONTINUOUS
 62
     7
 10
217.19761901895299
 20
536.76349846794471
 30
0.0
 40
1.300000000000024
 50
8.7591278766094831
 51
90.0
  0
ARC
  5
388
  8
DATA
  6
CONTINUOUS
 62
     7
 10
211.68372844367519
 20
507.36349846794462
 30
0.0
 40
1.2999999999999741
 50
188.7591278766086
 51
270.0
  0
ARC
  5
389
  8
DATA
  6
CONTINUOUS
 62
     7
 10
217.19761901895299
 20
507.36349846794468
 30
0.0
 40
1.3000000000000389
 50
270.0
 51
351.24087212338929
  0
LINE
  5
38A
  8
DATA
  6
CONTINUOUS
 62
     7
 10
219.59150065570839
 20
524.56349846794478
 30
0.0
 11
209.28984680691991
 21
524.56349846794478
 31
0.0
  0
LINE
  5
38B
  8
DATA
  6
CONTINUOUS
 62
     7
 10
219.59150065570839
 20
519.56349846794478
 30
0.0
 11
209.28984680691991
 21
519.56349846794478
 31
0.0
  0
LINE
  5
38C
  8
DATA
  6
CONTINUOUS
 62
     7
 10
182.50000000011431
 20
502.18115302054741
 30
0.0
 11
182.50000000011431
 21
502.37449374487278
 31
0.0
  0
LINE
  5
38D
  8
DATA
  6
CONTINUOUS
 62
     7
 10
183.9002214843286
 20
503.87117148165771
 30
0.0
 11
197.5000000001144
 21
504.77782338270998
 31
0.0
  0
LINE
  5
38E
  8
DATA
  6
CONTINUOUS
 62
     7
 10
183.9002214843286
 20
500.68447528376248
 30
0.0
 11
197.5000000001144
 21
499.77782338270998
 31
0.0
  0
ARC
  5
38F
  8
DATA
  6
CONTINUOUS
 62
     7
 10
184.00000000011431
 20
502.37449374487278
 30
0.0
 40
1.500000000000046
 50
93.814074834290125
 51
179.99999999999889
  0
ARC
  5
390
  8
DATA
  6
CONTINUOUS
 62
     7
 10
184.00000000011431
 20
502.18115302054741
 30
0.0
 40
1.5
 50
180.0
 51
266.18592516570982
  0
LINE
  5
391
  8
DATA
  6
CONTINUOUS
 62
     7
 10
191.1122117912671
 20
497.2326242173441
 30
0.0
 11
177.50000000011431
 21
498.25378599148593
 31
0.0
  0
LINE
  5
392
  8
DATA
  6
CONTINUOUS
 62
     7
 10
191.1122117912671
 20
492.80654137437688
 30
0.0
 11
177.50000000011431
 21
491.78537960023488
 31
0.0
  0
LINE
  5
393
  8
DATA
  6
CONTINUOUS
 62
     7
 10
192.50000000011431
 20
494.30233832380759
 30
0.0
 11
192.50000000011431
 21
495.73682726791321
 31
0.0
  0
ARC
  5
394
  8
DATA
  6
CONTINUOUS
 62
     7
 10
191.00000000011431
 20
495.73682726791321
 30
0.0
 40
1.500000000000014
 50
0.0
 51
85.709817475840055
  0
ARC
  5
395
  8
DATA
  6
CONTINUOUS
 62
     7
 10
191.00000000011431
 20
494.30233832380759
 30
0.0
 40
1.499999999999982
 50
274.29018252416012
 51
0.00000000000108
  0
ARC
  5
396
  8
DATA
  6
CONTINUOUS
 62
     7
 10
187.5000000001142
 20
437.50000000026051
 30
0.0
 40
46.199999999999527
 50
152.68083287163111
 51
207.31916712836889
  0
ARC
  5
397
  8
DATA
  6
CONTINUOUS
 62
     7
 10
187.5000000001142
 20
437.50000000026051
 30
0.0
 40
46.199999999999811
 50
242.68083287163159
 51
297.31916712836909
  0
ARC
  5
398
  8
DATA
  6
CONTINUOUS
 62
     7
 10
187.5000000001142
 20
437.50000000026051
 30
0.0
 40
46.200000000000031
 50
332.68083201785782
 51
27.31916712836852
  0
ARC
  5
399
  8
DATA
  6
CONTINUOUS
 62
     7
 10
187.5000000001142
 20
437.50000000026051
 30
0.0
 40
46.19999999999979
 50
62.680832871630969
 51
83.786989072400573
  0
ARC
  5
39A
  8
DATA
  6
CONTINUOUS
 62
     7
 10
187.5000000001142
 20
437.50000000026051
 30
0.0
 40
46.199999999999768
 50
96.213010927599043
 51
117.31916712836831
  0
ARC
  5
39B
  8
DATA
  6
CONTINUOUS
 62
     7
 10
145.99887530034391
 20
479.00112470003108
 30
0.0
 40
15.19145340415267
 50
266.23762141825159
 51
277.8099689961399
  0
ARC
  5
39C
  8
DATA
  6
CONTINUOUS
 62
     7
 10
145.99887530034391
 20
479.00112470003108
 30
0.0
 40
15.191453404152639
 50
286.56920140546521
 51
288.22710809021231
  0
ARC
  5
39D
  8
DATA
  6
CONTINUOUS
 62
     7
 10
145.99887530034391
 20
479.00112470003108
 30
0.0
 40
15.191453404152661
 50
308.1828203853687
 51
309.14380710926451
  0
ARC
  5
39E
  8
DATA
  6
CONTINUOUS
 62
     7
 10
145.99887530034391
 20
479.00112470003108
 30
0.0
 40
15.191453404152639
 50
317.46574872156049
 51
3.7623785817483499
  0
ARC
  5
39F
  8
DATA
  6
CONTINUOUS
 62
     7
 10
141.7792442672386
 20
483.22075573313651
 30
0.0
 40
24.958912839380449
 50
280.79274728749999
 51
293.0971816897208
  0
ARC
  5
3A0
  8
DATA
  6
CONTINUOUS
 62
     7
 10
141.7792442672386
 20
483.22075573313651
 30
0.0
 40
24.958912839380389
 50
297.77873993042772
 51
349.2072527124995
  0
LINE
  5
3A1
  8
DATA
  6
CONTINUOUS
 62
     7
 10
147.24373159174149
 20
467.15523316125598
 30
0.0
 11
150.76000000011459
 21
464.56493446667417
 31
0.0
  0
LINE
  5
3A2
  8
DATA
  6
CONTINUOUS
 62
     7
 10
153.94085419004381
 20
474.56458865976668
 30
0.0
 11
156.4913492716091
 21
471.74767992164408
 31
0.0
  0
ARC
  5
3A3
  8
DATA
  6
CONTINUOUS
 62
     7
 10
148.84400142528381
 20
476.57073455453292
 30
0.0
 40
9.0412269673161916
 50
327.76105411602782
 51
7.3730206070444524
  0
LINE
  5
3A4
  8
DATA
  6
CONTINUOUS
 62
     7
 10
150.4068270260222
 20
471.02754865377898
 30
0.0
 11
155.38981760849799
 21
467.0600000002604
 31
0.0
  0
ARC
  5
3A5
  8
DATA
  6
CONTINUOUS
 62
     7
 10
229.0011246998852
 20
479.00112470003108
 30
0.0
 40
15.1914534041527
 50
251.77289190978729
 51
253.430798594533
  0
ARC
  5
3A6
  8
DATA
  6
CONTINUOUS
 62
     7
 10
229.0011246998852
 20
479.00112470003108
 30
0.0
 40
15.191453404152689
 50
262.19003100385498
 51
273.76237858174852
  0
ARC
  5
3A7
  8
DATA
  6
CONTINUOUS
 62
     7
 10
229.0011246998852
 20
479.00112470003108
 30
0.0
 40
15.19145340415283
 50
176.23762141825171
 51
222.534251278439
  0
ARC
  5
3A8
  8
DATA
  6
CONTINUOUS
 62
     7
 10
229.0011246998852
 20
479.00112470003108
 30
0.0
 40
15.19145340415279
 50
230.8561928907356
 51
231.8171796146309
  0
ARC
  5
3A9
  8
DATA
  6
CONTINUOUS
 62
     7
 10
233.2207557329906
 20
483.22075573313651
 30
0.0
 40
24.958912839380641
 50
190.7927472875003
 51
219.2791334555935
  0
ARC
  5
3AA
  8
DATA
  6
CONTINUOUS
 62
     7
 10
233.2207557329906
 20
483.22075573313651
 30
0.0
 40
24.958912839380599
 50
224.06802221619429
 51
259.20725271249989
  0
LINE
  5
3AB
  8
DATA
  6
CONTINUOUS
 62
     7
 10
227.75626840848761
 20
467.15523316125598
 30
0.0
 11
224.24000000011449
 21
464.56493446667417
 31
0.0
  0
LINE
  5
3AC
  8
DATA
  6
CONTINUOUS
 62
     7
 10
221.0591458101853
 20
474.56458865976668
 30
0.0
 11
218.50865072861981
 21
471.74767992164408
 31
0.0
  0
ARC
  5
3AD
  8
DATA
  6
CONTINUOUS
 62
     7
 10
226.1559985749453
 20
476.57073455453292
 30
0.0
 40
9.0412269673163141
 50
172.62697939295569
 51
212.23894588397161
  0
LINE
  5
3AE
  8
DATA
  6
CONTINUOUS
 62
     7
 10
224.59317297420691
 20
471.02754865377898
 30
0.0
 11
219.610182391731
 21
467.0600000002604
 31
0.0
  0
ARC
  5
3AF
  8
DATA
  6
CONTINUOUS
 62
     7
 10
187.50000000011431
 20
437.50000000026051
 30
0.0
 40
50.000000000000142
 50
317.89039658035841
 51
323.62236454555608
  0
ARC
  5
3B0
  8
DATA
  6
CONTINUOUS
 62
     7
 10
187.50000000011431
 20
437.50000000026051
 30
0.0
 40
50.000000000000071
 50
306.42646064996291
 51
312.15842861516069
  0
ARC
  5
3B1
  8
DATA
  6
CONTINUOUS
 62
     7
 10
187.50000000011431
 20
437.50000000026051
 30
0.0
 40
49.999999999999808
 50
227.8415713848398
 51
233.57353935003729
  0
ARC
  5
3B2
  8
DATA
  6
CONTINUOUS
 62
     7
 10
187.50000000011431
 20
437.50000000026051
 30
0.0
 40
49.999999999999723
 50
216.3776354544442
 51
222.10960341964201
  0
ARC
  5
3B3
  8
DATA
  6
CONTINUOUS
 62
     7
 10
145.99887530034391
 20
395.99887530048971
 30
0.0
 40
15.191453404152719
 50
71.772891909787674
 51
73.430798594533542
  0
ARC
  5
3B4
  8
DATA
  6
CONTINUOUS
 62
     7
 10
145.99887530034391
 20
395.99887530048971
 30
0.0
 40
15.191453404152741
 50
82.190031003857627
 51
93.762378581748507
  0
ARC
  5
3B5
  8
DATA
  6
CONTINUOUS
 62
     7
 10
145.99887530034391
 20
395.99887530048971
 30
0.0
 40
15.191453404152551
 50
356.23762141825171
 51
42.534251278440252
  0
ARC
  5
3B6
  8
DATA
  6
CONTINUOUS
 62
     7
 10
145.99887530034391
 20
395.99887530048971
 30
0.0
 40
15.191453404152689
 50
50.85619289073685
 51
51.81717961463135
  0
ARC
  5
3B7
  8
DATA
  6
CONTINUOUS
 62
     7
 10
141.7792442672386
 20
391.77924426738429
 30
0.0
 40
24.95891283938024
 50
10.792747287500321
 51
39.279133455594092
  0
ARC
  5
3B8
  8
DATA
  6
CONTINUOUS
 62
     7
 10
141.7792442672386
 20
391.77924426738429
 30
0.0
 40
24.958912839380371
 50
44.06802221619489
 51
79.207252712499951
  0
LINE
  5
3B9
  8
DATA
  6
CONTINUOUS
 62
     7
 10
147.24373159174149
 20
407.84476683926482
 30
0.0
 11
150.76000000011459
 21
410.43506553384651
 31
0.0
  0
LINE
  5
3BA
  8
DATA
  6
CONTINUOUS
 62
     7
 10
153.94085419004381
 20
400.43541134075411
 30
0.0
 11
156.4913492716091
 21
403.25232007887672
 31
0.0
  0
ARC
  5
3BB
  8
DATA
  6
CONTINUOUS
 62
     7
 10
148.84400142528381
 20
398.42926544598799
 30
0.0
 40
9.041226967316156
 50
352.62697939295572
 51
32.23894588397242
  0
LINE
  5
3BC
  8
DATA
  6
CONTINUOUS
 62
     7
 10
150.4068270260222
 20
403.97245134674171
 30
0.0
 11
155.38981760849799
 21
407.9400000002604
 31
0.0
  0
ARC
  5
3BD
  8
DATA
  6
CONTINUOUS
 62
     7
 10
229.0011246998852
 20
395.99887530048971
 30
0.0
 40
15.191453404152719
 50
86.23762141825155
 51
97.809968996142103
  0
ARC
  5
3BE
  8
DATA
  6
CONTINUOUS
 62
     7
 10
229.0011246998852
 20
395.99887530048971
 30
0.0
 40
15.19145340415273
 50
106.5692014054668
 51
108.2271080902125
  0
ARC
  5
3BF
  8
DATA
  6
CONTINUOUS
 62
     7
 10
229.0011246998852
 20
395.99887530048971
 30
0.0
 40
15.191453404152769
 50
128.18282038536901
 51
129.14380710926429
  0
ARC
  5
3C0
  8
DATA
  6
CONTINUOUS
 62
     7
 10
229.0011246998852
 20
395.99887530048971
 30
0.0
 40
15.19145340415279
 50
137.46574872156049
 51
183.76237858174829
  0
ARC
  5
3C1
  8
DATA
  6
CONTINUOUS
 62
     7
 10
233.2207557329906
 20
391.77924426738429
 30
0.0
 40
24.958912839380531
 50
100.79274728750021
 51
135.93197778380551
  0
ARC
  5
3C2
  8
DATA
  6
CONTINUOUS
 62
     7
 10
233.2207557329906
 20
391.77924426738429
 30
0.0
 40
24.958912839380631
 50
140.72086654440631
 51
169.20725271249989
  0
LINE
  5
3C3
  8
DATA
  6
CONTINUOUS
 62
     7
 10
227.75626840848761
 20
407.84476683926482
 30
0.0
 11
224.24000000011449
 21
410.43506553384651
 31
0.0
  0
LINE
  5
3C4
  8
DATA
  6
CONTINUOUS
 62
     7
 10
221.0591458101853
 20
400.43541134075411
 30
0.0
 11
218.50865072861981
 21
403.25232007887672
 31
0.0
  0
ARC
  5
3C5
  8
DATA
  6
CONTINUOUS
 62
     7
 10
226.1559985749453
 20
398.42926544598799
 30
0.0
 40
9.0412269673163195
 50
147.76105411602799
 51
187.37302060704431
  0
LINE
  5
3C6
  8
DATA
  6
CONTINUOUS
 62
     7
 10
224.59317297420691
 20
403.97245134674171
 30
0.0
 11
219.610182391731
 21
407.9400000002604
 31
0.0
  0
LINE
  5
3C7
  8
DATA
  6
CONTINUOUS
 62
     7
 10
177.50000000011431
 20
491.78537960023488
 30
0.0
 11
177.50000000011431
 21
486.489794855924
 31
0.0
  0
ARC
  5
3C8
  8
DATA
  6
CONTINUOUS
 62
     7
 10
187.5000000001142
 20
441.37137346790092
 30
0.0
 40
46.199999999999612
 50
83.786989072400573
 51
96.213010927599001
  0
LINE
  5
3C9
  8
DATA
  6
CONTINUOUS
 62
     7
 10
182.50000000011431
 20
483.42864030236382
 30
0.0
 11
182.50000000011431
 21
487.300013770004
 31
0.0
  0
LINE
  5
3CA
  8
DATA
  6
CONTINUOUS
 62
     7
 10
192.50000000011431
 20
487.30001377000389
 30
0.0
 11
192.50000000011431
 21
483.42864030236359
 31
0.0
  0
ARC
  5
3CB
  8
DATA
  6
CONTINUOUS
 62
     7
 10
187.50000000011511
 20
437.50000000026091
 30
0.0
 40
31.499999999999119
 50
67.851185410755221
 51
112.1488145892484
  0
ARC
  5
3CC
  8
DATA
  6
CONTINUOUS
 62
     7
 10
187.50000000011511
 20
437.50000000026091
 30
0.0
 40
31.499999999999108
 50
118.4732146673424
 51
151.52678533266129
  0
ARC
  5
3CD
  8
DATA
  6
CONTINUOUS
 62
     7
 10
187.50000000011511
 20
437.50000000026091
 30
0.0
 40
31.499999999998948
 50
155.38277921783649
 51
155.51938959549699
  0
ARC
  5
3CE
  8
DATA
  6
CONTINUOUS
 62
     7
 10
187.50000000011511
 20
437.50000000026091
 30
0.0
 40
31.499999999998931
 50
158.44730446795921
 51
201.552695532043
  0
ARC
  5
3CF
  8
DATA
  6
CONTINUOUS
 62
     7
 10
187.50000000011511
 20
437.50000000026091
 30
0.0
 40
31.499999999998959
 50
204.480610404506
 51
204.6172207821657
  0
ARC
  5
3D0
  8
DATA
  6
CONTINUOUS
 62
     7
 10
187.50000000011511
 20
437.50000000026091
 30
0.0
 40
31.49999999999897
 50
208.47321466733959
 51
241.52678533265961
  0
ARC
  5
3D1
  8
DATA
  6
CONTINUOUS
 62
     7
 10
187.50000000011511
 20
437.50000000026091
 30
0.0
 40
31.49999999999913
 50
247.8511854107511
 51
292.14881458924572
  0
ARC
  5
3D2
  8
DATA
  6
CONTINUOUS
 62
     7
 10
187.50000000011511
 20
437.50000000026091
 30
0.0
 40
31.499999999999201
 50
298.47321466733899
 51
331.52678533265748
  0
ARC
  5
3D3
  8
DATA
  6
CONTINUOUS
 62
     7
 10
187.50000000011511
 20
437.50000000026091
 30
0.0
 40
31.499999999999279
 50
335.38277921783492
 51
335.51938959549273
  0
ARC
  5
3D4
  8
DATA
  6
CONTINUOUS
 62
     7
 10
187.50000000011511
 20
437.50000000026091
 30
0.0
 40
31.499999999999272
 50
338.44730446795779
 51
21.552695532039699
  0
ARC
  5
3D5
  8
DATA
  6
CONTINUOUS
 62
     7
 10
187.50000000011511
 20
437.50000000026091
 30
0.0
 40
31.499999999999279
 50
24.48061040450121
 51
24.617220782162718
  0
ARC
  5
3D6
  8
DATA
  6
CONTINUOUS
 62
     7
 10
187.50000000011511
 20
437.50000000026091
 30
0.0
 40
31.49999999999925
 50
28.47321466734126
 51
61.526785332659109
  0
ARC
  5
3D7
  8
DATA
  6
CONTINUOUS
 62
     7
 10
187.50000000011431
 20
437.50000000026051
 30
0.0
 40
34.499999999999929
 50
110.8245418536581
 51
115.32087850992581
  0
ARC
  5
3D8
  8
DATA
  6
CONTINUOUS
 62
     7
 10
187.50000000011431
 20
437.50000000026051
 30
0.0
 40
34.49999999999995
 50
118.53303812249381
 51
151.46696187750601
  0
ARC
  5
3D9
  8
DATA
  6
CONTINUOUS
 62
     7
 10
187.50000000011431
 20
437.50000000026051
 30
0.0
 40
34.49999999999973
 50
154.571985274572
 51
159.8845156514916
  0
ARC
  5
3DA
  8
DATA
  6
CONTINUOUS
 62
     7
 10
187.50000000011431
 20
437.50000000026051
 30
0.0
 40
34.499999999999702
 50
200.1154843485092
 51
205.3208785099261
  0
ARC
  5
3DB
  8
DATA
  6
CONTINUOUS
 62
     7
 10
187.50000000011431
 20
437.50000000026051
 30
0.0
 40
34.499999999999773
 50
208.53303812249379
 51
241.46696187750649
  0
ARC
  5
3DC
  8
DATA
  6
CONTINUOUS
 62
     7
 10
187.50000000011431
 20
437.50000000026051
 30
0.0
 40
34.500000000000043
 50
244.67912149007401
 51
249.17545814633991
  0
ARC
  5
3DD
  8
DATA
  6
CONTINUOUS
 62
     7
 10
187.50000000011431
 20
437.50000000026051
 30
0.0
 40
34.50000000000005
 50
290.82454185366231
 51
295.32087850992599
  0
ARC
  5
3DE
  8
DATA
  6
CONTINUOUS
 62
     7
 10
187.50000000011431
 20
437.50000000026051
 30
0.0
 40
34.50000000000005
 50
298.53303812249402
 51
331.46696187750632
  0
ARC
  5
3DF
  8
DATA
  6
CONTINUOUS
 62
     7
 10
187.50000000011431
 20
437.50000000026051
 30
0.0
 40
34.500000000000121
 50
334.6791214900739
 51
340.52877936550942
  0
ARC
  5
3E0
  8
DATA
  6
CONTINUOUS
 62
     7
 10
187.50000000011431
 20
437.50000000026051
 30
0.0
 40
34.500000000000128
 50
20.11548434850943
 51
25.320878509925841
  0
ARC
  5
3E1
  8
DATA
  6
CONTINUOUS
 62
     7
 10
187.50000000011431
 20
437.50000000026051
 30
0.0
 40
34.500000000000078
 50
28.533038122493679
 51
61.466961877506371
  0
ARC
  5
3E2
  8
DATA
  6
CONTINUOUS
 62
     7
 10
187.50000000011431
 20
437.50000000026051
 30
0.0
 40
34.5
 50
64.679121490074067
 51
69.175458146335757
  0
POLYLINE
  5
3E3
  8
DATA
  6
CONTINUOUS
 62
     7
 66
     1
 10
0.0
 20
0.0
 30
0.0
 70
   129
  0
VERTEX
  5
560
  8
DATA
  6
CONTINUOUS
 62
     7
 10
215.2330170897188
 20
451.20730319745712
 30
0.0
 42
-0.4142135623731031
  0
VERTEX
  5
561
  8
DATA
  6
CONTINUOUS
 62
     7
 10
215.5277078192444
 20
452.87857737422507
 30
0.0
  0
VERTEX
  5
562
  8
DATA
  6
CONTINUOUS
 62
     7
 10
216.8383510901069
 20
453.79629967238691
 30
0.0
  0
VERTEX
  5
563
  8
DATA
  6
CONTINUOUS
 62
     7
 10
216.8383510901069
 20
453.79629967238691
 30
0.0
 42
-0.4142135623730663
  0
VERTEX
  5
564
  8
DATA
  6
CONTINUOUS
 62
     7
 10
218.50962526687499
 20
453.50160894286142
 30
0.0
  0
VERTEX
  5
565
  8
DATA
  6
CONTINUOUS
 62
     7
 10
218.56698291051021
 20
453.41969373843227
 30
0.0
 42
-0.4142135623730735
  0
VERTEX
  5
566
  8
DATA
  6
CONTINUOUS
 62
     7
 10
218.27229218098461
 20
451.74841956166438
 30
0.0
  0
VERTEX
  5
567
  8
DATA
  6
CONTINUOUS
 62
     7
 10
216.96164891012199
 20
450.8306972635026
 30
0.0
  0
VERTEX
  5
568
  8
DATA
  6
CONTINUOUS
 62
     7
 10
216.96164891012199
 20
450.8306972635026
 30
0.0
 42
-0.4142135623731149
  0
VERTEX
  5
569
  8
DATA
  6
CONTINUOUS
 62
     7
 10
215.2903747333541
 20
451.1253879930282
 30
0.0
  0
SEQEND
  5
56A
  8
DATA
  6
CONTINUOUS
 62
     7
  0
POLYLINE
  5
3EF
  8
DATA
  6
CONTINUOUS
 62
     7
 66
     1
 10
0.0
 20
0.0
 30
0.0
 70
   129
  0
VERTEX
  5
56B
  8
DATA
  6
CONTINUOUS
 62
     7
 10
173.79269680291759
 20
409.766982910656
 30
0.0
 42
0.4142135623731051
  0
VERTEX
  5
56C
  8
DATA
  6
CONTINUOUS
 62
     7
 10
172.1214226261495
 20
409.47229218113051
 30
0.0
  0
VERTEX
  5
56D
  8
DATA
  6
CONTINUOUS
 62
     7
 10
171.2037003279878
 20
408.16164891026779
 30
0.0
  0
VERTEX
  5
56E
  8
DATA
  6
CONTINUOUS
 62
     7
 10
171.2037003279878
 20
408.16164891026779
 30
0.0
 42
0.414213562373057
  0
VERTEX
  5
56F
  8
DATA
  6
CONTINUOUS
 62
     7
 10
171.49839105751329
 20
406.49037473349989
 30
0.0
  0
VERTEX
  5
570
  8
DATA
  6
CONTINUOUS
 62
     7
 10
171.5803062619423
 20
406.43301708986468
 30
0.0
 42
0.4142135623730774
  0
VERTEX
  5
571
  8
DATA
  6
CONTINUOUS
 62
     7
 10
173.25158043871031
 20
406.72770781939028
 30
0.0
  0
VERTEX
  5
572
  8
DATA
  6
CONTINUOUS
 62
     7
 10
174.16930273687211
 20
408.03835109025277
 30
0.0
  0
VERTEX
  5
573
  8
DATA
  6
CONTINUOUS
 62
     7
 10
174.16930273687211
 20
408.03835109025277
 30
0.0
 42
0.4142135623730768
  0
VERTEX
  5
574
  8
DATA
  6
CONTINUOUS
 62
     7
 10
173.8746120073466
 20
409.70962526702073
 30
0.0
  0
SEQEND
  5
575
  8
DATA
  6
CONTINUOUS
 62
     7
  0
POLYLINE
  5
3FB
  8
DATA
  6
CONTINUOUS
 62
     7
 66
     1
 10
0.0
 20
0.0
 30
0.0
 70
   129
  0
VERTEX
  5
576
  8
DATA
  6
CONTINUOUS
 62
     7
 10
215.2330170897188
 20
423.7926968030639
 30
0.0
 42
0.4142135623731014
  0
VERTEX
  5
577
  8
DATA
  6
CONTINUOUS
 62
     7
 10
215.5277078192444
 20
422.12142262629573
 30
0.0
  0
VERTEX
  5
578
  8
DATA
  6
CONTINUOUS
 62
     7
 10
216.8383510901069
 20
421.203700328134
 30
0.0
  0
VERTEX
  5
579
  8
DATA
  6
CONTINUOUS
 62
     7
 10
216.8383510901069
 20
421.203700328134
 30
0.0
 42
0.4142135623730672
  0
VERTEX
  5
57A
  8
DATA
  6
CONTINUOUS
 62
     7
 10
218.50962526687499
 20
421.49839105765938
 30
0.0
  0
VERTEX
  5
57B
  8
DATA
  6
CONTINUOUS
 62
     7
 10
218.56698291051021
 20
421.58030626208853
 30
0.0
 42
0.4142135623730656
  0
VERTEX
  5
57C
  8
DATA
  6
CONTINUOUS
 62
     7
 10
218.27229218098461
 20
423.25158043885642
 30
0.0
  0
VERTEX
  5
57D
  8
DATA
  6
CONTINUOUS
 62
     7
 10
216.96164891012199
 20
424.1693027370182
 30
0.0
  0
VERTEX
  5
57E
  8
DATA
  6
CONTINUOUS
 62
     7
 10
216.96164891012199
 20
424.1693027370182
 30
0.0
 42
0.4142135623730753
  0
VERTEX
  5
57F
  8
DATA
  6
CONTINUOUS
 62
     7
 10
215.2903747333541
 20
423.87461200749277
 30
0.0
  0
SEQEND
  5
580
  8
DATA
  6
CONTINUOUS
 62
     7
  0
POLYLINE
  5
407
  8
DATA
  6
CONTINUOUS
 62
     7
 66
     1
 10
0.0
 20
0.0
 30
0.0
 70
   129
  0
VERTEX
  5
581
  8
DATA
  6
CONTINUOUS
 62
     7
 10
173.79269680291759
 20
465.23301708986492
 30
0.0
 42
-0.4142135623731036
  0
VERTEX
  5
582
  8
DATA
  6
CONTINUOUS
 62
     7
 10
172.12142262614961
 20
465.52770781939051
 30
0.0
  0
VERTEX
  5
583
  8
DATA
  6
CONTINUOUS
 62
     7
 10
171.20370032798789
 20
466.83835109025279
 30
0.0
  0
VERTEX
  5
584
  8
DATA
  6
CONTINUOUS
 62
     7
 10
171.20370032798789
 20
466.83835109025279
 30
0.0
 42
-0.414213562373052
  0
VERTEX
  5
585
  8
DATA
  6
CONTINUOUS
 62
     7
 10
171.49839105751329
 20
468.50962526702091
 30
0.0
  0
VERTEX
  5
586
  8
DATA
  6
CONTINUOUS
 62
     7
 10
171.58030626194241
 20
468.56698291065612
 30
0.0
 42
-0.4142135623730633
  0
VERTEX
  5
587
  8
DATA
  6
CONTINUOUS
 62
     7
 10
173.25158043871039
 20
468.27229218113052
 30
0.0
  0
VERTEX
  5
588
  8
DATA
  6
CONTINUOUS
 62
     7
 10
174.16930273687211
 20
466.96164891026802
 30
0.0
  0
VERTEX
  5
589
  8
DATA
  6
CONTINUOUS
 62
     7
 10
174.16930273687211
 20
466.96164891026802
 30
0.0
 42
-0.4142135623730931
  0
VERTEX
  5
58A
  8
DATA
  6
CONTINUOUS
 62
     7
 10
173.8746120073466
 20
465.2903747334999
 30
0.0
  0
SEQEND
  5
58B
  8
DATA
  6
CONTINUOUS
 62
     7
  0
POLYLINE
  5
413
  8
DATA
  6
CONTINUOUS
 62
     7
 66
     1
 10
0.0
 20
0.0
 30
0.0
 70
   129
  0
VERTEX
  5
58C
  8
DATA
  6
CONTINUOUS
 62
     7
 10
159.76698291050991
 20
451.20730319745712
 30
0.0
 42
0.4142135623730999
  0
VERTEX
  5
58D
  8
DATA
  6
CONTINUOUS
 62
     7
 10
159.4722921809844
 20
452.87857737422507
 30
0.0
  0
VERTEX
  5
58E
  8
DATA
  6
CONTINUOUS
 62
     7
 10
158.1616489101219
 20
453.79629967238691
 30
0.0
  0
VERTEX
  5
58F
  8
DATA
  6
CONTINUOUS
 62
     7
 10
158.1616489101219
 20
453.79629967238691
 30
0.0
 42
0.4142135623730863
  0
VERTEX
  5
590
  8
DATA
  6
CONTINUOUS
 62
     7
 10
156.490374733354
 20
453.50160894286142
 30
0.0
  0
VERTEX
  5
591
  8
DATA
  6
CONTINUOUS
 62
     7
 10
156.4330170897187
 20
453.41969373843227
 30
0.0
 42
0.4142135623730471
  0
VERTEX
  5
592
  8
DATA
  6
CONTINUOUS
 62
     7
 10
156.7277078192443
 20
451.74841956166438
 30
0.0
  0
VERTEX
  5
593
  8
DATA
  6
CONTINUOUS
 62
     7
 10
158.0383510901068
 20
450.8306972635026
 30
0.0
  0
VERTEX
  5
594
  8
DATA
  6
CONTINUOUS
 62
     7
 10
158.0383510901068
 20
450.8306972635026
 30
0.0
 42
0.4142135623730709
  0
VERTEX
  5
595
  8
DATA
  6
CONTINUOUS
 62
     7
 10
159.70962526687481
 20
451.1253879930282
 30
0.0
  0
SEQEND
  5
596
  8
DATA
  6
CONTINUOUS
 62
     7
  0
POLYLINE
  5
41F
  8
DATA
  6
CONTINUOUS
 62
     7
 66
     1
 10
0.0
 20
0.0
 30
0.0
 70
   129
  0
VERTEX
  5
597
  8
DATA
  6
CONTINUOUS
 62
     7
 10
201.20730319731101
 20
409.766982910656
 30
0.0
 42
-0.4142135623730985
  0
VERTEX
  5
598
  8
DATA
  6
CONTINUOUS
 62
     7
 10
202.8785773740791
 20
409.47229218113051
 30
0.0
  0
VERTEX
  5
599
  8
DATA
  6
CONTINUOUS
 62
     7
 10
203.79629967224079
 20
408.16164891026779
 30
0.0
  0
VERTEX
  5
59A
  8
DATA
  6
CONTINUOUS
 62
     7
 10
203.79629967224079
 20
408.16164891026779
 30
0.0
 42
-0.414213562373058
  0
VERTEX
  5
59B
  8
DATA
  6
CONTINUOUS
 62
     7
 10
203.50160894271531
 20
406.49037473349989
 30
0.0
  0
VERTEX
  5
59C
  8
DATA
  6
CONTINUOUS
 62
     7
 10
203.4196937382863
 20
406.43301708986468
 30
0.0
 42
-0.4142135623730802
  0
VERTEX
  5
59D
  8
DATA
  6
CONTINUOUS
 62
     7
 10
201.74841956151829
 20
406.72770781939028
 30
0.0
  0
VERTEX
  5
59E
  8
DATA
  6
CONTINUOUS
 62
     7
 10
200.83069726335651
 20
408.03835109025277
 30
0.0
  0
VERTEX
  5
59F
  8
DATA
  6
CONTINUOUS
 62
     7
 10
200.83069726335651
 20
408.03835109025277
 30
0.0
 42
-0.4142135623731162
  0
VERTEX
  5
5A0
  8
DATA
  6
CONTINUOUS
 62
     7
 10
201.125387992882
 20
409.70962526702073
 30
0.0
  0
SEQEND
  5
5A1
  8
DATA
  6
CONTINUOUS
 62
     7
  0
POLYLINE
  5
42B
  8
DATA
  6
CONTINUOUS
 62
     7
 66
     1
 10
0.0
 20
0.0
 30
0.0
 70
   129
  0
VERTEX
  5
5A2
  8
DATA
  6
CONTINUOUS
 62
     7
 10
201.20730319731101
 20
465.23301708986492
 30
0.0
 42
0.4142135623731121
  0
VERTEX
  5
5A3
  8
DATA
  6
CONTINUOUS
 62
     7
 10
202.8785773740791
 20
465.52770781939051
 30
0.0
  0
VERTEX
  5
5A4
  8
DATA
  6
CONTINUOUS
 62
     7
 10
203.79629967224079
 20
466.83835109025279
 30
0.0
  0
VERTEX
  5
5A5
  8
DATA
  6
CONTINUOUS
 62
     7
 10
203.79629967224079
 20
466.83835109025279
 30
0.0
 42
0.4142135623730586
  0
VERTEX
  5
5A6
  8
DATA
  6
CONTINUOUS
 62
     7
 10
203.50160894271531
 20
468.50962526702091
 30
0.0
  0
VERTEX
  5
5A7
  8
DATA
  6
CONTINUOUS
 62
     7
 10
203.4196937382863
 20
468.56698291065612
 30
0.0
 42
0.4142135623730681
  0
VERTEX
  5
5A8
  8
DATA
  6
CONTINUOUS
 62
     7
 10
201.74841956151829
 20
468.27229218113052
 30
0.0
  0
VERTEX
  5
5A9
  8
DATA
  6
CONTINUOUS
 62
     7
 10
200.83069726335651
 20
466.96164891026802
 30
0.0
  0
VERTEX
  5
5AA
  8
DATA
  6
CONTINUOUS
 62
     7
 10
200.83069726335651
 20
466.96164891026802
 30
0.0
 42
0.4142135623730874
  0
VERTEX
  5
5AB
  8
DATA
  6
CONTINUOUS
 62
     7
 10
201.125387992882
 20
465.2903747334999
 30
0.0
  0
SEQEND
  5
5AC
  8
DATA
  6
CONTINUOUS
 62
     7
  0
POLYLINE
  5
437
  8
DATA
  6
CONTINUOUS
 62
     7
 66
     1
 10
0.0
 20
0.0
 30
0.0
 70
   129
  0
VERTEX
  5
5AD
  8
DATA
  6
CONTINUOUS
 62
     7
 10
159.76698291050991
 20
423.79269680306368
 30
0.0
 42
-0.414213562373098
  0
VERTEX
  5
5AE
  8
DATA
  6
CONTINUOUS
 62
     7
 10
159.4722921809844
 20
422.12142262629573
 30
0.0
  0
VERTEX
  5
5AF
  8
DATA
  6
CONTINUOUS
 62
     7
 10
158.1616489101219
 20
421.203700328134
 30
0.0
  0
VERTEX
  5
5B0
  8
DATA
  6
CONTINUOUS
 62
     7
 10
158.1616489101219
 20
421.203700328134
 30
0.0
 42
-0.414213562373045
  0
VERTEX
  5
5B1
  8
DATA
  6
CONTINUOUS
 62
     7
 10
156.490374733354
 20
421.49839105765938
 30
0.0
  0
VERTEX
  5
5B2
  8
DATA
  6
CONTINUOUS
 62
     7
 10
156.4330170897187
 20
421.58030626208853
 30
0.0
 42
-0.4142135623730585
  0
VERTEX
  5
5B3
  8
DATA
  6
CONTINUOUS
 62
     7
 10
156.7277078192443
 20
423.25158043885642
 30
0.0
  0
VERTEX
  5
5B4
  8
DATA
  6
CONTINUOUS
 62
     7
 10
158.0383510901068
 20
424.1693027370182
 30
0.0
  0
VERTEX
  5
5B5
  8
DATA
  6
CONTINUOUS
 62
     7
 10
158.0383510901068
 20
424.1693027370182
 30
0.0
 42
-0.4142135623731202
  0
VERTEX
  5
5B6
  8
DATA
  6
CONTINUOUS
 62
     7
 10
159.70962526687481
 20
423.87461200749277
 30
0.0
  0
SEQEND
  5
5B7
  8
DATA
  6
CONTINUOUS
 62
     7
  0
LINE
  5
443
  8
DATA
  6
CONTINUOUS
 62
     7
 10
203.79629967224079
 20
464.45701424509559
 30
0.0
 11
205.652442131143
 21
466.83835109025279
 31
0.0
  0
LINE
  5
444
  8
DATA
  6
CONTINUOUS
 62
     7
 10
160.5429857552792
 20
421.203700328134
 30
0.0
 11
158.16164891012201
 21
419.34755786923171
 31
0.0
  0
LINE
  5
445
  8
DATA
  6
CONTINUOUS
 62
     7
 10
160.5429857552792
 20
453.79629967238691
 30
0.0
 11
158.16164891012201
 21
455.65244213128921
 31
0.0
  0
LINE
  5
446
  8
DATA
  6
CONTINUOUS
 62
     7
 10
214.45701424494959
 20
453.79629967238691
 30
0.0
 11
216.8383510901069
 21
455.65244213128921
 31
0.0
  0
LINE
  5
447
  8
DATA
  6
CONTINUOUS
 62
     7
 10
214.45701424494959
 20
421.203700328134
 30
0.0
 11
216.8383510901069
 21
419.34755786923171
 31
0.0
  0
LINE
  5
448
  8
DATA
  6
CONTINUOUS
 62
     7
 10
203.79629967224079
 20
410.54298575542521
 30
0.0
 11
205.652442131143
 21
408.16164891026779
 31
0.0
  0
LINE
  5
449
  8
DATA
  6
CONTINUOUS
 62
     7
 10
171.2037003279878
 20
464.45701424509559
 30
0.0
 11
169.34755786908559
 21
466.83835109025279
 31
0.0
  0
LINE
  5
44A
  8
DATA
  6
CONTINUOUS
 62
     7
 10
171.2037003279878
 20
410.54298575542521
 30
0.0
 11
169.34755786908559
 21
408.16164891026779
 31
0.0
  0
LINE
  5
44B
  8
DATA
  6
CONTINUOUS
 62
     7
 10
154.90870337326581
 20
467.44307199379313
 30
0.0
 11
165.39730075630189
 21
463.99001106363238
 31
0.0
  0
ARC
  5
44C
  8
DATA
  6
CONTINUOUS
 62
     7
 10
169.71113023977651
 20
468.83877553572188
 30
0.0
 40
6.2962273781119071
 50
294.34997178011622
 51
2.7701822426279241
  0
ARC
  5
44D
  8
DATA
  6
CONTINUOUS
 62
     7
 10
170.24557658667581
 20
467.65785533603281
 30
0.0
 40
5.000000000007347
 50
253.45600063044901
 51
294.34997178005909
  0
LINE
  5
44E
  8
DATA
  6
CONTINUOUS
 62
     7
 10
167.1762581434127
 20
465.37822657481422
 30
0.0
 11
155.69234667303411
 21
469.23526802350631
 31
0.0
  0
ARC
  5
44F
  8
DATA
  6
CONTINUOUS
 62
     7
 10
153.26600188154319
 20
462.01109655613851
 30
0.0
 40
7.6207481546843683
 50
71.434613152060805
 51
97.692751707749508
  0
ARC
  5
450
  8
DATA
  6
CONTINUOUS
 62
     7
 10
354.524854237108
 20
413.79235835213228
 30
0.0
 40
187.81823512998849
 50
161.9006550110974
 51
163.6407504902715
  0
ARC
  5
451
  8
DATA
  6
CONTINUOUS
 62
     7
 10
157.5149341209565
 20
452.28879876803319
 30
0.0
 40
3.289709719431722
 50
271.34839312327739
 51
25.430825932783051
  0
ARC
  5
452
  8
DATA
  6
CONTINUOUS
 62
     7
 10
150.6162141865494
 20
469.8861534273222
 30
0.0
 40
21.006223381093388
 50
276.12897565029749
 51
294.39511379767191
  0
ARC
  5
453
  8
DATA
  6
CONTINUOUS
 62
     7
 10
424.1795713710506
 20
723.01603455576128
 30
0.0
 40
378.62270435136992
 50
222.90755276437741
 51
225.20127090819179
  0
ARC
  5
454
  8
DATA
  6
CONTINUOUS
 62
     7
 10
159.56221774484101
 20
453.23015410271591
 30
0.0
 40
1.036384547073383
 50
24.386817919022398
 51
27.013506575242509
  0
ARC
  5
455
  8
DATA
  6
CONTINUOUS
 62
     7
 10
147.57433112457869
 20
465.80637765405288
 30
0.0
 40
0.9127019435516041
 50
66.451530822429248
 51
218.11083536652279
  0
LINE
  5
456
  8
DATA
  6
CONTINUOUS
 62
     7
 10
158.37086755966641
 20
455.98630961756481
 30
0.0
 11
148.9323466730342
 21
465.91129585820261
 31
0.0
  0
LINE
  5
457
  8
DATA
  6
CONTINUOUS
 62
     7
 10
220.09129662696321
 20
467.44307199379313
 30
0.0
 11
209.60269924392691
 21
463.99001106363238
 31
0.0
  0
ARC
  5
458
  8
DATA
  6
CONTINUOUS
 62
     7
 10
205.2888697604522
 20
468.83877553572188
 30
0.0
 40
6.296227378111948
 50
177.22981775737199
 51
245.65002821988369
  0
ARC
  5
459
  8
DATA
  6
CONTINUOUS
 62
     7
 10
204.7544234135529
 20
467.65785533603281
 30
0.0
 40
5.0000000000073648
 50
245.65002821994079
 51
286.54399936955122
  0
LINE
  5
45A
  8
DATA
  6
CONTINUOUS
 62
     7
 10
207.8237418568161
 20
465.37822657481422
 30
0.0
 11
219.3076533271948
 21
469.23526802350631
 31
0.0
  0
ARC
  5
45B
  8
DATA
  6
CONTINUOUS
 62
     7
 10
221.73399811868569
 20
462.01109655613851
 30
0.0
 40
7.6207481546843656
 50
82.307248292250307
 51
108.56538684793929
  0
ARC
  5
45C
  8
DATA
  6
CONTINUOUS
 62
     7
 10
20.47514576312031
 20
413.79235835213228
 30
0.0
 40
187.81823512998889
 50
16.359249509728489
 51
18.099344988902509
  0
ARC
  5
45D
  8
DATA
  6
CONTINUOUS
 62
     7
 10
217.4850658792725
 20
452.28879876803319
 30
0.0
 40
3.289709719431742
 50
154.5691740672172
 51
268.6516068767225
  0
ARC
  5
45E
  8
DATA
  6
CONTINUOUS
 62
     7
 10
224.38378581367971
 20
469.8861534273222
 30
0.0
 40
21.00622338109341
 50
245.60488620232769
 51
263.8710243497024
  0
ARC
  5
45F
  8
DATA
  6
CONTINUOUS
 62
     7
 10
-49.179571370822572
 20
723.01603455576128
 30
0.0
 40
378.6227043513706
 50
314.7987290918083
 51
317.09244723562261
  0
ARC
  5
460
  8
DATA
  6
CONTINUOUS
 62
     7
 10
227.42566887565039
 20
465.80637765405288
 30
0.0
 40
0.9127019435516208
 50
321.88916463347852
 51
113.5484691775699
  0
LINE
  5
461
  8
DATA
  6
CONTINUOUS
 62
     7
 10
216.62913244056239
 20
455.98630961756481
 30
0.0
 11
226.0676533271949
 21
465.91129585820261
 31
0.0
  0
LINE
  5
462
  8
DATA
  6
CONTINUOUS
 62
     7
 10
220.09129662696321
 20
407.55692800672767
 30
0.0
 11
209.60269924392691
 21
411.00998893688848
 31
0.0
  0
ARC
  5
463
  8
DATA
  6
CONTINUOUS
 62
     7
 10
205.2888697604522
 20
406.16122446479898
 30
0.0
 40
6.2962273781119134
 50
114.34997178011641
 51
182.77018224262801
  0
ARC
  5
464
  8
DATA
  6
CONTINUOUS
 62
     7
 10
204.7544234135529
 20
407.34214466448799
 30
0.0
 40
5.0000000000073523
 50
73.456000630448756
 51
114.34997178005921
  0
LINE
  5
465
  8
DATA
  6
CONTINUOUS
 62
     7
 10
207.8237418568161
 20
409.62177342570669
 30
0.0
 11
219.3076533271948
 21
405.76473197701449
 31
0.0
  0
ARC
  5
466
  8
DATA
  6
CONTINUOUS
 62
     7
 10
221.73399811868569
 20
412.98890344438252
 30
0.0
 40
7.6207481546843763
 50
251.43461315206059
 51
277.69275170774961
  0
ARC
  5
467
  8
DATA
  6
CONTINUOUS
 62
     7
 10
20.47514576312031
 20
461.20764164838852
 30
0.0
 40
187.81823512998889
 50
341.9006550110974
 51
343.64075049027161
  0
ARC
  5
468
  8
DATA
  6
CONTINUOUS
 62
     7
 10
217.4850658792725
 20
422.71120123248772
 30
0.0
 40
3.289709719431722
 50
91.348393123277447
 51
205.43082593278271
  0
ARC
  5
469
  8
DATA
  6
CONTINUOUS
 62
     7
 10
224.38378581367971
 20
405.11384657319871
 30
0.0
 40
21.00622338109336
 50
96.128975650297647
 51
114.39511379767229
  0
ARC
  5
46A
  8
DATA
  6
CONTINUOUS
 62
     7
 10
-49.179571370822572
 20
151.98396544475969
 30
0.0
 40
378.62270435137083
 50
42.90755276437735
 51
45.201270908191681
  0
ARC
  5
46B
  8
DATA
  6
CONTINUOUS
 62
     7
 10
227.42566887565039
 20
409.19362234646798
 30
0.0
 40
0.9127019435515983
 50
246.45153082242999
 51
38.110835366521428
  0
LINE
  5
46C
  8
DATA
  6
CONTINUOUS
 62
     7
 10
216.62913244056239
 20
419.01369038295587
 30
0.0
 11
226.0676533271949
 21
409.08870414231831
 31
0.0
  0
LINE
  5
46D
  8
DATA
  6
CONTINUOUS
 62
     7
 10
154.90870337326581
 20
407.55692800672767
 30
0.0
 11
165.39730075630189
 21
411.00998893688848
 31
0.0
  0
ARC
  5
46E
  8
DATA
  6
CONTINUOUS
 62
     7
 10
169.71113023977651
 20
406.16122446479898
 30
0.0
 40
6.2962273781119054
 50
357.22981775737202
 51
65.650028219883723
  0
ARC
  5
46F
  8
DATA
  6
CONTINUOUS
 62
     7
 10
170.24557658667581
 20
407.34214466448799
 30
0.0
 40
5.0000000000073603
 50
65.650028219940978
 51
106.543999369551
  0
LINE
  5
470
  8
DATA
  6
CONTINUOUS
 62
     7
 10
167.1762581434127
 20
409.62177342570669
 30
0.0
 11
155.69234667303411
 21
405.76473197701449
 31
0.0
  0
ARC
  5
471
  8
DATA
  6
CONTINUOUS
 62
     7
 10
153.26600188154319
 20
412.98890344438252
 30
0.0
 40
7.6207481546843638
 50
262.30724829225051
 51
288.56538684793918
  0
ARC
  5
472
  8
DATA
  6
CONTINUOUS
 62
     7
 10
354.524854237108
 20
461.20764164838852
 30
0.0
 40
187.81823512998849
 50
196.3592495097285
 51
198.0993449889026
  0
ARC
  5
473
  8
DATA
  6
CONTINUOUS
 62
     7
 10
157.5149341209565
 20
422.71120123248772
 30
0.0
 40
3.28970971943171
 50
334.56917406721698
 51
88.651606876722582
  0
ARC
  5
474
  8
DATA
  6
CONTINUOUS
 62
     7
 10
150.6162141865494
 20
405.11384657319871
 30
0.0
 40
21.006223381093321
 50
65.604886202328061
 51
83.871024349702452
  0
ARC
  5
475
  8
DATA
  6
CONTINUOUS
 62
     7
 10
424.1795713710506
 20
151.98396544475969
 30
0.0
 40
378.62270435136998
 50
134.79872909180821
 51
137.0924472356225
  0
ARC
  5
476
  8
DATA
  6
CONTINUOUS
 62
     7
 10
147.57433112457869
 20
409.19362234646798
 30
0.0
 40
0.9127019435515927
 50
141.88916463347721
 51
293.54846917757078
  0
LINE
  5
477
  8
DATA
  6
CONTINUOUS
 62
     7
 10
158.37086755966641
 20
419.01369038295587
 30
0.0
 11
148.9323466730342
 21
409.08870414231831
 31
0.0
  0
LINE
  5
478
  8
DATA
  6
CONTINUOUS
 62
     7
 10
157.84108534003209
 20
477.46307199379311
 30
0.0
 11
161.1750146124044
 21
479.68307199379319
 31
0.0
  0
LINE
  5
479
  8
DATA
  6
CONTINUOUS
 62
     7
 10
156.49134927160921
 20
471.74767992164419
 30
0.0
 11
158.16321663425231
 21
469.90117654398591
 31
0.0
  0
LINE
  5
47A
  8
DATA
  6
CONTINUOUS
 62
     7
 10
156.49134927160921
 20
403.25232007887661
 30
0.0
 11
158.16321663425219
 21
405.09882345653477
 31
0.0
  0
LINE
  5
47B
  8
DATA
  6
CONTINUOUS
 62
     7
 10
157.82449497158231
 20
397.38307199379318
 30
0.0
 11
161.16506220076539
 21
395.12307199379319
 31
0.0
  0
LINE
  5
47C
  8
DATA
  6
CONTINUOUS
 62
     7
 10
218.50865072861981
 20
403.25232007887672
 30
0.0
 11
216.82318108463821
 21
405.11384657319871
 31
0.0
  0
LINE
  5
47D
  8
DATA
  6
CONTINUOUS
 62
     7
 10
217.1743457090104
 20
397.39307199379323
 30
0.0
 11
213.83610597367661
 21
395.10307199379321
 31
0.0
  0
LINE
  5
47E
  8
DATA
  6
CONTINUOUS
 62
     7
 10
217.15891466019701
 20
477.46307199379311
 30
0.0
 11
213.83610597367661
 21
479.89692800672668
 31
0.0
  0
LINE
  5
47F
  8
DATA
  6
CONTINUOUS
 62
     7
 10
218.50865072861981
 20
471.74767992164419
 30
0.0
 11
216.67390130303681
 21
470.12307199379308
 31
0.0
  0
ARC
  5
480
  8
DATA
  6
CONTINUOUS
 62
     7
 10
187.50000000011431
 20
437.50000000026029
 30
0.0
 40
36.499999999999822
 50
161.6350512888869
 51
198.3649487111127
  0
ARC
  5
481
  8
DATA
  6
CONTINUOUS
 62
     7
 10
187.50000000011431
 20
437.50000000026029
 30
0.0
 40
36.500000000000092
 50
251.6350512888871
 51
288.36494871111279
  0
ARC
  5
482
  8
DATA
  6
CONTINUOUS
 62
     7
 10
187.50000000011431
 20
437.50000000026029
 30
0.0
 40
36.500000000000227
 50
341.6350512888875
 51
18.364948711112849
  0
ARC
  5
483
  8
DATA
  6
CONTINUOUS
 62
     7
 10
187.50000000011431
 20
437.50000000026029
 30
0.0
 40
36.500000000000021
 50
71.635051288887155
 51
108.3649487111129
  0
LINE
  5
484
  8
DATA
  6
CONTINUOUS
 62
     7
 10
199.0000000001144
 20
472.14101615163793
 30
0.0
 11
199.0000000001144
 21
466.82575659749079
 31
0.0
  0
LINE
  5
485
  8
DATA
  6
CONTINUOUS
 62
     7
 10
199.0000000001144
 20
408.17424340303012
 30
0.0
 11
199.0000000001144
 21
402.8589838488827
 31
0.0
  0
LINE
  5
486
  8
DATA
  6
CONTINUOUS
 62
     7
 10
176.00000000011431
 20
402.8589838488827
 30
0.0
 11
176.00000000011431
 21
408.17424340303012
 31
0.0
  0
LINE
  5
487
  8
DATA
  6
CONTINUOUS
 62
     7
 10
176.00000000011431
 20
466.82575659749079
 30
0.0
 11
176.00000000011431
 21
472.14101615163793
 31
0.0
  0
LINE
  5
488
  8
DATA
  6
CONTINUOUS
 62
     7
 10
152.85898384873701
 20
449.0000000002604
 30
0.0
 11
158.17424340288409
 21
449.0000000002604
 31
0.0
  0
LINE
  5
489
  8
DATA
  6
CONTINUOUS
 62
     7
 10
216.82575659734471
 20
449.0000000002604
 30
0.0
 11
222.1410161514921
 21
449.0000000002604
 31
0.0
  0
LINE
  5
48A
  8
DATA
  6
CONTINUOUS
 62
     7
 10
222.1410161514921
 20
426.0000000002604
 30
0.0
 11
216.82575659734471
 21
426.0000000002604
 31
0.0
  0
LINE
  5
48B
  8
DATA
  6
CONTINUOUS
 62
     7
 10
158.17424340288409
 20
426.0000000002604
 30
0.0
 11
152.85898384873701
 21
426.0000000002604
 31
0.0
  0
LINE
  5
48C
  8
DATA
  6
CONTINUOUS
 62
     7
 10
395.03573842242417
 20
165.33117687404049
 30
0.0
 11
395.03573842242417
 21
146.56652361977831
 31
0.0
  0
LINE
  5
48D
  8
DATA
  6
CONTINUOUS
 62
     7
 10
418.03573842242457
 20
165.33117687404049
 30
0.0
 11
418.03573842242457
 21
146.56652361977839
 31
0.0
  0
ARC
  5
48E
  8
DATA
  6
CONTINUOUS
 62
     7
 10
406.53573842242429
 20
123.2055607732255
 30
0.0
 40
44.263289473683969
 50
75.74813913573422
 51
104.2518608642655
  0
ARC
  5
48F
  8
DATA
  6
CONTINUOUS
 62
     7
 10
406.53573842242429
 20
188.69213972059319
 30
0.0
 40
44.263289473683798
 50
255.74813913573439
 51
284.25186086426589
  0
ARC
  5
490
  8
DATA
  6
CONTINUOUS
 62
     7
 10
395.83573842242419
 20
165.33117687404049
 30
0.0
 40
0.799999999999985
 50
104.2518608642624
 51
180.0
  0
ARC
  5
491
  8
DATA
  6
CONTINUOUS
 62
     7
 10
417.23573842242462
 20
165.33117687404049
 30
0.0
 40
0.8000000000000397
 50
0.0
 51
75.748139135735585
  0
ARC
  5
492
  8
DATA
  6
CONTINUOUS
 62
     7
 10
395.83573842242419
 20
146.56652361977831
 30
0.0
 40
0.7999999999999546
 50
180.0
 51
255.74813913573911
  0
ARC
  5
493
  8
DATA
  6
CONTINUOUS
 62
     7
 10
417.23573842242462
 20
146.56652361977839
 30
0.0
 40
0.7999999999999919
 50
284.25186086426447
 51
0.0
  0
CIRCLE
  5
494
  8
DATA
  6
CONTINUOUS
 62
     7
 10
398.53573842242417
 20
163.9488502469095
 30
0.0
 40
1.500000000000028
  0
CIRCLE
  5
495
  8
DATA
  6
CONTINUOUS
 62
     7
 10
414.53573842242452
 20
163.9488502469095
 30
0.0
 40
1.500000000000028
  0
CIRCLE
  5
496
  8
DATA
  6
CONTINUOUS
 62
     7
 10
398.53573842242417
 20
147.94885024690939
 30
0.0
 40
1.500000000000028
  0
CIRCLE
  5
497
  8
DATA
  6
CONTINUOUS
 62
     7
 10
414.53573842242452
 20
147.94885024690939
 30
0.0
 40
1.500000000000028
  0
CIRCLE
  5
498
  8
DATA
  6
CONTINUOUS
 62
     7
 10
406.5357384224244
 20
155.9488502469095
 30
0.0
 40
8.0000000000001972
  0
CIRCLE
  5
499
  8
DATA
  6
CONTINUOUS
 62
     7
 10
406.5357384224244
 20
155.9488502469095
 30
0.0
 40
3.8000000000000962
  0
LINE
  5
49A
  8
DATA
  6
CONTINUOUS
 62
     7
 10
403.62572041645399
 20
161.76106111755971
 30
0.0
 11
405.20355347802291
 21
159.50768197570841
 31
0.0
  0
LINE
  5
49B
  8
DATA
  6
CONTINUOUS
 62
     7
 10
409.42431225097391
 20
153.47981374717889
 30
0.0
 11
411.00214531254471
 21
151.2264346053249
 31
0.0
  0
LINE
  5
49C
  8
DATA
  6
CONTINUOUS
 62
     7
 10
409.44575642839618
 20
150.13663937625719
 30
0.0
 11
407.8679233668268
 21
152.39001851810929
 31
0.0
  0
LINE
  5
49D
  8
DATA
  6
CONTINUOUS
 62
     7
 10
403.6471645938737
 20
158.41788674664139
 30
0.0
 11
402.06933153230301
 21
160.67126588849541
 31
0.0
  0
CIRCLE
  5
49E
  8
DATA
  6
CONTINUOUS
 62
     7
 10
406.5357384224244
 20
155.94885024690939
 30
0.0
 40
6.5000000000001421
  0
TEXT
  5
49F
  8
DATA
 62
     7
 10
267.01533975517373
 20
127.7060440088149
 30
0.0
 40
6.7868381076388884
  1
3/8
 41
0.7
 11
267.01533975517373
 21
134.49288211645381
 31
0.0
 73
     3
  0
TEXT
  5
4A0
  8
DATA
 62
     7
 10
300.60143253631708
 20
127.7060440088149
 30
0.0
 40
6.7868381076388884
  1
5/8インチ変換ねじ付
 41
0.7
 11
300.60143253631708
 21
134.49288211645381
 31
0.0
 73
     3
  0
LINE
  5
4A1
  8
DATA
  6
CONTINUOUS
 62
     7
 10
284.71009960229293
 20
130.79076623103711
 30
0.0
 11
298.71009960229293
 21
130.79076623103711
 31
0.0
  0
LINE
  5
4A2
  8
DATA
  6
CONTINUOUS
 62
     7
 10
298.71009960229293
 20
130.79076623103711
 30
0.0
 11
290.77259960229293
 21
128.6639195161151
 31
0.0
  0
LINE
  5
4A3
  8
DATA
  6
CONTINUOUS
 62
     7
 10
298.71009960229293
 20
130.79076623103711
 30
0.0
 11
290.77259960229293
 21
132.91761294595921
 31
0.0
  0
TEXT
  5
4A4
  8
DATA
 62
     7
 10
154.85376910592581
 20
128.10773207364551
 30
0.0
 40
6.7868381076388884
  1
C414B-XLS取付け
 41
0.7
 11
154.85376910592581
 21
134.89457018128439
 31
0.0
 73
     3
  0
ARC
  5
4A5
  8
DATA
  6
CONTINUOUS
 62
     7
 10
405.49003759672053
 20
234.00000000007969
 30
0.0
 40
1.500000000000042
 50
90.0
 51
175.3165664840343
  0
ARC
  5
4A6
  8
DATA
  6
CONTINUOUS
 62
     7
 10
407.58143924812822
 20
234.00000000007989
 30
0.0
 40
1.499999999999915
 50
4.6834335159655209
 51
90.0
  0
ARC
  5
4A7
  8
DATA
  6
CONTINUOUS
 62
     7
 10
421.0357384224248
 20
220.54570082578371
 30
0.0
 40
1.500000000000028
 50
0.0
 51
85.316566484030844
  0
ARC
  5
4A8
  8
DATA
  6
CONTINUOUS
 62
     7
 10
421.0357384224248
 20
218.45429917437659
 30
0.0
 40
1.5000000000000011
 50
274.68343351596582
 51
0.0
  0
ARC
  5
4A9
  8
DATA
  6
CONTINUOUS
 62
     7
 10
407.58143924812799
 20
205.00000000008001
 30
0.0
 40
1.4999999999998861
 50
270.0
 51
355.31656648403822
  0
ARC
  5
4AA
  8
DATA
  6
CONTINUOUS
 62
     7
 10
405.49003759672058
 20
205.00000000008009
 30
0.0
 40
1.499999999999909
 50
184.6834335159628
 51
270.0
  0
ARC
  5
4AB
  8
DATA
  6
CONTINUOUS
 62
     7
 10
392.03573842242417
 20
220.5457008257836
 30
0.0
 40
1.499999999999956
 50
94.683433515964865
 51
180.0
  0
ARC
  5
4AC
  8
DATA
  6
CONTINUOUS
 62
     7
 10
392.035738422424
 20
218.45429917437659
 30
0.0
 40
1.4999999999999709
 50
180.0
 51
265.31656648403521
  0
LINE
  5
4AD
  8
DATA
  6
CONTINUOUS
 62
     7
 10
393.12616156459808
 20
212.50000000008009
 30
0.0
 11
391.49417831032417
 21
217.055473722431
 31
0.0
  0
LINE
  5
4AE
  8
DATA
  6
CONTINUOUS
 62
     7
 10
391.49417831031798
 20
221.94452627771199
 30
0.0
 11
393.12616156459808
 21
226.50000000007989
 31
0.0
  0
LINE
  5
4AF
  8
DATA
  6
CONTINUOUS
 62
     7
 10
262.5
 20
125.0
 30
0.0
 11
400.0
 21
125.0
 31
0.0
  0
LINE
  5
4B0
  8
DATA
  6
CONTINUOUS
 62
     7
 10
400.0
 20
125.0
 30
0.0
 11
406.9500000000001
 21
147.95958323764339
 31
0.0
  0
LINE
  5
4B1
  8
DATA
  6
CONTINUOUS
 62
     7
 10
406.9500000000001
 20
147.95958323764339
 30
0.0
 11
406.80658476838931
 21
139.7433301214038
 31
0.0
  0
LINE
  5
4B2
  8
DATA
  6
CONTINUOUS
 62
     7
 10
406.9500000000001
 20
147.95958323764339
 30
0.0
 11
402.7176722080157
 21
140.9158069308622
 31
0.0
  0
ENDSEC
  0
EOF
