  0
SECTION
  2
HEADER
  9
$ACADVER
  1
AC1009
  9
$INSBASE
 10
0.0
 20
0.0
 30
0.0
  9
$EXTMIN
 10
-180.0
 20
-271.68557005312488
 30
0.0
  9
$EXTMAX
 10
180.0
 20
263.53181500000011
 30
0.0
  9
$LIMMIN
 10
0.0
 20
0.0
  9
$LIMMAX
 10
0.0
 20
0.0
  9
$ORTHOMODE
 70
     0
  9
$REGENMODE
 70
     1
  9
$FILLMODE
 70
     1
  9
$QTEXTMODE
 70
     0
  9
$MIRRTEXT
 70
     1
  9
$DRAGMODE
 70
     2
  9
$LTSCALE
 40
10.16
  9
$OSMODE
 70
   231
  9
$ATTMODE
 70
     1
  9
$TEXTSIZE
 40
0.0
  9
$TRACEWID
 40
1.0
  9
$TEXTSTYLE
  7
STANDARD
  9
$CLAYER
  8
DATA
  9
$CELTYPE
  6
CONTINUOUS
  9
$CECOLOR
 62
   256
  9
$DIMSCALE
 40
1.0
  9
$DIMASZ
 40
0.18
  9
$DIMEXO
 40
0.0625
  9
$DIMDLI
 40
0.38
  9
$DIMRND
 40
0.0
  9
$DIMDLE
 40
0.0
  9
$DIMEXE
 40
0.18
  9
$DIMTP
 40
0.0
  9
$DIMTM
 40
0.0
  9
$DIMTXT
 40
0.18
  9
$DIMCEN
 40
0.09
  9
$DIMTSZ
 40
0.0
  9
$DIMTOL
 70
     0
  9
$DIMLIM
 70
     0
  9
$DIMTIH
 70
     1
  9
$DIMTOH
 70
     1
  9
$DIMSE1
 70
     0
  9
$DIMSE2
 70
     0
  9
$DIMTAD
 70
     0
  9
$DIMZIN
 70
     0
  9
$DIMBLK
  1

  9
$DIMASO
 70
     1
  9
$DIMSHO
 70
     1
  9
$DIMPOST
  1

  9
$DIMAPOST
  1

  9
$DIMALT
 70
     0
  9
$DIMALTD
 70
     2
  9
$DIMALTF
 40
25.399999999999999
  9
$DIMLFAC
 40
1.0
  9
$DIMTOFL
 70
     0
  9
$DIMTVP
 40
0.0
  9
$DIMTIX
 70
     0
  9
$DIMSOXD
 70
     0
  9
$DIMSAH
 70
     0
  9
$DIMBLK1
  1

  9
$DIMBLK2
  1

  9
$DIMSTYLE
  2
STANDARD
  9
$DIMCLRD
 70
     0
  9
$DIMCLRE
 70
     0
  9
$DIMCLRT
 70
     0
  9
$DIMTFAC
 40
1.0
  9
$DIMGAP
 40
0.09
  9
$LUNITS
 70
     2
  9
$LUPREC
 70
     4
  9
$SKETCHINC
 40
0.1
  9
$FILLETRAD
 40
0.0
  9
$AUNITS
 70
     0
  9
$AUPREC
 70
     0
  9
$MENU
  1
acad
  9
$ELEVATION
 40
0.0
  9
$PELEVATION
 40
0.0
  9
$THICKNESS
 40
0.0
  9
$LIMCHECK
 70
     0
  9
$BLIPMODE
 70
     0
  9
$CHAMFERA
 40
0.0
  9
$CHAMFERB
 40
0.0
  9
$SKPOLY
 70
     0
  9
$TDCREATE
 40
2456967.8000694448
  9
$TDUPDATE
 40
2456967.8261564351
  9
$TDINDWG
 40
0.0003071991
  9
$TDUSRTIMER
 40
0.0003071759
  9
$USRTIMER
 70
     1
  9
$ANGBASE
 50
0.0
  9
$ANGDIR
 70
     0
  9
$PDMODE
 70
     1
  9
$PDSIZE
 40
-2.0
  9
$PLINEWID
 40
0.0
  9
$COORDS
 70
     2
  9
$SPLFRAME
 70
     0
  9
$SPLINETYPE
 70
     6
  9
$SPLINESEGS
 70
     8
  9
$ATTDIA
 70
     0
  9
$ATTREQ
 70
     1
  9
$HANDLING
 70
     1
  9
$HANDSEED
  5
45A
  9
$SURFTAB1
 70
     6
  9
$SURFTAB2
 70
     6
  9
$SURFTYPE
 70
     6
  9
$SURFU
 70
     6
  9
$SURFV
 70
     6
  9
$UCSNAME
  2

  9
$UCSORG
 10
0.0
 20
0.0
 30
0.0
  9
$UCSXDIR
 10
1.0
 20
0.0
 30
0.0
  9
$UCSYDIR
 10
0.0
 20
1.0
 30
0.0
  9
$PUCSNAME
  2

  9
$PUCSORG
 10
0.0
 20
0.0
 30
0.0
  9
$PUCSXDIR
 10
1.0
 20
0.0
 30
0.0
  9
$PUCSYDIR
 10
0.0
 20
1.0
 30
0.0
  9
$USERI1
 70
     0
  9
$USERI2
 70
     0
  9
$USERI3
 70
     0
  9
$USERI4
 70
     0
  9
$USERI5
 70
     0
  9
$USERR1
 40
0.0
  9
$USERR2
 40
0.0
  9
$USERR3
 40
0.0
  9
$USERR4
 40
0.0
  9
$USERR5
 40
0.0
  9
$WORLDVIEW
 70
     1
  9
$SHADEDGE
 70
     3
  9
$SHADEDIF
 70
    70
  9
$TILEMODE
 70
     1
  9
$MAXACTVP
 70
    64
  9
$PLIMCHECK
 70
     0
  9
$PEXTMIN
 10
1.0000000000000000E+020
 20
1.0000000000000000E+020
 30
1.0000000000000000E+020
  9
$PEXTMAX
 10
-1.0000000000000000E+020
 20
-1.0000000000000000E+020
 30
-1.0000000000000000E+020
  9
$PLIMMIN
 10
0.0
 20
0.0
  9
$PLIMMAX
 10
12.0
 20
9.0
  9
$UNITMODE
 70
     0
  9
$VISRETAIN
 70
     0
  9
$PLINEGEN
 70
     1
  9
$PSLTSCALE
 70
     0
  0
ENDSEC
  0
SECTION
  2
TABLES
  0
TABLE
  2
VPORT
 70
     1
  0
VPORT
  2
*ACTIVE
 70
     0
 10
0.0
 20
0.0
 11
1.0
 21
1.0
 12
0.0
 22
-4.0768775265624413
 13
0.0
 23
0.0
 14
1.0
 24
1.0
 15
0.0
 25
0.0
 16
0.0
 26
0.0
 36
1.0
 17
0.0
 27
0.0
 37
0.0
 40
539.21651868988545
 41
2.3715710723192021
 42
50.0
 43
0.0
 44
0.0
 50
0.0
 51
0.0
 71
     0
 72
  2000
 73
     1
 74
     1
 75
     0
 76
     0
 77
     0
 78
     0
  0
ENDTAB
  0
TABLE
  2
LTYPE
 70
    11
  0
LTYPE
  2
CONTINUOUS
 70
     0
  3
Solid line
 72
    65
 73
     0
 40
0.0
  0
ENDTAB
  0
TABLE
  2
LAYER
 70
     6
  0
LAYER
  2
0
 70
     0
 62
     7
  6
CONTINUOUS
  0
LAYER
  2
DATA
 70
     0
 62
     7
  6
CONTINUOUS
  0
LAYER
  2
HIBINO-BASE
 70
     0
 62
     7
  6
CONTINUOUS
  0
LAYER
  2
PATTERN_FILL
 70
     0
 62
     7
  6
CONTINUOUS
  0
LAYER
  2
SPEC
 70
     0
 62
     7
  6
CONTINUOUS
  0
LAYER
  2
DIMNSIONS
 70
     0
 62
     7
  6
CONTINUOUS
  0
ENDTAB
  0
TABLE
  2
STYLE
 70
     3
  0
STYLE
  2
STANDARD
 70
     0
 40
0.0
 41
1.0
 50
0.0
 71
     0
 42
0.0
  3
txt
  4
BIGFONT.SHX
  0
ENDTAB
  0
TABLE
  2
VIEW
 70
     0
  0
ENDTAB
  0
TABLE
  2
UCS
 70
     0
  0
ENDTAB
  0
TABLE
  2
APPID
 70
     4
  0
APPID
  2
ACAD
 70
     0
  0
APPID
  2
ACADANNOTATIVE
 70
     0
  0
APPID
  2
ACAD_NAV_VCDISPLAY
 70
     0
  0
APPID
  2
ACAD_MLEADERVER
 70
     0
  0
ENDTAB
  0
TABLE
  2
DIMSTYLE
 70
     2
  0
DIMSTYLE
  2
STANDARD
 70
     0
  3

  4

  5

  6

  7

 40
1.0
 41
0.18
 42
0.0625
 43
0.38
 44
0.18
 45
0.0
 46
0.0
 47
0.0
 48
0.0
140
0.18
141
0.09
142
0.0
143
25.399999999999999
144
1.0
145
0.0
146
1.0
147
0.09
 71
     0
 72
     0
 73
     1
 74
     1
 75
     0
 76
     0
 77
     0
 78
     0
170
     0
171
     2
172
     0
173
     0
174
     0
175
     0
176
     0
177
     0
178
     0
  0
ENDTAB
  0
ENDSEC
  0
SECTION
  2
BLOCKS
  0
BLOCK
  8
0
  2
$MODEL_SPACE
 70
     0
 10
0.0
 20
0.0
 30
0.0
  3
$MODEL_SPACE
  1

  0
ENDBLK
  5
3E6
  8
0
  0
BLOCK
 67
     1
  8
0
  2
$PAPER_SPACE
 70
     0
 10
0.0
 20
0.0
 30
0.0
  3
$PAPER_SPACE
  1

  0
ENDBLK
  5
3E2
 67
     1
  8
0
  0
ENDSEC
  0
SECTION
  2
ENTITIES
  0
LINE
  5
2D
  8
HIBINO-BASE
  6
CONTINUOUS
 62
     7
 10
-180.0
 20
263.53181500000011
 30
0.0
 11
180.0
 21
263.53181500000011
 31
0.0
  0
LINE
  5
2E
  8
HIBINO-BASE
  6
CONTINUOUS
 62
     7
 10
180.0
 20
-256.46818500000001
 30
0.0
 11
-180.0
 21
-256.46818500000001
 31
0.0
  0
LINE
  5
2F
  8
HIBINO-BASE
  6
CONTINUOUS
 62
     7
 10
-180.0
 20
-256.46818500000012
 30
0.0
 11
-180.0
 21
263.53181500000011
 31
0.0
  0
LINE
  5
30
  8
HIBINO-BASE
  6
CONTINUOUS
 62
     7
 10
180.0
 20
263.53181500000011
 30
0.0
 11
180.0
 21
-256.46818500000001
 31
0.0
  0
LINE
  5
31
  8
HIBINO-BASE
  6
CONTINUOUS
 62
     7
 10
0.0000000000000142
 20
-211.46818500000001
 30
0.0
 11
180.0
 21
-211.46818500000001
 31
0.0
  0
LINE
  5
32
  8
HIBINO-BASE
  6
CONTINUOUS
 62
     7
 10
0.0000000000000142
 20
-256.46818500000001
 30
0.0
 11
0.0000000000000142
 21
-211.46818500000001
 31
0.0
  0
TEXT
  5
33
  8
HIBINO-BASE
 62
     7
 10
1.8000000000000249
 20
-216.48557166666669
 30
0.0
 40
3.2576822916666659
  1
NOTE
 41
0.7
 11
1.8000000000000249
 21
-213.22788937499999
 31
0.0
 73
     3
  0
LINE
  5
34
  8
HIBINO-BASE
  6
CONTINUOUS
 62
     7
 10
70.000000000000043
 20
-256.46818500000001
 30
0.0
 11
70.000000000000043
 21
-211.46818500000001
 31
0.0
  0
TEXT
  5
35
  8
HIBINO-BASE
 62
     7
 10
71.799999999999983
 20
-216.48557166666669
 30
0.0
 40
3.2576822916666659
  1
TITLE
 41
0.7
 11
71.799999999999983
 21
-213.22788937499999
 31
0.0
 73
     3
  0
LINE
  5
36
  8
HIBINO-BASE
  6
CONTINUOUS
 62
     7
 10
0.0000000000000142
 20
-236.46818500000001
 30
0.0
 11
180.0
 21
-236.46818500000001
 31
0.0
  0
TEXT
  5
37
  8
HIBINO-BASE
 62
     7
 10
96.799999999999983
 20
-241.37293166666669
 30
0.0
 40
3.2576822916666659
  1
DRAWN
 41
0.7
 11
96.799999999999983
 21
-238.11524937499999
 31
0.0
 73
     3
  0
TEXT
  5
38
  8
HIBINO-BASE
 62
     7
 10
46.79999999999999
 20
-241.37293166666669
 30
0.0
 40
3.2576822916666659
  1
DATE
 41
0.7
 11
46.79999999999999
 21
-238.11524937499999
 31
0.0
 73
     3
  0
TEXT
  5
39
  8
HIBINO-BASE
 62
     7
 10
26.800000000000001
 20
-241.37293166666669
 30
0.0
 40
3.2576822916666659
  1
SCALE
 41
0.7
 11
26.800000000000001
 21
-238.11524937499999
 31
0.0
 73
     3
  0
TEXT
  5
3A
  8
HIBINO-BASE
 62
     7
 10
71.799999999999983
 20
-241.37293166666669
 30
0.0
 40
3.2576822916666659
  1
DESIGN
 41
0.7
 11
71.799999999999983
 21
-238.11524937499999
 31
0.0
 73
     3
  0
TEXT
  5
3B
  8
HIBINO-BASE
 62
     7
 10
146.7999999999999
 20
-241.37293166666669
 30
0.0
 40
3.2576822916666659
  1
DRAWING NO.
 41
0.7
 11
146.7999999999999
 21
-238.11524937499999
 31
0.0
 73
     3
  0
TEXT
  5
3C
  8
HIBINO-BASE
 62
     7
 10
121.7999999999999
 20
-241.37293166666669
 30
0.0
 40
3.2576822916666659
  1
CHECK
 41
0.7
 11
121.7999999999999
 21
-238.11524937499999
 31
0.0
 73
     3
  0
LINE
  5
3D
  8
HIBINO-BASE
  6
CONTINUOUS
 62
     7
 10
28.750000000000011
 20
-253.96818500000001
 30
0.0
 11
36.250000000000028
 21
-246.46818500000001
 31
0.0
  0
TEXT
  5
3E
  8
HIBINO-BASE
 62
     7
 10
27.500000000000011
 20
-248.68607166666661
 30
0.0
 40
3.2576822916666659
  1
1
 41
0.7
 11
27.500000000000011
 21
-245.42838937499999
 31
0.0
 73
     3
  0
LINE
  5
3F
  8
HIBINO-BASE
  6
CONTINUOUS
 62
     7
 10
25.000000000000011
 20
-256.46818500000001
 30
0.0
 11
25.000000000000011
 21
-236.46818500000001
 31
0.0
  0
LINE
  5
40
  8
HIBINO-BASE
  6
CONTINUOUS
 62
     7
 10
44.999999999999993
 20
-256.46818500000001
 30
0.0
 11
44.999999999999993
 21
-236.46818500000001
 31
0.0
  0
LINE
  5
41
  8
HIBINO-BASE
  6
CONTINUOUS
 62
     7
 10
94.999999999999957
 20
-236.46818500000001
 30
0.0
 11
94.999999999999957
 21
-256.46818500000001
 31
0.0
  0
LINE
  5
42
  8
HIBINO-BASE
  6
CONTINUOUS
 62
     7
 10
145.0
 20
-236.46818500000001
 30
0.0
 11
145.0
 21
-256.46818500000001
 31
0.0
  0
LINE
  5
43
  8
HIBINO-BASE
  6
CONTINUOUS
 62
     7
 10
119.9999999999999
 20
-256.46818500000001
 30
0.0
 11
119.9999999999999
 21
-236.46818500000001
 31
0.0
  0
TEXT
  5
44
  8
HIBINO-BASE
 62
     7
 10
46.713080000000019
 20
-250.7408916666667
 30
0.0
 40
3.2576822916666659
  1
'14.11.
 41
0.7
 11
46.713080000000019
 21
-247.483209375
 31
0.0
 73
     3
  0
TEXT
  5
45
  8
HIBINO-BASE
 62
     7
 10
35.000000000000007
 20
-252.43607166666669
 30
0.0
 40
3.2576822916666659
  1
2
 41
0.7
 11
35.000000000000007
 21
-249.17838937499999
 31
0.0
 73
     3
  0
TEXT
  5
46
  8
HIBINO-BASE
 62
     7
 10
7.7666666666667208
 20
-252.51618500000001
 30
0.0
 40
6.5153645833333318
  1
A4
 41
0.7
 11
7.7666666666667208
 21
-246.00082041666661
 31
0.0
 73
     3
  0
TEXT
  5
47
  8
HIBINO-BASE
 62
     7
 10
1.916666666666671
 20
-241.7070949999999
 30
0.0
 40
3.2576822916666659
  1
PAPER SIZE
 41
0.7
 11
1.916666666666671
 21
-238.44941270833331
 31
0.0
 73
     3
  0
TEXT
  5
48
  8
HIBINO-BASE
 62
     7
 10
-165.63199999999989
 20
-269.28554059999988
 30
0.0
 40
7.2000883593749991
  1
Hibino Corporation
 41
0.7
 11
-165.63199999999989
 21
-262.08545224062487
 31
0.0
 73
     3
  0
TEXT
  5
49
  8
HIBINO-BASE
 62
     7
 10
100.13678
 20
-269.28554059999988
 30
0.0
 40
7.2000883593749991
  1
ヒビノ株式会社
 41
0.7
 11
100.13678
 21
-262.08545224062487
 31
0.0
 73
     3
  0
TEXT
  5
4A
  8
HIBINO-BASE
 62
     7
 10
98.011620022069224
 20
-250.7408916666667
 30
0.0
 40
3.2576822916666659
  1
T.Ootake
 41
0.7
 11
98.011620022069224
 21
-247.483209375
 31
0.0
 73
     3
  0
LINE
  5
4B
  8
PATTERN_FILL
  6
CONTINUOUS
 62
     7
 10
-46.513452528629628
 20
64.181387830444535
 30
0.0
 11
-28.486547471370368
 21
64.181387830444535
 31
0.0
  0
LINE
  5
4C
  8
PATTERN_FILL
  6
CONTINUOUS
 62
     7
 10
-49.704432104548168
 20
65.681387830444535
 30
0.0
 11
-25.29556789545185
 21
65.681387830444535
 31
0.0
  0
LINE
  5
4D
  8
PATTERN_FILL
  6
CONTINUOUS
 62
     7
 10
-52.065507183177431
 20
67.181387830444535
 30
0.0
 11
-22.934492816822619
 21
67.181387830444535
 31
0.0
  0
LINE
  5
4E
  8
PATTERN_FILL
  6
CONTINUOUS
 62
     7
 10
-53.95781990458822
 20
68.681387830444535
 30
0.0
 11
-21.04218009541183
 21
68.681387830444535
 31
0.0
  0
LINE
  5
4F
  8
PATTERN_FILL
  6
CONTINUOUS
 62
     7
 10
-55.529577713316691
 20
70.181387830444535
 30
0.0
 11
-19.470422286683331
 21
70.181387830444535
 31
0.0
  0
LINE
  5
50
  8
PATTERN_FILL
  6
CONTINUOUS
 62
     7
 10
-56.859016220593261
 20
71.681387830444535
 30
0.0
 11
-18.140983779406788
 21
71.681387830444535
 31
0.0
  0
LINE
  5
51
  8
PATTERN_FILL
  6
CONTINUOUS
 62
     7
 10
-57.993348812184379
 20
73.181387830444521
 30
0.0
 11
-17.006651187815649
 21
73.181387830444521
 31
0.0
  0
LINE
  5
52
  8
PATTERN_FILL
  6
CONTINUOUS
 62
     7
 10
-58.963531443975498
 20
74.681387830444521
 30
0.0
 11
-16.03646855602452
 21
74.681387830444521
 31
0.0
  0
LINE
  5
53
  8
PATTERN_FILL
  6
CONTINUOUS
 62
     7
 10
-59.791007571556548
 20
76.181387830444521
 30
0.0
 11
-15.208992428443469
 21
76.181387830444521
 31
0.0
  0
LINE
  5
54
  8
PATTERN_FILL
  6
CONTINUOUS
 62
     7
 10
-60.491190814393619
 20
77.681387830444521
 30
0.0
 11
-14.508809185606401
 21
77.681387830444521
 31
0.0
  0
LINE
  5
55
  8
PATTERN_FILL
  6
CONTINUOUS
 62
     7
 10
-61.075425586243917
 20
79.181387830444521
 30
0.0
 11
-13.92457441375611
 21
79.181387830444521
 31
0.0
  0
LINE
  5
56
  8
PATTERN_FILL
  6
CONTINUOUS
 62
     7
 10
-61.552162648734758
 20
80.681387830444507
 30
0.0
 11
-13.447837351265269
 21
80.681387830444507
 31
0.0
  0
LINE
  5
57
  8
PATTERN_FILL
  6
CONTINUOUS
 62
     7
 10
-61.927696669761083
 20
82.181387830444521
 30
0.0
 11
-13.072303330238929
 21
82.181387830444521
 31
0.0
  0
LINE
  5
58
  8
PATTERN_FILL
  6
CONTINUOUS
 62
     7
 10
-62.206642853664363
 20
83.681387830444521
 30
0.0
 11
-12.793357146335691
 21
83.681387830444521
 31
0.0
  0
LINE
  5
59
  8
PATTERN_FILL
  6
CONTINUOUS
 62
     7
 10
-62.392248544621083
 20
85.181387830444521
 30
0.0
 11
-12.607751455378949
 21
85.181387830444521
 31
0.0
  0
LINE
  5
5A
  8
PATTERN_FILL
  6
CONTINUOUS
 62
     7
 10
-62.48659388784025
 20
86.681387830444535
 30
0.0
 11
-12.51340611215976
 21
86.681387830444535
 31
0.0
  0
LINE
  5
5B
  8
PATTERN_FILL
  6
CONTINUOUS
 62
     7
 10
-62.490712487332608
 20
88.181387830444507
 30
0.0
 11
-12.50928751266739
 21
88.181387830444507
 31
0.0
  0
LINE
  5
5C
  8
PATTERN_FILL
  6
CONTINUOUS
 62
     7
 10
-62.404649106807142
 20
89.681387830444521
 30
0.0
 11
-12.59535089319289
 21
89.681387830444521
 31
0.0
  0
LINE
  5
5D
  8
PATTERN_FILL
  6
CONTINUOUS
 62
     7
 10
-62.227462135080813
 20
91.181387830444507
 30
0.0
 11
-12.772537864919199
 21
91.181387830444507
 31
0.0
  0
LINE
  5
5E
  8
PATTERN_FILL
  6
CONTINUOUS
 62
     7
 10
-61.957171139576253
 20
92.681387830444507
 30
0.0
 11
-13.042828860423761
 21
92.681387830444507
 31
0.0
  0
LINE
  5
5F
  8
PATTERN_FILL
  6
CONTINUOUS
 62
     7
 10
-61.590642512377883
 20
94.181387830444507
 30
0.0
 11
-13.409357487622129
 21
94.181387830444507
 31
0.0
  0
LINE
  5
60
  8
PATTERN_FILL
  6
CONTINUOUS
 62
     7
 10
-61.123397155528977
 20
95.681387830444507
 30
0.0
 11
-13.876602844471041
 21
95.681387830444507
 31
0.0
  0
LINE
  5
61
  8
PATTERN_FILL
  6
CONTINUOUS
 62
     7
 10
-60.549310828667323
 20
97.181387830444521
 30
0.0
 11
-14.4506891713327
 21
97.181387830444521
 31
0.0
  0
LINE
  5
62
  8
PATTERN_FILL
  6
CONTINUOUS
 62
     7
 10
-59.860155772829209
 20
98.681387830444507
 30
0.0
 11
-15.139844227170819
 21
98.681387830444507
 31
0.0
  0
LINE
  5
63
  8
PATTERN_FILL
  6
CONTINUOUS
 62
     7
 10
-59.044892728761809
 20
100.18138783044451
 30
0.0
 11
-15.955107271238189
 21
100.18138783044451
 31
0.0
  0
LINE
  5
64
  8
PATTERN_FILL
  6
CONTINUOUS
 62
     7
 10
-58.088546311056547
 20
101.68138783044451
 30
0.0
 11
-16.911453688943471
 21
101.68138783044451
 31
0.0
  0
LINE
  5
65
  8
PATTERN_FILL
  6
CONTINUOUS
 62
     7
 10
-56.970338356361097
 20
103.18138783044451
 30
0.0
 11
-18.02966164363891
 21
103.18138783044451
 31
0.0
  0
LINE
  5
66
  8
PATTERN_FILL
  6
CONTINUOUS
 62
     7
 10
-55.660394054641351
 20
104.68138783044451
 30
0.0
 11
-19.339605945358681
 21
104.68138783044451
 31
0.0
  0
LINE
  5
67
  8
PATTERN_FILL
  6
CONTINUOUS
 62
     7
 10
-54.113420741331971
 20
106.18138783044451
 30
0.0
 11
-20.886579258668039
 21
106.18138783044451
 31
0.0
  0
LINE
  5
68
  8
PATTERN_FILL
  6
CONTINUOUS
 62
     7
 10
-52.255052871378872
 20
107.68138783044451
 30
0.0
 11
-22.744947128621181
 21
107.68138783044451
 31
0.0
  0
LINE
  5
69
  8
PATTERN_FILL
  6
CONTINUOUS
 62
     7
 10
-49.94658273366035
 20
109.18138783044451
 30
0.0
 11
-25.053417266339679
 21
109.18138783044451
 31
0.0
  0
LINE
  5
6A
  8
PATTERN_FILL
  6
CONTINUOUS
 62
     7
 10
-46.860729579179093
 20
110.68138783044451
 30
0.0
 11
-28.139270420820949
 21
110.68138783044451
 31
0.0
  0
LINE
  5
6B
  8
PATTERN_FILL
  6
CONTINUOUS
 62
     7
 10
-41.478579490620291
 20
112.18138783044451
 30
0.0
 11
-33.52142050937973
 21
112.18138783044451
 31
0.0
  0
LINE
  5
6C
  8
PATTERN_FILL
  6
CONTINUOUS
 62
     7
 10
-60.638802409220318
 20
78.034492984152422
 30
0.0
 11
-60.638802409220318
 21
96.965507015847606
 31
0.0
  0
LINE
  5
6D
  8
PATTERN_FILL
  6
CONTINUOUS
 62
     7
 10
-59.138802409220332
 20
74.97952755305451
 30
0.0
 11
-59.138802409220332
 21
100.0204724469454
 31
0.0
  0
LINE
  5
6E
  8
PATTERN_FILL
  6
CONTINUOUS
 62
     7
 10
-57.638802409220318
 20
72.686876172718272
 30
0.0
 11
-57.638802409220318
 21
102.3131238272817
 31
0.0
  0
LINE
  5
6F
  8
PATTERN_FILL
  6
CONTINUOUS
 62
     7
 10
-56.138802409220318
 20
70.838816226028754
 30
0.0
 11
-56.138802409220318
 21
104.1611837739712
 31
0.0
  0
LINE
  5
70
  8
PATTERN_FILL
  6
CONTINUOUS
 62
     7
 10
-54.638802409220332
 20
69.299410669494691
 30
0.0
 11
-54.638802409220332
 21
105.7005893305053
 31
0.0
  0
LINE
  5
71
  8
PATTERN_FILL
  6
CONTINUOUS
 62
     7
 10
-53.138802409220318
 20
67.99544004071447
 30
0.0
 11
-53.138802409220318
 21
107.0045599592855
 31
0.0
  0
LINE
  5
72
  8
PATTERN_FILL
  6
CONTINUOUS
 62
     7
 10
-51.638802409220332
 20
66.882185701849352
 30
0.0
 11
-51.638802409220332
 21
108.11781429815071
 31
0.0
  0
LINE
  5
73
  8
PATTERN_FILL
  6
CONTINUOUS
 62
     7
 10
-50.138802409220318
 20
65.930097968217709
 30
0.0
 11
-50.138802409220318
 21
109.06990203178231
 31
0.0
  0
LINE
  5
74
  8
PATTERN_FILL
  6
CONTINUOUS
 62
     7
 10
-48.638802409220318
 20
65.118599666501041
 30
0.0
 11
-48.638802409220318
 21
109.8814003334989
 31
0.0
  0
LINE
  5
75
  8
PATTERN_FILL
  6
CONTINUOUS
 62
     7
 10
-47.138802409220332
 20
64.432848287748897
 30
0.0
 11
-47.138802409220332
 21
110.5671517122511
 31
0.0
  0
LINE
  5
76
  8
PATTERN_FILL
  6
CONTINUOUS
 62
     7
 10
-45.638802409220318
 20
63.86189738274939
 30
0.0
 11
-45.638802409220318
 21
111.1381026172506
 31
0.0
  0
LINE
  5
77
  8
PATTERN_FILL
  6
CONTINUOUS
 62
     7
 10
-44.138802409220318
 20
63.397587204362083
 30
0.0
 11
-44.138802409220318
 21
111.6024127956379
 31
0.0
  0
LINE
  5
78
  8
PATTERN_FILL
  6
CONTINUOUS
 62
     7
 10
-42.638802409220318
 20
63.033845627091473
 30
0.0
 11
-42.638802409220318
 21
111.96615437290851
 31
0.0
  0
LINE
  5
79
  8
PATTERN_FILL
  6
CONTINUOUS
 62
     7
 10
-41.138802409220318
 20
62.766235283995819
 30
0.0
 11
-41.138802409220318
 21
112.2337647160041
 31
0.0
  0
LINE
  5
7A
  8
PATTERN_FILL
  6
CONTINUOUS
 62
     7
 10
-39.638802409220332
 20
62.591657536995498
 30
0.0
 11
-39.638802409220332
 21
112.4083424630045
 31
0.0
  0
LINE
  5
7B
  8
PATTERN_FILL
  6
CONTINUOUS
 62
     7
 10
-38.138802409220332
 20
62.508162702954913
 30
0.0
 11
-38.138802409220332
 21
112.49183729704509
 31
0.0
  0
LINE
  5
7C
  8
PATTERN_FILL
  6
CONTINUOUS
 62
     7
 10
-36.638802409220332
 20
62.514837628911941
 30
0.0
 11
-36.638802409220332
 21
112.48516237108799
 31
0.0
  0
LINE
  5
7D
  8
PATTERN_FILL
  6
CONTINUOUS
 62
     7
 10
-35.138802409220332
 20
62.611754864247722
 30
0.0
 11
-35.138802409220332
 21
112.3882451357522
 31
0.0
  0
LINE
  5
7E
  8
PATTERN_FILL
  6
CONTINUOUS
 62
     7
 10
-33.638802409220318
 20
62.79997665659085
 30
0.0
 11
-33.638802409220318
 21
112.2000233434091
 31
0.0
  0
LINE
  5
7F
  8
PATTERN_FILL
  6
CONTINUOUS
 62
     7
 10
-32.138802409220332
 20
63.08161429593229
 30
0.0
 11
-32.138802409220332
 21
111.9183857040677
 31
0.0
  0
LINE
  5
80
  8
PATTERN_FILL
  6
CONTINUOUS
 62
     7
 10
-30.638802409220329
 20
63.459950756700209
 30
0.0
 11
-30.638802409220329
 21
111.5400492432998
 31
0.0
  0
LINE
  5
81
  8
PATTERN_FILL
  6
CONTINUOUS
 62
     7
 10
-29.138802409220329
 20
63.93964399997445
 30
0.0
 11
-29.138802409220329
 21
111.06035600002549
 31
0.0
  0
LINE
  5
82
  8
PATTERN_FILL
  6
CONTINUOUS
 62
     7
 10
-27.638802409220329
 20
64.527042374226141
 30
0.0
 11
-27.638802409220329
 21
110.4729576257738
 31
0.0
  0
LINE
  5
83
  8
PATTERN_FILL
  6
CONTINUOUS
 62
     7
 10
-26.138802409220322
 20
65.230667066495641
 30
0.0
 11
-26.138802409220322
 21
109.7693329335043
 31
0.0
  0
LINE
  5
84
  8
PATTERN_FILL
  6
CONTINUOUS
 62
     7
 10
-24.638802409220329
 20
66.061959125635497
 30
0.0
 11
-24.638802409220329
 21
108.9380408743645
 31
0.0
  0
LINE
  5
85
  8
PATTERN_FILL
  6
CONTINUOUS
 62
     7
 10
-23.138802409220329
 20
67.036471375674623
 30
0.0
 11
-23.138802409220329
 21
107.96352862432531
 31
0.0
  0
LINE
  5
86
  8
PATTERN_FILL
  6
CONTINUOUS
 62
     7
 10
-21.638802409220329
 20
68.175859372633283
 30
0.0
 11
-21.638802409220329
 21
106.8241406273667
 31
0.0
  0
LINE
  5
87
  8
PATTERN_FILL
  6
CONTINUOUS
 62
     7
 10
-20.138802409220322
 20
69.511425342348389
 30
0.0
 11
-20.138802409220322
 21
105.4885746576516
 31
0.0
  0
LINE
  5
88
  8
PATTERN_FILL
  6
CONTINUOUS
 62
     7
 10
-18.638802409220322
 20
71.091001692925715
 30
0.0
 11
-18.638802409220322
 21
103.9089983070743
 31
0.0
  0
LINE
  5
89
  8
PATTERN_FILL
  6
CONTINUOUS
 62
     7
 10
-17.138802409220322
 20
72.994082839433162
 30
0.0
 11
-17.138802409220322
 21
102.0059171605668
 31
0.0
  0
LINE
  5
8A
  8
PATTERN_FILL
  6
CONTINUOUS
 62
     7
 10
-15.63880240922032
 20
75.372014186317301
 30
0.0
 11
-15.63880240922032
 21
99.627985813682713
 31
0.0
  0
LINE
  5
8B
  8
PATTERN_FILL
  6
CONTINUOUS
 62
     7
 10
-14.13880240922032
 20
78.597503320722339
 30
0.0
 11
-14.13880240922032
 21
96.402496679277647
 31
0.0
  0
LINE
  5
8C
  8
PATTERN_FILL
  6
CONTINUOUS
 62
     7
 10
-12.63880240922032
 20
84.869248329429297
 30
0.0
 11
-12.63880240922032
 21
90.130751670570703
 31
0.0
  0
LINE
  5
8D
  8
PATTERN_FILL
  6
CONTINUOUS
 62
     7
 10
-61.000000000000021
 20
-29.71189900223473
 30
0.0
 11
-14.00000000000002
 21
-29.71189900223473
 31
0.0
  0
LINE
  5
8E
  8
PATTERN_FILL
  6
CONTINUOUS
 62
     7
 10
-61.000000000000021
 20
-28.21189900223473
 30
0.0
 11
-14.00000000000002
 21
-28.21189900223473
 31
0.0
  0
LINE
  5
8F
  8
PATTERN_FILL
  6
CONTINUOUS
 62
     7
 10
-61.000000000000021
 20
-26.71189900223473
 30
0.0
 11
-14.00000000000002
 21
-26.71189900223473
 31
0.0
  0
LINE
  5
90
  8
PATTERN_FILL
  6
CONTINUOUS
 62
     7
 10
-61.000000000000021
 20
-25.21189900223473
 30
0.0
 11
-14.00000000000002
 21
-25.21189900223473
 31
0.0
  0
LINE
  5
91
  8
PATTERN_FILL
  6
CONTINUOUS
 62
     7
 10
-61.000000000000021
 20
-23.71189900223473
 30
0.0
 11
-14.00000000000002
 21
-23.71189900223473
 31
0.0
  0
LINE
  5
92
  8
PATTERN_FILL
  6
CONTINUOUS
 62
     7
 10
-61.000000000000021
 20
-22.21189900223473
 30
0.0
 11
-14.00000000000002
 21
-22.21189900223473
 31
0.0
  0
LINE
  5
93
  8
PATTERN_FILL
  6
CONTINUOUS
 62
     7
 10
-61.000000000000021
 20
-20.71189900223473
 30
0.0
 11
-14.00000000000002
 21
-20.71189900223473
 31
0.0
  0
LINE
  5
94
  8
PATTERN_FILL
  6
CONTINUOUS
 62
     7
 10
-61.000000000000021
 20
-19.21189900223473
 30
0.0
 11
-14.00000000000002
 21
-19.21189900223473
 31
0.0
  0
LINE
  5
95
  8
PATTERN_FILL
  6
CONTINUOUS
 62
     7
 10
-61.000000000000021
 20
-17.71189900223473
 30
0.0
 11
-14.00000000000002
 21
-17.71189900223473
 31
0.0
  0
LINE
  5
96
  8
PATTERN_FILL
  6
CONTINUOUS
 62
     7
 10
-61.000000000000021
 20
-16.21189900223473
 30
0.0
 11
-14.00000000000002
 21
-16.21189900223473
 31
0.0
  0
LINE
  5
97
  8
PATTERN_FILL
  6
CONTINUOUS
 62
     7
 10
-61.000000000000021
 20
-14.71189900223473
 30
0.0
 11
-14.00000000000002
 21
-14.71189900223473
 31
0.0
  0
LINE
  5
98
  8
PATTERN_FILL
  6
CONTINUOUS
 62
     7
 10
-61.000000000000021
 20
-13.21189900223473
 30
0.0
 11
-14.00000000000002
 21
-13.21189900223473
 31
0.0
  0
LINE
  5
99
  8
PATTERN_FILL
  6
CONTINUOUS
 62
     7
 10
-61.000000000000021
 20
-11.71189900223473
 30
0.0
 11
-14.00000000000002
 21
-11.71189900223473
 31
0.0
  0
LINE
  5
9A
  8
PATTERN_FILL
  6
CONTINUOUS
 62
     7
 10
-61.000000000000021
 20
-10.21189900223473
 30
0.0
 11
-14.00000000000002
 21
-10.21189900223473
 31
0.0
  0
LINE
  5
9B
  8
PATTERN_FILL
  6
CONTINUOUS
 62
     7
 10
-61.000000000000021
 20
-8.7118990022347305
 30
0.0
 11
-14.00000000000002
 21
-8.7118990022347305
 31
0.0
  0
LINE
  5
9C
  8
PATTERN_FILL
  6
CONTINUOUS
 62
     7
 10
-61.000000000000021
 20
-7.2118990022347287
 30
0.0
 11
-14.00000000000002
 21
-7.2118990022347287
 31
0.0
  0
LINE
  5
9D
  8
PATTERN_FILL
  6
CONTINUOUS
 62
     7
 10
-61.000000000000021
 20
-5.7118990022347296
 30
0.0
 11
-14.00000000000002
 21
-5.7118990022347296
 31
0.0
  0
LINE
  5
9E
  8
PATTERN_FILL
  6
CONTINUOUS
 62
     7
 10
-61.000000000000021
 20
-4.2118990022347296
 30
0.0
 11
-14.00000000000002
 21
-4.2118990022347296
 31
0.0
  0
LINE
  5
9F
  8
PATTERN_FILL
  6
CONTINUOUS
 62
     7
 10
-61.000000000000021
 20
-2.71189900223473
 30
0.0
 11
-14.00000000000002
 21
-2.71189900223473
 31
0.0
  0
LINE
  5
A0
  8
PATTERN_FILL
  6
CONTINUOUS
 62
     7
 10
-61.000000000000021
 20
-1.21189900223473
 30
0.0
 11
-14.00000000000002
 21
-1.21189900223473
 31
0.0
  0
LINE
  5
A1
  8
PATTERN_FILL
  6
CONTINUOUS
 62
     7
 10
-61.000000000000021
 20
0.2881009977652695
 30
0.0
 11
-14.00000000000002
 21
0.2881009977652695
 31
0.0
  0
LINE
  5
A2
  8
PATTERN_FILL
  6
CONTINUOUS
 62
     7
 10
-61.000000000000021
 20
1.7881009977652691
 30
0.0
 11
-14.00000000000002
 21
1.7881009977652691
 31
0.0
  0
LINE
  5
A3
  8
PATTERN_FILL
  6
CONTINUOUS
 62
     7
 10
-61.000000000000021
 20
3.2881009977652691
 30
0.0
 11
-14.00000000000002
 21
3.2881009977652691
 31
0.0
  0
LINE
  5
A4
  8
PATTERN_FILL
  6
CONTINUOUS
 62
     7
 10
-61.000000000000021
 20
4.7881009977652687
 30
0.0
 11
-14.00000000000002
 21
4.7881009977652687
 31
0.0
  0
LINE
  5
A5
  8
PATTERN_FILL
  6
CONTINUOUS
 62
     7
 10
-61.000000000000021
 20
6.2881009977652687
 30
0.0
 11
-14.00000000000002
 21
6.2881009977652687
 31
0.0
  0
LINE
  5
A6
  8
PATTERN_FILL
  6
CONTINUOUS
 62
     7
 10
-61.000000000000021
 20
7.7881009977652678
 30
0.0
 11
-14.00000000000002
 21
7.7881009977652678
 31
0.0
  0
LINE
  5
A7
  8
PATTERN_FILL
  6
CONTINUOUS
 62
     7
 10
-61.000000000000021
 20
9.2881009977652678
 30
0.0
 11
-14.00000000000002
 21
9.2881009977652678
 31
0.0
  0
LINE
  5
A8
  8
PATTERN_FILL
  6
CONTINUOUS
 62
     7
 10
-61.000000000000021
 20
10.78810099776527
 30
0.0
 11
-14.00000000000002
 21
10.78810099776527
 31
0.0
  0
LINE
  5
A9
  8
PATTERN_FILL
  6
CONTINUOUS
 62
     7
 10
-61.000000000000021
 20
12.28810099776527
 30
0.0
 11
-14.00000000000002
 21
12.28810099776527
 31
0.0
  0
LINE
  5
AA
  8
PATTERN_FILL
  6
CONTINUOUS
 62
     7
 10
-61.000000000000021
 20
13.78810099776527
 30
0.0
 11
-14.00000000000002
 21
13.78810099776527
 31
0.0
  0
LINE
  5
AB
  8
PATTERN_FILL
  6
CONTINUOUS
 62
     7
 10
-61.000000000000021
 20
15.28810099776527
 30
0.0
 11
-14.00000000000002
 21
15.28810099776527
 31
0.0
  0
LINE
  5
AC
  8
PATTERN_FILL
  6
CONTINUOUS
 62
     7
 10
-61.000000000000021
 20
16.78810099776527
 30
0.0
 11
-14.00000000000002
 21
16.78810099776527
 31
0.0
  0
LINE
  5
AD
  8
PATTERN_FILL
  6
CONTINUOUS
 62
     7
 10
-61.000000000000021
 20
18.28810099776527
 30
0.0
 11
-14.00000000000002
 21
18.28810099776527
 31
0.0
  0
LINE
  5
AE
  8
PATTERN_FILL
  6
CONTINUOUS
 62
     7
 10
-61.000000000000021
 20
19.78810099776527
 30
0.0
 11
-14.00000000000002
 21
19.78810099776527
 31
0.0
  0
LINE
  5
AF
  8
PATTERN_FILL
  6
CONTINUOUS
 62
     7
 10
-61.000000000000021
 20
21.28810099776527
 30
0.0
 11
-14.00000000000002
 21
21.28810099776527
 31
0.0
  0
LINE
  5
B0
  8
PATTERN_FILL
  6
CONTINUOUS
 62
     7
 10
-61.000000000000021
 20
22.78810099776527
 30
0.0
 11
-14.00000000000002
 21
22.78810099776527
 31
0.0
  0
LINE
  5
B1
  8
PATTERN_FILL
  6
CONTINUOUS
 62
     7
 10
-61.000000000000021
 20
24.28810099776527
 30
0.0
 11
-14.00000000000002
 21
24.28810099776527
 31
0.0
  0
LINE
  5
B2
  8
PATTERN_FILL
  6
CONTINUOUS
 62
     7
 10
-61.000000000000021
 20
25.78810099776527
 30
0.0
 11
-14.00000000000002
 21
25.78810099776527
 31
0.0
  0
LINE
  5
B3
  8
PATTERN_FILL
  6
CONTINUOUS
 62
     7
 10
-60.000000000000021
 20
-31.0
 30
0.0
 11
-60.000000000000021
 21
27.0
 31
0.0
  0
LINE
  5
B4
  8
PATTERN_FILL
  6
CONTINUOUS
 62
     7
 10
-58.500000000000021
 20
-31.0
 30
0.0
 11
-58.500000000000021
 21
27.0
 31
0.0
  0
LINE
  5
B5
  8
PATTERN_FILL
  6
CONTINUOUS
 62
     7
 10
-57.000000000000021
 20
-31.0
 30
0.0
 11
-57.000000000000021
 21
27.0
 31
0.0
  0
LINE
  5
B6
  8
PATTERN_FILL
  6
CONTINUOUS
 62
     7
 10
-55.500000000000021
 20
-31.0
 30
0.0
 11
-55.500000000000021
 21
27.0
 31
0.0
  0
LINE
  5
B7
  8
PATTERN_FILL
  6
CONTINUOUS
 62
     7
 10
-54.000000000000021
 20
-31.0
 30
0.0
 11
-54.000000000000021
 21
27.0
 31
0.0
  0
LINE
  5
B8
  8
PATTERN_FILL
  6
CONTINUOUS
 62
     7
 10
-52.500000000000021
 20
-31.0
 30
0.0
 11
-52.500000000000021
 21
27.0
 31
0.0
  0
LINE
  5
B9
  8
PATTERN_FILL
  6
CONTINUOUS
 62
     7
 10
-51.000000000000021
 20
-31.0
 30
0.0
 11
-51.000000000000021
 21
27.0
 31
0.0
  0
LINE
  5
BA
  8
PATTERN_FILL
  6
CONTINUOUS
 62
     7
 10
-49.500000000000021
 20
-31.0
 30
0.0
 11
-49.500000000000021
 21
27.0
 31
0.0
  0
LINE
  5
BB
  8
PATTERN_FILL
  6
CONTINUOUS
 62
     7
 10
-48.000000000000021
 20
-31.0
 30
0.0
 11
-48.000000000000021
 21
27.0
 31
0.0
  0
LINE
  5
BC
  8
PATTERN_FILL
  6
CONTINUOUS
 62
     7
 10
-46.500000000000021
 20
-31.0
 30
0.0
 11
-46.500000000000021
 21
27.0
 31
0.0
  0
LINE
  5
BD
  8
PATTERN_FILL
  6
CONTINUOUS
 62
     7
 10
-45.000000000000021
 20
-31.0
 30
0.0
 11
-45.000000000000021
 21
27.0
 31
0.0
  0
LINE
  5
BE
  8
PATTERN_FILL
  6
CONTINUOUS
 62
     7
 10
-43.500000000000021
 20
-31.0
 30
0.0
 11
-43.500000000000021
 21
27.0
 31
0.0
  0
LINE
  5
BF
  8
PATTERN_FILL
  6
CONTINUOUS
 62
     7
 10
-42.000000000000007
 20
-31.0
 30
0.0
 11
-42.000000000000007
 21
27.0
 31
0.0
  0
LINE
  5
C0
  8
PATTERN_FILL
  6
CONTINUOUS
 62
     7
 10
-40.500000000000007
 20
-31.0
 30
0.0
 11
-40.500000000000007
 21
27.0
 31
0.0
  0
LINE
  5
C1
  8
PATTERN_FILL
  6
CONTINUOUS
 62
     7
 10
-39.000000000000021
 20
-31.0
 30
0.0
 11
-39.000000000000021
 21
27.0
 31
0.0
  0
LINE
  5
C2
  8
PATTERN_FILL
  6
CONTINUOUS
 62
     7
 10
-37.500000000000021
 20
-31.0
 30
0.0
 11
-37.500000000000021
 21
27.0
 31
0.0
  0
LINE
  5
C3
  8
PATTERN_FILL
  6
CONTINUOUS
 62
     7
 10
-36.000000000000021
 20
-31.0
 30
0.0
 11
-36.000000000000021
 21
27.0
 31
0.0
  0
LINE
  5
C4
  8
PATTERN_FILL
  6
CONTINUOUS
 62
     7
 10
-34.500000000000021
 20
-31.0
 30
0.0
 11
-34.500000000000021
 21
27.0
 31
0.0
  0
LINE
  5
C5
  8
PATTERN_FILL
  6
CONTINUOUS
 62
     7
 10
-33.000000000000021
 20
-31.0
 30
0.0
 11
-33.000000000000021
 21
27.0
 31
0.0
  0
LINE
  5
C6
  8
PATTERN_FILL
  6
CONTINUOUS
 62
     7
 10
-31.500000000000021
 20
-31.0
 30
0.0
 11
-31.500000000000021
 21
27.0
 31
0.0
  0
LINE
  5
C7
  8
PATTERN_FILL
  6
CONTINUOUS
 62
     7
 10
-30.000000000000021
 20
-31.0
 30
0.0
 11
-30.000000000000021
 21
27.0
 31
0.0
  0
LINE
  5
C8
  8
PATTERN_FILL
  6
CONTINUOUS
 62
     7
 10
-28.500000000000021
 20
-31.0
 30
0.0
 11
-28.500000000000021
 21
27.0
 31
0.0
  0
LINE
  5
C9
  8
PATTERN_FILL
  6
CONTINUOUS
 62
     7
 10
-27.000000000000021
 20
-31.0
 30
0.0
 11
-27.000000000000021
 21
27.0
 31
0.0
  0
LINE
  5
CA
  8
PATTERN_FILL
  6
CONTINUOUS
 62
     7
 10
-25.500000000000021
 20
-31.0
 30
0.0
 11
-25.500000000000021
 21
27.0
 31
0.0
  0
LINE
  5
CB
  8
PATTERN_FILL
  6
CONTINUOUS
 62
     7
 10
-24.000000000000021
 20
-31.0
 30
0.0
 11
-24.000000000000021
 21
27.0
 31
0.0
  0
LINE
  5
CC
  8
PATTERN_FILL
  6
CONTINUOUS
 62
     7
 10
-22.500000000000021
 20
-31.0
 30
0.0
 11
-22.500000000000021
 21
27.0
 31
0.0
  0
LINE
  5
CD
  8
PATTERN_FILL
  6
CONTINUOUS
 62
     7
 10
-21.000000000000021
 20
-31.0
 30
0.0
 11
-21.000000000000021
 21
27.0
 31
0.0
  0
LINE
  5
CE
  8
PATTERN_FILL
  6
CONTINUOUS
 62
     7
 10
-19.500000000000021
 20
-31.0
 30
0.0
 11
-19.500000000000021
 21
27.0
 31
0.0
  0
LINE
  5
CF
  8
PATTERN_FILL
  6
CONTINUOUS
 62
     7
 10
-18.000000000000021
 20
-31.0
 30
0.0
 11
-18.000000000000021
 21
27.0
 31
0.0
  0
LINE
  5
D0
  8
PATTERN_FILL
  6
CONTINUOUS
 62
     7
 10
-16.500000000000021
 20
-31.0
 30
0.0
 11
-16.500000000000021
 21
27.0
 31
0.0
  0
LINE
  5
D1
  8
PATTERN_FILL
  6
CONTINUOUS
 62
     7
 10
-15.00000000000002
 20
-31.0
 30
0.0
 11
-15.00000000000002
 21
27.0
 31
0.0
  0
LINE
  5
D2
  8
PATTERN_FILL
  6
CONTINUOUS
 62
     7
 10
13.49999999999998
 20
-29.71189900223473
 30
0.0
 11
33.499999999999957
 21
-29.71189900223473
 31
0.0
  0
LINE
  5
D3
  8
PATTERN_FILL
  6
CONTINUOUS
 62
     7
 10
41.499999999999957
 20
-29.71189900223473
 30
0.0
 11
61.499999999999972
 21
-29.71189900223473
 31
0.0
  0
LINE
  5
D4
  8
PATTERN_FILL
  6
CONTINUOUS
 62
     7
 10
13.49999999999998
 20
-28.21189900223473
 30
0.0
 11
33.499999999999957
 21
-28.21189900223473
 31
0.0
  0
LINE
  5
D5
  8
PATTERN_FILL
  6
CONTINUOUS
 62
     7
 10
41.499999999999957
 20
-28.21189900223473
 30
0.0
 11
61.499999999999972
 21
-28.21189900223473
 31
0.0
  0
LINE
  5
D6
  8
PATTERN_FILL
  6
CONTINUOUS
 62
     7
 10
13.49999999999998
 20
-26.71189900223473
 30
0.0
 11
33.499999999999957
 21
-26.71189900223473
 31
0.0
  0
LINE
  5
D7
  8
PATTERN_FILL
  6
CONTINUOUS
 62
     7
 10
41.499999999999957
 20
-26.71189900223473
 30
0.0
 11
61.499999999999972
 21
-26.71189900223473
 31
0.0
  0
LINE
  5
D8
  8
PATTERN_FILL
  6
CONTINUOUS
 62
     7
 10
13.49999999999998
 20
-25.21189900223473
 30
0.0
 11
33.499999999999957
 21
-25.21189900223473
 31
0.0
  0
LINE
  5
D9
  8
PATTERN_FILL
  6
CONTINUOUS
 62
     7
 10
41.499999999999957
 20
-25.21189900223473
 30
0.0
 11
61.499999999999972
 21
-25.21189900223473
 31
0.0
  0
LINE
  5
DA
  8
PATTERN_FILL
  6
CONTINUOUS
 62
     7
 10
13.49999999999998
 20
-23.71189900223473
 30
0.0
 11
33.499999999999957
 21
-23.71189900223473
 31
0.0
  0
LINE
  5
DB
  8
PATTERN_FILL
  6
CONTINUOUS
 62
     7
 10
41.499999999999957
 20
-23.71189900223473
 30
0.0
 11
61.499999999999972
 21
-23.71189900223473
 31
0.0
  0
LINE
  5
DC
  8
PATTERN_FILL
  6
CONTINUOUS
 62
     7
 10
13.49999999999998
 20
-22.21189900223473
 30
0.0
 11
33.499999999999957
 21
-22.21189900223473
 31
0.0
  0
LINE
  5
DD
  8
PATTERN_FILL
  6
CONTINUOUS
 62
     7
 10
41.499999999999957
 20
-22.21189900223473
 30
0.0
 11
61.499999999999972
 21
-22.21189900223473
 31
0.0
  0
LINE
  5
DE
  8
PATTERN_FILL
  6
CONTINUOUS
 62
     7
 10
13.49999999999998
 20
-20.71189900223473
 30
0.0
 11
33.499999999999957
 21
-20.71189900223473
 31
0.0
  0
LINE
  5
DF
  8
PATTERN_FILL
  6
CONTINUOUS
 62
     7
 10
41.499999999999957
 20
-20.71189900223473
 30
0.0
 11
61.499999999999972
 21
-20.71189900223473
 31
0.0
  0
LINE
  5
E0
  8
PATTERN_FILL
  6
CONTINUOUS
 62
     7
 10
13.49999999999998
 20
-19.21189900223473
 30
0.0
 11
33.499999999999957
 21
-19.21189900223473
 31
0.0
  0
LINE
  5
E1
  8
PATTERN_FILL
  6
CONTINUOUS
 62
     7
 10
41.499999999999957
 20
-19.21189900223473
 30
0.0
 11
61.499999999999972
 21
-19.21189900223473
 31
0.0
  0
LINE
  5
E2
  8
PATTERN_FILL
  6
CONTINUOUS
 62
     7
 10
13.49999999999998
 20
-17.71189900223473
 30
0.0
 11
33.499999999999957
 21
-17.71189900223473
 31
0.0
  0
LINE
  5
E3
  8
PATTERN_FILL
  6
CONTINUOUS
 62
     7
 10
41.499999999999957
 20
-17.71189900223473
 30
0.0
 11
61.499999999999972
 21
-17.71189900223473
 31
0.0
  0
LINE
  5
E4
  8
PATTERN_FILL
  6
CONTINUOUS
 62
     7
 10
13.49999999999998
 20
-16.21189900223473
 30
0.0
 11
33.499999999999957
 21
-16.21189900223473
 31
0.0
  0
LINE
  5
E5
  8
PATTERN_FILL
  6
CONTINUOUS
 62
     7
 10
41.499999999999957
 20
-16.21189900223473
 30
0.0
 11
61.499999999999972
 21
-16.21189900223473
 31
0.0
  0
LINE
  5
E6
  8
PATTERN_FILL
  6
CONTINUOUS
 62
     7
 10
13.49999999999998
 20
-14.71189900223473
 30
0.0
 11
33.499999999999957
 21
-14.71189900223473
 31
0.0
  0
LINE
  5
E7
  8
PATTERN_FILL
  6
CONTINUOUS
 62
     7
 10
41.499999999999957
 20
-14.71189900223473
 30
0.0
 11
61.499999999999972
 21
-14.71189900223473
 31
0.0
  0
LINE
  5
E8
  8
PATTERN_FILL
  6
CONTINUOUS
 62
     7
 10
13.49999999999998
 20
-13.21189900223473
 30
0.0
 11
33.499999999999957
 21
-13.21189900223473
 31
0.0
  0
LINE
  5
E9
  8
PATTERN_FILL
  6
CONTINUOUS
 62
     7
 10
41.499999999999957
 20
-13.21189900223473
 30
0.0
 11
61.499999999999972
 21
-13.21189900223473
 31
0.0
  0
LINE
  5
EA
  8
PATTERN_FILL
  6
CONTINUOUS
 62
     7
 10
13.49999999999998
 20
-11.71189900223473
 30
0.0
 11
33.499999999999957
 21
-11.71189900223473
 31
0.0
  0
LINE
  5
EB
  8
PATTERN_FILL
  6
CONTINUOUS
 62
     7
 10
41.499999999999957
 20
-11.71189900223473
 30
0.0
 11
61.499999999999972
 21
-11.71189900223473
 31
0.0
  0
LINE
  5
EC
  8
PATTERN_FILL
  6
CONTINUOUS
 62
     7
 10
13.49999999999998
 20
-10.21189900223473
 30
0.0
 11
33.499999999999957
 21
-10.21189900223473
 31
0.0
  0
LINE
  5
ED
  8
PATTERN_FILL
  6
CONTINUOUS
 62
     7
 10
41.499999999999957
 20
-10.21189900223473
 30
0.0
 11
61.499999999999972
 21
-10.21189900223473
 31
0.0
  0
LINE
  5
EE
  8
PATTERN_FILL
  6
CONTINUOUS
 62
     7
 10
13.49999999999998
 20
-8.7118990022347305
 30
0.0
 11
33.499999999999957
 21
-8.7118990022347305
 31
0.0
  0
LINE
  5
EF
  8
PATTERN_FILL
  6
CONTINUOUS
 62
     7
 10
41.499999999999957
 20
-8.7118990022347305
 30
0.0
 11
61.499999999999972
 21
-8.7118990022347305
 31
0.0
  0
LINE
  5
F0
  8
PATTERN_FILL
  6
CONTINUOUS
 62
     7
 10
13.49999999999998
 20
-7.2118990022347287
 30
0.0
 11
33.499999999999957
 21
-7.2118990022347287
 31
0.0
  0
LINE
  5
F1
  8
PATTERN_FILL
  6
CONTINUOUS
 62
     7
 10
41.499999999999957
 20
-7.2118990022347287
 30
0.0
 11
61.499999999999972
 21
-7.2118990022347287
 31
0.0
  0
LINE
  5
F2
  8
PATTERN_FILL
  6
CONTINUOUS
 62
     7
 10
13.49999999999998
 20
-5.7118990022347296
 30
0.0
 11
33.499999999999957
 21
-5.7118990022347296
 31
0.0
  0
LINE
  5
F3
  8
PATTERN_FILL
  6
CONTINUOUS
 62
     7
 10
41.499999999999957
 20
-5.7118990022347296
 30
0.0
 11
61.499999999999972
 21
-5.7118990022347296
 31
0.0
  0
LINE
  5
F4
  8
PATTERN_FILL
  6
CONTINUOUS
 62
     7
 10
13.49999999999998
 20
-4.2118990022347296
 30
0.0
 11
33.499999999999957
 21
-4.2118990022347296
 31
0.0
  0
LINE
  5
F5
  8
PATTERN_FILL
  6
CONTINUOUS
 62
     7
 10
41.499999999999957
 20
-4.2118990022347296
 30
0.0
 11
61.499999999999972
 21
-4.2118990022347296
 31
0.0
  0
LINE
  5
F6
  8
PATTERN_FILL
  6
CONTINUOUS
 62
     7
 10
13.49999999999998
 20
-2.71189900223473
 30
0.0
 11
33.499999999999957
 21
-2.71189900223473
 31
0.0
  0
LINE
  5
F7
  8
PATTERN_FILL
  6
CONTINUOUS
 62
     7
 10
41.499999999999957
 20
-2.71189900223473
 30
0.0
 11
61.499999999999972
 21
-2.71189900223473
 31
0.0
  0
LINE
  5
F8
  8
PATTERN_FILL
  6
CONTINUOUS
 62
     7
 10
13.49999999999998
 20
-1.21189900223473
 30
0.0
 11
33.499999999999957
 21
-1.21189900223473
 31
0.0
  0
LINE
  5
F9
  8
PATTERN_FILL
  6
CONTINUOUS
 62
     7
 10
41.499999999999957
 20
-1.21189900223473
 30
0.0
 11
61.499999999999972
 21
-1.21189900223473
 31
0.0
  0
LINE
  5
FA
  8
PATTERN_FILL
  6
CONTINUOUS
 62
     7
 10
13.49999999999998
 20
0.2881009977652695
 30
0.0
 11
33.499999999999957
 21
0.2881009977652695
 31
0.0
  0
LINE
  5
FB
  8
PATTERN_FILL
  6
CONTINUOUS
 62
     7
 10
41.499999999999957
 20
0.2881009977652695
 30
0.0
 11
61.499999999999972
 21
0.2881009977652695
 31
0.0
  0
LINE
  5
FC
  8
PATTERN_FILL
  6
CONTINUOUS
 62
     7
 10
13.49999999999998
 20
1.7881009977652691
 30
0.0
 11
33.499999999999957
 21
1.7881009977652691
 31
0.0
  0
LINE
  5
FD
  8
PATTERN_FILL
  6
CONTINUOUS
 62
     7
 10
41.499999999999957
 20
1.7881009977652691
 30
0.0
 11
61.499999999999972
 21
1.7881009977652691
 31
0.0
  0
LINE
  5
FE
  8
PATTERN_FILL
  6
CONTINUOUS
 62
     7
 10
13.49999999999998
 20
3.2881009977652691
 30
0.0
 11
33.499999999999957
 21
3.2881009977652691
 31
0.0
  0
LINE
  5
FF
  8
PATTERN_FILL
  6
CONTINUOUS
 62
     7
 10
41.499999999999957
 20
3.2881009977652691
 30
0.0
 11
61.499999999999972
 21
3.2881009977652691
 31
0.0
  0
LINE
  5
100
  8
PATTERN_FILL
  6
CONTINUOUS
 62
     7
 10
13.49999999999998
 20
4.7881009977652687
 30
0.0
 11
33.499999999999957
 21
4.7881009977652687
 31
0.0
  0
LINE
  5
101
  8
PATTERN_FILL
  6
CONTINUOUS
 62
     7
 10
41.499999999999957
 20
4.7881009977652687
 30
0.0
 11
61.499999999999972
 21
4.7881009977652687
 31
0.0
  0
LINE
  5
102
  8
PATTERN_FILL
  6
CONTINUOUS
 62
     7
 10
13.49999999999998
 20
6.2881009977652687
 30
0.0
 11
33.499999999999957
 21
6.2881009977652687
 31
0.0
  0
LINE
  5
103
  8
PATTERN_FILL
  6
CONTINUOUS
 62
     7
 10
41.499999999999957
 20
6.2881009977652687
 30
0.0
 11
61.499999999999972
 21
6.2881009977652687
 31
0.0
  0
LINE
  5
104
  8
PATTERN_FILL
  6
CONTINUOUS
 62
     7
 10
13.49999999999998
 20
7.7881009977652678
 30
0.0
 11
33.499999999999957
 21
7.7881009977652678
 31
0.0
  0
LINE
  5
105
  8
PATTERN_FILL
  6
CONTINUOUS
 62
     7
 10
41.499999999999957
 20
7.7881009977652678
 30
0.0
 11
61.499999999999972
 21
7.7881009977652678
 31
0.0
  0
LINE
  5
106
  8
PATTERN_FILL
  6
CONTINUOUS
 62
     7
 10
13.49999999999998
 20
9.2881009977652678
 30
0.0
 11
33.499999999999957
 21
9.2881009977652678
 31
0.0
  0
LINE
  5
107
  8
PATTERN_FILL
  6
CONTINUOUS
 62
     7
 10
41.499999999999957
 20
9.2881009977652678
 30
0.0
 11
61.499999999999972
 21
9.2881009977652678
 31
0.0
  0
LINE
  5
108
  8
PATTERN_FILL
  6
CONTINUOUS
 62
     7
 10
13.49999999999998
 20
10.78810099776527
 30
0.0
 11
33.499999999999957
 21
10.78810099776527
 31
0.0
  0
LINE
  5
109
  8
PATTERN_FILL
  6
CONTINUOUS
 62
     7
 10
41.499999999999957
 20
10.78810099776527
 30
0.0
 11
61.499999999999972
 21
10.78810099776527
 31
0.0
  0
LINE
  5
10A
  8
PATTERN_FILL
  6
CONTINUOUS
 62
     7
 10
13.49999999999998
 20
12.28810099776527
 30
0.0
 11
33.499999999999957
 21
12.28810099776527
 31
0.0
  0
LINE
  5
10B
  8
PATTERN_FILL
  6
CONTINUOUS
 62
     7
 10
41.499999999999957
 20
12.28810099776527
 30
0.0
 11
61.499999999999972
 21
12.28810099776527
 31
0.0
  0
LINE
  5
10C
  8
PATTERN_FILL
  6
CONTINUOUS
 62
     7
 10
13.49999999999998
 20
13.78810099776527
 30
0.0
 11
33.499999999999957
 21
13.78810099776527
 31
0.0
  0
LINE
  5
10D
  8
PATTERN_FILL
  6
CONTINUOUS
 62
     7
 10
41.499999999999957
 20
13.78810099776527
 30
0.0
 11
61.499999999999972
 21
13.78810099776527
 31
0.0
  0
LINE
  5
10E
  8
PATTERN_FILL
  6
CONTINUOUS
 62
     7
 10
13.49999999999998
 20
15.28810099776527
 30
0.0
 11
33.499999999999957
 21
15.28810099776527
 31
0.0
  0
LINE
  5
10F
  8
PATTERN_FILL
  6
CONTINUOUS
 62
     7
 10
41.499999999999957
 20
15.28810099776527
 30
0.0
 11
61.499999999999972
 21
15.28810099776527
 31
0.0
  0
LINE
  5
110
  8
PATTERN_FILL
  6
CONTINUOUS
 62
     7
 10
13.49999999999998
 20
16.78810099776527
 30
0.0
 11
33.499999999999957
 21
16.78810099776527
 31
0.0
  0
LINE
  5
111
  8
PATTERN_FILL
  6
CONTINUOUS
 62
     7
 10
41.499999999999957
 20
16.78810099776527
 30
0.0
 11
61.499999999999972
 21
16.78810099776527
 31
0.0
  0
LINE
  5
112
  8
PATTERN_FILL
  6
CONTINUOUS
 62
     7
 10
13.49999999999998
 20
18.28810099776527
 30
0.0
 11
33.499999999999957
 21
18.28810099776527
 31
0.0
  0
LINE
  5
113
  8
PATTERN_FILL
  6
CONTINUOUS
 62
     7
 10
41.499999999999957
 20
18.28810099776527
 30
0.0
 11
61.499999999999972
 21
18.28810099776527
 31
0.0
  0
LINE
  5
114
  8
PATTERN_FILL
  6
CONTINUOUS
 62
     7
 10
13.49999999999998
 20
19.78810099776527
 30
0.0
 11
33.499999999999957
 21
19.78810099776527
 31
0.0
  0
LINE
  5
115
  8
PATTERN_FILL
  6
CONTINUOUS
 62
     7
 10
41.499999999999957
 20
19.78810099776527
 30
0.0
 11
61.499999999999972
 21
19.78810099776527
 31
0.0
  0
LINE
  5
116
  8
PATTERN_FILL
  6
CONTINUOUS
 62
     7
 10
13.49999999999998
 20
21.28810099776527
 30
0.0
 11
33.499999999999957
 21
21.28810099776527
 31
0.0
  0
LINE
  5
117
  8
PATTERN_FILL
  6
CONTINUOUS
 62
     7
 10
41.499999999999957
 20
21.28810099776527
 30
0.0
 11
61.499999999999972
 21
21.28810099776527
 31
0.0
  0
LINE
  5
118
  8
PATTERN_FILL
  6
CONTINUOUS
 62
     7
 10
13.49999999999998
 20
22.78810099776527
 30
0.0
 11
33.499999999999957
 21
22.78810099776527
 31
0.0
  0
LINE
  5
119
  8
PATTERN_FILL
  6
CONTINUOUS
 62
     7
 10
41.499999999999957
 20
22.78810099776527
 30
0.0
 11
61.499999999999972
 21
22.78810099776527
 31
0.0
  0
LINE
  5
11A
  8
PATTERN_FILL
  6
CONTINUOUS
 62
     7
 10
13.49999999999998
 20
24.28810099776527
 30
0.0
 11
33.499999999999957
 21
24.28810099776527
 31
0.0
  0
LINE
  5
11B
  8
PATTERN_FILL
  6
CONTINUOUS
 62
     7
 10
41.499999999999957
 20
24.28810099776527
 30
0.0
 11
61.499999999999972
 21
24.28810099776527
 31
0.0
  0
LINE
  5
11C
  8
PATTERN_FILL
  6
CONTINUOUS
 62
     7
 10
13.49999999999998
 20
25.78810099776527
 30
0.0
 11
33.499999999999957
 21
25.78810099776527
 31
0.0
  0
LINE
  5
11D
  8
PATTERN_FILL
  6
CONTINUOUS
 62
     7
 10
41.499999999999957
 20
25.78810099776527
 30
0.0
 11
61.499999999999972
 21
25.78810099776527
 31
0.0
  0
LINE
  5
11E
  8
PATTERN_FILL
  6
CONTINUOUS
 62
     7
 10
14.99999999999997
 20
-31.0
 30
0.0
 11
14.99999999999997
 21
27.0
 31
0.0
  0
LINE
  5
11F
  8
PATTERN_FILL
  6
CONTINUOUS
 62
     7
 10
16.499999999999972
 20
-31.0
 30
0.0
 11
16.499999999999972
 21
27.0
 31
0.0
  0
LINE
  5
120
  8
PATTERN_FILL
  6
CONTINUOUS
 62
     7
 10
17.999999999999972
 20
-31.0
 30
0.0
 11
17.999999999999972
 21
27.0
 31
0.0
  0
LINE
  5
121
  8
PATTERN_FILL
  6
CONTINUOUS
 62
     7
 10
19.499999999999972
 20
-31.0
 30
0.0
 11
19.499999999999972
 21
27.0
 31
0.0
  0
LINE
  5
122
  8
PATTERN_FILL
  6
CONTINUOUS
 62
     7
 10
20.999999999999972
 20
-31.0
 30
0.0
 11
20.999999999999972
 21
27.0
 31
0.0
  0
LINE
  5
123
  8
PATTERN_FILL
  6
CONTINUOUS
 62
     7
 10
22.499999999999972
 20
-31.0
 30
0.0
 11
22.499999999999972
 21
27.0
 31
0.0
  0
LINE
  5
124
  8
PATTERN_FILL
  6
CONTINUOUS
 62
     7
 10
23.999999999999972
 20
-31.0
 30
0.0
 11
23.999999999999972
 21
27.0
 31
0.0
  0
LINE
  5
125
  8
PATTERN_FILL
  6
CONTINUOUS
 62
     7
 10
25.499999999999972
 20
-31.0
 30
0.0
 11
25.499999999999972
 21
27.0
 31
0.0
  0
LINE
  5
126
  8
PATTERN_FILL
  6
CONTINUOUS
 62
     7
 10
26.999999999999972
 20
-31.0
 30
0.0
 11
26.999999999999972
 21
27.0
 31
0.0
  0
LINE
  5
127
  8
PATTERN_FILL
  6
CONTINUOUS
 62
     7
 10
28.499999999999972
 20
-31.0
 30
0.0
 11
28.499999999999972
 21
27.0
 31
0.0
  0
LINE
  5
128
  8
PATTERN_FILL
  6
CONTINUOUS
 62
     7
 10
29.999999999999972
 20
-31.0
 30
0.0
 11
29.999999999999972
 21
27.0
 31
0.0
  0
LINE
  5
129
  8
PATTERN_FILL
  6
CONTINUOUS
 62
     7
 10
31.499999999999972
 20
-31.0
 30
0.0
 11
31.499999999999972
 21
27.0
 31
0.0
  0
LINE
  5
12A
  8
PATTERN_FILL
  6
CONTINUOUS
 62
     7
 10
32.999999999999972
 20
-31.0
 30
0.0
 11
32.999999999999972
 21
26.866025403784452
 31
0.0
  0
LINE
  5
12B
  8
PATTERN_FILL
  6
CONTINUOUS
 62
     7
 10
41.999999999999957
 20
-31.0
 30
0.0
 11
41.999999999999957
 21
26.866025403784452
 31
0.0
  0
LINE
  5
12C
  8
PATTERN_FILL
  6
CONTINUOUS
 62
     7
 10
43.499999999999957
 20
-31.0
 30
0.0
 11
43.499999999999957
 21
27.0
 31
0.0
  0
LINE
  5
12D
  8
PATTERN_FILL
  6
CONTINUOUS
 62
     7
 10
44.999999999999972
 20
-31.0
 30
0.0
 11
44.999999999999972
 21
27.0
 31
0.0
  0
LINE
  5
12E
  8
PATTERN_FILL
  6
CONTINUOUS
 62
     7
 10
46.499999999999972
 20
-31.0
 30
0.0
 11
46.499999999999972
 21
27.0
 31
0.0
  0
LINE
  5
12F
  8
PATTERN_FILL
  6
CONTINUOUS
 62
     7
 10
47.999999999999972
 20
-31.0
 30
0.0
 11
47.999999999999972
 21
27.0
 31
0.0
  0
LINE
  5
130
  8
PATTERN_FILL
  6
CONTINUOUS
 62
     7
 10
49.499999999999972
 20
-31.0
 30
0.0
 11
49.499999999999972
 21
27.0
 31
0.0
  0
LINE
  5
131
  8
PATTERN_FILL
  6
CONTINUOUS
 62
     7
 10
50.999999999999972
 20
-31.0
 30
0.0
 11
50.999999999999972
 21
27.0
 31
0.0
  0
LINE
  5
132
  8
PATTERN_FILL
  6
CONTINUOUS
 62
     7
 10
52.499999999999972
 20
-31.0
 30
0.0
 11
52.499999999999972
 21
27.0
 31
0.0
  0
LINE
  5
133
  8
PATTERN_FILL
  6
CONTINUOUS
 62
     7
 10
53.999999999999972
 20
-31.0
 30
0.0
 11
53.999999999999972
 21
27.0
 31
0.0
  0
LINE
  5
134
  8
PATTERN_FILL
  6
CONTINUOUS
 62
     7
 10
55.499999999999972
 20
-31.0
 30
0.0
 11
55.499999999999972
 21
27.0
 31
0.0
  0
LINE
  5
135
  8
PATTERN_FILL
  6
CONTINUOUS
 62
     7
 10
56.999999999999972
 20
-31.0
 30
0.0
 11
56.999999999999972
 21
27.0
 31
0.0
  0
LINE
  5
136
  8
PATTERN_FILL
  6
CONTINUOUS
 62
     7
 10
58.499999999999972
 20
-31.0
 30
0.0
 11
58.499999999999972
 21
27.0
 31
0.0
  0
LINE
  5
137
  8
PATTERN_FILL
  6
CONTINUOUS
 62
     7
 10
59.999999999999972
 20
-31.0
 30
0.0
 11
59.999999999999972
 21
27.0
 31
0.0
  0
LINE
  5
138
  8
PATTERN_FILL
  6
CONTINUOUS
 62
     7
 10
-61.708964374846069
 20
33.0
 30
0.0
 11
-61.708964374846069
 21
33.792026779356192
 31
0.0
  0
LINE
  5
139
  8
PATTERN_FILL
  6
CONTINUOUS
 62
     7
 10
-60.208964374846083
 20
33.0
 30
0.0
 11
-60.208964374846083
 21
35.115645951679518
 31
0.0
  0
LINE
  5
13A
  8
PATTERN_FILL
  6
CONTINUOUS
 62
     7
 10
-58.708964374846069
 20
33.0
 30
0.0
 11
-58.708964374846069
 21
36.243465015046368
 31
0.0
  0
LINE
  5
13B
  8
PATTERN_FILL
  6
CONTINUOUS
 62
     7
 10
-57.208964374846083
 20
33.0
 30
0.0
 11
-57.208964374846083
 21
37.206602848703398
 31
0.0
  0
LINE
  5
13C
  8
PATTERN_FILL
  6
CONTINUOUS
 62
     7
 10
-55.708964374846069
 20
33.0
 30
0.0
 11
-55.708964374846069
 21
38.026577175038092
 31
0.0
  0
LINE
  5
13D
  8
PATTERN_FILL
  6
CONTINUOUS
 62
     7
 10
-54.208964374846069
 20
33.0
 30
0.0
 11
-54.208964374846069
 21
38.718828146500456
 31
0.0
  0
LINE
  5
13E
  8
PATTERN_FILL
  6
CONTINUOUS
 62
     7
 10
-52.708964374846083
 20
33.0
 30
0.0
 11
-52.708964374846083
 21
39.294697668812361
 31
0.0
  0
LINE
  5
13F
  8
PATTERN_FILL
  6
CONTINUOUS
 62
     7
 10
-51.208964374846069
 20
33.0
 30
0.0
 11
-51.208964374846069
 21
39.762613847950867
 31
0.0
  0
LINE
  5
140
  8
PATTERN_FILL
  6
CONTINUOUS
 62
     7
 10
-49.708964374846083
 20
33.0
 30
0.0
 11
-49.708964374846083
 21
40.128832594685313
 31
0.0
  0
LINE
  5
141
  8
PATTERN_FILL
  6
CONTINUOUS
 62
     7
 10
-48.208964374846069
 20
33.0
 30
0.0
 11
-48.208964374846069
 21
40.397915582644814
 31
0.0
  0
LINE
  5
142
  8
PATTERN_FILL
  6
CONTINUOUS
 62
     7
 10
-46.708964374846069
 20
33.0
 30
0.0
 11
-46.708964374846069
 21
40.541462354779433
 31
0.0
  0
LINE
  5
143
  8
PATTERN_FILL
  6
CONTINUOUS
 62
     7
 10
-45.208964374846083
 20
33.0
 30
0.0
 11
-45.208964374846083
 21
40.616151151459917
 31
0.0
  0
LINE
  5
144
  8
PATTERN_FILL
  6
CONTINUOUS
 62
     7
 10
-43.708964374846069
 20
33.0
 30
0.0
 11
-43.708964374846069
 21
40.690839948140429
 31
0.0
  0
LINE
  5
145
  8
PATTERN_FILL
  6
CONTINUOUS
 62
     7
 10
-42.208964374846069
 20
33.0
 30
0.0
 11
-42.208964374846069
 21
40.765528744820919
 31
0.0
  0
LINE
  5
146
  8
PATTERN_FILL
  6
CONTINUOUS
 62
     7
 10
-40.708964374846069
 20
33.0
 30
0.0
 11
-40.708964374846069
 21
40.840217541501431
 31
0.0
  0
LINE
  5
147
  8
PATTERN_FILL
  6
CONTINUOUS
 62
     7
 10
-39.208964374846069
 20
33.0
 30
0.0
 11
-39.208964374846069
 21
40.914906338181929
 31
0.0
  0
LINE
  5
148
  8
PATTERN_FILL
  6
CONTINUOUS
 62
     7
 10
-37.708964374846083
 20
33.0
 30
0.0
 11
-37.708964374846083
 21
40.989595134862419
 31
0.0
  0
LINE
  5
149
  8
PATTERN_FILL
  6
CONTINUOUS
 62
     7
 10
-36.208964374846083
 20
33.0
 30
0.0
 11
-36.208964374846083
 21
40.935716068457047
 31
0.0
  0
LINE
  5
14A
  8
PATTERN_FILL
  6
CONTINUOUS
 62
     7
 10
-34.708964374846083
 20
33.0
 30
0.0
 11
-34.708964374846083
 21
40.861027271776557
 31
0.0
  0
LINE
  5
14B
  8
PATTERN_FILL
  6
CONTINUOUS
 62
     7
 10
-33.208964374846083
 20
33.0
 30
0.0
 11
-33.208964374846083
 21
40.786338475096052
 31
0.0
  0
LINE
  5
14C
  8
PATTERN_FILL
  6
CONTINUOUS
 62
     7
 10
-31.70896437484609
 20
33.0
 30
0.0
 11
-31.70896437484609
 21
40.71164967841554
 31
0.0
  0
LINE
  5
14D
  8
PATTERN_FILL
  6
CONTINUOUS
 62
     7
 10
-30.20896437484609
 20
33.0
 30
0.0
 11
-30.20896437484609
 21
40.63696088173505
 31
0.0
  0
LINE
  5
14E
  8
PATTERN_FILL
  6
CONTINUOUS
 62
     7
 10
-28.70896437484609
 20
33.0
 30
0.0
 11
-28.70896437484609
 21
40.562272085054573
 31
0.0
  0
LINE
  5
14F
  8
PATTERN_FILL
  6
CONTINUOUS
 62
     7
 10
-27.20896437484609
 20
33.0
 30
0.0
 11
-27.20896437484609
 21
40.456045250158461
 31
0.0
  0
LINE
  5
150
  8
PATTERN_FILL
  6
CONTINUOUS
 62
     7
 10
-25.70896437484609
 20
33.0
 30
0.0
 11
-25.70896437484609
 21
40.21340634628605
 31
0.0
  0
LINE
  5
151
  8
PATTERN_FILL
  6
CONTINUOUS
 62
     7
 10
-24.20896437484609
 20
33.0
 30
0.0
 11
-24.20896437484609
 21
39.874646033705112
 31
0.0
  0
LINE
  5
152
  8
PATTERN_FILL
  6
CONTINUOUS
 62
     7
 10
-22.70896437484609
 20
33.0
 30
0.0
 11
-22.70896437484609
 21
39.435613693592607
 31
0.0
  0
LINE
  5
153
  8
PATTERN_FILL
  6
CONTINUOUS
 62
     7
 10
-21.20896437484609
 20
33.0
 30
0.0
 11
-21.20896437484609
 21
38.89056502156614
 31
0.0
  0
LINE
  5
154
  8
PATTERN_FILL
  6
CONTINUOUS
 62
     7
 10
-19.70896437484609
 20
33.0
 30
0.0
 11
-19.70896437484609
 21
38.231737968475812
 31
0.0
  0
LINE
  5
155
  8
PATTERN_FILL
  6
CONTINUOUS
 62
     7
 10
-18.20896437484609
 20
33.0
 30
0.0
 11
-18.20896437484609
 21
37.448698002719908
 31
0.0
  0
LINE
  5
156
  8
PATTERN_FILL
  6
CONTINUOUS
 62
     7
 10
-16.708964374846079
 20
33.0
 30
0.0
 11
-16.708964374846079
 21
36.527302519116752
 31
0.0
  0
LINE
  5
157
  8
PATTERN_FILL
  6
CONTINUOUS
 62
     7
 10
-15.20896437484609
 20
33.0
 30
0.0
 11
-15.20896437484609
 21
35.447994803814566
 31
0.0
  0
LINE
  5
158
  8
PATTERN_FILL
  6
CONTINUOUS
 62
     7
 10
-13.708964374846079
 20
33.0
 30
0.0
 11
-13.708964374846079
 21
34.182826120885103
 31
0.0
  0
LINE
  5
159
  8
PATTERN_FILL
  6
CONTINUOUS
 62
     7
 10
-61.082378518805463
 20
34.371305290268957
 30
0.0
 11
-13.91762148119458
 21
34.371305290268957
 31
0.0
  0
LINE
  5
15A
  8
PATTERN_FILL
  6
CONTINUOUS
 62
     7
 10
-59.230552653376598
 20
35.871305290268957
 30
0.0
 11
-15.769447346623419
 21
35.871305290268957
 31
0.0
  0
LINE
  5
15B
  8
PATTERN_FILL
  6
CONTINUOUS
 62
     7
 10
-56.926694815335757
 20
37.371305290268957
 30
0.0
 11
-18.073305184664282
 21
37.371305290268957
 31
0.0
  0
LINE
  5
15C
  8
PATTERN_FILL
  6
CONTINUOUS
 62
     7
 10
-53.839003832317857
 20
38.871305290268957
 30
0.0
 11
-21.16099616768215
 21
38.871305290268957
 31
0.0
  0
LINE
  5
15D
  8
PATTERN_FILL
  6
CONTINUOUS
 62
     7
 10
-48.38466296259854
 20
40.37130529026895
 30
0.0
 11
-26.615337037401499
 21
40.37130529026895
 31
0.0
  0
LINE
  5
15E
  8
PATTERN_FILL
  6
CONTINUOUS
 62
     7
 10
13.29103562515391
 20
33.0
 30
0.0
 11
13.29103562515391
 21
33.792026779356192
 31
0.0
  0
LINE
  5
15F
  8
PATTERN_FILL
  6
CONTINUOUS
 62
     7
 10
14.79103562515391
 20
33.0
 30
0.0
 11
14.79103562515391
 21
35.115645951679518
 31
0.0
  0
LINE
  5
160
  8
PATTERN_FILL
  6
CONTINUOUS
 62
     7
 10
16.29103562515391
 20
33.0
 30
0.0
 11
16.29103562515391
 21
36.243465015046368
 31
0.0
  0
LINE
  5
161
  8
PATTERN_FILL
  6
CONTINUOUS
 62
     7
 10
17.79103562515391
 20
33.0
 30
0.0
 11
17.79103562515391
 21
37.206602848703398
 31
0.0
  0
LINE
  5
162
  8
PATTERN_FILL
  6
CONTINUOUS
 62
     7
 10
19.29103562515391
 20
33.0
 30
0.0
 11
19.29103562515391
 21
38.026577175038092
 31
0.0
  0
LINE
  5
163
  8
PATTERN_FILL
  6
CONTINUOUS
 62
     7
 10
20.79103562515391
 20
33.0
 30
0.0
 11
20.79103562515391
 21
38.718828146500456
 31
0.0
  0
LINE
  5
164
  8
PATTERN_FILL
  6
CONTINUOUS
 62
     7
 10
22.29103562515391
 20
33.0
 30
0.0
 11
22.29103562515391
 21
39.294697668812361
 31
0.0
  0
LINE
  5
165
  8
PATTERN_FILL
  6
CONTINUOUS
 62
     7
 10
23.79103562515391
 20
33.0
 30
0.0
 11
23.79103562515391
 21
39.762613847950867
 31
0.0
  0
LINE
  5
166
  8
PATTERN_FILL
  6
CONTINUOUS
 62
     7
 10
25.29103562515391
 20
33.0
 30
0.0
 11
25.29103562515391
 21
40.128832594685313
 31
0.0
  0
LINE
  5
167
  8
PATTERN_FILL
  6
CONTINUOUS
 62
     7
 10
26.79103562515391
 20
33.0
 30
0.0
 11
26.79103562515391
 21
40.397915582644814
 31
0.0
  0
LINE
  5
168
  8
PATTERN_FILL
  6
CONTINUOUS
 62
     7
 10
28.29103562515391
 20
33.0
 30
0.0
 11
28.29103562515391
 21
40.541462354779433
 31
0.0
  0
LINE
  5
169
  8
PATTERN_FILL
  6
CONTINUOUS
 62
     7
 10
29.79103562515391
 20
33.0
 30
0.0
 11
29.79103562515391
 21
40.616151151459917
 31
0.0
  0
LINE
  5
16A
  8
PATTERN_FILL
  6
CONTINUOUS
 62
     7
 10
31.29103562515391
 20
33.0
 30
0.0
 11
31.29103562515391
 21
40.690839948140429
 31
0.0
  0
LINE
  5
16B
  8
PATTERN_FILL
  6
CONTINUOUS
 62
     7
 10
32.79103562515391
 20
33.0
 30
0.0
 11
32.79103562515391
 21
40.765528744820919
 31
0.0
  0
LINE
  5
16C
  8
PATTERN_FILL
  6
CONTINUOUS
 62
     7
 10
34.29103562515391
 20
33.0
 30
0.0
 11
34.29103562515391
 21
40.840217541501431
 31
0.0
  0
LINE
  5
16D
  8
PATTERN_FILL
  6
CONTINUOUS
 62
     7
 10
35.79103562515391
 20
33.0
 30
0.0
 11
35.79103562515391
 21
40.914906338181929
 31
0.0
  0
LINE
  5
16E
  8
PATTERN_FILL
  6
CONTINUOUS
 62
     7
 10
37.291035625153903
 20
33.0
 30
0.0
 11
37.291035625153903
 21
40.989595134862419
 31
0.0
  0
LINE
  5
16F
  8
PATTERN_FILL
  6
CONTINUOUS
 62
     7
 10
38.791035625153903
 20
33.0
 30
0.0
 11
38.791035625153903
 21
40.935716068457047
 31
0.0
  0
LINE
  5
170
  8
PATTERN_FILL
  6
CONTINUOUS
 62
     7
 10
40.291035625153903
 20
33.0
 30
0.0
 11
40.291035625153903
 21
40.861027271776557
 31
0.0
  0
LINE
  5
171
  8
PATTERN_FILL
  6
CONTINUOUS
 62
     7
 10
41.791035625153903
 20
33.0
 30
0.0
 11
41.791035625153903
 21
40.786338475096052
 31
0.0
  0
LINE
  5
172
  8
PATTERN_FILL
  6
CONTINUOUS
 62
     7
 10
43.291035625153903
 20
33.0
 30
0.0
 11
43.291035625153903
 21
40.71164967841554
 31
0.0
  0
LINE
  5
173
  8
PATTERN_FILL
  6
CONTINUOUS
 62
     7
 10
44.791035625153903
 20
33.0
 30
0.0
 11
44.791035625153903
 21
40.63696088173505
 31
0.0
  0
LINE
  5
174
  8
PATTERN_FILL
  6
CONTINUOUS
 62
     7
 10
46.291035625153903
 20
33.0
 30
0.0
 11
46.291035625153903
 21
40.562272085054573
 31
0.0
  0
LINE
  5
175
  8
PATTERN_FILL
  6
CONTINUOUS
 62
     7
 10
47.791035625153903
 20
33.0
 30
0.0
 11
47.791035625153903
 21
40.456045250158461
 31
0.0
  0
LINE
  5
176
  8
PATTERN_FILL
  6
CONTINUOUS
 62
     7
 10
49.291035625153903
 20
33.0
 30
0.0
 11
49.291035625153903
 21
40.21340634628605
 31
0.0
  0
LINE
  5
177
  8
PATTERN_FILL
  6
CONTINUOUS
 62
     7
 10
50.791035625153903
 20
33.0
 30
0.0
 11
50.791035625153903
 21
39.874646033705112
 31
0.0
  0
LINE
  5
178
  8
PATTERN_FILL
  6
CONTINUOUS
 62
     7
 10
52.291035625153903
 20
33.0
 30
0.0
 11
52.291035625153903
 21
39.435613693592607
 31
0.0
  0
LINE
  5
179
  8
PATTERN_FILL
  6
CONTINUOUS
 62
     7
 10
53.791035625153903
 20
33.0
 30
0.0
 11
53.791035625153903
 21
38.89056502156614
 31
0.0
  0
LINE
  5
17A
  8
PATTERN_FILL
  6
CONTINUOUS
 62
     7
 10
55.291035625153903
 20
33.0
 30
0.0
 11
55.291035625153903
 21
38.231737968475812
 31
0.0
  0
LINE
  5
17B
  8
PATTERN_FILL
  6
CONTINUOUS
 62
     7
 10
56.791035625153903
 20
33.0
 30
0.0
 11
56.791035625153903
 21
37.448698002719908
 31
0.0
  0
LINE
  5
17C
  8
PATTERN_FILL
  6
CONTINUOUS
 62
     7
 10
58.291035625153903
 20
33.0
 30
0.0
 11
58.291035625153903
 21
36.527302519116752
 31
0.0
  0
LINE
  5
17D
  8
PATTERN_FILL
  6
CONTINUOUS
 62
     7
 10
59.791035625153903
 20
33.0
 30
0.0
 11
59.791035625153903
 21
35.447994803814566
 31
0.0
  0
LINE
  5
17E
  8
PATTERN_FILL
  6
CONTINUOUS
 62
     7
 10
61.291035625153903
 20
33.0
 30
0.0
 11
61.291035625153903
 21
34.182826120885103
 31
0.0
  0
LINE
  5
17F
  8
PATTERN_FILL
  6
CONTINUOUS
 62
     7
 10
13.91762148119453
 20
34.371305290268957
 30
0.0
 11
61.08237851880542
 21
34.371305290268957
 31
0.0
  0
LINE
  5
180
  8
PATTERN_FILL
  6
CONTINUOUS
 62
     7
 10
15.769447346623391
 20
35.871305290268957
 30
0.0
 11
59.230552653376577
 21
35.871305290268957
 31
0.0
  0
LINE
  5
181
  8
PATTERN_FILL
  6
CONTINUOUS
 62
     7
 10
18.073305184664228
 20
37.371305290268957
 30
0.0
 11
56.926694815335701
 21
37.371305290268957
 31
0.0
  0
LINE
  5
182
  8
PATTERN_FILL
  6
CONTINUOUS
 62
     7
 10
21.160996167682129
 20
38.871305290268957
 30
0.0
 11
53.83900383231785
 21
38.871305290268957
 31
0.0
  0
LINE
  5
183
  8
PATTERN_FILL
  6
CONTINUOUS
 62
     7
 10
26.61533703740146
 20
40.37130529026895
 30
0.0
 11
48.38466296259849
 21
40.37130529026895
 31
0.0
  0
LINE
  5
184
  8
PATTERN_FILL
  6
CONTINUOUS
 62
     7
 10
-149.0
 20
-29.71189900223473
 30
0.0
 11
-129.0
 21
-29.71189900223473
 31
0.0
  0
LINE
  5
185
  8
PATTERN_FILL
  6
CONTINUOUS
 62
     7
 10
-121.0
 20
-29.71189900223473
 30
0.0
 11
-101.0
 21
-29.71189900223473
 31
0.0
  0
LINE
  5
186
  8
PATTERN_FILL
  6
CONTINUOUS
 62
     7
 10
-149.0
 20
-28.21189900223473
 30
0.0
 11
-129.0
 21
-28.21189900223473
 31
0.0
  0
LINE
  5
187
  8
PATTERN_FILL
  6
CONTINUOUS
 62
     7
 10
-121.0
 20
-28.21189900223473
 30
0.0
 11
-101.0
 21
-28.21189900223473
 31
0.0
  0
LINE
  5
188
  8
PATTERN_FILL
  6
CONTINUOUS
 62
     7
 10
-149.0
 20
-26.71189900223473
 30
0.0
 11
-129.0
 21
-26.71189900223473
 31
0.0
  0
LINE
  5
189
  8
PATTERN_FILL
  6
CONTINUOUS
 62
     7
 10
-121.0
 20
-26.71189900223473
 30
0.0
 11
-101.0
 21
-26.71189900223473
 31
0.0
  0
LINE
  5
18A
  8
PATTERN_FILL
  6
CONTINUOUS
 62
     7
 10
-149.0
 20
-25.21189900223473
 30
0.0
 11
-129.0
 21
-25.21189900223473
 31
0.0
  0
LINE
  5
18B
  8
PATTERN_FILL
  6
CONTINUOUS
 62
     7
 10
-121.0
 20
-25.21189900223473
 30
0.0
 11
-101.0
 21
-25.21189900223473
 31
0.0
  0
LINE
  5
18C
  8
PATTERN_FILL
  6
CONTINUOUS
 62
     7
 10
-149.0
 20
-23.71189900223473
 30
0.0
 11
-129.0
 21
-23.71189900223473
 31
0.0
  0
LINE
  5
18D
  8
PATTERN_FILL
  6
CONTINUOUS
 62
     7
 10
-121.0
 20
-23.71189900223473
 30
0.0
 11
-101.0
 21
-23.71189900223473
 31
0.0
  0
LINE
  5
18E
  8
PATTERN_FILL
  6
CONTINUOUS
 62
     7
 10
-149.0
 20
-22.21189900223473
 30
0.0
 11
-129.0
 21
-22.21189900223473
 31
0.0
  0
LINE
  5
18F
  8
PATTERN_FILL
  6
CONTINUOUS
 62
     7
 10
-121.0
 20
-22.21189900223473
 30
0.0
 11
-101.0
 21
-22.21189900223473
 31
0.0
  0
LINE
  5
190
  8
PATTERN_FILL
  6
CONTINUOUS
 62
     7
 10
-149.0
 20
-20.71189900223473
 30
0.0
 11
-129.0
 21
-20.71189900223473
 31
0.0
  0
LINE
  5
191
  8
PATTERN_FILL
  6
CONTINUOUS
 62
     7
 10
-121.0
 20
-20.71189900223473
 30
0.0
 11
-101.0
 21
-20.71189900223473
 31
0.0
  0
LINE
  5
192
  8
PATTERN_FILL
  6
CONTINUOUS
 62
     7
 10
-149.0
 20
-19.21189900223473
 30
0.0
 11
-129.0
 21
-19.21189900223473
 31
0.0
  0
LINE
  5
193
  8
PATTERN_FILL
  6
CONTINUOUS
 62
     7
 10
-121.0
 20
-19.21189900223473
 30
0.0
 11
-101.0
 21
-19.21189900223473
 31
0.0
  0
LINE
  5
194
  8
PATTERN_FILL
  6
CONTINUOUS
 62
     7
 10
-149.0
 20
-17.71189900223473
 30
0.0
 11
-129.0
 21
-17.71189900223473
 31
0.0
  0
LINE
  5
195
  8
PATTERN_FILL
  6
CONTINUOUS
 62
     7
 10
-121.0
 20
-17.71189900223473
 30
0.0
 11
-101.0
 21
-17.71189900223473
 31
0.0
  0
LINE
  5
196
  8
PATTERN_FILL
  6
CONTINUOUS
 62
     7
 10
-149.0
 20
-16.21189900223473
 30
0.0
 11
-129.0
 21
-16.21189900223473
 31
0.0
  0
LINE
  5
197
  8
PATTERN_FILL
  6
CONTINUOUS
 62
     7
 10
-121.0
 20
-16.21189900223473
 30
0.0
 11
-101.0
 21
-16.21189900223473
 31
0.0
  0
LINE
  5
198
  8
PATTERN_FILL
  6
CONTINUOUS
 62
     7
 10
-149.0
 20
-14.71189900223473
 30
0.0
 11
-129.0
 21
-14.71189900223473
 31
0.0
  0
LINE
  5
199
  8
PATTERN_FILL
  6
CONTINUOUS
 62
     7
 10
-121.0
 20
-14.71189900223473
 30
0.0
 11
-101.0
 21
-14.71189900223473
 31
0.0
  0
LINE
  5
19A
  8
PATTERN_FILL
  6
CONTINUOUS
 62
     7
 10
-149.0
 20
-13.21189900223473
 30
0.0
 11
-129.0
 21
-13.21189900223473
 31
0.0
  0
LINE
  5
19B
  8
PATTERN_FILL
  6
CONTINUOUS
 62
     7
 10
-121.0
 20
-13.21189900223473
 30
0.0
 11
-101.0
 21
-13.21189900223473
 31
0.0
  0
LINE
  5
19C
  8
PATTERN_FILL
  6
CONTINUOUS
 62
     7
 10
-149.0
 20
-11.71189900223473
 30
0.0
 11
-129.0
 21
-11.71189900223473
 31
0.0
  0
LINE
  5
19D
  8
PATTERN_FILL
  6
CONTINUOUS
 62
     7
 10
-121.0
 20
-11.71189900223473
 30
0.0
 11
-101.0
 21
-11.71189900223473
 31
0.0
  0
LINE
  5
19E
  8
PATTERN_FILL
  6
CONTINUOUS
 62
     7
 10
-149.0
 20
-10.21189900223473
 30
0.0
 11
-129.0
 21
-10.21189900223473
 31
0.0
  0
LINE
  5
19F
  8
PATTERN_FILL
  6
CONTINUOUS
 62
     7
 10
-121.0
 20
-10.21189900223473
 30
0.0
 11
-101.0
 21
-10.21189900223473
 31
0.0
  0
LINE
  5
1A0
  8
PATTERN_FILL
  6
CONTINUOUS
 62
     7
 10
-149.0
 20
-8.7118990022347305
 30
0.0
 11
-129.0
 21
-8.7118990022347305
 31
0.0
  0
LINE
  5
1A1
  8
PATTERN_FILL
  6
CONTINUOUS
 62
     7
 10
-121.0
 20
-8.7118990022347305
 30
0.0
 11
-101.0
 21
-8.7118990022347305
 31
0.0
  0
LINE
  5
1A2
  8
PATTERN_FILL
  6
CONTINUOUS
 62
     7
 10
-149.0
 20
-7.2118990022347287
 30
0.0
 11
-129.0
 21
-7.2118990022347287
 31
0.0
  0
LINE
  5
1A3
  8
PATTERN_FILL
  6
CONTINUOUS
 62
     7
 10
-121.0
 20
-7.2118990022347287
 30
0.0
 11
-101.0
 21
-7.2118990022347287
 31
0.0
  0
LINE
  5
1A4
  8
PATTERN_FILL
  6
CONTINUOUS
 62
     7
 10
-149.0
 20
-5.7118990022347296
 30
0.0
 11
-129.0
 21
-5.7118990022347296
 31
0.0
  0
LINE
  5
1A5
  8
PATTERN_FILL
  6
CONTINUOUS
 62
     7
 10
-121.0
 20
-5.7118990022347296
 30
0.0
 11
-101.0
 21
-5.7118990022347296
 31
0.0
  0
LINE
  5
1A6
  8
PATTERN_FILL
  6
CONTINUOUS
 62
     7
 10
-149.0
 20
-4.2118990022347296
 30
0.0
 11
-129.0
 21
-4.2118990022347296
 31
0.0
  0
LINE
  5
1A7
  8
PATTERN_FILL
  6
CONTINUOUS
 62
     7
 10
-121.0
 20
-4.2118990022347296
 30
0.0
 11
-101.0
 21
-4.2118990022347296
 31
0.0
  0
LINE
  5
1A8
  8
PATTERN_FILL
  6
CONTINUOUS
 62
     7
 10
-149.0
 20
-2.71189900223473
 30
0.0
 11
-129.0
 21
-2.71189900223473
 31
0.0
  0
LINE
  5
1A9
  8
PATTERN_FILL
  6
CONTINUOUS
 62
     7
 10
-121.0
 20
-2.71189900223473
 30
0.0
 11
-101.0
 21
-2.71189900223473
 31
0.0
  0
LINE
  5
1AA
  8
PATTERN_FILL
  6
CONTINUOUS
 62
     7
 10
-149.0
 20
-1.21189900223473
 30
0.0
 11
-129.0
 21
-1.21189900223473
 31
0.0
  0
LINE
  5
1AB
  8
PATTERN_FILL
  6
CONTINUOUS
 62
     7
 10
-121.0
 20
-1.21189900223473
 30
0.0
 11
-101.0
 21
-1.21189900223473
 31
0.0
  0
LINE
  5
1AC
  8
PATTERN_FILL
  6
CONTINUOUS
 62
     7
 10
-149.0
 20
0.2881009977652695
 30
0.0
 11
-129.0
 21
0.2881009977652695
 31
0.0
  0
LINE
  5
1AD
  8
PATTERN_FILL
  6
CONTINUOUS
 62
     7
 10
-121.0
 20
0.2881009977652695
 30
0.0
 11
-101.0
 21
0.2881009977652695
 31
0.0
  0
LINE
  5
1AE
  8
PATTERN_FILL
  6
CONTINUOUS
 62
     7
 10
-149.0
 20
1.7881009977652691
 30
0.0
 11
-129.0
 21
1.7881009977652691
 31
0.0
  0
LINE
  5
1AF
  8
PATTERN_FILL
  6
CONTINUOUS
 62
     7
 10
-121.0
 20
1.7881009977652691
 30
0.0
 11
-101.0
 21
1.7881009977652691
 31
0.0
  0
LINE
  5
1B0
  8
PATTERN_FILL
  6
CONTINUOUS
 62
     7
 10
-149.0
 20
3.2881009977652691
 30
0.0
 11
-129.0
 21
3.2881009977652691
 31
0.0
  0
LINE
  5
1B1
  8
PATTERN_FILL
  6
CONTINUOUS
 62
     7
 10
-121.0
 20
3.2881009977652691
 30
0.0
 11
-101.0
 21
3.2881009977652691
 31
0.0
  0
LINE
  5
1B2
  8
PATTERN_FILL
  6
CONTINUOUS
 62
     7
 10
-149.0
 20
4.7881009977652687
 30
0.0
 11
-129.0
 21
4.7881009977652687
 31
0.0
  0
LINE
  5
1B3
  8
PATTERN_FILL
  6
CONTINUOUS
 62
     7
 10
-121.0
 20
4.7881009977652687
 30
0.0
 11
-101.0
 21
4.7881009977652687
 31
0.0
  0
LINE
  5
1B4
  8
PATTERN_FILL
  6
CONTINUOUS
 62
     7
 10
-149.0
 20
6.2881009977652687
 30
0.0
 11
-129.0
 21
6.2881009977652687
 31
0.0
  0
LINE
  5
1B5
  8
PATTERN_FILL
  6
CONTINUOUS
 62
     7
 10
-121.0
 20
6.2881009977652687
 30
0.0
 11
-101.0
 21
6.2881009977652687
 31
0.0
  0
LINE
  5
1B6
  8
PATTERN_FILL
  6
CONTINUOUS
 62
     7
 10
-149.0
 20
7.7881009977652678
 30
0.0
 11
-129.0
 21
7.7881009977652678
 31
0.0
  0
LINE
  5
1B7
  8
PATTERN_FILL
  6
CONTINUOUS
 62
     7
 10
-121.0
 20
7.7881009977652678
 30
0.0
 11
-101.0
 21
7.7881009977652678
 31
0.0
  0
LINE
  5
1B8
  8
PATTERN_FILL
  6
CONTINUOUS
 62
     7
 10
-149.0
 20
9.2881009977652678
 30
0.0
 11
-129.0
 21
9.2881009977652678
 31
0.0
  0
LINE
  5
1B9
  8
PATTERN_FILL
  6
CONTINUOUS
 62
     7
 10
-121.0
 20
9.2881009977652678
 30
0.0
 11
-101.0
 21
9.2881009977652678
 31
0.0
  0
LINE
  5
1BA
  8
PATTERN_FILL
  6
CONTINUOUS
 62
     7
 10
-149.0
 20
10.78810099776527
 30
0.0
 11
-129.0
 21
10.78810099776527
 31
0.0
  0
LINE
  5
1BB
  8
PATTERN_FILL
  6
CONTINUOUS
 62
     7
 10
-121.0
 20
10.78810099776527
 30
0.0
 11
-101.0
 21
10.78810099776527
 31
0.0
  0
LINE
  5
1BC
  8
PATTERN_FILL
  6
CONTINUOUS
 62
     7
 10
-149.0
 20
12.28810099776527
 30
0.0
 11
-129.0
 21
12.28810099776527
 31
0.0
  0
LINE
  5
1BD
  8
PATTERN_FILL
  6
CONTINUOUS
 62
     7
 10
-121.0
 20
12.28810099776527
 30
0.0
 11
-101.0
 21
12.28810099776527
 31
0.0
  0
LINE
  5
1BE
  8
PATTERN_FILL
  6
CONTINUOUS
 62
     7
 10
-149.0
 20
13.78810099776527
 30
0.0
 11
-129.0
 21
13.78810099776527
 31
0.0
  0
LINE
  5
1BF
  8
PATTERN_FILL
  6
CONTINUOUS
 62
     7
 10
-121.0
 20
13.78810099776527
 30
0.0
 11
-101.0
 21
13.78810099776527
 31
0.0
  0
LINE
  5
1C0
  8
PATTERN_FILL
  6
CONTINUOUS
 62
     7
 10
-149.0
 20
15.28810099776527
 30
0.0
 11
-129.0
 21
15.28810099776527
 31
0.0
  0
LINE
  5
1C1
  8
PATTERN_FILL
  6
CONTINUOUS
 62
     7
 10
-121.0
 20
15.28810099776527
 30
0.0
 11
-101.0
 21
15.28810099776527
 31
0.0
  0
LINE
  5
1C2
  8
PATTERN_FILL
  6
CONTINUOUS
 62
     7
 10
-149.0
 20
16.78810099776527
 30
0.0
 11
-129.0
 21
16.78810099776527
 31
0.0
  0
LINE
  5
1C3
  8
PATTERN_FILL
  6
CONTINUOUS
 62
     7
 10
-121.0
 20
16.78810099776527
 30
0.0
 11
-101.0
 21
16.78810099776527
 31
0.0
  0
LINE
  5
1C4
  8
PATTERN_FILL
  6
CONTINUOUS
 62
     7
 10
-149.0
 20
18.28810099776527
 30
0.0
 11
-129.0
 21
18.28810099776527
 31
0.0
  0
LINE
  5
1C5
  8
PATTERN_FILL
  6
CONTINUOUS
 62
     7
 10
-121.0
 20
18.28810099776527
 30
0.0
 11
-101.0
 21
18.28810099776527
 31
0.0
  0
LINE
  5
1C6
  8
PATTERN_FILL
  6
CONTINUOUS
 62
     7
 10
-149.0
 20
19.78810099776527
 30
0.0
 11
-129.0
 21
19.78810099776527
 31
0.0
  0
LINE
  5
1C7
  8
PATTERN_FILL
  6
CONTINUOUS
 62
     7
 10
-121.0
 20
19.78810099776527
 30
0.0
 11
-101.0
 21
19.78810099776527
 31
0.0
  0
LINE
  5
1C8
  8
PATTERN_FILL
  6
CONTINUOUS
 62
     7
 10
-149.0
 20
21.28810099776527
 30
0.0
 11
-129.0
 21
21.28810099776527
 31
0.0
  0
LINE
  5
1C9
  8
PATTERN_FILL
  6
CONTINUOUS
 62
     7
 10
-121.0
 20
21.28810099776527
 30
0.0
 11
-101.0
 21
21.28810099776527
 31
0.0
  0
LINE
  5
1CA
  8
PATTERN_FILL
  6
CONTINUOUS
 62
     7
 10
-149.0
 20
22.78810099776527
 30
0.0
 11
-129.0
 21
22.78810099776527
 31
0.0
  0
LINE
  5
1CB
  8
PATTERN_FILL
  6
CONTINUOUS
 62
     7
 10
-121.0
 20
22.78810099776527
 30
0.0
 11
-101.0
 21
22.78810099776527
 31
0.0
  0
LINE
  5
1CC
  8
PATTERN_FILL
  6
CONTINUOUS
 62
     7
 10
-149.0
 20
24.28810099776527
 30
0.0
 11
-129.0
 21
24.28810099776527
 31
0.0
  0
LINE
  5
1CD
  8
PATTERN_FILL
  6
CONTINUOUS
 62
     7
 10
-121.0
 20
24.28810099776527
 30
0.0
 11
-101.0
 21
24.28810099776527
 31
0.0
  0
LINE
  5
1CE
  8
PATTERN_FILL
  6
CONTINUOUS
 62
     7
 10
-149.0
 20
25.78810099776527
 30
0.0
 11
-129.0
 21
25.78810099776527
 31
0.0
  0
LINE
  5
1CF
  8
PATTERN_FILL
  6
CONTINUOUS
 62
     7
 10
-121.0
 20
25.78810099776527
 30
0.0
 11
-101.0
 21
25.78810099776527
 31
0.0
  0
LINE
  5
1D0
  8
PATTERN_FILL
  6
CONTINUOUS
 62
     7
 10
-147.5
 20
-31.0
 30
0.0
 11
-147.5
 21
27.0
 31
0.0
  0
LINE
  5
1D1
  8
PATTERN_FILL
  6
CONTINUOUS
 62
     7
 10
-146.0
 20
-31.0
 30
0.0
 11
-146.0
 21
27.0
 31
0.0
  0
LINE
  5
1D2
  8
PATTERN_FILL
  6
CONTINUOUS
 62
     7
 10
-144.5
 20
-31.0
 30
0.0
 11
-144.5
 21
27.0
 31
0.0
  0
LINE
  5
1D3
  8
PATTERN_FILL
  6
CONTINUOUS
 62
     7
 10
-143.0
 20
-31.0
 30
0.0
 11
-143.0
 21
27.0
 31
0.0
  0
LINE
  5
1D4
  8
PATTERN_FILL
  6
CONTINUOUS
 62
     7
 10
-141.5
 20
-31.0
 30
0.0
 11
-141.5
 21
27.0
 31
0.0
  0
LINE
  5
1D5
  8
PATTERN_FILL
  6
CONTINUOUS
 62
     7
 10
-140.0
 20
-31.0
 30
0.0
 11
-140.0
 21
27.0
 31
0.0
  0
LINE
  5
1D6
  8
PATTERN_FILL
  6
CONTINUOUS
 62
     7
 10
-138.5
 20
-31.0
 30
0.0
 11
-138.5
 21
27.0
 31
0.0
  0
LINE
  5
1D7
  8
PATTERN_FILL
  6
CONTINUOUS
 62
     7
 10
-137.0
 20
-31.0
 30
0.0
 11
-137.0
 21
27.0
 31
0.0
  0
LINE
  5
1D8
  8
PATTERN_FILL
  6
CONTINUOUS
 62
     7
 10
-135.5
 20
-31.0
 30
0.0
 11
-135.5
 21
27.0
 31
0.0
  0
LINE
  5
1D9
  8
PATTERN_FILL
  6
CONTINUOUS
 62
     7
 10
-134.0
 20
-31.0
 30
0.0
 11
-134.0
 21
27.0
 31
0.0
  0
LINE
  5
1DA
  8
PATTERN_FILL
  6
CONTINUOUS
 62
     7
 10
-132.5
 20
-31.0
 30
0.0
 11
-132.5
 21
27.0
 31
0.0
  0
LINE
  5
1DB
  8
PATTERN_FILL
  6
CONTINUOUS
 62
     7
 10
-131.0
 20
-31.0
 30
0.0
 11
-131.0
 21
27.0
 31
0.0
  0
LINE
  5
1DC
  8
PATTERN_FILL
  6
CONTINUOUS
 62
     7
 10
-129.5
 20
-31.0
 30
0.0
 11
-129.5
 21
26.866025403784452
 31
0.0
  0
LINE
  5
1DD
  8
PATTERN_FILL
  6
CONTINUOUS
 62
     7
 10
-120.5
 20
-31.0
 30
0.0
 11
-120.5
 21
26.866025403784452
 31
0.0
  0
LINE
  5
1DE
  8
PATTERN_FILL
  6
CONTINUOUS
 62
     7
 10
-119.0
 20
-31.0
 30
0.0
 11
-119.0
 21
27.0
 31
0.0
  0
LINE
  5
1DF
  8
PATTERN_FILL
  6
CONTINUOUS
 62
     7
 10
-117.5
 20
-31.0
 30
0.0
 11
-117.5
 21
27.0
 31
0.0
  0
LINE
  5
1E0
  8
PATTERN_FILL
  6
CONTINUOUS
 62
     7
 10
-116.0
 20
-31.0
 30
0.0
 11
-116.0
 21
27.0
 31
0.0
  0
LINE
  5
1E1
  8
PATTERN_FILL
  6
CONTINUOUS
 62
     7
 10
-114.5
 20
-31.0
 30
0.0
 11
-114.5
 21
27.0
 31
0.0
  0
LINE
  5
1E2
  8
PATTERN_FILL
  6
CONTINUOUS
 62
     7
 10
-113.0
 20
-31.0
 30
0.0
 11
-113.0
 21
27.0
 31
0.0
  0
LINE
  5
1E3
  8
PATTERN_FILL
  6
CONTINUOUS
 62
     7
 10
-111.5
 20
-31.0
 30
0.0
 11
-111.5
 21
27.0
 31
0.0
  0
LINE
  5
1E4
  8
PATTERN_FILL
  6
CONTINUOUS
 62
     7
 10
-110.0
 20
-31.0
 30
0.0
 11
-110.0
 21
27.0
 31
0.0
  0
LINE
  5
1E5
  8
PATTERN_FILL
  6
CONTINUOUS
 62
     7
 10
-108.5
 20
-31.0
 30
0.0
 11
-108.5
 21
27.0
 31
0.0
  0
LINE
  5
1E6
  8
PATTERN_FILL
  6
CONTINUOUS
 62
     7
 10
-107.0
 20
-31.0
 30
0.0
 11
-107.0
 21
27.0
 31
0.0
  0
LINE
  5
1E7
  8
PATTERN_FILL
  6
CONTINUOUS
 62
     7
 10
-105.5
 20
-31.0
 30
0.0
 11
-105.5
 21
27.0
 31
0.0
  0
LINE
  5
1E8
  8
PATTERN_FILL
  6
CONTINUOUS
 62
     7
 10
-104.0
 20
-31.0
 30
0.0
 11
-104.0
 21
27.0
 31
0.0
  0
LINE
  5
1E9
  8
PATTERN_FILL
  6
CONTINUOUS
 62
     7
 10
-102.5
 20
-31.0
 30
0.0
 11
-102.5
 21
27.0
 31
0.0
  0
LINE
  5
1EA
  8
PATTERN_FILL
  6
CONTINUOUS
 62
     7
 10
-149.20896437484609
 20
33.0
 30
0.0
 11
-149.20896437484609
 21
33.792026779356192
 31
0.0
  0
LINE
  5
1EB
  8
PATTERN_FILL
  6
CONTINUOUS
 62
     7
 10
-147.70896437484609
 20
33.0
 30
0.0
 11
-147.70896437484609
 21
35.115645951679518
 31
0.0
  0
LINE
  5
1EC
  8
PATTERN_FILL
  6
CONTINUOUS
 62
     7
 10
-146.20896437484609
 20
33.0
 30
0.0
 11
-146.20896437484609
 21
36.243465015046368
 31
0.0
  0
LINE
  5
1ED
  8
PATTERN_FILL
  6
CONTINUOUS
 62
     7
 10
-144.70896437484609
 20
33.0
 30
0.0
 11
-144.70896437484609
 21
37.206602848703398
 31
0.0
  0
LINE
  5
1EE
  8
PATTERN_FILL
  6
CONTINUOUS
 62
     7
 10
-143.20896437484609
 20
33.0
 30
0.0
 11
-143.20896437484609
 21
38.026577175038092
 31
0.0
  0
LINE
  5
1EF
  8
PATTERN_FILL
  6
CONTINUOUS
 62
     7
 10
-141.70896437484609
 20
33.0
 30
0.0
 11
-141.70896437484609
 21
38.718828146500456
 31
0.0
  0
LINE
  5
1F0
  8
PATTERN_FILL
  6
CONTINUOUS
 62
     7
 10
-140.20896437484609
 20
33.0
 30
0.0
 11
-140.20896437484609
 21
39.294697668812361
 31
0.0
  0
LINE
  5
1F1
  8
PATTERN_FILL
  6
CONTINUOUS
 62
     7
 10
-138.70896437484609
 20
33.0
 30
0.0
 11
-138.70896437484609
 21
39.762613847950867
 31
0.0
  0
LINE
  5
1F2
  8
PATTERN_FILL
  6
CONTINUOUS
 62
     7
 10
-137.20896437484609
 20
33.0
 30
0.0
 11
-137.20896437484609
 21
40.128832594685313
 31
0.0
  0
LINE
  5
1F3
  8
PATTERN_FILL
  6
CONTINUOUS
 62
     7
 10
-135.70896437484609
 20
33.0
 30
0.0
 11
-135.70896437484609
 21
40.397915582644814
 31
0.0
  0
LINE
  5
1F4
  8
PATTERN_FILL
  6
CONTINUOUS
 62
     7
 10
-134.20896437484609
 20
33.0
 30
0.0
 11
-134.20896437484609
 21
40.541462354779433
 31
0.0
  0
LINE
  5
1F5
  8
PATTERN_FILL
  6
CONTINUOUS
 62
     7
 10
-132.70896437484609
 20
33.0
 30
0.0
 11
-132.70896437484609
 21
40.616151151459917
 31
0.0
  0
LINE
  5
1F6
  8
PATTERN_FILL
  6
CONTINUOUS
 62
     7
 10
-131.20896437484609
 20
33.0
 30
0.0
 11
-131.20896437484609
 21
40.690839948140429
 31
0.0
  0
LINE
  5
1F7
  8
PATTERN_FILL
  6
CONTINUOUS
 62
     7
 10
-129.70896437484609
 20
33.0
 30
0.0
 11
-129.70896437484609
 21
40.765528744820919
 31
0.0
  0
LINE
  5
1F8
  8
PATTERN_FILL
  6
CONTINUOUS
 62
     7
 10
-128.20896437484609
 20
33.0
 30
0.0
 11
-128.20896437484609
 21
40.840217541501431
 31
0.0
  0
LINE
  5
1F9
  8
PATTERN_FILL
  6
CONTINUOUS
 62
     7
 10
-126.7089643748461
 20
33.0
 30
0.0
 11
-126.7089643748461
 21
40.914906338181929
 31
0.0
  0
LINE
  5
1FA
  8
PATTERN_FILL
  6
CONTINUOUS
 62
     7
 10
-125.208964374846
 20
33.0
 30
0.0
 11
-125.208964374846
 21
40.989595134862419
 31
0.0
  0
LINE
  5
1FB
  8
PATTERN_FILL
  6
CONTINUOUS
 62
     7
 10
-123.7089643748461
 20
33.0
 30
0.0
 11
-123.7089643748461
 21
40.935716068457047
 31
0.0
  0
LINE
  5
1FC
  8
PATTERN_FILL
  6
CONTINUOUS
 62
     7
 10
-122.208964374846
 20
33.0
 30
0.0
 11
-122.208964374846
 21
40.861027271776557
 31
0.0
  0
LINE
  5
1FD
  8
PATTERN_FILL
  6
CONTINUOUS
 62
     7
 10
-120.7089643748461
 20
33.0
 30
0.0
 11
-120.7089643748461
 21
40.786338475096052
 31
0.0
  0
LINE
  5
1FE
  8
PATTERN_FILL
  6
CONTINUOUS
 62
     7
 10
-119.208964374846
 20
33.0
 30
0.0
 11
-119.208964374846
 21
40.71164967841554
 31
0.0
  0
LINE
  5
1FF
  8
PATTERN_FILL
  6
CONTINUOUS
 62
     7
 10
-117.7089643748461
 20
33.0
 30
0.0
 11
-117.7089643748461
 21
40.63696088173505
 31
0.0
  0
LINE
  5
200
  8
PATTERN_FILL
  6
CONTINUOUS
 62
     7
 10
-116.208964374846
 20
33.0
 30
0.0
 11
-116.208964374846
 21
40.562272085054573
 31
0.0
  0
LINE
  5
201
  8
PATTERN_FILL
  6
CONTINUOUS
 62
     7
 10
-114.7089643748461
 20
33.0
 30
0.0
 11
-114.7089643748461
 21
40.456045250158461
 31
0.0
  0
LINE
  5
202
  8
PATTERN_FILL
  6
CONTINUOUS
 62
     7
 10
-113.2089643748461
 20
33.0
 30
0.0
 11
-113.2089643748461
 21
40.21340634628605
 31
0.0
  0
LINE
  5
203
  8
PATTERN_FILL
  6
CONTINUOUS
 62
     7
 10
-111.708964374846
 20
33.0
 30
0.0
 11
-111.708964374846
 21
39.874646033705112
 31
0.0
  0
LINE
  5
204
  8
PATTERN_FILL
  6
CONTINUOUS
 62
     7
 10
-110.2089643748461
 20
33.0
 30
0.0
 11
-110.2089643748461
 21
39.435613693592607
 31
0.0
  0
LINE
  5
205
  8
PATTERN_FILL
  6
CONTINUOUS
 62
     7
 10
-108.708964374846
 20
33.0
 30
0.0
 11
-108.708964374846
 21
38.89056502156614
 31
0.0
  0
LINE
  5
206
  8
PATTERN_FILL
  6
CONTINUOUS
 62
     7
 10
-107.2089643748461
 20
33.0
 30
0.0
 11
-107.2089643748461
 21
38.231737968475812
 31
0.0
  0
LINE
  5
207
  8
PATTERN_FILL
  6
CONTINUOUS
 62
     7
 10
-105.708964374846
 20
33.0
 30
0.0
 11
-105.708964374846
 21
37.448698002719908
 31
0.0
  0
LINE
  5
208
  8
PATTERN_FILL
  6
CONTINUOUS
 62
     7
 10
-104.2089643748461
 20
33.0
 30
0.0
 11
-104.2089643748461
 21
36.527302519116752
 31
0.0
  0
LINE
  5
209
  8
PATTERN_FILL
  6
CONTINUOUS
 62
     7
 10
-102.708964374846
 20
33.0
 30
0.0
 11
-102.708964374846
 21
35.447994803814566
 31
0.0
  0
LINE
  5
20A
  8
PATTERN_FILL
  6
CONTINUOUS
 62
     7
 10
-101.208964374846
 20
33.0
 30
0.0
 11
-101.208964374846
 21
34.182826120885103
 31
0.0
  0
LINE
  5
20B
  8
PATTERN_FILL
  6
CONTINUOUS
 62
     7
 10
-148.5823785188054
 20
34.371305290268957
 30
0.0
 11
-101.4176214811945
 21
34.371305290268957
 31
0.0
  0
LINE
  5
20C
  8
PATTERN_FILL
  6
CONTINUOUS
 62
     7
 10
-146.73055265337661
 20
35.871305290268957
 30
0.0
 11
-103.26944734662339
 21
35.871305290268957
 31
0.0
  0
LINE
  5
20D
  8
PATTERN_FILL
  6
CONTINUOUS
 62
     7
 10
-144.42669481533571
 20
37.371305290268957
 30
0.0
 11
-105.57330518466431
 21
37.371305290268957
 31
0.0
  0
LINE
  5
20E
  8
PATTERN_FILL
  6
CONTINUOUS
 62
     7
 10
-141.33900383231779
 20
38.871305290268957
 30
0.0
 11
-108.6609961676821
 21
38.871305290268957
 31
0.0
  0
LINE
  5
20F
  8
PATTERN_FILL
  6
CONTINUOUS
 62
     7
 10
-135.88466296259861
 20
40.37130529026895
 30
0.0
 11
-114.1153370374015
 21
40.37130529026895
 31
0.0
  0
LINE
  5
210
  8
PATTERN_FILL
  6
CONTINUOUS
 62
     7
 10
88.999999999999957
 20
-29.71189900223473
 30
0.0
 11
135.99999999999989
 21
-29.71189900223473
 31
0.0
  0
LINE
  5
211
  8
PATTERN_FILL
  6
CONTINUOUS
 62
     7
 10
88.999999999999957
 20
-28.21189900223473
 30
0.0
 11
135.99999999999989
 21
-28.21189900223473
 31
0.0
  0
LINE
  5
212
  8
PATTERN_FILL
  6
CONTINUOUS
 62
     7
 10
88.999999999999957
 20
-26.71189900223473
 30
0.0
 11
135.99999999999989
 21
-26.71189900223473
 31
0.0
  0
LINE
  5
213
  8
PATTERN_FILL
  6
CONTINUOUS
 62
     7
 10
88.999999999999957
 20
-25.21189900223473
 30
0.0
 11
135.99999999999989
 21
-25.21189900223473
 31
0.0
  0
LINE
  5
214
  8
PATTERN_FILL
  6
CONTINUOUS
 62
     7
 10
88.999999999999957
 20
-23.71189900223473
 30
0.0
 11
135.99999999999989
 21
-23.71189900223473
 31
0.0
  0
LINE
  5
215
  8
PATTERN_FILL
  6
CONTINUOUS
 62
     7
 10
88.999999999999957
 20
-22.21189900223473
 30
0.0
 11
135.99999999999989
 21
-22.21189900223473
 31
0.0
  0
LINE
  5
216
  8
PATTERN_FILL
  6
CONTINUOUS
 62
     7
 10
88.999999999999957
 20
-20.71189900223473
 30
0.0
 11
135.99999999999989
 21
-20.71189900223473
 31
0.0
  0
LINE
  5
217
  8
PATTERN_FILL
  6
CONTINUOUS
 62
     7
 10
88.999999999999957
 20
-19.21189900223473
 30
0.0
 11
135.99999999999989
 21
-19.21189900223473
 31
0.0
  0
LINE
  5
218
  8
PATTERN_FILL
  6
CONTINUOUS
 62
     7
 10
88.999999999999957
 20
-17.71189900223473
 30
0.0
 11
135.99999999999989
 21
-17.71189900223473
 31
0.0
  0
LINE
  5
219
  8
PATTERN_FILL
  6
CONTINUOUS
 62
     7
 10
88.999999999999957
 20
-16.21189900223473
 30
0.0
 11
135.99999999999989
 21
-16.21189900223473
 31
0.0
  0
LINE
  5
21A
  8
PATTERN_FILL
  6
CONTINUOUS
 62
     7
 10
88.999999999999957
 20
-14.71189900223473
 30
0.0
 11
135.99999999999989
 21
-14.71189900223473
 31
0.0
  0
LINE
  5
21B
  8
PATTERN_FILL
  6
CONTINUOUS
 62
     7
 10
88.999999999999957
 20
-13.21189900223473
 30
0.0
 11
135.99999999999989
 21
-13.21189900223473
 31
0.0
  0
LINE
  5
21C
  8
PATTERN_FILL
  6
CONTINUOUS
 62
     7
 10
88.999999999999957
 20
-11.71189900223473
 30
0.0
 11
135.99999999999989
 21
-11.71189900223473
 31
0.0
  0
LINE
  5
21D
  8
PATTERN_FILL
  6
CONTINUOUS
 62
     7
 10
88.999999999999957
 20
-10.21189900223473
 30
0.0
 11
135.99999999999989
 21
-10.21189900223473
 31
0.0
  0
LINE
  5
21E
  8
PATTERN_FILL
  6
CONTINUOUS
 62
     7
 10
88.999999999999957
 20
-8.7118990022347305
 30
0.0
 11
135.99999999999989
 21
-8.7118990022347305
 31
0.0
  0
LINE
  5
21F
  8
PATTERN_FILL
  6
CONTINUOUS
 62
     7
 10
88.999999999999957
 20
-7.2118990022347287
 30
0.0
 11
135.99999999999989
 21
-7.2118990022347287
 31
0.0
  0
LINE
  5
220
  8
PATTERN_FILL
  6
CONTINUOUS
 62
     7
 10
88.999999999999957
 20
-5.7118990022347296
 30
0.0
 11
135.99999999999989
 21
-5.7118990022347296
 31
0.0
  0
LINE
  5
221
  8
PATTERN_FILL
  6
CONTINUOUS
 62
     7
 10
88.999999999999957
 20
-4.2118990022347296
 30
0.0
 11
135.99999999999989
 21
-4.2118990022347296
 31
0.0
  0
LINE
  5
222
  8
PATTERN_FILL
  6
CONTINUOUS
 62
     7
 10
88.999999999999957
 20
-2.71189900223473
 30
0.0
 11
135.99999999999989
 21
-2.71189900223473
 31
0.0
  0
LINE
  5
223
  8
PATTERN_FILL
  6
CONTINUOUS
 62
     7
 10
88.999999999999957
 20
-1.21189900223473
 30
0.0
 11
135.99999999999989
 21
-1.21189900223473
 31
0.0
  0
LINE
  5
224
  8
PATTERN_FILL
  6
CONTINUOUS
 62
     7
 10
88.999999999999957
 20
0.2881009977652695
 30
0.0
 11
135.99999999999989
 21
0.2881009977652695
 31
0.0
  0
LINE
  5
225
  8
PATTERN_FILL
  6
CONTINUOUS
 62
     7
 10
88.999999999999957
 20
1.7881009977652691
 30
0.0
 11
135.99999999999989
 21
1.7881009977652691
 31
0.0
  0
LINE
  5
226
  8
PATTERN_FILL
  6
CONTINUOUS
 62
     7
 10
88.999999999999957
 20
3.2881009977652691
 30
0.0
 11
135.99999999999989
 21
3.2881009977652691
 31
0.0
  0
LINE
  5
227
  8
PATTERN_FILL
  6
CONTINUOUS
 62
     7
 10
88.999999999999957
 20
4.7881009977652687
 30
0.0
 11
135.99999999999989
 21
4.7881009977652687
 31
0.0
  0
LINE
  5
228
  8
PATTERN_FILL
  6
CONTINUOUS
 62
     7
 10
88.999999999999957
 20
6.2881009977652687
 30
0.0
 11
135.99999999999989
 21
6.2881009977652687
 31
0.0
  0
LINE
  5
229
  8
PATTERN_FILL
  6
CONTINUOUS
 62
     7
 10
88.999999999999957
 20
7.7881009977652678
 30
0.0
 11
135.99999999999989
 21
7.7881009977652678
 31
0.0
  0
LINE
  5
22A
  8
PATTERN_FILL
  6
CONTINUOUS
 62
     7
 10
88.999999999999957
 20
9.2881009977652678
 30
0.0
 11
135.99999999999989
 21
9.2881009977652678
 31
0.0
  0
LINE
  5
22B
  8
PATTERN_FILL
  6
CONTINUOUS
 62
     7
 10
88.999999999999957
 20
10.78810099776527
 30
0.0
 11
135.99999999999989
 21
10.78810099776527
 31
0.0
  0
LINE
  5
22C
  8
PATTERN_FILL
  6
CONTINUOUS
 62
     7
 10
88.999999999999957
 20
12.28810099776527
 30
0.0
 11
135.99999999999989
 21
12.28810099776527
 31
0.0
  0
LINE
  5
22D
  8
PATTERN_FILL
  6
CONTINUOUS
 62
     7
 10
88.999999999999957
 20
13.78810099776527
 30
0.0
 11
135.99999999999989
 21
13.78810099776527
 31
0.0
  0
LINE
  5
22E
  8
PATTERN_FILL
  6
CONTINUOUS
 62
     7
 10
88.999999999999957
 20
15.28810099776527
 30
0.0
 11
135.99999999999989
 21
15.28810099776527
 31
0.0
  0
LINE
  5
22F
  8
PATTERN_FILL
  6
CONTINUOUS
 62
     7
 10
88.999999999999957
 20
16.78810099776527
 30
0.0
 11
135.99999999999989
 21
16.78810099776527
 31
0.0
  0
LINE
  5
230
  8
PATTERN_FILL
  6
CONTINUOUS
 62
     7
 10
88.999999999999957
 20
18.28810099776527
 30
0.0
 11
135.99999999999989
 21
18.28810099776527
 31
0.0
  0
LINE
  5
231
  8
PATTERN_FILL
  6
CONTINUOUS
 62
     7
 10
88.999999999999957
 20
19.78810099776527
 30
0.0
 11
135.99999999999989
 21
19.78810099776527
 31
0.0
  0
LINE
  5
232
  8
PATTERN_FILL
  6
CONTINUOUS
 62
     7
 10
88.999999999999957
 20
21.28810099776527
 30
0.0
 11
135.99999999999989
 21
21.28810099776527
 31
0.0
  0
LINE
  5
233
  8
PATTERN_FILL
  6
CONTINUOUS
 62
     7
 10
88.999999999999957
 20
22.78810099776527
 30
0.0
 11
135.99999999999989
 21
22.78810099776527
 31
0.0
  0
LINE
  5
234
  8
PATTERN_FILL
  6
CONTINUOUS
 62
     7
 10
88.999999999999957
 20
24.28810099776527
 30
0.0
 11
135.99999999999989
 21
24.28810099776527
 31
0.0
  0
LINE
  5
235
  8
PATTERN_FILL
  6
CONTINUOUS
 62
     7
 10
88.999999999999957
 20
25.78810099776527
 30
0.0
 11
135.99999999999989
 21
25.78810099776527
 31
0.0
  0
LINE
  5
236
  8
PATTERN_FILL
  6
CONTINUOUS
 62
     7
 10
89.999999999999957
 20
-31.0
 30
0.0
 11
89.999999999999957
 21
27.0
 31
0.0
  0
LINE
  5
237
  8
PATTERN_FILL
  6
CONTINUOUS
 62
     7
 10
91.499999999999957
 20
-31.0
 30
0.0
 11
91.499999999999957
 21
27.0
 31
0.0
  0
LINE
  5
238
  8
PATTERN_FILL
  6
CONTINUOUS
 62
     7
 10
92.999999999999943
 20
-31.0
 30
0.0
 11
92.999999999999943
 21
27.0
 31
0.0
  0
LINE
  5
239
  8
PATTERN_FILL
  6
CONTINUOUS
 62
     7
 10
94.499999999999943
 20
-31.0
 30
0.0
 11
94.499999999999943
 21
27.0
 31
0.0
  0
LINE
  5
23A
  8
PATTERN_FILL
  6
CONTINUOUS
 62
     7
 10
95.999999999999957
 20
-31.0
 30
0.0
 11
95.999999999999957
 21
27.0
 31
0.0
  0
LINE
  5
23B
  8
PATTERN_FILL
  6
CONTINUOUS
 62
     7
 10
97.499999999999957
 20
-31.0
 30
0.0
 11
97.499999999999957
 21
27.0
 31
0.0
  0
LINE
  5
23C
  8
PATTERN_FILL
  6
CONTINUOUS
 62
     7
 10
98.999999999999957
 20
-31.0
 30
0.0
 11
98.999999999999957
 21
27.0
 31
0.0
  0
LINE
  5
23D
  8
PATTERN_FILL
  6
CONTINUOUS
 62
     7
 10
100.4999999999999
 20
-31.0
 30
0.0
 11
100.4999999999999
 21
27.0
 31
0.0
  0
LINE
  5
23E
  8
PATTERN_FILL
  6
CONTINUOUS
 62
     7
 10
101.9999999999999
 20
-31.0
 30
0.0
 11
101.9999999999999
 21
27.0
 31
0.0
  0
LINE
  5
23F
  8
PATTERN_FILL
  6
CONTINUOUS
 62
     7
 10
103.4999999999999
 20
-31.0
 30
0.0
 11
103.4999999999999
 21
27.0
 31
0.0
  0
LINE
  5
240
  8
PATTERN_FILL
  6
CONTINUOUS
 62
     7
 10
104.9999999999999
 20
-31.0
 30
0.0
 11
104.9999999999999
 21
27.0
 31
0.0
  0
LINE
  5
241
  8
PATTERN_FILL
  6
CONTINUOUS
 62
     7
 10
106.4999999999999
 20
-31.0
 30
0.0
 11
106.4999999999999
 21
27.0
 31
0.0
  0
LINE
  5
242
  8
PATTERN_FILL
  6
CONTINUOUS
 62
     7
 10
107.9999999999999
 20
-31.0
 30
0.0
 11
107.9999999999999
 21
27.0
 31
0.0
  0
LINE
  5
243
  8
PATTERN_FILL
  6
CONTINUOUS
 62
     7
 10
109.4999999999999
 20
-31.0
 30
0.0
 11
109.4999999999999
 21
27.0
 31
0.0
  0
LINE
  5
244
  8
PATTERN_FILL
  6
CONTINUOUS
 62
     7
 10
110.9999999999999
 20
-31.0
 30
0.0
 11
110.9999999999999
 21
27.0
 31
0.0
  0
LINE
  5
245
  8
PATTERN_FILL
  6
CONTINUOUS
 62
     7
 10
112.4999999999999
 20
-31.0
 30
0.0
 11
112.4999999999999
 21
27.0
 31
0.0
  0
LINE
  5
246
  8
PATTERN_FILL
  6
CONTINUOUS
 62
     7
 10
113.9999999999999
 20
-31.0
 30
0.0
 11
113.9999999999999
 21
27.0
 31
0.0
  0
LINE
  5
247
  8
PATTERN_FILL
  6
CONTINUOUS
 62
     7
 10
115.4999999999999
 20
-31.0
 30
0.0
 11
115.4999999999999
 21
27.0
 31
0.0
  0
LINE
  5
248
  8
PATTERN_FILL
  6
CONTINUOUS
 62
     7
 10
116.9999999999999
 20
-31.0
 30
0.0
 11
116.9999999999999
 21
27.0
 31
0.0
  0
LINE
  5
249
  8
PATTERN_FILL
  6
CONTINUOUS
 62
     7
 10
118.4999999999999
 20
-31.0
 30
0.0
 11
118.4999999999999
 21
27.0
 31
0.0
  0
LINE
  5
24A
  8
PATTERN_FILL
  6
CONTINUOUS
 62
     7
 10
119.9999999999999
 20
-31.0
 30
0.0
 11
119.9999999999999
 21
27.0
 31
0.0
  0
LINE
  5
24B
  8
PATTERN_FILL
  6
CONTINUOUS
 62
     7
 10
121.4999999999999
 20
-31.0
 30
0.0
 11
121.4999999999999
 21
27.0
 31
0.0
  0
LINE
  5
24C
  8
PATTERN_FILL
  6
CONTINUOUS
 62
     7
 10
122.9999999999999
 20
-31.0
 30
0.0
 11
122.9999999999999
 21
27.0
 31
0.0
  0
LINE
  5
24D
  8
PATTERN_FILL
  6
CONTINUOUS
 62
     7
 10
124.4999999999999
 20
-31.0
 30
0.0
 11
124.4999999999999
 21
27.0
 31
0.0
  0
LINE
  5
24E
  8
PATTERN_FILL
  6
CONTINUOUS
 62
     7
 10
125.9999999999999
 20
-31.0
 30
0.0
 11
125.9999999999999
 21
27.0
 31
0.0
  0
LINE
  5
24F
  8
PATTERN_FILL
  6
CONTINUOUS
 62
     7
 10
127.4999999999999
 20
-31.0
 30
0.0
 11
127.4999999999999
 21
27.0
 31
0.0
  0
LINE
  5
250
  8
PATTERN_FILL
  6
CONTINUOUS
 62
     7
 10
129.0
 20
-31.0
 30
0.0
 11
129.0
 21
27.0
 31
0.0
  0
LINE
  5
251
  8
PATTERN_FILL
  6
CONTINUOUS
 62
     7
 10
130.49999999999989
 20
-31.0
 30
0.0
 11
130.49999999999989
 21
27.0
 31
0.0
  0
LINE
  5
252
  8
PATTERN_FILL
  6
CONTINUOUS
 62
     7
 10
132.0
 20
-31.0
 30
0.0
 11
132.0
 21
27.0
 31
0.0
  0
LINE
  5
253
  8
PATTERN_FILL
  6
CONTINUOUS
 62
     7
 10
133.49999999999989
 20
-31.0
 30
0.0
 11
133.49999999999989
 21
27.0
 31
0.0
  0
LINE
  5
254
  8
PATTERN_FILL
  6
CONTINUOUS
 62
     7
 10
134.99999999999989
 20
-31.0
 30
0.0
 11
134.99999999999989
 21
27.0
 31
0.0
  0
LINE
  5
255
  8
PATTERN_FILL
  6
CONTINUOUS
 62
     7
 10
88.291035625153896
 20
33.0
 30
0.0
 11
88.291035625153896
 21
33.792026779356192
 31
0.0
  0
LINE
  5
256
  8
PATTERN_FILL
  6
CONTINUOUS
 62
     7
 10
89.791035625153896
 20
33.0
 30
0.0
 11
89.791035625153896
 21
35.115645951679518
 31
0.0
  0
LINE
  5
257
  8
PATTERN_FILL
  6
CONTINUOUS
 62
     7
 10
91.291035625153924
 20
33.0
 30
0.0
 11
91.291035625153924
 21
36.243465015046368
 31
0.0
  0
LINE
  5
258
  8
PATTERN_FILL
  6
CONTINUOUS
 62
     7
 10
92.791035625153924
 20
33.0
 30
0.0
 11
92.791035625153924
 21
37.206602848703398
 31
0.0
  0
LINE
  5
259
  8
PATTERN_FILL
  6
CONTINUOUS
 62
     7
 10
94.291035625153924
 20
33.0
 30
0.0
 11
94.291035625153924
 21
38.026577175038092
 31
0.0
  0
LINE
  5
25A
  8
PATTERN_FILL
  6
CONTINUOUS
 62
     7
 10
95.791035625153924
 20
33.0
 30
0.0
 11
95.791035625153924
 21
38.718828146500456
 31
0.0
  0
LINE
  5
25B
  8
PATTERN_FILL
  6
CONTINUOUS
 62
     7
 10
97.291035625153924
 20
33.0
 30
0.0
 11
97.291035625153924
 21
39.294697668812361
 31
0.0
  0
LINE
  5
25C
  8
PATTERN_FILL
  6
CONTINUOUS
 62
     7
 10
98.791035625153924
 20
33.0
 30
0.0
 11
98.791035625153924
 21
39.762613847950867
 31
0.0
  0
LINE
  5
25D
  8
PATTERN_FILL
  6
CONTINUOUS
 62
     7
 10
100.2910356251539
 20
33.0
 30
0.0
 11
100.2910356251539
 21
40.128832594685313
 31
0.0
  0
LINE
  5
25E
  8
PATTERN_FILL
  6
CONTINUOUS
 62
     7
 10
101.7910356251539
 20
33.0
 30
0.0
 11
101.7910356251539
 21
40.397915582644814
 31
0.0
  0
LINE
  5
25F
  8
PATTERN_FILL
  6
CONTINUOUS
 62
     7
 10
103.2910356251539
 20
33.0
 30
0.0
 11
103.2910356251539
 21
40.541462354779433
 31
0.0
  0
LINE
  5
260
  8
PATTERN_FILL
  6
CONTINUOUS
 62
     7
 10
104.7910356251539
 20
33.0
 30
0.0
 11
104.7910356251539
 21
40.616151151459917
 31
0.0
  0
LINE
  5
261
  8
PATTERN_FILL
  6
CONTINUOUS
 62
     7
 10
106.2910356251539
 20
33.0
 30
0.0
 11
106.2910356251539
 21
40.690839948140429
 31
0.0
  0
LINE
  5
262
  8
PATTERN_FILL
  6
CONTINUOUS
 62
     7
 10
107.7910356251539
 20
33.0
 30
0.0
 11
107.7910356251539
 21
40.765528744820919
 31
0.0
  0
LINE
  5
263
  8
PATTERN_FILL
  6
CONTINUOUS
 62
     7
 10
109.2910356251539
 20
33.0
 30
0.0
 11
109.2910356251539
 21
40.840217541501431
 31
0.0
  0
LINE
  5
264
  8
PATTERN_FILL
  6
CONTINUOUS
 62
     7
 10
110.7910356251539
 20
33.0
 30
0.0
 11
110.7910356251539
 21
40.914906338181929
 31
0.0
  0
LINE
  5
265
  8
PATTERN_FILL
  6
CONTINUOUS
 62
     7
 10
112.2910356251539
 20
33.0
 30
0.0
 11
112.2910356251539
 21
40.989595134862419
 31
0.0
  0
LINE
  5
266
  8
PATTERN_FILL
  6
CONTINUOUS
 62
     7
 10
113.7910356251539
 20
33.0
 30
0.0
 11
113.7910356251539
 21
40.935716068457047
 31
0.0
  0
LINE
  5
267
  8
PATTERN_FILL
  6
CONTINUOUS
 62
     7
 10
115.2910356251539
 20
33.0
 30
0.0
 11
115.2910356251539
 21
40.861027271776557
 31
0.0
  0
LINE
  5
268
  8
PATTERN_FILL
  6
CONTINUOUS
 62
     7
 10
116.7910356251539
 20
33.0
 30
0.0
 11
116.7910356251539
 21
40.786338475096052
 31
0.0
  0
LINE
  5
269
  8
PATTERN_FILL
  6
CONTINUOUS
 62
     7
 10
118.2910356251539
 20
33.0
 30
0.0
 11
118.2910356251539
 21
40.71164967841554
 31
0.0
  0
LINE
  5
26A
  8
PATTERN_FILL
  6
CONTINUOUS
 62
     7
 10
119.7910356251539
 20
33.0
 30
0.0
 11
119.7910356251539
 21
40.63696088173505
 31
0.0
  0
LINE
  5
26B
  8
PATTERN_FILL
  6
CONTINUOUS
 62
     7
 10
121.2910356251539
 20
33.0
 30
0.0
 11
121.2910356251539
 21
40.562272085054573
 31
0.0
  0
LINE
  5
26C
  8
PATTERN_FILL
  6
CONTINUOUS
 62
     7
 10
122.7910356251539
 20
33.0
 30
0.0
 11
122.7910356251539
 21
40.456045250158461
 31
0.0
  0
LINE
  5
26D
  8
PATTERN_FILL
  6
CONTINUOUS
 62
     7
 10
124.2910356251539
 20
33.0
 30
0.0
 11
124.2910356251539
 21
40.21340634628605
 31
0.0
  0
LINE
  5
26E
  8
PATTERN_FILL
  6
CONTINUOUS
 62
     7
 10
125.7910356251539
 20
33.0
 30
0.0
 11
125.7910356251539
 21
39.874646033705112
 31
0.0
  0
LINE
  5
26F
  8
PATTERN_FILL
  6
CONTINUOUS
 62
     7
 10
127.2910356251539
 20
33.0
 30
0.0
 11
127.2910356251539
 21
39.435613693592607
 31
0.0
  0
LINE
  5
270
  8
PATTERN_FILL
  6
CONTINUOUS
 62
     7
 10
128.79103562515391
 20
33.0
 30
0.0
 11
128.79103562515391
 21
38.89056502156614
 31
0.0
  0
LINE
  5
271
  8
PATTERN_FILL
  6
CONTINUOUS
 62
     7
 10
130.29103562515391
 20
33.0
 30
0.0
 11
130.29103562515391
 21
38.231737968475812
 31
0.0
  0
LINE
  5
272
  8
PATTERN_FILL
  6
CONTINUOUS
 62
     7
 10
131.79103562515391
 20
33.0
 30
0.0
 11
131.79103562515391
 21
37.448698002719908
 31
0.0
  0
LINE
  5
273
  8
PATTERN_FILL
  6
CONTINUOUS
 62
     7
 10
133.29103562515391
 20
33.0
 30
0.0
 11
133.29103562515391
 21
36.527302519116752
 31
0.0
  0
LINE
  5
274
  8
PATTERN_FILL
  6
CONTINUOUS
 62
     7
 10
134.79103562515391
 20
33.0
 30
0.0
 11
134.79103562515391
 21
35.447994803814566
 31
0.0
  0
LINE
  5
275
  8
PATTERN_FILL
  6
CONTINUOUS
 62
     7
 10
136.29103562515391
 20
33.0
 30
0.0
 11
136.29103562515391
 21
34.182826120885103
 31
0.0
  0
LINE
  5
276
  8
PATTERN_FILL
  6
CONTINUOUS
 62
     7
 10
88.917621481194558
 20
34.371305290268957
 30
0.0
 11
136.0823785188054
 21
34.371305290268957
 31
0.0
  0
LINE
  5
277
  8
PATTERN_FILL
  6
CONTINUOUS
 62
     7
 10
90.769447346623394
 20
35.871305290268957
 30
0.0
 11
134.23055265337661
 21
35.871305290268957
 31
0.0
  0
LINE
  5
278
  8
PATTERN_FILL
  6
CONTINUOUS
 62
     7
 10
93.073305184664235
 20
37.371305290268957
 30
0.0
 11
131.92669481533571
 21
37.371305290268957
 31
0.0
  0
LINE
  5
279
  8
PATTERN_FILL
  6
CONTINUOUS
 62
     7
 10
96.160996167682129
 20
38.871305290268957
 30
0.0
 11
128.83900383231779
 21
38.871305290268957
 31
0.0
  0
LINE
  5
27A
  8
PATTERN_FILL
  6
CONTINUOUS
 62
     7
 10
101.6153370374014
 20
40.37130529026895
 30
0.0
 11
123.3846629625985
 21
40.37130529026895
 31
0.0
  0
LINE
  5
27B
  8
SPEC
  6
CONTINUOUS
 62
     7
 10
-164.99999999999989
 20
243.53181499999999
 30
0.0
 11
130.0
 21
243.53181499999999
 31
0.0
  0
LINE
  5
27C
  8
SPEC
  6
CONTINUOUS
 62
     7
 10
-164.99999999999989
 20
236.03181499999999
 30
0.0
 11
130.0
 21
236.03181499999999
 31
0.0
  0
LINE
  5
27D
  8
SPEC
  6
CONTINUOUS
 62
     7
 10
-164.99999999999989
 20
243.53181499999999
 30
0.0
 11
-164.99999999999989
 21
138.53181499999999
 31
0.0
  0
TEXT
  5
27E
  8
SPEC
 62
     7
 10
-162.49999999999989
 20
246.318355
 30
0.0
 40
4.8865234375000002
  1
仕様
 41
0.7
 11
-162.49999999999989
 21
251.20487843750001
 31
0.0
 73
     3
  0
LINE
  5
27F
  8
SPEC
  6
CONTINUOUS
 62
     7
 10
-99.999999999999957
 20
243.53181499999999
 30
0.0
 11
-99.999999999999957
 21
138.53181499999999
 31
0.0
  0
LINE
  5
280
  8
SPEC
  6
CONTINUOUS
 62
     7
 10
130.0
 20
243.53181499999999
 30
0.0
 11
130.0
 21
138.53181499999999
 31
0.0
  0
LINE
  5
281
  8
SPEC
  6
CONTINUOUS
 62
     7
 10
-164.99999999999989
 20
228.53181499999999
 30
0.0
 11
130.0
 21
228.53181499999999
 31
0.0
  0
LINE
  5
282
  8
SPEC
  6
CONTINUOUS
 62
     7
 10
-164.99999999999989
 20
221.03181499999999
 30
0.0
 11
130.0
 21
221.03181499999999
 31
0.0
  0
LINE
  5
283
  8
SPEC
  6
CONTINUOUS
 62
     7
 10
-164.99999999999989
 20
213.53181499999999
 30
0.0
 11
130.0
 21
213.53181499999999
 31
0.0
  0
LINE
  5
284
  8
SPEC
  6
CONTINUOUS
 62
     7
 10
-164.99999999999989
 20
206.03181499999999
 30
0.0
 11
130.0
 21
206.03181499999999
 31
0.0
  0
LINE
  5
285
  8
SPEC
  6
CONTINUOUS
 62
     7
 10
-164.99999999999989
 20
198.53181499999999
 30
0.0
 11
130.0
 21
198.53181499999999
 31
0.0
  0
LINE
  5
286
  8
SPEC
  6
CONTINUOUS
 62
     7
 10
-164.99999999999989
 20
191.03181499999999
 30
0.0
 11
130.0
 21
191.03181499999999
 31
0.0
  0
LINE
  5
287
  8
SPEC
  6
CONTINUOUS
 62
     7
 10
-164.99999999999989
 20
183.53181499999999
 30
0.0
 11
130.0
 21
183.53181499999999
 31
0.0
  0
LINE
  5
288
  8
SPEC
  6
CONTINUOUS
 62
     7
 10
-164.99999999999989
 20
176.03181499999999
 30
0.0
 11
130.0
 21
176.03181499999999
 31
0.0
  0
LINE
  5
289
  8
SPEC
  6
CONTINUOUS
 62
     7
 10
-164.99999999999989
 20
168.53181499999999
 30
0.0
 11
130.0
 21
168.53181499999999
 31
0.0
  0
LINE
  5
28A
  8
SPEC
  6
CONTINUOUS
 62
     7
 10
-164.99999999999989
 20
161.03181499999999
 30
0.0
 11
130.0
 21
161.03181499999999
 31
0.0
  0
LINE
  5
28B
  8
SPEC
  6
CONTINUOUS
 62
     7
 10
-164.99999999999989
 20
153.53181499999999
 30
0.0
 11
130.0
 21
153.53181499999999
 31
0.0
  0
LINE
  5
28C
  8
SPEC
  6
CONTINUOUS
 62
     7
 10
-164.99999999999989
 20
146.03181499999999
 30
0.0
 11
130.0
 21
146.03181499999999
 31
0.0
  0
LINE
  5
28D
  8
SPEC
  6
CONTINUOUS
 62
     7
 10
-164.99999999999989
 20
138.53181499999999
 30
0.0
 11
130.0
 21
138.53181499999999
 31
0.0
  0
TEXT
  5
28E
  8
SPEC
 62
     7
 10
-163.19999999999999
 20
147.60765055555549
 30
0.0
 40
3.8006293402777769
  1
質量
 41
0.7
 11
-163.19999999999999
 21
151.40827989583329
 31
0.0
 73
     3
  0
TEXT
  5
28F
  8
SPEC
 62
     7
 10
-163.19999999999999
 20
140.10765055555549
 30
0.0
 40
3.8006293402777769
  1
付属品
 41
0.7
 11
-163.19999999999999
 21
143.90827989583329
 31
0.0
 73
     3
  0
TEXT
  5
290
  8
SPEC
 62
     7
 10
-163.19999999999999
 20
237.60765055555549
 30
0.0
 40
3.8006293402777769
  1
形式
 41
0.7
 11
-163.19999999999999
 21
241.40827989583329
 31
0.0
 73
     3
  0
TEXT
  5
291
  8
SPEC
 62
     7
 10
-163.19999999999999
 20
230.10765055555549
 30
0.0
 40
3.8006293402777769
  1
指向特性
 41
0.7
 11
-163.19999999999999
 21
233.90827989583329
 31
0.0
 73
     3
  0
TEXT
  5
292
  8
SPEC
 62
     7
 10
-163.19999999999999
 20
222.60765055555549
 30
0.0
 40
3.8006293402777769
  1
周波数特性^I
 41
0.7
 11
-163.19999999999999
 21
226.40827989583329
 31
0.0
 73
     3
  0
TEXT
  5
293
  8
SPEC
 62
     7
 10
-163.19999999999999
 20
215.10765055555549
 30
0.0
 40
3.8006293402777769
  1
開回路感度
 41
0.7
 11
-163.19999999999999
 21
218.90827989583329
 31
0.0
 73
     3
  0
TEXT
  5
294
  8
SPEC
 62
     7
 10
-163.19999999999999
 20
207.60765055555549
 30
0.0
 40
3.8006293402777769
  1
最大音圧レベル
 41
0.7
 11
-163.19999999999999
 21
211.40827989583329
 31
0.0
 73
     3
  0
TEXT
  5
295
  8
SPEC
 62
     7
 10
-163.19999999999999
 20
200.10765055555549
 30
0.0
 40
3.8006293402777769
  1
等価雑音レベル
 41
0.7
 11
-163.19999999999999
 21
203.90827989583329
 31
0.0
 73
     3
  0
TEXT
  5
296
  8
SPEC
 62
     7
 10
-163.19999999999999
 20
192.60765055555549
 30
0.0
 40
3.8006293402777769
  1
パッド
 41
0.7
 11
-163.19999999999999
 21
196.40827989583329
 31
0.0
 73
     3
  0
TEXT
  5
297
  8
SPEC
 62
     7
 10
-163.19999999999999
 20
185.10765055555549
 30
0.0
 40
3.8006293402777769
  1
ローカットフィルター
 41
0.7
 11
-163.19999999999999
 21
188.90827989583329
 31
0.0
 73
     3
  0
TEXT
  5
298
  8
SPEC
 62
     7
 10
-163.19999999999999
 20
177.60765055555549
 30
0.0
 40
3.8006293402777769
  1
インピーダンス
 41
0.7
 11
-163.19999999999999
 21
181.40827989583329
 31
0.0
 73
     3
  0
TEXT
  5
299
  8
SPEC
 62
     7
 10
-163.19999999999999
 20
170.10765055555549
 30
0.0
 40
3.8006293402777769
  1
電源
 41
0.7
 11
-163.19999999999999
 21
173.90827989583329
 31
0.0
 73
     3
  0
TEXT
  5
29A
  8
SPEC
 62
     7
 10
-163.19999999999999
 20
162.60765055555549
 30
0.0
 40
3.8006293402777769
  1
コネクター
 41
0.7
 11
-163.19999999999999
 21
166.40827989583329
 31
0.0
 73
     3
  0
TEXT
  5
29B
  8
SPEC
 62
     7
 10
-163.19999999999999
 20
155.10765055555549
 30
0.0
 40
3.8006293402777769
  1
寸法(\U+03C6\U+00D7全長)
 41
0.7
 11
-163.19999999999999
 21
158.90827989583329
 31
0.0
 73
     3
  0
TEXT
  5
29C
  8
SPEC
 62
     7
 10
-98.200000000000003
 20
140.10765055555549
 30
0.0
 40
3.8006293402777769
  1
サスペンション付ホルダー、交換用サスペンションゴム、キャリングハードケース
 41
0.7
 11
-98.200000000000003
 21
143.90827989583329
 31
0.0
 73
     3
  0
TEXT
  5
29D
  8
SPEC
 62
     7
 10
-98.200000000000003
 20
147.60765055555549
 30
0.0
 40
3.8006293402777769
  1
512g
 41
0.7
 11
-98.200000000000003
 21
151.40827989583329
 31
0.0
 73
     3
  0
TEXT
  5
29E
  8
SPEC
 62
     7
 10
-98.200000000000003
 20
237.60765055555549
 30
0.0
 40
3.8006293402777769
  1
コンデンサー型 
 41
0.7
 11
-98.200000000000003
 21
241.40827989583329
 31
0.0
 73
     3
  0
TEXT
  5
29F
  8
SPEC
 62
     7
 10
-98.200000000000003
 20
230.10765055555549
 30
0.0
 40
3.8006293402777769
  1
カーディオイド/無指向性/双指向性
 41
0.7
 11
-98.200000000000003
 21
233.90827989583329
 31
0.0
 73
     3
  0
TEXT
  5
2A0
  8
SPEC
 62
     7
 10
-98.200000000000003
 20
222.60765055555549
 30
0.0
 40
3.8006293402777769
  1
20Hz～20kHz
 41
0.7
 11
-98.200000000000003
 21
226.40827989583329
 31
0.0
 73
     3
  0
TEXT
  5
2A1
  8
SPEC
 62
     7
 10
-98.200000000000003
 20
215.10765055555549
 30
0.0
 40
3.8006293402777769
  1
-31dB re 1V/Pa
 41
0.7
 11
-98.200000000000003
 21
218.90827989583329
 31
0.0
 73
     3
  0
TEXT
  5
2A2
  8
SPEC
 62
     7
 10
-98.200000000000003
 20
207.60765055555549
 30
0.0
 40
3.8006293402777769
  1
135dB SPL(パッドOFF、THD 0.5%%%)
 41
0.7
 11
-98.200000000000003
 21
211.40827989583329
 31
0.0
 73
     3
  0
TEXT
  5
2A3
  8
SPEC
 62
     7
 10
-98.200000000000003
 20
200.10765055555549
 30
0.0
 40
3.8006293402777769
  1
15dB SPL(Aウェイト)
 41
0.7
 11
-98.200000000000003
 21
203.90827989583329
 31
0.0
 73
     3
  0
TEXT
  5
2A4
  8
SPEC
 62
     7
 10
-98.200000000000003
 20
192.60765055555549
 30
0.0
 40
3.8006293402777769
  1
0/20dB
 41
0.7
 11
-98.200000000000003
 21
196.40827989583329
 31
0.0
 73
     3
  0
TEXT
  5
2A5
  8
SPEC
 62
     7
 10
-98.200000000000003
 20
185.10765055555549
 30
0.0
 40
3.8006293402777769
  1
Flat/300Hz(12dB/oct)
 41
0.7
 11
-98.200000000000003
 21
188.90827989583329
 31
0.0
 73
     3
  0
TEXT
  5
2A6
  8
SPEC
 62
     7
 10
-98.200000000000003
 20
177.60765055555549
 30
0.0
 40
3.8006293402777769
  1
200\U+03A9以下
 41
0.7
 11
-98.200000000000003
 21
181.40827989583329
 31
0.0
 73
     3
  0
TEXT
  5
2A7
  8
SPEC
 62
     7
 10
-98.200000000000003
 20
170.10765055555549
 30
0.0
 40
3.8006293402777769
  1
ファンタムDC48V/3mA以下
 41
0.7
 11
-98.200000000000003
 21
173.90827989583329
 31
0.0
 73
     3
  0
TEXT
  5
2A8
  8
SPEC
 62
     7
 10
-98.200000000000003
 20
162.60765055555549
 30
0.0
 40
3.8006293402777769
  1
XLR3ピン
 41
0.7
 11
-98.200000000000003
 21
166.40827989583329
 31
0.0
 73
     3
  0
TEXT
  5
2A9
  8
SPEC
 62
     7
 10
-98.200000000000003
 20
155.10765055555549
 30
0.0
 40
3.8006293402777769
  1
54\U+00D7166mm(除突起部)
 41
0.7
 11
-98.200000000000003
 21
158.90827989583329
 31
0.0
 73
     3
  0
TEXT
  5
2AA
  8
DIMNSIONS
 62
     7
 10
-40.0
 20
-231.929205
 30
0.0
 40
4.8865234375000002
  1
(単位：mm)
 41
0.7
 11
-40.0
 21
-227.04268156250001
 31
0.0
 73
     3
  0
LINE
  5
2AB
  8
DIMNSIONS
  6
CONTINUOUS
 62
     7
 10
-51.25
 20
-125.0
 30
0.0
 11
-79.0
 21
-125.0
 31
0.0
  0
LINE
  5
2AC
  8
DIMNSIONS
  6
CONTINUOUS
 62
     7
 10
-41.500000000000007
 20
41.0
 30
0.0
 11
-79.0
 21
41.0
 31
0.0
  0
LINE
  5
2AD
  8
DIMNSIONS
  6
CONTINUOUS
 62
     7
 10
-75.0
 20
-125.0
 30
0.0
 11
-75.0
 21
41.0
 31
0.0
  0
LINE
  5
2AE
  8
DIMNSIONS
  6
CONTINUOUS
 62
     7
 10
-75.0
 20
-125.0
 30
0.0
 11
-76.340079590300505
 21
-119.99875488281251
 31
0.0
  0
LINE
  5
2AF
  8
DIMNSIONS
  6
CONTINUOUS
 62
     7
 10
-75.0
 20
-125.0
 30
0.0
 11
-73.659920409699509
 21
-119.99875488281251
 31
0.0
  0
LINE
  5
2B0
  8
DIMNSIONS
  6
CONTINUOUS
 62
     7
 10
-75.0
 20
41.0
 30
0.0
 11
-73.659920409699509
 21
35.998754882812491
 31
0.0
  0
LINE
  5
2B1
  8
DIMNSIONS
  6
CONTINUOUS
 62
     7
 10
-75.0
 20
41.0
 30
0.0
 11
-76.340079590300505
 21
35.998754882812491
 31
0.0
  0
TEXT
  5
2B2
  8
DIMNSIONS
 62
     7
 10
-76.987777807215835
 20
-47.291666666666657
 30
0.0
 40
5.4294706479219572
  1
166
 50
90.0
 41
0.7
 11
-82.417248455137809
 21
-47.291666666666657
 31
0.0
 73
     3
  0
LINE
  5
2B3
  8
DIMNSIONS
  6
CONTINUOUS
 62
     7
 10
-60.048562976555587
 20
72.467624682296261
 30
0.0
 11
-75.0
 21
62.5
 31
0.0
  0
LINE
  5
2B4
  8
DIMNSIONS
  6
CONTINUOUS
 62
     7
 10
-60.048562976555587
 20
72.467624682296261
 30
0.0
 11
-63.445420091279452
 21
68.559987573674036
 31
0.0
  0
LINE
  5
2B5
  8
DIMNSIONS
  6
CONTINUOUS
 62
     7
 10
-60.048562976555587
 20
72.467624682296261
 30
0.0
 11
-64.944146085243489
 21
70.781940234820567
 31
0.0
  0
LINE
  5
2B6
  8
DIMNSIONS
  6
CONTINUOUS
 62
     7
 10
-75.0
 20
62.5
 30
0.0
 11
-79.0
 21
62.5
 31
0.0
  0
TEXT
  5
2B7
  8
DIMNSIONS
 62
     7
 10
-100.1666666666666
 20
59.959999924302082
 30
0.0
 40
5.4294706479219572
  1
\U+03C654.2
 41
0.7
 11
-100.1666666666666
 21
65.389470572224042
 31
0.0
 73
     3
  0
TEXT
  5
2B8
  8
DATA
 62
     7
 10
99.999999999999957
 20
-234.20640499999999
 30
0.0
 40
4.8865234375000002
  1
P420
 41
0.7
 11
99.999999999999957
 21
-229.3198815625
 31
0.0
 73
     3
  0
TEXT
  5
2B9
  8
DATA
 62
     7
 10
99.999999999999957
 20
-219.5646160760584
 30
0.0
 40
4.8865234375000002
  1
AKG
 41
0.7
 11
99.999999999999957
 21
-214.67809263855841
 31
0.0
 73
     3
  0
TEXT
  5
2BA
  8
DATA
 62
     7
 10
-175.0
 20
-240.7156294444444
 30
0.0
 40
3.8006293402777769
  1
※仕様及び外観は予告なく変更されることがあります。
 41
0.7
 11
-175.0
 21
-236.91500010416669
 31
0.0
 73
     3
  0
TEXT
  5
2BB
  8
DATA
 62
     7
 10
-175.0
 20
-245.65451833333341
 30
0.0
 40
3.8006293402777769
  1
　また、同一商品でも若干の個体差があることがあります。ご了承ください。
 41
0.7
 11
-175.0
 21
-241.85388899305559
 31
0.0
 73
     3
  0
LINE
  5
2BC
  8
DATA
  6
CONTINUOUS
 62
     7
 10
-64.600000000000023
 20
-65.000000000000284
 30
0.0
 11
-64.600000000000023
 21
-44.79999999999999
 31
0.0
  0
LINE
  5
2BD
  8
DATA
  6
CONTINUOUS
 62
     7
 10
-64.600000000000023
 20
-41.0
 30
0.0
 11
-64.600000000000023
 21
32.0
 31
0.0
  0
LINE
  5
2BE
  8
DATA
  6
CONTINUOUS
 62
     7
 10
-10.400000000000009
 20
32.0
 30
0.0
 11
-10.400000000000009
 21
-41.0
 31
0.0
  0
LINE
  5
2BF
  8
DATA
  6
CONTINUOUS
 62
     7
 10
-10.400000000000009
 20
-44.799999999999983
 30
0.0
 11
-10.400000000000009
 21
-65.000000000000952
 31
0.0
  0
LINE
  5
2C0
  8
DATA
  6
CONTINUOUS
 62
     7
 10
-27.750000000000011
 20
-125.0
 30
0.0
 11
-47.249999999999993
 21
-125.0
 31
0.0
  0
CIRCLE
  5
2C1
  8
DATA
  6
CONTINUOUS
 62
     7
 10
-37.500000000000007
 20
87.5
 30
0.0
 40
27.100000000000009
  0
CIRCLE
  5
2C2
  8
DATA
  6
CONTINUOUS
 62
     7
 10
-37.500000000000007
 20
87.5
 30
0.0
 40
25.0
  0
LINE
  5
2C3
  8
DATA
  6
CONTINUOUS
 62
     7
 10
-54.000000000000028
 20
-120.5
 30
0.0
 11
-20.999999999999929
 21
-120.5
 31
0.0
  0
LINE
  5
2C4
  8
DATA
  6
CONTINUOUS
 62
     7
 10
-47.25
 20
-125.0
 30
0.0
 11
-47.25
 21
-120.5
 31
0.0
  0
LINE
  5
2C5
  8
DATA
  6
CONTINUOUS
 62
     7
 10
-27.750000000000011
 20
-125.0
 30
0.0
 11
-27.750000000000011
 21
-120.5
 31
0.0
  0
LINE
  5
2C6
  8
DATA
  6
CONTINUOUS
 62
     7
 10
-63.600000000000023
 20
33.0
 30
0.0
 11
-11.400000000000009
 21
33.0
 31
0.0
  0
LINE
  5
2C7
  8
DATA
  6
CONTINUOUS
 62
     7
 10
-37.500000000000021
 20
41.0
 30
0.0
 11
-47.34999999999993
 21
40.509543568464707
 31
0.0
  0
ARC
  5
2C8
  8
DATA
  6
CONTINUOUS
 62
     7
 10
-44.588867135773242
 20
15.90231764166318
 30
0.0
 40
24.761652257201391
 50
96.402277013708627
 51
136.33106177991939
  0
LINE
  5
2C9
  8
DATA
  6
CONTINUOUS
 62
     7
 10
-37.500000000000021
 20
41.0
 30
0.0
 11
-27.650000000000091
 21
40.509543568464707
 31
0.0
  0
ARC
  5
2CA
  8
DATA
  6
CONTINUOUS
 62
     7
 10
-30.411132864226811
 20
15.90231764166318
 30
0.0
 40
24.761652257201391
 50
43.668938220080577
 51
83.597722986291359
  0
LINE
  5
2CB
  8
DATA
  6
CONTINUOUS
 62
     7
 10
-64.600000000000023
 20
27.0
 30
0.0
 11
-10.400000000000009
 21
27.0
 31
0.0
  0
ARC
  5
2CC
  8
DATA
  6
CONTINUOUS
 62
     7
 10
-63.600000000000023
 20
32.0
 30
0.0
 40
1.0
 50
90.0
 51
180.0
  0
ARC
  5
2CD
  8
DATA
  6
CONTINUOUS
 62
     7
 10
-11.400000000000009
 20
32.0
 30
0.0
 40
1.0
 50
0.0
 51
90.0
  0
LINE
  5
2CE
  8
DATA
  6
CONTINUOUS
 62
     7
 10
-64.600000000000023
 20
-31.0
 30
0.0
 11
-10.400000000000009
 21
-31.0
 31
0.0
  0
LINE
  5
2CF
  8
DATA
  6
CONTINUOUS
 62
     7
 10
-61.000000000000021
 20
-31.0
 30
0.0
 11
-61.000000000000021
 21
27.0
 31
0.0
  0
LINE
  5
2D0
  8
DATA
  6
CONTINUOUS
 62
     7
 10
-14.00000000000002
 20
27.0
 30
0.0
 11
-14.00000000000002
 21
-31.0
 31
0.0
  0
ARC
  5
2D1
  8
DATA
  6
CONTINUOUS
 62
     7
 10
138.29403299560559
 20
-55.011319824262713
 30
0.0
 40
203.139760649842
 50
182.8184541083383
 51
198.80706267137739
  0
ARC
  5
2D2
  8
DATA
  6
CONTINUOUS
 62
     7
 10
-213.2940329956057
 20
-55.011319824262713
 30
0.0
 40
203.139760649842
 50
341.19293732862258
 51
357.18154589166159
  0
LINE
  5
2D3
  8
DATA
  6
CONTINUOUS
 62
     7
 10
-64.600000000000023
 20
-41.0
 30
0.0
 11
-10.400000000000009
 21
-41.0
 31
0.0
  0
LINE
  5
2D4
  8
DATA
  6
CONTINUOUS
 62
     7
 10
-64.600000000000023
 20
-44.79999999999999
 30
0.0
 11
-10.400000000000009
 21
-44.79999999999999
 31
0.0
  0
LINE
  5
2D5
  8
DATA
  6
CONTINUOUS
 62
     7
 10
-63.500000000000021
 20
-41.0
 30
0.0
 11
-63.500000000000021
 21
-44.79999999999999
 31
0.0
  0
LINE
  5
2D6
  8
DATA
  6
CONTINUOUS
 62
     7
 10
-11.50000000000002
 20
-41.0
 30
0.0
 11
-11.50000000000002
 21
-44.79999999999999
 31
0.0
  0
TEXT
  5
2D7
  8
DATA
 62
     7
 10
-43.156938309927547
 20
-88.761950397282874
 30
0.0
 40
5.9724175347222221
  1
AKG
 41
0.7
 11
-43.156938309927547
 21
-82.789532862560648
 31
0.0
 73
     3
  0
TEXT
  5
2D8
  8
DATA
 62
     7
 10
-41.74014277396973
 20
-93.599459719831444
 30
0.0
 40
3.2576822916666659
  1
P420
 41
0.7
 11
-41.74014277396973
 21
-90.341777428164775
 31
0.0
 73
     3
  0
CIRCLE
  5
2D9
  8
DATA
  6
CONTINUOUS
 62
     7
 10
-37.500000000000007
 20
-164.5
 30
0.0
 40
27.100000000000009
  0
CIRCLE
  5
2DA
  8
DATA
  6
CONTINUOUS
 62
     7
 10
-37.500000000000007
 20
-164.5
 30
0.0
 40
9.749999999999984
  0
CIRCLE
  5
2DB
  8
DATA
  6
CONTINUOUS
 62
     7
 10
-37.500000000000007
 20
-164.5
 30
0.0
 40
16.500000000000021
  0
ARC
  5
2DC
  8
DATA
  6
CONTINUOUS
 62
     7
 10
-37.500000000002082
 20
-164.49999999999869
 30
0.0
 40
12.999999999997559
 50
159.7024302851795
 51
326.4729815664956
  0
ARC
  5
2DD
  8
DATA
  6
CONTINUOUS
 62
     7
 10
-37.500000000002082
 20
-164.49999999999869
 30
0.0
 40
12.99999999999757
 50
339.70243028517939
 51
146.4729815664933
  0
ARC
  5
2DE
  8
DATA
  6
CONTINUOUS
 62
     7
 10
-37.500000000000313
 20
-164.5000000000004
 30
0.0
 40
8.0000000000004423
 50
56.738771955344731
 51
37.378428362345261
  0
CIRCLE
  5
2DF
  8
DATA
  6
CONTINUOUS
 62
     7
 10
-37.528227038108433
 20
-42.900000000000013
 30
0.0
 40
1.2999999999999969
  0
ARC
  5
2E0
  8
DATA
  6
CONTINUOUS
 62
     7
 10
-49.092105579898217
 20
-158.6158613013888
 30
0.0
 40
1.500000000000004
 50
59.780343746162501
 51
246.39506810550711
  0
ARC
  5
2E1
  8
DATA
  6
CONTINUOUS
 62
     7
 10
-25.90789442010152
 20
-170.38413869861071
 30
0.0
 40
1.500000000000056
 50
239.7803437461655
 51
66.395068105509395
  0
CIRCLE
  5
2E2
  8
DATA
  6
CONTINUOUS
 62
     7
 10
-41.399999999999991
 20
-164.5
 30
0.0
 40
1.200000000000002
  0
CIRCLE
  5
2E3
  8
DATA
  6
CONTINUOUS
 62
     7
 10
-33.600000000000001
 20
-164.5
 30
0.0
 40
1.200000000000002
  0
CIRCLE
  5
2E4
  8
DATA
  6
CONTINUOUS
 62
     7
 10
-37.5
 20
-168.40000000000001
 30
0.0
 40
1.200000000000002
  0
ARC
  5
2E5
  8
DATA
  6
CONTINUOUS
 62
     7
 10
-32.05000000000004
 20
-158.64359325183091
 30
0.0
 40
1.3499999999999941
 50
312.21851426059447
 51
141.89868605709671
  0
LINE
  5
2E6
  8
DATA
  6
CONTINUOUS
 62
     7
 10
10.399999999999981
 20
-65.000000000000284
 30
0.0
 11
10.399999999999981
 21
-44.79999999999999
 31
0.0
  0
LINE
  5
2E7
  8
DATA
  6
CONTINUOUS
 62
     7
 10
10.399999999999981
 20
-41.0
 30
0.0
 11
10.399999999999981
 21
-31.0
 31
0.0
  0
LINE
  5
2E8
  8
DATA
  6
CONTINUOUS
 62
     7
 10
10.399999999999981
 20
27.0
 30
0.0
 11
10.399999999999981
 21
32.0
 31
0.0
  0
LINE
  5
2E9
  8
DATA
  6
CONTINUOUS
 62
     7
 10
64.599999999999994
 20
32.0
 30
0.0
 11
64.599999999999994
 21
27.0
 31
0.0
  0
LINE
  5
2EA
  8
DATA
  6
CONTINUOUS
 62
     7
 10
64.599999999999994
 20
-31.0
 30
0.0
 11
64.599999999999994
 21
-41.0
 31
0.0
  0
LINE
  5
2EB
  8
DATA
  6
CONTINUOUS
 62
     7
 10
64.599999999999994
 20
-44.799999999999983
 30
0.0
 11
64.599999999999994
 21
-65.000000000000952
 31
0.0
  0
LINE
  5
2EC
  8
DATA
  6
CONTINUOUS
 62
     7
 10
47.25
 20
-125.0
 30
0.0
 11
27.75
 21
-125.0
 31
0.0
  0
LINE
  5
2ED
  8
DATA
  6
CONTINUOUS
 62
     7
 10
20.999999999999972
 20
-120.5
 30
0.0
 11
54.000000000000057
 21
-120.5
 31
0.0
  0
LINE
  5
2EE
  8
DATA
  6
CONTINUOUS
 62
     7
 10
27.75
 20
-125.0
 30
0.0
 11
27.75
 21
-120.5
 31
0.0
  0
LINE
  5
2EF
  8
DATA
  6
CONTINUOUS
 62
     7
 10
47.25
 20
-125.0
 30
0.0
 11
47.25
 21
-120.5
 31
0.0
  0
LINE
  5
2F0
  8
DATA
  6
CONTINUOUS
 62
     7
 10
11.399999999999981
 20
33.0
 30
0.0
 11
63.600000000000001
 21
33.0
 31
0.0
  0
LINE
  5
2F1
  8
DATA
  6
CONTINUOUS
 62
     7
 10
37.499999999999957
 20
41.0
 30
0.0
 11
27.65000000000007
 21
40.509543568464707
 31
0.0
  0
ARC
  5
2F2
  8
DATA
  6
CONTINUOUS
 62
     7
 10
30.411132864226769
 20
15.90231764166318
 30
0.0
 40
24.761652257201391
 50
96.402277013708627
 51
136.33106177991939
  0
LINE
  5
2F3
  8
DATA
  6
CONTINUOUS
 62
     7
 10
37.499999999999957
 20
41.0
 30
0.0
 11
47.349999999999902
 21
40.509543568464707
 31
0.0
  0
ARC
  5
2F4
  8
DATA
  6
CONTINUOUS
 62
     7
 10
44.588867135773199
 20
15.90231764166318
 30
0.0
 40
24.761652257201391
 50
43.668938220080577
 51
83.597722986291359
  0
LINE
  5
2F5
  8
DATA
  6
CONTINUOUS
 62
     7
 10
10.399999999999981
 20
27.0
 30
0.0
 11
32.499999999999957
 21
27.0
 31
0.0
  0
ARC
  5
2F6
  8
DATA
  6
CONTINUOUS
 62
     7
 10
11.399999999999981
 20
32.0
 30
0.0
 40
1.0
 50
90.0
 51
180.0
  0
ARC
  5
2F7
  8
DATA
  6
CONTINUOUS
 62
     7
 10
63.600000000000001
 20
32.0
 30
0.0
 40
1.0
 50
0.0
 51
90.0
  0
ARC
  5
2F8
  8
DATA
  6
CONTINUOUS
 62
     7
 10
213.2940329956057
 20
-55.011319824262713
 30
0.0
 40
203.139760649842
 50
182.8184541083383
 51
198.80706267137739
  0
ARC
  5
2F9
  8
DATA
  6
CONTINUOUS
 62
     7
 10
-138.2940329956057
 20
-55.011319824262713
 30
0.0
 40
203.139760649842
 50
341.19293732862258
 51
357.18154589166159
  0
LINE
  5
2FA
  8
DATA
  6
CONTINUOUS
 62
     7
 10
10.399999999999981
 20
-41.0
 30
0.0
 11
64.599999999999994
 21
-41.0
 31
0.0
  0
LINE
  5
2FB
  8
DATA
  6
CONTINUOUS
 62
     7
 10
10.399999999999981
 20
-44.79999999999999
 30
0.0
 11
64.599999999999994
 21
-44.79999999999999
 31
0.0
  0
LINE
  5
2FC
  8
DATA
  6
CONTINUOUS
 62
     7
 10
11.49999999999998
 20
-41.0
 30
0.0
 11
11.49999999999998
 21
-44.79999999999999
 31
0.0
  0
LINE
  5
2FD
  8
DATA
  6
CONTINUOUS
 62
     7
 10
63.499999999999972
 20
-41.0
 30
0.0
 11
63.499999999999972
 21
-44.79999999999999
 31
0.0
  0
ARC
  5
2FE
  8
DATA
  6
CONTINUOUS
 62
     7
 10
11.15208681312841
 20
-42.900000000000013
 30
0.0
 40
1.2999999999999969
 50
89.999999999996206
 51
270.0
  0
CIRCLE
  5
2FF
  8
DATA
  6
CONTINUOUS
 62
     7
 10
-37.500000000000021
 20
-66.0
 30
0.0
 40
9.0
  0
LINE
  5
300
  8
DATA
  6
CONTINUOUS
 62
     7
 10
-152.09999999999999
 20
-65.000000000000284
 30
0.0
 11
-152.09999999999999
 21
-44.79999999999999
 31
0.0
  0
LINE
  5
301
  8
DATA
  6
CONTINUOUS
 62
     7
 10
-152.09999999999999
 20
-41.0
 30
0.0
 11
-152.09999999999999
 21
-31.0
 31
0.0
  0
LINE
  5
302
  8
DATA
  6
CONTINUOUS
 62
     7
 10
-152.09999999999999
 20
27.0
 30
0.0
 11
-152.09999999999999
 21
32.0
 31
0.0
  0
LINE
  5
303
  8
DATA
  6
CONTINUOUS
 62
     7
 10
-97.900000000000006
 20
32.0
 30
0.0
 11
-97.900000000000006
 21
27.0
 31
0.0
  0
LINE
  5
304
  8
DATA
  6
CONTINUOUS
 62
     7
 10
-97.900000000000006
 20
-31.0
 30
0.0
 11
-97.900000000000006
 21
-41.0
 31
0.0
  0
LINE
  5
305
  8
DATA
  6
CONTINUOUS
 62
     7
 10
-97.900000000000006
 20
-44.799999999999983
 30
0.0
 11
-97.900000000000006
 21
-65.000000000000952
 31
0.0
  0
LINE
  5
306
  8
DATA
  6
CONTINUOUS
 62
     7
 10
-115.25
 20
-125.0
 30
0.0
 11
-134.75
 21
-125.0
 31
0.0
  0
LINE
  5
307
  8
DATA
  6
CONTINUOUS
 62
     7
 10
-141.5
 20
-120.5
 30
0.0
 11
-108.4999999999999
 21
-120.5
 31
0.0
  0
LINE
  5
308
  8
DATA
  6
CONTINUOUS
 62
     7
 10
-134.75
 20
-125.0
 30
0.0
 11
-134.75
 21
-120.5
 31
0.0
  0
LINE
  5
309
  8
DATA
  6
CONTINUOUS
 62
     7
 10
-115.25
 20
-125.0
 30
0.0
 11
-115.25
 21
-120.5
 31
0.0
  0
LINE
  5
30A
  8
DATA
  6
CONTINUOUS
 62
     7
 10
-151.09999999999999
 20
33.0
 30
0.0
 11
-98.900000000000006
 21
33.0
 31
0.0
  0
LINE
  5
30B
  8
DATA
  6
CONTINUOUS
 62
     7
 10
-125.0
 20
41.0
 30
0.0
 11
-134.84999999999991
 21
40.509543568464707
 31
0.0
  0
ARC
  5
30C
  8
DATA
  6
CONTINUOUS
 62
     7
 10
-132.0888671357732
 20
15.90231764166318
 30
0.0
 40
24.761652257201391
 50
96.402277013708627
 51
136.33106177991939
  0
LINE
  5
30D
  8
DATA
  6
CONTINUOUS
 62
     7
 10
-125.0
 20
41.0
 30
0.0
 11
-115.15000000000011
 21
40.509543568464707
 31
0.0
  0
ARC
  5
30E
  8
DATA
  6
CONTINUOUS
 62
     7
 10
-117.9111328642268
 20
15.90231764166318
 30
0.0
 40
24.761652257201391
 50
43.668938220080577
 51
83.597722986291359
  0
LINE
  5
30F
  8
DATA
  6
CONTINUOUS
 62
     7
 10
-152.09999999999999
 20
27.0
 30
0.0
 11
-130.0
 21
27.0
 31
0.0
  0
ARC
  5
310
  8
DATA
  6
CONTINUOUS
 62
     7
 10
-151.09999999999999
 20
32.0
 30
0.0
 40
1.0
 50
90.0
 51
180.0
  0
ARC
  5
311
  8
DATA
  6
CONTINUOUS
 62
     7
 10
-98.900000000000006
 20
32.0
 30
0.0
 40
1.0
 50
0.0
 51
90.0
  0
ARC
  5
312
  8
DATA
  6
CONTINUOUS
 62
     7
 10
50.79403299560564
 20
-55.011319824262713
 30
0.0
 40
203.139760649842
 50
182.8184541083383
 51
198.80706267137739
  0
ARC
  5
313
  8
DATA
  6
CONTINUOUS
 62
     7
 10
-300.79403299560568
 20
-55.011319824262713
 30
0.0
 40
203.139760649842
 50
341.19293732862258
 51
357.18154589166159
  0
LINE
  5
314
  8
DATA
  6
CONTINUOUS
 62
     7
 10
-152.09999999999999
 20
-41.0
 30
0.0
 11
-97.900000000000006
 21
-41.0
 31
0.0
  0
LINE
  5
315
  8
DATA
  6
CONTINUOUS
 62
     7
 10
-152.09999999999999
 20
-44.79999999999999
 30
0.0
 11
-97.900000000000006
 21
-44.79999999999999
 31
0.0
  0
LINE
  5
316
  8
DATA
  6
CONTINUOUS
 62
     7
 10
-151.0
 20
-41.0
 30
0.0
 11
-151.0
 21
-44.79999999999999
 31
0.0
  0
LINE
  5
317
  8
DATA
  6
CONTINUOUS
 62
     7
 10
-99.000000000000057
 20
-41.0
 30
0.0
 11
-99.000000000000057
 21
-44.79999999999999
 31
0.0
  0
ARC
  5
318
  8
DATA
  6
CONTINUOUS
 62
     7
 10
-101.2140664358116
 20
-42.900000000000013
 30
0.0
 40
1.3000000000000109
 50
269.99999999999881
 51
90.000000000000028
  0
LINE
  5
319
  8
DATA
  6
CONTINUOUS
 62
     7
 10
11.15208681312841
 20
-41.600000000000009
 30
0.0
 11
11.49999999999998
 21
-41.647420096600293
 31
0.0
  0
LINE
  5
31A
  8
DATA
  6
CONTINUOUS
 62
     7
 10
11.15208681312841
 20
-44.200000000000003
 30
0.0
 11
11.49999999999998
 21
-44.152579903399733
 31
0.0
  0
LINE
  5
31B
  8
DATA
  6
CONTINUOUS
 62
     7
 10
85.399999999999963
 20
-65.000000000000284
 30
0.0
 11
85.399999999999963
 21
-44.79999999999999
 31
0.0
  0
LINE
  5
31C
  8
DATA
  6
CONTINUOUS
 62
     7
 10
85.399999999999963
 20
-41.0
 30
0.0
 11
85.399999999999963
 21
32.0
 31
0.0
  0
LINE
  5
31D
  8
DATA
  6
CONTINUOUS
 62
     7
 10
139.59999999999999
 20
32.0
 30
0.0
 11
139.59999999999999
 21
-41.0
 31
0.0
  0
LINE
  5
31E
  8
DATA
  6
CONTINUOUS
 62
     7
 10
139.59999999999999
 20
-44.799999999999983
 30
0.0
 11
139.59999999999999
 21
-65.000000000000952
 31
0.0
  0
LINE
  5
31F
  8
DATA
  6
CONTINUOUS
 62
     7
 10
122.2499999999999
 20
-125.0
 30
0.0
 11
102.75
 21
-125.0
 31
0.0
  0
LINE
  5
320
  8
DATA
  6
CONTINUOUS
 62
     7
 10
95.999999999999957
 20
-120.5
 30
0.0
 11
129.0
 21
-120.5
 31
0.0
  0
LINE
  5
321
  8
DATA
  6
CONTINUOUS
 62
     7
 10
102.7499999999999
 20
-125.0
 30
0.0
 11
102.7499999999999
 21
-120.5
 31
0.0
  0
LINE
  5
322
  8
DATA
  6
CONTINUOUS
 62
     7
 10
122.2499999999999
 20
-125.0
 30
0.0
 11
122.2499999999999
 21
-120.5
 31
0.0
  0
LINE
  5
323
  8
DATA
  6
CONTINUOUS
 62
     7
 10
86.399999999999963
 20
33.0
 30
0.0
 11
138.59999999999999
 21
33.0
 31
0.0
  0
LINE
  5
324
  8
DATA
  6
CONTINUOUS
 62
     7
 10
112.4999999999999
 20
41.0
 30
0.0
 11
102.65000000000001
 21
40.509543568464707
 31
0.0
  0
ARC
  5
325
  8
DATA
  6
CONTINUOUS
 62
     7
 10
105.4111328642267
 20
15.90231764166318
 30
0.0
 40
24.761652257201391
 50
96.402277013708627
 51
136.33106177991939
  0
LINE
  5
326
  8
DATA
  6
CONTINUOUS
 62
     7
 10
112.4999999999999
 20
41.0
 30
0.0
 11
122.3499999999998
 21
40.509543568464707
 31
0.0
  0
ARC
  5
327
  8
DATA
  6
CONTINUOUS
 62
     7
 10
119.5888671357732
 20
15.90231764166318
 30
0.0
 40
24.761652257201391
 50
43.668938220080577
 51
83.597722986291359
  0
LINE
  5
328
  8
DATA
  6
CONTINUOUS
 62
     7
 10
85.399999999999963
 20
27.0
 30
0.0
 11
139.59999999999999
 21
27.0
 31
0.0
  0
ARC
  5
329
  8
DATA
  6
CONTINUOUS
 62
     7
 10
86.399999999999963
 20
32.0
 30
0.0
 40
1.0
 50
90.0
 51
180.0
  0
ARC
  5
32A
  8
DATA
  6
CONTINUOUS
 62
     7
 10
138.59999999999999
 20
32.0
 30
0.0
 40
1.0
 50
0.0
 51
90.0
  0
LINE
  5
32B
  8
DATA
  6
CONTINUOUS
 62
     7
 10
85.399999999999963
 20
-31.0
 30
0.0
 11
139.59999999999999
 21
-31.0
 31
0.0
  0
LINE
  5
32C
  8
DATA
  6
CONTINUOUS
 62
     7
 10
88.999999999999957
 20
-31.0
 30
0.0
 11
88.999999999999957
 21
27.0
 31
0.0
  0
LINE
  5
32D
  8
DATA
  6
CONTINUOUS
 62
     7
 10
135.99999999999989
 20
27.0
 30
0.0
 11
135.99999999999989
 21
-31.0
 31
0.0
  0
ARC
  5
32E
  8
DATA
  6
CONTINUOUS
 62
     7
 10
288.29403299560568
 20
-55.011319824262713
 30
0.0
 40
203.139760649842
 50
182.8184541083383
 51
198.80706267137739
  0
ARC
  5
32F
  8
DATA
  6
CONTINUOUS
 62
     7
 10
-63.294032995605711
 20
-55.011319824262713
 30
0.0
 40
203.139760649842
 50
341.19293732862258
 51
357.18154589166159
  0
LINE
  5
330
  8
DATA
  6
CONTINUOUS
 62
     7
 10
85.399999999999963
 20
-41.0
 30
0.0
 11
139.59999999999999
 21
-41.0
 31
0.0
  0
LINE
  5
331
  8
DATA
  6
CONTINUOUS
 62
     7
 10
85.399999999999963
 20
-44.79999999999999
 30
0.0
 11
139.59999999999999
 21
-44.79999999999999
 31
0.0
  0
LINE
  5
332
  8
DATA
  6
CONTINUOUS
 62
     7
 10
86.499999999999957
 20
-41.0
 30
0.0
 11
86.499999999999957
 21
-44.79999999999999
 31
0.0
  0
LINE
  5
333
  8
DATA
  6
CONTINUOUS
 62
     7
 10
138.5
 20
-41.0
 30
0.0
 11
138.5
 21
-44.79999999999999
 31
0.0
  0
LINE
  5
334
  8
DATA
  6
CONTINUOUS
 62
     7
 10
101.9999999999999
 20
-44.79999999999999
 30
0.0
 11
101.9999999999999
 21
-41.0
 31
0.0
  0
LINE
  5
335
  8
DATA
  6
CONTINUOUS
 62
     7
 10
122.9999999999999
 20
-44.79999999999999
 30
0.0
 11
122.9999999999999
 21
-41.0
 31
0.0
  0
LINE
  5
336
  8
DATA
  6
CONTINUOUS
 62
     7
 10
95.999999999999957
 20
-44.79999999999999
 30
0.0
 11
95.999999999999957
 21
-41.0
 31
0.0
  0
LINE
  5
337
  8
DATA
  6
CONTINUOUS
 62
     7
 10
129.0
 20
-44.79999999999999
 30
0.0
 11
129.0
 21
-41.0
 31
0.0
  0
LINE
  5
338
  8
DATA
  6
CONTINUOUS
 62
     7
 10
102.3888371343717
 20
-42.900000000000013
 30
0.0
 11
105.1888371343717
 21
-42.900000000000013
 31
0.0
  0
LINE
  5
339
  8
DATA
  6
CONTINUOUS
 62
     7
 10
95.581252341789863
 20
-42.900000000000013
 30
0.0
 11
93.081252341789863
 21
-42.900000000000013
 31
0.0
  0
LINE
  5
33A
  8
DATA
  6
CONTINUOUS
 62
     7
 10
93.081252341789863
 20
-42.900000000000013
 30
0.0
 11
92.181252341789872
 21
-43.800000000000011
 31
0.0
  0
CIRCLE
  5
33B
  8
DATA
  6
CONTINUOUS
 62
     7
 10
97.834513386235344
 20
-42.900000000000013
 30
0.0
 40
1.3000000000000109
  0
CIRCLE
  5
33C
  8
DATA
  6
CONTINUOUS
 62
     7
 10
127.09422750204941
 20
-42.900000000000013
 30
0.0
 40
1.3000000000000109
  0
TEXT
  5
33D
  8
DATA
 62
     7
 10
120.9187735002583
 20
-43.959352133540001
 30
0.0
 40
2.1717881944444439
  1
0
 41
0.7
 11
120.9187735002583
 21
-41.787563939095563
 31
0.0
 73
     3
  0
TEXT
  5
33E
  8
DATA
 62
     7
 10
130.40873855542881
 20
-43.959352133540001
 30
0.0
 40
2.1717881944444439
  1
20
 41
0.7
 11
130.40873855542881
 21
-41.787563939095563
 31
0.0
 73
     3
  0
TEXT
  5
33F
  8
DATA
 62
     7
 10
133.25517965705421
 20
-43.959352133540001
 30
0.0
 40
2.1717881944444439
  1
dB
 41
0.7
 11
133.25517965705421
 21
-41.787563939095563
 31
0.0
 73
     3
  0
LINE
  5
340
  8
DATA
  6
CONTINUOUS
 62
     7
 10
129.2872812784249
 20
-42.900000000000013
 30
0.0
 11
130.5372812784249
 21
-42.900000000000013
 31
0.0
  0
LINE
  5
341
  8
DATA
  6
CONTINUOUS
 62
     7
 10
-41.528227038108433
 20
-44.79999999999999
 30
0.0
 11
-41.528227038108433
 21
-41.0
 31
0.0
  0
LINE
  5
342
  8
DATA
  6
CONTINUOUS
 62
     7
 10
-33.52822703810844
 20
-41.0
 30
0.0
 11
-33.52822703810844
 21
-44.79999999999999
 31
0.0
  0
CIRCLE
  5
343
  8
DATA
  6
CONTINUOUS
 62
     7
 10
-31.4867519335975
 20
-42.900000000000013
 30
0.0
 40
1.7100000000000071
  0
CIRCLE
  5
344
  8
DATA
  6
CONTINUOUS
 62
     7
 10
-43.557254150028747
 20
-42.045000000000002
 30
0.0
 40
0.8550000000000039
  0
CIRCLE
  5
345
  8
DATA
  6
CONTINUOUS
 62
     7
 10
-43.557254150028747
 20
-43.75500000000001
 30
0.0
 40
0.8550000000000039
  0
ARC
  5
346
  8
DATA
  6
CONTINUOUS
 62
     7
 10
-37.499999999999922
 20
-47.165123032800238
 30
0.0
 40
1.710000000000105
 50
0.2487509596460283
 51
179.75124911250609
  0
ARC
  5
347
  8
DATA
  6
CONTINUOUS
 62
     7
 10
-37.500000000000021
 20
-52.383880975643208
 30
0.0
 40
5.368134134388125
 50
72.876616234886413
 51
107.1233837863561
  0
ARC
  5
348
  8
DATA
  6
CONTINUOUS
 62
     7
 10
-39.109984826729153
 20
-47.158133204332152
 30
0.0
 40
0.0999999999999933
 50
179.75124911250751
 51
287.12338378636127
  0
ARC
  5
349
  8
DATA
  6
CONTINUOUS
 62
     7
 10
-35.890015174769601
 20
-47.158133202311177
 30
0.0
 40
0.1000000014901182
 50
252.87661623488549
 51
0.2487509596475377
  0
ARC
  5
34A
  8
DATA
  6
CONTINUOUS
 62
     7
 10
-37.5
 20
60.736095259053712
 30
0.0
 40
1.300000000000004
 50
193.64301119436129
 51
346.35698880563882
  0
ARC
  5
34B
  8
DATA
  6
CONTINUOUS
 62
     7
 10
-51.912459695395562
 20
109.5617048575595
 30
0.0
 40
1.710000000000033
 50
57.42825821671147
 51
188.88326667162019
  0
ARC
  5
34C
  8
DATA
  6
CONTINUOUS
 62
     7
 10
-23.16691265156161
 20
109.556991761595
 30
0.0
 40
1.710000000000008
 50
353.05461596960612
 51
120.91210292633821
  0
ARC
  5
34D
  8
DATA
  6
CONTINUOUS
 62
     7
 10
-37.500000000000007
 20
-138.0721883745972
 30
0.0
 40
1.7099999999999951
 50
21.453097921908121
 51
158.54690207809091
  0
ARC
  5
34E
  8
DATA
  6
CONTINUOUS
 62
     7
 10
-52.878732096518853
 20
-186.47768189669409
 30
0.0
 40
1.7100000000000071
 50
152.51017348096889
 51
317.52554301336619
  0
ARC
  5
34F
  8
DATA
  6
CONTINUOUS
 62
     7
 10
-22.235163424088249
 20
-186.55575183637359
 30
0.0
 40
1.7100000000000071
 50
222.21284772992939
 51
27.16154732126142
  0
ARC
  5
350
  8
DATA
  6
CONTINUOUS
 62
     7
 10
63.760471530540059
 20
-42.900000000000013
 30
0.0
 40
1.2999999999999969
 50
271.74243354407861
 51
88.257566455918848
  0
ARC
  5
351
  8
DATA
  6
CONTINUOUS
 62
     7
 10
-151.26581636844571
 20
-42.900000000000013
 30
0.0
 40
1.3000000000000189
 50
100.37798761763671
 51
259.62201238236332
  0
LINE
  5
352
  8
DATA
  6
CONTINUOUS
 62
     7
 10
63.80000000000004
 20
-41.600601100469092
 30
0.0
 11
63.499999999999972
 21
-41.600601100469092
 31
0.0
  0
LINE
  5
353
  8
DATA
  6
CONTINUOUS
 62
     7
 10
63.79999999999999
 20
-44.199398899530919
 30
0.0
 11
63.499999999999972
 21
-44.199398899530919
 31
0.0
  0
LINE
  5
354
  8
DATA
  6
CONTINUOUS
 62
     7
 10
-98.714066435811574
 20
-41.600000000000001
 30
0.0
 11
-99.000000000000057
 21
-41.600000000000001
 31
0.0
  0
LINE
  5
355
  8
DATA
  6
CONTINUOUS
 62
     7
 10
-98.714066435811603
 20
-44.20000000000001
 30
0.0
 11
-99.000000000000057
 21
-44.20000000000001
 31
0.0
  0
LINE
  5
356
  8
DATA
  6
CONTINUOUS
 62
     7
 10
-151.5
 20
-41.621267022904291
 30
0.0
 11
-151.0
 21
-41.621267022904291
 31
0.0
  0
LINE
  5
357
  8
DATA
  6
CONTINUOUS
 62
     7
 10
-151.5
 20
-44.178732977095713
 30
0.0
 11
-151.0
 21
-44.178732977095713
 31
0.0
  0
TEXT
  5
358
  8
DATA
 62
     7
 10
96.124435963429789
 20
-225.81476929856379
 30
0.0
 40
3.257687421875
  1
サイドアドレス型マイクロホン
 41
0.7
 11
96.124435963429789
 21
-222.55708187668881
 31
0.0
 73
     3
  0
LINE
  5
359
  8
DATA
  6
CONTINUOUS
 62
     7
 10
33.499999999999957
 20
26.0
 30
0.0
 11
33.499999999999957
 21
-30.0
 31
0.0
  0
LINE
  5
35A
  8
DATA
  6
CONTINUOUS
 62
     7
 10
41.499999999999957
 20
-30.0
 30
0.0
 11
41.499999999999957
 21
26.0
 31
0.0
  0
ARC
  5
35B
  8
DATA
  6
CONTINUOUS
 62
     7
 10
32.499999999999957
 20
26.0
 30
0.0
 40
1.0
 50
0.0
 51
90.0
  0
LINE
  5
35C
  8
DATA
  6
CONTINUOUS
 62
     7
 10
42.499999999999957
 20
27.0
 30
0.0
 11
64.599999999999994
 21
27.0
 31
0.0
  0
ARC
  5
35D
  8
DATA
  6
CONTINUOUS
 62
     7
 10
42.499999999999957
 20
26.0
 30
0.0
 40
1.0
 50
90.0
 51
180.0
  0
LINE
  5
35E
  8
DATA
  6
CONTINUOUS
 62
     7
 10
10.399999999999981
 20
-31.0
 30
0.0
 11
64.599999999999994
 21
-31.0
 31
0.0
  0
LINE
  5
35F
  8
DATA
  6
CONTINUOUS
 62
     7
 10
-129.0
 20
26.0
 30
0.0
 11
-129.0
 21
-30.0
 31
0.0
  0
LINE
  5
360
  8
DATA
  6
CONTINUOUS
 62
     7
 10
-121.0
 20
-30.0
 30
0.0
 11
-121.0
 21
26.0
 31
0.0
  0
ARC
  5
361
  8
DATA
  6
CONTINUOUS
 62
     7
 10
-130.0
 20
26.0
 30
0.0
 40
1.0
 50
0.0
 51
90.0
  0
LINE
  5
362
  8
DATA
  6
CONTINUOUS
 62
     7
 10
-120.0
 20
27.0
 30
0.0
 11
-97.900000000000006
 21
27.0
 31
0.0
  0
ARC
  5
363
  8
DATA
  6
CONTINUOUS
 62
     7
 10
-120.0
 20
26.0
 30
0.0
 40
1.0
 50
90.0
 51
180.0
  0
ARC
  5
364
  8
DATA
  6
CONTINUOUS
 62
     7
 10
-128.0
 20
-30.0
 30
0.0
 40
1.0
 50
180.0
 51
270.0
  0
ARC
  5
365
  8
DATA
  6
CONTINUOUS
 62
     7
 10
-122.0
 20
-30.0
 30
0.0
 40
1.0
 50
270.0
 51
0.0
  0
LINE
  5
366
  8
DATA
  6
CONTINUOUS
 62
     7
 10
-152.09999999999999
 20
-31.0
 30
0.0
 11
-97.900000000000006
 21
-31.0
 31
0.0
  0
ARC
  5
367
  8
DATA
  6
CONTINUOUS
 62
     7
 10
34.499999999999972
 20
-30.0
 30
0.0
 40
1.0
 50
180.0
 51
270.0
  0
ARC
  5
368
  8
DATA
  6
CONTINUOUS
 62
     7
 10
40.499999999999957
 20
-30.0
 30
0.0
 40
1.0
 50
270.0
 51
0.0
  0
LINE
  5
369
  8
DATA
  6
CONTINUOUS
 62
     7
 10
-149.0
 20
-31.0
 30
0.0
 11
-149.0
 21
27.000000000000011
 31
0.0
  0
LINE
  5
36A
  8
DATA
  6
CONTINUOUS
 62
     7
 10
-101.0
 20
27.0
 30
0.0
 11
-101.0
 21
-31.0
 31
0.0
  0
LINE
  5
36B
  8
DATA
  6
CONTINUOUS
 62
     7
 10
13.49999999999998
 20
-31.0
 30
0.0
 11
13.49999999999998
 21
27.000000000000011
 31
0.0
  0
LINE
  5
36C
  8
DATA
  6
CONTINUOUS
 62
     7
 10
61.499999999999972
 20
27.0
 30
0.0
 11
61.499999999999972
 21
-31.0
 31
0.0
  0
LINE
  5
36D
  8
DATA
  6
CONTINUOUS
 62
     7
 10
-148.8434323034374
 20
-44.79999999999999
 30
0.0
 11
-148.8434323034374
 21
-41.0
 31
0.0
  0
TEXT
  5
36E
  8
DATA
 62
     7
 10
-148.01352964710759
 20
-43.959352133540001
 30
0.0
 40
2.1717881944444439
  1
20
 41
0.7
 11
-148.01352964710759
 21
-41.787563939095563
 31
0.0
 73
     3
  0
TEXT
  5
36F
  8
DATA
 62
     7
 10
-145.1670885454823
 20
-43.959352133540001
 30
0.0
 40
2.1717881944444439
  1
dB
 41
0.7
 11
-145.1670885454823
 21
-41.787563939095563
 31
0.0
 73
     3
  0
LINE
  5
370
  8
DATA
  6
CONTINUOUS
 62
     7
 10
-148.6681837796767
 20
-42.900000000000013
 30
0.0
 11
-147.6681837796767
 21
-42.900000000000013
 31
0.0
  0
LINE
  5
371
  8
DATA
  6
CONTINUOUS
 62
     7
 10
60.590287319966869
 20
-44.79999999999999
 30
0.0
 11
60.590287319966869
 21
-41.0
 31
0.0
  0
LINE
  5
372
  8
DATA
  6
CONTINUOUS
 62
     7
 10
60.171539661756782
 20
-42.900000000000013
 30
0.0
 11
57.671539661756782
 21
-42.900000000000013
 31
0.0
  0
LINE
  5
373
  8
DATA
  6
CONTINUOUS
 62
     7
 10
57.671539661756782
 20
-42.900000000000013
 30
0.0
 11
56.771539661756783
 21
-43.800000000000011
 31
0.0
  0
ENDSEC
  0
EOF
