  0
SECTION
  2
HEADER
  9
$ACADVER
  1
AC1015
  9
$ACADMAINTVER
 70
    20
  9
$DWGCODEPAGE
  3
ANSI_932
  9
$INSBASE
 10
0.0
 20
0.0
 30
0.0
  9
$EXTMIN
 10
-180.010985498948
 20
-271.7120122925201
 30
-0.0004406539666224
  9
$EXTMAX
 10
180.0109871753286
 20
263.5481165273707
 30
0.0000000100861541
  9
$LIMMIN
 10
0.0
 20
0.0
  9
$LIMMAX
 10
0.0
 20
0.0
  9
$ORTHOMODE
 70
     0
  9
$REGENMODE
 70
     1
  9
$FILLMODE
 70
     1
  9
$QTEXTMODE
 70
     0
  9
$MIRRTEXT
 70
     1
  9
$LTSCALE
 40
10.16
  9
$ATTMODE
 70
     1
  9
$TEXTSIZE
 40
0.0
  9
$TRACEWID
 40
1.0
  9
$TEXTSTYLE
  7
STANDARD
  9
$CLAYER
  8
DATA
  9
$CELTYPE
  6
ByLayer
  9
$CECOLOR
 62
   256
  9
$CELTSCALE
 40
1.0
  9
$DISPSILH
 70
     0
  9
$DIMSCALE
 40
1.0
  9
$DIMASZ
 40
0.18
  9
$DIMEXO
 40
0.0625
  9
$DIMDLI
 40
0.38
  9
$DIMRND
 40
0.0
  9
$DIMDLE
 40
0.0
  9
$DIMEXE
 40
0.18
  9
$DIMTP
 40
0.0
  9
$DIMTM
 40
0.0
  9
$DIMTXT
 40
0.18
  9
$DIMCEN
 40
0.09
  9
$DIMTSZ
 40
0.0
  9
$DIMTOL
 70
     0
  9
$DIMLIM
 70
     0
  9
$DIMTIH
 70
     1
  9
$DIMTOH
 70
     1
  9
$DIMSE1
 70
     0
  9
$DIMSE2
 70
     0
  9
$DIMTAD
 70
     0
  9
$DIMZIN
 70
     0
  9
$DIMBLK
  1

  9
$DIMASO
 70
     1
  9
$DIMSHO
 70
     1
  9
$DIMPOST
  1

  9
$DIMAPOST
  1

  9
$DIMALT
 70
     0
  9
$DIMALTD
 70
     2
  9
$DIMALTF
 40
25.4
  9
$DIMLFAC
 40
1.0
  9
$DIMTOFL
 70
     0
  9
$DIMTVP
 40
0.0
  9
$DIMTIX
 70
     0
  9
$DIMSOXD
 70
     0
  9
$DIMSAH
 70
     0
  9
$DIMBLK1
  1

  9
$DIMBLK2
  1

  9
$DIMSTYLE
  2
STANDARD
  9
$DIMCLRD
 70
     0
  9
$DIMCLRE
 70
     0
  9
$DIMCLRT
 70
     0
  9
$DIMTFAC
 40
1.0
  9
$DIMGAP
 40
0.09
  9
$DIMJUST
 70
     0
  9
$DIMSD1
 70
     0
  9
$DIMSD2
 70
     0
  9
$DIMTOLJ
 70
     1
  9
$DIMTZIN
 70
     0
  9
$DIMALTZ
 70
     0
  9
$DIMALTTZ
 70
     0
  9
$DIMUPT
 70
     0
  9
$DIMDEC
 70
     4
  9
$DIMTDEC
 70
     4
  9
$DIMALTU
 70
     2
  9
$DIMALTTD
 70
     2
  9
$DIMTXSTY
  7
STANDARD
  9
$DIMAUNIT
 70
     0
  9
$DIMADEC
 70
     0
  9
$DIMALTRND
 40
0.0
  9
$DIMAZIN
 70
     0
  9
$DIMDSEP
 70
    46
  9
$DIMATFIT
 70
     3
  9
$DIMFRAC
 70
     0
  9
$DIMLDRBLK
  1

  9
$DIMLUNIT
 70
     2
  9
$DIMLWD
 70
    -2
  9
$DIMLWE
 70
    -2
  9
$DIMTMOVE
 70
     0
  9
$LUNITS
 70
     2
  9
$LUPREC
 70
     4
  9
$SKETCHINC
 40
0.1
  9
$FILLETRAD
 40
0.0
  9
$AUNITS
 70
     0
  9
$AUPREC
 70
     0
  9
$MENU
  1
acad
  9
$ELEVATION
 40
0.0
  9
$PELEVATION
 40
0.0
  9
$THICKNESS
 40
0.0
  9
$LIMCHECK
 70
     0
  9
$CHAMFERA
 40
0.0
  9
$CHAMFERB
 40
0.0
  9
$CHAMFERC
 40
0.0
  9
$CHAMFERD
 40
0.0
  9
$SKPOLY
 70
     0
  9
$TDCREATE
 40
2458248.559780093
  9
$TDUCREATE
 40
2458248.184780093
  9
$TDUPDATE
 40
2458248.560543982
  9
$TDUUPDATE
 40
2458248.185543982
  9
$TDINDWG
 40
0.0005787037
  9
$TDUSRTIMER
 40
0.0005787037
  9
$USRTIMER
 70
     1
  9
$ANGBASE
 50
0.0
  9
$ANGDIR
 70
     0
  9
$PDMODE
 70
     1
  9
$PDSIZE
 40
-2.0
  9
$PLINEWID
 40
0.0
  9
$SPLFRAME
 70
     0
  9
$SPLINETYPE
 70
     6
  9
$SPLINESEGS
 70
     8
  9
$HANDSEED
  5
3C3
  9
$SURFTAB1
 70
     6
  9
$SURFTAB2
 70
     6
  9
$SURFTYPE
 70
     6
  9
$SURFU
 70
     6
  9
$SURFV
 70
     6
  9
$UCSBASE
  2

  9
$UCSNAME
  2

  9
$UCSORG
 10
0.0
 20
0.0
 30
0.0
  9
$UCSXDIR
 10
1.0
 20
0.0
 30
0.0
  9
$UCSYDIR
 10
0.0
 20
1.0
 30
0.0
  9
$UCSORTHOREF
  2

  9
$UCSORTHOVIEW
 70
     0
  9
$UCSORGTOP
 10
0.0
 20
0.0
 30
0.0
  9
$UCSORGBOTTOM
 10
0.0
 20
0.0
 30
0.0
  9
$UCSORGLEFT
 10
0.0
 20
0.0
 30
0.0
  9
$UCSORGRIGHT
 10
0.0
 20
0.0
 30
0.0
  9
$UCSORGFRONT
 10
0.0
 20
0.0
 30
0.0
  9
$UCSORGBACK
 10
0.0
 20
0.0
 30
0.0
  9
$PUCSBASE
  2

  9
$PUCSNAME
  2

  9
$PUCSORG
 10
0.0
 20
0.0
 30
0.0
  9
$PUCSXDIR
 10
1.0
 20
0.0
 30
0.0
  9
$PUCSYDIR
 10
0.0
 20
1.0
 30
0.0
  9
$PUCSORTHOREF
  2

  9
$PUCSORTHOVIEW
 70
     0
  9
$PUCSORGTOP
 10
0.0
 20
0.0
 30
0.0
  9
$PUCSORGBOTTOM
 10
0.0
 20
0.0
 30
0.0
  9
$PUCSORGLEFT
 10
0.0
 20
0.0
 30
0.0
  9
$PUCSORGRIGHT
 10
0.0
 20
0.0
 30
0.0
  9
$PUCSORGFRONT
 10
0.0
 20
0.0
 30
0.0
  9
$PUCSORGBACK
 10
0.0
 20
0.0
 30
0.0
  9
$USERI1
 70
     0
  9
$USERI2
 70
     0
  9
$USERI3
 70
     0
  9
$USERI4
 70
     0
  9
$USERI5
 70
     0
  9
$USERR1
 40
0.0
  9
$USERR2
 40
0.0
  9
$USERR3
 40
0.0
  9
$USERR4
 40
0.0
  9
$USERR5
 40
0.0
  9
$WORLDVIEW
 70
     1
  9
$SHADEDGE
 70
     3
  9
$SHADEDIF
 70
    70
  9
$TILEMODE
 70
     1
  9
$MAXACTVP
 70
    64
  9
$PINSBASE
 10
0.0
 20
0.0
 30
0.0
  9
$PLIMCHECK
 70
     0
  9
$PEXTMIN
 10
1.000000000000000E+20
 20
1.000000000000000E+20
 30
1.000000000000000E+20
  9
$PEXTMAX
 10
-1.000000000000000E+20
 20
-1.000000000000000E+20
 30
-1.000000000000000E+20
  9
$PLIMMIN
 10
0.0
 20
0.0
  9
$PLIMMAX
 10
12.0
 20
9.0
  9
$UNITMODE
 70
     0
  9
$VISRETAIN
 70
     0
  9
$PLINEGEN
 70
     1
  9
$PSLTSCALE
 70
     0
  9
$TREEDEPTH
 70
  3020
  9
$CMLSTYLE
  2
Standard
  9
$CMLJUST
 70
     0
  9
$CMLSCALE
 40
1.0
  9
$PROXYGRAPHICS
 70
     1
  9
$MEASUREMENT
 70
     0
  9
$CELWEIGHT
370
    -1
  9
$ENDCAPS
280
     0
  9
$JOINSTYLE
280
     0
  9
$LWDISPLAY
290
     0
  9
$INSUNITS
 70
     0
  9
$HYPERLINKBASE
  1

  9
$STYLESHEET
  1

  9
$XEDIT
290
     1
  9
$CEPSNTYPE
380
     0
  9
$PSTYLEMODE
290
     1
  9
$FINGERPRINTGUID
  2
{033D6EF4-30FE-0043-8941-4092BD81C43A}
  9
$VERSIONGUID
  2
{3E5C6EE4-D91A-E549-989C-B060D2EF3C00}
  9
$EXTNAMES
290
     1
  9
$PSVPSCALE
 40
0.0
  9
$OLESTARTUP
290
     0
  0
ENDSEC
  0
SECTION
  2
CLASSES
  0
CLASS
  1
ACDBDICTIONARYWDFLT
  2
AcDbDictionaryWithDefault
  3
ObjectDBX Classes
 90
        0
280
     0
281
     0
  0
CLASS
  1
MATERIAL
  2
AcDbMaterial
  3
ObjectDBX Classes
 90
     1153
280
     0
281
     0
  0
CLASS
  1
VISUALSTYLE
  2
AcDbVisualStyle
  3
ObjectDBX Classes
 90
     4095
280
     0
281
     0
  0
CLASS
  1
SCALE
  2
AcDbScale
  3
ObjectDBX Classes
 90
     1153
280
     0
281
     0
  0
CLASS
  1
TABLESTYLE
  2
AcDbTableStyle
  3
ObjectDBX Classes
 90
     4095
280
     0
281
     0
  0
CLASS
  1
MLEADERSTYLE
  2
AcDbMLeaderStyle
  3
ACDB_MLEADERSTYLE_CLASS
 90
     4095
280
     0
281
     0
  0
CLASS
  1
ACDBSECTIONVIEWSTYLE
  2
AcDbSectionViewStyle
  3
ObjectDBX Classes
 90
     1025
280
     0
281
     0
  0
CLASS
  1
ACDBDETAILVIEWSTYLE
  2
AcDbDetailViewStyle
  3
ObjectDBX Classes
 90
     1025
280
     0
281
     0
  0
CLASS
  1
DICTIONARYVAR
  2
AcDbDictionaryVar
  3
ObjectDBX Classes
 90
        0
280
     0
281
     0
  0
CLASS
  1
CELLSTYLEMAP
  2
AcDbCellStyleMap
  3
ObjectDBX Classes
 90
     1152
280
     0
281
     0
  0
CLASS
  1
ACDBPLACEHOLDER
  2
AcDbPlaceHolder
  3
ObjectDBX Classes
 90
        0
280
     0
281
     0
  0
CLASS
  1
LAYOUT
  2
AcDbLayout
  3
ObjectDBX Classes
 90
        0
280
     0
281
     0
  0
ENDSEC
  0
SECTION
  2
TABLES
  0
TABLE
  2
VPORT
  5
2DA
330
0
100
AcDbSymbolTable
 70
     1
  0
VPORT
  5
346
330
2DA
100
AcDbSymbolTableRecord
100
AcDbViewportTableRecord
  2
*ACTIVE
 70
     0
 10
0.0
 20
0.0
 11
1.0
 21
1.0
 12
0.0000008381902603
 22
-4.081947882574695
 13
0.0
 23
0.0
 14
1.0
 24
1.0
 15
0.0
 25
0.0
 16
0.0
 26
0.0
 36
1.0
 17
0.0
 27
0.0
 37
0.0
 40
538.2420793982745
 41
2.360594795539033
 42
50.0
 43
0.0
 44
0.0
 50
0.0
 51
0.0
 71
     0
 72
  2000
 73
     1
 74
     1
 75
     0
 76
     0
 77
     0
 78
     0
281
     0
 65
     1
110
0.0
120
0.0
130
0.0
111
1.0
121
0.0
131
0.0
112
0.0
122
1.0
132
0.0
 79
     0
146
0.0
1001
ACAD_NAV_VCDISPLAY
1070
     3
  0
ENDTAB
  0
TABLE
  2
LTYPE
  5
2D7
330
0
100
AcDbSymbolTable
 70
    11
  0
LTYPE
  5
32C
330
2D7
100
AcDbSymbolTableRecord
100
AcDbLinetypeTableRecord
  2
ByBlock
 70
     0
  3

 72
    65
 73
     0
 40
0.0
  0
LTYPE
  5
32D
330
2D7
100
AcDbSymbolTableRecord
100
AcDbLinetypeTableRecord
  2
ByLayer
 70
     0
  3

 72
    65
 73
     0
 40
0.0
  0
LTYPE
  5
32E
330
2D7
100
AcDbSymbolTableRecord
100
AcDbLinetypeTableRecord
  2
CONTINUOUS
 70
     0
  3
Solid line
 72
    65
 73
     0
 40
0.0
  0
ENDTAB
  0
TABLE
  2
LAYER
  5
2D4
330
0
100
AcDbSymbolTable
 70
     6
  0
LAYER
  5
326
102
{ACAD_XDICTIONARY
360
36B
102
}
330
2D4
100
AcDbSymbolTableRecord
100
AcDbLayerTableRecord
  2
0
 70
     0
 62
     7
  6
CONTINUOUS
370
    -3
390
2E1
  0
LAYER
  5
345
102
{ACAD_XDICTIONARY
360
36D
102
}
330
2D4
100
AcDbSymbolTableRecord
100
AcDbLayerTableRecord
  2
DATA
 70
     0
 62
     7
  6
CONTINUOUS
370
    -3
390
2E1
  0
LAYER
  5
351
102
{ACAD_XDICTIONARY
360
36F
102
}
330
2D4
100
AcDbSymbolTableRecord
100
AcDbLayerTableRecord
  2
HIBINO-BASE
 70
     0
 62
     7
  6
CONTINUOUS
370
    -3
390
2E1
  0
LAYER
  5
352
102
{ACAD_XDICTIONARY
360
371
102
}
330
2D4
100
AcDbSymbolTableRecord
100
AcDbLayerTableRecord
  2
PATTERN_FILL
 70
     0
 62
     7
  6
CONTINUOUS
370
    -3
390
2E1
  0
LAYER
  5
353
102
{ACAD_XDICTIONARY
360
373
102
}
330
2D4
100
AcDbSymbolTableRecord
100
AcDbLayerTableRecord
  2
SPEC
 70
     0
 62
     7
  6
CONTINUOUS
370
    -3
390
2E1
  0
LAYER
  5
354
102
{ACAD_XDICTIONARY
360
375
102
}
330
2D4
100
AcDbSymbolTableRecord
100
AcDbLayerTableRecord
  2
DIMNSIONS
 70
     0
 62
     7
  6
CONTINUOUS
370
    -3
390
2E1
  0
ENDTAB
  0
TABLE
  2
STYLE
  5
2D5
330
0
100
AcDbSymbolTable
 70
     3
  0
STYLE
  5
327
330
2D5
100
AcDbSymbolTableRecord
100
AcDbTextStyleTableRecord
  2
STANDARD
 70
     0
 40
0.0
 41
1.0
 50
0.0
 71
     0
 42
0.0
  3
txt
  4
BIGFONT.SHX
  0
ENDTAB
  0
TABLE
  2
VIEW
  5
2D8
330
0
100
AcDbSymbolTable
 70
     0
  0
ENDTAB
  0
TABLE
  2
UCS
  5
2D9
330
0
100
AcDbSymbolTable
 70
     0
  0
ENDTAB
  0
TABLE
  2
APPID
  5
2DB
330
0
100
AcDbSymbolTable
 70
     4
  0
APPID
  5
328
330
2DB
100
AcDbSymbolTableRecord
100
AcDbRegAppTableRecord
  2
ACAD
 70
     0
  0
APPID
  5
32F
330
2DB
100
AcDbSymbolTableRecord
100
AcDbRegAppTableRecord
  2
AcadAnnotative
 70
     0
  0
APPID
  5
381
330
2DB
100
AcDbSymbolTableRecord
100
AcDbRegAppTableRecord
  2
ACAD_NAV_VCDISPLAY
 70
     0
  0
APPID
  5
3BA
330
2DB
100
AcDbSymbolTableRecord
100
AcDbRegAppTableRecord
  2
ACAD_MLEADERVER
 70
     0
  0
ENDTAB
  0
TABLE
  2
DIMSTYLE
  5
2DC
330
0
100
AcDbSymbolTable
 70
     2
100
AcDbDimStyleTable
 71
     0
  0
DIMSTYLE
105
329
330
2DC
100
AcDbSymbolTableRecord
100
AcDbDimStyleTableRecord
  2
STANDARD
 70
     0
279
     2
340
327
  0
ENDTAB
  0
TABLE
  2
BLOCK_RECORD
  5
2D3
330
0
100
AcDbSymbolTable
 70
    16
  0
BLOCK_RECORD
  5
341
330
2D3
100
AcDbSymbolTableRecord
100
AcDbBlockTableRecord
  2
*Model_Space
340
344
  0
BLOCK_RECORD
  5
33D
330
2D3
100
AcDbSymbolTableRecord
100
AcDbBlockTableRecord
  2
*Paper_Space
340
340
  0
BLOCK_RECORD
  5
359
330
2D3
100
AcDbSymbolTableRecord
100
AcDbBlockTableRecord
  2
____
340
0
102
{BLKREFS
331
217
102
}
  0
BLOCK_RECORD
  5
35A
330
2D3
100
AcDbSymbolTableRecord
100
AcDbBlockTableRecord
  2
ラインタイプ-5
340
0
102
{BLKREFS
331
218
102
}
  0
BLOCK_RECORD
  5
35B
330
2D3
100
AcDbSymbolTableRecord
100
AcDbBlockTableRecord
  2
____-1
340
0
102
{BLKREFS
331
219
102
}
  0
BLOCK_RECORD
  5
35C
330
2D3
100
AcDbSymbolTableRecord
100
AcDbBlockTableRecord
  2
____-2
340
0
102
{BLKREFS
331
21A
102
}
  0
BLOCK_RECORD
  5
35D
330
2D3
100
AcDbSymbolTableRecord
100
AcDbBlockTableRecord
  2
____-3
340
0
102
{BLKREFS
331
21B
102
}
  0
BLOCK_RECORD
  5
35E
330
2D3
100
AcDbSymbolTableRecord
100
AcDbBlockTableRecord
  2
____-4
340
0
102
{BLKREFS
331
21C
102
}
  0
BLOCK_RECORD
  5
35F
330
2D3
100
AcDbSymbolTableRecord
100
AcDbBlockTableRecord
  2
____-5
340
0
102
{BLKREFS
331
21D
102
}
  0
BLOCK_RECORD
  5
360
330
2D3
100
AcDbSymbolTableRecord
100
AcDbBlockTableRecord
  2
____-6
340
0
102
{BLKREFS
331
21E
102
}
  0
BLOCK_RECORD
  5
361
330
2D3
100
AcDbSymbolTableRecord
100
AcDbBlockTableRecord
  2
____-7
340
0
102
{BLKREFS
331
21F
102
}
  0
BLOCK_RECORD
  5
362
330
2D3
100
AcDbSymbolTableRecord
100
AcDbBlockTableRecord
  2
____-8
340
0
102
{BLKREFS
331
220
102
}
  0
BLOCK_RECORD
  5
363
330
2D3
100
AcDbSymbolTableRecord
100
AcDbBlockTableRecord
  2
____-9
340
0
102
{BLKREFS
331
221
102
}
  0
BLOCK_RECORD
  5
364
330
2D3
100
AcDbSymbolTableRecord
100
AcDbBlockTableRecord
  2
____-10
340
0
102
{BLKREFS
331
222
102
}
  0
BLOCK_RECORD
  5
365
330
2D3
100
AcDbSymbolTableRecord
100
AcDbBlockTableRecord
  2
____-11
340
0
102
{BLKREFS
331
223
102
}
  0
BLOCK_RECORD
  5
366
330
2D3
100
AcDbSymbolTableRecord
100
AcDbBlockTableRecord
  2
____-12
340
0
102
{BLKREFS
331
224
102
}
  0
BLOCK_RECORD
  5
367
330
2D3
100
AcDbSymbolTableRecord
100
AcDbBlockTableRecord
  2
____-13
340
0
102
{BLKREFS
331
225
102
}
  0
BLOCK_RECORD
  5
368
330
2D3
100
AcDbSymbolTableRecord
100
AcDbBlockTableRecord
  2
____-14
340
0
102
{BLKREFS
331
226
102
}
  0
ENDTAB
  0
ENDSEC
  0
SECTION
  2
BLOCKS
  0
BLOCK
  5
342
330
341
100
AcDbEntity
  8
0
100
AcDbBlockBegin
  2
*Model_Space
 70
     0
 10
0.0
 20
0.0
 30
0.0
  3
*Model_Space
  1

  0
ENDBLK
  5
343
330
341
100
AcDbEntity
  8
0
100
AcDbBlockEnd
  0
BLOCK
  5
33E
330
33D
100
AcDbEntity
 67
     1
  8
0
100
AcDbBlockBegin
  2
*Paper_Space
 70
     0
 10
0.0
 20
0.0
 30
0.0
  3
*Paper_Space
  1

  0
ENDBLK
  5
33F
330
33D
100
AcDbEntity
 67
     1
  8
0
100
AcDbBlockEnd
  0
BLOCK
  5
3D
330
359
100
AcDbEntity
  8
PATTERN_FILL
100
AcDbBlockBegin
  2
____
 70
     0
 10
0.0
 20
0.0
 30
0.0
  3
____
  1

  0
LINE
  5
3E
330
359
100
AcDbEntity
  8
0
  6
Continuous
 62
     7
100
AcDbLine
 10
-84.5556389579981
 20
83.91975778641805
 30
0.0
 11
-71.41975778641803
 21
97.05563895799814
 31
0.0
  0
LINE
  5
3F
330
359
100
AcDbEntity
  8
0
  6
Continuous
 62
     7
100
AcDbLine
 10
-53.10031048294046
 20
53.14968951705962
 30
0.0
 11
-40.64968951705966
 21
65.6003104829404
 31
0.0
  0
LINE
  5
40
330
359
100
AcDbEntity
  8
0
  6
Continuous
 62
     7
100
AcDbLine
 10
-57.27549482312977
 20
51.80293230161652
 30
0.0
 11
-39.30293230161653
 21
69.77549482312972
 31
0.0
  0
LINE
  5
41
330
359
100
AcDbEntity
  8
0
  6
Continuous
 62
     7
100
AcDbLine
 10
-60.61421139604916
 20
51.29264285344331
 30
0.0
 11
-38.79264285344331
 21
73.11421139604909
 31
0.0
  0
LINE
  5
42
330
359
100
AcDbEntity
  8
0
  6
Continuous
 62
     7
100
AcDbLine
 10
-63.48680285845905
 20
51.24847851577964
 30
0.0
 11
-38.74847851577964
 21
75.98680285845898
 31
0.0
  0
LINE
  5
43
330
359
100
AcDbEntity
  8
0
  6
Continuous
 62
     7
100
AcDbLine
 10
-66.06615520868219
 20
51.49755329030266
 30
0.0
 11
-38.99755329030266
 21
78.56615520868214
 31
0.0
  0
LINE
  5
44
330
359
100
AcDbEntity
  8
0
  6
Continuous
 62
     7
100
AcDbLine
 10
-68.41599431092085
 20
51.97614131281018
 30
0.0
 11
-39.47614131281017
 21
80.91599431092078
 31
0.0
  0
LINE
  5
45
330
359
100
AcDbEntity
  8
0
  6
Continuous
 62
     7
100
AcDbLine
 10
-70.57754887391208
 20
52.64301387456516
 30
0.0
 11
-40.14301387456511
 21
83.07754887391203
 31
0.0
  0
LINE
  5
46
330
359
100
AcDbEntity
  8
0
  6
Continuous
 62
     7
100
AcDbLine
 10
-72.57832817527142
 20
53.470661697952
 30
0.0
 11
-40.97066169795197
 21
85.07832817527136
 31
0.0
  0
LINE
  5
47
330
359
100
AcDbEntity
  8
0
  6
Continuous
 62
     7
100
AcDbLine
 10
-74.43695979806993
 20
54.4404571998997
 30
0.0
 11
-41.94045719989964
 21
86.93695979806987
 31
0.0
  0
LINE
  5
48
330
359
100
AcDbEntity
  8
0
  6
Continuous
 62
     7
100
AcDbLine
 10
-76.16597240564448
 20
55.53987171707128
 30
0.0
 11
-43.03987171707125
 21
88.66597240564441
 31
0.0
  0
LINE
  5
49
330
359
100
AcDbEntity
  8
0
  6
Continuous
 62
     7
100
AcDbLine
 10
-77.77342856052931
 20
56.76084268693265
 30
0.0
 11
-44.26084268693261
 21
90.27342856052928
 31
0.0
  0
LINE
  5
4A
330
359
100
AcDbEntity
  8
0
  6
Continuous
 62
     7
100
AcDbLine
 10
-79.25711798012305
 20
58.10558039208509
 30
0.0
 11
-45.60558039208504
 21
91.75711798012299
 31
0.0
  0
LINE
  5
4B
330
359
100
AcDbEntity
  8
0
  6
Continuous
 62
     7
100
AcDbLine
 10
-80.60860088171715
 20
59.5825246152372
 30
0.0
 11
-47.08252461523716
 21
93.10860088171706
 31
0.0
  0
LINE
  5
4C
330
359
100
AcDbEntity
  8
0
  6
Continuous
 62
     7
100
AcDbLine
 10
-81.84319342768601
 20
61.17635919401454
 30
0.0
 11
-48.67635919401447
 21
94.34319342768594
 31
0.0
  0
LINE
  5
4D
330
359
100
AcDbEntity
  8
0
  6
Continuous
 62
     7
100
AcDbLine
 10
-82.95663343968337
 20
62.89134630676334
 30
0.0
 11
-50.39134630676327
 21
95.45663343968334
 31
0.0
  0
LINE
  5
4E
330
359
100
AcDbEntity
  8
0
  6
Continuous
 62
     7
100
AcDbLine
 10
-83.94116398222591
 20
64.73524288896702
 30
0.0
 11
-52.23524288896697
 21
96.44116398222584
 31
0.0
  0
LINE
  5
4F
330
359
100
AcDbEntity
  8
0
  6
Continuous
 62
     7
100
AcDbLine
 10
-84.78462333126108
 20
66.72021066467798
 30
0.0
 11
-54.22021066467793
 21
97.28462333126106
 31
0.0
  0
LINE
  5
50
330
359
100
AcDbEntity
  8
0
  6
Continuous
 62
     7
100
AcDbLine
 10
-85.46885248805336
 20
68.86440863263191
 30
0.0
 11
-56.36440863263182
 21
97.96885248805338
 31
0.0
  0
LINE
  5
51
330
359
100
AcDbEntity
  8
0
  6
Continuous
 62
     7
100
AcDbLine
 10
-85.96697490916133
 20
71.19471333627007
 30
0.0
 11
-58.69471333627
 21
98.46697490916133
 31
0.0
  0
LINE
  5
52
330
359
100
AcDbEntity
  8
0
  6
Continuous
 62
     7
100
AcDbLine
 10
-86.23866279807938
 20
73.75145257209823
 30
0.0
 11
-61.25145257209818
 21
98.73866279807936
 31
0.0
  0
LINE
  5
53
330
359
100
AcDbEntity
  8
0
  6
Continuous
 62
     7
100
AcDbLine
 10
-86.22154452042462
 20
76.59699797449923
 30
0.0
 11
-64.09699797449917
 21
98.72154452042458
 31
0.0
  0
LINE
  5
54
330
359
100
AcDbEntity
  8
0
  6
Continuous
 62
     7
100
AcDbLine
 10
-85.78883999732486
 20
79.85812962234511
 30
0.0
 11
-67.35812962234508
 21
98.28883999732488
 31
0.0
  0
ENDBLK
  5
55
330
359
100
AcDbEntity
  8
PATTERN_FILL
100
AcDbBlockEnd
  0
BLOCK
  5
56
330
35A
100
AcDbEntity
  8
PATTERN_FILL
100
AcDbBlockBegin
  2
ラインタイプ-5
 70
     0
 10
0.0
 20
0.0
 30
0.0
  3
ラインタイプ-5
  1

  0
LINE
  5
57
330
35A
100
AcDbEntity
  8
0
  6
Continuous
 62
     7
100
AcDbLine
 10
-71.41975778641806
 20
52.93150235586089
 30
0.0
 11
-84.55563895799814
 21
66.06738352744098
 31
0.0
  0
LINE
  5
58
330
35A
100
AcDbEntity
  8
0
  6
Continuous
 62
     7
100
AcDbLine
 10
-40.64968951705963
 20
84.38683083091856
 30
0.0
 11
-53.10031048294039
 21
96.83745179679933
 31
0.0
  0
LINE
  5
59
330
35A
100
AcDbEntity
  8
0
  6
Continuous
 62
     7
100
AcDbLine
 10
-39.30293230161651
 20
80.21164649072924
 30
0.0
 11
-57.27549482312973
 21
98.1842090122425
 31
0.0
  0
LINE
  5
5A
330
35A
100
AcDbEntity
  8
0
  6
Continuous
 62
     7
100
AcDbLine
 10
-38.79264285344333
 20
76.87292991780985
 30
0.0
 11
-60.61421139604907
 21
98.6944984604157
 31
0.0
  0
LINE
  5
5B
330
35A
100
AcDbEntity
  8
0
  6
Continuous
 62
     7
100
AcDbLine
 10
-38.74847851577964
 20
74.00033845539998
 30
0.0
 11
-63.48680285845897
 21
98.73866279807936
 31
0.0
  0
LINE
  5
5C
330
35A
100
AcDbEntity
  8
0
  6
Continuous
 62
     7
100
AcDbLine
 10
-38.99755329030266
 20
71.42098610517681
 30
0.0
 11
-66.0661552086821
 21
98.48958802355637
 31
0.0
  0
LINE
  5
5D
330
35A
100
AcDbEntity
  8
0
  6
Continuous
 62
     7
100
AcDbLine
 10
-39.47614131281019
 20
69.07114700293816
 30
0.0
 11
-68.41599431092077
 21
98.01100000104886
 31
0.0
  0
LINE
  5
5E
330
35A
100
AcDbEntity
  8
0
  6
Continuous
 62
     7
100
AcDbLine
 10
-40.14301387456513
 20
66.90959243994694
 30
0.0
 11
-70.57754887391202
 21
97.34412743929389
 31
0.0
  0
LINE
  5
5F
330
35A
100
AcDbEntity
  8
0
  6
Continuous
 62
     7
100
AcDbLine
 10
-40.97066169795202
 20
64.90881313858759
 30
0.0
 11
-72.57832817527138
 21
96.51647961590704
 31
0.0
  0
LINE
  5
60
330
35A
100
AcDbEntity
  8
0
  6
Continuous
 62
     7
100
AcDbLine
 10
-41.94045719989968
 20
63.05018151578908
 30
0.0
 11
-74.43695979806989
 21
95.54668411395935
 31
0.0
  0
LINE
  5
61
330
35A
100
AcDbEntity
  8
0
  6
Continuous
 62
     7
100
AcDbLine
 10
-43.0398717170713
 20
61.32116890821453
 30
0.0
 11
-76.16597240564442
 21
94.44726959678776
 31
0.0
  0
LINE
  5
62
330
35A
100
AcDbEntity
  8
0
  6
Continuous
 62
     7
100
AcDbLine
 10
-44.26084268693266
 20
59.71371275332969
 30
0.0
 11
-77.77342856052928
 21
93.22629862692641
 31
0.0
  0
LINE
  5
63
330
35A
100
AcDbEntity
  8
0
  6
Continuous
 62
     7
100
AcDbLine
 10
-45.60558039208509
 20
58.23002333373596
 30
0.0
 11
-79.25711798012301
 21
91.88156092177395
 31
0.0
  0
LINE
  5
64
330
35A
100
AcDbEntity
  8
0
  6
Continuous
 62
     7
100
AcDbLine
 10
-47.0825246152372
 20
56.87854043214188
 30
0.0
 11
-80.60860088171709
 21
90.40461669862185
 31
0.0
  0
LINE
  5
65
330
35A
100
AcDbEntity
  8
0
  6
Continuous
 62
     7
100
AcDbLine
 10
-48.67635919401452
 20
55.64394788617302
 30
0.0
 11
-81.84319342768594
 21
88.81078211984453
 31
0.0
  0
LINE
  5
66
330
35A
100
AcDbEntity
  8
0
  6
Continuous
 62
     7
100
AcDbLine
 10
-50.39134630676334
 20
54.53050787417564
 30
0.0
 11
-82.95663343968334
 21
87.09579500709573
 31
0.0
  0
LINE
  5
67
330
35A
100
AcDbEntity
  8
0
  6
Continuous
 62
     7
100
AcDbLine
 10
-52.23524288896703
 20
53.54597733163313
 30
0.0
 11
-83.94116398222587
 21
85.25189842489202
 31
0.0
  0
LINE
  5
68
330
35A
100
AcDbEntity
  8
0
  6
Continuous
 62
     7
100
AcDbLine
 10
-54.22021066467797
 20
52.7025179825979
 30
0.0
 11
-84.78462333126104
 21
83.26693064918108
 31
0.0
  0
LINE
  5
69
330
35A
100
AcDbEntity
  8
0
  6
Continuous
 62
     7
100
AcDbLine
 10
-56.3644086326319
 20
52.01828882580564
 30
0.0
 11
-85.46885248805335
 21
81.12273268122718
 31
0.0
  0
LINE
  5
6A
330
35A
100
AcDbEntity
  8
0
  6
Continuous
 62
     7
100
AcDbLine
 10
-58.69471333627007
 20
51.52016640469765
 30
0.0
 11
-85.96697490916133
 21
78.792427977589
 31
0.0
  0
LINE
  5
6B
330
35A
100
AcDbEntity
  8
0
  6
Continuous
 62
     7
100
AcDbLine
 10
-61.25145257209824
 20
51.24847851577964
 30
0.0
 11
-86.23866279807932
 21
76.23568874176084
 31
0.0
  0
LINE
  5
6C
330
35A
100
AcDbEntity
  8
0
  6
Continuous
 62
     7
100
AcDbLine
 10
-64.09699797449921
 20
51.26559679343441
 30
0.0
 11
-86.22154452042456
 21
73.39014333935985
 31
0.0
  0
LINE
  5
6D
330
35A
100
AcDbEntity
  8
0
  6
Continuous
 62
     7
100
AcDbLine
 10
-67.35812962234511
 20
51.69830131653413
 30
0.0
 11
-85.78883999732486
 21
70.12901169151394
 31
0.0
  0
ENDBLK
  5
6E
330
35A
100
AcDbEntity
  8
PATTERN_FILL
100
AcDbBlockEnd
  0
BLOCK
  5
6F
330
35B
100
AcDbEntity
  8
PATTERN_FILL
100
AcDbBlockBegin
  2
____-1
 70
     0
 10
0.0
 20
0.0
 30
0.0
  3
____-1
  1

  0
LINE
  5
70
330
35B
100
AcDbEntity
  8
0
  6
Continuous
 62
     7
100
AcDbLine
 10
-80.53568252242476
 20
37.48387009927573
 30
0.0
 11
-77.41955262170044
 21
40.60000000000001
 31
0.0
  0
LINE
  5
71
330
35B
100
AcDbEntity
  8
0
  6
Continuous
 62
     7
100
AcDbLine
 10
-39.85202025355345
 20
1.800000000000011
 30
0.0
 11
-38.8602147372492
 21
2.791805516304264
 31
0.0
  0
LINE
  5
72
330
35B
100
AcDbEntity
  8
0
  6
Continuous
 62
     7
100
AcDbLine
 10
-42.68044737829963
 20
1.800000000000011
 30
0.0
 11
-39.253572151949
 21
5.226875226350657
 31
0.0
  0
LINE
  5
73
330
35B
100
AcDbEntity
  8
0
  6
Continuous
 62
     7
100
AcDbLine
 10
-45.50887450304581
 20
1.800000000000011
 30
0.0
 11
-39.64692956664879
 21
7.661944936397049
 31
0.0
  0
LINE
  5
74
330
35B
100
AcDbEntity
  8
0
  6
Continuous
 62
     7
100
AcDbLine
 10
-48.337301627792
 20
1.800000000000011
 30
0.0
 11
-40.04028698134859
 21
10.09701464644344
 31
0.0
  0
LINE
  5
75
330
35B
100
AcDbEntity
  8
0
  6
Continuous
 62
     7
100
AcDbLine
 10
-51.16572875253818
 20
1.800000000000011
 30
0.0
 11
-40.43364439604839
 21
12.53208435648982
 31
0.0
  0
LINE
  5
76
330
35B
100
AcDbEntity
  8
0
  6
Continuous
 62
     7
100
AcDbLine
 10
-53.99415587728436
 20
1.800000000000011
 30
0.0
 11
-40.82700181074819
 21
14.96715406653621
 31
0.0
  0
LINE
  5
77
330
35B
100
AcDbEntity
  8
0
  6
Continuous
 62
     7
100
AcDbLine
 10
-56.82258300203053
 20
1.800000000000011
 30
0.0
 11
-41.22035922544797
 21
17.4022237765826
 31
0.0
  0
LINE
  5
78
330
35B
100
AcDbEntity
  8
0
  6
Continuous
 62
     7
100
AcDbLine
 10
-59.65101012677672
 20
1.800000000000011
 30
0.0
 11
-41.61371664014779
 21
19.83729348662897
 31
0.0
  0
LINE
  5
79
330
35B
100
AcDbEntity
  8
0
  6
Continuous
 62
     7
100
AcDbLine
 10
-62.47943725152293
 20
1.800000000000011
 30
0.0
 11
-42.00707405484759
 21
22.27236319667537
 31
0.0
  0
LINE
  5
7A
330
35B
100
AcDbEntity
  8
0
  6
Continuous
 62
     7
100
AcDbLine
 10
-65.30786437626911
 20
1.800000000000011
 30
0.0
 11
-42.40043146954738
 21
24.70743290672177
 31
0.0
  0
LINE
  5
7B
330
35B
100
AcDbEntity
  8
0
  6
Continuous
 62
     7
100
AcDbLine
 10
-68.13629150101528
 20
1.800000000000011
 30
0.0
 11
-42.79378888424719
 21
27.14250261676815
 31
0.0
  0
LINE
  5
7C
330
35B
100
AcDbEntity
  8
0
  6
Continuous
 62
     7
100
AcDbLine
 10
-70.96471862576148
 20
1.800000000000011
 30
0.0
 11
-43.18714629894699
 21
29.57757232681455
 31
0.0
  0
LINE
  5
7D
330
35B
100
AcDbEntity
  8
0
  6
Continuous
 62
     7
100
AcDbLine
 10
-73.79314575050766
 20
1.800000000000011
 30
0.0
 11
-43.58050371364678
 21
32.01264203686092
 31
0.0
  0
LINE
  5
7E
330
35B
100
AcDbEntity
  8
0
  6
Continuous
 62
     7
100
AcDbLine
 10
-76.62157287525383
 20
1.800000000000011
 30
0.0
 11
-43.97386112834658
 21
34.44771174690731
 31
0.0
  0
LINE
  5
7F
330
35B
100
AcDbEntity
  8
0
  6
Continuous
 62
     7
100
AcDbLine
 10
-79.45000000000003
 20
1.800000000000011
 30
0.0
 11
-44.36721854304638
 21
36.88278145695369
 31
0.0
  0
LINE
  5
80
330
35B
100
AcDbEntity
  8
0
  6
Continuous
 62
     7
100
AcDbLine
 10
-82.2784271247462
 20
1.800000000000011
 30
0.0
 11
-44.79201993942255
 21
39.28640718532371
 31
0.0
  0
LINE
  5
81
330
35B
100
AcDbEntity
  8
0
  6
Continuous
 62
     7
100
AcDbLine
 10
-85.10685424949242
 20
1.800000000000011
 30
0.0
 11
-46.33517285340394
 21
40.57168139608852
 31
0.0
  0
LINE
  5
82
330
35B
100
AcDbEntity
  8
0
  6
Continuous
 62
     7
100
AcDbLine
 10
-85.98494579028423
 20
3.750335583954381
 30
0.0
 11
-49.13528137423863
 21
40.60000000000001
 31
0.0
  0
LINE
  5
83
330
35B
100
AcDbEntity
  8
0
  6
Continuous
 62
     7
100
AcDbLine
 10
-85.44001946349828
 20
7.123689035486506
 30
0.0
 11
-51.96370849898482
 21
40.60000000000001
 31
0.0
  0
LINE
  5
84
330
35B
100
AcDbEntity
  8
0
  6
Continuous
 62
     7
100
AcDbLine
 10
-84.89509313671234
 20
10.49704248701864
 30
0.0
 11
-54.792135623731
 21
40.60000000000001
 31
0.0
  0
LINE
  5
85
330
35B
100
AcDbEntity
  8
0
  6
Continuous
 62
     7
100
AcDbLine
 10
-84.35016680992637
 20
13.87039593855078
 30
0.0
 11
-57.62056274847719
 21
40.60000000000001
 31
0.0
  0
LINE
  5
86
330
35B
100
AcDbEntity
  8
0
  6
Continuous
 62
     7
100
AcDbLine
 10
-83.80524048314043
 20
17.24374939008291
 30
0.0
 11
-60.44898987322336
 21
40.60000000000001
 31
0.0
  0
LINE
  5
87
330
35B
100
AcDbEntity
  8
0
  6
Continuous
 62
     7
100
AcDbLine
 10
-83.26031415635448
 20
20.6171028416151
 30
0.0
 11
-63.27741699796956
 21
40.60000000000001
 31
0.0
  0
LINE
  5
88
330
35B
100
AcDbEntity
  8
0
  6
Continuous
 62
     7
100
AcDbLine
 10
-82.7153878295685
 20
23.99045629314723
 30
0.0
 11
-66.10584412271575
 21
40.60000000000001
 31
0.0
  0
LINE
  5
89
330
35B
100
AcDbEntity
  8
0
  6
Continuous
 62
     7
100
AcDbLine
 10
-82.17046150278257
 20
27.36380974467936
 30
0.0
 11
-68.93427124746193
 21
40.60000000000001
 31
0.0
  0
LINE
  5
8A
330
35B
100
AcDbEntity
  8
0
  6
Continuous
 62
     7
100
AcDbLine
 10
-81.62553517599663
 20
30.73716319621146
 30
0.0
 11
-71.76269837220809
 21
40.60000000000001
 31
0.0
  0
LINE
  5
8B
330
35B
100
AcDbEntity
  8
0
  6
Continuous
 62
     7
100
AcDbLine
 10
-81.08060884921069
 20
34.11051664774361
 30
0.0
 11
-74.59112549695429
 21
40.60000000000001
 31
0.0
  0
ENDBLK
  5
8C
330
35B
100
AcDbEntity
  8
PATTERN_FILL
100
AcDbBlockEnd
  0
BLOCK
  5
8D
330
35C
100
AcDbEntity
  8
PATTERN_FILL
100
AcDbBlockBegin
  2
____-2
 70
     0
 10
0.0
 20
0.0
 30
0.0
  3
____-2
  1

  0
LINE
  5
8E
330
35C
100
AcDbEntity
  8
0
  6
Continuous
 62
     7
100
AcDbLine
 10
-84.71936953791008
 20
-10.44981691620958
 30
0.0
 11
-82.46955262170045
 21
-8.199999999999986
 31
0.0
  0
LINE
  5
8F
330
35C
100
AcDbEntity
  8
0
  6
Continuous
 62
     7
100
AcDbLine
 10
-42.13629150101527
 20
-15.94999999999999
 30
0.0
 11
-40.59878047691834
 21
-14.41248897590307
 31
0.0
  0
LINE
  5
90
330
35C
100
AcDbEntity
  8
0
  6
Continuous
 62
     7
100
AcDbLine
 10
-44.96471862576145
 20
-15.94999999999999
 30
0.0
 11
-40.35187179572464
 21
-11.33715316996317
 31
0.0
  0
LINE
  5
91
330
35C
100
AcDbEntity
  8
0
  6
Continuous
 62
     7
100
AcDbLine
 10
-47.79314575050766
 20
-15.94999999999999
 30
0.0
 11
-40.10496311453095
 21
-8.261817364023286
 31
0.0
  0
LINE
  5
92
330
35C
100
AcDbEntity
  8
0
  6
Continuous
 62
     7
100
AcDbLine
 10
-50.62157287525383
 20
-15.94999999999999
 30
0.0
 11
-42.87157287525383
 21
-8.199999999999986
 31
0.0
  0
LINE
  5
93
330
35C
100
AcDbEntity
  8
0
  6
Continuous
 62
     7
100
AcDbLine
 10
-53.45000000000003
 20
-15.94999999999999
 30
0.0
 11
-45.70000000000002
 21
-8.199999999999986
 31
0.0
  0
LINE
  5
94
330
35C
100
AcDbEntity
  8
0
  6
Continuous
 62
     7
100
AcDbLine
 10
-56.27842712474621
 20
-15.94999999999999
 30
0.0
 11
-48.52842712474621
 21
-8.199999999999986
 31
0.0
  0
LINE
  5
95
330
35C
100
AcDbEntity
  8
0
  6
Continuous
 62
     7
100
AcDbLine
 10
-59.10685424949242
 20
-15.94999999999999
 30
0.0
 11
-51.3568542494924
 21
-8.199999999999986
 31
0.0
  0
LINE
  5
96
330
35C
100
AcDbEntity
  8
0
  6
Continuous
 62
     7
100
AcDbLine
 10
-61.93528137423861
 20
-15.94999999999999
 30
0.0
 11
-54.1852813742386
 21
-8.199999999999986
 31
0.0
  0
LINE
  5
97
330
35C
100
AcDbEntity
  8
0
  6
Continuous
 62
     7
100
AcDbLine
 10
-64.76370849898478
 20
-15.94999999999999
 30
0.0
 11
-57.01370849898478
 21
-8.199999999999986
 31
0.0
  0
LINE
  5
98
330
35C
100
AcDbEntity
  8
0
  6
Continuous
 62
     7
100
AcDbLine
 10
-67.59213562373097
 20
-15.94999999999999
 30
0.0
 11
-59.84213562373096
 21
-8.199999999999986
 31
0.0
  0
LINE
  5
99
330
35C
100
AcDbEntity
  8
0
  6
Continuous
 62
     7
100
AcDbLine
 10
-70.42056274847715
 20
-15.94999999999999
 30
0.0
 11
-62.67056274847714
 21
-8.199999999999986
 31
0.0
  0
LINE
  5
9A
330
35C
100
AcDbEntity
  8
0
  6
Continuous
 62
     7
100
AcDbLine
 10
-73.24898987322334
 20
-15.94999999999999
 30
0.0
 11
-65.49898987322335
 21
-8.199999999999986
 31
0.0
  0
LINE
  5
9B
330
35C
100
AcDbEntity
  8
0
  6
Continuous
 62
     7
100
AcDbLine
 10
-76.07741699796955
 20
-15.94999999999999
 30
0.0
 11
-68.32741699796954
 21
-8.199999999999986
 31
0.0
  0
LINE
  5
9C
330
35C
100
AcDbEntity
  8
0
  6
Continuous
 62
     7
100
AcDbLine
 10
-78.90584412271572
 20
-15.94999999999999
 30
0.0
 11
-71.15584412271572
 21
-8.199999999999986
 31
0.0
  0
LINE
  5
9D
330
35C
100
AcDbEntity
  8
0
  6
Continuous
 62
     7
100
AcDbLine
 10
-81.73427124746188
 20
-15.94999999999999
 30
0.0
 11
-73.98427124746189
 21
-8.199999999999986
 31
0.0
  0
LINE
  5
9E
330
35C
100
AcDbEntity
  8
0
  6
Continuous
 62
     7
100
AcDbLine
 10
-84.29895303098033
 20
-15.68625465877224
 30
0.0
 11
-76.81269837220806
 21
-8.199999999999986
 31
0.0
  0
LINE
  5
9F
330
35C
100
AcDbEntity
  8
0
  6
Continuous
 62
     7
100
AcDbLine
 10
-84.50916128444522
 20
-13.06803578749091
 30
0.0
 11
-79.64112549695427
 21
-8.199999999999986
 31
0.0
  0
ENDBLK
  5
A0
330
35C
100
AcDbEntity
  8
PATTERN_FILL
100
AcDbBlockEnd
  0
BLOCK
  5
A1
330
35D
100
AcDbEntity
  8
PATTERN_FILL
100
AcDbBlockBegin
  2
____-3
 70
     0
 10
0.0
 20
0.0
 30
0.0
  3
____-3
  1

  0
LINE
  5
A2
330
35D
100
AcDbEntity
  8
0
  6
Continuous
 62
     7
100
AcDbLine
 10
-44.46431747757525
 20
37.48387009927573
 30
0.0
 11
-47.58044737829953
 21
40.60000000000001
 31
0.0
  0
LINE
  5
A3
330
35D
100
AcDbEntity
  8
0
  6
Continuous
 62
     7
100
AcDbLine
 10
-85.14797974644654
 20
1.800000000000011
 30
0.0
 11
-86.13978526275078
 21
2.791805516304264
 31
0.0
  0
LINE
  5
A4
330
35D
100
AcDbEntity
  8
0
  6
Continuous
 62
     7
100
AcDbLine
 10
-82.31955262170034
 20
1.800000000000011
 30
0.0
 11
-85.74642784805101
 21
5.226875226350657
 31
0.0
  0
LINE
  5
A5
330
35D
100
AcDbEntity
  8
0
  6
Continuous
 62
     7
100
AcDbLine
 10
-79.49112549695418
 20
1.800000000000011
 30
0.0
 11
-85.35307043335121
 21
7.661944936397049
 31
0.0
  0
LINE
  5
A6
330
35D
100
AcDbEntity
  8
0
  6
Continuous
 62
     7
100
AcDbLine
 10
-76.66269837220799
 20
1.800000000000011
 30
0.0
 11
-84.95971301865141
 21
10.09701464644344
 31
0.0
  0
LINE
  5
A7
330
35D
100
AcDbEntity
  8
0
  6
Continuous
 62
     7
100
AcDbLine
 10
-73.83427124746181
 20
1.800000000000011
 30
0.0
 11
-84.56635560395159
 21
12.53208435648982
 31
0.0
  0
LINE
  5
A8
330
35D
100
AcDbEntity
  8
0
  6
Continuous
 62
     7
100
AcDbLine
 10
-71.00584412271563
 20
1.800000000000011
 30
0.0
 11
-84.17299818925181
 21
14.96715406653621
 31
0.0
  0
LINE
  5
A9
330
35D
100
AcDbEntity
  8
0
  6
Continuous
 62
     7
100
AcDbLine
 10
-68.17741699796946
 20
1.800000000000011
 30
0.0
 11
-83.77964077455201
 21
17.4022237765826
 31
0.0
  0
LINE
  5
AA
330
35D
100
AcDbEntity
  8
0
  6
Continuous
 62
     7
100
AcDbLine
 10
-65.34898987322328
 20
1.800000000000011
 30
0.0
 11
-83.3862833598522
 21
19.83729348662897
 31
0.0
  0
LINE
  5
AB
330
35D
100
AcDbEntity
  8
0
  6
Continuous
 62
     7
100
AcDbLine
 10
-62.52056274847707
 20
1.800000000000011
 30
0.0
 11
-82.99292594515241
 21
22.27236319667537
 31
0.0
  0
LINE
  5
AC
330
35D
100
AcDbEntity
  8
0
  6
Continuous
 62
     7
100
AcDbLine
 10
-59.69213562373089
 20
1.800000000000011
 30
0.0
 11
-82.59956853045261
 21
24.70743290672177
 31
0.0
  0
LINE
  5
AD
330
35D
100
AcDbEntity
  8
0
  6
Continuous
 62
     7
100
AcDbLine
 10
-56.86370849898472
 20
1.800000000000011
 30
0.0
 11
-82.2062111157528
 21
27.14250261676815
 31
0.0
  0
LINE
  5
AE
330
35D
100
AcDbEntity
  8
0
  6
Continuous
 62
     7
100
AcDbLine
 10
-54.03528137423852
 20
1.800000000000011
 30
0.0
 11
-81.81285370105301
 21
29.57757232681455
 31
0.0
  0
LINE
  5
AF
330
35D
100
AcDbEntity
  8
0
  6
Continuous
 62
     7
100
AcDbLine
 10
-51.20685424949233
 20
1.800000000000011
 30
0.0
 11
-81.41949628635321
 21
32.01264203686092
 31
0.0
  0
LINE
  5
B0
330
35D
100
AcDbEntity
  8
0
  6
Continuous
 62
     7
100
AcDbLine
 10
-48.37842712474615
 20
1.800000000000011
 30
0.0
 11
-81.0261388716534
 21
34.44771174690731
 31
0.0
  0
LINE
  5
B1
330
35D
100
AcDbEntity
  8
0
  6
Continuous
 62
     7
100
AcDbLine
 10
-45.54999999999997
 20
1.800000000000011
 30
0.0
 11
-80.63278145695361
 21
36.88278145695369
 31
0.0
  0
LINE
  5
B2
330
35D
100
AcDbEntity
  8
0
  6
Continuous
 62
     7
100
AcDbLine
 10
-42.72157287525376
 20
1.800000000000011
 30
0.0
 11
-80.20798006057745
 21
39.28640718532371
 31
0.0
  0
LINE
  5
B3
330
35D
100
AcDbEntity
  8
0
  6
Continuous
 62
     7
100
AcDbLine
 10
-39.89314575050759
 20
1.800000000000011
 30
0.0
 11
-78.66482714659605
 21
40.57168139608852
 31
0.0
  0
LINE
  5
B4
330
35D
100
AcDbEntity
  8
0
  6
Continuous
 62
     7
100
AcDbLine
 10
-39.01505420971577
 20
3.750335583954381
 30
0.0
 11
-75.86471862576137
 21
40.60000000000001
 31
0.0
  0
LINE
  5
B5
330
35D
100
AcDbEntity
  8
0
  6
Continuous
 62
     7
100
AcDbLine
 10
-39.55998053650171
 20
7.123689035486506
 30
0.0
 11
-73.03629150101518
 21
40.60000000000001
 31
0.0
  0
LINE
  5
B6
330
35D
100
AcDbEntity
  8
0
  6
Continuous
 62
     7
100
AcDbLine
 10
-40.10490686328767
 20
10.49704248701864
 30
0.0
 11
-70.207864376269
 21
40.60000000000001
 31
0.0
  0
LINE
  5
B7
330
35D
100
AcDbEntity
  8
0
  6
Continuous
 62
     7
100
AcDbLine
 10
-40.6498331900736
 20
13.87039593855078
 30
0.0
 11
-67.37943725152281
 21
40.60000000000001
 31
0.0
  0
LINE
  5
B8
330
35D
100
AcDbEntity
  8
0
  6
Continuous
 62
     7
100
AcDbLine
 10
-41.19475951685956
 20
17.24374939008291
 30
0.0
 11
-64.55101012677665
 21
40.60000000000001
 31
0.0
  0
LINE
  5
B9
330
35D
100
AcDbEntity
  8
0
  6
Continuous
 62
     7
100
AcDbLine
 10
-41.73968584364552
 20
20.6171028416151
 30
0.0
 11
-61.72258300203044
 21
40.60000000000001
 31
0.0
  0
LINE
  5
BA
330
35D
100
AcDbEntity
  8
0
  6
Continuous
 62
     7
100
AcDbLine
 10
-42.28461217043147
 20
23.99045629314723
 30
0.0
 11
-58.89415587728425
 21
40.60000000000001
 31
0.0
  0
LINE
  5
BB
330
35D
100
AcDbEntity
  8
0
  6
Continuous
 62
     7
100
AcDbLine
 10
-42.8295384972174
 20
27.36380974467936
 30
0.0
 11
-56.06572875253807
 21
40.60000000000001
 31
0.0
  0
LINE
  5
BC
330
35D
100
AcDbEntity
  8
0
  6
Continuous
 62
     7
100
AcDbLine
 10
-43.37446482400336
 20
30.73716319621146
 30
0.0
 11
-53.23730162779189
 21
40.60000000000001
 31
0.0
  0
LINE
  5
BD
330
35D
100
AcDbEntity
  8
0
  6
Continuous
 62
     7
100
AcDbLine
 10
-43.91939115078931
 20
34.11051664774361
 30
0.0
 11
-50.4088745030457
 21
40.60000000000001
 31
0.0
  0
ENDBLK
  5
BE
330
35D
100
AcDbEntity
  8
PATTERN_FILL
100
AcDbBlockEnd
  0
BLOCK
  5
BF
330
35E
100
AcDbEntity
  8
PATTERN_FILL
100
AcDbBlockBegin
  2
____-4
 70
     0
 10
0.0
 20
0.0
 30
0.0
  3
____-4
  1

  0
LINE
  5
C0
330
35E
100
AcDbEntity
  8
0
  6
Continuous
 62
     7
100
AcDbLine
 10
-40.28063046208993
 20
-10.44981691620958
 30
0.0
 11
-42.53044737829953
 21
-8.199999999999986
 31
0.0
  0
LINE
  5
C1
330
35E
100
AcDbEntity
  8
0
  6
Continuous
 62
     7
100
AcDbLine
 10
-82.86370849898473
 20
-15.94999999999999
 30
0.0
 11
-84.40121952308166
 21
-14.41248897590307
 31
0.0
  0
LINE
  5
C2
330
35E
100
AcDbEntity
  8
0
  6
Continuous
 62
     7
100
AcDbLine
 10
-80.03528137423852
 20
-15.94999999999999
 30
0.0
 11
-84.64812820427537
 21
-11.33715316996317
 31
0.0
  0
LINE
  5
C3
330
35E
100
AcDbEntity
  8
0
  6
Continuous
 62
     7
100
AcDbLine
 10
-77.20685424949234
 20
-15.94999999999999
 30
0.0
 11
-84.89503688546907
 21
-8.261817364023286
 31
0.0
  0
LINE
  5
C4
330
35E
100
AcDbEntity
  8
0
  6
Continuous
 62
     7
100
AcDbLine
 10
-74.37842712474616
 20
-15.94999999999999
 30
0.0
 11
-82.12842712474616
 21
-8.199999999999986
 31
0.0
  0
LINE
  5
C5
330
35E
100
AcDbEntity
  8
0
  6
Continuous
 62
     7
100
AcDbLine
 10
-71.54999999999997
 20
-15.94999999999999
 30
0.0
 11
-79.29999999999998
 21
-8.199999999999986
 31
0.0
  0
LINE
  5
C6
330
35E
100
AcDbEntity
  8
0
  6
Continuous
 62
     7
100
AcDbLine
 10
-68.72157287525379
 20
-15.94999999999999
 30
0.0
 11
-76.4715728752538
 21
-8.199999999999986
 31
0.0
  0
LINE
  5
C7
330
35E
100
AcDbEntity
  8
0
  6
Continuous
 62
     7
100
AcDbLine
 10
-65.8931457505076
 20
-15.94999999999999
 30
0.0
 11
-73.64314575050757
 21
-8.199999999999986
 31
0.0
  0
LINE
  5
C8
330
35E
100
AcDbEntity
  8
0
  6
Continuous
 62
     7
100
AcDbLine
 10
-63.06471862576139
 20
-15.94999999999999
 30
0.0
 11
-70.8147186257614
 21
-8.199999999999986
 31
0.0
  0
LINE
  5
C9
330
35E
100
AcDbEntity
  8
0
  6
Continuous
 62
     7
100
AcDbLine
 10
-60.23629150101522
 20
-15.94999999999999
 30
0.0
 11
-67.98629150101522
 21
-8.199999999999986
 31
0.0
  0
LINE
  5
CA
330
35E
100
AcDbEntity
  8
0
  6
Continuous
 62
     7
100
AcDbLine
 10
-57.40786437626903
 20
-15.94999999999999
 30
0.0
 11
-65.15786437626903
 21
-8.199999999999986
 31
0.0
  0
LINE
  5
CB
330
35E
100
AcDbEntity
  8
0
  6
Continuous
 62
     7
100
AcDbLine
 10
-54.57943725152285
 20
-15.94999999999999
 30
0.0
 11
-62.32943725152285
 21
-8.199999999999986
 31
0.0
  0
LINE
  5
CC
330
35E
100
AcDbEntity
  8
0
  6
Continuous
 62
     7
100
AcDbLine
 10
-51.75101012677664
 20
-15.94999999999999
 30
0.0
 11
-59.50101012677665
 21
-8.199999999999986
 31
0.0
  0
LINE
  5
CD
330
35E
100
AcDbEntity
  8
0
  6
Continuous
 62
     7
100
AcDbLine
 10
-48.92258300203046
 20
-15.94999999999999
 30
0.0
 11
-56.67258300203045
 21
-8.199999999999986
 31
0.0
  0
LINE
  5
CE
330
35E
100
AcDbEntity
  8
0
  6
Continuous
 62
     7
100
AcDbLine
 10
-46.09415587728427
 20
-15.94999999999999
 30
0.0
 11
-53.84415587728428
 21
-8.199999999999986
 31
0.0
  0
LINE
  5
CF
330
35E
100
AcDbEntity
  8
0
  6
Continuous
 62
     7
100
AcDbLine
 10
-43.2657287525381
 20
-15.94999999999999
 30
0.0
 11
-51.0157287525381
 21
-8.199999999999986
 31
0.0
  0
LINE
  5
D0
330
35E
100
AcDbEntity
  8
0
  6
Continuous
 62
     7
100
AcDbLine
 10
-40.70104696901966
 20
-15.68625465877224
 30
0.0
 11
-48.18730162779193
 21
-8.199999999999986
 31
0.0
  0
LINE
  5
D1
330
35E
100
AcDbEntity
  8
0
  6
Continuous
 62
     7
100
AcDbLine
 10
-40.49083871555478
 20
-13.06803578749091
 30
0.0
 11
-45.35887450304573
 21
-8.199999999999986
 31
0.0
  0
ENDBLK
  5
D2
330
35E
100
AcDbEntity
  8
PATTERN_FILL
100
AcDbBlockEnd
  0
BLOCK
  5
D3
330
35F
100
AcDbEntity
  8
PATTERN_FILL
100
AcDbBlockBegin
  2
____-5
 70
     0
 10
0.0
 20
0.0
 30
0.0
  3
____-5
  1

  0
LINE
  5
D4
330
35F
100
AcDbEntity
  8
0
  6
Continuous
 62
     7
100
AcDbLine
 10
-83.33387198245857
 20
-170.3780278597428
 30
0.0
 11
-73.37197214025713
 21
-160.4161280175414
 31
0.0
  0
LINE
  5
D5
330
35F
100
AcDbEntity
  8
0
  6
Continuous
 62
     7
100
AcDbLine
 10
-45.17260926379171
 20
-194.4421618854923
 30
0.0
 11
-40.66266890467153
 21
-189.9322215263721
 31
0.0
  0
LINE
  5
D6
330
35F
100
AcDbEntity
  8
0
  6
Continuous
 62
     7
100
AcDbLine
 10
-53.81777847362777
 20
-203.0873310953284
 30
0.0
 11
-49.30783811450761
 21
-198.5773907362082
 31
0.0
  0
LINE
  5
D7
330
35F
100
AcDbEntity
  8
0
  6
Continuous
 62
     7
100
AcDbLine
 10
-41.91379969657917
 20
-188.3549251935336
 30
0.0
 11
-39.46610812278674
 21
-185.9072336197412
 31
0.0
  0
LINE
  5
D8
330
35F
100
AcDbEntity
  8
0
  6
Continuous
 62
     7
100
AcDbLine
 10
-57.84276638025878
 20
-204.2838918772133
 30
0.0
 11
-55.39507480646634
 21
-201.8362003034208
 31
0.0
  0
LINE
  5
D9
330
35F
100
AcDbEntity
  8
0
  6
Continuous
 62
     7
100
AcDbLine
 10
-40.98034184675103
 20
-184.5930402189592
 30
0.0
 11
-39.04202134641364
 21
-182.6547197186218
 31
0.0
  0
LINE
  5
DA
330
35F
100
AcDbEntity
  8
0
  6
Continuous
 62
     7
100
AcDbLine
 10
-61.09528028137808
 20
-204.7079786535864
 30
0.0
 11
-59.1569597810407
 21
-202.7696581532489
 31
0.0
  0
LINE
  5
DB
330
35F
100
AcDbEntity
  8
0
  6
Continuous
 62
     7
100
AcDbLine
 10
-40.72375079208122
 20
-181.5080220395433
 30
0.0
 11
-39.04310060647349
 21
-179.8273718539355
 31
0.0
  0
LINE
  5
DC
330
35F
100
AcDbEntity
  8
0
  6
Continuous
 62
     7
100
AcDbLine
 10
-63.9226281460644
 20
-204.7068993935265
 30
0.0
 11
-62.24197796045668
 21
-203.0262492079188
 31
0.0
  0
LINE
  5
DD
330
35F
100
AcDbEntity
  8
0
  6
Continuous
 62
     7
100
AcDbLine
 10
-40.85881849831506
 20
-178.8146626210309
 30
0.0
 11
-39.33577682541977
 21
-177.2916209481356
 31
0.0
  0
LINE
  5
DE
330
35F
100
AcDbEntity
  8
0
  6
Continuous
 62
     7
100
AcDbLine
 10
-66.45837905186437
 20
-204.4142231745802
 30
0.0
 11
-64.9353373789691
 21
-202.8911815016849
 31
0.0
  0
LINE
  5
DF
330
35F
100
AcDbEntity
  8
0
  6
Continuous
 62
     7
100
AcDbLine
 10
-41.26978638895891
 20
-176.3972033869285
 30
0.0
 11
-39.85203657143277
 21
-174.9794535694024
 31
0.0
  0
LINE
  5
E0
330
35F
100
AcDbEntity
  8
0
  6
Continuous
 62
     7
100
AcDbLine
 10
-68.77054643059756
 20
-203.8979634285672
 30
0.0
 11
-67.35279661307143
 21
-202.4802136110411
 31
0.0
  0
LINE
  5
E1
330
35F
100
AcDbEntity
  8
0
  6
Continuous
 62
     7
100
AcDbLine
 10
-41.89647686821283
 20
-174.1954667414362
 30
0.0
 11
-40.55213304679878
 21
-172.8511229200222
 31
0.0
  0
LINE
  5
E2
330
35F
100
AcDbEntity
  8
0
  6
Continuous
 62
     7
100
AcDbLine
 10
-70.89887707997775
 20
-203.1978669532013
 30
0.0
 11
-69.55453325856369
 21
-201.8535231317872
 31
0.0
  0
LINE
  5
E3
330
35F
100
AcDbEntity
  8
0
  6
Continuous
 62
     7
100
AcDbLine
 10
-42.7035423294519
 20
-172.1741050779291
 30
0.0
 11
-41.41100654914845
 21
-170.8815692976257
 31
0.0
  0
LINE
  5
E4
330
35F
100
AcDbEntity
  8
0
  6
Continuous
 62
     7
100
AcDbLine
 10
-72.86843070237427
 20
-202.3389934508515
 30
0.0
 11
-71.57589492207084
 21
-201.0464576705481
 31
0.0
  0
LINE
  5
E5
330
35F
100
AcDbEntity
  8
0
  6
Continuous
 62
     7
100
AcDbLine
 10
-43.66889435501842
 20
-170.3110299787494
 30
0.0
 11
-42.41226099757439
 21
-169.0543966213054
 31
0.0
  0
LINE
  5
E6
330
35F
100
AcDbEntity
  8
0
  6
Continuous
 62
     7
100
AcDbLine
 10
-74.69560337869454
 20
-201.3377390024256
 30
0.0
 11
-73.4389700212505
 21
-200.0811056449816
 31
0.0
  0
LINE
  5
E7
330
35F
100
AcDbEntity
  8
0
  6
Continuous
 62
     7
100
AcDbLine
 10
-44.77849412420416
 20
-168.592202623189
 30
0.0
 11
-43.54515229440077
 21
-167.3588607933856
 31
0.0
  0
LINE
  5
E8
330
35F
100
AcDbEntity
  8
0
  6
Continuous
 62
     7
100
AcDbLine
 10
-76.39113920661436
 20
-200.2048477055993
 30
0.0
 11
-75.15779737681095
 21
-198.9715058757958
 31
0.0
  0
LINE
  5
E9
330
35F
100
AcDbEntity
  8
0
  6
Continuous
 62
     7
100
AcDbLine
 10
-46.02375645442931
 20
-167.0090378286679
 30
0.0
 11
-44.80297816355863
 21
-165.7882595377973
 31
0.0
  0
LINE
  5
EA
330
35F
100
AcDbEntity
  8
0
  6
Continuous
 62
     7
100
AcDbLine
 10
-77.96174046220269
 20
-198.9470218364414
 30
0.0
 11
-76.74096217133203
 21
-197.7262435455706
 31
0.0
  0
LINE
  5
EB
330
35F
100
AcDbEntity
  8
0
  6
Continuous
 62
     7
100
AcDbLine
 10
-47.40021463705991
 20
-165.5570688865523
 30
0.0
 11
-46.18221027749928
 21
-164.3390645269917
 31
0.0
  0
LINE
  5
EC
330
35F
100
AcDbEntity
  8
0
  6
Continuous
 62
     7
100
AcDbLine
 10
-79.41093547300827
 20
-197.5677897225008
 30
0.0
 11
-78.19293111344762
 21
-196.3497853629401
 31
0.0
  0
LINE
  5
ED
330
35F
100
AcDbEntity
  8
0
  6
Continuous
 62
     7
100
AcDbLine
 10
-48.90689764314175
 20
-164.235324767888
 30
0.0
 11
-47.6820777837474
 21
-163.0105049084936
 31
0.0
  0
LINE
  5
EE
330
35F
100
AcDbEntity
  8
0
  6
Continuous
 62
     7
100
AcDbLine
 10
-80.73949509150635
 20
-196.0679222162525
 30
0.0
 11
-79.51467523211198
 21
-194.8431023568582
 31
0.0
  0
LINE
  5
EF
330
35F
100
AcDbEntity
  8
0
  6
Continuous
 62
     7
100
AcDbLine
 10
-50.54620106012628
 20
-163.0462010601263
 30
0.0
 11
-49.30447994088424
 21
-161.8044799408842
 31
0.0
  0
LINE
  5
F0
330
35F
100
AcDbEntity
  8
0
  6
Continuous
 62
     7
100
AcDbLine
 10
-81.94552005911571
 20
-194.4455200591157
 30
0.0
 11
-80.70379893987366
 21
-193.2037989398737
 31
0.0
  0
LINE
  5
F1
330
35F
100
AcDbEntity
  8
0
  6
Continuous
 62
     7
100
AcDbLine
 10
-52.32420956290689
 20
-161.9957824381607
 30
0.0
 11
-51.05420370203308
 21
-160.7257765772868
 31
0.0
  0
LINE
  5
F2
330
35F
100
AcDbEntity
  8
0
  6
Continuous
 62
     7
100
AcDbLine
 10
-83.02422342271306
 20
-192.6957962979669
 30
0.0
 11
-81.75421756183927
 21
-191.4257904370932
 31
0.0
  0
LINE
  5
F3
330
35F
100
AcDbEntity
  8
0
  6
Continuous
 62
     7
100
AcDbLine
 10
-54.2515783739859
 20
-161.0947241244935
 30
0.0
 11
-52.93950739212107
 21
-159.7826531426286
 31
0.0
  0
LINE
  5
F4
330
35F
100
AcDbEntity
  8
0
  6
Continuous
 62
     7
100
AcDbLine
 10
-83.96734685737127
 20
-190.8104926078789
 30
0.0
 11
-82.65527587550643
 21
-189.4984216260141
 31
0.0
  0
LINE
  5
F5
330
35F
100
AcDbEntity
  8
0
  6
Continuous
 62
     7
100
AcDbLine
 10
-56.34530090531227
 20
-160.3600195310737
 30
0.0
 11
-54.97325010859931
 21
-158.9879687343607
 31
0.0
  0
LINE
  5
F6
330
35F
100
AcDbEntity
  8
0
  6
Continuous
 62
     7
100
AcDbLine
 10
-84.76203126563923
 20
-188.7767498914007
 30
0.0
 11
-83.38998046892626
 21
-187.4046990946877
 31
0.0
  0
LINE
  5
F7
330
35F
100
AcDbEntity
  8
0
  6
Continuous
 62
     7
100
AcDbLine
 10
-58.63215708276906
 20
-159.8184485837843
 30
0.0
 11
-57.17497522042749
 21
-158.3612667214427
 31
0.0
  0
LINE
  5
F8
330
35F
100
AcDbEntity
  8
0
  6
Continuous
 62
     7
100
AcDbLine
 10
-85.38873327855725
 20
-186.5750247795725
 30
0.0
 11
-83.93155141621567
 21
-185.1178429172309
 31
0.0
  0
LINE
  5
F9
330
35F
100
AcDbEntity
  8
0
  6
Continuous
 62
     7
100
AcDbLine
 10
-61.15587701426701
 20
-159.513741390536
 30
0.0
 11
-59.57489403907219
 21
-157.9327584153412
 31
0.0
  0
LINE
  5
FA
330
35F
100
AcDbEntity
  8
0
  6
Continuous
 62
     7
100
AcDbLine
 10
-85.81724158465872
 20
-184.1751059609278
 30
0.0
 11
-84.23625860946394
 21
-182.594122985733
 31
0.0
  0
LINE
  5
FB
330
35F
100
AcDbEntity
  8
0
  6
Continuous
 62
     7
100
AcDbLine
 10
-63.99409786067264
 20
-159.5235351121955
 30
0.0
 11
-62.22220472530121
 21
-157.751641976824
 31
0.0
  0
LINE
  5
FC
330
35F
100
AcDbEntity
  8
0
  6
Continuous
 62
     7
100
AcDbLine
 10
-85.99835802317597
 20
-181.5277952746988
 30
0.0
 11
-84.22646488780451
 21
-179.7559021393274
 31
0.0
  0
LINE
  5
FD
330
35F
100
AcDbEntity
  8
0
  6
Continuous
 62
     7
100
AcDbLine
 10
-67.30875795717316
 20
-160.0097680839498
 30
0.0
 11
-65.2052153277349
 21
-157.9062254545116
 31
0.0
  0
LINE
  5
FE
330
35F
100
AcDbEntity
  8
0
  6
Continuous
 62
     7
100
AcDbLine
 10
-85.84377454548848
 20
-178.5447846722651
 30
0.0
 11
-83.7402319160502
 21
-176.4412420428269
 31
0.0
  0
LINE
  5
FF
330
35F
100
AcDbEntity
  8
0
  6
Continuous
 62
     7
100
AcDbLine
 10
-71.58525173251321
 20
-161.4578347345437
 30
0.0
 11
-68.71382571068045
 21
-158.5864087127109
 31
0.0
  0
LINE
  5
100
330
35F
100
AcDbEntity
  8
0
  6
Continuous
 62
     7
100
AcDbLine
 10
-85.16359128728907
 20
-175.0361742893196
 30
0.0
 11
-82.29216526545629
 21
-172.1647482674868
 31
0.0
  0
ENDBLK
  5
101
330
35F
100
AcDbEntity
  8
PATTERN_FILL
100
AcDbBlockEnd
  0
BLOCK
  5
102
330
360
100
AcDbEntity
  8
PATTERN_FILL
100
AcDbBlockBegin
  2
____-6
 70
     0
 10
0.0
 20
0.0
 30
0.0
  3
____-6
  1

  0
LINE
  5
103
330
360
100
AcDbEntity
  8
0
  6
Continuous
 62
     7
100
AcDbLine
 10
-41.66612801754142
 20
-170.3780278597428
 30
0.0
 11
-51.62802785974287
 21
-160.4161280175414
 31
0.0
  0
LINE
  5
104
330
360
100
AcDbEntity
  8
0
  6
Continuous
 62
     7
100
AcDbLine
 10
-79.8273907362083
 20
-194.4421618854923
 30
0.0
 11
-84.33733109532845
 21
-189.9322215263721
 31
0.0
  0
LINE
  5
105
330
360
100
AcDbEntity
  8
0
  6
Continuous
 62
     7
100
AcDbLine
 10
-71.18222152637222
 20
-203.0873310953284
 30
0.0
 11
-75.69216188549237
 21
-198.5773907362082
 31
0.0
  0
LINE
  5
106
330
360
100
AcDbEntity
  8
0
  6
Continuous
 62
     7
100
AcDbLine
 10
-83.08620030342083
 20
-188.3549251935336
 30
0.0
 11
-85.53389187721325
 21
-185.9072336197412
 31
0.0
  0
LINE
  5
107
330
360
100
AcDbEntity
  8
0
  6
Continuous
 62
     7
100
AcDbLine
 10
-67.15723361974122
 20
-204.2838918772133
 30
0.0
 11
-69.60492519353365
 21
-201.8362003034208
 31
0.0
  0
LINE
  5
108
330
360
100
AcDbEntity
  8
0
  6
Continuous
 62
     7
100
AcDbLine
 10
-84.01965815324897
 20
-184.5930402189592
 30
0.0
 11
-85.95797865358637
 21
-182.6547197186218
 31
0.0
  0
LINE
  5
109
330
360
100
AcDbEntity
  8
0
  6
Continuous
 62
     7
100
AcDbLine
 10
-63.90471971862192
 20
-204.7079786535864
 30
0.0
 11
-65.84304021895929
 21
-202.7696581532489
 31
0.0
  0
LINE
  5
10A
330
360
100
AcDbEntity
  8
0
  6
Continuous
 62
     7
100
AcDbLine
 10
-84.27624920791876
 20
-181.5080220395433
 30
0.0
 11
-85.9568993935265
 21
-179.8273718539355
 31
0.0
  0
LINE
  5
10B
330
360
100
AcDbEntity
  8
0
  6
Continuous
 62
     7
100
AcDbLine
 10
-61.0773718539356
 20
-204.7068993935265
 30
0.0
 11
-62.75802203954329
 21
-203.0262492079188
 31
0.0
  0
LINE
  5
10C
330
360
100
AcDbEntity
  8
0
  6
Continuous
 62
     7
100
AcDbLine
 10
-84.14118150168494
 20
-178.8146626210309
 30
0.0
 11
-85.66422317458023
 21
-177.2916209481356
 31
0.0
  0
LINE
  5
10D
330
360
100
AcDbEntity
  8
0
  6
Continuous
 62
     7
100
AcDbLine
 10
-58.54162094813563
 20
-204.4142231745802
 30
0.0
 11
-60.0646626210309
 21
-202.8911815016849
 31
0.0
  0
LINE
  5
10E
330
360
100
AcDbEntity
  8
0
  6
Continuous
 62
     7
100
AcDbLine
 10
-83.73021361104109
 20
-176.3972033869285
 30
0.0
 11
-85.14796342856724
 21
-174.9794535694024
 31
0.0
  0
LINE
  5
10F
330
360
100
AcDbEntity
  8
0
  6
Continuous
 62
     7
100
AcDbLine
 10
-56.22945356940244
 20
-203.8979634285672
 30
0.0
 11
-57.64720338692857
 21
-202.4802136110411
 31
0.0
  0
LINE
  5
110
330
360
100
AcDbEntity
  8
0
  6
Continuous
 62
     7
100
AcDbLine
 10
-83.10352313178716
 20
-174.1954667414362
 30
0.0
 11
-84.44786695320122
 21
-172.8511229200222
 31
0.0
  0
LINE
  5
111
330
360
100
AcDbEntity
  8
0
  6
Continuous
 62
     7
100
AcDbLine
 10
-54.10112292002224
 20
-203.1978669532013
 30
0.0
 11
-55.44546674143632
 21
-201.8535231317872
 31
0.0
  0
LINE
  5
112
330
360
100
AcDbEntity
  8
0
  6
Continuous
 62
     7
100
AcDbLine
 10
-82.2964576705481
 20
-172.1741050779291
 30
0.0
 11
-83.58899345085154
 21
-170.8815692976257
 31
0.0
  0
LINE
  5
113
330
360
100
AcDbEntity
  8
0
  6
Continuous
 62
     7
100
AcDbLine
 10
-52.13156929762572
 20
-202.3389934508515
 30
0.0
 11
-53.42410507792916
 21
-201.0464576705481
 31
0.0
  0
LINE
  5
114
330
360
100
AcDbEntity
  8
0
  6
Continuous
 62
     7
100
AcDbLine
 10
-81.33110564498156
 20
-170.3110299787494
 30
0.0
 11
-82.58773900242562
 21
-169.0543966213054
 31
0.0
  0
LINE
  5
115
330
360
100
AcDbEntity
  8
0
  6
Continuous
 62
     7
100
AcDbLine
 10
-50.30439662130547
 20
-201.3377390024256
 30
0.0
 11
-51.5610299787495
 21
-200.0811056449816
 31
0.0
  0
LINE
  5
116
330
360
100
AcDbEntity
  8
0
  6
Continuous
 62
     7
100
AcDbLine
 10
-80.22150587579581
 20
-168.592202623189
 30
0.0
 11
-81.45484770559923
 21
-167.3588607933856
 31
0.0
  0
LINE
  5
117
330
360
100
AcDbEntity
  8
0
  6
Continuous
 62
     7
100
AcDbLine
 10
-48.60886079338562
 20
-200.2048477055993
 30
0.0
 11
-49.84220262318904
 21
-198.9715058757958
 31
0.0
  0
LINE
  5
118
330
360
100
AcDbEntity
  8
0
  6
Continuous
 62
     7
100
AcDbLine
 10
-78.97624354557068
 20
-167.0090378286679
 30
0.0
 11
-80.19702183644135
 21
-165.7882595377973
 31
0.0
  0
LINE
  5
119
330
360
100
AcDbEntity
  8
0
  6
Continuous
 62
     7
100
AcDbLine
 10
-47.0382595377973
 20
-198.9470218364414
 30
0.0
 11
-48.25903782866796
 21
-197.7262435455706
 31
0.0
  0
LINE
  5
11A
330
360
100
AcDbEntity
  8
0
  6
Continuous
 62
     7
100
AcDbLine
 10
-77.59978536294008
 20
-165.5570688865523
 30
0.0
 11
-78.81778972250072
 21
-164.3390645269917
 31
0.0
  0
LINE
  5
11B
330
360
100
AcDbEntity
  8
0
  6
Continuous
 62
     7
100
AcDbLine
 10
-45.58906452699172
 20
-197.5677897225008
 30
0.0
 11
-46.80706888655236
 21
-196.3497853629401
 31
0.0
  0
LINE
  5
11C
330
360
100
AcDbEntity
  8
0
  6
Continuous
 62
     7
100
AcDbLine
 10
-76.09310235685824
 20
-164.235324767888
 30
0.0
 11
-77.31792221625261
 21
-163.0105049084936
 31
0.0
  0
LINE
  5
11D
330
360
100
AcDbEntity
  8
0
  6
Continuous
 62
     7
100
AcDbLine
 10
-44.26050490849365
 20
-196.0679222162525
 30
0.0
 11
-45.48532476788802
 21
-194.8431023568582
 31
0.0
  0
LINE
  5
11E
330
360
100
AcDbEntity
  8
0
  6
Continuous
 62
     7
100
AcDbLine
 10
-74.45379893987371
 20
-163.0462010601263
 30
0.0
 11
-75.69552005911574
 21
-161.8044799408842
 31
0.0
  0
LINE
  5
11F
330
360
100
AcDbEntity
  8
0
  6
Continuous
 62
     7
100
AcDbLine
 10
-43.05447994088428
 20
-194.4455200591157
 30
0.0
 11
-44.29620106012634
 21
-193.2037989398737
 31
0.0
  0
LINE
  5
120
330
360
100
AcDbEntity
  8
0
  6
Continuous
 62
     7
100
AcDbLine
 10
-72.6757904370931
 20
-161.9957824381607
 30
0.0
 11
-73.94579629796691
 21
-160.7257765772868
 31
0.0
  0
LINE
  5
121
330
360
100
AcDbEntity
  8
0
  6
Continuous
 62
     7
100
AcDbLine
 10
-41.97577657728693
 20
-192.6957962979669
 30
0.0
 11
-43.24578243816072
 21
-191.4257904370932
 31
0.0
  0
LINE
  5
122
330
360
100
AcDbEntity
  8
0
  6
Continuous
 62
     7
100
AcDbLine
 10
-70.74842162601409
 20
-161.0947241244935
 30
0.0
 11
-72.06049260787892
 21
-159.7826531426286
 31
0.0
  0
LINE
  5
123
330
360
100
AcDbEntity
  8
0
  6
Continuous
 62
     7
100
AcDbLine
 10
-41.03265314262872
 20
-190.8104926078789
 30
0.0
 11
-42.34472412449359
 21
-189.4984216260141
 31
0.0
  0
LINE
  5
124
330
360
100
AcDbEntity
  8
0
  6
Continuous
 62
     7
100
AcDbLine
 10
-68.65469909468773
 20
-160.3600195310737
 30
0.0
 11
-70.02674989140068
 21
-158.9879687343607
 31
0.0
  0
LINE
  5
125
330
360
100
AcDbEntity
  8
0
  6
Continuous
 62
     7
100
AcDbLine
 10
-40.23796873436075
 20
-188.7767498914007
 30
0.0
 11
-41.61001953107372
 21
-187.4046990946877
 31
0.0
  0
LINE
  5
126
330
360
100
AcDbEntity
  8
0
  6
Continuous
 62
     7
100
AcDbLine
 10
-66.36784291723095
 20
-159.8184485837843
 30
0.0
 11
-67.82502477957253
 21
-158.3612667214427
 31
0.0
  0
LINE
  5
127
330
360
100
AcDbEntity
  8
0
  6
Continuous
 62
     7
100
AcDbLine
 10
-39.61126672144274
 20
-186.5750247795725
 30
0.0
 11
-41.06844858378432
 21
-185.1178429172309
 31
0.0
  0
LINE
  5
128
330
360
100
AcDbEntity
  8
0
  6
Continuous
 62
     7
100
AcDbLine
 10
-63.84412298573299
 20
-159.513741390536
 30
0.0
 11
-65.42510596092781
 21
-157.9327584153412
 31
0.0
  0
LINE
  5
129
330
360
100
AcDbEntity
  8
0
  6
Continuous
 62
     7
100
AcDbLine
 10
-39.18275841534128
 20
-184.1751059609278
 30
0.0
 11
-40.76374139053607
 21
-182.594122985733
 31
0.0
  0
LINE
  5
12A
330
360
100
AcDbEntity
  8
0
  6
Continuous
 62
     7
100
AcDbLine
 10
-61.00590213932738
 20
-159.5235351121955
 30
0.0
 11
-62.77779527469878
 21
-157.751641976824
 31
0.0
  0
LINE
  5
12B
330
360
100
AcDbEntity
  8
0
  6
Continuous
 62
     7
100
AcDbLine
 10
-39.00164197682403
 20
-181.5277952746988
 30
0.0
 11
-40.77353511219548
 21
-179.7559021393274
 31
0.0
  0
LINE
  5
12C
330
360
100
AcDbEntity
  8
0
  6
Continuous
 62
     7
100
AcDbLine
 10
-57.69124204282684
 20
-160.0097680839498
 30
0.0
 11
-59.7947846722651
 21
-157.9062254545116
 31
0.0
  0
LINE
  5
12D
330
360
100
AcDbEntity
  8
0
  6
Continuous
 62
     7
100
AcDbLine
 10
-39.15622545451152
 20
-178.5447846722651
 30
0.0
 11
-41.25976808394979
 21
-176.4412420428269
 31
0.0
  0
LINE
  5
12E
330
360
100
AcDbEntity
  8
0
  6
Continuous
 62
     7
100
AcDbLine
 10
-53.41474826748677
 20
-161.4578347345437
 30
0.0
 11
-56.28617428931953
 21
-158.5864087127109
 31
0.0
  0
LINE
  5
12F
330
360
100
AcDbEntity
  8
0
  6
Continuous
 62
     7
100
AcDbLine
 10
-39.83640871271093
 20
-175.0361742893196
 30
0.0
 11
-42.7078347345437
 21
-172.1647482674868
 31
0.0
  0
ENDBLK
  5
130
330
360
100
AcDbEntity
  8
PATTERN_FILL
100
AcDbBlockEnd
  0
BLOCK
  5
131
330
361
100
AcDbEntity
  8
PATTERN_FILL
100
AcDbBlockBegin
  2
____-7
 70
     0
 10
0.0
 20
0.0
 30
0.0
  3
____-7
  1

  0
LINE
  5
132
330
361
100
AcDbEntity
  8
0
  6
Continuous
 62
     7
100
AcDbLine
 10
-24.28568252242475
 20
37.48387009927573
 30
0.0
 11
-21.16955262170048
 21
40.60000000000001
 31
0.0
  0
LINE
  5
133
330
361
100
AcDbEntity
  8
0
  6
Continuous
 62
     7
100
AcDbLine
 10
16.39797974644654
 20
1.800000000000011
 30
0.0
 11
17.3897852627508
 21
2.791805516304264
 31
0.0
  0
LINE
  5
134
330
361
100
AcDbEntity
  8
0
  6
Continuous
 62
     7
100
AcDbLine
 10
13.56955262170037
 20
1.800000000000011
 30
0.0
 11
16.996427848051
 21
5.226875226350657
 31
0.0
  0
LINE
  5
135
330
361
100
AcDbEntity
  8
0
  6
Continuous
 62
     7
100
AcDbLine
 10
10.74112549695419
 20
1.800000000000011
 30
0.0
 11
16.60307043335121
 21
7.661944936397049
 31
0.0
  0
LINE
  5
136
330
361
100
AcDbEntity
  8
0
  6
Continuous
 62
     7
100
AcDbLine
 10
7.91269837220799
 20
1.800000000000011
 30
0.0
 11
16.2097130186514
 21
10.09701464644344
 31
0.0
  0
LINE
  5
137
330
361
100
AcDbEntity
  8
0
  6
Continuous
 62
     7
100
AcDbLine
 10
5.084271247461813
 20
1.800000000000011
 30
0.0
 11
15.81635560395161
 21
12.53208435648982
 31
0.0
  0
LINE
  5
138
330
361
100
AcDbEntity
  8
0
  6
Continuous
 62
     7
100
AcDbLine
 10
2.255844122715629
 20
1.800000000000011
 30
0.0
 11
15.42299818925181
 21
14.96715406653621
 31
0.0
  0
LINE
  5
139
330
361
100
AcDbEntity
  8
0
  6
Continuous
 62
     7
100
AcDbLine
 10
-0.5725830020305409
 20
1.800000000000011
 30
0.0
 11
15.02964077455202
 21
17.4022237765826
 31
0.0
  0
LINE
  5
13A
330
361
100
AcDbEntity
  8
0
  6
Continuous
 62
     7
100
AcDbLine
 10
-3.401010126776724
 20
1.800000000000011
 30
0.0
 11
14.63628335985221
 21
19.83729348662897
 31
0.0
  0
LINE
  5
13B
330
361
100
AcDbEntity
  8
0
  6
Continuous
 62
     7
100
AcDbLine
 10
-6.229437251522924
 20
1.800000000000011
 30
0.0
 11
14.24292594515241
 21
22.27236319667537
 31
0.0
  0
LINE
  5
13C
330
361
100
AcDbEntity
  8
0
  6
Continuous
 62
     7
100
AcDbLine
 10
-9.057864376269106
 20
1.800000000000011
 30
0.0
 11
13.84956853045262
 21
24.70743290672177
 31
0.0
  0
LINE
  5
13D
330
361
100
AcDbEntity
  8
0
  6
Continuous
 62
     7
100
AcDbLine
 10
-11.88629150101528
 20
1.800000000000011
 30
0.0
 11
13.45621111575281
 21
27.14250261676815
 31
0.0
  0
LINE
  5
13E
330
361
100
AcDbEntity
  8
0
  6
Continuous
 62
     7
100
AcDbLine
 10
-14.71471862576147
 20
1.800000000000011
 30
0.0
 11
13.06285370105302
 21
29.57757232681455
 31
0.0
  0
LINE
  5
13F
330
361
100
AcDbEntity
  8
0
  6
Continuous
 62
     7
100
AcDbLine
 10
-17.54314575050766
 20
1.800000000000011
 30
0.0
 11
12.66949628635321
 21
32.01264203686092
 31
0.0
  0
LINE
  5
140
330
361
100
AcDbEntity
  8
0
  6
Continuous
 62
     7
100
AcDbLine
 10
-20.37157287525385
 20
1.800000000000011
 30
0.0
 11
12.27613887165341
 21
34.44771174690731
 31
0.0
  0
LINE
  5
141
330
361
100
AcDbEntity
  8
0
  6
Continuous
 62
     7
100
AcDbLine
 10
-23.20000000000003
 20
1.800000000000011
 30
0.0
 11
11.88278145695362
 21
36.88278145695369
 31
0.0
  0
LINE
  5
142
330
361
100
AcDbEntity
  8
0
  6
Continuous
 62
     7
100
AcDbLine
 10
-26.02842712474621
 20
1.800000000000011
 30
0.0
 11
11.45798006057745
 21
39.28640718532371
 31
0.0
  0
LINE
  5
143
330
361
100
AcDbEntity
  8
0
  6
Continuous
 62
     7
100
AcDbLine
 10
-28.85685424949241
 20
1.800000000000011
 30
0.0
 11
9.91482714659606
 21
40.57168139608852
 31
0.0
  0
LINE
  5
144
330
361
100
AcDbEntity
  8
0
  6
Continuous
 62
     7
100
AcDbLine
 10
-29.73494579028423
 20
3.750335583954381
 30
0.0
 11
7.114718625761369
 21
40.60000000000001
 31
0.0
  0
LINE
  5
145
330
361
100
AcDbEntity
  8
0
  6
Continuous
 62
     7
100
AcDbLine
 10
-29.19001946349829
 20
7.123689035486506
 30
0.0
 11
4.286291501015185
 21
40.60000000000001
 31
0.0
  0
LINE
  5
146
330
361
100
AcDbEntity
  8
0
  6
Continuous
 62
     7
100
AcDbLine
 10
-28.64509313671233
 20
10.49704248701864
 30
0.0
 11
1.457864376269
 21
40.60000000000001
 31
0.0
  0
LINE
  5
147
330
361
100
AcDbEntity
  8
0
  6
Continuous
 62
     7
100
AcDbLine
 10
-28.10016680992639
 20
13.87039593855078
 30
0.0
 11
-1.370562748477183
 21
40.60000000000001
 31
0.0
  0
LINE
  5
148
330
361
100
AcDbEntity
  8
0
  6
Continuous
 62
     7
100
AcDbLine
 10
-27.55524048314044
 20
17.24374939008291
 30
0.0
 11
-4.198989873223353
 21
40.60000000000001
 31
0.0
  0
LINE
  5
149
330
361
100
AcDbEntity
  8
0
  6
Continuous
 62
     7
100
AcDbLine
 10
-27.01031415635448
 20
20.6171028416151
 30
0.0
 11
-7.027416997969567
 21
40.60000000000001
 31
0.0
  0
LINE
  5
14A
330
361
100
AcDbEntity
  8
0
  6
Continuous
 62
     7
100
AcDbLine
 10
-26.46538782956853
 20
23.99045629314723
 30
0.0
 11
-9.855844122715751
 21
40.60000000000001
 31
0.0
  0
LINE
  5
14B
330
361
100
AcDbEntity
  8
0
  6
Continuous
 62
     7
100
AcDbLine
 10
-25.92046150278259
 20
27.36380974467936
 30
0.0
 11
-12.68427124746194
 21
40.60000000000001
 31
0.0
  0
LINE
  5
14C
330
361
100
AcDbEntity
  8
0
  6
Continuous
 62
     7
100
AcDbLine
 10
-25.37553517599665
 20
30.73716319621146
 30
0.0
 11
-15.5126983722081
 21
40.60000000000001
 31
0.0
  0
LINE
  5
14D
330
361
100
AcDbEntity
  8
0
  6
Continuous
 62
     7
100
AcDbLine
 10
-24.83060884921069
 20
34.11051664774361
 30
0.0
 11
-18.34112549695429
 21
40.60000000000001
 31
0.0
  0
ENDBLK
  5
14E
330
361
100
AcDbEntity
  8
PATTERN_FILL
100
AcDbBlockEnd
  0
BLOCK
  5
14F
330
362
100
AcDbEntity
  8
PATTERN_FILL
100
AcDbBlockBegin
  2
____-8
 70
     0
 10
0.0
 20
0.0
 30
0.0
  3
____-8
  1

  0
LINE
  5
150
330
362
100
AcDbEntity
  8
0
  6
Continuous
 62
     7
100
AcDbLine
 10
-28.46936953791007
 20
-10.44981691620958
 30
0.0
 11
-26.21955262170048
 21
-8.199999999999986
 31
0.0
  0
LINE
  5
151
330
362
100
AcDbEntity
  8
0
  6
Continuous
 62
     7
100
AcDbLine
 10
14.11370849898473
 20
-15.94999999999999
 30
0.0
 11
15.65121952308165
 21
-14.41248897590307
 31
0.0
  0
LINE
  5
152
330
362
100
AcDbEntity
  8
0
  6
Continuous
 62
     7
100
AcDbLine
 10
11.28528137423854
 20
-15.94999999999999
 30
0.0
 11
15.89812820427536
 21
-11.33715316996317
 31
0.0
  0
LINE
  5
153
330
362
100
AcDbEntity
  8
0
  6
Continuous
 62
     7
100
AcDbLine
 10
8.456854249492344
 20
-15.94999999999999
 30
0.0
 11
16.14503688546905
 21
-8.261817364023286
 31
0.0
  0
LINE
  5
154
330
362
100
AcDbEntity
  8
0
  6
Continuous
 62
     7
100
AcDbLine
 10
5.62842712474616
 20
-15.94999999999999
 30
0.0
 11
13.37842712474617
 21
-8.199999999999986
 31
0.0
  0
LINE
  5
155
330
362
100
AcDbEntity
  8
0
  6
Continuous
 62
     7
100
AcDbLine
 10
2.799999999999968
 20
-15.94999999999999
 30
0.0
 11
10.54999999999997
 21
-8.199999999999986
 31
0.0
  0
LINE
  5
156
330
362
100
AcDbEntity
  8
0
  6
Continuous
 62
     7
100
AcDbLine
 10
-0.0284271247462158
 20
-15.94999999999999
 30
0.0
 11
7.72157287525379
 21
-8.199999999999986
 31
0.0
  0
LINE
  5
157
330
362
100
AcDbEntity
  8
0
  6
Continuous
 62
     7
100
AcDbLine
 10
-2.856854249492414
 20
-15.94999999999999
 30
0.0
 11
4.893145750507592
 21
-8.199999999999986
 31
0.0
  0
LINE
  5
158
330
362
100
AcDbEntity
  8
0
  6
Continuous
 62
     7
100
AcDbLine
 10
-5.685281374238598
 20
-15.94999999999999
 30
0.0
 11
2.0647186257614
 21
-8.199999999999986
 31
0.0
  0
LINE
  5
159
330
362
100
AcDbEntity
  8
0
  6
Continuous
 62
     7
100
AcDbLine
 10
-8.513708498984781
 20
-15.94999999999999
 30
0.0
 11
-0.7637084989847836
 21
-8.199999999999986
 31
0.0
  0
LINE
  5
15A
330
362
100
AcDbEntity
  8
0
  6
Continuous
 62
     7
100
AcDbLine
 10
-11.34213562373096
 20
-15.94999999999999
 30
0.0
 11
-3.592135623730968
 21
-8.199999999999986
 31
0.0
  0
LINE
  5
15B
330
362
100
AcDbEntity
  8
0
  6
Continuous
 62
     7
100
AcDbLine
 10
-14.17056274847715
 20
-15.94999999999999
 30
0.0
 11
-6.420562748477152
 21
-8.199999999999986
 31
0.0
  0
LINE
  5
15C
330
362
100
AcDbEntity
  8
0
  6
Continuous
 62
     7
100
AcDbLine
 10
-16.99898987322335
 20
-15.94999999999999
 30
0.0
 11
-9.248989873223351
 21
-8.199999999999986
 31
0.0
  0
LINE
  5
15D
330
362
100
AcDbEntity
  8
0
  6
Continuous
 62
     7
100
AcDbLine
 10
-19.82741699796953
 20
-15.94999999999999
 30
0.0
 11
-12.07741699796953
 21
-8.199999999999986
 31
0.0
  0
LINE
  5
15E
330
362
100
AcDbEntity
  8
0
  6
Continuous
 62
     7
100
AcDbLine
 10
-22.65584412271572
 20
-15.94999999999999
 30
0.0
 11
-14.90584412271572
 21
-8.199999999999986
 31
0.0
  0
LINE
  5
15F
330
362
100
AcDbEntity
  8
0
  6
Continuous
 62
     7
100
AcDbLine
 10
-25.48427124746189
 20
-15.94999999999999
 30
0.0
 11
-17.73427124746189
 21
-8.199999999999986
 31
0.0
  0
LINE
  5
160
330
362
100
AcDbEntity
  8
0
  6
Continuous
 62
     7
100
AcDbLine
 10
-28.04895303098034
 20
-15.68625465877224
 30
0.0
 11
-20.56269837220807
 21
-8.199999999999986
 31
0.0
  0
LINE
  5
161
330
362
100
AcDbEntity
  8
0
  6
Continuous
 62
     7
100
AcDbLine
 10
-28.25916128444521
 20
-13.06803578749091
 30
0.0
 11
-23.39112549695427
 21
-8.199999999999986
 31
0.0
  0
ENDBLK
  5
162
330
362
100
AcDbEntity
  8
PATTERN_FILL
100
AcDbBlockEnd
  0
BLOCK
  5
163
330
363
100
AcDbEntity
  8
PATTERN_FILL
100
AcDbBlockBegin
  2
____-9
 70
     0
 10
0.0
 20
0.0
 30
0.0
  3
____-9
  1

  0
LINE
  5
164
330
363
100
AcDbEntity
  8
0
  6
Continuous
 62
     7
100
AcDbLine
 10
11.78568252242475
 20
37.48387009927573
 30
0.0
 11
8.669552621700475
 21
40.60000000000001
 31
0.0
  0
LINE
  5
165
330
363
100
AcDbEntity
  8
0
  6
Continuous
 62
     7
100
AcDbLine
 10
-28.89797974644654
 20
1.800000000000011
 30
0.0
 11
-29.88978526275079
 21
2.791805516304264
 31
0.0
  0
LINE
  5
166
330
363
100
AcDbEntity
  8
0
  6
Continuous
 62
     7
100
AcDbLine
 10
-26.06955262170037
 20
1.800000000000011
 30
0.0
 11
-29.49642784805102
 21
5.226875226350657
 31
0.0
  0
LINE
  5
167
330
363
100
AcDbEntity
  8
0
  6
Continuous
 62
     7
100
AcDbLine
 10
-23.2411254969542
 20
1.800000000000011
 30
0.0
 11
-29.10307043335121
 21
7.661944936397049
 31
0.0
  0
LINE
  5
168
330
363
100
AcDbEntity
  8
0
  6
Continuous
 62
     7
100
AcDbLine
 10
-20.41269837220799
 20
1.800000000000011
 30
0.0
 11
-28.7097130186514
 21
10.09701464644344
 31
0.0
  0
LINE
  5
169
330
363
100
AcDbEntity
  8
0
  6
Continuous
 62
     7
100
AcDbLine
 10
-17.58427124746181
 20
1.800000000000011
 30
0.0
 11
-28.31635560395161
 21
12.53208435648982
 31
0.0
  0
LINE
  5
16A
330
363
100
AcDbEntity
  8
0
  6
Continuous
 62
     7
100
AcDbLine
 10
-14.75584412271562
 20
1.800000000000011
 30
0.0
 11
-27.92299818925181
 21
14.96715406653621
 31
0.0
  0
LINE
  5
16B
330
363
100
AcDbEntity
  8
0
  6
Continuous
 62
     7
100
AcDbLine
 10
-11.92741699796946
 20
1.800000000000011
 30
0.0
 11
-27.52964077455202
 21
17.4022237765826
 31
0.0
  0
LINE
  5
16C
330
363
100
AcDbEntity
  8
0
  6
Continuous
 62
     7
100
AcDbLine
 10
-9.098989873223272
 20
1.800000000000011
 30
0.0
 11
-27.1362833598522
 21
19.83729348662897
 31
0.0
  0
LINE
  5
16D
330
363
100
AcDbEntity
  8
0
  6
Continuous
 62
     7
100
AcDbLine
 10
-6.270562748477075
 20
1.800000000000011
 30
0.0
 11
-26.74292594515241
 21
22.27236319667537
 31
0.0
  0
LINE
  5
16E
330
363
100
AcDbEntity
  8
0
  6
Continuous
 62
     7
100
AcDbLine
 10
-3.442135623730891
 20
1.800000000000011
 30
0.0
 11
-26.34956853045261
 21
24.70743290672177
 31
0.0
  0
LINE
  5
16F
330
363
100
AcDbEntity
  8
0
  6
Continuous
 62
     7
100
AcDbLine
 10
-0.6137084989847211
 20
1.800000000000011
 30
0.0
 11
-25.95621111575281
 21
27.14250261676815
 31
0.0
  0
LINE
  5
170
330
363
100
AcDbEntity
  8
0
  6
Continuous
 62
     7
100
AcDbLine
 10
2.214718625761477
 20
1.800000000000011
 30
0.0
 11
-25.56285370105302
 21
29.57757232681455
 31
0.0
  0
LINE
  5
171
330
363
100
AcDbEntity
  8
0
  6
Continuous
 62
     7
100
AcDbLine
 10
5.043145750507662
 20
1.800000000000011
 30
0.0
 11
-25.16949628635323
 21
32.01264203686092
 31
0.0
  0
LINE
  5
172
330
363
100
AcDbEntity
  8
0
  6
Continuous
 62
     7
100
AcDbLine
 10
7.871572875253846
 20
1.800000000000011
 30
0.0
 11
-24.77613887165341
 21
34.44771174690731
 31
0.0
  0
LINE
  5
173
330
363
100
AcDbEntity
  8
0
  6
Continuous
 62
     7
100
AcDbLine
 10
10.70000000000003
 20
1.800000000000011
 30
0.0
 11
-24.38278145695363
 21
36.88278145695369
 31
0.0
  0
LINE
  5
174
330
363
100
AcDbEntity
  8
0
  6
Continuous
 62
     7
100
AcDbLine
 10
13.52842712474621
 20
1.800000000000011
 30
0.0
 11
-23.95798006057745
 21
39.28640718532371
 31
0.0
  0
LINE
  5
175
330
363
100
AcDbEntity
  8
0
  6
Continuous
 62
     7
100
AcDbLine
 10
16.35685424949241
 20
1.800000000000011
 30
0.0
 11
-22.41482714659605
 21
40.57168139608852
 31
0.0
  0
LINE
  5
176
330
363
100
AcDbEntity
  8
0
  6
Continuous
 62
     7
100
AcDbLine
 10
17.23494579028422
 20
3.750335583954381
 30
0.0
 11
-19.61471862576137
 21
40.60000000000001
 31
0.0
  0
LINE
  5
177
330
363
100
AcDbEntity
  8
0
  6
Continuous
 62
     7
100
AcDbLine
 10
16.69001946349829
 20
7.123689035486506
 30
0.0
 11
-16.78629150101518
 21
40.60000000000001
 31
0.0
  0
LINE
  5
178
330
363
100
AcDbEntity
  8
0
  6
Continuous
 62
     7
100
AcDbLine
 10
16.14509313671233
 20
10.49704248701864
 30
0.0
 11
-13.957864376269
 21
40.60000000000001
 31
0.0
  0
LINE
  5
179
330
363
100
AcDbEntity
  8
0
  6
Continuous
 62
     7
100
AcDbLine
 10
15.60016680992639
 20
13.87039593855078
 30
0.0
 11
-11.12943725152281
 21
40.60000000000001
 31
0.0
  0
LINE
  5
17A
330
363
100
AcDbEntity
  8
0
  6
Continuous
 62
     7
100
AcDbLine
 10
15.05524048314043
 20
17.24374939008291
 30
0.0
 11
-8.301010126776645
 21
40.60000000000001
 31
0.0
  0
LINE
  5
17B
330
363
100
AcDbEntity
  8
0
  6
Continuous
 62
     7
100
AcDbLine
 10
14.51031415635448
 20
20.6171028416151
 30
0.0
 11
-5.472583002030432
 21
40.60000000000001
 31
0.0
  0
LINE
  5
17C
330
363
100
AcDbEntity
  8
0
  6
Continuous
 62
     7
100
AcDbLine
 10
13.96538782956852
 20
23.99045629314723
 30
0.0
 11
-2.644155877284248
 21
40.60000000000001
 31
0.0
  0
LINE
  5
17D
330
363
100
AcDbEntity
  8
0
  6
Continuous
 62
     7
100
AcDbLine
 10
13.42046150278259
 20
27.36380974467936
 30
0.0
 11
0.1842712474619361
 21
40.60000000000001
 31
0.0
  0
LINE
  5
17E
330
363
100
AcDbEntity
  8
0
  6
Continuous
 62
     7
100
AcDbLine
 10
12.87553517599664
 20
30.73716319621146
 30
0.0
 11
3.012698372208106
 21
40.60000000000001
 31
0.0
  0
LINE
  5
17F
330
363
100
AcDbEntity
  8
0
  6
Continuous
 62
     7
100
AcDbLine
 10
12.33060884921069
 20
34.11051664774361
 30
0.0
 11
5.84112549695429
 21
40.60000000000001
 31
0.0
  0
ENDBLK
  5
180
330
363
100
AcDbEntity
  8
PATTERN_FILL
100
AcDbBlockEnd
  0
BLOCK
  5
181
330
364
100
AcDbEntity
  8
PATTERN_FILL
100
AcDbBlockBegin
  2
____-10
 70
     0
 10
0.0
 20
0.0
 30
0.0
  3
____-10
  1

  0
LINE
  5
182
330
364
100
AcDbEntity
  8
0
  6
Continuous
 62
     7
100
AcDbLine
 10
15.96936953791007
 20
-10.44981691620958
 30
0.0
 11
13.71955262170047
 21
-8.199999999999986
 31
0.0
  0
LINE
  5
183
330
364
100
AcDbEntity
  8
0
  6
Continuous
 62
     7
100
AcDbLine
 10
-26.61370849898473
 20
-15.94999999999999
 30
0.0
 11
-28.15121952308165
 21
-14.41248897590307
 31
0.0
  0
LINE
  5
184
330
364
100
AcDbEntity
  8
0
  6
Continuous
 62
     7
100
AcDbLine
 10
-23.78528137423853
 20
-15.94999999999999
 30
0.0
 11
-28.39812820427537
 21
-11.33715316996317
 31
0.0
  0
LINE
  5
185
330
364
100
AcDbEntity
  8
0
  6
Continuous
 62
     7
100
AcDbLine
 10
-20.95685424949235
 20
-15.94999999999999
 30
0.0
 11
-28.64503688546905
 21
-8.261817364023286
 31
0.0
  0
LINE
  5
186
330
364
100
AcDbEntity
  8
0
  6
Continuous
 62
     7
100
AcDbLine
 10
-18.12842712474617
 20
-15.94999999999999
 30
0.0
 11
-25.87842712474617
 21
-8.199999999999986
 31
0.0
  0
LINE
  5
187
330
364
100
AcDbEntity
  8
0
  6
Continuous
 62
     7
100
AcDbLine
 10
-15.29999999999996
 20
-15.94999999999999
 30
0.0
 11
-23.04999999999999
 21
-8.199999999999986
 31
0.0
  0
LINE
  5
188
330
364
100
AcDbEntity
  8
0
  6
Continuous
 62
     7
100
AcDbLine
 10
-12.47157287525378
 20
-15.94999999999999
 30
0.0
 11
-20.2215728752538
 21
-8.199999999999986
 31
0.0
  0
LINE
  5
189
330
364
100
AcDbEntity
  8
0
  6
Continuous
 62
     7
100
AcDbLine
 10
-9.643145750507583
 20
-15.94999999999999
 30
0.0
 11
-17.39314575050758
 21
-8.199999999999986
 31
0.0
  0
LINE
  5
18A
330
364
100
AcDbEntity
  8
0
  6
Continuous
 62
     7
100
AcDbLine
 10
-6.814718625761401
 20
-15.94999999999999
 30
0.0
 11
-14.5647186257614
 21
-8.199999999999986
 31
0.0
  0
LINE
  5
18B
330
364
100
AcDbEntity
  8
0
  6
Continuous
 62
     7
100
AcDbLine
 10
-3.986291501015216
 20
-15.94999999999999
 30
0.0
 11
-11.73629150101521
 21
-8.199999999999986
 31
0.0
  0
LINE
  5
18C
330
364
100
AcDbEntity
  8
0
  6
Continuous
 62
     7
100
AcDbLine
 10
-1.157864376269031
 20
-15.94999999999999
 30
0.0
 11
-8.907864376269031
 21
-8.199999999999986
 31
0.0
  0
LINE
  5
18D
330
364
100
AcDbEntity
  8
0
  6
Continuous
 62
     7
100
AcDbLine
 10
1.670562748477152
 20
-15.94999999999999
 30
0.0
 11
-6.079437251522848
 21
-8.199999999999986
 31
0.0
  0
LINE
  5
18E
330
364
100
AcDbEntity
  8
0
  6
Continuous
 62
     7
100
AcDbLine
 10
4.498989873223351
 20
-15.94999999999999
 30
0.0
 11
-3.251010126776648
 21
-8.199999999999986
 31
0.0
  0
LINE
  5
18F
330
364
100
AcDbEntity
  8
0
  6
Continuous
 62
     7
100
AcDbLine
 10
7.327416997969535
 20
-15.94999999999999
 30
0.0
 11
-0.4225830020304643
 21
-8.199999999999986
 31
0.0
  0
LINE
  5
190
330
364
100
AcDbEntity
  8
0
  6
Continuous
 62
     7
100
AcDbLine
 10
10.15584412271572
 20
-15.94999999999999
 30
0.0
 11
2.40584412271572
 21
-8.199999999999986
 31
0.0
  0
LINE
  5
191
330
364
100
AcDbEntity
  8
0
  6
Continuous
 62
     7
100
AcDbLine
 10
12.98427124746189
 20
-15.94999999999999
 30
0.0
 11
5.23427124746189
 21
-8.199999999999986
 31
0.0
  0
LINE
  5
192
330
364
100
AcDbEntity
  8
0
  6
Continuous
 62
     7
100
AcDbLine
 10
15.54895303098034
 20
-15.68625465877224
 30
0.0
 11
8.062698372208075
 21
-8.199999999999986
 31
0.0
  0
LINE
  5
193
330
364
100
AcDbEntity
  8
0
  6
Continuous
 62
     7
100
AcDbLine
 10
15.75916128444521
 20
-13.06803578749091
 30
0.0
 11
10.89112549695427
 21
-8.199999999999986
 31
0.0
  0
ENDBLK
  5
194
330
364
100
AcDbEntity
  8
PATTERN_FILL
100
AcDbBlockEnd
  0
BLOCK
  5
195
330
365
100
AcDbEntity
  8
PATTERN_FILL
100
AcDbBlockBegin
  2
____-11
 70
     0
 10
0.0
 20
0.0
 30
0.0
  3
____-11
  1

  0
LINE
  5
196
330
365
100
AcDbEntity
  8
0
  6
Continuous
 62
     7
100
AcDbLine
 10
31.96431747757525
 20
37.48387009927573
 30
0.0
 11
35.08044737829953
 21
40.60000000000001
 31
0.0
  0
LINE
  5
197
330
365
100
AcDbEntity
  8
0
  6
Continuous
 62
     7
100
AcDbLine
 10
72.64797974644654
 20
1.800000000000011
 30
0.0
 11
73.63978526275078
 21
2.791805516304264
 31
0.0
  0
LINE
  5
198
330
365
100
AcDbEntity
  8
0
  6
Continuous
 62
     7
100
AcDbLine
 10
69.81955262170036
 20
1.800000000000011
 30
0.0
 11
73.24642784805101
 21
5.226875226350657
 31
0.0
  0
LINE
  5
199
330
365
100
AcDbEntity
  8
0
  6
Continuous
 62
     7
100
AcDbLine
 10
66.9911254969542
 20
1.800000000000011
 30
0.0
 11
72.8530704333512
 21
7.661944936397049
 31
0.0
  0
LINE
  5
19A
330
365
100
AcDbEntity
  8
0
  6
Continuous
 62
     7
100
AcDbLine
 10
64.16269837220797
 20
1.800000000000011
 30
0.0
 11
72.45971301865141
 21
10.09701464644344
 31
0.0
  0
LINE
  5
19B
330
365
100
AcDbEntity
  8
0
  6
Continuous
 62
     7
100
AcDbLine
 10
61.33427124746181
 20
1.800000000000011
 30
0.0
 11
72.06635560395159
 21
12.53208435648982
 31
0.0
  0
LINE
  5
19C
330
365
100
AcDbEntity
  8
0
  6
Continuous
 62
     7
100
AcDbLine
 10
58.50584412271562
 20
1.800000000000011
 30
0.0
 11
71.67299818925181
 21
14.96715406653621
 31
0.0
  0
LINE
  5
19D
330
365
100
AcDbEntity
  8
0
  6
Continuous
 62
     7
100
AcDbLine
 10
55.67741699796947
 20
1.800000000000011
 30
0.0
 11
71.279640774552
 21
17.4022237765826
 31
0.0
  0
LINE
  5
19E
330
365
100
AcDbEntity
  8
0
  6
Continuous
 62
     7
100
AcDbLine
 10
52.84898987322328
 20
1.800000000000011
 30
0.0
 11
70.8862833598522
 21
19.83729348662897
 31
0.0
  0
LINE
  5
19F
330
365
100
AcDbEntity
  8
0
  6
Continuous
 62
     7
100
AcDbLine
 10
50.02056274847707
 20
1.800000000000011
 30
0.0
 11
70.4929259451524
 21
22.27236319667537
 31
0.0
  0
LINE
  5
1A0
330
365
100
AcDbEntity
  8
0
  6
Continuous
 62
     7
100
AcDbLine
 10
47.19213562373089
 20
1.800000000000011
 30
0.0
 11
70.09956853045261
 21
24.70743290672177
 31
0.0
  0
LINE
  5
1A1
330
365
100
AcDbEntity
  8
0
  6
Continuous
 62
     7
100
AcDbLine
 10
44.36370849898472
 20
1.800000000000011
 30
0.0
 11
69.7062111157528
 21
27.14250261676815
 31
0.0
  0
LINE
  5
1A2
330
365
100
AcDbEntity
  8
0
  6
Continuous
 62
     7
100
AcDbLine
 10
41.53528137423852
 20
1.800000000000011
 30
0.0
 11
69.31285370105303
 21
29.57757232681455
 31
0.0
  0
LINE
  5
1A3
330
365
100
AcDbEntity
  8
0
  6
Continuous
 62
     7
100
AcDbLine
 10
38.70685424949234
 20
1.800000000000011
 30
0.0
 11
68.91949628635322
 21
32.01264203686092
 31
0.0
  0
LINE
  5
1A4
330
365
100
AcDbEntity
  8
0
  6
Continuous
 62
     7
100
AcDbLine
 10
35.87842712474615
 20
1.800000000000011
 30
0.0
 11
68.52613887165343
 21
34.44771174690731
 31
0.0
  0
LINE
  5
1A5
330
365
100
AcDbEntity
  8
0
  6
Continuous
 62
     7
100
AcDbLine
 10
33.04999999999997
 20
1.800000000000011
 30
0.0
 11
68.13278145695362
 21
36.88278145695369
 31
0.0
  0
LINE
  5
1A6
330
365
100
AcDbEntity
  8
0
  6
Continuous
 62
     7
100
AcDbLine
 10
30.22157287525379
 20
1.800000000000011
 30
0.0
 11
67.70798006057745
 21
39.28640718532371
 31
0.0
  0
LINE
  5
1A7
330
365
100
AcDbEntity
  8
0
  6
Continuous
 62
     7
100
AcDbLine
 10
27.39314575050758
 20
1.800000000000011
 30
0.0
 11
66.16482714659605
 21
40.57168139608852
 31
0.0
  0
LINE
  5
1A8
330
365
100
AcDbEntity
  8
0
  6
Continuous
 62
     7
100
AcDbLine
 10
26.51505420971577
 20
3.750335583954381
 30
0.0
 11
63.36471862576136
 21
40.60000000000001
 31
0.0
  0
LINE
  5
1A9
330
365
100
AcDbEntity
  8
0
  6
Continuous
 62
     7
100
AcDbLine
 10
27.05998053650171
 20
7.123689035486506
 30
0.0
 11
60.53629150101518
 21
40.60000000000001
 31
0.0
  0
LINE
  5
1AA
330
365
100
AcDbEntity
  8
0
  6
Continuous
 62
     7
100
AcDbLine
 10
27.60490686328767
 20
10.49704248701864
 30
0.0
 11
57.707864376269
 21
40.60000000000001
 31
0.0
  0
LINE
  5
1AB
330
365
100
AcDbEntity
  8
0
  6
Continuous
 62
     7
100
AcDbLine
 10
28.14983319007361
 20
13.87039593855078
 30
0.0
 11
54.87943725152281
 21
40.60000000000001
 31
0.0
  0
LINE
  5
1AC
330
365
100
AcDbEntity
  8
0
  6
Continuous
 62
     7
100
AcDbLine
 10
28.69475951685957
 20
17.24374939008291
 30
0.0
 11
52.05101012677665
 21
40.60000000000001
 31
0.0
  0
LINE
  5
1AD
330
365
100
AcDbEntity
  8
0
  6
Continuous
 62
     7
100
AcDbLine
 10
29.23968584364552
 20
20.6171028416151
 30
0.0
 11
49.22258300203044
 21
40.60000000000001
 31
0.0
  0
LINE
  5
1AE
330
365
100
AcDbEntity
  8
0
  6
Continuous
 62
     7
100
AcDbLine
 10
29.78461217043148
 20
23.99045629314723
 30
0.0
 11
46.39415587728424
 21
40.60000000000001
 31
0.0
  0
LINE
  5
1AF
330
365
100
AcDbEntity
  8
0
  6
Continuous
 62
     7
100
AcDbLine
 10
30.32953849721741
 20
27.36380974467936
 30
0.0
 11
43.56572875253806
 21
40.60000000000001
 31
0.0
  0
LINE
  5
1B0
330
365
100
AcDbEntity
  8
0
  6
Continuous
 62
     7
100
AcDbLine
 10
30.87446482400336
 20
30.73716319621146
 30
0.0
 11
40.73730162779189
 21
40.60000000000001
 31
0.0
  0
LINE
  5
1B1
330
365
100
AcDbEntity
  8
0
  6
Continuous
 62
     7
100
AcDbLine
 10
31.41939115078931
 20
34.11051664774361
 30
0.0
 11
37.9088745030457
 21
40.60000000000001
 31
0.0
  0
ENDBLK
  5
1B2
330
365
100
AcDbEntity
  8
PATTERN_FILL
100
AcDbBlockEnd
  0
BLOCK
  5
1B3
330
366
100
AcDbEntity
  8
PATTERN_FILL
100
AcDbBlockBegin
  2
____-12
 70
     0
 10
0.0
 20
0.0
 30
0.0
  3
____-12
  1

  0
LINE
  5
1B4
330
366
100
AcDbEntity
  8
0
  6
Continuous
 62
     7
100
AcDbLine
 10
27.78063046208993
 20
-10.44981691620958
 30
0.0
 11
30.03044737829953
 21
-8.199999999999986
 31
0.0
  0
LINE
  5
1B5
330
366
100
AcDbEntity
  8
0
  6
Continuous
 62
     7
100
AcDbLine
 10
70.36370849898474
 20
-15.94999999999999
 30
0.0
 11
71.90121952308165
 21
-14.41248897590307
 31
0.0
  0
LINE
  5
1B6
330
366
100
AcDbEntity
  8
0
  6
Continuous
 62
     7
100
AcDbLine
 10
67.53528137423853
 20
-15.94999999999999
 30
0.0
 11
72.14812820427536
 21
-11.33715316996317
 31
0.0
  0
LINE
  5
1B7
330
366
100
AcDbEntity
  8
0
  6
Continuous
 62
     7
100
AcDbLine
 10
64.70685424949235
 20
-15.94999999999999
 30
0.0
 11
72.39503688546907
 21
-8.261817364023286
 31
0.0
  0
LINE
  5
1B8
330
366
100
AcDbEntity
  8
0
  6
Continuous
 62
     7
100
AcDbLine
 10
61.87842712474616
 20
-15.94999999999999
 30
0.0
 11
69.62842712474617
 21
-8.199999999999986
 31
0.0
  0
LINE
  5
1B9
330
366
100
AcDbEntity
  8
0
  6
Continuous
 62
     7
100
AcDbLine
 10
59.04999999999997
 20
-15.94999999999999
 30
0.0
 11
66.79999999999998
 21
-8.199999999999986
 31
0.0
  0
LINE
  5
1BA
330
366
100
AcDbEntity
  8
0
  6
Continuous
 62
     7
100
AcDbLine
 10
56.22157287525379
 20
-15.94999999999999
 30
0.0
 11
63.9715728752538
 21
-8.199999999999986
 31
0.0
  0
LINE
  5
1BB
330
366
100
AcDbEntity
  8
0
  6
Continuous
 62
     7
100
AcDbLine
 10
53.39314575050759
 20
-15.94999999999999
 30
0.0
 11
61.14314575050759
 21
-8.199999999999986
 31
0.0
  0
LINE
  5
1BC
330
366
100
AcDbEntity
  8
0
  6
Continuous
 62
     7
100
AcDbLine
 10
50.56471862576139
 20
-15.94999999999999
 30
0.0
 11
58.31471862576139
 21
-8.199999999999986
 31
0.0
  0
LINE
  5
1BD
330
366
100
AcDbEntity
  8
0
  6
Continuous
 62
     7
100
AcDbLine
 10
47.73629150101522
 20
-15.94999999999999
 30
0.0
 11
55.48629150101522
 21
-8.199999999999986
 31
0.0
  0
LINE
  5
1BE
330
366
100
AcDbEntity
  8
0
  6
Continuous
 62
     7
100
AcDbLine
 10
44.90786437626903
 20
-15.94999999999999
 30
0.0
 11
52.65786437626903
 21
-8.199999999999986
 31
0.0
  0
LINE
  5
1BF
330
366
100
AcDbEntity
  8
0
  6
Continuous
 62
     7
100
AcDbLine
 10
42.07943725152285
 20
-15.94999999999999
 30
0.0
 11
49.82943725152285
 21
-8.199999999999986
 31
0.0
  0
LINE
  5
1C0
330
366
100
AcDbEntity
  8
0
  6
Continuous
 62
     7
100
AcDbLine
 10
39.25101012677665
 20
-15.94999999999999
 30
0.0
 11
47.00101012677665
 21
-8.199999999999986
 31
0.0
  0
LINE
  5
1C1
330
366
100
AcDbEntity
  8
0
  6
Continuous
 62
     7
100
AcDbLine
 10
36.42258300203047
 20
-15.94999999999999
 30
0.0
 11
44.17258300203047
 21
-8.199999999999986
 31
0.0
  0
LINE
  5
1C2
330
366
100
AcDbEntity
  8
0
  6
Continuous
 62
     7
100
AcDbLine
 10
33.59415587728428
 20
-15.94999999999999
 30
0.0
 11
41.34415587728428
 21
-8.199999999999986
 31
0.0
  0
LINE
  5
1C3
330
366
100
AcDbEntity
  8
0
  6
Continuous
 62
     7
100
AcDbLine
 10
30.76572875253811
 20
-15.94999999999999
 30
0.0
 11
38.5157287525381
 21
-8.199999999999986
 31
0.0
  0
LINE
  5
1C4
330
366
100
AcDbEntity
  8
0
  6
Continuous
 62
     7
100
AcDbLine
 10
28.20104696901966
 20
-15.68625465877224
 30
0.0
 11
35.68730162779192
 21
-8.199999999999986
 31
0.0
  0
LINE
  5
1C5
330
366
100
AcDbEntity
  8
0
  6
Continuous
 62
     7
100
AcDbLine
 10
27.99083871555479
 20
-13.06803578749091
 30
0.0
 11
32.85887450304573
 21
-8.199999999999986
 31
0.0
  0
ENDBLK
  5
1C6
330
366
100
AcDbEntity
  8
PATTERN_FILL
100
AcDbBlockEnd
  0
BLOCK
  5
1C7
330
367
100
AcDbEntity
  8
PATTERN_FILL
100
AcDbBlockBegin
  2
____-13
 70
     0
 10
0.0
 20
0.0
 30
0.0
  3
____-13
  1

  0
LINE
  5
1C8
330
367
100
AcDbEntity
  8
0
  6
Continuous
 62
     7
100
AcDbLine
 10
68.03568252242475
 20
37.48387009927573
 30
0.0
 11
64.91955262170048
 21
40.60000000000001
 31
0.0
  0
LINE
  5
1C9
330
367
100
AcDbEntity
  8
0
  6
Continuous
 62
     7
100
AcDbLine
 10
27.35202025355347
 20
1.800000000000011
 30
0.0
 11
26.36021473724921
 21
2.791805516304264
 31
0.0
  0
LINE
  5
1CA
330
367
100
AcDbEntity
  8
0
  6
Continuous
 62
     7
100
AcDbLine
 10
30.18044737829964
 20
1.800000000000011
 30
0.0
 11
26.75357215194899
 21
5.226875226350657
 31
0.0
  0
LINE
  5
1CB
330
367
100
AcDbEntity
  8
0
  6
Continuous
 62
     7
100
AcDbLine
 10
33.00887450304581
 20
1.800000000000011
 30
0.0
 11
27.1469295666488
 21
7.661944936397049
 31
0.0
  0
LINE
  5
1CC
330
367
100
AcDbEntity
  8
0
  6
Continuous
 62
     7
100
AcDbLine
 10
35.83730162779202
 20
1.800000000000011
 30
0.0
 11
27.5402869813486
 21
10.09701464644344
 31
0.0
  0
LINE
  5
1CD
330
367
100
AcDbEntity
  8
0
  6
Continuous
 62
     7
100
AcDbLine
 10
38.66572875253819
 20
1.800000000000011
 30
0.0
 11
27.9336443960484
 21
12.53208435648982
 31
0.0
  0
LINE
  5
1CE
330
367
100
AcDbEntity
  8
0
  6
Continuous
 62
     7
100
AcDbLine
 10
41.49415587728436
 20
1.800000000000011
 30
0.0
 11
28.32700181074818
 21
14.96715406653621
 31
0.0
  0
LINE
  5
1CF
330
367
100
AcDbEntity
  8
0
  6
Continuous
 62
     7
100
AcDbLine
 10
44.32258300203054
 20
1.800000000000011
 30
0.0
 11
28.72035922544798
 21
17.4022237765826
 31
0.0
  0
LINE
  5
1D0
330
367
100
AcDbEntity
  8
0
  6
Continuous
 62
     7
100
AcDbLine
 10
47.15101012677672
 20
1.800000000000011
 30
0.0
 11
29.1137166401478
 21
19.83729348662897
 31
0.0
  0
LINE
  5
1D1
330
367
100
AcDbEntity
  8
0
  6
Continuous
 62
     7
100
AcDbLine
 10
49.97943725152293
 20
1.800000000000011
 30
0.0
 11
29.50707405484759
 21
22.27236319667537
 31
0.0
  0
LINE
  5
1D2
330
367
100
AcDbEntity
  8
0
  6
Continuous
 62
     7
100
AcDbLine
 10
52.80786437626911
 20
1.800000000000011
 30
0.0
 11
29.90043146954739
 21
24.70743290672177
 31
0.0
  0
LINE
  5
1D3
330
367
100
AcDbEntity
  8
0
  6
Continuous
 62
     7
100
AcDbLine
 10
55.63629150101528
 20
1.800000000000011
 30
0.0
 11
30.29378888424719
 21
27.14250261676815
 31
0.0
  0
LINE
  5
1D4
330
367
100
AcDbEntity
  8
0
  6
Continuous
 62
     7
100
AcDbLine
 10
58.46471862576148
 20
1.800000000000011
 30
0.0
 11
30.68714629894699
 21
29.57757232681455
 31
0.0
  0
LINE
  5
1D5
330
367
100
AcDbEntity
  8
0
  6
Continuous
 62
     7
100
AcDbLine
 10
61.29314575050766
 20
1.800000000000011
 30
0.0
 11
31.08050371364678
 21
32.01264203686092
 31
0.0
  0
LINE
  5
1D6
330
367
100
AcDbEntity
  8
0
  6
Continuous
 62
     7
100
AcDbLine
 10
64.12157287525385
 20
1.800000000000011
 30
0.0
 11
31.47386112834659
 21
34.44771174690731
 31
0.0
  0
LINE
  5
1D7
330
367
100
AcDbEntity
  8
0
  6
Continuous
 62
     7
100
AcDbLine
 10
66.95000000000003
 20
1.800000000000011
 30
0.0
 11
31.86721854304638
 21
36.88278145695369
 31
0.0
  0
LINE
  5
1D8
330
367
100
AcDbEntity
  8
0
  6
Continuous
 62
     7
100
AcDbLine
 10
69.77842712474622
 20
1.800000000000011
 30
0.0
 11
32.29201993942254
 21
39.28640718532371
 31
0.0
  0
LINE
  5
1D9
330
367
100
AcDbEntity
  8
0
  6
Continuous
 62
     7
100
AcDbLine
 10
72.60685424949243
 20
1.800000000000011
 30
0.0
 11
33.83517285340395
 21
40.57168139608852
 31
0.0
  0
LINE
  5
1DA
330
367
100
AcDbEntity
  8
0
  6
Continuous
 62
     7
100
AcDbLine
 10
73.48494579028423
 20
3.750335583954381
 30
0.0
 11
36.63528137423864
 21
40.60000000000001
 31
0.0
  0
LINE
  5
1DB
330
367
100
AcDbEntity
  8
0
  6
Continuous
 62
     7
100
AcDbLine
 10
72.94001946349827
 20
7.123689035486506
 30
0.0
 11
39.46370849898482
 21
40.60000000000001
 31
0.0
  0
LINE
  5
1DC
330
367
100
AcDbEntity
  8
0
  6
Continuous
 62
     7
100
AcDbLine
 10
72.39509313671234
 20
10.49704248701864
 30
0.0
 11
42.29213562373099
 21
40.60000000000001
 31
0.0
  0
LINE
  5
1DD
330
367
100
AcDbEntity
  8
0
  6
Continuous
 62
     7
100
AcDbLine
 10
71.85016680992639
 20
13.87039593855078
 30
0.0
 11
45.12056274847718
 21
40.60000000000001
 31
0.0
  0
LINE
  5
1DE
330
367
100
AcDbEntity
  8
0
  6
Continuous
 62
     7
100
AcDbLine
 10
71.30524048314043
 20
17.24374939008291
 30
0.0
 11
47.94898987322336
 21
40.60000000000001
 31
0.0
  0
LINE
  5
1DF
330
367
100
AcDbEntity
  8
0
  6
Continuous
 62
     7
100
AcDbLine
 10
70.76031415635448
 20
20.6171028416151
 30
0.0
 11
50.77741699796956
 21
40.60000000000001
 31
0.0
  0
LINE
  5
1E0
330
367
100
AcDbEntity
  8
0
  6
Continuous
 62
     7
100
AcDbLine
 10
70.21538782956852
 20
23.99045629314723
 30
0.0
 11
53.60584412271575
 21
40.60000000000001
 31
0.0
  0
LINE
  5
1E1
330
367
100
AcDbEntity
  8
0
  6
Continuous
 62
     7
100
AcDbLine
 10
69.67046150278257
 20
27.36380974467936
 30
0.0
 11
56.43427124746193
 21
40.60000000000001
 31
0.0
  0
LINE
  5
1E2
330
367
100
AcDbEntity
  8
0
  6
Continuous
 62
     7
100
AcDbLine
 10
69.12553517599665
 20
30.73716319621146
 30
0.0
 11
59.2626983722081
 21
40.60000000000001
 31
0.0
  0
LINE
  5
1E3
330
367
100
AcDbEntity
  8
0
  6
Continuous
 62
     7
100
AcDbLine
 10
68.58060884921069
 20
34.11051664774361
 30
0.0
 11
62.09112549695429
 21
40.60000000000001
 31
0.0
  0
ENDBLK
  5
1E4
330
367
100
AcDbEntity
  8
PATTERN_FILL
100
AcDbBlockEnd
  0
BLOCK
  5
1E5
330
368
100
AcDbEntity
  8
PATTERN_FILL
100
AcDbBlockBegin
  2
____-14
 70
     0
 10
0.0
 20
0.0
 30
0.0
  3
____-14
  1

  0
LINE
  5
1E6
330
368
100
AcDbEntity
  8
0
  6
Continuous
 62
     7
100
AcDbLine
 10
72.21936953791008
 20
-10.44981691620958
 30
0.0
 11
69.96955262170047
 21
-8.199999999999986
 31
0.0
  0
LINE
  5
1E7
330
368
100
AcDbEntity
  8
0
  6
Continuous
 62
     7
100
AcDbLine
 10
29.63629150101527
 20
-15.94999999999999
 30
0.0
 11
28.09878047691835
 21
-14.41248897590307
 31
0.0
  0
LINE
  5
1E8
330
368
100
AcDbEntity
  8
0
  6
Continuous
 62
     7
100
AcDbLine
 10
32.46471862576147
 20
-15.94999999999999
 30
0.0
 11
27.85187179572464
 21
-11.33715316996317
 31
0.0
  0
LINE
  5
1E9
330
368
100
AcDbEntity
  8
0
  6
Continuous
 62
     7
100
AcDbLine
 10
35.29314575050765
 20
-15.94999999999999
 30
0.0
 11
27.60496311453095
 21
-8.261817364023286
 31
0.0
  0
LINE
  5
1EA
330
368
100
AcDbEntity
  8
0
  6
Continuous
 62
     7
100
AcDbLine
 10
38.12157287525383
 20
-15.94999999999999
 30
0.0
 11
30.37157287525384
 21
-8.199999999999986
 31
0.0
  0
LINE
  5
1EB
330
368
100
AcDbEntity
  8
0
  6
Continuous
 62
     7
100
AcDbLine
 10
40.95000000000003
 20
-15.94999999999999
 30
0.0
 11
33.20000000000002
 21
-8.199999999999986
 31
0.0
  0
LINE
  5
1EC
330
368
100
AcDbEntity
  8
0
  6
Continuous
 62
     7
100
AcDbLine
 10
43.77842712474621
 20
-15.94999999999999
 30
0.0
 11
36.0284271247462
 21
-8.199999999999986
 31
0.0
  0
LINE
  5
1ED
330
368
100
AcDbEntity
  8
0
  6
Continuous
 62
     7
100
AcDbLine
 10
46.60685424949242
 20
-15.94999999999999
 30
0.0
 11
38.85685424949242
 21
-8.199999999999986
 31
0.0
  0
LINE
  5
1EE
330
368
100
AcDbEntity
  8
0
  6
Continuous
 62
     7
100
AcDbLine
 10
49.43528137423861
 20
-15.94999999999999
 30
0.0
 11
41.6852813742386
 21
-8.199999999999986
 31
0.0
  0
LINE
  5
1EF
330
368
100
AcDbEntity
  8
0
  6
Continuous
 62
     7
100
AcDbLine
 10
52.26370849898478
 20
-15.94999999999999
 30
0.0
 11
44.51370849898478
 21
-8.199999999999986
 31
0.0
  0
LINE
  5
1F0
330
368
100
AcDbEntity
  8
0
  6
Continuous
 62
     7
100
AcDbLine
 10
55.09213562373097
 20
-15.94999999999999
 30
0.0
 11
47.34213562373096
 21
-8.199999999999986
 31
0.0
  0
LINE
  5
1F1
330
368
100
AcDbEntity
  8
0
  6
Continuous
 62
     7
100
AcDbLine
 10
57.92056274847714
 20
-15.94999999999999
 30
0.0
 11
50.17056274847714
 21
-8.199999999999986
 31
0.0
  0
LINE
  5
1F2
330
368
100
AcDbEntity
  8
0
  6
Continuous
 62
     7
100
AcDbLine
 10
60.74898987322335
 20
-15.94999999999999
 30
0.0
 11
52.99898987322335
 21
-8.199999999999986
 31
0.0
  0
LINE
  5
1F3
330
368
100
AcDbEntity
  8
0
  6
Continuous
 62
     7
100
AcDbLine
 10
63.57741699796954
 20
-15.94999999999999
 30
0.0
 11
55.82741699796955
 21
-8.199999999999986
 31
0.0
  0
LINE
  5
1F4
330
368
100
AcDbEntity
  8
0
  6
Continuous
 62
     7
100
AcDbLine
 10
66.40584412271572
 20
-15.94999999999999
 30
0.0
 11
58.65584412271572
 21
-8.199999999999986
 31
0.0
  0
LINE
  5
1F5
330
368
100
AcDbEntity
  8
0
  6
Continuous
 62
     7
100
AcDbLine
 10
69.23427124746189
 20
-15.94999999999999
 30
0.0
 11
61.48427124746189
 21
-8.199999999999986
 31
0.0
  0
LINE
  5
1F6
330
368
100
AcDbEntity
  8
0
  6
Continuous
 62
     7
100
AcDbLine
 10
71.79895303098034
 20
-15.68625465877224
 30
0.0
 11
64.31269837220807
 21
-8.199999999999986
 31
0.0
  0
LINE
  5
1F7
330
368
100
AcDbEntity
  8
0
  6
Continuous
 62
     7
100
AcDbLine
 10
72.0091612844452
 20
-13.06803578749091
 30
0.0
 11
67.14112549695427
 21
-8.199999999999986
 31
0.0
  0
ENDBLK
  5
1F8
330
368
100
AcDbEntity
  8
PATTERN_FILL
100
AcDbBlockEnd
  0
ENDSEC
  0
SECTION
  2
ENTITIES
  0
LINE
  5
1F9
330
341
100
AcDbEntity
  8
HIBINO-BASE
  6
Continuous
 62
     7
100
AcDbLine
 10
-180.000000009
 20
263.5318150133532
 30
0.0
 11
180.000000009
 21
263.5318150133532
 31
0.0
  0
LINE
  5
1FA
330
341
100
AcDbEntity
  8
HIBINO-BASE
  6
Continuous
 62
     7
100
AcDbLine
 10
180.000000009
 20
-256.4681850126467
 30
0.0
 11
-180.000000009
 21
-256.4681850126467
 31
0.0
  0
LINE
  5
1FB
330
341
100
AcDbEntity
  8
HIBINO-BASE
  6
Continuous
 62
     7
100
AcDbLine
 10
-180.000000009
 20
-256.4681850126467
 30
0.0
 11
-180.000000009
 21
263.5318150133532
 31
0.0
  0
LINE
  5
1FC
330
341
100
AcDbEntity
  8
HIBINO-BASE
  6
Continuous
 62
     7
100
AcDbLine
 10
180.000000009
 20
263.5318150133532
 30
0.0
 11
180.000000009
 21
-256.4681850126467
 31
0.0
  0
LINE
  5
1FD
330
341
100
AcDbEntity
  8
HIBINO-BASE
  6
Continuous
 62
     7
100
AcDbLine
 10
0.0000000000000284
 20
-211.4681850103967
 30
0.0
 11
180.000000009
 21
-211.4681850103967
 31
0.0
  0
LINE
  5
1FE
330
341
100
AcDbEntity
  8
HIBINO-BASE
  6
Continuous
 62
     7
100
AcDbLine
 10
0.0000000000000284
 20
-256.4681850126467
 30
0.0
 11
0.0000000000000284
 21
-211.4681850103967
 31
0.0
  0
TEXT
  5
1FF
330
341
100
AcDbEntity
  8
HIBINO-BASE
 62
     7
100
AcDbText
 10
1.800000000090039
 20
-216.4855716773142
 30
0.0
 40
3.25768229182955
  1
NOTE
 41
0.7
 11
1.800000000090039
 21
-213.2278893854846
 31
0.0
100
AcDbText
 73
     3
  0
LINE
  5
200
330
341
100
AcDbEntity
  8
HIBINO-BASE
  6
Continuous
 62
     7
100
AcDbLine
 10
70.00000000350002
 20
-256.4681850126467
 30
0.0
 11
70.00000000350002
 21
-211.4681850103967
 31
0.0
  0
TEXT
  5
201
330
341
100
AcDbEntity
  8
HIBINO-BASE
 62
     7
100
AcDbText
 10
71.80000000358998
 20
-216.4855716773142
 30
0.0
 40
3.25768229182955
  1
TITLE
 41
0.7
 11
71.80000000358998
 21
-213.2278893854846
 31
0.0
100
AcDbText
 73
     3
  0
LINE
  5
202
330
341
100
AcDbEntity
  8
HIBINO-BASE
  6
Continuous
 62
     7
100
AcDbLine
 10
0.0000000000000284
 20
-236.4681850116467
 30
0.0
 11
180.000000009
 21
-236.4681850116467
 31
0.0
  0
TEXT
  5
203
330
341
100
AcDbEntity
  8
HIBINO-BASE
 62
     7
100
AcDbText
 10
96.80000000484
 20
-241.3729316785586
 30
0.0
 40
3.25768229182955
  1
DRAWN
 41
0.7
 11
96.80000000484
 21
-238.1152493867291
 31
0.0
100
AcDbText
 73
     3
  0
TEXT
  5
204
330
341
100
AcDbEntity
  8
HIBINO-BASE
 62
     7
100
AcDbText
 10
46.80000000233997
 20
-241.3729316785586
 30
0.0
 40
3.25768229182955
  1
DATE
 41
0.7
 11
46.80000000233997
 21
-238.1152493867291
 31
0.0
100
AcDbText
 73
     3
  0
TEXT
  5
205
330
341
100
AcDbEntity
  8
HIBINO-BASE
 62
     7
100
AcDbText
 10
26.80000000133998
 20
-241.3729316785586
 30
0.0
 40
3.25768229182955
  1
SCALE
 41
0.7
 11
26.80000000133998
 21
-238.1152493867291
 31
0.0
100
AcDbText
 73
     3
  0
TEXT
  5
206
330
341
100
AcDbEntity
  8
HIBINO-BASE
 62
     7
100
AcDbText
 10
71.80000000358998
 20
-241.3729316785586
 30
0.0
 40
3.25768229182955
  1
DESIGN
 41
0.7
 11
71.80000000358998
 21
-238.1152493867291
 31
0.0
100
AcDbText
 73
     3
  0
TEXT
  5
207
330
341
100
AcDbEntity
  8
HIBINO-BASE
 62
     7
100
AcDbText
 10
146.8000000073399
 20
-241.3729316785586
 30
0.0
 40
3.25768229182955
  1
DRAWING NO.
 41
0.7
 11
146.8000000073399
 21
-238.1152493867291
 31
0.0
100
AcDbText
 73
     3
  0
TEXT
  5
208
330
341
100
AcDbEntity
  8
HIBINO-BASE
 62
     7
100
AcDbText
 10
121.80000000609
 20
-241.3729316785586
 30
0.0
 40
3.25768229182955
  1
CHECK
 41
0.7
 11
121.80000000609
 21
-238.1152493867291
 31
0.0
100
AcDbText
 73
     3
  0
LINE
  5
209
330
341
100
AcDbEntity
  8
HIBINO-BASE
  6
Continuous
 62
     7
100
AcDbLine
 10
28.75000000143753
 20
-253.9681850125217
 30
0.0
 11
36.25000000181252
 21
-246.4681850121467
 31
0.0
  0
TEXT
  5
20A
330
341
100
AcDbEntity
  8
HIBINO-BASE
 62
     7
100
AcDbText
 10
27.50000000137503
 20
-248.6860716789242
 30
0.0
 40
3.25768229182955
  1
1
 41
0.7
 11
27.50000000137503
 21
-245.4283893870946
 31
0.0
100
AcDbText
 73
     3
  0
LINE
  5
20B
330
341
100
AcDbEntity
  8
HIBINO-BASE
  6
Continuous
 62
     7
100
AcDbLine
 10
25.00000000125002
 20
-256.4681850126467
 30
0.0
 11
25.00000000125002
 21
-236.4681850116467
 31
0.0
  0
LINE
  5
20C
330
341
100
AcDbEntity
  8
HIBINO-BASE
  6
Continuous
 62
     7
100
AcDbLine
 10
45.00000000224996
 20
-256.4681850126467
 30
0.0
 11
45.00000000224996
 21
-236.4681850116467
 31
0.0
  0
LINE
  5
20D
330
341
100
AcDbEntity
  8
HIBINO-BASE
  6
Continuous
 62
     7
100
AcDbLine
 10
95.00000000474996
 20
-236.4681850116467
 30
0.0
 11
95.00000000474996
 21
-256.4681850126467
 31
0.0
  0
LINE
  5
20E
330
341
100
AcDbEntity
  8
HIBINO-BASE
  6
Continuous
 62
     7
100
AcDbLine
 10
145.00000000725
 20
-236.4681850116467
 30
0.0
 11
145.00000000725
 21
-256.4681850126467
 31
0.0
  0
LINE
  5
20F
330
341
100
AcDbEntity
  8
HIBINO-BASE
  6
Continuous
 62
     7
100
AcDbLine
 10
120.0000000059999
 20
-256.4681850126467
 30
0.0
 11
120.0000000059999
 21
-236.4681850116467
 31
0.0
  0
TEXT
  5
210
330
341
100
AcDbEntity
  8
HIBINO-BASE
 62
     7
100
AcDbText
 10
46.71308000233567
 20
-250.7408916790269
 30
0.0
 40
3.25768229182955
  1
'18.05.
 41
0.7
 11
46.71308000233567
 21
-247.4832093871974
 31
0.0
100
AcDbText
 73
     3
  0
TEXT
  5
211
330
341
100
AcDbEntity
  8
HIBINO-BASE
 62
     7
100
AcDbText
 10
35.00000000175003
 20
-252.4360716791117
 30
0.0
 40
3.25768229182955
  1
2
 41
0.7
 11
35.00000000175003
 21
-249.1783893872821
 31
0.0
100
AcDbText
 73
     3
  0
TEXT
  5
212
330
341
100
AcDbEntity
  8
HIBINO-BASE
 62
     7
100
AcDbText
 10
98.01162002696985
 20
-250.7408916790269
 30
0.0
 40
3.25768229182955
  1
N.Sasaki
 41
0.7
 11
98.01162002696985
 21
-247.4832093871974
 31
0.0
100
AcDbText
 73
     3
  0
TEXT
  5
213
330
341
100
AcDbEntity
  8
HIBINO-BASE
 62
     7
100
AcDbText
 10
7.766666667055068
 20
-252.5161850124491
 30
0.0
 40
6.5153645836591
  1
A4
 41
0.7
 11
7.766666667055068
 21
-246.00082042879
 31
0.0
100
AcDbText
 73
     3
  0
TEXT
  5
214
330
341
100
AcDbEntity
  8
HIBINO-BASE
 62
     7
100
AcDbText
 10
1.91666666676249
 20
-241.7070950119086
 30
0.0
 40
3.25768229182955
  1
PAPER SIZE
 41
0.7
 11
1.91666666676249
 21
-238.4494127200791
 31
0.0
100
AcDbText
 73
     3
  0
TEXT
  5
215
330
341
100
AcDbEntity
  8
HIBINO-BASE
 62
     7
100
AcDbText
 10
-165.6320000082815
 20
-269.2855406132874
 30
0.0
 40
7.200088359735003
  1
Hibino Corporation
 41
0.7
 11
-165.6320000082815
 21
-262.0854522535524
 31
0.0
100
AcDbText
 73
     3
  0
TEXT
  5
216
330
341
100
AcDbEntity
  8
HIBINO-BASE
 62
     7
100
AcDbText
 10
100.1367800050068
 20
-269.2855406132874
 30
0.0
 40
7.200088359735003
  1
ヒビノ株式会社
 41
0.7
 11
100.1367800050068
 21
-262.0854522535524
 31
0.0
100
AcDbText
 73
     3
  0
INSERT
  5
217
330
341
100
AcDbEntity
  8
PATTERN_FILL
 62
     7
100
AcDbBlockReference
  2
____
 10
0.0
 20
0.0
 30
0.0
  0
INSERT
  5
218
330
341
100
AcDbEntity
  8
PATTERN_FILL
 62
     7
100
AcDbBlockReference
  2
ラインタイプ-5
 10
0.0
 20
0.0
 30
0.0
  0
INSERT
  5
219
330
341
100
AcDbEntity
  8
PATTERN_FILL
 62
     7
100
AcDbBlockReference
  2
____-1
 10
0.0
 20
0.0
 30
0.0
  0
INSERT
  5
21A
330
341
100
AcDbEntity
  8
PATTERN_FILL
 62
     7
100
AcDbBlockReference
  2
____-2
 10
0.0
 20
0.0
 30
0.0
  0
INSERT
  5
21B
330
341
100
AcDbEntity
  8
PATTERN_FILL
 62
     7
100
AcDbBlockReference
  2
____-3
 10
0.0
 20
0.0
 30
0.0
  0
INSERT
  5
21C
330
341
100
AcDbEntity
  8
PATTERN_FILL
 62
     7
100
AcDbBlockReference
  2
____-4
 10
0.0
 20
0.0
 30
0.0
  0
INSERT
  5
21D
330
341
100
AcDbEntity
  8
PATTERN_FILL
 62
     7
100
AcDbBlockReference
  2
____-5
 10
0.0
 20
0.0
 30
0.0
  0
INSERT
  5
21E
330
341
100
AcDbEntity
  8
PATTERN_FILL
 62
     7
100
AcDbBlockReference
  2
____-6
 10
0.0
 20
0.0
 30
0.0
  0
INSERT
  5
21F
330
341
100
AcDbEntity
  8
PATTERN_FILL
 62
     7
100
AcDbBlockReference
  2
____-7
 10
0.0
 20
0.0
 30
0.0
  0
INSERT
  5
220
330
341
100
AcDbEntity
  8
PATTERN_FILL
 62
     7
100
AcDbBlockReference
  2
____-8
 10
0.0
 20
0.0
 30
0.0
  0
INSERT
  5
221
330
341
100
AcDbEntity
  8
PATTERN_FILL
 62
     7
100
AcDbBlockReference
  2
____-9
 10
0.0
 20
0.0
 30
0.0
  0
INSERT
  5
222
330
341
100
AcDbEntity
  8
PATTERN_FILL
 62
     7
100
AcDbBlockReference
  2
____-10
 10
0.0
 20
0.0
 30
0.0
  0
INSERT
  5
223
330
341
100
AcDbEntity
  8
PATTERN_FILL
 62
     7
100
AcDbBlockReference
  2
____-11
 10
0.0
 20
0.0
 30
0.0
  0
INSERT
  5
224
330
341
100
AcDbEntity
  8
PATTERN_FILL
 62
     7
100
AcDbBlockReference
  2
____-12
 10
0.0
 20
0.0
 30
0.0
  0
INSERT
  5
225
330
341
100
AcDbEntity
  8
PATTERN_FILL
 62
     7
100
AcDbBlockReference
  2
____-13
 10
0.0
 20
0.0
 30
0.0
  0
INSERT
  5
226
330
341
100
AcDbEntity
  8
PATTERN_FILL
 62
     7
100
AcDbBlockReference
  2
____-14
 10
0.0
 20
0.0
 30
0.0
  0
LINE
  5
227
330
341
100
AcDbEntity
  8
SPEC
  6
Continuous
 62
     7
100
AcDbLine
 10
-165.0000000082499
 20
243.5318150123533
 30
0.0
 11
130.0000000065
 21
243.5318150123533
 31
0.0
  0
LINE
  5
228
330
341
100
AcDbEntity
  8
SPEC
  6
Continuous
 62
     7
100
AcDbLine
 10
-165.0000000082499
 20
236.0318150119783
 30
0.0
 11
130.0000000065
 21
236.0318150119783
 31
0.0
  0
LINE
  5
229
330
341
100
AcDbEntity
  8
SPEC
  6
Continuous
 62
     7
100
AcDbLine
 10
-165.0000000082499
 20
243.5318150123533
 30
0.0
 11
-165.0000000082499
 21
168.5318150086032
 31
0.0
  0
TEXT
  5
22A
330
341
100
AcDbEntity
  8
SPEC
 62
     7
100
AcDbText
 10
-162.5000000081249
 20
246.3183550124925
 30
0.0
 40
4.886523437744325
  1
仕様
 41
0.7
 11
-162.5000000081249
 21
251.2048784502369
 31
0.0
100
AcDbText
 73
     3
  0
LINE
  5
22B
330
341
100
AcDbEntity
  8
SPEC
  6
Continuous
 62
     7
100
AcDbLine
 10
-100.0000000049999
 20
243.5318150123533
 30
0.0
 11
-100.0000000049999
 21
168.5318150086032
 31
0.0
  0
LINE
  5
22C
330
341
100
AcDbEntity
  8
SPEC
  6
Continuous
 62
     7
100
AcDbLine
 10
130.0000000065
 20
243.5318150123533
 30
0.0
 11
130.0000000065
 21
168.5318150086032
 31
0.0
  0
TEXT
  5
22D
330
341
100
AcDbEntity
  8
SPEC
 62
     7
100
AcDbText
 10
-163.2000000081599
 20
170.1076505642376
 30
0.0
 40
3.800629340467808
  1
付属品
 41
0.7
 11
-163.2000000081599
 21
173.9082799047054
 31
0.0
100
AcDbText
 73
     3
  0
TEXT
  5
22E
330
341
100
AcDbEntity
  8
SPEC
 62
     7
100
AcDbText
 10
-163.2000000081599
 20
185.1076505649876
 30
0.0
 40
3.800629340467808
  1
寸法(φ×H)
 41
0.7
 11
-163.2000000081599
 21
188.9082799054554
 31
0.0
100
AcDbText
 73
     3
  0
TEXT
  5
22F
330
341
100
AcDbEntity
  8
SPEC
 62
     7
100
AcDbText
 10
-163.2000000081599
 20
177.6076505646126
 30
0.0
 40
3.800629340467808
  1
質量
 41
0.7
 11
-163.2000000081599
 21
181.4082799050804
 31
0.0
100
AcDbText
 73
     3
  0
TEXT
  5
230
330
341
100
AcDbEntity
  8
SPEC
 62
     7
100
AcDbText
 10
-98.20000000490995
 20
185.1076505649876
 30
0.0
 40
3.800629340467808
  1
51×191mm
 41
0.7
 11
-98.20000000490995
 21
188.9082799054554
 31
0.0
100
AcDbText
 73
     3
  0
TEXT
  5
231
330
341
100
AcDbEntity
  8
SPEC
 62
     7
100
AcDbText
 10
-98.20000000490995
 20
177.6076505646126
 30
0.0
 40
3.800629340467808
  1
312g
 41
0.7
 11
-98.20000000490995
 21
181.4082799050804
 31
0.0
100
AcDbText
 73
     3
  0
LINE
  5
232
330
341
100
AcDbEntity
  8
SPEC
  6
Continuous
 62
     7
100
AcDbLine
 10
-165.0000000082499
 20
228.5318150116033
 30
0.0
 11
130.0000000065
 21
228.5318150116033
 31
0.0
  0
LINE
  5
233
330
341
100
AcDbEntity
  8
SPEC
  6
Continuous
 62
     7
100
AcDbLine
 10
-165.0000000082499
 20
221.0318150112283
 30
0.0
 11
130.0000000065
 21
221.0318150112283
 31
0.0
  0
LINE
  5
234
330
341
100
AcDbEntity
  8
SPEC
  6
Continuous
 62
     7
100
AcDbLine
 10
-165.0000000082499
 20
213.5318150108533
 30
0.0
 11
130.0000000065
 21
213.5318150108533
 31
0.0
  0
LINE
  5
235
330
341
100
AcDbEntity
  8
SPEC
  6
Continuous
 62
     7
100
AcDbLine
 10
-165.0000000082499
 20
206.0318150104783
 30
0.0
 11
130.0000000065
 21
206.0318150104783
 31
0.0
  0
LINE
  5
236
330
341
100
AcDbEntity
  8
SPEC
  6
Continuous
 62
     7
100
AcDbLine
 10
-165.0000000082499
 20
198.5318150101032
 30
0.0
 11
130.0000000065
 21
198.5318150101032
 31
0.0
  0
LINE
  5
237
330
341
100
AcDbEntity
  8
SPEC
  6
Continuous
 62
     7
100
AcDbLine
 10
-165.0000000082499
 20
191.0318150097283
 30
0.0
 11
130.0000000065
 21
191.0318150097283
 31
0.0
  0
LINE
  5
238
330
341
100
AcDbEntity
  8
SPEC
  6
Continuous
 62
     7
100
AcDbLine
 10
-165.0000000082499
 20
183.5318150093533
 30
0.0
 11
130.0000000065
 21
183.5318150093533
 31
0.0
  0
LINE
  5
239
330
341
100
AcDbEntity
  8
SPEC
  6
Continuous
 62
     7
100
AcDbLine
 10
-165.0000000082499
 20
176.0318150089783
 30
0.0
 11
130.0000000065
 21
176.0318150089783
 31
0.0
  0
LINE
  5
23A
330
341
100
AcDbEntity
  8
SPEC
  6
Continuous
 62
     7
100
AcDbLine
 10
-165.0000000082499
 20
168.5318150086032
 30
0.0
 11
130.0000000065
 21
168.5318150086032
 31
0.0
  0
TEXT
  5
23B
330
341
100
AcDbEntity
  8
SPEC
 62
     7
100
AcDbText
 10
-163.2000000081599
 20
237.6076505676126
 30
0.0
 40
3.800629340467807
  1
形式
 41
0.7
 11
-163.2000000081599
 21
241.4082799080804
 31
0.0
100
AcDbText
 73
     3
  0
TEXT
  5
23C
330
341
100
AcDbEntity
  8
SPEC
 62
     7
100
AcDbText
 10
-163.2000000081599
 20
230.1076505672376
 30
0.0
 40
3.800629340467807
  1
指向特性
 41
0.7
 11
-163.2000000081599
 21
233.9082799077054
 31
0.0
100
AcDbText
 73
     3
  0
TEXT
  5
23D
330
341
100
AcDbEntity
  8
SPEC
 62
     7
100
AcDbText
 10
-165.0000000082499
 20
222.0447283446122
 30
0.0
 40
3.800629340467807
  1
周波数特性
 41
0.7
 11
-165.0000000082499
 21
225.84535768508
 31
0.0
100
AcDbText
 73
     3
  0
TEXT
  5
23E
330
341
100
AcDbEntity
  8
SPEC
 62
     7
100
AcDbText
 10
-163.2000000081599
 20
215.1076505664876
 30
0.0
 40
3.800629340467807
  1
開回路感度
 41
0.7
 11
-163.2000000081599
 21
218.9082799069554
 31
0.0
100
AcDbText
 73
     3
  0
TEXT
  5
23F
330
341
100
AcDbEntity
  8
SPEC
 62
     7
100
AcDbText
 10
-163.2000000081599
 20
207.6076505661126
 30
0.0
 40
3.800629340467807
  1
最大音圧レベル
 41
0.7
 11
-163.2000000081599
 21
211.4082799065804
 31
0.0
100
AcDbText
 73
     3
  0
TEXT
  5
240
330
341
100
AcDbEntity
  8
SPEC
 62
     7
100
AcDbText
 10
-163.2000000081599
 20
200.1076505657376
 30
0.0
 40
3.800629340467807
  1
インピーダンス
 41
0.7
 11
-163.2000000081599
 21
203.9082799062054
 31
0.0
100
AcDbText
 73
     3
  0
TEXT
  5
241
330
341
100
AcDbEntity
  8
SPEC
 62
     7
100
AcDbText
 10
-163.2000000081599
 20
192.6076505653626
 30
0.0
 40
3.800629340467807
  1
端子
 41
0.7
 11
-163.2000000081599
 21
196.4082799058304
 31
0.0
100
AcDbText
 73
     3
  0
TEXT
  5
242
330
341
100
AcDbEntity
  8
SPEC
 62
     7
100
AcDbText
 10
-98.20000000490995
 20
237.6076505676126
 30
0.0
 40
3.800629340467807
  1
ダイナミック型 
 41
0.7
 11
-98.20000000490995
 21
241.4082799080804
 31
0.0
100
AcDbText
 73
     3
  0
TEXT
  5
243
330
341
100
AcDbEntity
  8
SPEC
 62
     7
100
AcDbText
 10
-98.20000000490995
 20
230.1076505672376
 30
0.0
 40
3.800629340467807
  1
スーパーカーディオイド
 41
0.7
 11
-98.20000000490995
 21
233.9082799077054
 31
0.0
100
AcDbText
 73
     3
  0
TEXT
  5
244
330
341
100
AcDbEntity
  8
SPEC
 62
     7
100
AcDbText
 10
-98.20000000490995
 20
222.6076505668626
 30
0.0
 40
3.800629340467807
  1
40Hz～20kHz
 41
0.7
 11
-98.20000000490995
 21
226.4082799073305
 31
0.0
100
AcDbText
 73
     3
  0
TEXT
  5
245
330
341
100
AcDbEntity
  8
SPEC
 62
     7
100
AcDbText
 10
-98.20000000490995
 20
215.1076505664876
 30
0.0
 40
3.800629340467807
  1
-52dB re 1V/Pa
 41
0.7
 11
-98.20000000490995
 21
218.9082799069554
 31
0.0
100
AcDbText
 73
     3
  0
TEXT
  5
246
330
341
100
AcDbEntity
  8
SPEC
 62
     7
100
AcDbText
 10
-98.20000000490995
 20
207.6076505661126
 30
0.0
 40
3.800629340467807
  1
144dB SPL
 41
0.7
 11
-98.20000000490995
 21
211.4082799065804
 31
0.0
100
AcDbText
 73
     3
  0
TEXT
  5
247
330
341
100
AcDbEntity
  8
SPEC
 62
     7
100
AcDbText
 10
-98.20000000490995
 20
192.6076505653626
 30
0.0
 40
3.800629340467807
  1
XLR(3P)
 41
0.7
 11
-98.20000000490995
 21
196.4082799058304
 31
0.0
100
AcDbText
 73
     3
  0
TEXT
  5
248
330
341
100
AcDbEntity
  8
SPEC
 62
     7
100
AcDbText
 10
-98.20000000490995
 20
170.1076505642376
 30
0.0
 40
3.800629340467807
  1
マイクホルダー、マイクポーチ
 41
0.7
 11
-98.20000000490995
 21
173.9082799047054
 31
0.0
100
AcDbText
 73
     3
  0
TEXT
  5
249
330
341
100
AcDbEntity
  8
SPEC
 62
     7
100
AcDbText
 10
-98.20000000490995
 20
200.1076505658266
 30
0.0
 40
3.800629340277777
  1
580Ω以下
 41
0.7
 11
-98.20000000490995
 21
203.9082799061044
 31
0.0
100
AcDbText
 73
     3
  0
TEXT
  5
24A
330
341
100
AcDbEntity
  8
DIMNSIONS
 62
     7
100
AcDbText
 10
-40.00000000199999
 20
-231.9292050114197
 30
0.0
 40
4.886523437744325
  1
(単位：mm)
 41
0.7
 11
-40.00000000199999
 21
-227.0426815736754
 31
0.0
100
AcDbText
 73
     3
  0
LINE
  5
24B
330
341
100
AcDbEntity
  8
DIMNSIONS
  6
Continuous
 62
     7
100
AcDbLine
 10
-81.32945798832613
 20
40.60000000000001
 30
0.0
 11
-102.0
 21
40.60000000000001
 31
0.0
  0
LINE
  5
24C
330
341
100
AcDbEntity
  8
DIMNSIONS
  6
Continuous
 62
     7
100
AcDbLine
 10
-76.75
 20
-150.0
 30
0.0
 11
-102.0
 21
-150.0
 31
0.0
  0
LINE
  5
24D
330
341
100
AcDbEntity
  8
DIMNSIONS
  6
Continuous
 62
     7
100
AcDbLine
 10
-100.0
 20
40.60000000000001
 30
0.0
 11
-100.0
 21
-150.0
 31
0.0
  0
LINE
  5
24E
330
341
100
AcDbEntity
  8
DIMNSIONS
  6
Continuous
 62
     7
100
AcDbLine
 10
-100.0
 20
40.60000000000001
 30
0.0
 11
-98.92826864755882
 21
36.60024414062501
 31
0.0
  0
LINE
  5
24F
330
341
100
AcDbEntity
  8
DIMNSIONS
  6
Continuous
 62
     7
100
AcDbLine
 10
-100.0
 20
40.60000000000001
 30
0.0
 11
-101.0717313524412
 21
36.60024414062501
 31
0.0
  0
LINE
  5
250
330
341
100
AcDbEntity
  8
DIMNSIONS
  6
Continuous
 62
     7
100
AcDbLine
 10
-100.0
 20
-150.0
 30
0.0
 11
-101.0717313524412
 21
-146.000244140625
 31
0.0
  0
LINE
  5
251
330
341
100
AcDbEntity
  8
DIMNSIONS
  6
Continuous
 62
     7
100
AcDbLine
 10
-100.0
 20
-150.0
 30
0.0
 11
-98.92826864755882
 21
-146.000244140625
 31
0.0
  0
TEXT
  5
252
330
341
100
AcDbEntity
  8
DIMNSIONS
 62
     7
100
AcDbText
 10
-102.9877777777777
 20
-59.99166666666665
 30
0.0
 40
5.429470486111111
  1
191
 50
90.0
 41
0.7
 11
-108.4172482638888
 21
-59.99166666666665
 31
0.0
100
AcDbText
 73
     3
  0
LINE
  5
253
330
341
100
AcDbEntity
  8
DIMNSIONS
  6
Continuous
 62
     7
100
AcDbLine
 10
-53.02
 20
-174.14
 30
0.0
 11
-37.50000000000001
 21
-162.5
 31
0.0
  0
LINE
  5
254
330
341
100
AcDbEntity
  8
DIMNSIONS
  6
Continuous
 62
     7
100
AcDbLine
 10
-53.02
 20
-174.14
 30
0.0
 11
-50.41407741979924
 21
-170.9219536155596
 31
0.0
  0
LINE
  5
255
330
341
100
AcDbEntity
  8
DIMNSIONS
  6
Continuous
 62
     7
100
AcDbLine
 10
-53.02
 20
-174.14
 30
0.0
 11
-49.15418165303046
 21
-172.6560513706183
 31
0.0
  0
LINE
  5
256
330
341
100
AcDbEntity
  8
DIMNSIONS
  6
Continuous
 62
     7
100
AcDbLine
 10
-37.50000000000001
 20
-162.5
 30
0.0
 11
-33.50000000000001
 21
-162.5
 31
0.0
  0
TEXT
  5
257
330
341
100
AcDbEntity
  8
DIMNSIONS
 62
     7
100
AcDbText
 10
-33.50000000000001
 20
-165.04
 30
0.0
 40
5.429470486111111
  1
φ23.7
 41
0.7
 11
-33.50000000000001
 21
-159.6105295138889
 31
0.0
100
AcDbText
 73
     3
  0
LINE
  5
258
330
341
100
AcDbEntity
  8
DIMNSIONS
  6
Continuous
 62
     7
100
AcDbLine
 10
-42.09999999999999
 20
59.7
 30
0.0
 11
-37.5
 21
56.25
 31
0.0
  0
LINE
  5
259
330
341
100
AcDbEntity
  8
DIMNSIONS
  6
Continuous
 62
     7
100
AcDbLine
 10
-42.09999999999999
 20
59.7
 30
0.0
 11
-38.23418165303047
 21
58.21605137061832
 31
0.0
  0
LINE
  5
25A
330
341
100
AcDbEntity
  8
DIMNSIONS
  6
Continuous
 62
     7
100
AcDbLine
 10
-42.09999999999999
 20
59.7
 30
0.0
 11
-39.49407741979925
 21
56.4819536155596
 31
0.0
  0
LINE
  5
25B
330
341
100
AcDbEntity
  8
DIMNSIONS
  6
Continuous
 62
     7
100
AcDbLine
 10
-37.5
 20
56.25
 30
0.0
 11
-33.5
 21
56.25
 31
0.0
  0
TEXT
  5
25C
330
341
100
AcDbEntity
  8
DIMNSIONS
 62
     7
100
AcDbText
 10
-33.5
 20
53.71
 30
0.0
 40
5.429470486111111
  1
φ51.0
 41
0.7
 11
-33.5
 21
59.13947048611111
 31
0.0
100
AcDbText
 73
     3
  0
LINE
  5
25D
330
341
100
AcDbEntity
  8
DIMNSIONS
  6
Continuous
 62
     7
100
AcDbLine
 10
-76.75
 20
-150.0
 30
0.0
 11
-89.50000000000001
 21
-150.0
 31
0.0
  0
LINE
  5
25E
330
341
100
AcDbEntity
  8
DIMNSIONS
  6
Continuous
 62
     7
100
AcDbLine
 10
-80.5
 20
-42.0
 30
0.0
 11
-89.50000000000001
 21
-42.0
 31
0.0
  0
LINE
  5
25F
330
341
100
AcDbEntity
  8
DIMNSIONS
  6
Continuous
 62
     7
100
AcDbLine
 10
-87.5
 20
-150.0
 30
0.0
 11
-87.5
 21
-42.0
 31
0.0
  0
LINE
  5
260
330
341
100
AcDbEntity
  8
DIMNSIONS
  6
Continuous
 62
     7
100
AcDbLine
 10
-87.5
 20
-150.0
 30
0.0
 11
-88.57173135244117
 21
-146.000244140625
 31
0.0
  0
LINE
  5
261
330
341
100
AcDbEntity
  8
DIMNSIONS
  6
Continuous
 62
     7
100
AcDbLine
 10
-87.5
 20
-150.0
 30
0.0
 11
-86.4282686475588
 21
-146.000244140625
 31
0.0
  0
LINE
  5
262
330
341
100
AcDbEntity
  8
DIMNSIONS
  6
Continuous
 62
     7
100
AcDbLine
 10
-87.5
 20
-42.0
 30
0.0
 11
-86.4282686475588
 21
-45.999755859375
 31
0.0
  0
LINE
  5
263
330
341
100
AcDbEntity
  8
DIMNSIONS
  6
Continuous
 62
     7
100
AcDbLine
 10
-87.5
 20
-42.0
 30
0.0
 11
-88.57173135244117
 21
-45.999755859375
 31
0.0
  0
TEXT
  5
264
330
341
100
AcDbEntity
  8
DIMNSIONS
 62
     7
100
AcDbText
 10
-89.48777777777776
 20
-101.2916666666666
 30
0.0
 40
5.429470486111111
  1
108
 50
90.0
 41
0.7
 11
-94.91724826388887
 21
-101.2916666666666
 31
0.0
100
AcDbText
 73
     3
  0
TEXT
  5
265
330
341
100
AcDbEntity
  8
DATA
 62
     7
100
AcDbText
 10
100.0000000049999
 20
-234.2064050115335
 30
0.0
 40
4.886523437744325
  1
P5i
 41
0.7
 11
100.0000000049999
 21
-229.3198815737892
 31
0.0
100
AcDbText
 73
     3
  0
TEXT
  5
266
330
341
100
AcDbEntity
  8
DATA
 62
     7
100
AcDbText
 10
-175.0000000087499
 20
-240.7156294563035
 30
0.0
 40
3.800629340467808
  1
※仕様及び外観は予告なく変更されることがあります。
 41
0.7
 11
-175.0000000087499
 21
-236.9150001158357
 31
0.0
100
AcDbText
 73
     3
  0
TEXT
  5
267
330
341
100
AcDbEntity
  8
DATA
 62
     7
100
AcDbText
 10
-175.0000000087499
 20
-245.6545183454394
 30
0.0
 40
3.800629340467808
  1
　また、同一商品でも若干の個体差があることがあります。ご了承ください。
 41
0.7
 11
-175.0000000087499
 21
-241.8538890049716
 31
0.0
100
AcDbText
 73
     3
  0
TEXT
  5
268
330
341
100
AcDbEntity
  8
DATA
 62
     7
100
AcDbText
 10
100.0000000049999
 20
-219.7064050108086
 30
0.0
 40
4.886523437744325
  1
AKG
 41
0.7
 11
100.0000000049999
 21
-214.8198815730642
 31
0.0
100
AcDbText
 73
     3
  0
ARC
  5
269
330
341
100
AcDbEntity
  8
DATA
  6
Continuous
 62
     7
100
AcDbCircle
 10
-62.49999999999932
 20
-181.2499999999992
 30
0.0
 40
8.175000000001054
100
AcDbArc
 50
239.3967430628151
 51
225.3706729004429
  0
CIRCLE
  5
26A
330
341
100
AcDbEntity
  8
DATA
  6
Continuous
 62
     7
100
AcDbCircle
 10
-62.5
 20
-177.0498541496088
 30
0.0
 40
1.125
  0
CIRCLE
  5
26B
330
341
100
AcDbEntity
  8
DATA
  6
Continuous
 62
     7
100
AcDbCircle
 10
-58.5
 20
-181.25
 30
0.0
 40
1.125
  0
CIRCLE
  5
26C
330
341
100
AcDbEntity
  8
DATA
  6
Continuous
 62
     7
100
AcDbCircle
 10
-66.5
 20
-181.25
 30
0.0
 40
1.125
  0
ARC
  5
26D
330
341
100
AcDbEntity
  8
DATA
  6
Continuous
 62
     7
100
AcDbCircle
 10
-67.48977823489304
 20
-187.7255492559773
 30
0.0
 40
1.0000000000001
100
AcDbArc
 50
138.8771904410401
 51
325.8902255222202
  0
LINE
  5
26E
330
341
100
AcDbEntity
  8
DATA
  6
Continuous
 62
     7
100
AcDbLine
 10
-51.25
 20
-150.0
 30
0.0
 11
-73.75
 21
-150.0
 31
0.0
  0
LINE
  5
26F
330
341
100
AcDbEntity
  8
DATA
  6
Continuous
 62
     7
100
AcDbLine
 10
-78.32945798832614
 20
40.60000000000001
 30
0.0
 11
-46.67054201167395
 21
40.60000000000001
 31
0.0
  0
CIRCLE
  5
270
330
341
100
AcDbEntity
  8
DATA
  6
Continuous
 62
     7
100
AcDbCircle
 10
-62.5
 20
75.0
 30
0.0
 40
25.5
  0
CIRCLE
  5
271
330
341
100
AcDbEntity
  8
DATA
  6
Continuous
 62
     7
100
AcDbCircle
 10
-62.5
 20
75.0
 30
0.0
 40
23.79999999999995
  0
CIRCLE
  5
272
330
341
100
AcDbEntity
  8
DATA
  6
Continuous
 62
     7
100
AcDbCircle
 10
-62.5
 20
75.0
 30
0.0
 40
17.5
  0
LINE
  5
273
330
341
100
AcDbEntity
  8
DATA
  6
Continuous
 62
     7
100
AcDbLine
 10
-87.14999999999996
 20
1.800000000000011
 30
0.0
 11
-37.85000000000002
 21
1.800000000000011
 31
0.0
  0
LINE
  5
274
330
341
100
AcDbEntity
  8
DATA
  6
Continuous
 62
     7
100
AcDbLine
 10
-86.0
 20
-8.199999999999986
 30
0.0
 11
-39.0
 21
-8.199999999999986
 31
0.0
  0
LINE
  5
275
330
341
100
AcDbEntity
  8
DATA
  6
Continuous
 62
     7
100
AcDbLine
 10
-80.30386315511522
 20
38.9189423730967
 30
0.0
 11
-86.29999999999997
 21
1.800000000000011
 31
0.0
  0
LINE
  5
276
330
341
100
AcDbEntity
  8
DATA
  6
Continuous
 62
     7
100
AcDbLine
 10
-44.69613684488486
 20
38.91894237309671
 30
0.0
 11
-38.70000000000004
 21
1.800000000000011
 31
0.0
  0
LINE
  5
277
330
341
100
AcDbEntity
  8
DATA
  6
Continuous
 62
     7
100
AcDbLine
 10
-88.0
 20
0.8000000000000113
 30
0.0
 11
-37.0
 21
0.8000000000000113
 31
0.0
  0
LINE
  5
278
330
341
100
AcDbEntity
  8
DATA
  6
Continuous
 62
     7
100
AcDbLine
 10
-37.85000000000002
 20
1.800000000000011
 30
0.0
 11
-37.0
 21
0.8000000000000113
 31
0.0
  0
LINE
  5
279
330
341
100
AcDbEntity
  8
DATA
  6
Continuous
 62
     7
100
AcDbLine
 10
-84.27777777777782
 20
-15.94999999999999
 30
0.0
 11
-40.72222222222217
 21
-15.94999999999999
 31
0.0
  0
LINE
  5
27A
330
341
100
AcDbEntity
  8
DATA
  6
Continuous
 62
     7
100
AcDbLine
 10
-37.0
 20
0.8000000000000113
 30
0.0
 11
-39.0
 21
-8.199999999999986
 31
0.0
  0
LINE
  5
27B
330
341
100
AcDbEntity
  8
DATA
  6
Continuous
 62
     7
100
AcDbLine
 10
-40.72222222222217
 20
-15.9499999999999
 30
0.0
 11
-42.28888888888889
 21
-23.0
 31
0.0
  0
LINE
  5
27C
330
341
100
AcDbEntity
  8
DATA
  6
Continuous
 62
     7
100
AcDbLine
 10
-87.14999999999996
 20
1.800000000000011
 30
0.0
 11
-88.0
 21
0.8000000000000113
 31
0.0
  0
LINE
  5
27D
330
341
100
AcDbEntity
  8
DATA
  6
Continuous
 62
     7
100
AcDbLine
 10
-88.0
 20
0.8000000000000113
 30
0.0
 11
-86.0
 21
-8.199999999999986
 31
0.0
  0
LINE
  5
27E
330
341
100
AcDbEntity
  8
DATA
  6
Continuous
 62
     7
100
AcDbLine
 10
-84.27777777777782
 20
-15.94999999999999
 30
0.0
 11
-82.71111111111112
 21
-23.0
 31
0.0
  0
LINE
  5
27F
330
341
100
AcDbEntity
  8
DATA
  6
Continuous
 62
     7
100
AcDbLine
 10
-42.28888888888889
 20
-23.0
 30
0.0
 11
-82.71111111111112
 21
-23.0
 31
0.0
  0
LINE
  5
280
330
341
100
AcDbEntity
  8
DATA
  6
Continuous
 62
     7
100
AcDbLine
 10
-47.5
 20
-42.0
 30
0.0
 11
-77.5
 21
-42.0
 31
0.0
  0
LINE
  5
281
330
341
100
AcDbEntity
  8
DATA
  6
Continuous
 62
     7
100
AcDbLine
 10
-42.28888888888889
 20
-23.0
 30
0.0
 11
-47.5
 21
-42.0
 31
0.0
  0
LINE
  5
282
330
341
100
AcDbEntity
  8
DATA
  6
Continuous
 62
     7
100
AcDbLine
 10
-82.71111111111112
 20
-23.0
 30
0.0
 11
-77.5
 21
-42.0
 31
0.0
  0
LINE
  5
283
330
341
100
AcDbEntity
  8
DATA
  6
Continuous
 62
     7
100
AcDbLine
 10
-77.5
 20
-42.0
 30
0.0
 11
-74.35000000000002
 21
-149.0
 31
0.0
  0
LINE
  5
284
330
341
100
AcDbEntity
  8
DATA
  6
Continuous
 62
     7
100
AcDbLine
 10
-47.5
 20
-42.0
 30
0.0
 11
-50.64999999999998
 21
-149.0
 31
0.0
  0
LINE
  5
285
330
341
100
AcDbEntity
  8
DATA
  6
Continuous
 62
     7
100
AcDbLine
 10
-84.89999999999998
 20
-8.199999999999986
 30
0.0
 11
-84.27777777777782
 21
-15.94999999999999
 31
0.0
  0
LINE
  5
286
330
341
100
AcDbEntity
  8
DATA
  6
Continuous
 62
     7
100
AcDbLine
 10
-40.10000000000001
 20
-8.199999999999986
 30
0.0
 11
-40.72222222222217
 21
-15.94999999999999
 31
0.0
  0
LINE
  5
287
330
341
100
AcDbEntity
  8
DATA
  6
Continuous
 62
     7
100
AcDbLine
 10
-50.64999999999998
 20
-149.0
 30
0.0
 11
-74.35000000000002
 21
-149.0
 31
0.0
  0
LINE
  5
288
330
341
100
AcDbEntity
  8
DATA
  6
Continuous
 62
     7
100
AcDbLine
 10
-74.35000000000002
 20
-149.0
 30
0.0
 11
-73.75
 21
-150.0
 31
0.0
  0
LINE
  5
289
330
341
100
AcDbEntity
  8
DATA
  6
Continuous
 62
     7
100
AcDbLine
 10
-50.64999999999998
 20
-149.0
 30
0.0
 11
-51.25
 21
-150.0
 31
0.0
  0
CIRCLE
  5
28A
330
341
100
AcDbEntity
  8
DATA
  6
Continuous
 62
     7
100
AcDbCircle
 10
-62.5
 20
-181.25
 30
0.0
 40
25.5
  0
CIRCLE
  5
28B
330
341
100
AcDbEntity
  8
DATA
  6
Continuous
 62
     7
100
AcDbCircle
 10
-62.5
 20
-181.25
 30
0.0
 40
23.5
  0
CIRCLE
  5
28C
330
341
100
AcDbEntity
  8
DATA
  6
Continuous
 62
     7
100
AcDbCircle
 10
-62.5
 20
-181.25
 30
0.0
 40
21.77777777777783
  0
CIRCLE
  5
28D
330
341
100
AcDbEntity
  8
DATA
  6
Continuous
 62
     7
100
AcDbCircle
 10
-62.5
 20
-181.25
 30
0.0
 40
20.21111111111111
  0
CIRCLE
  5
28E
330
341
100
AcDbEntity
  8
DATA
  6
Continuous
 62
     7
100
AcDbCircle
 10
-62.5
 20
-181.25
 30
0.0
 40
15.0
  0
CIRCLE
  5
28F
330
341
100
AcDbEntity
  8
DATA
  6
Continuous
 62
     7
100
AcDbCircle
 10
-62.5
 20
-181.25
 30
0.0
 40
11.85000000000002
  0
CIRCLE
  5
290
330
341
100
AcDbEntity
  8
DATA
  6
Continuous
 62
     7
100
AcDbCircle
 10
-62.5
 20
-181.25
 30
0.0
 40
11.25
  0
TEXT
  5
291
330
341
100
AcDbEntity
  8
DATA
 62
     7
100
AcDbText
 10
-64.78037760416666
 20
-142.6288411458333
 30
0.0
 40
3.257682291666666
  1
P5i
 41
0.7
 72
     1
 11
-62.5
 21
-141.0
 31
0.0
100
AcDbText
 73
     2
  0
TEXT
  5
292
330
341
100
AcDbEntity
  8
DATA
 62
     7
100
AcDbText
 10
-70.10125868055557
 20
-136.5165473090278
 30
0.0
 40
8.144205729166666
  1
AKG
 41
0.7
 72
     1
 11
-62.50000000000002
 21
-132.4444444444444
 31
0.0
100
AcDbText
 73
     2
  0
TEXT
  5
293
330
341
100
AcDbEntity
  8
DATA
 62
     7
100
AcDbText
 10
83.33333333749997
 20
-226.914315011169
 30
0.0
 40
3.800629340467807
  1
ハンドヘルド型マイクロホン
 41
0.7
 11
83.33333333749997
 21
-223.1136856707012
 31
0.0
100
AcDbText
 73
     3
  0
ARC
  5
294
330
341
100
AcDbEntity
  8
DATA
  6
Continuous
 62
     7
100
AcDbCircle
 10
-78.32945798832614
 20
38.60000000000001
 30
0.0
 40
2.0
100
AcDbArc
 50
90.0
 51
170.8237966596241
  0
ARC
  5
295
330
341
100
AcDbEntity
  8
DATA
  6
Continuous
 62
     7
100
AcDbCircle
 10
-46.67054201167396
 20
38.60000000000001
 30
0.0
 40
2.000000000000008
100
AcDbArc
 50
9.176203340376035
 51
89.99999999999978
  0
LINE
  5
296
330
341
100
AcDbEntity
  8
DATA
  6
Continuous
 62
     7
100
AcDbLine
 10
5.0
 20
-150.0
 30
0.0
 11
-17.5
 21
-150.0
 31
0.0
  0
LINE
  5
297
330
341
100
AcDbEntity
  8
DATA
  6
Continuous
 62
     7
100
AcDbLine
 10
-22.07945798832614
 20
40.60000000000001
 30
0.0
 11
9.579457988326048
 21
40.60000000000001
 31
0.0
  0
LINE
  5
298
330
341
100
AcDbEntity
  8
DATA
  6
Continuous
 62
     7
100
AcDbLine
 10
-30.89999999999998
 20
1.800000000000011
 30
0.0
 11
18.39999999999998
 21
1.800000000000011
 31
0.0
  0
LINE
  5
299
330
341
100
AcDbEntity
  8
DATA
  6
Continuous
 62
     7
100
AcDbLine
 10
-29.75
 20
-8.199999999999986
 30
0.0
 11
17.25
 21
-8.199999999999986
 31
0.0
  0
LINE
  5
29A
330
341
100
AcDbEntity
  8
DATA
  6
Continuous
 62
     7
100
AcDbLine
 10
-24.05386315511523
 20
38.9189423730967
 30
0.0
 11
-30.04999999999995
 21
1.800000000000011
 31
0.0
  0
LINE
  5
29B
330
341
100
AcDbEntity
  8
DATA
  6
Continuous
 62
     7
100
AcDbLine
 10
11.55386315511513
 20
38.91894237309671
 30
0.0
 11
17.54999999999995
 21
1.800000000000011
 31
0.0
  0
LINE
  5
29C
330
341
100
AcDbEntity
  8
DATA
  6
Continuous
 62
     7
100
AcDbLine
 10
-31.75
 20
0.8000000000000113
 30
0.0
 11
19.25
 21
0.8000000000000113
 31
0.0
  0
LINE
  5
29D
330
341
100
AcDbEntity
  8
DATA
  6
Continuous
 62
     7
100
AcDbLine
 10
18.39999999999998
 20
1.800000000000011
 30
0.0
 11
19.25
 21
0.8000000000000113
 31
0.0
  0
LINE
  5
29E
330
341
100
AcDbEntity
  8
DATA
  6
Continuous
 62
     7
100
AcDbLine
 10
-28.02777777777783
 20
-15.94999999999999
 30
0.0
 11
15.52777777777783
 21
-15.94999999999999
 31
0.0
  0
LINE
  5
29F
330
341
100
AcDbEntity
  8
DATA
  6
Continuous
 62
     7
100
AcDbLine
 10
19.25
 20
0.8000000000000113
 30
0.0
 11
17.25
 21
-8.199999999999986
 31
0.0
  0
LINE
  5
2A0
330
341
100
AcDbEntity
  8
DATA
  6
Continuous
 62
     7
100
AcDbLine
 10
15.52777777777783
 20
-15.9499999999999
 30
0.0
 11
13.96111111111111
 21
-23.0
 31
0.0
  0
LINE
  5
2A1
330
341
100
AcDbEntity
  8
DATA
  6
Continuous
 62
     7
100
AcDbLine
 10
-30.89999999999998
 20
1.800000000000011
 30
0.0
 11
-31.75
 21
0.8000000000000113
 31
0.0
  0
LINE
  5
2A2
330
341
100
AcDbEntity
  8
DATA
  6
Continuous
 62
     7
100
AcDbLine
 10
-31.75
 20
0.8000000000000113
 30
0.0
 11
-29.75
 21
-8.199999999999986
 31
0.0
  0
LINE
  5
2A3
330
341
100
AcDbEntity
  8
DATA
  6
Continuous
 62
     7
100
AcDbLine
 10
-28.02777777777783
 20
-15.94999999999999
 30
0.0
 11
-26.46111111111111
 21
-23.0
 31
0.0
  0
LINE
  5
2A4
330
341
100
AcDbEntity
  8
DATA
  6
Continuous
 62
     7
100
AcDbLine
 10
13.96111111111111
 20
-23.0
 30
0.0
 11
-26.46111111111111
 21
-23.0
 31
0.0
  0
LINE
  5
2A5
330
341
100
AcDbEntity
  8
DATA
  6
Continuous
 62
     7
100
AcDbLine
 10
8.75
 20
-42.0
 30
0.0
 11
-21.25
 21
-42.0
 31
0.0
  0
LINE
  5
2A6
330
341
100
AcDbEntity
  8
DATA
  6
Continuous
 62
     7
100
AcDbLine
 10
13.96111111111111
 20
-23.0
 30
0.0
 11
8.75
 21
-42.0
 31
0.0
  0
LINE
  5
2A7
330
341
100
AcDbEntity
  8
DATA
  6
Continuous
 62
     7
100
AcDbLine
 10
-26.46111111111111
 20
-23.0
 30
0.0
 11
-21.25
 21
-42.0
 31
0.0
  0
LINE
  5
2A8
330
341
100
AcDbEntity
  8
DATA
  6
Continuous
 62
     7
100
AcDbLine
 10
-21.25
 20
-42.0
 30
0.0
 11
-18.10000000000002
 21
-149.0
 31
0.0
  0
LINE
  5
2A9
330
341
100
AcDbEntity
  8
DATA
  6
Continuous
 62
     7
100
AcDbLine
 10
8.75
 20
-42.0
 30
0.0
 11
5.600000000000023
 21
-149.0
 31
0.0
  0
LINE
  5
2AA
330
341
100
AcDbEntity
  8
DATA
  6
Continuous
 62
     7
100
AcDbLine
 10
-28.64999999999998
 20
-8.199999999999986
 30
0.0
 11
-28.02777777777783
 21
-15.94999999999999
 31
0.0
  0
LINE
  5
2AB
330
341
100
AcDbEntity
  8
DATA
  6
Continuous
 62
     7
100
AcDbLine
 10
16.14999999999997
 20
-8.199999999999986
 30
0.0
 11
15.52777777777783
 21
-15.94999999999999
 31
0.0
  0
LINE
  5
2AC
330
341
100
AcDbEntity
  8
DATA
  6
Continuous
 62
     7
100
AcDbLine
 10
5.600000000000023
 20
-149.0
 30
0.0
 11
-18.10000000000002
 21
-149.0
 31
0.0
  0
LINE
  5
2AD
330
341
100
AcDbEntity
  8
DATA
  6
Continuous
 62
     7
100
AcDbLine
 10
-18.10000000000002
 20
-149.0
 30
0.0
 11
-17.5
 21
-150.0
 31
0.0
  0
LINE
  5
2AE
330
341
100
AcDbEntity
  8
DATA
  6
Continuous
 62
     7
100
AcDbLine
 10
5.600000000000023
 20
-149.0
 30
0.0
 11
5.0
 21
-150.0
 31
0.0
  0
ARC
  5
2AF
330
341
100
AcDbEntity
  8
DATA
  6
Continuous
 62
     7
100
AcDbCircle
 10
-22.07945798832614
 20
38.60000000000001
 30
0.0
 40
2.0
100
AcDbArc
 50
90.0
 51
170.8237966596241
  0
ARC
  5
2B0
330
341
100
AcDbEntity
  8
DATA
  6
Continuous
 62
     7
100
AcDbCircle
 10
9.579457988326039
 20
38.60000000000001
 30
0.0
 40
2.000000000000008
100
AcDbArc
 50
9.176203340376035
 51
89.99999999999978
  0
LINE
  5
2B1
330
341
100
AcDbEntity
  8
DATA
  6
Continuous
 62
     7
100
AcDbLine
 10
61.25
 20
-150.0
 30
0.0
 11
38.75
 21
-150.0
 31
0.0
  0
LINE
  5
2B2
330
341
100
AcDbEntity
  8
DATA
  6
Continuous
 62
     7
100
AcDbLine
 10
34.17054201167385
 20
40.60000000000001
 30
0.0
 11
65.82945798832607
 21
40.60000000000001
 31
0.0
  0
LINE
  5
2B3
330
341
100
AcDbEntity
  8
DATA
  6
Continuous
 62
     7
100
AcDbLine
 10
25.35000000000002
 20
1.800000000000011
 30
0.0
 11
74.64999999999998
 21
1.800000000000011
 31
0.0
  0
LINE
  5
2B4
330
341
100
AcDbEntity
  8
DATA
  6
Continuous
 62
     7
100
AcDbLine
 10
26.5
 20
-8.199999999999986
 30
0.0
 11
73.5
 21
-8.199999999999986
 31
0.0
  0
LINE
  5
2B5
330
341
100
AcDbEntity
  8
DATA
  6
Continuous
 62
     7
100
AcDbLine
 10
32.19613684488477
 20
38.9189423730967
 30
0.0
 11
26.20000000000005
 21
1.800000000000011
 31
0.0
  0
LINE
  5
2B6
330
341
100
AcDbEntity
  8
DATA
  6
Continuous
 62
     7
100
AcDbLine
 10
67.80386315511513
 20
38.91894237309671
 30
0.0
 11
73.79999999999995
 21
1.800000000000011
 31
0.0
  0
LINE
  5
2B7
330
341
100
AcDbEntity
  8
DATA
  6
Continuous
 62
     7
100
AcDbLine
 10
24.5
 20
0.8000000000000113
 30
0.0
 11
75.5
 21
0.8000000000000113
 31
0.0
  0
LINE
  5
2B8
330
341
100
AcDbEntity
  8
DATA
  6
Continuous
 62
     7
100
AcDbLine
 10
74.64999999999998
 20
1.800000000000011
 30
0.0
 11
75.5
 21
0.8000000000000113
 31
0.0
  0
LINE
  5
2B9
330
341
100
AcDbEntity
  8
DATA
  6
Continuous
 62
     7
100
AcDbLine
 10
28.22222222222217
 20
-15.94999999999999
 30
0.0
 11
71.77777777777783
 21
-15.94999999999999
 31
0.0
  0
LINE
  5
2BA
330
341
100
AcDbEntity
  8
DATA
  6
Continuous
 62
     7
100
AcDbLine
 10
75.5
 20
0.8000000000000113
 30
0.0
 11
73.5
 21
-8.199999999999986
 31
0.0
  0
LINE
  5
2BB
330
341
100
AcDbEntity
  8
DATA
  6
Continuous
 62
     7
100
AcDbLine
 10
71.77777777777783
 20
-15.9499999999999
 30
0.0
 11
70.2111111111111
 21
-23.0
 31
0.0
  0
LINE
  5
2BC
330
341
100
AcDbEntity
  8
DATA
  6
Continuous
 62
     7
100
AcDbLine
 10
25.35000000000002
 20
1.800000000000011
 30
0.0
 11
24.5
 21
0.8000000000000113
 31
0.0
  0
LINE
  5
2BD
330
341
100
AcDbEntity
  8
DATA
  6
Continuous
 62
     7
100
AcDbLine
 10
24.5
 20
0.8000000000000113
 30
0.0
 11
26.5
 21
-8.199999999999986
 31
0.0
  0
LINE
  5
2BE
330
341
100
AcDbEntity
  8
DATA
  6
Continuous
 62
     7
100
AcDbLine
 10
28.22222222222217
 20
-15.94999999999999
 30
0.0
 11
29.78888888888889
 21
-23.0
 31
0.0
  0
LINE
  5
2BF
330
341
100
AcDbEntity
  8
DATA
  6
Continuous
 62
     7
100
AcDbLine
 10
70.2111111111111
 20
-23.0
 30
0.0
 11
29.78888888888889
 21
-23.0
 31
0.0
  0
LINE
  5
2C0
330
341
100
AcDbEntity
  8
DATA
  6
Continuous
 62
     7
100
AcDbLine
 10
65.0
 20
-42.0
 30
0.0
 11
35.0
 21
-42.0
 31
0.0
  0
LINE
  5
2C1
330
341
100
AcDbEntity
  8
DATA
  6
Continuous
 62
     7
100
AcDbLine
 10
70.2111111111111
 20
-23.0
 30
0.0
 11
65.0
 21
-42.0
 31
0.0
  0
LINE
  5
2C2
330
341
100
AcDbEntity
  8
DATA
  6
Continuous
 62
     7
100
AcDbLine
 10
29.78888888888889
 20
-23.0
 30
0.0
 11
35.0
 21
-42.0
 31
0.0
  0
LINE
  5
2C3
330
341
100
AcDbEntity
  8
DATA
  6
Continuous
 62
     7
100
AcDbLine
 10
35.0
 20
-42.0
 30
0.0
 11
38.14999999999998
 21
-149.0
 31
0.0
  0
LINE
  5
2C4
330
341
100
AcDbEntity
  8
DATA
  6
Continuous
 62
     7
100
AcDbLine
 10
65.0
 20
-42.0
 30
0.0
 11
61.85000000000002
 21
-149.0
 31
0.0
  0
LINE
  5
2C5
330
341
100
AcDbEntity
  8
DATA
  6
Continuous
 62
     7
100
AcDbLine
 10
27.60000000000002
 20
-8.199999999999986
 30
0.0
 11
28.22222222222217
 21
-15.94999999999999
 31
0.0
  0
LINE
  5
2C6
330
341
100
AcDbEntity
  8
DATA
  6
Continuous
 62
     7
100
AcDbLine
 10
72.39999999999998
 20
-8.199999999999986
 30
0.0
 11
71.77777777777783
 21
-15.94999999999999
 31
0.0
  0
LINE
  5
2C7
330
341
100
AcDbEntity
  8
DATA
  6
Continuous
 62
     7
100
AcDbLine
 10
61.85000000000002
 20
-149.0
 30
0.0
 11
38.14999999999998
 21
-149.0
 31
0.0
  0
LINE
  5
2C8
330
341
100
AcDbEntity
  8
DATA
  6
Continuous
 62
     7
100
AcDbLine
 10
38.14999999999998
 20
-149.0
 30
0.0
 11
38.75
 21
-150.0
 31
0.0
  0
LINE
  5
2C9
330
341
100
AcDbEntity
  8
DATA
  6
Continuous
 62
     7
100
AcDbLine
 10
61.85000000000002
 20
-149.0
 30
0.0
 11
61.25
 21
-150.0
 31
0.0
  0
ARC
  5
2CA
330
341
100
AcDbEntity
  8
DATA
  6
Continuous
 62
     7
100
AcDbCircle
 10
34.17054201167385
 20
38.60000000000001
 30
0.0
 40
2.0
100
AcDbArc
 50
90.0
 51
170.8237966596241
  0
ARC
  5
2CB
330
341
100
AcDbEntity
  8
DATA
  6
Continuous
 62
     7
100
AcDbCircle
 10
65.82945798832604
 20
38.60000000000001
 30
0.0
 40
2.000000000000008
100
AcDbArc
 50
9.176203340376035
 51
89.99999999999957
  0
CIRCLE
  5
2CC
330
341
100
AcDbEntity
  8
DATA
  6
Continuous
 62
     7
100
AcDbCircle
 10
50.0
 20
-132.5
 30
0.0
 40
1.75
  0
CIRCLE
  5
2CD
330
341
100
AcDbEntity
  8
DATA
  6
Continuous
 62
     7
100
AcDbCircle
 10
50.0
 20
-132.5
 30
0.0
 40
1.5
  0
LINE
  5
2CE
330
341
100
AcDbEntity
  8
DATA
  6
Continuous
 62
     7
100
AcDbLine
 10
49.0
 20
-132.5
 30
0.0
 11
51.0
 21
-132.5
 31
0.0
  0
LINE
  5
2CF
330
341
100
AcDbEntity
  8
DATA
  6
Continuous
 62
     7
100
AcDbLine
 10
50.0
 20
-133.5
 30
0.0
 11
50.0
 21
-131.5
 31
0.0
  0
CIRCLE
  5
2D0
330
341
100
AcDbEntity
  8
DATA
  6
Continuous
 62
     7
100
AcDbCircle
 10
-62.5
 20
-53.5
 30
0.0
 40
7.5
  0
ENDSEC
  0
SECTION
  2
OBJECTS
  0
DICTIONARY
  5
2DE
330
0
100
AcDbDictionary
281
     1
  3
ACAD_CIP_PREVIOUS_PRODUCT_INFO
350
36A
  3
ACAD_COLOR
350
334
  3
ACAD_DETAILVIEWSTYLE
350
33B
  3
ACAD_GROUP
350
2DF
  3
ACAD_LAYOUT
350
333
  3
ACAD_MATERIAL
350
2E2
  3
ACAD_MLEADERSTYLE
350
337
  3
ACAD_MLINESTYLE
350
330
  3
ACAD_PLOTSETTINGS
350
332
  3
ACAD_PLOTSTYLENAME
350
2E0
  3
ACAD_SCALELIST
350
314
  3
ACAD_SECTIONVIEWSTYLE
350
339
  3
ACAD_TABLESTYLE
350
335
  3
ACAD_VISUALSTYLE
350
2FB
  3
ACDB_RECOMPOSE_DATA
350
384
  3
AcDbVariableDictionary
350
377
  3
DWGPROPS
350
385
  0
DICTIONARY
  5
36B
330
326
100
AcDbDictionary
280
     1
281
     1
  3
ADSK_XREC_LAYER_RECONCILED
360
36C
  0
DICTIONARY
  5
36D
330
345
100
AcDbDictionary
280
     1
281
     1
  3
ADSK_XREC_LAYER_RECONCILED
360
36E
  0
DICTIONARY
  5
36F
330
351
100
AcDbDictionary
280
     1
281
     1
  3
ADSK_XREC_LAYER_RECONCILED
360
370
  0
DICTIONARY
  5
371
330
352
100
AcDbDictionary
280
     1
281
     1
  3
ADSK_XREC_LAYER_RECONCILED
360
372
  0
DICTIONARY
  5
373
330
353
100
AcDbDictionary
280
     1
281
     1
  3
ADSK_XREC_LAYER_RECONCILED
360
374
  0
DICTIONARY
  5
375
330
354
100
AcDbDictionary
280
     1
281
     1
  3
ADSK_XREC_LAYER_RECONCILED
360
376
  0
XRECORD
  5
36A
102
{ACAD_REACTORS
330
2DE
102
}
330
2DE
100
AcDbXrecord
280
     1
300
ACDLT
300
2018
300

  0
DICTIONARY
  5
334
102
{ACAD_REACTORS
330
2DE
102
}
330
2DE
100
AcDbDictionary
281
     1
  0
DICTIONARY
  5
33B
102
{ACAD_REACTORS
330
2DE
102
}
330
2DE
100
AcDbDictionary
281
     1
  3
Imperial24
350
33C
  0
DICTIONARY
  5
2DF
102
{ACAD_REACTORS
330
2DE
102
}
330
2DE
100
AcDbDictionary
281
     1
  0
DICTIONARY
  5
333
102
{ACAD_REACTORS
330
2DE
102
}
330
2DE
100
AcDbDictionary
281
     1
  3
Model
350
344
  3
レイアウト1
350
340
  0
DICTIONARY
  5
2E2
102
{ACAD_REACTORS
330
2DE
102
}
330
2DE
100
AcDbDictionary
281
     1
  3
ByBlock
350
2EB
  3
ByLayer
350
2E3
  3
Global
350
2F3
  0
DICTIONARY
  5
337
102
{ACAD_REACTORS
330
2DE
102
}
330
2DE
100
AcDbDictionary
281
     1
  3
Standard
350
338
  0
DICTIONARY
  5
330
102
{ACAD_REACTORS
330
2DE
102
}
330
2DE
100
AcDbDictionary
281
     1
  3
Standard
350
331
  0
DICTIONARY
  5
332
102
{ACAD_REACTORS
330
2DE
102
}
330
2DE
100
AcDbDictionary
281
     1
  0
ACDBDICTIONARYWDFLT
  5
2E0
102
{ACAD_REACTORS
330
2DE
102
}
330
2DE
100
AcDbDictionary
281
     1
  3
Normal
350
2E1
100
AcDbDictionaryWithDefault
340
2E1
  0
DICTIONARY
  5
314
102
{ACAD_REACTORS
330
2DE
102
}
330
2DE
100
AcDbDictionary
281
     1
  3
A0
350
315
  3
A1
350
316
  3
A2
350
317
  3
A3
350
318
  3
A4
350
319
  3
A5
350
31A
  3
A6
350
31B
  3
A7
350
31C
  3
A8
350
31D
  3
A9
350
31E
  3
B0
350
31F
  3
B1
350
320
  3
B2
350
321
  3
B3
350
322
  3
B4
350
323
  3
B5
350
324
  3
B6
350
325
  0
DICTIONARY
  5
339
102
{ACAD_REACTORS
330
2DE
102
}
330
2DE
100
AcDbDictionary
281
     1
  3
Imperial24
350
33A
  0
DICTIONARY
  5
335
102
{ACAD_REACTORS
330
2DE
102
}
330
2DE
100
AcDbDictionary
281
     1
  3
Standard
350
336
  0
DICTIONARY
  5
2FB
102
{ACAD_REACTORS
330
2DE
102
}
330
2DE
100
AcDbDictionary
281
     1
  3
2dWireframe
350
301
  3
Basic
350
300
  3
Brighten
350
307
  3
ColorChange
350
30B
  3
Conceptual
350
304
  3
Dim
350
306
  3
EdgeColorOff
350
313
  3
Facepattern
350
30A
  3
Flat
350
2FC
  3
FlatWithEdges
350
2FD
  3
Gouraud
350
2FE
  3
GouraudWithEdges
350
2FF
  3
Hidden
350
303
  3
JitterOff
350
311
  3
Linepattern
350
309
  3
OverhangOff
350
312
  3
Realistic
350
305
  3
Shaded
350
310
  3
Shaded with edges
350
30F
  3
Shades of Gray
350
30C
  3
Sketchy
350
30D
  3
Thicken
350
308
  3
Wireframe
350
302
  3
X-Ray
350
30E
  0
XRECORD
  5
384
102
{ACAD_REACTORS
330
2DE
102
}
330
2DE
100
AcDbXrecord
280
     1
 90
        1
330
336
  0
DICTIONARY
  5
377
102
{ACAD_REACTORS
330
2DE
102
}
330
2DE
100
AcDbDictionary
281
     1
  3
CANNOSCALE
350
37C
  3
CMLEADERSTYLE
350
379
  3
CTABLESTYLE
350
378
  3
CVIEWDETAILSTYLE
350
37A
  3
CVIEWSECTIONSTYLE
350
37B
  3
DIMASSOC
350
37F
  3
INDEXCTL
350
37E
  3
SORTENTS
350
37D
  3
XCLIPFRAME
350
380
  0
XRECORD
  5
385
102
{ACAD_REACTORS
330
2DE
102
}
330
2DE
100
AcDbXrecord
280
     1
  1
DWGPROPS COOKIE
  2

  3

  4

  6

  7

  8
sasaki_n
  9

300
=
301
=
302
=
303
=
304
=
305
=
306
=
307
=
308
=
309
=
 40
0.0005787037037037
 41
2458248.559780093
 42
2458248.560543982
  1

 90
        0
  0
XRECORD
  5
36C
102
{ACAD_REACTORS
330
36B
102
}
330
36B
100
AcDbXrecord
280
     1
290
     1
  0
XRECORD
  5
36E
102
{ACAD_REACTORS
330
36D
102
}
330
36D
100
AcDbXrecord
280
     1
290
     1
  0
XRECORD
  5
370
102
{ACAD_REACTORS
330
36F
102
}
330
36F
100
AcDbXrecord
280
     1
290
     1
  0
XRECORD
  5
372
102
{ACAD_REACTORS
330
371
102
}
330
371
100
AcDbXrecord
280
     1
290
     1
  0
XRECORD
  5
374
102
{ACAD_REACTORS
330
373
102
}
330
373
100
AcDbXrecord
280
     1
290
     1
  0
XRECORD
  5
376
102
{ACAD_REACTORS
330
375
102
}
330
375
100
AcDbXrecord
280
     1
290
     1
  0
ACDBDETAILVIEWSTYLE
  5
33C
102
{ACAD_XDICTIONARY
360
3BD
102
}
102
{ACAD_REACTORS
330
33B
102
}
330
33B
100
AcDbModelDocViewStyle
 70
     0
  3
Imperial24
290
     0
100
AcDbDetailViewStyle
 70
     0
 71
     0
 90
        3
 71
     1
340
327
 40
0.24
340
0
 40
0.24
300

 40
0.36
280
     3
 71
     2
340
32E
 90
       25
 71
     3
340
327
 40
0.24
 90
        1
 40
0.75
 90
        1
300
%<\AcVar ViewType \f "%tc1">% %<\AcVar ViewDetailId>%\PSCALE %<\AcVar ViewScale \f "%sn">%
 71
     4
340
32E
 90
       25
340
32E
 90
       25
280
     0
  0
LAYOUT
  5
344
102
{ACAD_XDICTIONARY
360
3C1
102
}
102
{ACAD_REACTORS
330
333
102
}
330
333
100
AcDbPlotSettings
  1

  2
DocuPrint 3000-3
  4

  6

 40
0.0
 41
0.0
 42
0.0
 43
0.0
 44
0.0
 45
0.0
 46
0.0
 47
0.0
 48
0.0
 49
0.0
140
0.0
141
0.0
142
1.0
143
1.0
 70
  1712
 72
     0
 73
     0
 74
     0
  7

 75
     0
147
1.0
148
0.0
149
0.0
100
AcDbLayout
  1
Model
 70
     1
 71
     0
 10
0.0
 20
0.0
 11
12.0
 21
9.0
 12
0.0
 22
0.0
 32
0.0
 14
0.0
 24
0.0
 34
0.0
 15
0.0
 25
0.0
 35
0.0
146
0.0
 13
0.0
 23
0.0
 33
0.0
 16
1.0
 26
0.0
 36
0.0
 17
0.0
 27
1.0
 37
0.0
 76
     0
330
341
331
346
  0
LAYOUT
  5
340
102
{ACAD_XDICTIONARY
360
3BF
102
}
102
{ACAD_REACTORS
330
333
102
}
330
333
100
AcDbPlotSettings
  1

  2
DocuPrint 3000-3
  4

  6

 40
0.0
 41
0.0
 42
0.0
 43
0.0
 44
0.0
 45
0.0
 46
0.0
 47
0.0
 48
0.0
 49
0.0
140
0.0
141
0.0
142
1.0
143
1.0
 70
   688
 72
     0
 73
     0
 74
     5
  7

 75
    16
147
1.0
148
0.0
149
0.0
100
AcDbLayout
  1
レイアウト1
 70
     0
 71
     1
 10
0.0
 20
0.0
 11
12.0
 21
9.0
 12
0.0
 22
0.0
 32
0.0
 14
1.000000000000000E+20
 24
1.000000000000000E+20
 34
1.000000000000000E+20
 15
-1.000000000000000E+20
 25
-1.000000000000000E+20
 35
-1.000000000000000E+20
146
0.0
 13
0.0
 23
0.0
 33
0.0
 16
1.0
 26
0.0
 36
0.0
 17
0.0
 27
1.0
 37
0.0
 76
     0
330
33D
  0
MATERIAL
  5
2EB
102
{ACAD_XDICTIONARY
360
2EC
102
}
102
{ACAD_REACTORS
330
2E2
102
}
330
2E2
100
AcDbMaterial
  1
ByBlock
 72
     0
 43
0.0208333333333333
 43
0.0
 43
0.0
 43
0.0
 43
0.0
 43
0.0208333333333333
 43
0.0
 43
0.0
 43
0.0
 43
0.0
 43
1.0
 43
0.0
 43
0.0
 43
0.0
 43
0.0
 43
1.0
 77
     0
 47
0.0208333333333333
 47
0.0
 47
0.0
 47
0.0
 47
0.0
 47
0.0208333333333333
 47
0.0
 47
0.0
 47
0.0
 47
0.0
 47
1.0
 47
0.0
 47
0.0
 47
0.0
 47
0.0
 47
1.0
171
     0
 49
0.0208333333333333
 49
0.0
 49
0.0
 49
0.0
 49
0.0
 49
0.0208333333333333
 49
0.0
 49
0.0
 49
0.0
 49
0.0
 49
1.0
 49
0.0
 49
0.0
 49
0.0
 49
0.0
 49
1.0
175
     0
142
0.0208333333333333
142
0.0
142
0.0
142
0.0
142
0.0
142
0.0208333333333333
142
0.0
142
0.0
142
0.0
142
0.0
142
1.0
142
0.0
142
0.0
142
0.0
142
0.0
142
1.0
179
     0
144
0.0208333333333333
144
0.0
144
0.0
144
0.0
144
0.0
144
0.0208333333333333
144
0.0
144
0.0
144
0.0
144
0.0
144
1.0
144
0.0
144
0.0
144
0.0
144
0.0
144
1.0
147
0.0208333333333333
147
0.0
147
0.0
147
0.0
147
0.0
147
0.0208333333333333
147
0.0
147
0.0
147
0.0
147
0.0
147
1.0
147
0.0
147
0.0
147
0.0
147
0.0
147
1.0
  0
MATERIAL
  5
2E3
102
{ACAD_XDICTIONARY
360
2E4
102
}
102
{ACAD_REACTORS
330
2E2
102
}
330
2E2
100
AcDbMaterial
  1
ByLayer
 72
     0
 43
0.0208333333333333
 43
0.0
 43
0.0
 43
0.0
 43
0.0
 43
0.0208333333333333
 43
0.0
 43
0.0
 43
0.0
 43
0.0
 43
1.0
 43
0.0
 43
0.0
 43
0.0
 43
0.0
 43
1.0
 77
     0
 47
0.0208333333333333
 47
0.0
 47
0.0
 47
0.0
 47
0.0
 47
0.0208333333333333
 47
0.0
 47
0.0
 47
0.0
 47
0.0
 47
1.0
 47
0.0
 47
0.0
 47
0.0
 47
0.0
 47
1.0
171
     0
 49
0.0208333333333333
 49
0.0
 49
0.0
 49
0.0
 49
0.0
 49
0.0208333333333333
 49
0.0
 49
0.0
 49
0.0
 49
0.0
 49
1.0
 49
0.0
 49
0.0
 49
0.0
 49
0.0
 49
1.0
175
     0
142
0.0208333333333333
142
0.0
142
0.0
142
0.0
142
0.0
142
0.0208333333333333
142
0.0
142
0.0
142
0.0
142
0.0
142
1.0
142
0.0
142
0.0
142
0.0
142
0.0
142
1.0
179
     0
144
0.0208333333333333
144
0.0
144
0.0
144
0.0
144
0.0
144
0.0208333333333333
144
0.0
144
0.0
144
0.0
144
0.0
144
1.0
144
0.0
144
0.0
144
0.0
144
0.0
144
1.0
147
0.0208333333333333
147
0.0
147
0.0
147
0.0
147
0.0
147
0.0208333333333333
147
0.0
147
0.0
147
0.0
147
0.0
147
1.0
147
0.0
147
0.0
147
0.0
147
0.0
147
1.0
  0
MATERIAL
  5
2F3
102
{ACAD_XDICTIONARY
360
2F4
102
}
102
{ACAD_REACTORS
330
2E2
102
}
330
2E2
100
AcDbMaterial
  1
Global
 72
     0
 43
0.0208333333333333
 43
0.0
 43
0.0
 43
0.0
 43
0.0
 43
0.0208333333333333
 43
0.0
 43
0.0
 43
0.0
 43
0.0
 43
1.0
 43
0.0
 43
0.0
 43
0.0
 43
0.0
 43
1.0
 77
     0
 47
0.0208333333333333
 47
0.0
 47
0.0
 47
0.0
 47
0.0
 47
0.0208333333333333
 47
0.0
 47
0.0
 47
0.0
 47
0.0
 47
1.0
 47
0.0
 47
0.0
 47
0.0
 47
0.0
 47
1.0
171
     0
 49
0.0208333333333333
 49
0.0
 49
0.0
 49
0.0
 49
0.0
 49
0.0208333333333333
 49
0.0
 49
0.0
 49
0.0
 49
0.0
 49
1.0
 49
0.0
 49
0.0
 49
0.0
 49
0.0
 49
1.0
175
     0
142
0.0208333333333333
142
0.0
142
0.0
142
0.0
142
0.0
142
0.0208333333333333
142
0.0
142
0.0
142
0.0
142
0.0
142
1.0
142
0.0
142
0.0
142
0.0
142
0.0
142
1.0
179
     0
144
0.0208333333333333
144
0.0
144
0.0
144
0.0
144
0.0
144
0.0208333333333333
144
0.0
144
0.0
144
0.0
144
0.0
144
1.0
144
0.0
144
0.0
144
0.0
144
0.0
144
1.0
147
0.0208333333333333
147
0.0
147
0.0
147
0.0
147
0.0
147
0.0208333333333333
147
0.0
147
0.0
147
0.0
147
0.0
147
1.0
147
0.0
147
0.0
147
0.0
147
0.0
147
1.0
  0
MLEADERSTYLE
  5
338
102
{ACAD_REACTORS
330
337
102
}
330
337
100
AcDbMLeaderStyle
170
     2
171
     1
172
     0
 90
        2
 40
0.0
 41
0.0
173
     1
 91
-1056964608
340
32C
 92
       -2
290
     1
 42
0.09
291
     1
 43
0.36
  3
Standard
 44
0.18
300

342
327
174
     1
178
     6
175
     1
176
     0
 93
-1056964608
 45
0.18
292
     0
297
     0
 46
0.18
 94
-1056964608
 47
1.0
 49
1.0
140
1.0
293
     1
141
0.0
294
     1
177
     0
142
1.0
295
     0
296
     0
143
0.125
1001
ACAD_MLEADERVER
1070
     2
  0
MLINESTYLE
  5
331
102
{ACAD_REACTORS
330
330
102
}
330
330
100
AcDbMlineStyle
  2
STANDARD
 70
     0
  3

 62
   256
 51
90.0
 52
90.0
 71
     2
 49
0.5
 62
   256
  6
BYLAYER
 49
-0.5
 62
   256
  6
BYLAYER
  0
ACDBPLACEHOLDER
  5
2E1
102
{ACAD_REACTORS
330
2E0
102
}
330
2E0
  0
SCALE
  5
315
102
{ACAD_REACTORS
330
314
102
}
330
314
100
AcDbScale
 70
     0
300
1:1
140
1.0
141
1.0
290
     1
  0
SCALE
  5
316
102
{ACAD_REACTORS
330
314
102
}
330
314
100
AcDbScale
 70
     0
300
1/128" = 1'-0"
140
0.0078125
141
12.0
290
     0
  0
SCALE
  5
317
102
{ACAD_REACTORS
330
314
102
}
330
314
100
AcDbScale
 70
     0
300
1/64" = 1'-0"
140
0.015625
141
12.0
290
     0
  0
SCALE
  5
318
102
{ACAD_REACTORS
330
314
102
}
330
314
100
AcDbScale
 70
     0
300
1/32" = 1'-0"
140
0.03125
141
12.0
290
     0
  0
SCALE
  5
319
102
{ACAD_REACTORS
330
314
102
}
330
314
100
AcDbScale
 70
     0
300
1/16" = 1'-0"
140
0.0625
141
12.0
290
     0
  0
SCALE
  5
31A
102
{ACAD_REACTORS
330
314
102
}
330
314
100
AcDbScale
 70
     0
300
3/32" = 1'-0"
140
0.09375
141
12.0
290
     0
  0
SCALE
  5
31B
102
{ACAD_REACTORS
330
314
102
}
330
314
100
AcDbScale
 70
     0
300
1/8" = 1'-0"
140
0.125
141
12.0
290
     0
  0
SCALE
  5
31C
102
{ACAD_REACTORS
330
314
102
}
330
314
100
AcDbScale
 70
     0
300
3/16" = 1'-0"
140
0.1875
141
12.0
290
     0
  0
SCALE
  5
31D
102
{ACAD_REACTORS
330
314
102
}
330
314
100
AcDbScale
 70
     0
300
1/4" = 1'-0"
140
0.25
141
12.0
290
     0
  0
SCALE
  5
31E
102
{ACAD_REACTORS
330
314
102
}
330
314
100
AcDbScale
 70
     0
300
3/8" = 1'-0"
140
0.375
141
12.0
290
     0
  0
SCALE
  5
31F
102
{ACAD_REACTORS
330
314
102
}
330
314
100
AcDbScale
 70
     0
300
1/2" = 1'-0"
140
0.5
141
12.0
290
     0
  0
SCALE
  5
320
102
{ACAD_REACTORS
330
314
102
}
330
314
100
AcDbScale
 70
     0
300
3/4" = 1'-0"
140
0.75
141
12.0
290
     0
  0
SCALE
  5
321
102
{ACAD_REACTORS
330
314
102
}
330
314
100
AcDbScale
 70
     0
300
1" = 1'-0"
140
1.0
141
12.0
290
     0
  0
SCALE
  5
322
102
{ACAD_REACTORS
330
314
102
}
330
314
100
AcDbScale
 70
     0
300
1-1/2" = 1'-0"
140
1.5
141
12.0
290
     0
  0
SCALE
  5
323
102
{ACAD_REACTORS
330
314
102
}
330
314
100
AcDbScale
 70
     0
300
3" = 1'-0"
140
3.0
141
12.0
290
     0
  0
SCALE
  5
324
102
{ACAD_REACTORS
330
314
102
}
330
314
100
AcDbScale
 70
     0
300
6" = 1'-0"
140
6.0
141
12.0
290
     0
  0
SCALE
  5
325
102
{ACAD_REACTORS
330
314
102
}
330
314
100
AcDbScale
 70
     0
300
1'-0" = 1'-0"
140
12.0
141
12.0
290
     0
  0
ACDBSECTIONVIEWSTYLE
  5
33A
102
{ACAD_XDICTIONARY
360
3BB
102
}
102
{ACAD_REACTORS
330
339
102
}
330
339
100
AcDbModelDocViewStyle
 70
     0
  3
Imperial24
290
     0
100
AcDbSectionViewStyle
 70
     0
 71
     0
 90
       78
 71
     1
340
327
 40
0.24
340
0
340
0
 40
0.24
300
I, O, Q, S, X, Z
 40
0.48
 90
        3
 40
0.18
 90
        1
 71
     2
340
32E
 90
       25
340
32E
 90
       50
 40
0.24
 40
0.0
 40
0.24
 71
     3
340
327
 40
0.24
 90
        1
 40
0.75
 90
        1
300
%<\AcVar ViewType \f "%tc1">% %<\AcVar ViewSectionStartId>%-%<\AcVar ViewSectionEndId>%\PSCALE %<\AcVar ViewScale \f "%sn">%
 71
     4
300
ANSI31
 40
1.0
 90
        0
290
     0
290
     0
 90
        6
 40
0.0
 40
1.570796326794896
 40
0.2617993877991494
 40
1.308996938995747
 40
-0.2617993877991494
 40
1.832595714594046
  0
TABLESTYLE
  5
336
102
{ACAD_XDICTIONARY
360
382
102
}
102
{ACAD_REACTORS
330
335
102
}
330
335
100
AcDbTableStyle
  3
Standard
 70
     0
 71
     0
 40
0.06
 41
0.06
280
     0
281
     0
  7
STANDARD
140
0.18
170
     2
 62
     0
 63
     7
283
     0
274
    -2
284
     1
 64
     0
275
    -2
285
     1
 65
     0
276
    -2
286
     1
 66
     0
277
    -2
287
     1
 67
     0
278
    -2
288
     1
 68
     0
279
    -2
289
     1
 69
     0
  7
STANDARD
140
0.25
170
     5
 62
     0
 63
     7
283
     0
274
    -2
284
     1
 64
     0
275
    -2
285
     1
 65
     0
276
    -2
286
     1
 66
     0
277
    -2
287
     1
 67
     0
278
    -2
288
     1
 68
     0
279
    -2
289
     1
 69
     0
  7
STANDARD
140
0.18
170
     5
 62
     0
 63
     7
283
     0
274
    -2
284
     1
 64
     0
275
    -2
285
     1
 65
     0
276
    -2
286
     1
 66
     0
277
    -2
287
     1
 67
     0
278
    -2
288
     1
 68
     0
279
    -2
289
     1
 69
     0
  0
VISUALSTYLE
  5
301
102
{ACAD_XDICTIONARY
360
393
102
}
102
{ACAD_REACTORS
330
2FB
102
}
330
2FB
100
AcDbVisualStyle
  2
2dWireframe
 70
     4
 71
     0
 72
     2
 73
     0
 90
        0
 40
-0.6
 41
-30.0
 62
     5
 63
     7
 74
     1
 91
        4
 64
     7
 65
   257
 75
     1
175
     1
 42
1.0
 92
        0
 66
   257
 43
1.0
 76
     1
 77
     6
 78
     2
 67
     7
 79
     5
170
     0
171
     0
290
     0
174
     0
 93
        1
 44
0.0
173
     0
291
     0
 45
0.0
1001
ACAD
1000
AcDbSavedByObjectVersion
1070
     0
  0
VISUALSTYLE
  5
300
102
{ACAD_XDICTIONARY
360
391
102
}
102
{ACAD_REACTORS
330
2FB
102
}
330
2FB
100
AcDbVisualStyle
  2
Basic
 70
     7
 71
     1
 72
     0
 73
     1
 90
        0
 40
-0.6
 41
-30.0
 62
     5
 63
     7
 74
     0
 91
        4
 64
     7
 65
   257
 75
     1
175
     1
 42
1.0
 92
        8
 66
     7
 43
1.0
 76
     1
 77
     6
 78
     2
 67
     7
 79
     5
170
     0
171
     0
290
     0
174
     0
 93
        1
 44
0.0
173
     0
291
     1
 45
0.0
1001
ACAD
1000
AcDbSavedByObjectVersion
1070
     0
  0
VISUALSTYLE
  5
307
102
{ACAD_XDICTIONARY
360
39F
102
}
102
{ACAD_REACTORS
330
2FB
102
}
330
2FB
100
AcDbVisualStyle
  2
Brighten
 70
    12
 71
     2
 72
     2
 73
     0
 90
        0
 40
-0.6
 41
-30.0
 62
     5
 63
     7
 74
     1
 91
        4
 64
     7
 65
   257
 75
     1
175
     1
 42
1.0
 92
        8
 66
     7
 43
1.0
 76
     1
 77
     6
 78
     2
 67
     7
 79
     5
170
     0
171
     0
290
     0
174
     0
 93
        1
 44
50.0
173
     0
291
     1
 45
0.0
1001
ACAD
1000
AcDbSavedByObjectVersion
1070
     0
  0
VISUALSTYLE
  5
30B
102
{ACAD_XDICTIONARY
360
3A7
102
}
102
{ACAD_REACTORS
330
2FB
102
}
330
2FB
100
AcDbVisualStyle
  2
ColorChange
 70
    16
 71
     2
 72
     2
 73
     3
 90
        0
 40
-0.6
 41
-30.0
 62
     5
 63
     8
 74
     1
 91
        4
 64
     7
 65
   257
 75
     1
175
     1
 42
1.0
 92
        8
 66
     8
 43
1.0
 76
     1
 77
     6
 78
     2
 67
     7
 79
     5
170
     0
171
     0
290
     0
174
     0
 93
        1
 44
0.0
173
     0
291
     1
 45
0.0
1001
ACAD
1000
AcDbSavedByObjectVersion
1070
     0
  0
VISUALSTYLE
  5
304
102
{ACAD_XDICTIONARY
360
399
102
}
102
{ACAD_REACTORS
330
2FB
102
}
330
2FB
100
AcDbVisualStyle
  2
Conceptual
 70
     9
 71
     3
 72
     2
 73
     0
 90
        0
 40
-0.6
 41
-30.0
 62
     5
 63
     7
 74
     2
 91
        2
 64
     7
 65
   257
 75
     1
175
     1
 42
179.0
 92
        8
 66
     7
 43
1.0
 76
     1
 77
     6
 78
     2
 67
     7
 79
     3
170
     0
171
     0
290
     0
174
     0
 93
        1
 44
0.0
173
     0
291
     0
 45
0.0
1001
ACAD
1000
AcDbSavedByObjectVersion
1070
     0
  0
VISUALSTYLE
  5
306
102
{ACAD_XDICTIONARY
360
39D
102
}
102
{ACAD_REACTORS
330
2FB
102
}
330
2FB
100
AcDbVisualStyle
  2
Dim
 70
    11
 71
     2
 72
     2
 73
     0
 90
        0
 40
-0.6
 41
-30.0
 62
     5
 63
     7
 74
     1
 91
        4
 64
     7
 65
   257
 75
     1
175
     1
 42
1.0
 92
        8
 66
     7
 43
1.0
 76
     1
 77
     6
 78
     2
 67
     7
 79
     5
170
     0
171
     0
290
     0
174
     0
 93
        1
 44
-50.0
173
     0
291
     1
 45
0.0
1001
ACAD
1000
AcDbSavedByObjectVersion
1070
     0
  0
VISUALSTYLE
  5
313
102
{ACAD_XDICTIONARY
360
3B7
102
}
102
{ACAD_REACTORS
330
2FB
102
}
330
2FB
100
AcDbVisualStyle
  2
EdgeColorOff
 70
    22
 71
     2
 72
     2
 73
     0
 90
        0
 40
-0.6
 41
-30.0
 62
     5
 63
     7
 74
     1
 91
        4
 64
     7
 65
   257
 75
     1
175
     1
 42
1.0
 92
        8
 66
     7
 43
1.0
 76
     1
 77
     6
 78
     2
 67
     7
 79
     5
170
     0
171
     0
290
     0
174
     0
 93
        1
 44
0.0
173
     0
291
     1
 45
0.0
1001
ACAD
1000
AcDbSavedByObjectVersion
1070
     0
  0
VISUALSTYLE
  5
30A
102
{ACAD_XDICTIONARY
360
3A5
102
}
102
{ACAD_REACTORS
330
2FB
102
}
330
2FB
100
AcDbVisualStyle
  2
Facepattern
 70
    15
 71
     2
 72
     2
 73
     0
 90
        0
 40
-0.6
 41
-30.0
 62
     5
 63
     7
 74
     1
 91
        4
 64
     7
 65
   257
 75
     1
175
     1
 42
1.0
 92
        8
 66
     7
 43
1.0
 76
     1
 77
     6
 78
     2
 67
     7
 79
     5
170
     0
171
     0
290
     0
174
     0
 93
        1
 44
0.0
173
     0
291
     1
 45
0.0
1001
ACAD
1000
AcDbSavedByObjectVersion
1070
     0
  0
VISUALSTYLE
  5
2FC
102
{ACAD_XDICTIONARY
360
389
102
}
102
{ACAD_REACTORS
330
2FB
102
}
330
2FB
100
AcDbVisualStyle
  2
Flat
 70
     0
 71
     2
 72
     1
 73
     1
 90
        2
 40
-0.6
 41
30.0
 62
     5
 63
     7
 74
     0
 91
        0
 64
     7
 65
   257
 75
     1
175
     1
 42
1.0
 92
        8
 66
     7
 43
1.0
 76
     1
 77
     6
 78
     2
 67
     7
 79
     5
170
     0
171
     0
290
     0
174
     0
 93
       13
 44
0.0
173
     0
291
     1
 45
0.0
1001
ACAD
1000
AcDbSavedByObjectVersion
1070
     0
  0
VISUALSTYLE
  5
2FD
102
{ACAD_XDICTIONARY
360
38B
102
}
102
{ACAD_REACTORS
330
2FB
102
}
330
2FB
100
AcDbVisualStyle
  2
FlatWithEdges
 70
     1
 71
     2
 72
     1
 73
     1
 90
        2
 40
-0.6
 41
30.0
 62
     5
 63
     7
 74
     1
 91
        0
 64
     7
 65
   257
 75
     1
175
     1
 42
1.0
 92
        0
 66
   257
 43
1.0
 76
     1
 77
     6
 78
     2
 67
     7
 79
     5
170
     0
171
     0
290
     0
174
     0
 93
       13
 44
0.0
173
     0
291
     1
 45
0.0
1001
ACAD
1000
AcDbSavedByObjectVersion
1070
     0
  0
VISUALSTYLE
  5
2FE
102
{ACAD_XDICTIONARY
360
38D
102
}
102
{ACAD_REACTORS
330
2FB
102
}
330
2FB
100
AcDbVisualStyle
  2
Gouraud
 70
     2
 71
     2
 72
     2
 73
     1
 90
        2
 40
-0.6
 41
30.0
 62
     5
 63
     7
 74
     0
 91
        0
 64
     7
 65
   257
 75
     1
175
     1
 42
1.0
 92
        0
 66
     7
 43
1.0
 76
     1
 77
     6
 78
     2
 67
     7
 79
     5
170
     0
171
     0
290
     0
174
     0
 93
       13
 44
0.0
173
     0
291
     1
 45
0.0
1001
ACAD
1000
AcDbSavedByObjectVersion
1070
     0
  0
VISUALSTYLE
  5
2FF
102
{ACAD_XDICTIONARY
360
38F
102
}
102
{ACAD_REACTORS
330
2FB
102
}
330
2FB
100
AcDbVisualStyle
  2
GouraudWithEdges
 70
     3
 71
     2
 72
     2
 73
     1
 90
        2
 40
-0.6
 41
30.0
 62
     5
 63
     7
 74
     1
 91
        0
 64
     7
 65
   257
 75
     1
175
     1
 42
1.0
 92
        0
 66
   257
 43
1.0
 76
     1
 77
     6
 78
     2
 67
     7
 79
     5
170
     0
171
     0
290
     0
174
     0
 93
       13
 44
0.0
173
     0
291
     1
 45
0.0
1001
ACAD
1000
AcDbSavedByObjectVersion
1070
     0
  0
VISUALSTYLE
  5
303
102
{ACAD_XDICTIONARY
360
397
102
}
102
{ACAD_REACTORS
330
2FB
102
}
330
2FB
100
AcDbVisualStyle
  2
Hidden
 70
     6
 71
     1
 72
     2
 73
     2
 90
        0
 40
-0.6
 41
-30.0
 62
     5
 63
     7
 74
     2
 91
        2
 64
     7
 65
   257
 75
     2
175
     1
 42
40.0
 92
        0
 66
   257
 43
1.0
 76
     1
 77
     6
 78
     2
 67
     7
 79
     3
170
     0
171
     0
290
     0
174
     0
 93
        1
 44
0.0
173
     0
291
     0
 45
0.0
1001
ACAD
1000
AcDbSavedByObjectVersion
1070
     0
  0
VISUALSTYLE
  5
311
102
{ACAD_XDICTIONARY
360
3B3
102
}
102
{ACAD_REACTORS
330
2FB
102
}
330
2FB
100
AcDbVisualStyle
  2
JitterOff
 70
    20
 71
     2
 72
     2
 73
     0
 90
        0
 40
-0.6
 41
-30.0
 62
     5
 63
     7
 74
     1
 91
        4
 64
     7
 65
   257
 75
     1
175
     1
 42
1.0
 92
       10
 66
     7
 43
1.0
 76
     1
 77
     6
 78
     2
 67
     7
 79
     5
170
     0
171
     0
290
     0
174
     0
 93
        1
 44
0.0
173
     0
291
     1
 45
0.0
1001
ACAD
1000
AcDbSavedByObjectVersion
1070
     0
  0
VISUALSTYLE
  5
309
102
{ACAD_XDICTIONARY
360
3A3
102
}
102
{ACAD_REACTORS
330
2FB
102
}
330
2FB
100
AcDbVisualStyle
  2
Linepattern
 70
    14
 71
     2
 72
     2
 73
     0
 90
        0
 40
-0.6
 41
-30.0
 62
     5
 63
     7
 74
     1
 91
        4
 64
     7
 65
   257
 75
     7
175
     7
 42
1.0
 92
        8
 66
     7
 43
1.0
 76
     1
 77
     6
 78
     2
 67
     7
 79
     5
170
     0
171
     0
290
     0
174
     0
 93
        1
 44
0.0
173
     0
291
     1
 45
0.0
1001
ACAD
1000
AcDbSavedByObjectVersion
1070
     0
  0
VISUALSTYLE
  5
312
102
{ACAD_XDICTIONARY
360
3B5
102
}
102
{ACAD_REACTORS
330
2FB
102
}
330
2FB
100
AcDbVisualStyle
  2
OverhangOff
 70
    21
 71
     2
 72
     2
 73
     0
 90
        0
 40
-0.6
 41
-30.0
 62
     5
 63
     7
 74
     1
 91
        4
 64
     7
 65
   257
 75
     1
175
     1
 42
1.0
 92
        9
 66
     7
 43
1.0
 76
     1
 77
     6
 78
     2
 67
     7
 79
     5
170
     0
171
     0
290
     0
174
     0
 93
        1
 44
0.0
173
     0
291
     1
 45
0.0
1001
ACAD
1000
AcDbSavedByObjectVersion
1070
     0
  0
VISUALSTYLE
  5
305
102
{ACAD_XDICTIONARY
360
39B
102
}
102
{ACAD_REACTORS
330
2FB
102
}
330
2FB
100
AcDbVisualStyle
  2
Realistic
 70
     8
 71
     2
 72
     3
 73
     0
 90
        2
 40
-0.6
 41
30.0
 62
     5
 63
     7
 74
     0
 91
        0
 64
     7
 65
   257
 75
     1
175
     1
 42
1.0
 92
        8
 66
   257
 43
1.0
 76
     1
 77
     6
 78
     2
 67
     7
 79
     3
170
     0
171
     0
290
     0
174
     0
 93
       13
 44
0.0
173
     0
291
     0
 45
0.0
1001
ACAD
1000
AcDbSavedByObjectVersion
1070
     0
  0
VISUALSTYLE
  5
310
102
{ACAD_XDICTIONARY
360
3B1
102
}
102
{ACAD_REACTORS
330
2FB
102
}
330
2FB
100
AcDbVisualStyle
  2
Shaded
 70
    27
 71
     2
 72
     2
 73
     1
 90
        2
 40
-0.6
 41
30.0
 62
     5
 63
     7
 74
     0
 91
        4
 64
     7
 65
   257
 75
     1
175
     1
 42
1.0
 92
        8
 66
   257
 43
1.0
 76
     1
 77
     6
 78
     2
 67
     8
 79
     3
170
     0
171
     0
290
     0
174
     0
 93
        5
 44
0.0
173
     0
291
     0
 45
0.0
1001
ACAD
1000
AcDbSavedByObjectVersion
1070
     0
  0
VISUALSTYLE
  5
30F
102
{ACAD_XDICTIONARY
360
3AF
102
}
102
{ACAD_REACTORS
330
2FB
102
}
330
2FB
100
AcDbVisualStyle
  2
Shaded with edges
 70
    26
 71
     2
 72
     2
 73
     1
 90
        2
 40
-0.6
 41
30.0
 62
     5
 63
     7
 74
     1
 91
        2
 64
     7
 65
   257
 75
     2
175
     1
 42
1.0
 92
        8
 66
   257
 43
1.0
 76
     1
 77
     6
 78
     2
 67
     7
 79
     3
170
     0
171
     0
290
     0
174
     0
 93
        5
 44
0.0
173
     0
291
     0
 45
0.0
1001
ACAD
1000
AcDbSavedByObjectVersion
1070
     0
  0
VISUALSTYLE
  5
30C
102
{ACAD_XDICTIONARY
360
3A9
102
}
102
{ACAD_REACTORS
330
2FB
102
}
330
2FB
100
AcDbVisualStyle
  2
Shades of Gray
 70
    23
 71
     2
 72
     2
 73
     3
 90
        0
 40
-0.6
 41
-30.0
 62
     5
 63
     7
 74
     2
 91
        2
 64
     7
 65
     7
 75
     1
175
     1
 42
40.0
 92
        8
 66
     7
 43
1.0
 76
     1
 77
     6
 78
     2
 67
     7
 79
     3
170
     0
171
     0
290
     0
174
     0
 93
        1
 44
0.0
173
     0
291
     0
 45
0.0
1001
ACAD
1000
AcDbSavedByObjectVersion
1070
     0
  0
VISUALSTYLE
  5
30D
102
{ACAD_XDICTIONARY
360
3AB
102
}
102
{ACAD_REACTORS
330
2FB
102
}
330
2FB
100
AcDbVisualStyle
  2
Sketchy
 70
    24
 71
     1
 72
     2
 73
     2
 90
        0
 40
-0.6
 41
-30.0
 62
     5
 63
     7
 74
     2
 91
        2
 64
     7
 65
     7
 75
     1
175
     1
 42
40.0
 92
       11
 66
     7
 43
1.0
 76
     1
 77
     6
 78
     2
 67
     7
 79
     6
170
     0
171
     0
290
     0
174
     0
 93
        1
 44
0.0
173
     0
291
     0
 45
0.0
1001
ACAD
1000
AcDbSavedByObjectVersion
1070
     0
  0
VISUALSTYLE
  5
308
102
{ACAD_XDICTIONARY
360
3A1
102
}
102
{ACAD_REACTORS
330
2FB
102
}
330
2FB
100
AcDbVisualStyle
  2
Thicken
 70
    13
 71
     2
 72
     2
 73
     0
 90
        0
 40
-0.6
 41
-30.0
 62
     5
 63
     7
 74
     1
 91
        4
 64
     7
 65
   257
 75
     1
175
     1
 42
1.0
 92
       12
 66
     7
 43
1.0
 76
     1
 77
     6
 78
     2
 67
     7
 79
     5
170
     0
171
     0
290
     0
174
     0
 93
        1
 44
0.0
173
     0
291
     1
 45
0.0
1001
ACAD
1000
AcDbSavedByObjectVersion
1070
     0
  0
VISUALSTYLE
  5
302
102
{ACAD_XDICTIONARY
360
395
102
}
102
{ACAD_REACTORS
330
2FB
102
}
330
2FB
100
AcDbVisualStyle
  2
Wireframe
 70
     5
 71
     0
 72
     2
 73
     0
 90
        0
 40
-0.6
 41
-30.0
 62
     5
 63
     7
 74
     1
 91
        4
 64
     7
 65
   257
 75
     1
175
     1
 42
1.0
 92
        0
 66
   257
 43
1.0
 76
     1
 77
     6
 78
     2
 67
     7
 79
     3
170
     0
171
     0
290
     0
174
     0
 93
        1
 44
0.0
173
     0
291
     0
 45
0.0
1001
ACAD
1000
AcDbSavedByObjectVersion
1070
     0
  0
VISUALSTYLE
  5
30E
102
{ACAD_XDICTIONARY
360
3AD
102
}
102
{ACAD_REACTORS
330
2FB
102
}
330
2FB
100
AcDbVisualStyle
  2
X-Ray
 70
    25
 71
     2
 72
     2
 73
     1
 90
        1
 40
0.5
 41
-30.0
 62
     5
 63
     7
 74
     1
 91
        0
 64
     7
 65
   257
 75
     1
175
     1
 42
1.0
 92
        8
 66
     7
 43
1.0
 76
     1
 77
     6
 78
     2
 67
     7
 79
     3
170
     0
171
     0
290
     0
174
     0
 93
       13
 44
0.0
173
     0
291
     0
 45
0.0
1001
ACAD
1000
AcDbSavedByObjectVersion
1070
     0
  0
DICTIONARYVAR
  5
37C
102
{ACAD_REACTORS
330
377
102
}
330
377
100
DictionaryVariables
280
     0
  1
1:1
  0
DICTIONARYVAR
  5
379
102
{ACAD_REACTORS
330
377
102
}
330
377
100
DictionaryVariables
280
     0
  1
STANDARD
  0
DICTIONARYVAR
  5
378
102
{ACAD_REACTORS
330
377
102
}
330
377
100
DictionaryVariables
280
     0
  1
STANDARD
  0
DICTIONARYVAR
  5
37A
102
{ACAD_REACTORS
330
377
102
}
330
377
100
DictionaryVariables
280
     0
  1
Imperial24
  0
DICTIONARYVAR
  5
37B
102
{ACAD_REACTORS
330
377
102
}
330
377
100
DictionaryVariables
280
     0
  1
Imperial24
  0
DICTIONARYVAR
  5
37F
102
{ACAD_REACTORS
330
377
102
}
330
377
100
DictionaryVariables
280
     0
  1
1
  0
DICTIONARYVAR
  5
37E
102
{ACAD_REACTORS
330
377
102
}
330
377
100
DictionaryVariables
280
     0
  1
0
  0
DICTIONARYVAR
  5
37D
102
{ACAD_REACTORS
330
377
102
}
330
377
100
DictionaryVariables
280
     0
  1
127
  0
DICTIONARYVAR
  5
380
102
{ACAD_REACTORS
330
377
102
}
330
377
100
DictionaryVariables
280
     0
  1
2
  0
DICTIONARY
  5
3BD
330
33C
100
AcDbDictionary
280
     1
281
     1
  3
ACAD_XREC_ROUNDTRIP
360
3BE
  0
DICTIONARY
  5
3C1
330
344
100
AcDbDictionary
280
     1
281
     1
  3
ACAD_XREC_ROUNDTRIP
360
3C2
  0
DICTIONARY
  5
3BF
330
340
100
AcDbDictionary
280
     1
281
     1
  3
ACAD_XREC_ROUNDTRIP
360
3C0
  0
DICTIONARY
  5
2EC
330
2EB
100
AcDbDictionary
280
     1
281
     1
  3
ACAD_XREC_ROUNDTRIP
360
387
  3
BUMPTILE
360
2EE
  3
DIFFUSETILE
360
2ED
  3
OPACITYTILE
360
2F1
  3
REFLECTIONTILE
360
2F0
  3
REFRACTIONTILE
360
2F2
  3
SPECULARTILE
360
2EF
  0
DICTIONARY
  5
2E4
330
2E3
100
AcDbDictionary
280
     1
281
     1
  3
ACAD_XREC_ROUNDTRIP
360
386
  3
BUMPTILE
360
2E6
  3
DIFFUSETILE
360
2E5
  3
OPACITYTILE
360
2E9
  3
REFLECTIONTILE
360
2E8
  3
REFRACTIONTILE
360
2EA
  3
SPECULARTILE
360
2E7
  0
DICTIONARY
  5
2F4
330
2F3
100
AcDbDictionary
280
     1
281
     1
  3
ACAD_XREC_ROUNDTRIP
360
388
  3
BUMPTILE
360
2F6
  3
DIFFUSETILE
360
2F5
  3
OPACITYTILE
360
2F9
  3
REFLECTIONTILE
360
2F8
  3
REFRACTIONTILE
360
2FA
  3
SPECULARTILE
360
2F7
  0
DICTIONARY
  5
3BB
330
33A
100
AcDbDictionary
280
     1
281
     1
  3
ACAD_XREC_ROUNDTRIP
360
3BC
  0
DICTIONARY
  5
382
330
336
100
AcDbDictionary
280
     1
281
     1
  3
ACAD_ROUNDTRIP_2008_TABLESTYLE_CELLSTYLEMAP
360
383
  3
ACAD_XREC_ROUNDTRIP
360
3B9
  0
DICTIONARY
  5
393
330
301
100
AcDbDictionary
280
     1
281
     1
  3
ACAD_XREC_ROUNDTRIP
360
394
  0
DICTIONARY
  5
391
330
300
100
AcDbDictionary
280
     1
281
     1
  3
ACAD_XREC_ROUNDTRIP
360
392
  0
DICTIONARY
  5
39F
330
307
100
AcDbDictionary
280
     1
281
     1
  3
ACAD_XREC_ROUNDTRIP
360
3A0
  0
DICTIONARY
  5
3A7
330
30B
100
AcDbDictionary
280
     1
281
     1
  3
ACAD_XREC_ROUNDTRIP
360
3A8
  0
DICTIONARY
  5
399
330
304
100
AcDbDictionary
280
     1
281
     1
  3
ACAD_XREC_ROUNDTRIP
360
39A
  0
DICTIONARY
  5
39D
330
306
100
AcDbDictionary
280
     1
281
     1
  3
ACAD_XREC_ROUNDTRIP
360
39E
  0
DICTIONARY
  5
3B7
330
313
100
AcDbDictionary
280
     1
281
     1
  3
ACAD_XREC_ROUNDTRIP
360
3B8
  0
DICTIONARY
  5
3A5
330
30A
100
AcDbDictionary
280
     1
281
     1
  3
ACAD_XREC_ROUNDTRIP
360
3A6
  0
DICTIONARY
  5
389
330
2FC
100
AcDbDictionary
280
     1
281
     1
  3
ACAD_XREC_ROUNDTRIP
360
38A
  0
DICTIONARY
  5
38B
330
2FD
100
AcDbDictionary
280
     1
281
     1
  3
ACAD_XREC_ROUNDTRIP
360
38C
  0
DICTIONARY
  5
38D
330
2FE
100
AcDbDictionary
280
     1
281
     1
  3
ACAD_XREC_ROUNDTRIP
360
38E
  0
DICTIONARY
  5
38F
330
2FF
100
AcDbDictionary
280
     1
281
     1
  3
ACAD_XREC_ROUNDTRIP
360
390
  0
DICTIONARY
  5
397
330
303
100
AcDbDictionary
280
     1
281
     1
  3
ACAD_XREC_ROUNDTRIP
360
398
  0
DICTIONARY
  5
3B3
330
311
100
AcDbDictionary
280
     1
281
     1
  3
ACAD_XREC_ROUNDTRIP
360
3B4
  0
DICTIONARY
  5
3A3
330
309
100
AcDbDictionary
280
     1
281
     1
  3
ACAD_XREC_ROUNDTRIP
360
3A4
  0
DICTIONARY
  5
3B5
330
312
100
AcDbDictionary
280
     1
281
     1
  3
ACAD_XREC_ROUNDTRIP
360
3B6
  0
DICTIONARY
  5
39B
330
305
100
AcDbDictionary
280
     1
281
     1
  3
ACAD_XREC_ROUNDTRIP
360
39C
  0
DICTIONARY
  5
3B1
330
310
100
AcDbDictionary
280
     1
281
     1
  3
ACAD_XREC_ROUNDTRIP
360
3B2
  0
DICTIONARY
  5
3AF
330
30F
100
AcDbDictionary
280
     1
281
     1
  3
ACAD_XREC_ROUNDTRIP
360
3B0
  0
DICTIONARY
  5
3A9
330
30C
100
AcDbDictionary
280
     1
281
     1
  3
ACAD_XREC_ROUNDTRIP
360
3AA
  0
DICTIONARY
  5
3AB
330
30D
100
AcDbDictionary
280
     1
281
     1
  3
ACAD_XREC_ROUNDTRIP
360
3AC
  0
DICTIONARY
  5
3A1
330
308
100
AcDbDictionary
280
     1
281
     1
  3
ACAD_XREC_ROUNDTRIP
360
3A2
  0
DICTIONARY
  5
395
330
302
100
AcDbDictionary
280
     1
281
     1
  3
ACAD_XREC_ROUNDTRIP
360
396
  0
DICTIONARY
  5
3AD
330
30E
100
AcDbDictionary
280
     1
281
     1
  3
ACAD_XREC_ROUNDTRIP
360
3AE
  0
XRECORD
  5
3BE
102
{ACAD_REACTORS
330
3BD
102
}
330
3BD
100
AcDbXrecord
280
     1
102
DISPLAYNAME
  1
Imperial24
102
FLAGS
 90
        0
  0
XRECORD
  5
3C2
102
{ACAD_REACTORS
330
3C1
102
}
330
3C1
100
AcDbXrecord
280
     1
102
SHADEPLOT
 70
     0
102
SHADEPLOTRESLEVEL
 70
     2
102
SHADEPLOTCUSTOMDPI
 70
   300
  0
XRECORD
  5
3C0
102
{ACAD_REACTORS
330
3BF
102
}
330
3BF
100
AcDbXrecord
280
     1
102
SHADEPLOT
 70
     0
102
SHADEPLOTRESLEVEL
 70
     2
102
SHADEPLOTCUSTOMDPI
 70
   300
  0
XRECORD
  5
387
102
{ACAD_REACTORS
330
2EC
102
}
330
2EC
100
AcDbXrecord
280
     1
102
MATERIAL
148
0.0
149
0.0
149
0.0
 93
        0
 94
      127
282
     0
 72
     0
 77
     0
171
     0
175
     0
179
     0
273
     0
  0
XRECORD
  5
2EE
102
{ACAD_REACTORS
330
2EC
102
}
330
2EC
100
AcDbXrecord
280
     1
270
     1
271
     1
  0
XRECORD
  5
2ED
102
{ACAD_REACTORS
330
2EC
102
}
330
2EC
100
AcDbXrecord
280
     1
270
     1
271
     1
  0
XRECORD
  5
2F1
102
{ACAD_REACTORS
330
2EC
102
}
330
2EC
100
AcDbXrecord
280
     1
270
     1
271
     1
  0
XRECORD
  5
2F0
102
{ACAD_REACTORS
330
2EC
102
}
330
2EC
100
AcDbXrecord
280
     1
270
     1
271
     1
  0
XRECORD
  5
2F2
102
{ACAD_REACTORS
330
2EC
102
}
330
2EC
100
AcDbXrecord
280
     1
270
     1
271
     1
  0
XRECORD
  5
2EF
102
{ACAD_REACTORS
330
2EC
102
}
330
2EC
100
AcDbXrecord
280
     1
270
     1
271
     1
  0
XRECORD
  5
386
102
{ACAD_REACTORS
330
2E4
102
}
330
2E4
100
AcDbXrecord
280
     1
102
MATERIAL
148
0.0
149
0.0
149
0.0
 93
        0
 94
      127
282
     0
 72
     0
 77
     0
171
     0
175
     0
179
     0
273
     0
  0
XRECORD
  5
2E6
102
{ACAD_REACTORS
330
2E4
102
}
330
2E4
100
AcDbXrecord
280
     1
270
     1
271
     1
  0
XRECORD
  5
2E5
102
{ACAD_REACTORS
330
2E4
102
}
330
2E4
100
AcDbXrecord
280
     1
270
     1
271
     1
  0
XRECORD
  5
2E9
102
{ACAD_REACTORS
330
2E4
102
}
330
2E4
100
AcDbXrecord
280
     1
270
     1
271
     1
  0
XRECORD
  5
2E8
102
{ACAD_REACTORS
330
2E4
102
}
330
2E4
100
AcDbXrecord
280
     1
270
     1
271
     1
  0
XRECORD
  5
2EA
102
{ACAD_REACTORS
330
2E4
102
}
330
2E4
100
AcDbXrecord
280
     1
270
     1
271
     1
  0
XRECORD
  5
2E7
102
{ACAD_REACTORS
330
2E4
102
}
330
2E4
100
AcDbXrecord
280
     1
270
     1
271
     1
  0
XRECORD
  5
388
102
{ACAD_REACTORS
330
2F4
102
}
330
2F4
100
AcDbXrecord
280
     1
102
MATERIAL
148
0.0
149
0.0
149
0.0
 93
        0
 94
      127
282
     0
 72
     0
 77
     0
171
     0
175
     0
179
     0
273
     0
  0
XRECORD
  5
2F6
102
{ACAD_REACTORS
330
2F4
102
}
330
2F4
100
AcDbXrecord
280
     1
270
     1
271
     1
  0
XRECORD
  5
2F5
102
{ACAD_REACTORS
330
2F4
102
}
330
2F4
100
AcDbXrecord
280
     1
270
     1
271
     1
  0
XRECORD
  5
2F9
102
{ACAD_REACTORS
330
2F4
102
}
330
2F4
100
AcDbXrecord
280
     1
270
     1
271
     1
  0
XRECORD
  5
2F8
102
{ACAD_REACTORS
330
2F4
102
}
330
2F4
100
AcDbXrecord
280
     1
270
     1
271
     1
  0
XRECORD
  5
2FA
102
{ACAD_REACTORS
330
2F4
102
}
330
2F4
100
AcDbXrecord
280
     1
270
     1
271
     1
  0
XRECORD
  5
2F7
102
{ACAD_REACTORS
330
2F4
102
}
330
2F4
100
AcDbXrecord
280
     1
270
     1
271
     1
  0
XRECORD
  5
3BC
102
{ACAD_REACTORS
330
3BB
102
}
330
3BB
100
AcDbXrecord
280
     1
102
DISPLAYNAME
  1
Imperial24
102
FLAGS
 90
        0
  0
CELLSTYLEMAP
  5
383
102
{ACAD_REACTORS
330
382
102
}
330
382
100
AcDbCellStyleMap
 90
        3
300
CELLSTYLE
  1
TABLEFORMAT_BEGIN
 90
        5
170
     1
 91
        0
 92
    32768
 62
   257
 93
        1
300
CONTENTFORMAT
  1
CONTENTFORMAT_BEGIN
 90
        0
 91
        0
 92
      512
 93
        0
300

 40
0.0
140
1.0
 94
        5
 62
     0
340
327
144
0.25
309
CONTENTFORMAT_END
171
     0
 94
        0
309
TABLEFORMAT_END
  1
CELLSTYLE_BEGIN
 90
        1
 91
        1
300
_TITLE
309
CELLSTYLE_END
300
CELLSTYLE
  1
TABLEFORMAT_BEGIN
 90
        5
170
     1
 91
        0
 92
        0
 62
   257
 93
        1
300
CONTENTFORMAT
  1
CONTENTFORMAT_BEGIN
 90
        0
 91
        0
 92
      512
 93
        0
300

 40
0.0
140
1.0
 94
        5
 62
     0
340
327
144
0.18
309
CONTENTFORMAT_END
171
     0
 94
        0
309
TABLEFORMAT_END
  1
CELLSTYLE_BEGIN
 90
        2
 91
        1
300
_HEADER
309
CELLSTYLE_END
300
CELLSTYLE
  1
TABLEFORMAT_BEGIN
 90
        5
170
     1
 91
        0
 92
        0
 62
   257
 93
        1
300
CONTENTFORMAT
  1
CONTENTFORMAT_BEGIN
 90
        0
 91
        0
 92
      512
 93
        0
300

 40
0.0
140
1.0
 94
        2
 62
     0
340
327
144
0.18
309
CONTENTFORMAT_END
171
     0
 94
        0
309
TABLEFORMAT_END
  1
CELLSTYLE_BEGIN
 90
        3
 91
        2
300
_DATA
309
CELLSTYLE_END
  0
XRECORD
  5
3B9
102
{ACAD_REACTORS
330
382
102
}
330
382
100
AcDbXrecord
280
     1
102
ACAD_ROUNDTRIP_PRE2007_TABLESTYLE
 90
      512
 91
        0
  1

 92
      512
 93
        0
  2

 94
      512
 95
        0
  3

  0
XRECORD
  5
394
102
{ACAD_REACTORS
330
393
102
}
330
393
100
AcDbXrecord
280
     1
102
RTVSPost2010Prop28
280
     1
102
RTVSPost2010PropOp28
 70
     1
102
RTVSPost2010Prop29
280
     1
102
RTVSPost2010PropOp29
 70
     1
102
RTVSPost2010Prop30
280
     0
102
RTVSPost2010PropOp30
 70
     1
102
RTVSPost2010Prop31
280
     0
102
RTVSPost2010PropOp31
 70
     1
102
RTVSPost2010Prop32
280
     0
102
RTVSPost2010PropOp32
 70
     1
102
RTVSPost2010Prop33
280
     0
102
RTVSPost2010PropOp33
 70
     1
102
RTVSPost2010Prop34
280
     0
102
RTVSPost2010PropOp34
 70
     1
102
RTVSPost2010Prop35
280
     0
102
RTVSPost2010PropOp35
 70
     1
102
RTVSPost2010Prop36
280
     0
102
RTVSPost2010PropOp36
 70
     1
102
RTVSPost2010Prop37
 90
       50
102
RTVSPost2010PropOp37
 70
     1
102
RTVSPost2010Prop38
140
0.0
102
RTVSPost2010PropOp38
 70
     1
102
RTVSPost2010Prop39
140
1.0
102
RTVSPost2010PropOp39
 70
     1
102
RTVSPost2010Prop40
 90
        0
102
RTVSPost2010PropOp40
 70
     1
102
RTVSPost2010Prop41ColorIndex
 90
       18
102
RTVSPost2010Prop41ColorRGB
 90
        0
102
RTVSPost2010PropOp41
 70
     1
102
RTVSPost2010Prop42
 90
       50
102
RTVSPost2010PropOp42
 70
     1
102
RTVSPost2010Prop43
 90
        3
102
RTVSPost2010PropOp43
 70
     1
102
RTVSPost2010Prop44ColorIndex
 90
        5
102
RTVSPost2010Prop44ColorRGB
 90
      255
102
RTVSPost2010PropOp44
 70
     1
102
RTVSPost2010Prop45
280
     0
102
RTVSPost2010PropOp45
 70
     1
102
RTVSPost2010Prop46
 90
       50
102
RTVSPost2010PropOp46
 70
     1
102
RTVSPost2010Prop47
 90
       50
102
RTVSPost2010PropOp47
 70
     1
102
RTVSPost2010Prop48
 90
       50
102
RTVSPost2010PropOp48
 70
     1
102
RTVSPost2010Prop49
280
     0
102
RTVSPost2010PropOp49
 70
     1
102
RTVSPost2010Prop50
 90
       50
102
RTVSPost2010PropOp50
 70
     1
102
RTVSPost2010Prop51ColorIndex
 90
      256
102
RTVSPost2010Prop51ColorRGB
 90
-16777216
102
RTVSPost2010PropOp51
 70
     0
102
RTVSPost2010Prop52
140
1.0
102
RTVSPost2010PropOp52
 70
     0
102
RTVSPost2010Prop53
 90
        2
102
RTVSPost2010PropOp53
 70
     1
102
RTVSPost2010Prop54
  1
strokes_ogs.tif
102
RTVSPost2010PropOp54
 70
     1
102
RTVSPost2010Prop55
280
     0
102
RTVSPost2010PropOp55
 70
     1
102
RTVSPost2010Prop56
140
1.0
102
RTVSPost2010PropOp56
 70
     1
102
RTVSPost2010Prop57
140
1.0
102
RTVSPost2010PropOp57
 70
     1
102
RTVSPropertyOp0
 70
     1
102
RTVSPropertyOp1
 70
     1
102
RTVSPropertyOp2
 70
     1
102
RTVSPropertyOp3
 70
     1
102
RTVSPropertyOp4
 70
     1
102
RTVSPropertyOp5
 70
     1
102
RTVSPropertyOp6
 70
     1
102
RTVSPropertyOp7
 70
     1
102
RTVSPropertyOp8
 70
     1
102
RTVSPropertyOp9
 70
     1
102
RTVSPropertyOp10
 70
     1
102
RTVSPropertyOp11
 70
     1
102
RTVSPropertyOp12
 70
     1
102
RTVSPropertyOp13
 70
     1
102
RTVSPropertyOp14
 70
     1
102
RTVSPropertyOp15
 70
     1
102
RTVSPropertyOp16
 70
     1
102
RTVSPropertyOp17
 70
     1
102
RTVSPropertyOp18
 70
     1
102
RTVSPropertyOp19
 70
     1
102
RTVSPropertyOp20
 70
     1
102
RTVSPropertyOp21
 70
     1
102
RTVSPropertyOp22
 70
     1
102
RTVSPropertyOp23
 70
     1
102
RTVSPropertyOp24
 70
     1
102
RTVSPropertyOp25
 70
     1
102
RTVSPropertyOp26
 70
     1
102
RTVSPropertyOp27
 70
     1
102
RTVSPropertyOp28
 70
     1
102
RTVSPropertyOp29
 70
     1
102
RTVSPropertyOp30
 70
     1
102
RTVSPropertyOp31
 70
     1
102
RTVSPropertyOp32
 70
     1
102
RTVSPropertyOp33
 70
     1
102
RTVSPropertyOp34
 70
     1
102
RTVSPropertyOp35
 70
     1
102
RTVSPropertyOp36
 70
     1
102
RTVSPropertyOp37
 70
     1
102
RTVSPropertyOp38
 70
     1
102
RTVSPropertyOp39
 70
     1
102
RTVSPropertyOp40
 70
     1
102
RTVSPropertyOp41
 70
     1
102
RTVSPropertyOp42
 70
     1
102
RTVSPropertyOp43
 70
     1
102
RTVSPropertyOp44
 70
     1
102
RTVSPropertyOp45
 70
     1
102
RTVSPropertyOp46
 70
     1
102
RTVSPropertyOp47
 70
     1
102
RTVSPropertyOp48
 70
     1
102
RTVSPropertyOp49
 70
     1
102
RTVSPropertyOp50
 70
     1
102
RTVSPropertyOp51
 70
     0
102
RTVSPropertyOp52
 70
     0
102
RTVSPropertyOp53
 70
     1
102
RTVSPropertyOp54
 70
     1
102
RTVSPropertyOp55
 70
     1
102
RTVSPropertyOp56
 70
     1
102
RTVSPropertyOp57
 70
     1
102
RTVSPropertyOp58
 70
     1
102
RTVSPropertyOp59
 70
     1
102
RTVSPropertyOp60
 70
     1
102
RTVSPropertyOp61
 70
     1
102
RTVSPropertyOp62
 70
     1
  0
XRECORD
  5
392
102
{ACAD_REACTORS
330
391
102
}
330
391
100
AcDbXrecord
280
     1
102
RTVSPost2010Prop28
280
     0
102
RTVSPost2010PropOp28
 70
     1
102
RTVSPost2010Prop29
280
     1
102
RTVSPost2010PropOp29
 70
     1
102
RTVSPost2010Prop30
280
     1
102
RTVSPost2010PropOp30
 70
     1
102
RTVSPost2010Prop31
280
     0
102
RTVSPost2010PropOp31
 70
     1
102
RTVSPost2010Prop32
280
     0
102
RTVSPost2010PropOp32
 70
     1
102
RTVSPost2010Prop33
280
     0
102
RTVSPost2010PropOp33
 70
     1
102
RTVSPost2010Prop34
280
     0
102
RTVSPost2010PropOp34
 70
     1
102
RTVSPost2010Prop35
280
     0
102
RTVSPost2010PropOp35
 70
     1
102
RTVSPost2010Prop36
280
     0
102
RTVSPost2010PropOp36
 70
     1
102
RTVSPost2010Prop37
 90
       50
102
RTVSPost2010PropOp37
 70
     1
102
RTVSPost2010Prop38
140
0.0
102
RTVSPost2010PropOp38
 70
     1
102
RTVSPost2010Prop39
140
1.0
102
RTVSPost2010PropOp39
 70
     1
102
RTVSPost2010Prop40
 90
        0
102
RTVSPost2010PropOp40
 70
     1
102
RTVSPost2010Prop41ColorIndex
 90
       18
102
RTVSPost2010Prop41ColorRGB
 90
        0
102
RTVSPost2010PropOp41
 70
     1
102
RTVSPost2010Prop42
 90
       50
102
RTVSPost2010PropOp42
 70
     1
102
RTVSPost2010Prop43
 90
        3
102
RTVSPost2010PropOp43
 70
     1
102
RTVSPost2010Prop44ColorIndex
 90
        5
102
RTVSPost2010Prop44ColorRGB
 90
      255
102
RTVSPost2010PropOp44
 70
     1
102
RTVSPost2010Prop45
280
     0
102
RTVSPost2010PropOp45
 70
     1
102
RTVSPost2010Prop46
 90
       50
102
RTVSPost2010PropOp46
 70
     1
102
RTVSPost2010Prop47
 90
       50
102
RTVSPost2010PropOp47
 70
     1
102
RTVSPost2010Prop48
 90
       50
102
RTVSPost2010PropOp48
 70
     1
102
RTVSPost2010Prop49
280
     0
102
RTVSPost2010PropOp49
 70
     1
102
RTVSPost2010Prop50
 90
       50
102
RTVSPost2010PropOp50
 70
     1
102
RTVSPost2010Prop51ColorIndex
 90
      256
102
RTVSPost2010Prop51ColorRGB
 90
-16777216
102
RTVSPost2010PropOp51
 70
     0
102
RTVSPost2010Prop52
140
1.0
102
RTVSPost2010PropOp52
 70
     0
102
RTVSPost2010Prop53
 90
        2
102
RTVSPost2010PropOp53
 70
     1
102
RTVSPost2010Prop54
  1
strokes_ogs.tif
102
RTVSPost2010PropOp54
 70
     1
102
RTVSPost2010Prop55
280
     0
102
RTVSPost2010PropOp55
 70
     1
102
RTVSPost2010Prop56
140
1.0
102
RTVSPost2010PropOp56
 70
     1
102
RTVSPost2010Prop57
140
1.0
102
RTVSPost2010PropOp57
 70
     1
102
RTVSPropertyOp0
 70
     1
102
RTVSPropertyOp1
 70
     1
102
RTVSPropertyOp2
 70
     1
102
RTVSPropertyOp3
 70
     1
102
RTVSPropertyOp4
 70
     1
102
RTVSPropertyOp5
 70
     1
102
RTVSPropertyOp6
 70
     1
102
RTVSPropertyOp7
 70
     1
102
RTVSPropertyOp8
 70
     1
102
RTVSPropertyOp9
 70
     1
102
RTVSPropertyOp10
 70
     1
102
RTVSPropertyOp11
 70
     1
102
RTVSPropertyOp12
 70
     1
102
RTVSPropertyOp13
 70
     1
102
RTVSPropertyOp14
 70
     1
102
RTVSPropertyOp15
 70
     1
102
RTVSPropertyOp16
 70
     1
102
RTVSPropertyOp17
 70
     1
102
RTVSPropertyOp18
 70
     1
102
RTVSPropertyOp19
 70
     1
102
RTVSPropertyOp20
 70
     1
102
RTVSPropertyOp21
 70
     1
102
RTVSPropertyOp22
 70
     1
102
RTVSPropertyOp23
 70
     1
102
RTVSPropertyOp24
 70
     1
102
RTVSPropertyOp25
 70
     1
102
RTVSPropertyOp26
 70
     1
102
RTVSPropertyOp27
 70
     1
102
RTVSPropertyOp28
 70
     1
102
RTVSPropertyOp29
 70
     1
102
RTVSPropertyOp30
 70
     1
102
RTVSPropertyOp31
 70
     1
102
RTVSPropertyOp32
 70
     1
102
RTVSPropertyOp33
 70
     1
102
RTVSPropertyOp34
 70
     1
102
RTVSPropertyOp35
 70
     1
102
RTVSPropertyOp36
 70
     1
102
RTVSPropertyOp37
 70
     1
102
RTVSPropertyOp38
 70
     1
102
RTVSPropertyOp39
 70
     1
102
RTVSPropertyOp40
 70
     1
102
RTVSPropertyOp41
 70
     1
102
RTVSPropertyOp42
 70
     1
102
RTVSPropertyOp43
 70
     1
102
RTVSPropertyOp44
 70
     1
102
RTVSPropertyOp45
 70
     1
102
RTVSPropertyOp46
 70
     1
102
RTVSPropertyOp47
 70
     1
102
RTVSPropertyOp48
 70
     1
102
RTVSPropertyOp49
 70
     1
102
RTVSPropertyOp50
 70
     1
102
RTVSPropertyOp51
 70
     0
102
RTVSPropertyOp52
 70
     0
102
RTVSPropertyOp53
 70
     1
102
RTVSPropertyOp54
 70
     1
102
RTVSPropertyOp55
 70
     1
102
RTVSPropertyOp56
 70
     1
102
RTVSPropertyOp57
 70
     1
102
RTVSPropertyOp58
 70
     1
102
RTVSPropertyOp59
 70
     1
102
RTVSPropertyOp60
 70
     1
102
RTVSPropertyOp61
 70
     1
102
RTVSPropertyOp62
 70
     1
  0
XRECORD
  5
3A0
102
{ACAD_REACTORS
330
39F
102
}
330
39F
100
AcDbXrecord
280
     1
102
RTVSPost2010Prop28
280
     0
102
RTVSPost2010PropOp28
 70
     1
102
RTVSPost2010Prop29
280
     1
102
RTVSPost2010PropOp29
 70
     1
102
RTVSPost2010Prop30
280
     1
102
RTVSPost2010PropOp30
 70
     1
102
RTVSPost2010Prop31
280
     0
102
RTVSPost2010PropOp31
 70
     1
102
RTVSPost2010Prop32
280
     0
102
RTVSPost2010PropOp32
 70
     1
102
RTVSPost2010Prop33
280
     0
102
RTVSPost2010PropOp33
 70
     1
102
RTVSPost2010Prop34
280
     0
102
RTVSPost2010PropOp34
 70
     1
102
RTVSPost2010Prop35
280
     0
102
RTVSPost2010PropOp35
 70
     1
102
RTVSPost2010Prop36
280
     0
102
RTVSPost2010PropOp36
 70
     1
102
RTVSPost2010Prop37
 90
       50
102
RTVSPost2010PropOp37
 70
     1
102
RTVSPost2010Prop38
140
0.0
102
RTVSPost2010PropOp38
 70
     1
102
RTVSPost2010Prop39
140
1.0
102
RTVSPost2010PropOp39
 70
     1
102
RTVSPost2010Prop40
 90
        0
102
RTVSPost2010PropOp40
 70
     1
102
RTVSPost2010Prop41ColorIndex
 90
       18
102
RTVSPost2010Prop41ColorRGB
 90
        0
102
RTVSPost2010PropOp41
 70
     1
102
RTVSPost2010Prop42
 90
       50
102
RTVSPost2010PropOp42
 70
     1
102
RTVSPost2010Prop43
 90
        3
102
RTVSPost2010PropOp43
 70
     1
102
RTVSPost2010Prop44ColorIndex
 90
        5
102
RTVSPost2010Prop44ColorRGB
 90
      255
102
RTVSPost2010PropOp44
 70
     1
102
RTVSPost2010Prop45
280
     0
102
RTVSPost2010PropOp45
 70
     1
102
RTVSPost2010Prop46
 90
       50
102
RTVSPost2010PropOp46
 70
     1
102
RTVSPost2010Prop47
 90
       50
102
RTVSPost2010PropOp47
 70
     1
102
RTVSPost2010Prop48
 90
       50
102
RTVSPost2010PropOp48
 70
     1
102
RTVSPost2010Prop49
280
     0
102
RTVSPost2010PropOp49
 70
     1
102
RTVSPost2010Prop50
 90
       50
102
RTVSPost2010PropOp50
 70
     1
102
RTVSPost2010Prop51ColorIndex
 90
      256
102
RTVSPost2010Prop51ColorRGB
 90
-16777216
102
RTVSPost2010PropOp51
 70
     0
102
RTVSPost2010Prop52
140
1.0
102
RTVSPost2010PropOp52
 70
     0
102
RTVSPost2010Prop53
 90
        2
102
RTVSPost2010PropOp53
 70
     1
102
RTVSPost2010Prop54
  1
strokes_ogs.tif
102
RTVSPost2010PropOp54
 70
     1
102
RTVSPost2010Prop55
280
     0
102
RTVSPost2010PropOp55
 70
     1
102
RTVSPost2010Prop56
140
1.0
102
RTVSPost2010PropOp56
 70
     1
102
RTVSPost2010Prop57
140
1.0
102
RTVSPost2010PropOp57
 70
     1
102
RTVSPropertyOp0
 70
     1
102
RTVSPropertyOp1
 70
     1
102
RTVSPropertyOp2
 70
     1
102
RTVSPropertyOp3
 70
     1
102
RTVSPropertyOp4
 70
     1
102
RTVSPropertyOp5
 70
     1
102
RTVSPropertyOp6
 70
     1
102
RTVSPropertyOp7
 70
     1
102
RTVSPropertyOp8
 70
     1
102
RTVSPropertyOp9
 70
     1
102
RTVSPropertyOp10
 70
     1
102
RTVSPropertyOp11
 70
     1
102
RTVSPropertyOp12
 70
     1
102
RTVSPropertyOp13
 70
     1
102
RTVSPropertyOp14
 70
     1
102
RTVSPropertyOp15
 70
     1
102
RTVSPropertyOp16
 70
     1
102
RTVSPropertyOp17
 70
     1
102
RTVSPropertyOp18
 70
     1
102
RTVSPropertyOp19
 70
     1
102
RTVSPropertyOp20
 70
     1
102
RTVSPropertyOp21
 70
     1
102
RTVSPropertyOp22
 70
     1
102
RTVSPropertyOp23
 70
     1
102
RTVSPropertyOp24
 70
     1
102
RTVSPropertyOp25
 70
     1
102
RTVSPropertyOp26
 70
     1
102
RTVSPropertyOp27
 70
     1
102
RTVSPropertyOp28
 70
     1
102
RTVSPropertyOp29
 70
     1
102
RTVSPropertyOp30
 70
     1
102
RTVSPropertyOp31
 70
     1
102
RTVSPropertyOp32
 70
     1
102
RTVSPropertyOp33
 70
     1
102
RTVSPropertyOp34
 70
     1
102
RTVSPropertyOp35
 70
     1
102
RTVSPropertyOp36
 70
     1
102
RTVSPropertyOp37
 70
     1
102
RTVSPropertyOp38
 70
     1
102
RTVSPropertyOp39
 70
     1
102
RTVSPropertyOp40
 70
     1
102
RTVSPropertyOp41
 70
     1
102
RTVSPropertyOp42
 70
     1
102
RTVSPropertyOp43
 70
     1
102
RTVSPropertyOp44
 70
     1
102
RTVSPropertyOp45
 70
     1
102
RTVSPropertyOp46
 70
     1
102
RTVSPropertyOp47
 70
     1
102
RTVSPropertyOp48
 70
     1
102
RTVSPropertyOp49
 70
     1
102
RTVSPropertyOp50
 70
     1
102
RTVSPropertyOp51
 70
     0
102
RTVSPropertyOp52
 70
     0
102
RTVSPropertyOp53
 70
     1
102
RTVSPropertyOp54
 70
     1
102
RTVSPropertyOp55
 70
     1
102
RTVSPropertyOp56
 70
     1
102
RTVSPropertyOp57
 70
     1
102
RTVSPropertyOp58
 70
     1
102
RTVSPropertyOp59
 70
     1
102
RTVSPropertyOp60
 70
     1
102
RTVSPropertyOp61
 70
     1
102
RTVSPropertyOp62
 70
     1
  0
XRECORD
  5
3A8
102
{ACAD_REACTORS
330
3A7
102
}
330
3A7
100
AcDbXrecord
280
     1
102
RTVSPost2010Prop28
280
     0
102
RTVSPost2010PropOp28
 70
     1
102
RTVSPost2010Prop29
280
     1
102
RTVSPost2010PropOp29
 70
     1
102
RTVSPost2010Prop30
280
     1
102
RTVSPost2010PropOp30
 70
     1
102
RTVSPost2010Prop31
280
     0
102
RTVSPost2010PropOp31
 70
     1
102
RTVSPost2010Prop32
280
     0
102
RTVSPost2010PropOp32
 70
     1
102
RTVSPost2010Prop33
280
     0
102
RTVSPost2010PropOp33
 70
     1
102
RTVSPost2010Prop34
280
     0
102
RTVSPost2010PropOp34
 70
     1
102
RTVSPost2010Prop35
280
     0
102
RTVSPost2010PropOp35
 70
     1
102
RTVSPost2010Prop36
280
     0
102
RTVSPost2010PropOp36
 70
     1
102
RTVSPost2010Prop37
 90
       50
102
RTVSPost2010PropOp37
 70
     1
102
RTVSPost2010Prop38
140
0.0
102
RTVSPost2010PropOp38
 70
     1
102
RTVSPost2010Prop39
140
1.0
102
RTVSPost2010PropOp39
 70
     1
102
RTVSPost2010Prop40
 90
        0
102
RTVSPost2010PropOp40
 70
     1
102
RTVSPost2010Prop41ColorIndex
 90
       18
102
RTVSPost2010Prop41ColorRGB
 90
        0
102
RTVSPost2010PropOp41
 70
     1
102
RTVSPost2010Prop42
 90
       50
102
RTVSPost2010PropOp42
 70
     1
102
RTVSPost2010Prop43
 90
        3
102
RTVSPost2010PropOp43
 70
     1
102
RTVSPost2010Prop44ColorIndex
 90
        5
102
RTVSPost2010Prop44ColorRGB
 90
      255
102
RTVSPost2010PropOp44
 70
     1
102
RTVSPost2010Prop45
280
     0
102
RTVSPost2010PropOp45
 70
     1
102
RTVSPost2010Prop46
 90
       50
102
RTVSPost2010PropOp46
 70
     1
102
RTVSPost2010Prop47
 90
       50
102
RTVSPost2010PropOp47
 70
     1
102
RTVSPost2010Prop48
 90
       50
102
RTVSPost2010PropOp48
 70
     1
102
RTVSPost2010Prop49
280
     0
102
RTVSPost2010PropOp49
 70
     1
102
RTVSPost2010Prop50
 90
       50
102
RTVSPost2010PropOp50
 70
     1
102
RTVSPost2010Prop51ColorIndex
 90
      256
102
RTVSPost2010Prop51ColorRGB
 90
-16777216
102
RTVSPost2010PropOp51
 70
     0
102
RTVSPost2010Prop52
140
1.0
102
RTVSPost2010PropOp52
 70
     0
102
RTVSPost2010Prop53
 90
        2
102
RTVSPost2010PropOp53
 70
     1
102
RTVSPost2010Prop54
  1
strokes_ogs.tif
102
RTVSPost2010PropOp54
 70
     1
102
RTVSPost2010Prop55
280
     0
102
RTVSPost2010PropOp55
 70
     1
102
RTVSPost2010Prop56
140
1.0
102
RTVSPost2010PropOp56
 70
     1
102
RTVSPost2010Prop57
140
1.0
102
RTVSPost2010PropOp57
 70
     1
102
RTVSPropertyOp0
 70
     1
102
RTVSPropertyOp1
 70
     1
102
RTVSPropertyOp2
 70
     1
102
RTVSPropertyOp3
 70
     1
102
RTVSPropertyOp4
 70
     1
102
RTVSPropertyOp5
 70
     1
102
RTVSPropertyOp6
 70
     1
102
RTVSPropertyOp7
 70
     1
102
RTVSPropertyOp8
 70
     1
102
RTVSPropertyOp9
 70
     1
102
RTVSPropertyOp10
 70
     1
102
RTVSPropertyOp11
 70
     1
102
RTVSPropertyOp12
 70
     1
102
RTVSPropertyOp13
 70
     1
102
RTVSPropertyOp14
 70
     1
102
RTVSPropertyOp15
 70
     1
102
RTVSPropertyOp16
 70
     1
102
RTVSPropertyOp17
 70
     1
102
RTVSPropertyOp18
 70
     1
102
RTVSPropertyOp19
 70
     1
102
RTVSPropertyOp20
 70
     1
102
RTVSPropertyOp21
 70
     1
102
RTVSPropertyOp22
 70
     1
102
RTVSPropertyOp23
 70
     1
102
RTVSPropertyOp24
 70
     1
102
RTVSPropertyOp25
 70
     1
102
RTVSPropertyOp26
 70
     1
102
RTVSPropertyOp27
 70
     1
102
RTVSPropertyOp28
 70
     1
102
RTVSPropertyOp29
 70
     1
102
RTVSPropertyOp30
 70
     1
102
RTVSPropertyOp31
 70
     1
102
RTVSPropertyOp32
 70
     1
102
RTVSPropertyOp33
 70
     1
102
RTVSPropertyOp34
 70
     1
102
RTVSPropertyOp35
 70
     1
102
RTVSPropertyOp36
 70
     1
102
RTVSPropertyOp37
 70
     1
102
RTVSPropertyOp38
 70
     1
102
RTVSPropertyOp39
 70
     1
102
RTVSPropertyOp40
 70
     1
102
RTVSPropertyOp41
 70
     1
102
RTVSPropertyOp42
 70
     1
102
RTVSPropertyOp43
 70
     1
102
RTVSPropertyOp44
 70
     1
102
RTVSPropertyOp45
 70
     1
102
RTVSPropertyOp46
 70
     1
102
RTVSPropertyOp47
 70
     1
102
RTVSPropertyOp48
 70
     1
102
RTVSPropertyOp49
 70
     1
102
RTVSPropertyOp50
 70
     1
102
RTVSPropertyOp51
 70
     0
102
RTVSPropertyOp52
 70
     0
102
RTVSPropertyOp53
 70
     1
102
RTVSPropertyOp54
 70
     1
102
RTVSPropertyOp55
 70
     1
102
RTVSPropertyOp56
 70
     1
102
RTVSPropertyOp57
 70
     1
102
RTVSPropertyOp58
 70
     1
102
RTVSPropertyOp59
 70
     1
102
RTVSPropertyOp60
 70
     1
102
RTVSPropertyOp61
 70
     1
102
RTVSPropertyOp62
 70
     1
  0
XRECORD
  5
39A
102
{ACAD_REACTORS
330
399
102
}
330
399
100
AcDbXrecord
280
     1
102
RTVSPost2010Prop28
280
     0
102
RTVSPost2010PropOp28
 70
     1
102
RTVSPost2010Prop29
280
     1
102
RTVSPost2010PropOp29
 70
     1
102
RTVSPost2010Prop30
280
     1
102
RTVSPost2010PropOp30
 70
     1
102
RTVSPost2010Prop31
280
     0
102
RTVSPost2010PropOp31
 70
     1
102
RTVSPost2010Prop32
280
     0
102
RTVSPost2010PropOp32
 70
     1
102
RTVSPost2010Prop33
280
     0
102
RTVSPost2010PropOp33
 70
     1
102
RTVSPost2010Prop34
280
     0
102
RTVSPost2010PropOp34
 70
     1
102
RTVSPost2010Prop35
280
     0
102
RTVSPost2010PropOp35
 70
     1
102
RTVSPost2010Prop36
280
     0
102
RTVSPost2010PropOp36
 70
     1
102
RTVSPost2010Prop37
 90
       50
102
RTVSPost2010PropOp37
 70
     1
102
RTVSPost2010Prop38
140
0.0
102
RTVSPost2010PropOp38
 70
     1
102
RTVSPost2010Prop39
140
1.0
102
RTVSPost2010PropOp39
 70
     1
102
RTVSPost2010Prop40
 90
        0
102
RTVSPost2010PropOp40
 70
     1
102
RTVSPost2010Prop41ColorIndex
 90
       18
102
RTVSPost2010Prop41ColorRGB
 90
        0
102
RTVSPost2010PropOp41
 70
     1
102
RTVSPost2010Prop42
 90
       50
102
RTVSPost2010PropOp42
 70
     1
102
RTVSPost2010Prop43
 90
        3
102
RTVSPost2010PropOp43
 70
     1
102
RTVSPost2010Prop44ColorIndex
 90
        5
102
RTVSPost2010Prop44ColorRGB
 90
      255
102
RTVSPost2010PropOp44
 70
     1
102
RTVSPost2010Prop45
280
     0
102
RTVSPost2010PropOp45
 70
     1
102
RTVSPost2010Prop46
 90
       50
102
RTVSPost2010PropOp46
 70
     1
102
RTVSPost2010Prop47
 90
       50
102
RTVSPost2010PropOp47
 70
     1
102
RTVSPost2010Prop48
 90
       50
102
RTVSPost2010PropOp48
 70
     1
102
RTVSPost2010Prop49
280
     0
102
RTVSPost2010PropOp49
 70
     1
102
RTVSPost2010Prop50
 90
       50
102
RTVSPost2010PropOp50
 70
     1
102
RTVSPost2010Prop51ColorIndex
 90
      256
102
RTVSPost2010Prop51ColorRGB
 90
-16777216
102
RTVSPost2010PropOp51
 70
     0
102
RTVSPost2010Prop52
140
1.0
102
RTVSPost2010PropOp52
 70
     0
102
RTVSPost2010Prop53
 90
        2
102
RTVSPost2010PropOp53
 70
     1
102
RTVSPost2010Prop54
  1
strokes_ogs.tif
102
RTVSPost2010PropOp54
 70
     1
102
RTVSPost2010Prop55
280
     0
102
RTVSPost2010PropOp55
 70
     1
102
RTVSPost2010Prop56
140
1.0
102
RTVSPost2010PropOp56
 70
     1
102
RTVSPost2010Prop57
140
1.0
102
RTVSPost2010PropOp57
 70
     1
102
RTVSPropertyOp0
 70
     1
102
RTVSPropertyOp1
 70
     1
102
RTVSPropertyOp2
 70
     1
102
RTVSPropertyOp3
 70
     1
102
RTVSPropertyOp4
 70
     1
102
RTVSPropertyOp5
 70
     1
102
RTVSPropertyOp6
 70
     1
102
RTVSPropertyOp7
 70
     1
102
RTVSPropertyOp8
 70
     1
102
RTVSPropertyOp9
 70
     1
102
RTVSPropertyOp10
 70
     1
102
RTVSPropertyOp11
 70
     1
102
RTVSPropertyOp12
 70
     1
102
RTVSPropertyOp13
 70
     1
102
RTVSPropertyOp14
 70
     1
102
RTVSPropertyOp15
 70
     1
102
RTVSPropertyOp16
 70
     1
102
RTVSPropertyOp17
 70
     1
102
RTVSPropertyOp18
 70
     1
102
RTVSPropertyOp19
 70
     1
102
RTVSPropertyOp20
 70
     1
102
RTVSPropertyOp21
 70
     1
102
RTVSPropertyOp22
 70
     1
102
RTVSPropertyOp23
 70
     1
102
RTVSPropertyOp24
 70
     1
102
RTVSPropertyOp25
 70
     1
102
RTVSPropertyOp26
 70
     1
102
RTVSPropertyOp27
 70
     1
102
RTVSPropertyOp28
 70
     1
102
RTVSPropertyOp29
 70
     1
102
RTVSPropertyOp30
 70
     1
102
RTVSPropertyOp31
 70
     1
102
RTVSPropertyOp32
 70
     1
102
RTVSPropertyOp33
 70
     1
102
RTVSPropertyOp34
 70
     1
102
RTVSPropertyOp35
 70
     1
102
RTVSPropertyOp36
 70
     1
102
RTVSPropertyOp37
 70
     1
102
RTVSPropertyOp38
 70
     1
102
RTVSPropertyOp39
 70
     1
102
RTVSPropertyOp40
 70
     1
102
RTVSPropertyOp41
 70
     1
102
RTVSPropertyOp42
 70
     1
102
RTVSPropertyOp43
 70
     1
102
RTVSPropertyOp44
 70
     1
102
RTVSPropertyOp45
 70
     1
102
RTVSPropertyOp46
 70
     1
102
RTVSPropertyOp47
 70
     1
102
RTVSPropertyOp48
 70
     1
102
RTVSPropertyOp49
 70
     1
102
RTVSPropertyOp50
 70
     1
102
RTVSPropertyOp51
 70
     0
102
RTVSPropertyOp52
 70
     0
102
RTVSPropertyOp53
 70
     1
102
RTVSPropertyOp54
 70
     1
102
RTVSPropertyOp55
 70
     1
102
RTVSPropertyOp56
 70
     1
102
RTVSPropertyOp57
 70
     1
102
RTVSPropertyOp58
 70
     1
102
RTVSPropertyOp59
 70
     1
102
RTVSPropertyOp60
 70
     1
102
RTVSPropertyOp61
 70
     1
102
RTVSPropertyOp62
 70
     1
  0
XRECORD
  5
39E
102
{ACAD_REACTORS
330
39D
102
}
330
39D
100
AcDbXrecord
280
     1
102
RTVSPost2010Prop28
280
     0
102
RTVSPost2010PropOp28
 70
     1
102
RTVSPost2010Prop29
280
     1
102
RTVSPost2010PropOp29
 70
     1
102
RTVSPost2010Prop30
280
     1
102
RTVSPost2010PropOp30
 70
     1
102
RTVSPost2010Prop31
280
     0
102
RTVSPost2010PropOp31
 70
     1
102
RTVSPost2010Prop32
280
     0
102
RTVSPost2010PropOp32
 70
     1
102
RTVSPost2010Prop33
280
     0
102
RTVSPost2010PropOp33
 70
     1
102
RTVSPost2010Prop34
280
     0
102
RTVSPost2010PropOp34
 70
     1
102
RTVSPost2010Prop35
280
     0
102
RTVSPost2010PropOp35
 70
     1
102
RTVSPost2010Prop36
280
     0
102
RTVSPost2010PropOp36
 70
     1
102
RTVSPost2010Prop37
 90
       50
102
RTVSPost2010PropOp37
 70
     1
102
RTVSPost2010Prop38
140
0.0
102
RTVSPost2010PropOp38
 70
     1
102
RTVSPost2010Prop39
140
1.0
102
RTVSPost2010PropOp39
 70
     1
102
RTVSPost2010Prop40
 90
        0
102
RTVSPost2010PropOp40
 70
     1
102
RTVSPost2010Prop41ColorIndex
 90
       18
102
RTVSPost2010Prop41ColorRGB
 90
        0
102
RTVSPost2010PropOp41
 70
     1
102
RTVSPost2010Prop42
 90
       50
102
RTVSPost2010PropOp42
 70
     1
102
RTVSPost2010Prop43
 90
        3
102
RTVSPost2010PropOp43
 70
     1
102
RTVSPost2010Prop44ColorIndex
 90
        5
102
RTVSPost2010Prop44ColorRGB
 90
      255
102
RTVSPost2010PropOp44
 70
     1
102
RTVSPost2010Prop45
280
     0
102
RTVSPost2010PropOp45
 70
     1
102
RTVSPost2010Prop46
 90
       50
102
RTVSPost2010PropOp46
 70
     1
102
RTVSPost2010Prop47
 90
       50
102
RTVSPost2010PropOp47
 70
     1
102
RTVSPost2010Prop48
 90
       50
102
RTVSPost2010PropOp48
 70
     1
102
RTVSPost2010Prop49
280
     0
102
RTVSPost2010PropOp49
 70
     1
102
RTVSPost2010Prop50
 90
       50
102
RTVSPost2010PropOp50
 70
     1
102
RTVSPost2010Prop51ColorIndex
 90
      256
102
RTVSPost2010Prop51ColorRGB
 90
-16777216
102
RTVSPost2010PropOp51
 70
     0
102
RTVSPost2010Prop52
140
1.0
102
RTVSPost2010PropOp52
 70
     0
102
RTVSPost2010Prop53
 90
        2
102
RTVSPost2010PropOp53
 70
     1
102
RTVSPost2010Prop54
  1
strokes_ogs.tif
102
RTVSPost2010PropOp54
 70
     1
102
RTVSPost2010Prop55
280
     0
102
RTVSPost2010PropOp55
 70
     1
102
RTVSPost2010Prop56
140
1.0
102
RTVSPost2010PropOp56
 70
     1
102
RTVSPost2010Prop57
140
1.0
102
RTVSPost2010PropOp57
 70
     1
102
RTVSPropertyOp0
 70
     1
102
RTVSPropertyOp1
 70
     1
102
RTVSPropertyOp2
 70
     1
102
RTVSPropertyOp3
 70
     1
102
RTVSPropertyOp4
 70
     1
102
RTVSPropertyOp5
 70
     1
102
RTVSPropertyOp6
 70
     1
102
RTVSPropertyOp7
 70
     1
102
RTVSPropertyOp8
 70
     1
102
RTVSPropertyOp9
 70
     1
102
RTVSPropertyOp10
 70
     1
102
RTVSPropertyOp11
 70
     1
102
RTVSPropertyOp12
 70
     1
102
RTVSPropertyOp13
 70
     1
102
RTVSPropertyOp14
 70
     1
102
RTVSPropertyOp15
 70
     1
102
RTVSPropertyOp16
 70
     1
102
RTVSPropertyOp17
 70
     1
102
RTVSPropertyOp18
 70
     1
102
RTVSPropertyOp19
 70
     1
102
RTVSPropertyOp20
 70
     1
102
RTVSPropertyOp21
 70
     1
102
RTVSPropertyOp22
 70
     1
102
RTVSPropertyOp23
 70
     1
102
RTVSPropertyOp24
 70
     1
102
RTVSPropertyOp25
 70
     1
102
RTVSPropertyOp26
 70
     1
102
RTVSPropertyOp27
 70
     1
102
RTVSPropertyOp28
 70
     1
102
RTVSPropertyOp29
 70
     1
102
RTVSPropertyOp30
 70
     1
102
RTVSPropertyOp31
 70
     1
102
RTVSPropertyOp32
 70
     1
102
RTVSPropertyOp33
 70
     1
102
RTVSPropertyOp34
 70
     1
102
RTVSPropertyOp35
 70
     1
102
RTVSPropertyOp36
 70
     1
102
RTVSPropertyOp37
 70
     1
102
RTVSPropertyOp38
 70
     1
102
RTVSPropertyOp39
 70
     1
102
RTVSPropertyOp40
 70
     1
102
RTVSPropertyOp41
 70
     1
102
RTVSPropertyOp42
 70
     1
102
RTVSPropertyOp43
 70
     1
102
RTVSPropertyOp44
 70
     1
102
RTVSPropertyOp45
 70
     1
102
RTVSPropertyOp46
 70
     1
102
RTVSPropertyOp47
 70
     1
102
RTVSPropertyOp48
 70
     1
102
RTVSPropertyOp49
 70
     1
102
RTVSPropertyOp50
 70
     1
102
RTVSPropertyOp51
 70
     0
102
RTVSPropertyOp52
 70
     0
102
RTVSPropertyOp53
 70
     1
102
RTVSPropertyOp54
 70
     1
102
RTVSPropertyOp55
 70
     1
102
RTVSPropertyOp56
 70
     1
102
RTVSPropertyOp57
 70
     1
102
RTVSPropertyOp58
 70
     1
102
RTVSPropertyOp59
 70
     1
102
RTVSPropertyOp60
 70
     1
102
RTVSPropertyOp61
 70
     1
102
RTVSPropertyOp62
 70
     1
  0
XRECORD
  5
3B8
102
{ACAD_REACTORS
330
3B7
102
}
330
3B7
100
AcDbXrecord
280
     1
102
RTVSPost2010Prop28
280
     0
102
RTVSPost2010PropOp28
 70
     1
102
RTVSPost2010Prop29
280
     1
102
RTVSPost2010PropOp29
 70
     1
102
RTVSPost2010Prop30
280
     1
102
RTVSPost2010PropOp30
 70
     1
102
RTVSPost2010Prop31
280
     0
102
RTVSPost2010PropOp31
 70
     1
102
RTVSPost2010Prop32
280
     0
102
RTVSPost2010PropOp32
 70
     1
102
RTVSPost2010Prop33
280
     0
102
RTVSPost2010PropOp33
 70
     1
102
RTVSPost2010Prop34
280
     0
102
RTVSPost2010PropOp34
 70
     1
102
RTVSPost2010Prop35
280
     0
102
RTVSPost2010PropOp35
 70
     1
102
RTVSPost2010Prop36
280
     0
102
RTVSPost2010PropOp36
 70
     1
102
RTVSPost2010Prop37
 90
       50
102
RTVSPost2010PropOp37
 70
     0
102
RTVSPost2010Prop38
140
0.0
102
RTVSPost2010PropOp38
 70
     0
102
RTVSPost2010Prop39
140
1.0
102
RTVSPost2010PropOp39
 70
     0
102
RTVSPost2010Prop40
 90
        0
102
RTVSPost2010PropOp40
 70
     0
102
RTVSPost2010Prop41ColorIndex
 90
       18
102
RTVSPost2010Prop41ColorRGB
 90
        0
102
RTVSPost2010PropOp41
 70
     0
102
RTVSPost2010Prop42
 90
       50
102
RTVSPost2010PropOp42
 70
     0
102
RTVSPost2010Prop43
 90
        3
102
RTVSPost2010PropOp43
 70
     0
102
RTVSPost2010Prop44ColorIndex
 90
        5
102
RTVSPost2010Prop44ColorRGB
 90
      255
102
RTVSPost2010PropOp44
 70
     0
102
RTVSPost2010Prop45
280
     0
102
RTVSPost2010PropOp45
 70
     1
102
RTVSPost2010Prop46
 90
       50
102
RTVSPost2010PropOp46
 70
     0
102
RTVSPost2010Prop47
 90
       50
102
RTVSPost2010PropOp47
 70
     0
102
RTVSPost2010Prop48
 90
       50
102
RTVSPost2010PropOp48
 70
     0
102
RTVSPost2010Prop49
280
     0
102
RTVSPost2010PropOp49
 70
     1
102
RTVSPost2010Prop50
 90
       50
102
RTVSPost2010PropOp50
 70
     0
102
RTVSPost2010Prop51ColorIndex
 90
      256
102
RTVSPost2010Prop51ColorRGB
 90
-16777216
102
RTVSPost2010PropOp51
 70
     0
102
RTVSPost2010Prop52
140
1.0
102
RTVSPost2010PropOp52
 70
     0
102
RTVSPost2010Prop53
 90
        2
102
RTVSPost2010PropOp53
 70
     0
102
RTVSPost2010Prop54
  1
strokes_ogs.tif
102
RTVSPost2010PropOp54
 70
     0
102
RTVSPost2010Prop55
280
     0
102
RTVSPost2010PropOp55
 70
     1
102
RTVSPost2010Prop56
140
1.0
102
RTVSPost2010PropOp56
 70
     0
102
RTVSPost2010Prop57
140
1.0
102
RTVSPost2010PropOp57
 70
     0
102
RTVSPropertyOp0
 70
     0
102
RTVSPropertyOp1
 70
     0
102
RTVSPropertyOp2
 70
     0
102
RTVSPropertyOp3
 70
     0
102
RTVSPropertyOp4
 70
     0
102
RTVSPropertyOp5
 70
     0
102
RTVSPropertyOp6
 70
     0
102
RTVSPropertyOp7
 70
     0
102
RTVSPropertyOp8
 70
     0
102
RTVSPropertyOp9
 70
     0
102
RTVSPropertyOp10
 70
     0
102
RTVSPropertyOp11
 70
     0
102
RTVSPropertyOp12
 70
     0
102
RTVSPropertyOp13
 70
     0
102
RTVSPropertyOp14
 70
     2
102
RTVSPropertyOp15
 70
     0
102
RTVSPropertyOp16
 70
     0
102
RTVSPropertyOp17
 70
     0
102
RTVSPropertyOp18
 70
     0
102
RTVSPropertyOp19
 70
     0
102
RTVSPropertyOp20
 70
     0
102
RTVSPropertyOp21
 70
     0
102
RTVSPropertyOp22
 70
     0
102
RTVSPropertyOp23
 70
     0
102
RTVSPropertyOp24
 70
     0
102
RTVSPropertyOp25
 70
     0
102
RTVSPropertyOp26
 70
     0
102
RTVSPropertyOp27
 70
     0
102
RTVSPropertyOp28
 70
     1
102
RTVSPropertyOp29
 70
     1
102
RTVSPropertyOp30
 70
     1
102
RTVSPropertyOp31
 70
     1
102
RTVSPropertyOp32
 70
     1
102
RTVSPropertyOp33
 70
     1
102
RTVSPropertyOp34
 70
     1
102
RTVSPropertyOp35
 70
     1
102
RTVSPropertyOp36
 70
     1
102
RTVSPropertyOp37
 70
     0
102
RTVSPropertyOp38
 70
     0
102
RTVSPropertyOp39
 70
     0
102
RTVSPropertyOp40
 70
     0
102
RTVSPropertyOp41
 70
     0
102
RTVSPropertyOp42
 70
     0
102
RTVSPropertyOp43
 70
     0
102
RTVSPropertyOp44
 70
     0
102
RTVSPropertyOp45
 70
     1
102
RTVSPropertyOp46
 70
     0
102
RTVSPropertyOp47
 70
     0
102
RTVSPropertyOp48
 70
     0
102
RTVSPropertyOp49
 70
     1
102
RTVSPropertyOp50
 70
     0
102
RTVSPropertyOp51
 70
     0
102
RTVSPropertyOp52
 70
     0
102
RTVSPropertyOp53
 70
     0
102
RTVSPropertyOp54
 70
     0
102
RTVSPropertyOp55
 70
     1
102
RTVSPropertyOp56
 70
     0
102
RTVSPropertyOp57
 70
     0
102
RTVSPropertyOp58
 70
     0
102
RTVSPropertyOp59
 70
     0
102
RTVSPropertyOp60
 70
     0
102
RTVSPropertyOp61
 70
     0
102
RTVSPropertyOp62
 70
     0
  0
XRECORD
  5
3A6
102
{ACAD_REACTORS
330
3A5
102
}
330
3A5
100
AcDbXrecord
280
     1
102
RTVSPost2010Prop28
280
     0
102
RTVSPost2010PropOp28
 70
     1
102
RTVSPost2010Prop29
280
     1
102
RTVSPost2010PropOp29
 70
     1
102
RTVSPost2010Prop30
280
     1
102
RTVSPost2010PropOp30
 70
     1
102
RTVSPost2010Prop31
280
     0
102
RTVSPost2010PropOp31
 70
     1
102
RTVSPost2010Prop32
280
     0
102
RTVSPost2010PropOp32
 70
     1
102
RTVSPost2010Prop33
280
     0
102
RTVSPost2010PropOp33
 70
     1
102
RTVSPost2010Prop34
280
     0
102
RTVSPost2010PropOp34
 70
     1
102
RTVSPost2010Prop35
280
     0
102
RTVSPost2010PropOp35
 70
     1
102
RTVSPost2010Prop36
280
     0
102
RTVSPost2010PropOp36
 70
     1
102
RTVSPost2010Prop37
 90
       50
102
RTVSPost2010PropOp37
 70
     1
102
RTVSPost2010Prop38
140
0.0
102
RTVSPost2010PropOp38
 70
     1
102
RTVSPost2010Prop39
140
1.0
102
RTVSPost2010PropOp39
 70
     1
102
RTVSPost2010Prop40
 90
        0
102
RTVSPost2010PropOp40
 70
     1
102
RTVSPost2010Prop41ColorIndex
 90
       18
102
RTVSPost2010Prop41ColorRGB
 90
        0
102
RTVSPost2010PropOp41
 70
     1
102
RTVSPost2010Prop42
 90
       50
102
RTVSPost2010PropOp42
 70
     1
102
RTVSPost2010Prop43
 90
        3
102
RTVSPost2010PropOp43
 70
     1
102
RTVSPost2010Prop44ColorIndex
 90
        5
102
RTVSPost2010Prop44ColorRGB
 90
      255
102
RTVSPost2010PropOp44
 70
     1
102
RTVSPost2010Prop45
280
     0
102
RTVSPost2010PropOp45
 70
     1
102
RTVSPost2010Prop46
 90
       50
102
RTVSPost2010PropOp46
 70
     1
102
RTVSPost2010Prop47
 90
       50
102
RTVSPost2010PropOp47
 70
     1
102
RTVSPost2010Prop48
 90
       50
102
RTVSPost2010PropOp48
 70
     1
102
RTVSPost2010Prop49
280
     0
102
RTVSPost2010PropOp49
 70
     1
102
RTVSPost2010Prop50
 90
       50
102
RTVSPost2010PropOp50
 70
     1
102
RTVSPost2010Prop51ColorIndex
 90
      256
102
RTVSPost2010Prop51ColorRGB
 90
-16777216
102
RTVSPost2010PropOp51
 70
     0
102
RTVSPost2010Prop52
140
1.0
102
RTVSPost2010PropOp52
 70
     0
102
RTVSPost2010Prop53
 90
        2
102
RTVSPost2010PropOp53
 70
     1
102
RTVSPost2010Prop54
  1
strokes_ogs.tif
102
RTVSPost2010PropOp54
 70
     1
102
RTVSPost2010Prop55
280
     0
102
RTVSPost2010PropOp55
 70
     1
102
RTVSPost2010Prop56
140
1.0
102
RTVSPost2010PropOp56
 70
     1
102
RTVSPost2010Prop57
140
1.0
102
RTVSPost2010PropOp57
 70
     1
102
RTVSPropertyOp0
 70
     1
102
RTVSPropertyOp1
 70
     1
102
RTVSPropertyOp2
 70
     1
102
RTVSPropertyOp3
 70
     1
102
RTVSPropertyOp4
 70
     1
102
RTVSPropertyOp5
 70
     1
102
RTVSPropertyOp6
 70
     1
102
RTVSPropertyOp7
 70
     1
102
RTVSPropertyOp8
 70
     1
102
RTVSPropertyOp9
 70
     1
102
RTVSPropertyOp10
 70
     1
102
RTVSPropertyOp11
 70
     1
102
RTVSPropertyOp12
 70
     1
102
RTVSPropertyOp13
 70
     1
102
RTVSPropertyOp14
 70
     1
102
RTVSPropertyOp15
 70
     1
102
RTVSPropertyOp16
 70
     1
102
RTVSPropertyOp17
 70
     1
102
RTVSPropertyOp18
 70
     1
102
RTVSPropertyOp19
 70
     1
102
RTVSPropertyOp20
 70
     1
102
RTVSPropertyOp21
 70
     1
102
RTVSPropertyOp22
 70
     1
102
RTVSPropertyOp23
 70
     1
102
RTVSPropertyOp24
 70
     1
102
RTVSPropertyOp25
 70
     1
102
RTVSPropertyOp26
 70
     1
102
RTVSPropertyOp27
 70
     1
102
RTVSPropertyOp28
 70
     1
102
RTVSPropertyOp29
 70
     1
102
RTVSPropertyOp30
 70
     1
102
RTVSPropertyOp31
 70
     1
102
RTVSPropertyOp32
 70
     1
102
RTVSPropertyOp33
 70
     1
102
RTVSPropertyOp34
 70
     1
102
RTVSPropertyOp35
 70
     1
102
RTVSPropertyOp36
 70
     1
102
RTVSPropertyOp37
 70
     1
102
RTVSPropertyOp38
 70
     1
102
RTVSPropertyOp39
 70
     1
102
RTVSPropertyOp40
 70
     1
102
RTVSPropertyOp41
 70
     1
102
RTVSPropertyOp42
 70
     1
102
RTVSPropertyOp43
 70
     1
102
RTVSPropertyOp44
 70
     1
102
RTVSPropertyOp45
 70
     1
102
RTVSPropertyOp46
 70
     1
102
RTVSPropertyOp47
 70
     1
102
RTVSPropertyOp48
 70
     1
102
RTVSPropertyOp49
 70
     1
102
RTVSPropertyOp50
 70
     1
102
RTVSPropertyOp51
 70
     0
102
RTVSPropertyOp52
 70
     0
102
RTVSPropertyOp53
 70
     1
102
RTVSPropertyOp54
 70
     1
102
RTVSPropertyOp55
 70
     1
102
RTVSPropertyOp56
 70
     1
102
RTVSPropertyOp57
 70
     1
102
RTVSPropertyOp58
 70
     1
102
RTVSPropertyOp59
 70
     1
102
RTVSPropertyOp60
 70
     1
102
RTVSPropertyOp61
 70
     1
102
RTVSPropertyOp62
 70
     1
  0
XRECORD
  5
38A
102
{ACAD_REACTORS
330
389
102
}
330
389
100
AcDbXrecord
280
     1
102
RTVSPost2010Prop28
280
     0
102
RTVSPost2010PropOp28
 70
     1
102
RTVSPost2010Prop29
280
     1
102
RTVSPost2010PropOp29
 70
     1
102
RTVSPost2010Prop30
280
     1
102
RTVSPost2010PropOp30
 70
     1
102
RTVSPost2010Prop31
280
     0
102
RTVSPost2010PropOp31
 70
     1
102
RTVSPost2010Prop32
280
     0
102
RTVSPost2010PropOp32
 70
     1
102
RTVSPost2010Prop33
280
     0
102
RTVSPost2010PropOp33
 70
     1
102
RTVSPost2010Prop34
280
     0
102
RTVSPost2010PropOp34
 70
     1
102
RTVSPost2010Prop35
280
     0
102
RTVSPost2010PropOp35
 70
     1
102
RTVSPost2010Prop36
280
     0
102
RTVSPost2010PropOp36
 70
     1
102
RTVSPost2010Prop37
 90
       50
102
RTVSPost2010PropOp37
 70
     1
102
RTVSPost2010Prop38
140
0.0
102
RTVSPost2010PropOp38
 70
     1
102
RTVSPost2010Prop39
140
1.0
102
RTVSPost2010PropOp39
 70
     1
102
RTVSPost2010Prop40
 90
        0
102
RTVSPost2010PropOp40
 70
     1
102
RTVSPost2010Prop41ColorIndex
 90
       18
102
RTVSPost2010Prop41ColorRGB
 90
        0
102
RTVSPost2010PropOp41
 70
     1
102
RTVSPost2010Prop42
 90
       50
102
RTVSPost2010PropOp42
 70
     1
102
RTVSPost2010Prop43
 90
        3
102
RTVSPost2010PropOp43
 70
     1
102
RTVSPost2010Prop44ColorIndex
 90
        5
102
RTVSPost2010Prop44ColorRGB
 90
      255
102
RTVSPost2010PropOp44
 70
     1
102
RTVSPost2010Prop45
280
     0
102
RTVSPost2010PropOp45
 70
     1
102
RTVSPost2010Prop46
 90
       50
102
RTVSPost2010PropOp46
 70
     1
102
RTVSPost2010Prop47
 90
       50
102
RTVSPost2010PropOp47
 70
     1
102
RTVSPost2010Prop48
 90
       50
102
RTVSPost2010PropOp48
 70
     1
102
RTVSPost2010Prop49
280
     0
102
RTVSPost2010PropOp49
 70
     1
102
RTVSPost2010Prop50
 90
       50
102
RTVSPost2010PropOp50
 70
     1
102
RTVSPost2010Prop51ColorIndex
 90
      256
102
RTVSPost2010Prop51ColorRGB
 90
-16777216
102
RTVSPost2010PropOp51
 70
     0
102
RTVSPost2010Prop52
140
1.0
102
RTVSPost2010PropOp52
 70
     0
102
RTVSPost2010Prop53
 90
        2
102
RTVSPost2010PropOp53
 70
     1
102
RTVSPost2010Prop54
  1
strokes_ogs.tif
102
RTVSPost2010PropOp54
 70
     1
102
RTVSPost2010Prop55
280
     0
102
RTVSPost2010PropOp55
 70
     1
102
RTVSPost2010Prop56
140
1.0
102
RTVSPost2010PropOp56
 70
     1
102
RTVSPost2010Prop57
140
1.0
102
RTVSPost2010PropOp57
 70
     1
102
RTVSPropertyOp0
 70
     1
102
RTVSPropertyOp1
 70
     1
102
RTVSPropertyOp2
 70
     1
102
RTVSPropertyOp3
 70
     1
102
RTVSPropertyOp4
 70
     1
102
RTVSPropertyOp5
 70
     1
102
RTVSPropertyOp6
 70
     1
102
RTVSPropertyOp7
 70
     1
102
RTVSPropertyOp8
 70
     1
102
RTVSPropertyOp9
 70
     1
102
RTVSPropertyOp10
 70
     1
102
RTVSPropertyOp11
 70
     1
102
RTVSPropertyOp12
 70
     1
102
RTVSPropertyOp13
 70
     1
102
RTVSPropertyOp14
 70
     1
102
RTVSPropertyOp15
 70
     1
102
RTVSPropertyOp16
 70
     1
102
RTVSPropertyOp17
 70
     1
102
RTVSPropertyOp18
 70
     1
102
RTVSPropertyOp19
 70
     1
102
RTVSPropertyOp20
 70
     1
102
RTVSPropertyOp21
 70
     1
102
RTVSPropertyOp22
 70
     1
102
RTVSPropertyOp23
 70
     1
102
RTVSPropertyOp24
 70
     1
102
RTVSPropertyOp25
 70
     1
102
RTVSPropertyOp26
 70
     1
102
RTVSPropertyOp27
 70
     1
102
RTVSPropertyOp28
 70
     1
102
RTVSPropertyOp29
 70
     1
102
RTVSPropertyOp30
 70
     1
102
RTVSPropertyOp31
 70
     1
102
RTVSPropertyOp32
 70
     1
102
RTVSPropertyOp33
 70
     1
102
RTVSPropertyOp34
 70
     1
102
RTVSPropertyOp35
 70
     1
102
RTVSPropertyOp36
 70
     1
102
RTVSPropertyOp37
 70
     1
102
RTVSPropertyOp38
 70
     1
102
RTVSPropertyOp39
 70
     1
102
RTVSPropertyOp40
 70
     1
102
RTVSPropertyOp41
 70
     1
102
RTVSPropertyOp42
 70
     1
102
RTVSPropertyOp43
 70
     1
102
RTVSPropertyOp44
 70
     1
102
RTVSPropertyOp45
 70
     1
102
RTVSPropertyOp46
 70
     1
102
RTVSPropertyOp47
 70
     1
102
RTVSPropertyOp48
 70
     1
102
RTVSPropertyOp49
 70
     1
102
RTVSPropertyOp50
 70
     1
102
RTVSPropertyOp51
 70
     0
102
RTVSPropertyOp52
 70
     0
102
RTVSPropertyOp53
 70
     1
102
RTVSPropertyOp54
 70
     1
102
RTVSPropertyOp55
 70
     1
102
RTVSPropertyOp56
 70
     1
102
RTVSPropertyOp57
 70
     1
102
RTVSPropertyOp58
 70
     1
102
RTVSPropertyOp59
 70
     1
102
RTVSPropertyOp60
 70
     1
102
RTVSPropertyOp61
 70
     1
102
RTVSPropertyOp62
 70
     1
  0
XRECORD
  5
38C
102
{ACAD_REACTORS
330
38B
102
}
330
38B
100
AcDbXrecord
280
     1
102
RTVSPost2010Prop28
280
     0
102
RTVSPost2010PropOp28
 70
     1
102
RTVSPost2010Prop29
280
     1
102
RTVSPost2010PropOp29
 70
     1
102
RTVSPost2010Prop30
280
     1
102
RTVSPost2010PropOp30
 70
     1
102
RTVSPost2010Prop31
280
     0
102
RTVSPost2010PropOp31
 70
     1
102
RTVSPost2010Prop32
280
     0
102
RTVSPost2010PropOp32
 70
     1
102
RTVSPost2010Prop33
280
     0
102
RTVSPost2010PropOp33
 70
     1
102
RTVSPost2010Prop34
280
     0
102
RTVSPost2010PropOp34
 70
     1
102
RTVSPost2010Prop35
280
     0
102
RTVSPost2010PropOp35
 70
     1
102
RTVSPost2010Prop36
280
     0
102
RTVSPost2010PropOp36
 70
     1
102
RTVSPost2010Prop37
 90
       50
102
RTVSPost2010PropOp37
 70
     1
102
RTVSPost2010Prop38
140
0.0
102
RTVSPost2010PropOp38
 70
     1
102
RTVSPost2010Prop39
140
1.0
102
RTVSPost2010PropOp39
 70
     1
102
RTVSPost2010Prop40
 90
        0
102
RTVSPost2010PropOp40
 70
     1
102
RTVSPost2010Prop41ColorIndex
 90
       18
102
RTVSPost2010Prop41ColorRGB
 90
        0
102
RTVSPost2010PropOp41
 70
     1
102
RTVSPost2010Prop42
 90
       50
102
RTVSPost2010PropOp42
 70
     1
102
RTVSPost2010Prop43
 90
        3
102
RTVSPost2010PropOp43
 70
     1
102
RTVSPost2010Prop44ColorIndex
 90
        5
102
RTVSPost2010Prop44ColorRGB
 90
      255
102
RTVSPost2010PropOp44
 70
     1
102
RTVSPost2010Prop45
280
     0
102
RTVSPost2010PropOp45
 70
     1
102
RTVSPost2010Prop46
 90
       50
102
RTVSPost2010PropOp46
 70
     1
102
RTVSPost2010Prop47
 90
       50
102
RTVSPost2010PropOp47
 70
     1
102
RTVSPost2010Prop48
 90
       50
102
RTVSPost2010PropOp48
 70
     1
102
RTVSPost2010Prop49
280
     0
102
RTVSPost2010PropOp49
 70
     1
102
RTVSPost2010Prop50
 90
       50
102
RTVSPost2010PropOp50
 70
     1
102
RTVSPost2010Prop51ColorIndex
 90
      256
102
RTVSPost2010Prop51ColorRGB
 90
-16777216
102
RTVSPost2010PropOp51
 70
     0
102
RTVSPost2010Prop52
140
1.0
102
RTVSPost2010PropOp52
 70
     0
102
RTVSPost2010Prop53
 90
        2
102
RTVSPost2010PropOp53
 70
     1
102
RTVSPost2010Prop54
  1
strokes_ogs.tif
102
RTVSPost2010PropOp54
 70
     1
102
RTVSPost2010Prop55
280
     0
102
RTVSPost2010PropOp55
 70
     1
102
RTVSPost2010Prop56
140
1.0
102
RTVSPost2010PropOp56
 70
     1
102
RTVSPost2010Prop57
140
1.0
102
RTVSPost2010PropOp57
 70
     1
102
RTVSPropertyOp0
 70
     1
102
RTVSPropertyOp1
 70
     1
102
RTVSPropertyOp2
 70
     1
102
RTVSPropertyOp3
 70
     1
102
RTVSPropertyOp4
 70
     1
102
RTVSPropertyOp5
 70
     1
102
RTVSPropertyOp6
 70
     1
102
RTVSPropertyOp7
 70
     1
102
RTVSPropertyOp8
 70
     1
102
RTVSPropertyOp9
 70
     1
102
RTVSPropertyOp10
 70
     1
102
RTVSPropertyOp11
 70
     1
102
RTVSPropertyOp12
 70
     1
102
RTVSPropertyOp13
 70
     1
102
RTVSPropertyOp14
 70
     1
102
RTVSPropertyOp15
 70
     1
102
RTVSPropertyOp16
 70
     1
102
RTVSPropertyOp17
 70
     1
102
RTVSPropertyOp18
 70
     1
102
RTVSPropertyOp19
 70
     1
102
RTVSPropertyOp20
 70
     1
102
RTVSPropertyOp21
 70
     1
102
RTVSPropertyOp22
 70
     1
102
RTVSPropertyOp23
 70
     1
102
RTVSPropertyOp24
 70
     1
102
RTVSPropertyOp25
 70
     1
102
RTVSPropertyOp26
 70
     1
102
RTVSPropertyOp27
 70
     1
102
RTVSPropertyOp28
 70
     1
102
RTVSPropertyOp29
 70
     1
102
RTVSPropertyOp30
 70
     1
102
RTVSPropertyOp31
 70
     1
102
RTVSPropertyOp32
 70
     1
102
RTVSPropertyOp33
 70
     1
102
RTVSPropertyOp34
 70
     1
102
RTVSPropertyOp35
 70
     1
102
RTVSPropertyOp36
 70
     1
102
RTVSPropertyOp37
 70
     1
102
RTVSPropertyOp38
 70
     1
102
RTVSPropertyOp39
 70
     1
102
RTVSPropertyOp40
 70
     1
102
RTVSPropertyOp41
 70
     1
102
RTVSPropertyOp42
 70
     1
102
RTVSPropertyOp43
 70
     1
102
RTVSPropertyOp44
 70
     1
102
RTVSPropertyOp45
 70
     1
102
RTVSPropertyOp46
 70
     1
102
RTVSPropertyOp47
 70
     1
102
RTVSPropertyOp48
 70
     1
102
RTVSPropertyOp49
 70
     1
102
RTVSPropertyOp50
 70
     1
102
RTVSPropertyOp51
 70
     0
102
RTVSPropertyOp52
 70
     0
102
RTVSPropertyOp53
 70
     1
102
RTVSPropertyOp54
 70
     1
102
RTVSPropertyOp55
 70
     1
102
RTVSPropertyOp56
 70
     1
102
RTVSPropertyOp57
 70
     1
102
RTVSPropertyOp58
 70
     1
102
RTVSPropertyOp59
 70
     1
102
RTVSPropertyOp60
 70
     1
102
RTVSPropertyOp61
 70
     1
102
RTVSPropertyOp62
 70
     1
  0
XRECORD
  5
38E
102
{ACAD_REACTORS
330
38D
102
}
330
38D
100
AcDbXrecord
280
     1
102
RTVSPost2010Prop28
280
     0
102
RTVSPost2010PropOp28
 70
     1
102
RTVSPost2010Prop29
280
     1
102
RTVSPost2010PropOp29
 70
     1
102
RTVSPost2010Prop30
280
     1
102
RTVSPost2010PropOp30
 70
     1
102
RTVSPost2010Prop31
280
     0
102
RTVSPost2010PropOp31
 70
     1
102
RTVSPost2010Prop32
280
     0
102
RTVSPost2010PropOp32
 70
     1
102
RTVSPost2010Prop33
280
     0
102
RTVSPost2010PropOp33
 70
     1
102
RTVSPost2010Prop34
280
     0
102
RTVSPost2010PropOp34
 70
     1
102
RTVSPost2010Prop35
280
     0
102
RTVSPost2010PropOp35
 70
     1
102
RTVSPost2010Prop36
280
     0
102
RTVSPost2010PropOp36
 70
     1
102
RTVSPost2010Prop37
 90
       50
102
RTVSPost2010PropOp37
 70
     1
102
RTVSPost2010Prop38
140
0.0
102
RTVSPost2010PropOp38
 70
     1
102
RTVSPost2010Prop39
140
1.0
102
RTVSPost2010PropOp39
 70
     1
102
RTVSPost2010Prop40
 90
        0
102
RTVSPost2010PropOp40
 70
     1
102
RTVSPost2010Prop41ColorIndex
 90
       18
102
RTVSPost2010Prop41ColorRGB
 90
        0
102
RTVSPost2010PropOp41
 70
     1
102
RTVSPost2010Prop42
 90
       50
102
RTVSPost2010PropOp42
 70
     1
102
RTVSPost2010Prop43
 90
        3
102
RTVSPost2010PropOp43
 70
     1
102
RTVSPost2010Prop44ColorIndex
 90
        5
102
RTVSPost2010Prop44ColorRGB
 90
      255
102
RTVSPost2010PropOp44
 70
     1
102
RTVSPost2010Prop45
280
     0
102
RTVSPost2010PropOp45
 70
     1
102
RTVSPost2010Prop46
 90
       50
102
RTVSPost2010PropOp46
 70
     1
102
RTVSPost2010Prop47
 90
       50
102
RTVSPost2010PropOp47
 70
     1
102
RTVSPost2010Prop48
 90
       50
102
RTVSPost2010PropOp48
 70
     1
102
RTVSPost2010Prop49
280
     0
102
RTVSPost2010PropOp49
 70
     1
102
RTVSPost2010Prop50
 90
       50
102
RTVSPost2010PropOp50
 70
     1
102
RTVSPost2010Prop51ColorIndex
 90
      256
102
RTVSPost2010Prop51ColorRGB
 90
-16777216
102
RTVSPost2010PropOp51
 70
     0
102
RTVSPost2010Prop52
140
1.0
102
RTVSPost2010PropOp52
 70
     0
102
RTVSPost2010Prop53
 90
        2
102
RTVSPost2010PropOp53
 70
     1
102
RTVSPost2010Prop54
  1
strokes_ogs.tif
102
RTVSPost2010PropOp54
 70
     1
102
RTVSPost2010Prop55
280
     0
102
RTVSPost2010PropOp55
 70
     1
102
RTVSPost2010Prop56
140
1.0
102
RTVSPost2010PropOp56
 70
     1
102
RTVSPost2010Prop57
140
1.0
102
RTVSPost2010PropOp57
 70
     1
102
RTVSPropertyOp0
 70
     1
102
RTVSPropertyOp1
 70
     1
102
RTVSPropertyOp2
 70
     1
102
RTVSPropertyOp3
 70
     1
102
RTVSPropertyOp4
 70
     1
102
RTVSPropertyOp5
 70
     1
102
RTVSPropertyOp6
 70
     1
102
RTVSPropertyOp7
 70
     1
102
RTVSPropertyOp8
 70
     1
102
RTVSPropertyOp9
 70
     1
102
RTVSPropertyOp10
 70
     1
102
RTVSPropertyOp11
 70
     1
102
RTVSPropertyOp12
 70
     1
102
RTVSPropertyOp13
 70
     1
102
RTVSPropertyOp14
 70
     1
102
RTVSPropertyOp15
 70
     1
102
RTVSPropertyOp16
 70
     1
102
RTVSPropertyOp17
 70
     1
102
RTVSPropertyOp18
 70
     1
102
RTVSPropertyOp19
 70
     1
102
RTVSPropertyOp20
 70
     1
102
RTVSPropertyOp21
 70
     1
102
RTVSPropertyOp22
 70
     1
102
RTVSPropertyOp23
 70
     1
102
RTVSPropertyOp24
 70
     1
102
RTVSPropertyOp25
 70
     1
102
RTVSPropertyOp26
 70
     1
102
RTVSPropertyOp27
 70
     1
102
RTVSPropertyOp28
 70
     1
102
RTVSPropertyOp29
 70
     1
102
RTVSPropertyOp30
 70
     1
102
RTVSPropertyOp31
 70
     1
102
RTVSPropertyOp32
 70
     1
102
RTVSPropertyOp33
 70
     1
102
RTVSPropertyOp34
 70
     1
102
RTVSPropertyOp35
 70
     1
102
RTVSPropertyOp36
 70
     1
102
RTVSPropertyOp37
 70
     1
102
RTVSPropertyOp38
 70
     1
102
RTVSPropertyOp39
 70
     1
102
RTVSPropertyOp40
 70
     1
102
RTVSPropertyOp41
 70
     1
102
RTVSPropertyOp42
 70
     1
102
RTVSPropertyOp43
 70
     1
102
RTVSPropertyOp44
 70
     1
102
RTVSPropertyOp45
 70
     1
102
RTVSPropertyOp46
 70
     1
102
RTVSPropertyOp47
 70
     1
102
RTVSPropertyOp48
 70
     1
102
RTVSPropertyOp49
 70
     1
102
RTVSPropertyOp50
 70
     1
102
RTVSPropertyOp51
 70
     0
102
RTVSPropertyOp52
 70
     0
102
RTVSPropertyOp53
 70
     1
102
RTVSPropertyOp54
 70
     1
102
RTVSPropertyOp55
 70
     1
102
RTVSPropertyOp56
 70
     1
102
RTVSPropertyOp57
 70
     1
102
RTVSPropertyOp58
 70
     1
102
RTVSPropertyOp59
 70
     1
102
RTVSPropertyOp60
 70
     1
102
RTVSPropertyOp61
 70
     1
102
RTVSPropertyOp62
 70
     1
  0
XRECORD
  5
390
102
{ACAD_REACTORS
330
38F
102
}
330
38F
100
AcDbXrecord
280
     1
102
RTVSPost2010Prop28
280
     0
102
RTVSPost2010PropOp28
 70
     1
102
RTVSPost2010Prop29
280
     1
102
RTVSPost2010PropOp29
 70
     1
102
RTVSPost2010Prop30
280
     1
102
RTVSPost2010PropOp30
 70
     1
102
RTVSPost2010Prop31
280
     0
102
RTVSPost2010PropOp31
 70
     1
102
RTVSPost2010Prop32
280
     0
102
RTVSPost2010PropOp32
 70
     1
102
RTVSPost2010Prop33
280
     0
102
RTVSPost2010PropOp33
 70
     1
102
RTVSPost2010Prop34
280
     0
102
RTVSPost2010PropOp34
 70
     1
102
RTVSPost2010Prop35
280
     0
102
RTVSPost2010PropOp35
 70
     1
102
RTVSPost2010Prop36
280
     0
102
RTVSPost2010PropOp36
 70
     1
102
RTVSPost2010Prop37
 90
       50
102
RTVSPost2010PropOp37
 70
     1
102
RTVSPost2010Prop38
140
0.0
102
RTVSPost2010PropOp38
 70
     1
102
RTVSPost2010Prop39
140
1.0
102
RTVSPost2010PropOp39
 70
     1
102
RTVSPost2010Prop40
 90
        0
102
RTVSPost2010PropOp40
 70
     1
102
RTVSPost2010Prop41ColorIndex
 90
       18
102
RTVSPost2010Prop41ColorRGB
 90
        0
102
RTVSPost2010PropOp41
 70
     1
102
RTVSPost2010Prop42
 90
       50
102
RTVSPost2010PropOp42
 70
     1
102
RTVSPost2010Prop43
 90
        3
102
RTVSPost2010PropOp43
 70
     1
102
RTVSPost2010Prop44ColorIndex
 90
        5
102
RTVSPost2010Prop44ColorRGB
 90
      255
102
RTVSPost2010PropOp44
 70
     1
102
RTVSPost2010Prop45
280
     0
102
RTVSPost2010PropOp45
 70
     1
102
RTVSPost2010Prop46
 90
       50
102
RTVSPost2010PropOp46
 70
     1
102
RTVSPost2010Prop47
 90
       50
102
RTVSPost2010PropOp47
 70
     1
102
RTVSPost2010Prop48
 90
       50
102
RTVSPost2010PropOp48
 70
     1
102
RTVSPost2010Prop49
280
     0
102
RTVSPost2010PropOp49
 70
     1
102
RTVSPost2010Prop50
 90
       50
102
RTVSPost2010PropOp50
 70
     1
102
RTVSPost2010Prop51ColorIndex
 90
      256
102
RTVSPost2010Prop51ColorRGB
 90
-16777216
102
RTVSPost2010PropOp51
 70
     0
102
RTVSPost2010Prop52
140
1.0
102
RTVSPost2010PropOp52
 70
     0
102
RTVSPost2010Prop53
 90
        2
102
RTVSPost2010PropOp53
 70
     1
102
RTVSPost2010Prop54
  1
strokes_ogs.tif
102
RTVSPost2010PropOp54
 70
     1
102
RTVSPost2010Prop55
280
     0
102
RTVSPost2010PropOp55
 70
     1
102
RTVSPost2010Prop56
140
1.0
102
RTVSPost2010PropOp56
 70
     1
102
RTVSPost2010Prop57
140
1.0
102
RTVSPost2010PropOp57
 70
     1
102
RTVSPropertyOp0
 70
     1
102
RTVSPropertyOp1
 70
     1
102
RTVSPropertyOp2
 70
     1
102
RTVSPropertyOp3
 70
     1
102
RTVSPropertyOp4
 70
     1
102
RTVSPropertyOp5
 70
     1
102
RTVSPropertyOp6
 70
     1
102
RTVSPropertyOp7
 70
     1
102
RTVSPropertyOp8
 70
     1
102
RTVSPropertyOp9
 70
     1
102
RTVSPropertyOp10
 70
     1
102
RTVSPropertyOp11
 70
     1
102
RTVSPropertyOp12
 70
     1
102
RTVSPropertyOp13
 70
     1
102
RTVSPropertyOp14
 70
     1
102
RTVSPropertyOp15
 70
     1
102
RTVSPropertyOp16
 70
     1
102
RTVSPropertyOp17
 70
     1
102
RTVSPropertyOp18
 70
     1
102
RTVSPropertyOp19
 70
     1
102
RTVSPropertyOp20
 70
     1
102
RTVSPropertyOp21
 70
     1
102
RTVSPropertyOp22
 70
     1
102
RTVSPropertyOp23
 70
     1
102
RTVSPropertyOp24
 70
     1
102
RTVSPropertyOp25
 70
     1
102
RTVSPropertyOp26
 70
     1
102
RTVSPropertyOp27
 70
     1
102
RTVSPropertyOp28
 70
     1
102
RTVSPropertyOp29
 70
     1
102
RTVSPropertyOp30
 70
     1
102
RTVSPropertyOp31
 70
     1
102
RTVSPropertyOp32
 70
     1
102
RTVSPropertyOp33
 70
     1
102
RTVSPropertyOp34
 70
     1
102
RTVSPropertyOp35
 70
     1
102
RTVSPropertyOp36
 70
     1
102
RTVSPropertyOp37
 70
     1
102
RTVSPropertyOp38
 70
     1
102
RTVSPropertyOp39
 70
     1
102
RTVSPropertyOp40
 70
     1
102
RTVSPropertyOp41
 70
     1
102
RTVSPropertyOp42
 70
     1
102
RTVSPropertyOp43
 70
     1
102
RTVSPropertyOp44
 70
     1
102
RTVSPropertyOp45
 70
     1
102
RTVSPropertyOp46
 70
     1
102
RTVSPropertyOp47
 70
     1
102
RTVSPropertyOp48
 70
     1
102
RTVSPropertyOp49
 70
     1
102
RTVSPropertyOp50
 70
     1
102
RTVSPropertyOp51
 70
     0
102
RTVSPropertyOp52
 70
     0
102
RTVSPropertyOp53
 70
     1
102
RTVSPropertyOp54
 70
     1
102
RTVSPropertyOp55
 70
     1
102
RTVSPropertyOp56
 70
     1
102
RTVSPropertyOp57
 70
     1
102
RTVSPropertyOp58
 70
     1
102
RTVSPropertyOp59
 70
     1
102
RTVSPropertyOp60
 70
     1
102
RTVSPropertyOp61
 70
     1
102
RTVSPropertyOp62
 70
     1
  0
XRECORD
  5
398
102
{ACAD_REACTORS
330
397
102
}
330
397
100
AcDbXrecord
280
     1
102
RTVSPost2010Prop28
280
     0
102
RTVSPost2010PropOp28
 70
     1
102
RTVSPost2010Prop29
280
     1
102
RTVSPost2010PropOp29
 70
     1
102
RTVSPost2010Prop30
280
     1
102
RTVSPost2010PropOp30
 70
     1
102
RTVSPost2010Prop31
280
     0
102
RTVSPost2010PropOp31
 70
     1
102
RTVSPost2010Prop32
280
     0
102
RTVSPost2010PropOp32
 70
     1
102
RTVSPost2010Prop33
280
     0
102
RTVSPost2010PropOp33
 70
     1
102
RTVSPost2010Prop34
280
     0
102
RTVSPost2010PropOp34
 70
     1
102
RTVSPost2010Prop35
280
     0
102
RTVSPost2010PropOp35
 70
     1
102
RTVSPost2010Prop36
280
     0
102
RTVSPost2010PropOp36
 70
     1
102
RTVSPost2010Prop37
 90
       50
102
RTVSPost2010PropOp37
 70
     1
102
RTVSPost2010Prop38
140
0.0
102
RTVSPost2010PropOp38
 70
     1
102
RTVSPost2010Prop39
140
1.0
102
RTVSPost2010PropOp39
 70
     1
102
RTVSPost2010Prop40
 90
        0
102
RTVSPost2010PropOp40
 70
     1
102
RTVSPost2010Prop41ColorIndex
 90
       18
102
RTVSPost2010Prop41ColorRGB
 90
        0
102
RTVSPost2010PropOp41
 70
     1
102
RTVSPost2010Prop42
 90
       50
102
RTVSPost2010PropOp42
 70
     1
102
RTVSPost2010Prop43
 90
        3
102
RTVSPost2010PropOp43
 70
     1
102
RTVSPost2010Prop44ColorIndex
 90
        5
102
RTVSPost2010Prop44ColorRGB
 90
      255
102
RTVSPost2010PropOp44
 70
     1
102
RTVSPost2010Prop45
280
     0
102
RTVSPost2010PropOp45
 70
     1
102
RTVSPost2010Prop46
 90
       50
102
RTVSPost2010PropOp46
 70
     1
102
RTVSPost2010Prop47
 90
       50
102
RTVSPost2010PropOp47
 70
     1
102
RTVSPost2010Prop48
 90
       50
102
RTVSPost2010PropOp48
 70
     1
102
RTVSPost2010Prop49
280
     0
102
RTVSPost2010PropOp49
 70
     1
102
RTVSPost2010Prop50
 90
       50
102
RTVSPost2010PropOp50
 70
     1
102
RTVSPost2010Prop51ColorIndex
 90
      256
102
RTVSPost2010Prop51ColorRGB
 90
-16777216
102
RTVSPost2010PropOp51
 70
     0
102
RTVSPost2010Prop52
140
1.0
102
RTVSPost2010PropOp52
 70
     0
102
RTVSPost2010Prop53
 90
        2
102
RTVSPost2010PropOp53
 70
     1
102
RTVSPost2010Prop54
  1
strokes_ogs.tif
102
RTVSPost2010PropOp54
 70
     1
102
RTVSPost2010Prop55
280
     0
102
RTVSPost2010PropOp55
 70
     1
102
RTVSPost2010Prop56
140
1.0
102
RTVSPost2010PropOp56
 70
     1
102
RTVSPost2010Prop57
140
1.0
102
RTVSPost2010PropOp57
 70
     1
102
RTVSPropertyOp0
 70
     1
102
RTVSPropertyOp1
 70
     1
102
RTVSPropertyOp2
 70
     1
102
RTVSPropertyOp3
 70
     1
102
RTVSPropertyOp4
 70
     1
102
RTVSPropertyOp5
 70
     1
102
RTVSPropertyOp6
 70
     1
102
RTVSPropertyOp7
 70
     1
102
RTVSPropertyOp8
 70
     1
102
RTVSPropertyOp9
 70
     1
102
RTVSPropertyOp10
 70
     1
102
RTVSPropertyOp11
 70
     1
102
RTVSPropertyOp12
 70
     1
102
RTVSPropertyOp13
 70
     1
102
RTVSPropertyOp14
 70
     1
102
RTVSPropertyOp15
 70
     1
102
RTVSPropertyOp16
 70
     1
102
RTVSPropertyOp17
 70
     1
102
RTVSPropertyOp18
 70
     1
102
RTVSPropertyOp19
 70
     1
102
RTVSPropertyOp20
 70
     1
102
RTVSPropertyOp21
 70
     1
102
RTVSPropertyOp22
 70
     1
102
RTVSPropertyOp23
 70
     1
102
RTVSPropertyOp24
 70
     1
102
RTVSPropertyOp25
 70
     1
102
RTVSPropertyOp26
 70
     1
102
RTVSPropertyOp27
 70
     1
102
RTVSPropertyOp28
 70
     1
102
RTVSPropertyOp29
 70
     1
102
RTVSPropertyOp30
 70
     1
102
RTVSPropertyOp31
 70
     1
102
RTVSPropertyOp32
 70
     1
102
RTVSPropertyOp33
 70
     1
102
RTVSPropertyOp34
 70
     1
102
RTVSPropertyOp35
 70
     1
102
RTVSPropertyOp36
 70
     1
102
RTVSPropertyOp37
 70
     1
102
RTVSPropertyOp38
 70
     1
102
RTVSPropertyOp39
 70
     1
102
RTVSPropertyOp40
 70
     1
102
RTVSPropertyOp41
 70
     1
102
RTVSPropertyOp42
 70
     1
102
RTVSPropertyOp43
 70
     1
102
RTVSPropertyOp44
 70
     1
102
RTVSPropertyOp45
 70
     1
102
RTVSPropertyOp46
 70
     1
102
RTVSPropertyOp47
 70
     1
102
RTVSPropertyOp48
 70
     1
102
RTVSPropertyOp49
 70
     1
102
RTVSPropertyOp50
 70
     1
102
RTVSPropertyOp51
 70
     0
102
RTVSPropertyOp52
 70
     0
102
RTVSPropertyOp53
 70
     1
102
RTVSPropertyOp54
 70
     1
102
RTVSPropertyOp55
 70
     1
102
RTVSPropertyOp56
 70
     1
102
RTVSPropertyOp57
 70
     1
102
RTVSPropertyOp58
 70
     1
102
RTVSPropertyOp59
 70
     1
102
RTVSPropertyOp60
 70
     1
102
RTVSPropertyOp61
 70
     1
102
RTVSPropertyOp62
 70
     1
  0
XRECORD
  5
3B4
102
{ACAD_REACTORS
330
3B3
102
}
330
3B3
100
AcDbXrecord
280
     1
102
RTVSPost2010Prop28
280
     0
102
RTVSPost2010PropOp28
 70
     1
102
RTVSPost2010Prop29
280
     1
102
RTVSPost2010PropOp29
 70
     1
102
RTVSPost2010Prop30
280
     1
102
RTVSPost2010PropOp30
 70
     1
102
RTVSPost2010Prop31
280
     0
102
RTVSPost2010PropOp31
 70
     1
102
RTVSPost2010Prop32
280
     0
102
RTVSPost2010PropOp32
 70
     1
102
RTVSPost2010Prop33
280
     0
102
RTVSPost2010PropOp33
 70
     1
102
RTVSPost2010Prop34
280
     0
102
RTVSPost2010PropOp34
 70
     1
102
RTVSPost2010Prop35
280
     0
102
RTVSPost2010PropOp35
 70
     1
102
RTVSPost2010Prop36
280
     0
102
RTVSPost2010PropOp36
 70
     1
102
RTVSPost2010Prop37
 90
       50
102
RTVSPost2010PropOp37
 70
     0
102
RTVSPost2010Prop38
140
0.0
102
RTVSPost2010PropOp38
 70
     0
102
RTVSPost2010Prop39
140
1.0
102
RTVSPost2010PropOp39
 70
     0
102
RTVSPost2010Prop40
 90
        0
102
RTVSPost2010PropOp40
 70
     0
102
RTVSPost2010Prop41ColorIndex
 90
       18
102
RTVSPost2010Prop41ColorRGB
 90
        0
102
RTVSPost2010PropOp41
 70
     0
102
RTVSPost2010Prop42
 90
       50
102
RTVSPost2010PropOp42
 70
     0
102
RTVSPost2010Prop43
 90
        3
102
RTVSPost2010PropOp43
 70
     0
102
RTVSPost2010Prop44ColorIndex
 90
        5
102
RTVSPost2010Prop44ColorRGB
 90
      255
102
RTVSPost2010PropOp44
 70
     0
102
RTVSPost2010Prop45
280
     0
102
RTVSPost2010PropOp45
 70
     1
102
RTVSPost2010Prop46
 90
       50
102
RTVSPost2010PropOp46
 70
     0
102
RTVSPost2010Prop47
 90
       50
102
RTVSPost2010PropOp47
 70
     0
102
RTVSPost2010Prop48
 90
       50
102
RTVSPost2010PropOp48
 70
     0
102
RTVSPost2010Prop49
280
     0
102
RTVSPost2010PropOp49
 70
     1
102
RTVSPost2010Prop50
 90
       50
102
RTVSPost2010PropOp50
 70
     0
102
RTVSPost2010Prop51ColorIndex
 90
      256
102
RTVSPost2010Prop51ColorRGB
 90
-16777216
102
RTVSPost2010PropOp51
 70
     0
102
RTVSPost2010Prop52
140
1.0
102
RTVSPost2010PropOp52
 70
     0
102
RTVSPost2010Prop53
 90
        2
102
RTVSPost2010PropOp53
 70
     0
102
RTVSPost2010Prop54
  1
strokes_ogs.tif
102
RTVSPost2010PropOp54
 70
     0
102
RTVSPost2010Prop55
280
     0
102
RTVSPost2010PropOp55
 70
     1
102
RTVSPost2010Prop56
140
1.0
102
RTVSPost2010PropOp56
 70
     0
102
RTVSPost2010Prop57
140
1.0
102
RTVSPost2010PropOp57
 70
     0
102
RTVSPropertyOp0
 70
     0
102
RTVSPropertyOp1
 70
     0
102
RTVSPropertyOp2
 70
     0
102
RTVSPropertyOp3
 70
     0
102
RTVSPropertyOp4
 70
     0
102
RTVSPropertyOp5
 70
     0
102
RTVSPropertyOp6
 70
     0
102
RTVSPropertyOp7
 70
     0
102
RTVSPropertyOp8
 70
     0
102
RTVSPropertyOp9
 70
     0
102
RTVSPropertyOp10
 70
     0
102
RTVSPropertyOp11
 70
     0
102
RTVSPropertyOp12
 70
     0
102
RTVSPropertyOp13
 70
     0
102
RTVSPropertyOp14
 70
     2
102
RTVSPropertyOp15
 70
     0
102
RTVSPropertyOp16
 70
     0
102
RTVSPropertyOp17
 70
     0
102
RTVSPropertyOp18
 70
     0
102
RTVSPropertyOp19
 70
     0
102
RTVSPropertyOp20
 70
     0
102
RTVSPropertyOp21
 70
     0
102
RTVSPropertyOp22
 70
     0
102
RTVSPropertyOp23
 70
     0
102
RTVSPropertyOp24
 70
     0
102
RTVSPropertyOp25
 70
     0
102
RTVSPropertyOp26
 70
     0
102
RTVSPropertyOp27
 70
     0
102
RTVSPropertyOp28
 70
     1
102
RTVSPropertyOp29
 70
     1
102
RTVSPropertyOp30
 70
     1
102
RTVSPropertyOp31
 70
     1
102
RTVSPropertyOp32
 70
     1
102
RTVSPropertyOp33
 70
     1
102
RTVSPropertyOp34
 70
     1
102
RTVSPropertyOp35
 70
     1
102
RTVSPropertyOp36
 70
     1
102
RTVSPropertyOp37
 70
     0
102
RTVSPropertyOp38
 70
     0
102
RTVSPropertyOp39
 70
     0
102
RTVSPropertyOp40
 70
     0
102
RTVSPropertyOp41
 70
     0
102
RTVSPropertyOp42
 70
     0
102
RTVSPropertyOp43
 70
     0
102
RTVSPropertyOp44
 70
     0
102
RTVSPropertyOp45
 70
     1
102
RTVSPropertyOp46
 70
     0
102
RTVSPropertyOp47
 70
     0
102
RTVSPropertyOp48
 70
     0
102
RTVSPropertyOp49
 70
     1
102
RTVSPropertyOp50
 70
     0
102
RTVSPropertyOp51
 70
     0
102
RTVSPropertyOp52
 70
     0
102
RTVSPropertyOp53
 70
     0
102
RTVSPropertyOp54
 70
     0
102
RTVSPropertyOp55
 70
     1
102
RTVSPropertyOp56
 70
     0
102
RTVSPropertyOp57
 70
     0
102
RTVSPropertyOp58
 70
     0
102
RTVSPropertyOp59
 70
     0
102
RTVSPropertyOp60
 70
     0
102
RTVSPropertyOp61
 70
     0
102
RTVSPropertyOp62
 70
     0
  0
XRECORD
  5
3A4
102
{ACAD_REACTORS
330
3A3
102
}
330
3A3
100
AcDbXrecord
280
     1
102
RTVSPost2010Prop28
280
     0
102
RTVSPost2010PropOp28
 70
     1
102
RTVSPost2010Prop29
280
     1
102
RTVSPost2010PropOp29
 70
     1
102
RTVSPost2010Prop30
280
     1
102
RTVSPost2010PropOp30
 70
     1
102
RTVSPost2010Prop31
280
     0
102
RTVSPost2010PropOp31
 70
     1
102
RTVSPost2010Prop32
280
     0
102
RTVSPost2010PropOp32
 70
     1
102
RTVSPost2010Prop33
280
     0
102
RTVSPost2010PropOp33
 70
     1
102
RTVSPost2010Prop34
280
     0
102
RTVSPost2010PropOp34
 70
     1
102
RTVSPost2010Prop35
280
     0
102
RTVSPost2010PropOp35
 70
     1
102
RTVSPost2010Prop36
280
     0
102
RTVSPost2010PropOp36
 70
     1
102
RTVSPost2010Prop37
 90
       50
102
RTVSPost2010PropOp37
 70
     1
102
RTVSPost2010Prop38
140
0.0
102
RTVSPost2010PropOp38
 70
     1
102
RTVSPost2010Prop39
140
1.0
102
RTVSPost2010PropOp39
 70
     1
102
RTVSPost2010Prop40
 90
        0
102
RTVSPost2010PropOp40
 70
     1
102
RTVSPost2010Prop41ColorIndex
 90
       18
102
RTVSPost2010Prop41ColorRGB
 90
        0
102
RTVSPost2010PropOp41
 70
     1
102
RTVSPost2010Prop42
 90
       50
102
RTVSPost2010PropOp42
 70
     1
102
RTVSPost2010Prop43
 90
        3
102
RTVSPost2010PropOp43
 70
     1
102
RTVSPost2010Prop44ColorIndex
 90
        5
102
RTVSPost2010Prop44ColorRGB
 90
      255
102
RTVSPost2010PropOp44
 70
     1
102
RTVSPost2010Prop45
280
     0
102
RTVSPost2010PropOp45
 70
     1
102
RTVSPost2010Prop46
 90
       50
102
RTVSPost2010PropOp46
 70
     1
102
RTVSPost2010Prop47
 90
       50
102
RTVSPost2010PropOp47
 70
     1
102
RTVSPost2010Prop48
 90
       50
102
RTVSPost2010PropOp48
 70
     1
102
RTVSPost2010Prop49
280
     0
102
RTVSPost2010PropOp49
 70
     1
102
RTVSPost2010Prop50
 90
       50
102
RTVSPost2010PropOp50
 70
     1
102
RTVSPost2010Prop51ColorIndex
 90
      256
102
RTVSPost2010Prop51ColorRGB
 90
-16777216
102
RTVSPost2010PropOp51
 70
     0
102
RTVSPost2010Prop52
140
1.0
102
RTVSPost2010PropOp52
 70
     0
102
RTVSPost2010Prop53
 90
        2
102
RTVSPost2010PropOp53
 70
     1
102
RTVSPost2010Prop54
  1
strokes_ogs.tif
102
RTVSPost2010PropOp54
 70
     1
102
RTVSPost2010Prop55
280
     0
102
RTVSPost2010PropOp55
 70
     1
102
RTVSPost2010Prop56
140
1.0
102
RTVSPost2010PropOp56
 70
     1
102
RTVSPost2010Prop57
140
1.0
102
RTVSPost2010PropOp57
 70
     1
102
RTVSPropertyOp0
 70
     1
102
RTVSPropertyOp1
 70
     1
102
RTVSPropertyOp2
 70
     1
102
RTVSPropertyOp3
 70
     1
102
RTVSPropertyOp4
 70
     1
102
RTVSPropertyOp5
 70
     1
102
RTVSPropertyOp6
 70
     1
102
RTVSPropertyOp7
 70
     1
102
RTVSPropertyOp8
 70
     1
102
RTVSPropertyOp9
 70
     1
102
RTVSPropertyOp10
 70
     1
102
RTVSPropertyOp11
 70
     1
102
RTVSPropertyOp12
 70
     1
102
RTVSPropertyOp13
 70
     1
102
RTVSPropertyOp14
 70
     1
102
RTVSPropertyOp15
 70
     1
102
RTVSPropertyOp16
 70
     1
102
RTVSPropertyOp17
 70
     1
102
RTVSPropertyOp18
 70
     1
102
RTVSPropertyOp19
 70
     1
102
RTVSPropertyOp20
 70
     1
102
RTVSPropertyOp21
 70
     1
102
RTVSPropertyOp22
 70
     1
102
RTVSPropertyOp23
 70
     1
102
RTVSPropertyOp24
 70
     1
102
RTVSPropertyOp25
 70
     1
102
RTVSPropertyOp26
 70
     1
102
RTVSPropertyOp27
 70
     1
102
RTVSPropertyOp28
 70
     1
102
RTVSPropertyOp29
 70
     1
102
RTVSPropertyOp30
 70
     1
102
RTVSPropertyOp31
 70
     1
102
RTVSPropertyOp32
 70
     1
102
RTVSPropertyOp33
 70
     1
102
RTVSPropertyOp34
 70
     1
102
RTVSPropertyOp35
 70
     1
102
RTVSPropertyOp36
 70
     1
102
RTVSPropertyOp37
 70
     1
102
RTVSPropertyOp38
 70
     1
102
RTVSPropertyOp39
 70
     1
102
RTVSPropertyOp40
 70
     1
102
RTVSPropertyOp41
 70
     1
102
RTVSPropertyOp42
 70
     1
102
RTVSPropertyOp43
 70
     1
102
RTVSPropertyOp44
 70
     1
102
RTVSPropertyOp45
 70
     1
102
RTVSPropertyOp46
 70
     1
102
RTVSPropertyOp47
 70
     1
102
RTVSPropertyOp48
 70
     1
102
RTVSPropertyOp49
 70
     1
102
RTVSPropertyOp50
 70
     1
102
RTVSPropertyOp51
 70
     0
102
RTVSPropertyOp52
 70
     0
102
RTVSPropertyOp53
 70
     1
102
RTVSPropertyOp54
 70
     1
102
RTVSPropertyOp55
 70
     1
102
RTVSPropertyOp56
 70
     1
102
RTVSPropertyOp57
 70
     1
102
RTVSPropertyOp58
 70
     1
102
RTVSPropertyOp59
 70
     1
102
RTVSPropertyOp60
 70
     1
102
RTVSPropertyOp61
 70
     1
102
RTVSPropertyOp62
 70
     1
  0
XRECORD
  5
3B6
102
{ACAD_REACTORS
330
3B5
102
}
330
3B5
100
AcDbXrecord
280
     1
102
RTVSPost2010Prop28
280
     0
102
RTVSPost2010PropOp28
 70
     1
102
RTVSPost2010Prop29
280
     1
102
RTVSPost2010PropOp29
 70
     1
102
RTVSPost2010Prop30
280
     1
102
RTVSPost2010PropOp30
 70
     1
102
RTVSPost2010Prop31
280
     0
102
RTVSPost2010PropOp31
 70
     1
102
RTVSPost2010Prop32
280
     0
102
RTVSPost2010PropOp32
 70
     1
102
RTVSPost2010Prop33
280
     0
102
RTVSPost2010PropOp33
 70
     1
102
RTVSPost2010Prop34
280
     0
102
RTVSPost2010PropOp34
 70
     1
102
RTVSPost2010Prop35
280
     0
102
RTVSPost2010PropOp35
 70
     1
102
RTVSPost2010Prop36
280
     0
102
RTVSPost2010PropOp36
 70
     1
102
RTVSPost2010Prop37
 90
       50
102
RTVSPost2010PropOp37
 70
     0
102
RTVSPost2010Prop38
140
0.0
102
RTVSPost2010PropOp38
 70
     0
102
RTVSPost2010Prop39
140
1.0
102
RTVSPost2010PropOp39
 70
     0
102
RTVSPost2010Prop40
 90
        0
102
RTVSPost2010PropOp40
 70
     0
102
RTVSPost2010Prop41ColorIndex
 90
       18
102
RTVSPost2010Prop41ColorRGB
 90
        0
102
RTVSPost2010PropOp41
 70
     0
102
RTVSPost2010Prop42
 90
       50
102
RTVSPost2010PropOp42
 70
     0
102
RTVSPost2010Prop43
 90
        3
102
RTVSPost2010PropOp43
 70
     0
102
RTVSPost2010Prop44ColorIndex
 90
        5
102
RTVSPost2010Prop44ColorRGB
 90
      255
102
RTVSPost2010PropOp44
 70
     0
102
RTVSPost2010Prop45
280
     0
102
RTVSPost2010PropOp45
 70
     1
102
RTVSPost2010Prop46
 90
       50
102
RTVSPost2010PropOp46
 70
     0
102
RTVSPost2010Prop47
 90
       50
102
RTVSPost2010PropOp47
 70
     0
102
RTVSPost2010Prop48
 90
       50
102
RTVSPost2010PropOp48
 70
     0
102
RTVSPost2010Prop49
280
     0
102
RTVSPost2010PropOp49
 70
     1
102
RTVSPost2010Prop50
 90
       50
102
RTVSPost2010PropOp50
 70
     0
102
RTVSPost2010Prop51ColorIndex
 90
      256
102
RTVSPost2010Prop51ColorRGB
 90
-16777216
102
RTVSPost2010PropOp51
 70
     0
102
RTVSPost2010Prop52
140
1.0
102
RTVSPost2010PropOp52
 70
     0
102
RTVSPost2010Prop53
 90
        2
102
RTVSPost2010PropOp53
 70
     0
102
RTVSPost2010Prop54
  1
strokes_ogs.tif
102
RTVSPost2010PropOp54
 70
     0
102
RTVSPost2010Prop55
280
     0
102
RTVSPost2010PropOp55
 70
     1
102
RTVSPost2010Prop56
140
1.0
102
RTVSPost2010PropOp56
 70
     0
102
RTVSPost2010Prop57
140
1.0
102
RTVSPost2010PropOp57
 70
     0
102
RTVSPropertyOp0
 70
     0
102
RTVSPropertyOp1
 70
     0
102
RTVSPropertyOp2
 70
     0
102
RTVSPropertyOp3
 70
     0
102
RTVSPropertyOp4
 70
     0
102
RTVSPropertyOp5
 70
     0
102
RTVSPropertyOp6
 70
     0
102
RTVSPropertyOp7
 70
     0
102
RTVSPropertyOp8
 70
     0
102
RTVSPropertyOp9
 70
     0
102
RTVSPropertyOp10
 70
     0
102
RTVSPropertyOp11
 70
     0
102
RTVSPropertyOp12
 70
     0
102
RTVSPropertyOp13
 70
     0
102
RTVSPropertyOp14
 70
     2
102
RTVSPropertyOp15
 70
     0
102
RTVSPropertyOp16
 70
     0
102
RTVSPropertyOp17
 70
     0
102
RTVSPropertyOp18
 70
     0
102
RTVSPropertyOp19
 70
     0
102
RTVSPropertyOp20
 70
     0
102
RTVSPropertyOp21
 70
     0
102
RTVSPropertyOp22
 70
     0
102
RTVSPropertyOp23
 70
     0
102
RTVSPropertyOp24
 70
     0
102
RTVSPropertyOp25
 70
     0
102
RTVSPropertyOp26
 70
     0
102
RTVSPropertyOp27
 70
     0
102
RTVSPropertyOp28
 70
     1
102
RTVSPropertyOp29
 70
     1
102
RTVSPropertyOp30
 70
     1
102
RTVSPropertyOp31
 70
     1
102
RTVSPropertyOp32
 70
     1
102
RTVSPropertyOp33
 70
     1
102
RTVSPropertyOp34
 70
     1
102
RTVSPropertyOp35
 70
     1
102
RTVSPropertyOp36
 70
     1
102
RTVSPropertyOp37
 70
     0
102
RTVSPropertyOp38
 70
     0
102
RTVSPropertyOp39
 70
     0
102
RTVSPropertyOp40
 70
     0
102
RTVSPropertyOp41
 70
     0
102
RTVSPropertyOp42
 70
     0
102
RTVSPropertyOp43
 70
     0
102
RTVSPropertyOp44
 70
     0
102
RTVSPropertyOp45
 70
     1
102
RTVSPropertyOp46
 70
     0
102
RTVSPropertyOp47
 70
     0
102
RTVSPropertyOp48
 70
     0
102
RTVSPropertyOp49
 70
     1
102
RTVSPropertyOp50
 70
     0
102
RTVSPropertyOp51
 70
     0
102
RTVSPropertyOp52
 70
     0
102
RTVSPropertyOp53
 70
     0
102
RTVSPropertyOp54
 70
     0
102
RTVSPropertyOp55
 70
     1
102
RTVSPropertyOp56
 70
     0
102
RTVSPropertyOp57
 70
     0
102
RTVSPropertyOp58
 70
     0
102
RTVSPropertyOp59
 70
     0
102
RTVSPropertyOp60
 70
     0
102
RTVSPropertyOp61
 70
     0
102
RTVSPropertyOp62
 70
     0
  0
XRECORD
  5
39C
102
{ACAD_REACTORS
330
39B
102
}
330
39B
100
AcDbXrecord
280
     1
102
RTVSPost2010Prop28
280
     0
102
RTVSPost2010PropOp28
 70
     1
102
RTVSPost2010Prop29
280
     1
102
RTVSPost2010PropOp29
 70
     1
102
RTVSPost2010Prop30
280
     1
102
RTVSPost2010PropOp30
 70
     1
102
RTVSPost2010Prop31
280
     0
102
RTVSPost2010PropOp31
 70
     1
102
RTVSPost2010Prop32
280
     0
102
RTVSPost2010PropOp32
 70
     1
102
RTVSPost2010Prop33
280
     0
102
RTVSPost2010PropOp33
 70
     1
102
RTVSPost2010Prop34
280
     0
102
RTVSPost2010PropOp34
 70
     1
102
RTVSPost2010Prop35
280
     0
102
RTVSPost2010PropOp35
 70
     1
102
RTVSPost2010Prop36
280
     0
102
RTVSPost2010PropOp36
 70
     1
102
RTVSPost2010Prop37
 90
       50
102
RTVSPost2010PropOp37
 70
     1
102
RTVSPost2010Prop38
140
0.0
102
RTVSPost2010PropOp38
 70
     1
102
RTVSPost2010Prop39
140
1.0
102
RTVSPost2010PropOp39
 70
     1
102
RTVSPost2010Prop40
 90
        0
102
RTVSPost2010PropOp40
 70
     1
102
RTVSPost2010Prop41ColorIndex
 90
       18
102
RTVSPost2010Prop41ColorRGB
 90
        0
102
RTVSPost2010PropOp41
 70
     1
102
RTVSPost2010Prop42
 90
       50
102
RTVSPost2010PropOp42
 70
     1
102
RTVSPost2010Prop43
 90
        3
102
RTVSPost2010PropOp43
 70
     1
102
RTVSPost2010Prop44ColorIndex
 90
        5
102
RTVSPost2010Prop44ColorRGB
 90
      255
102
RTVSPost2010PropOp44
 70
     1
102
RTVSPost2010Prop45
280
     0
102
RTVSPost2010PropOp45
 70
     1
102
RTVSPost2010Prop46
 90
       50
102
RTVSPost2010PropOp46
 70
     1
102
RTVSPost2010Prop47
 90
       50
102
RTVSPost2010PropOp47
 70
     1
102
RTVSPost2010Prop48
 90
       50
102
RTVSPost2010PropOp48
 70
     1
102
RTVSPost2010Prop49
280
     0
102
RTVSPost2010PropOp49
 70
     1
102
RTVSPost2010Prop50
 90
       50
102
RTVSPost2010PropOp50
 70
     1
102
RTVSPost2010Prop51ColorIndex
 90
      256
102
RTVSPost2010Prop51ColorRGB
 90
-16777216
102
RTVSPost2010PropOp51
 70
     0
102
RTVSPost2010Prop52
140
1.0
102
RTVSPost2010PropOp52
 70
     0
102
RTVSPost2010Prop53
 90
        2
102
RTVSPost2010PropOp53
 70
     1
102
RTVSPost2010Prop54
  1
strokes_ogs.tif
102
RTVSPost2010PropOp54
 70
     1
102
RTVSPost2010Prop55
280
     0
102
RTVSPost2010PropOp55
 70
     1
102
RTVSPost2010Prop56
140
1.0
102
RTVSPost2010PropOp56
 70
     1
102
RTVSPost2010Prop57
140
1.0
102
RTVSPost2010PropOp57
 70
     1
102
RTVSPropertyOp0
 70
     1
102
RTVSPropertyOp1
 70
     1
102
RTVSPropertyOp2
 70
     1
102
RTVSPropertyOp3
 70
     1
102
RTVSPropertyOp4
 70
     1
102
RTVSPropertyOp5
 70
     1
102
RTVSPropertyOp6
 70
     1
102
RTVSPropertyOp7
 70
     1
102
RTVSPropertyOp8
 70
     1
102
RTVSPropertyOp9
 70
     1
102
RTVSPropertyOp10
 70
     1
102
RTVSPropertyOp11
 70
     1
102
RTVSPropertyOp12
 70
     1
102
RTVSPropertyOp13
 70
     1
102
RTVSPropertyOp14
 70
     1
102
RTVSPropertyOp15
 70
     1
102
RTVSPropertyOp16
 70
     1
102
RTVSPropertyOp17
 70
     1
102
RTVSPropertyOp18
 70
     1
102
RTVSPropertyOp19
 70
     1
102
RTVSPropertyOp20
 70
     1
102
RTVSPropertyOp21
 70
     1
102
RTVSPropertyOp22
 70
     1
102
RTVSPropertyOp23
 70
     1
102
RTVSPropertyOp24
 70
     1
102
RTVSPropertyOp25
 70
     1
102
RTVSPropertyOp26
 70
     1
102
RTVSPropertyOp27
 70
     1
102
RTVSPropertyOp28
 70
     1
102
RTVSPropertyOp29
 70
     1
102
RTVSPropertyOp30
 70
     1
102
RTVSPropertyOp31
 70
     1
102
RTVSPropertyOp32
 70
     1
102
RTVSPropertyOp33
 70
     1
102
RTVSPropertyOp34
 70
     1
102
RTVSPropertyOp35
 70
     1
102
RTVSPropertyOp36
 70
     1
102
RTVSPropertyOp37
 70
     1
102
RTVSPropertyOp38
 70
     1
102
RTVSPropertyOp39
 70
     1
102
RTVSPropertyOp40
 70
     1
102
RTVSPropertyOp41
 70
     1
102
RTVSPropertyOp42
 70
     1
102
RTVSPropertyOp43
 70
     1
102
RTVSPropertyOp44
 70
     1
102
RTVSPropertyOp45
 70
     1
102
RTVSPropertyOp46
 70
     1
102
RTVSPropertyOp47
 70
     1
102
RTVSPropertyOp48
 70
     1
102
RTVSPropertyOp49
 70
     1
102
RTVSPropertyOp50
 70
     1
102
RTVSPropertyOp51
 70
     0
102
RTVSPropertyOp52
 70
     0
102
RTVSPropertyOp53
 70
     1
102
RTVSPropertyOp54
 70
     1
102
RTVSPropertyOp55
 70
     1
102
RTVSPropertyOp56
 70
     1
102
RTVSPropertyOp57
 70
     1
102
RTVSPropertyOp58
 70
     1
102
RTVSPropertyOp59
 70
     1
102
RTVSPropertyOp60
 70
     1
102
RTVSPropertyOp61
 70
     1
102
RTVSPropertyOp62
 70
     1
  0
XRECORD
  5
3B2
102
{ACAD_REACTORS
330
3B1
102
}
330
3B1
100
AcDbXrecord
280
     1
102
RTVSPost2010Prop28
280
     0
102
RTVSPost2010PropOp28
 70
     1
102
RTVSPost2010Prop29
280
     1
102
RTVSPost2010PropOp29
 70
     1
102
RTVSPost2010Prop30
280
     1
102
RTVSPost2010PropOp30
 70
     1
102
RTVSPost2010Prop31
280
     0
102
RTVSPost2010PropOp31
 70
     1
102
RTVSPost2010Prop32
280
     0
102
RTVSPost2010PropOp32
 70
     1
102
RTVSPost2010Prop33
280
     0
102
RTVSPost2010PropOp33
 70
     1
102
RTVSPost2010Prop34
280
     0
102
RTVSPost2010PropOp34
 70
     1
102
RTVSPost2010Prop35
280
     0
102
RTVSPost2010PropOp35
 70
     1
102
RTVSPost2010Prop36
280
     0
102
RTVSPost2010PropOp36
 70
     1
102
RTVSPost2010Prop37
 90
       50
102
RTVSPost2010PropOp37
 70
     1
102
RTVSPost2010Prop38
140
0.0
102
RTVSPost2010PropOp38
 70
     1
102
RTVSPost2010Prop39
140
1.0
102
RTVSPost2010PropOp39
 70
     1
102
RTVSPost2010Prop40
 90
        0
102
RTVSPost2010PropOp40
 70
     1
102
RTVSPost2010Prop41ColorIndex
 90
       18
102
RTVSPost2010Prop41ColorRGB
 90
        0
102
RTVSPost2010PropOp41
 70
     1
102
RTVSPost2010Prop42
 90
       50
102
RTVSPost2010PropOp42
 70
     1
102
RTVSPost2010Prop43
 90
        3
102
RTVSPost2010PropOp43
 70
     1
102
RTVSPost2010Prop44ColorIndex
 90
        5
102
RTVSPost2010Prop44ColorRGB
 90
      255
102
RTVSPost2010PropOp44
 70
     1
102
RTVSPost2010Prop45
280
     0
102
RTVSPost2010PropOp45
 70
     1
102
RTVSPost2010Prop46
 90
       50
102
RTVSPost2010PropOp46
 70
     1
102
RTVSPost2010Prop47
 90
       50
102
RTVSPost2010PropOp47
 70
     1
102
RTVSPost2010Prop48
 90
       50
102
RTVSPost2010PropOp48
 70
     1
102
RTVSPost2010Prop49
280
     0
102
RTVSPost2010PropOp49
 70
     1
102
RTVSPost2010Prop50
 90
       50
102
RTVSPost2010PropOp50
 70
     1
102
RTVSPost2010Prop51ColorIndex
 90
      256
102
RTVSPost2010Prop51ColorRGB
 90
-16777216
102
RTVSPost2010PropOp51
 70
     0
102
RTVSPost2010Prop52
140
1.0
102
RTVSPost2010PropOp52
 70
     0
102
RTVSPost2010Prop53
 90
        2
102
RTVSPost2010PropOp53
 70
     1
102
RTVSPost2010Prop54
  1
strokes_ogs.tif
102
RTVSPost2010PropOp54
 70
     1
102
RTVSPost2010Prop55
280
     0
102
RTVSPost2010PropOp55
 70
     1
102
RTVSPost2010Prop56
140
1.0
102
RTVSPost2010PropOp56
 70
     1
102
RTVSPost2010Prop57
140
1.0
102
RTVSPost2010PropOp57
 70
     1
102
RTVSPropertyOp0
 70
     1
102
RTVSPropertyOp1
 70
     1
102
RTVSPropertyOp2
 70
     1
102
RTVSPropertyOp3
 70
     1
102
RTVSPropertyOp4
 70
     1
102
RTVSPropertyOp5
 70
     1
102
RTVSPropertyOp6
 70
     1
102
RTVSPropertyOp7
 70
     1
102
RTVSPropertyOp8
 70
     1
102
RTVSPropertyOp9
 70
     1
102
RTVSPropertyOp10
 70
     1
102
RTVSPropertyOp11
 70
     1
102
RTVSPropertyOp12
 70
     1
102
RTVSPropertyOp13
 70
     1
102
RTVSPropertyOp14
 70
     1
102
RTVSPropertyOp15
 70
     1
102
RTVSPropertyOp16
 70
     1
102
RTVSPropertyOp17
 70
     1
102
RTVSPropertyOp18
 70
     1
102
RTVSPropertyOp19
 70
     1
102
RTVSPropertyOp20
 70
     1
102
RTVSPropertyOp21
 70
     1
102
RTVSPropertyOp22
 70
     1
102
RTVSPropertyOp23
 70
     1
102
RTVSPropertyOp24
 70
     1
102
RTVSPropertyOp25
 70
     1
102
RTVSPropertyOp26
 70
     1
102
RTVSPropertyOp27
 70
     1
102
RTVSPropertyOp28
 70
     1
102
RTVSPropertyOp29
 70
     1
102
RTVSPropertyOp30
 70
     1
102
RTVSPropertyOp31
 70
     1
102
RTVSPropertyOp32
 70
     1
102
RTVSPropertyOp33
 70
     1
102
RTVSPropertyOp34
 70
     1
102
RTVSPropertyOp35
 70
     1
102
RTVSPropertyOp36
 70
     1
102
RTVSPropertyOp37
 70
     1
102
RTVSPropertyOp38
 70
     1
102
RTVSPropertyOp39
 70
     1
102
RTVSPropertyOp40
 70
     1
102
RTVSPropertyOp41
 70
     1
102
RTVSPropertyOp42
 70
     1
102
RTVSPropertyOp43
 70
     1
102
RTVSPropertyOp44
 70
     1
102
RTVSPropertyOp45
 70
     1
102
RTVSPropertyOp46
 70
     1
102
RTVSPropertyOp47
 70
     1
102
RTVSPropertyOp48
 70
     1
102
RTVSPropertyOp49
 70
     1
102
RTVSPropertyOp50
 70
     1
102
RTVSPropertyOp51
 70
     0
102
RTVSPropertyOp52
 70
     0
102
RTVSPropertyOp53
 70
     1
102
RTVSPropertyOp54
 70
     1
102
RTVSPropertyOp55
 70
     1
102
RTVSPropertyOp56
 70
     1
102
RTVSPropertyOp57
 70
     1
102
RTVSPropertyOp58
 70
     1
102
RTVSPropertyOp59
 70
     1
102
RTVSPropertyOp60
 70
     1
102
RTVSPropertyOp61
 70
     1
102
RTVSPropertyOp62
 70
     1
  0
XRECORD
  5
3B0
102
{ACAD_REACTORS
330
3AF
102
}
330
3AF
100
AcDbXrecord
280
     1
102
RTVSPost2010Prop28
280
     0
102
RTVSPost2010PropOp28
 70
     1
102
RTVSPost2010Prop29
280
     1
102
RTVSPost2010PropOp29
 70
     1
102
RTVSPost2010Prop30
280
     1
102
RTVSPost2010PropOp30
 70
     1
102
RTVSPost2010Prop31
280
     0
102
RTVSPost2010PropOp31
 70
     1
102
RTVSPost2010Prop32
280
     0
102
RTVSPost2010PropOp32
 70
     1
102
RTVSPost2010Prop33
280
     0
102
RTVSPost2010PropOp33
 70
     1
102
RTVSPost2010Prop34
280
     0
102
RTVSPost2010PropOp34
 70
     1
102
RTVSPost2010Prop35
280
     0
102
RTVSPost2010PropOp35
 70
     1
102
RTVSPost2010Prop36
280
     0
102
RTVSPost2010PropOp36
 70
     1
102
RTVSPost2010Prop37
 90
       50
102
RTVSPost2010PropOp37
 70
     1
102
RTVSPost2010Prop38
140
0.0
102
RTVSPost2010PropOp38
 70
     1
102
RTVSPost2010Prop39
140
1.0
102
RTVSPost2010PropOp39
 70
     1
102
RTVSPost2010Prop40
 90
        0
102
RTVSPost2010PropOp40
 70
     1
102
RTVSPost2010Prop41ColorIndex
 90
       18
102
RTVSPost2010Prop41ColorRGB
 90
        0
102
RTVSPost2010PropOp41
 70
     1
102
RTVSPost2010Prop42
 90
       50
102
RTVSPost2010PropOp42
 70
     1
102
RTVSPost2010Prop43
 90
        3
102
RTVSPost2010PropOp43
 70
     1
102
RTVSPost2010Prop44ColorIndex
 90
        5
102
RTVSPost2010Prop44ColorRGB
 90
      255
102
RTVSPost2010PropOp44
 70
     1
102
RTVSPost2010Prop45
280
     0
102
RTVSPost2010PropOp45
 70
     1
102
RTVSPost2010Prop46
 90
       50
102
RTVSPost2010PropOp46
 70
     1
102
RTVSPost2010Prop47
 90
       50
102
RTVSPost2010PropOp47
 70
     1
102
RTVSPost2010Prop48
 90
       50
102
RTVSPost2010PropOp48
 70
     1
102
RTVSPost2010Prop49
280
     0
102
RTVSPost2010PropOp49
 70
     1
102
RTVSPost2010Prop50
 90
       50
102
RTVSPost2010PropOp50
 70
     1
102
RTVSPost2010Prop51ColorIndex
 90
      256
102
RTVSPost2010Prop51ColorRGB
 90
-16777216
102
RTVSPost2010PropOp51
 70
     0
102
RTVSPost2010Prop52
140
1.0
102
RTVSPost2010PropOp52
 70
     0
102
RTVSPost2010Prop53
 90
        2
102
RTVSPost2010PropOp53
 70
     1
102
RTVSPost2010Prop54
  1
strokes_ogs.tif
102
RTVSPost2010PropOp54
 70
     1
102
RTVSPost2010Prop55
280
     0
102
RTVSPost2010PropOp55
 70
     1
102
RTVSPost2010Prop56
140
1.0
102
RTVSPost2010PropOp56
 70
     1
102
RTVSPost2010Prop57
140
1.0
102
RTVSPost2010PropOp57
 70
     1
102
RTVSPropertyOp0
 70
     1
102
RTVSPropertyOp1
 70
     1
102
RTVSPropertyOp2
 70
     1
102
RTVSPropertyOp3
 70
     1
102
RTVSPropertyOp4
 70
     1
102
RTVSPropertyOp5
 70
     1
102
RTVSPropertyOp6
 70
     1
102
RTVSPropertyOp7
 70
     1
102
RTVSPropertyOp8
 70
     1
102
RTVSPropertyOp9
 70
     1
102
RTVSPropertyOp10
 70
     1
102
RTVSPropertyOp11
 70
     1
102
RTVSPropertyOp12
 70
     1
102
RTVSPropertyOp13
 70
     1
102
RTVSPropertyOp14
 70
     1
102
RTVSPropertyOp15
 70
     1
102
RTVSPropertyOp16
 70
     1
102
RTVSPropertyOp17
 70
     1
102
RTVSPropertyOp18
 70
     1
102
RTVSPropertyOp19
 70
     1
102
RTVSPropertyOp20
 70
     1
102
RTVSPropertyOp21
 70
     1
102
RTVSPropertyOp22
 70
     1
102
RTVSPropertyOp23
 70
     1
102
RTVSPropertyOp24
 70
     1
102
RTVSPropertyOp25
 70
     1
102
RTVSPropertyOp26
 70
     1
102
RTVSPropertyOp27
 70
     1
102
RTVSPropertyOp28
 70
     1
102
RTVSPropertyOp29
 70
     1
102
RTVSPropertyOp30
 70
     1
102
RTVSPropertyOp31
 70
     1
102
RTVSPropertyOp32
 70
     1
102
RTVSPropertyOp33
 70
     1
102
RTVSPropertyOp34
 70
     1
102
RTVSPropertyOp35
 70
     1
102
RTVSPropertyOp36
 70
     1
102
RTVSPropertyOp37
 70
     1
102
RTVSPropertyOp38
 70
     1
102
RTVSPropertyOp39
 70
     1
102
RTVSPropertyOp40
 70
     1
102
RTVSPropertyOp41
 70
     1
102
RTVSPropertyOp42
 70
     1
102
RTVSPropertyOp43
 70
     1
102
RTVSPropertyOp44
 70
     1
102
RTVSPropertyOp45
 70
     1
102
RTVSPropertyOp46
 70
     1
102
RTVSPropertyOp47
 70
     1
102
RTVSPropertyOp48
 70
     1
102
RTVSPropertyOp49
 70
     1
102
RTVSPropertyOp50
 70
     1
102
RTVSPropertyOp51
 70
     0
102
RTVSPropertyOp52
 70
     0
102
RTVSPropertyOp53
 70
     1
102
RTVSPropertyOp54
 70
     1
102
RTVSPropertyOp55
 70
     1
102
RTVSPropertyOp56
 70
     1
102
RTVSPropertyOp57
 70
     1
102
RTVSPropertyOp58
 70
     1
102
RTVSPropertyOp59
 70
     1
102
RTVSPropertyOp60
 70
     1
102
RTVSPropertyOp61
 70
     1
102
RTVSPropertyOp62
 70
     1
  0
XRECORD
  5
3AA
102
{ACAD_REACTORS
330
3A9
102
}
330
3A9
100
AcDbXrecord
280
     1
102
RTVSPost2010Prop28
280
     0
102
RTVSPost2010PropOp28
 70
     1
102
RTVSPost2010Prop29
280
     1
102
RTVSPost2010PropOp29
 70
     1
102
RTVSPost2010Prop30
280
     1
102
RTVSPost2010PropOp30
 70
     1
102
RTVSPost2010Prop31
280
     0
102
RTVSPost2010PropOp31
 70
     1
102
RTVSPost2010Prop32
280
     0
102
RTVSPost2010PropOp32
 70
     1
102
RTVSPost2010Prop33
280
     0
102
RTVSPost2010PropOp33
 70
     1
102
RTVSPost2010Prop34
280
     0
102
RTVSPost2010PropOp34
 70
     1
102
RTVSPost2010Prop35
280
     0
102
RTVSPost2010PropOp35
 70
     1
102
RTVSPost2010Prop36
280
     0
102
RTVSPost2010PropOp36
 70
     1
102
RTVSPost2010Prop37
 90
       50
102
RTVSPost2010PropOp37
 70
     1
102
RTVSPost2010Prop38
140
0.0
102
RTVSPost2010PropOp38
 70
     1
102
RTVSPost2010Prop39
140
1.0
102
RTVSPost2010PropOp39
 70
     1
102
RTVSPost2010Prop40
 90
        0
102
RTVSPost2010PropOp40
 70
     1
102
RTVSPost2010Prop41ColorIndex
 90
       18
102
RTVSPost2010Prop41ColorRGB
 90
        0
102
RTVSPost2010PropOp41
 70
     1
102
RTVSPost2010Prop42
 90
       50
102
RTVSPost2010PropOp42
 70
     1
102
RTVSPost2010Prop43
 90
        3
102
RTVSPost2010PropOp43
 70
     1
102
RTVSPost2010Prop44ColorIndex
 90
        5
102
RTVSPost2010Prop44ColorRGB
 90
      255
102
RTVSPost2010PropOp44
 70
     1
102
RTVSPost2010Prop45
280
     0
102
RTVSPost2010PropOp45
 70
     1
102
RTVSPost2010Prop46
 90
       50
102
RTVSPost2010PropOp46
 70
     1
102
RTVSPost2010Prop47
 90
       50
102
RTVSPost2010PropOp47
 70
     1
102
RTVSPost2010Prop48
 90
       50
102
RTVSPost2010PropOp48
 70
     1
102
RTVSPost2010Prop49
280
     0
102
RTVSPost2010PropOp49
 70
     1
102
RTVSPost2010Prop50
 90
       50
102
RTVSPost2010PropOp50
 70
     1
102
RTVSPost2010Prop51ColorIndex
 90
      256
102
RTVSPost2010Prop51ColorRGB
 90
-16777216
102
RTVSPost2010PropOp51
 70
     0
102
RTVSPost2010Prop52
140
1.0
102
RTVSPost2010PropOp52
 70
     0
102
RTVSPost2010Prop53
 90
        2
102
RTVSPost2010PropOp53
 70
     1
102
RTVSPost2010Prop54
  1
strokes_ogs.tif
102
RTVSPost2010PropOp54
 70
     1
102
RTVSPost2010Prop55
280
     0
102
RTVSPost2010PropOp55
 70
     1
102
RTVSPost2010Prop56
140
1.0
102
RTVSPost2010PropOp56
 70
     1
102
RTVSPost2010Prop57
140
1.0
102
RTVSPost2010PropOp57
 70
     1
102
RTVSPropertyOp0
 70
     1
102
RTVSPropertyOp1
 70
     1
102
RTVSPropertyOp2
 70
     1
102
RTVSPropertyOp3
 70
     1
102
RTVSPropertyOp4
 70
     1
102
RTVSPropertyOp5
 70
     1
102
RTVSPropertyOp6
 70
     1
102
RTVSPropertyOp7
 70
     1
102
RTVSPropertyOp8
 70
     1
102
RTVSPropertyOp9
 70
     1
102
RTVSPropertyOp10
 70
     1
102
RTVSPropertyOp11
 70
     1
102
RTVSPropertyOp12
 70
     1
102
RTVSPropertyOp13
 70
     1
102
RTVSPropertyOp14
 70
     1
102
RTVSPropertyOp15
 70
     1
102
RTVSPropertyOp16
 70
     1
102
RTVSPropertyOp17
 70
     1
102
RTVSPropertyOp18
 70
     1
102
RTVSPropertyOp19
 70
     1
102
RTVSPropertyOp20
 70
     1
102
RTVSPropertyOp21
 70
     1
102
RTVSPropertyOp22
 70
     1
102
RTVSPropertyOp23
 70
     1
102
RTVSPropertyOp24
 70
     1
102
RTVSPropertyOp25
 70
     1
102
RTVSPropertyOp26
 70
     1
102
RTVSPropertyOp27
 70
     1
102
RTVSPropertyOp28
 70
     1
102
RTVSPropertyOp29
 70
     1
102
RTVSPropertyOp30
 70
     1
102
RTVSPropertyOp31
 70
     1
102
RTVSPropertyOp32
 70
     1
102
RTVSPropertyOp33
 70
     1
102
RTVSPropertyOp34
 70
     1
102
RTVSPropertyOp35
 70
     1
102
RTVSPropertyOp36
 70
     1
102
RTVSPropertyOp37
 70
     1
102
RTVSPropertyOp38
 70
     1
102
RTVSPropertyOp39
 70
     1
102
RTVSPropertyOp40
 70
     1
102
RTVSPropertyOp41
 70
     1
102
RTVSPropertyOp42
 70
     1
102
RTVSPropertyOp43
 70
     1
102
RTVSPropertyOp44
 70
     1
102
RTVSPropertyOp45
 70
     1
102
RTVSPropertyOp46
 70
     1
102
RTVSPropertyOp47
 70
     1
102
RTVSPropertyOp48
 70
     1
102
RTVSPropertyOp49
 70
     1
102
RTVSPropertyOp50
 70
     1
102
RTVSPropertyOp51
 70
     0
102
RTVSPropertyOp52
 70
     0
102
RTVSPropertyOp53
 70
     1
102
RTVSPropertyOp54
 70
     1
102
RTVSPropertyOp55
 70
     1
102
RTVSPropertyOp56
 70
     1
102
RTVSPropertyOp57
 70
     1
102
RTVSPropertyOp58
 70
     1
102
RTVSPropertyOp59
 70
     1
102
RTVSPropertyOp60
 70
     1
102
RTVSPropertyOp61
 70
     1
102
RTVSPropertyOp62
 70
     1
  0
XRECORD
  5
3AC
102
{ACAD_REACTORS
330
3AB
102
}
330
3AB
100
AcDbXrecord
280
     1
102
RTVSPost2010Prop28
280
     0
102
RTVSPost2010PropOp28
 70
     1
102
RTVSPost2010Prop29
280
     1
102
RTVSPost2010PropOp29
 70
     1
102
RTVSPost2010Prop30
280
     1
102
RTVSPost2010PropOp30
 70
     1
102
RTVSPost2010Prop31
280
     0
102
RTVSPost2010PropOp31
 70
     1
102
RTVSPost2010Prop32
280
     0
102
RTVSPost2010PropOp32
 70
     1
102
RTVSPost2010Prop33
280
     0
102
RTVSPost2010PropOp33
 70
     1
102
RTVSPost2010Prop34
280
     0
102
RTVSPost2010PropOp34
 70
     1
102
RTVSPost2010Prop35
280
     0
102
RTVSPost2010PropOp35
 70
     1
102
RTVSPost2010Prop36
280
     0
102
RTVSPost2010PropOp36
 70
     1
102
RTVSPost2010Prop37
 90
       50
102
RTVSPost2010PropOp37
 70
     1
102
RTVSPost2010Prop38
140
0.0
102
RTVSPost2010PropOp38
 70
     1
102
RTVSPost2010Prop39
140
1.0
102
RTVSPost2010PropOp39
 70
     1
102
RTVSPost2010Prop40
 90
        0
102
RTVSPost2010PropOp40
 70
     1
102
RTVSPost2010Prop41ColorIndex
 90
       18
102
RTVSPost2010Prop41ColorRGB
 90
        0
102
RTVSPost2010PropOp41
 70
     1
102
RTVSPost2010Prop42
 90
       50
102
RTVSPost2010PropOp42
 70
     1
102
RTVSPost2010Prop43
 90
        3
102
RTVSPost2010PropOp43
 70
     1
102
RTVSPost2010Prop44ColorIndex
 90
        5
102
RTVSPost2010Prop44ColorRGB
 90
      255
102
RTVSPost2010PropOp44
 70
     1
102
RTVSPost2010Prop45
280
     0
102
RTVSPost2010PropOp45
 70
     1
102
RTVSPost2010Prop46
 90
       50
102
RTVSPost2010PropOp46
 70
     1
102
RTVSPost2010Prop47
 90
       50
102
RTVSPost2010PropOp47
 70
     1
102
RTVSPost2010Prop48
 90
       50
102
RTVSPost2010PropOp48
 70
     1
102
RTVSPost2010Prop49
280
     0
102
RTVSPost2010PropOp49
 70
     1
102
RTVSPost2010Prop50
 90
       50
102
RTVSPost2010PropOp50
 70
     1
102
RTVSPost2010Prop51ColorIndex
 90
      256
102
RTVSPost2010Prop51ColorRGB
 90
-16777216
102
RTVSPost2010PropOp51
 70
     0
102
RTVSPost2010Prop52
140
1.0
102
RTVSPost2010PropOp52
 70
     0
102
RTVSPost2010Prop53
 90
        2
102
RTVSPost2010PropOp53
 70
     1
102
RTVSPost2010Prop54
  1
strokes_ogs.tif
102
RTVSPost2010PropOp54
 70
     1
102
RTVSPost2010Prop55
280
     0
102
RTVSPost2010PropOp55
 70
     1
102
RTVSPost2010Prop56
140
1.0
102
RTVSPost2010PropOp56
 70
     1
102
RTVSPost2010Prop57
140
1.0
102
RTVSPost2010PropOp57
 70
     1
102
RTVSPropertyOp0
 70
     1
102
RTVSPropertyOp1
 70
     1
102
RTVSPropertyOp2
 70
     1
102
RTVSPropertyOp3
 70
     1
102
RTVSPropertyOp4
 70
     1
102
RTVSPropertyOp5
 70
     1
102
RTVSPropertyOp6
 70
     1
102
RTVSPropertyOp7
 70
     1
102
RTVSPropertyOp8
 70
     1
102
RTVSPropertyOp9
 70
     1
102
RTVSPropertyOp10
 70
     1
102
RTVSPropertyOp11
 70
     1
102
RTVSPropertyOp12
 70
     1
102
RTVSPropertyOp13
 70
     1
102
RTVSPropertyOp14
 70
     1
102
RTVSPropertyOp15
 70
     1
102
RTVSPropertyOp16
 70
     1
102
RTVSPropertyOp17
 70
     1
102
RTVSPropertyOp18
 70
     1
102
RTVSPropertyOp19
 70
     1
102
RTVSPropertyOp20
 70
     1
102
RTVSPropertyOp21
 70
     1
102
RTVSPropertyOp22
 70
     1
102
RTVSPropertyOp23
 70
     1
102
RTVSPropertyOp24
 70
     1
102
RTVSPropertyOp25
 70
     1
102
RTVSPropertyOp26
 70
     1
102
RTVSPropertyOp27
 70
     1
102
RTVSPropertyOp28
 70
     1
102
RTVSPropertyOp29
 70
     1
102
RTVSPropertyOp30
 70
     1
102
RTVSPropertyOp31
 70
     1
102
RTVSPropertyOp32
 70
     1
102
RTVSPropertyOp33
 70
     1
102
RTVSPropertyOp34
 70
     1
102
RTVSPropertyOp35
 70
     1
102
RTVSPropertyOp36
 70
     1
102
RTVSPropertyOp37
 70
     1
102
RTVSPropertyOp38
 70
     1
102
RTVSPropertyOp39
 70
     1
102
RTVSPropertyOp40
 70
     1
102
RTVSPropertyOp41
 70
     1
102
RTVSPropertyOp42
 70
     1
102
RTVSPropertyOp43
 70
     1
102
RTVSPropertyOp44
 70
     1
102
RTVSPropertyOp45
 70
     1
102
RTVSPropertyOp46
 70
     1
102
RTVSPropertyOp47
 70
     1
102
RTVSPropertyOp48
 70
     1
102
RTVSPropertyOp49
 70
     1
102
RTVSPropertyOp50
 70
     1
102
RTVSPropertyOp51
 70
     0
102
RTVSPropertyOp52
 70
     0
102
RTVSPropertyOp53
 70
     1
102
RTVSPropertyOp54
 70
     1
102
RTVSPropertyOp55
 70
     1
102
RTVSPropertyOp56
 70
     1
102
RTVSPropertyOp57
 70
     1
102
RTVSPropertyOp58
 70
     1
102
RTVSPropertyOp59
 70
     1
102
RTVSPropertyOp60
 70
     1
102
RTVSPropertyOp61
 70
     1
102
RTVSPropertyOp62
 70
     1
  0
XRECORD
  5
3A2
102
{ACAD_REACTORS
330
3A1
102
}
330
3A1
100
AcDbXrecord
280
     1
102
RTVSPost2010Prop28
280
     0
102
RTVSPost2010PropOp28
 70
     1
102
RTVSPost2010Prop29
280
     1
102
RTVSPost2010PropOp29
 70
     1
102
RTVSPost2010Prop30
280
     1
102
RTVSPost2010PropOp30
 70
     1
102
RTVSPost2010Prop31
280
     0
102
RTVSPost2010PropOp31
 70
     1
102
RTVSPost2010Prop32
280
     0
102
RTVSPost2010PropOp32
 70
     1
102
RTVSPost2010Prop33
280
     0
102
RTVSPost2010PropOp33
 70
     1
102
RTVSPost2010Prop34
280
     0
102
RTVSPost2010PropOp34
 70
     1
102
RTVSPost2010Prop35
280
     0
102
RTVSPost2010PropOp35
 70
     1
102
RTVSPost2010Prop36
280
     0
102
RTVSPost2010PropOp36
 70
     1
102
RTVSPost2010Prop37
 90
       50
102
RTVSPost2010PropOp37
 70
     1
102
RTVSPost2010Prop38
140
0.0
102
RTVSPost2010PropOp38
 70
     1
102
RTVSPost2010Prop39
140
1.0
102
RTVSPost2010PropOp39
 70
     1
102
RTVSPost2010Prop40
 90
        0
102
RTVSPost2010PropOp40
 70
     1
102
RTVSPost2010Prop41ColorIndex
 90
       18
102
RTVSPost2010Prop41ColorRGB
 90
        0
102
RTVSPost2010PropOp41
 70
     1
102
RTVSPost2010Prop42
 90
       50
102
RTVSPost2010PropOp42
 70
     1
102
RTVSPost2010Prop43
 90
        3
102
RTVSPost2010PropOp43
 70
     1
102
RTVSPost2010Prop44ColorIndex
 90
        5
102
RTVSPost2010Prop44ColorRGB
 90
      255
102
RTVSPost2010PropOp44
 70
     1
102
RTVSPost2010Prop45
280
     0
102
RTVSPost2010PropOp45
 70
     1
102
RTVSPost2010Prop46
 90
       50
102
RTVSPost2010PropOp46
 70
     1
102
RTVSPost2010Prop47
 90
       50
102
RTVSPost2010PropOp47
 70
     1
102
RTVSPost2010Prop48
 90
       50
102
RTVSPost2010PropOp48
 70
     1
102
RTVSPost2010Prop49
280
     0
102
RTVSPost2010PropOp49
 70
     1
102
RTVSPost2010Prop50
 90
       50
102
RTVSPost2010PropOp50
 70
     1
102
RTVSPost2010Prop51ColorIndex
 90
      256
102
RTVSPost2010Prop51ColorRGB
 90
-16777216
102
RTVSPost2010PropOp51
 70
     0
102
RTVSPost2010Prop52
140
1.0
102
RTVSPost2010PropOp52
 70
     0
102
RTVSPost2010Prop53
 90
        2
102
RTVSPost2010PropOp53
 70
     1
102
RTVSPost2010Prop54
  1
strokes_ogs.tif
102
RTVSPost2010PropOp54
 70
     1
102
RTVSPost2010Prop55
280
     0
102
RTVSPost2010PropOp55
 70
     1
102
RTVSPost2010Prop56
140
1.0
102
RTVSPost2010PropOp56
 70
     1
102
RTVSPost2010Prop57
140
1.0
102
RTVSPost2010PropOp57
 70
     1
102
RTVSPropertyOp0
 70
     1
102
RTVSPropertyOp1
 70
     1
102
RTVSPropertyOp2
 70
     1
102
RTVSPropertyOp3
 70
     1
102
RTVSPropertyOp4
 70
     1
102
RTVSPropertyOp5
 70
     1
102
RTVSPropertyOp6
 70
     1
102
RTVSPropertyOp7
 70
     1
102
RTVSPropertyOp8
 70
     1
102
RTVSPropertyOp9
 70
     1
102
RTVSPropertyOp10
 70
     1
102
RTVSPropertyOp11
 70
     1
102
RTVSPropertyOp12
 70
     1
102
RTVSPropertyOp13
 70
     1
102
RTVSPropertyOp14
 70
     1
102
RTVSPropertyOp15
 70
     1
102
RTVSPropertyOp16
 70
     1
102
RTVSPropertyOp17
 70
     1
102
RTVSPropertyOp18
 70
     1
102
RTVSPropertyOp19
 70
     1
102
RTVSPropertyOp20
 70
     1
102
RTVSPropertyOp21
 70
     1
102
RTVSPropertyOp22
 70
     1
102
RTVSPropertyOp23
 70
     1
102
RTVSPropertyOp24
 70
     1
102
RTVSPropertyOp25
 70
     1
102
RTVSPropertyOp26
 70
     1
102
RTVSPropertyOp27
 70
     1
102
RTVSPropertyOp28
 70
     1
102
RTVSPropertyOp29
 70
     1
102
RTVSPropertyOp30
 70
     1
102
RTVSPropertyOp31
 70
     1
102
RTVSPropertyOp32
 70
     1
102
RTVSPropertyOp33
 70
     1
102
RTVSPropertyOp34
 70
     1
102
RTVSPropertyOp35
 70
     1
102
RTVSPropertyOp36
 70
     1
102
RTVSPropertyOp37
 70
     1
102
RTVSPropertyOp38
 70
     1
102
RTVSPropertyOp39
 70
     1
102
RTVSPropertyOp40
 70
     1
102
RTVSPropertyOp41
 70
     1
102
RTVSPropertyOp42
 70
     1
102
RTVSPropertyOp43
 70
     1
102
RTVSPropertyOp44
 70
     1
102
RTVSPropertyOp45
 70
     1
102
RTVSPropertyOp46
 70
     1
102
RTVSPropertyOp47
 70
     1
102
RTVSPropertyOp48
 70
     1
102
RTVSPropertyOp49
 70
     1
102
RTVSPropertyOp50
 70
     1
102
RTVSPropertyOp51
 70
     0
102
RTVSPropertyOp52
 70
     0
102
RTVSPropertyOp53
 70
     1
102
RTVSPropertyOp54
 70
     1
102
RTVSPropertyOp55
 70
     1
102
RTVSPropertyOp56
 70
     1
102
RTVSPropertyOp57
 70
     1
102
RTVSPropertyOp58
 70
     1
102
RTVSPropertyOp59
 70
     1
102
RTVSPropertyOp60
 70
     1
102
RTVSPropertyOp61
 70
     1
102
RTVSPropertyOp62
 70
     1
  0
XRECORD
  5
396
102
{ACAD_REACTORS
330
395
102
}
330
395
100
AcDbXrecord
280
     1
102
RTVSPost2010Prop28
280
     0
102
RTVSPost2010PropOp28
 70
     1
102
RTVSPost2010Prop29
280
     1
102
RTVSPost2010PropOp29
 70
     1
102
RTVSPost2010Prop30
280
     1
102
RTVSPost2010PropOp30
 70
     1
102
RTVSPost2010Prop31
280
     0
102
RTVSPost2010PropOp31
 70
     1
102
RTVSPost2010Prop32
280
     0
102
RTVSPost2010PropOp32
 70
     1
102
RTVSPost2010Prop33
280
     0
102
RTVSPost2010PropOp33
 70
     1
102
RTVSPost2010Prop34
280
     0
102
RTVSPost2010PropOp34
 70
     1
102
RTVSPost2010Prop35
280
     0
102
RTVSPost2010PropOp35
 70
     1
102
RTVSPost2010Prop36
280
     0
102
RTVSPost2010PropOp36
 70
     1
102
RTVSPost2010Prop37
 90
       50
102
RTVSPost2010PropOp37
 70
     1
102
RTVSPost2010Prop38
140
0.0
102
RTVSPost2010PropOp38
 70
     1
102
RTVSPost2010Prop39
140
1.0
102
RTVSPost2010PropOp39
 70
     1
102
RTVSPost2010Prop40
 90
        0
102
RTVSPost2010PropOp40
 70
     1
102
RTVSPost2010Prop41ColorIndex
 90
       18
102
RTVSPost2010Prop41ColorRGB
 90
        0
102
RTVSPost2010PropOp41
 70
     1
102
RTVSPost2010Prop42
 90
       50
102
RTVSPost2010PropOp42
 70
     1
102
RTVSPost2010Prop43
 90
        3
102
RTVSPost2010PropOp43
 70
     1
102
RTVSPost2010Prop44ColorIndex
 90
        5
102
RTVSPost2010Prop44ColorRGB
 90
      255
102
RTVSPost2010PropOp44
 70
     1
102
RTVSPost2010Prop45
280
     0
102
RTVSPost2010PropOp45
 70
     1
102
RTVSPost2010Prop46
 90
       50
102
RTVSPost2010PropOp46
 70
     1
102
RTVSPost2010Prop47
 90
       50
102
RTVSPost2010PropOp47
 70
     1
102
RTVSPost2010Prop48
 90
       50
102
RTVSPost2010PropOp48
 70
     1
102
RTVSPost2010Prop49
280
     0
102
RTVSPost2010PropOp49
 70
     1
102
RTVSPost2010Prop50
 90
       50
102
RTVSPost2010PropOp50
 70
     1
102
RTVSPost2010Prop51ColorIndex
 90
      256
102
RTVSPost2010Prop51ColorRGB
 90
-16777216
102
RTVSPost2010PropOp51
 70
     0
102
RTVSPost2010Prop52
140
1.0
102
RTVSPost2010PropOp52
 70
     0
102
RTVSPost2010Prop53
 90
        2
102
RTVSPost2010PropOp53
 70
     1
102
RTVSPost2010Prop54
  1
strokes_ogs.tif
102
RTVSPost2010PropOp54
 70
     1
102
RTVSPost2010Prop55
280
     0
102
RTVSPost2010PropOp55
 70
     1
102
RTVSPost2010Prop56
140
1.0
102
RTVSPost2010PropOp56
 70
     1
102
RTVSPost2010Prop57
140
1.0
102
RTVSPost2010PropOp57
 70
     1
102
RTVSPropertyOp0
 70
     1
102
RTVSPropertyOp1
 70
     1
102
RTVSPropertyOp2
 70
     1
102
RTVSPropertyOp3
 70
     1
102
RTVSPropertyOp4
 70
     1
102
RTVSPropertyOp5
 70
     1
102
RTVSPropertyOp6
 70
     1
102
RTVSPropertyOp7
 70
     1
102
RTVSPropertyOp8
 70
     1
102
RTVSPropertyOp9
 70
     1
102
RTVSPropertyOp10
 70
     1
102
RTVSPropertyOp11
 70
     1
102
RTVSPropertyOp12
 70
     1
102
RTVSPropertyOp13
 70
     1
102
RTVSPropertyOp14
 70
     1
102
RTVSPropertyOp15
 70
     1
102
RTVSPropertyOp16
 70
     1
102
RTVSPropertyOp17
 70
     1
102
RTVSPropertyOp18
 70
     1
102
RTVSPropertyOp19
 70
     1
102
RTVSPropertyOp20
 70
     1
102
RTVSPropertyOp21
 70
     1
102
RTVSPropertyOp22
 70
     1
102
RTVSPropertyOp23
 70
     1
102
RTVSPropertyOp24
 70
     1
102
RTVSPropertyOp25
 70
     1
102
RTVSPropertyOp26
 70
     1
102
RTVSPropertyOp27
 70
     1
102
RTVSPropertyOp28
 70
     1
102
RTVSPropertyOp29
 70
     1
102
RTVSPropertyOp30
 70
     1
102
RTVSPropertyOp31
 70
     1
102
RTVSPropertyOp32
 70
     1
102
RTVSPropertyOp33
 70
     1
102
RTVSPropertyOp34
 70
     1
102
RTVSPropertyOp35
 70
     1
102
RTVSPropertyOp36
 70
     1
102
RTVSPropertyOp37
 70
     1
102
RTVSPropertyOp38
 70
     1
102
RTVSPropertyOp39
 70
     1
102
RTVSPropertyOp40
 70
     1
102
RTVSPropertyOp41
 70
     1
102
RTVSPropertyOp42
 70
     1
102
RTVSPropertyOp43
 70
     1
102
RTVSPropertyOp44
 70
     1
102
RTVSPropertyOp45
 70
     1
102
RTVSPropertyOp46
 70
     1
102
RTVSPropertyOp47
 70
     1
102
RTVSPropertyOp48
 70
     1
102
RTVSPropertyOp49
 70
     1
102
RTVSPropertyOp50
 70
     1
102
RTVSPropertyOp51
 70
     0
102
RTVSPropertyOp52
 70
     0
102
RTVSPropertyOp53
 70
     1
102
RTVSPropertyOp54
 70
     1
102
RTVSPropertyOp55
 70
     1
102
RTVSPropertyOp56
 70
     1
102
RTVSPropertyOp57
 70
     1
102
RTVSPropertyOp58
 70
     1
102
RTVSPropertyOp59
 70
     1
102
RTVSPropertyOp60
 70
     1
102
RTVSPropertyOp61
 70
     1
102
RTVSPropertyOp62
 70
     1
  0
XRECORD
  5
3AE
102
{ACAD_REACTORS
330
3AD
102
}
330
3AD
100
AcDbXrecord
280
     1
102
RTVSPost2010Prop28
280
     0
102
RTVSPost2010PropOp28
 70
     1
102
RTVSPost2010Prop29
280
     1
102
RTVSPost2010PropOp29
 70
     1
102
RTVSPost2010Prop30
280
     1
102
RTVSPost2010PropOp30
 70
     1
102
RTVSPost2010Prop31
280
     0
102
RTVSPost2010PropOp31
 70
     1
102
RTVSPost2010Prop32
280
     0
102
RTVSPost2010PropOp32
 70
     1
102
RTVSPost2010Prop33
280
     0
102
RTVSPost2010PropOp33
 70
     1
102
RTVSPost2010Prop34
280
     0
102
RTVSPost2010PropOp34
 70
     1
102
RTVSPost2010Prop35
280
     0
102
RTVSPost2010PropOp35
 70
     1
102
RTVSPost2010Prop36
280
     0
102
RTVSPost2010PropOp36
 70
     1
102
RTVSPost2010Prop37
 90
       50
102
RTVSPost2010PropOp37
 70
     1
102
RTVSPost2010Prop38
140
0.0
102
RTVSPost2010PropOp38
 70
     1
102
RTVSPost2010Prop39
140
1.0
102
RTVSPost2010PropOp39
 70
     1
102
RTVSPost2010Prop40
 90
        0
102
RTVSPost2010PropOp40
 70
     1
102
RTVSPost2010Prop41ColorIndex
 90
       18
102
RTVSPost2010Prop41ColorRGB
 90
        0
102
RTVSPost2010PropOp41
 70
     1
102
RTVSPost2010Prop42
 90
       50
102
RTVSPost2010PropOp42
 70
     1
102
RTVSPost2010Prop43
 90
        3
102
RTVSPost2010PropOp43
 70
     1
102
RTVSPost2010Prop44ColorIndex
 90
        5
102
RTVSPost2010Prop44ColorRGB
 90
      255
102
RTVSPost2010PropOp44
 70
     1
102
RTVSPost2010Prop45
280
     0
102
RTVSPost2010PropOp45
 70
     1
102
RTVSPost2010Prop46
 90
       50
102
RTVSPost2010PropOp46
 70
     1
102
RTVSPost2010Prop47
 90
       50
102
RTVSPost2010PropOp47
 70
     1
102
RTVSPost2010Prop48
 90
       50
102
RTVSPost2010PropOp48
 70
     1
102
RTVSPost2010Prop49
280
     0
102
RTVSPost2010PropOp49
 70
     1
102
RTVSPost2010Prop50
 90
       50
102
RTVSPost2010PropOp50
 70
     1
102
RTVSPost2010Prop51ColorIndex
 90
      256
102
RTVSPost2010Prop51ColorRGB
 90
-16777216
102
RTVSPost2010PropOp51
 70
     0
102
RTVSPost2010Prop52
140
1.0
102
RTVSPost2010PropOp52
 70
     0
102
RTVSPost2010Prop53
 90
        2
102
RTVSPost2010PropOp53
 70
     1
102
RTVSPost2010Prop54
  1
strokes_ogs.tif
102
RTVSPost2010PropOp54
 70
     1
102
RTVSPost2010Prop55
280
     0
102
RTVSPost2010PropOp55
 70
     1
102
RTVSPost2010Prop56
140
1.0
102
RTVSPost2010PropOp56
 70
     1
102
RTVSPost2010Prop57
140
1.0
102
RTVSPost2010PropOp57
 70
     1
102
RTVSPropertyOp0
 70
     1
102
RTVSPropertyOp1
 70
     1
102
RTVSPropertyOp2
 70
     1
102
RTVSPropertyOp3
 70
     1
102
RTVSPropertyOp4
 70
     1
102
RTVSPropertyOp5
 70
     1
102
RTVSPropertyOp6
 70
     1
102
RTVSPropertyOp7
 70
     1
102
RTVSPropertyOp8
 70
     1
102
RTVSPropertyOp9
 70
     1
102
RTVSPropertyOp10
 70
     1
102
RTVSPropertyOp11
 70
     1
102
RTVSPropertyOp12
 70
     1
102
RTVSPropertyOp13
 70
     1
102
RTVSPropertyOp14
 70
     1
102
RTVSPropertyOp15
 70
     1
102
RTVSPropertyOp16
 70
     1
102
RTVSPropertyOp17
 70
     1
102
RTVSPropertyOp18
 70
     1
102
RTVSPropertyOp19
 70
     1
102
RTVSPropertyOp20
 70
     1
102
RTVSPropertyOp21
 70
     1
102
RTVSPropertyOp22
 70
     1
102
RTVSPropertyOp23
 70
     1
102
RTVSPropertyOp24
 70
     1
102
RTVSPropertyOp25
 70
     1
102
RTVSPropertyOp26
 70
     1
102
RTVSPropertyOp27
 70
     1
102
RTVSPropertyOp28
 70
     1
102
RTVSPropertyOp29
 70
     1
102
RTVSPropertyOp30
 70
     1
102
RTVSPropertyOp31
 70
     1
102
RTVSPropertyOp32
 70
     1
102
RTVSPropertyOp33
 70
     1
102
RTVSPropertyOp34
 70
     1
102
RTVSPropertyOp35
 70
     1
102
RTVSPropertyOp36
 70
     1
102
RTVSPropertyOp37
 70
     1
102
RTVSPropertyOp38
 70
     1
102
RTVSPropertyOp39
 70
     1
102
RTVSPropertyOp40
 70
     1
102
RTVSPropertyOp41
 70
     1
102
RTVSPropertyOp42
 70
     1
102
RTVSPropertyOp43
 70
     1
102
RTVSPropertyOp44
 70
     1
102
RTVSPropertyOp45
 70
     1
102
RTVSPropertyOp46
 70
     1
102
RTVSPropertyOp47
 70
     1
102
RTVSPropertyOp48
 70
     1
102
RTVSPropertyOp49
 70
     1
102
RTVSPropertyOp50
 70
     1
102
RTVSPropertyOp51
 70
     0
102
RTVSPropertyOp52
 70
     0
102
RTVSPropertyOp53
 70
     1
102
RTVSPropertyOp54
 70
     1
102
RTVSPropertyOp55
 70
     1
102
RTVSPropertyOp56
 70
     1
102
RTVSPropertyOp57
 70
     1
102
RTVSPropertyOp58
 70
     1
102
RTVSPropertyOp59
 70
     1
102
RTVSPropertyOp60
 70
     1
102
RTVSPropertyOp61
 70
     1
102
RTVSPropertyOp62
 70
     1
  0
ENDSEC
  0
EOF
