  0
SECTION
  2
HEADER
  9
$ACADVER
  1
AC1009
  9
$INSBASE
 10
0.0
 20
0.0
 30
0.0
  9
$EXTMIN
 10
-170.0164782349211
 20
-265.80211091866681
 30
-0.0015258207003583
  9
$EXTMAX
 10
370.0164807494923
 20
537.08808227102497
 30
0.0000000349246037
  9
$LIMMIN
 10
0.0
 20
0.0
  9
$LIMMAX
 10
0.0
 20
0.0
  9
$ORTHOMODE
 70
     0
  9
$REGENMODE
 70
     1
  9
$FILLMODE
 70
     1
  9
$QTEXTMODE
 70
     0
  9
$MIRRTEXT
 70
     1
  9
$DRAGMODE
 70
     2
  9
$LTSCALE
 40
15.24
  9
$OSMODE
 70
   231
  9
$ATTMODE
 70
     1
  9
$TEXTSIZE
 40
0.0
  9
$TRACEWID
 40
1.0
  9
$TEXTSTYLE
  7
STANDARD
  9
$CLAYER
  8
DATA
  9
$CELTYPE
  6
BYLAYER
  9
$CECOLOR
 62
   256
  9
$DIMSCALE
 40
1.0
  9
$DIMASZ
 40
0.18
  9
$DIMEXO
 40
0.0625
  9
$DIMDLI
 40
0.38
  9
$DIMRND
 40
0.0
  9
$DIMDLE
 40
0.0
  9
$DIMEXE
 40
0.18
  9
$DIMTP
 40
0.0
  9
$DIMTM
 40
0.0
  9
$DIMTXT
 40
0.18
  9
$DIMCEN
 40
0.09
  9
$DIMTSZ
 40
0.0
  9
$DIMTOL
 70
     0
  9
$DIMLIM
 70
     0
  9
$DIMTIH
 70
     1
  9
$DIMTOH
 70
     1
  9
$DIMSE1
 70
     0
  9
$DIMSE2
 70
     0
  9
$DIMTAD
 70
     0
  9
$DIMZIN
 70
     0
  9
$DIMBLK
  1

  9
$DIMASO
 70
     1
  9
$DIMSHO
 70
     1
  9
$DIMPOST
  1

  9
$DIMAPOST
  1

  9
$DIMALT
 70
     0
  9
$DIMALTD
 70
     2
  9
$DIMALTF
 40
25.399999999999999
  9
$DIMLFAC
 40
1.0
  9
$DIMTOFL
 70
     0
  9
$DIMTVP
 40
0.0
  9
$DIMTIX
 70
     0
  9
$DIMSOXD
 70
     0
  9
$DIMSAH
 70
     0
  9
$DIMBLK1
  1

  9
$DIMBLK2
  1

  9
$DIMSTYLE
  2
STANDARD
  9
$DIMCLRD
 70
     0
  9
$DIMCLRE
 70
     0
  9
$DIMCLRT
 70
     0
  9
$DIMTFAC
 40
1.0
  9
$DIMGAP
 40
0.09
  9
$LUNITS
 70
     2
  9
$LUPREC
 70
     4
  9
$SKETCHINC
 40
0.1
  9
$FILLETRAD
 40
0.0
  9
$AUNITS
 70
     0
  9
$AUPREC
 70
     0
  9
$MENU
  1
acad
  9
$ELEVATION
 40
0.0
  9
$PELEVATION
 40
0.0
  9
$THICKNESS
 40
0.0
  9
$LIMCHECK
 70
     0
  9
$BLIPMODE
 70
     0
  9
$CHAMFERA
 40
0.0
  9
$CHAMFERB
 40
0.0
  9
$SKPOLY
 70
     0
  9
$TDCREATE
 40
2454998.5482175932
  9
$TDUPDATE
 40
2454998.558543345
  9
$TDINDWG
 40
0.0003021412
  9
$TDUSRTIMER
 40
0.0003021412
  9
$USRTIMER
 70
     1
  9
$ANGBASE
 50
0.0
  9
$ANGDIR
 70
     0
  9
$PDMODE
 70
     1
  9
$PDSIZE
 40
-2.0
  9
$PLINEWID
 40
0.0
  9
$COORDS
 70
     1
  9
$SPLFRAME
 70
     0
  9
$SPLINETYPE
 70
     6
  9
$SPLINESEGS
 70
     8
  9
$ATTDIA
 70
     0
  9
$ATTREQ
 70
     1
  9
$HANDLING
 70
     1
  9
$HANDSEED
  5
32E
  9
$SURFTAB1
 70
     6
  9
$SURFTAB2
 70
     6
  9
$SURFTYPE
 70
     6
  9
$SURFU
 70
     6
  9
$SURFV
 70
     6
  9
$UCSNAME
  2

  9
$UCSORG
 10
0.0
 20
0.0
 30
0.0
  9
$UCSXDIR
 10
1.0
 20
0.0
 30
0.0
  9
$UCSYDIR
 10
0.0
 20
1.0
 30
0.0
  9
$PUCSNAME
  2

  9
$PUCSORG
 10
0.0
 20
0.0
 30
0.0
  9
$PUCSXDIR
 10
1.0
 20
0.0
 30
0.0
  9
$PUCSYDIR
 10
0.0
 20
1.0
 30
0.0
  9
$USERI1
 70
     0
  9
$USERI2
 70
     0
  9
$USERI3
 70
     0
  9
$USERI4
 70
     0
  9
$USERI5
 70
     0
  9
$USERR1
 40
0.0
  9
$USERR2
 40
0.0
  9
$USERR3
 40
0.0
  9
$USERR4
 40
0.0
  9
$USERR5
 40
0.0
  9
$WORLDVIEW
 70
     1
  9
$SHADEDGE
 70
     3
  9
$SHADEDIF
 70
    70
  9
$TILEMODE
 70
     1
  9
$MAXACTVP
 70
    64
  9
$PLIMCHECK
 70
     0
  9
$PEXTMIN
 10
1.0000000000000000E+020
 20
1.0000000000000000E+020
 30
1.0000000000000000E+020
  9
$PEXTMAX
 10
-1.0000000000000000E+020
 20
-1.0000000000000000E+020
 30
-1.0000000000000000E+020
  9
$PLIMMIN
 10
0.0
 20
0.0
  9
$PLIMMAX
 10
12.0
 20
9.0
  9
$UNITMODE
 70
     0
  9
$VISRETAIN
 70
     0
  9
$PLINEGEN
 70
     1
  9
$PSLTSCALE
 70
     0
  0
ENDSEC
  0
SECTION
  2
TABLES
  0
TABLE
  2
VPORT
 70
     1
  0
VPORT
  2
*ACTIVE
 70
     0
 10
0.0
 20
0.0
 11
1.0
 21
1.0
 12
100.0000012572856
 22
135.64298567617911
 13
0.0
 23
0.0
 14
1.0
 24
1.0
 15
0.0
 25
0.0
 16
0.0
 26
0.0
 36
1.0
 17
0.0
 27
0.0
 37
0.0
 40
808.80104123771412
 41
1.961916461916462
 42
50.0
 43
0.0
 44
0.0
 50
0.0
 51
0.0
 71
     0
 72
  2000
 73
     1
 74
     1
 75
     0
 76
     0
 77
     0
 78
     0
  0
ENDTAB
  0
TABLE
  2
LTYPE
 70
    11
  0
LTYPE
  2
CONTINUOUS
 70
     0
  3
Solid line
 72
    65
 73
     0
 40
0.0
  0
LTYPE
  2
STYLE_05
 70
     0
  3

 72
    65
 73
     2
 40
0.208282470703125
 49
0.069427490234375
 49
-0.13885498046875
  0
ENDTAB
  0
TABLE
  2
LAYER
 70
     6
  0
LAYER
  2
0
 70
     0
 62
     7
  6
CONTINUOUS
  0
LAYER
  2
DATA
 70
     0
 62
     7
  6
CONTINUOUS
  0
LAYER
  2
HIBINO-BASE
 70
     0
 62
     7
  6
CONTINUOUS
  0
LAYER
  2
PATTERN_FILL
 70
     0
 62
     7
  6
CONTINUOUS
  0
LAYER
  2
SPEC
 70
     0
 62
     7
  6
CONTINUOUS
  0
LAYER
  2
DIMNSIONS
 70
     0
 62
     7
  6
CONTINUOUS
  0
ENDTAB
  0
TABLE
  2
STYLE
 70
     3
  0
STYLE
  2
STANDARD
 70
     0
 40
0.0
 41
1.0
 50
0.0
 71
     0
 42
0.0
  3
txt
  4
BIGFONT.SHX
  0
ENDTAB
  0
TABLE
  2
VIEW
 70
     0
  0
ENDTAB
  0
TABLE
  2
UCS
 70
     0
  0
ENDTAB
  0
TABLE
  2
APPID
 70
     3
  0
APPID
  2
ACAD
 70
     0
  0
APPID
  2
ACADANNOTATIVE
 70
     0
  0
APPID
  2
ACAD_MLEADERVER
 70
     0
  0
ENDTAB
  0
TABLE
  2
DIMSTYLE
 70
     2
  0
DIMSTYLE
  2
STANDARD
 70
     0
  3

  4

  5

  6

  7

 40
1.0
 41
0.18
 42
0.0625
 43
0.38
 44
0.18
 45
0.0
 46
0.0
 47
0.0
 48
0.0
140
0.18
141
0.09
142
0.0
143
25.399999999999999
144
1.0
145
0.0
146
1.0
147
0.09
 71
     0
 72
     0
 73
     1
 74
     1
 75
     0
 76
     0
 77
     0
 78
     0
170
     0
171
     2
172
     0
173
     0
174
     0
175
     0
176
     0
177
     0
178
     0
  0
ENDTAB
  0
ENDSEC
  0
SECTION
  2
BLOCKS
  0
BLOCK
  8
0
  2
$MODEL_SPACE
 70
     0
 10
0.0
 20
0.0
 30
0.0
  3
$MODEL_SPACE
  1

  0
ENDBLK
  5
2B9
  8
0
  0
BLOCK
 67
     1
  8
0
  2
$PAPER_SPACE
 70
     0
 10
0.0
 20
0.0
 30
0.0
  3
$PAPER_SPACE
  1

  0
ENDBLK
  5
2B5
 67
     1
  8
0
  0
ENDSEC
  0
SECTION
  2
ENTITIES
  0
LINE
  5
2D
  8
HIBINO-BASE
  6
CONTINUOUS
 62
     7
 10
-169.99999999999989
 20
537.06362999999999
 30
0.0
 11
370.0
 21
537.06362999999999
 31
0.0
  0
LINE
  5
2E
  8
HIBINO-BASE
  6
CONTINUOUS
 62
     7
 10
370.0
 20
-242.93637000000001
 30
0.0
 11
-169.99999999999989
 21
-242.93637000000001
 31
0.0
  0
LINE
  5
2F
  8
HIBINO-BASE
  6
CONTINUOUS
 62
     7
 10
-169.99999999999989
 20
-242.93637000000001
 30
0.0
 11
-169.99999999999989
 21
537.06362999999999
 31
0.0
  0
TEXT
  5
30
  8
HIBINO-BASE
 62
     7
 10
-148.44799999999989
 20
-262.1624033999999
 30
0.0
 40
10.800132539062499
  1
Hibino Corporation
 41
0.7
 11
-148.44799999999989
 21
-251.3622708609374
 31
0.0
 73
     3
  0
LINE
  5
31
  8
HIBINO-BASE
  6
CONTINUOUS
 62
     7
 10
370.0
 20
537.06362999999999
 30
0.0
 11
370.0
 21
-242.93637000000001
 31
0.0
  0
LINE
  5
32
  8
HIBINO-BASE
  6
CONTINUOUS
 62
     7
 10
100.0
 20
-175.4363699999999
 30
0.0
 11
370.0
 21
-175.4363699999999
 31
0.0
  0
LINE
  5
33
  8
HIBINO-BASE
  6
CONTINUOUS
 62
     7
 10
100.0
 20
-242.93637000000001
 30
0.0
 11
100.0
 21
-175.4363699999999
 31
0.0
  0
TEXT
  5
34
  8
HIBINO-BASE
 62
     7
 10
102.7
 20
-182.96244999999999
 30
0.0
 40
4.8865234374999993
  1
NOTE
 41
0.7
 11
102.7
 21
-178.0759265625
 31
0.0
 73
     3
  0
LINE
  5
35
  8
HIBINO-BASE
  6
CONTINUOUS
 62
     7
 10
205.0
 20
-242.93637000000001
 30
0.0
 11
205.0
 21
-175.4363699999999
 31
0.0
  0
TEXT
  5
36
  8
HIBINO-BASE
 62
     7
 10
207.69999999999999
 20
-182.96244999999999
 30
0.0
 40
4.8865234374999993
  1
TITLE
 41
0.7
 11
207.69999999999999
 21
-178.0759265625
 31
0.0
 73
     3
  0
TEXT
  5
37
  8
HIBINO-BASE
 62
     7
 10
250.2051699999999
 20
-262.1624033999999
 30
0.0
 40
10.800132539062499
  1
ヒビノ株式会社
 41
0.7
 11
250.2051699999999
 21
-251.3622708609374
 31
0.0
 73
     3
  0
LINE
  5
38
  8
HIBINO-BASE
  6
CONTINUOUS
 62
     7
 10
100.0
 20
-212.9363699999999
 30
0.0
 11
370.0
 21
-212.9363699999999
 31
0.0
  0
TEXT
  5
39
  8
HIBINO-BASE
 62
     7
 10
245.19999999999999
 20
-220.29348999999999
 30
0.0
 40
4.8865234374999993
  1
DRAWN
 41
0.7
 11
245.19999999999999
 21
-215.4069665625
 31
0.0
 73
     3
  0
TEXT
  5
3A
  8
HIBINO-BASE
 62
     7
 10
170.19999999999999
 20
-220.29348999999999
 30
0.0
 40
4.8865234374999993
  1
DATE
 41
0.7
 11
170.19999999999999
 21
-215.4069665625
 31
0.0
 73
     3
  0
TEXT
  5
3B
  8
HIBINO-BASE
 62
     7
 10
140.19999999999999
 20
-220.29348999999999
 30
0.0
 40
4.8865234374999993
  1
SCALE
 41
0.7
 11
140.19999999999999
 21
-215.4069665625
 31
0.0
 73
     3
  0
TEXT
  5
3C
  8
HIBINO-BASE
 62
     7
 10
207.69999999999999
 20
-220.29348999999999
 30
0.0
 40
4.8865234374999993
  1
DESIGN
 41
0.7
 11
207.69999999999999
 21
-215.4069665625
 31
0.0
 73
     3
  0
TEXT
  5
3D
  8
HIBINO-BASE
 62
     7
 10
320.19999999999999
 20
-220.29348999999999
 30
0.0
 40
4.8865234374999993
  1
DRAWING NO.
 41
0.7
 11
320.19999999999999
 21
-215.4069665625
 31
0.0
 73
     3
  0
TEXT
  5
3E
  8
HIBINO-BASE
 62
     7
 10
282.69999999999999
 20
-220.29348999999999
 30
0.0
 40
4.8865234374999993
  1
CHECK
 41
0.7
 11
282.69999999999999
 21
-215.4069665625
 31
0.0
 73
     3
  0
LINE
  5
3F
  8
HIBINO-BASE
  6
CONTINUOUS
 62
     7
 10
143.12499999999989
 20
-239.18637000000001
 30
0.0
 11
154.375
 21
-227.93637000000001
 31
0.0
  0
TEXT
  5
40
  8
HIBINO-BASE
 62
     7
 10
141.24999999999989
 20
-231.26320000000001
 30
0.0
 40
4.8865234374999993
  1
1
 41
0.7
 11
141.24999999999989
 21
-226.37667656249999
 31
0.0
 73
     3
  0
LINE
  5
41
  8
HIBINO-BASE
  6
CONTINUOUS
 62
     7
 10
137.5
 20
-242.93637000000001
 30
0.0
 11
137.5
 21
-212.9363699999999
 31
0.0
  0
LINE
  5
42
  8
HIBINO-BASE
  6
CONTINUOUS
 62
     7
 10
167.5
 20
-242.93637000000001
 30
0.0
 11
167.5
 21
-212.9363699999999
 31
0.0
  0
LINE
  5
43
  8
HIBINO-BASE
  6
CONTINUOUS
 62
     7
 10
242.5
 20
-212.9363699999999
 30
0.0
 11
242.5
 21
-242.93637000000001
 31
0.0
  0
LINE
  5
44
  8
HIBINO-BASE
  6
CONTINUOUS
 62
     7
 10
317.5
 20
-212.9363699999999
 30
0.0
 11
317.5
 21
-242.93637000000001
 31
0.0
  0
LINE
  5
45
  8
HIBINO-BASE
  6
CONTINUOUS
 62
     7
 10
279.99999999999989
 20
-242.93637000000001
 30
0.0
 11
279.99999999999989
 21
-212.9363699999999
 31
0.0
  0
TEXT
  5
46
  8
HIBINO-BASE
 62
     7
 10
170.06961999999999
 20
-234.34542999999999
 30
0.0
 40
4.8865234374999993
  1
'09.03.
 41
0.7
 11
170.06961999999999
 21
-229.4589065625
 31
0.0
 73
     3
  0
TEXT
  5
47
  8
HIBINO-BASE
 62
     7
 10
152.5
 20
-236.88820000000001
 30
0.0
 40
4.8865234374999993
  1
3
 41
0.7
 11
152.5
 21
-232.00167656249999
 31
0.0
 73
     3
  0
TEXT
  5
48
  8
HIBINO-BASE
 62
     7
 10
247.01743003310389
 20
-234.34542999999999
 30
0.0
 40
4.8865234374999993
  1
N.Sasaki
 41
0.7
 11
247.01743003310389
 21
-229.4589065625
 31
0.0
 73
     3
  0
TEXT
  5
49
  8
HIBINO-BASE
 62
     7
 10
111.65000000000001
 20
-237.00837000000001
 30
0.0
 40
9.7730468749999986
  1
A4
 41
0.7
 11
111.65000000000001
 21
-227.23532312500001
 31
0.0
 73
     3
  0
TEXT
  5
4A
  8
HIBINO-BASE
 62
     7
 10
102.875
 20
-220.794735
 30
0.0
 40
4.8865234374999993
  1
PAPER SIZE
 41
0.7
 11
102.875
 21
-215.90821156249999
 31
0.0
 73
     3
  0
LINE
  5
4B
  8
PATTERN_FILL
  6
CONTINUOUS
 62
     7
 10
-16.859600028543479
 20
403.02630211092361
 30
0.0
 11
-38.676301997740111
 21
381.20960014172721
 31
0.0
  0
LINE
  5
4C
  8
PATTERN_FILL
  6
CONTINUOUS
 62
     7
 10
-9.1527794745826867
 20
406.73312266488449
 30
0.0
 11
-42.383122551701611
 21
373.50277958776581
 31
0.0
  0
LINE
  5
4D
  8
PATTERN_FILL
  6
CONTINUOUS
 62
     7
 10
-3.149131228578042
 20
408.73677091088922
 30
0.0
 11
-44.38677079770617
 21
367.49913134176131
 31
0.0
  0
LINE
  5
4E
  8
PATTERN_FILL
  6
CONTINUOUS
 62
     7
 10
2.02716473276051
 20
409.91306687222772
 30
0.0
 11
-45.563066759044503
 21
362.32283538042287
 31
0.0
  0
LINE
  5
4F
  8
PATTERN_FILL
  6
CONTINUOUS
 62
     7
 10
6.6759393476476836
 20
410.5618414871148
 30
0.0
 11
-46.211841373931762
 21
357.67406076553573
 31
0.0
  0
LINE
  5
50
  8
PATTERN_FILL
  6
CONTINUOUS
 62
     7
 10
10.94356482050962
 20
410.8294669599768
 30
0.0
 11
-46.479466846793891
 21
353.40643529267362
 31
0.0
  0
LINE
  5
51
  8
PATTERN_FILL
  6
CONTINUOUS
 62
     7
 10
14.914665327688519
 20
410.80056746715582
 30
0.0
 11
-46.450567353972573
 21
349.43533478549477
 31
0.0
  0
LINE
  5
52
  8
PATTERN_FILL
  6
CONTINUOUS
 62
     7
 10
18.643385731447371
 20
410.5292878709144
 30
0.0
 11
-46.179287757731501
 21
345.70661438173602
 31
0.0
  0
LINE
  5
53
  8
PATTERN_FILL
  6
CONTINUOUS
 62
     7
 10
22.166788614910779
 20
410.05269075437798
 30
0.0
 11
-45.702690641194813
 21
342.18321149827261
 31
0.0
  0
LINE
  5
54
  8
PATTERN_FILL
  6
CONTINUOUS
 62
     7
 10
25.511481489044129
 20
409.39738362851142
 30
0.0
 11
-45.047383515328171
 21
338.83851862413923
 31
0.0
  0
LINE
  5
55
  8
PATTERN_FILL
  6
CONTINUOUS
 62
     7
 10
28.697240083695391
 20
408.5831422231625
 30
0.0
 11
-44.233142109979461
 21
335.65276002948798
 31
0.0
  0
LINE
  5
56
  8
PATTERN_FILL
  6
CONTINUOUS
 62
     7
 10
31.739141193285281
 20
407.6250433327524
 30
0.0
 11
-43.275043219569334
 21
332.61085891989808
 31
0.0
  0
LINE
  5
57
  8
PATTERN_FILL
  6
CONTINUOUS
 62
     7
 10
34.648891254722869
 20
406.5347933941901
 30
0.0
 11
-42.184793281006918
 21
329.70110885846049
 31
0.0
  0
LINE
  5
58
  8
PATTERN_FILL
  6
CONTINUOUS
 62
     7
 10
37.43569134170265
 20
405.32159348116983
 30
0.0
 11
-40.971593367986721
 21
326.91430877148071
 31
0.0
  0
LINE
  5
59
  8
PATTERN_FILL
  6
CONTINUOUS
 62
     7
 10
40.106820182930633
 20
403.99272232239781
 30
0.0
 11
-39.64272220921481
 21
324.24317993025261
 31
0.0
  0
LINE
  5
5A
  8
PATTERN_FILL
  6
CONTINUOUS
 62
     7
 10
42.668037684943613
 20
402.55393982441092
 30
0.0
 11
-38.20393971122779
 21
321.68196242823967
 31
0.0
  0
LINE
  5
5B
  8
PATTERN_FILL
  6
CONTINUOUS
 62
     7
 10
45.123869514248057
 20
401.00977165371529
 30
0.0
 11
-36.659771540532191
 21
319.22613059893519
 31
0.0
  0
LINE
  5
5C
  8
PATTERN_FILL
  6
CONTINUOUS
 62
     7
 10
47.488886492705397
 20
399.37478863217262
 30
0.0
 11
-35.013711887404632
 21
316.87219025206292
 31
0.0
  0
LINE
  5
5D
  8
PATTERN_FILL
  6
CONTINUOUS
 62
     7
 10
49.732465781745901
 20
397.61836792121318
 30
0.0
 11
-33.268367808029971
 21
314.61753433143753
 31
0.0
  0
LINE
  5
5E
  8
PATTERN_FILL
  6
CONTINUOUS
 62
     7
 10
51.889658114146883
 20
395.77556025361412
 30
0.0
 11
-31.42556014043096
 21
312.46034199903647
 31
0.0
  0
LINE
  5
5F
  8
PATTERN_FILL
  6
CONTINUOUS
 62
     7
 10
53.950488582012461
 20
393.83639072147969
 30
0.0
 11
-29.486390608296531
 21
310.3995115311709
 31
0.0
  0
LINE
  5
60
  8
PATTERN_FILL
  6
CONTINUOUS
 62
     7
 10
55.91537906384589
 20
391.80128120331318
 30
0.0
 11
-27.451281090129971
 21
308.43462104933752
 31
0.0
  0
LINE
  5
61
  8
PATTERN_FILL
  6
CONTINUOUS
 62
     7
 10
57.784086366024923
 20
389.66998850549231
 30
0.0
 11
-25.319988392309089
 21
306.56591374715839
 31
0.0
  0
LINE
  5
62
  8
PATTERN_FILL
  6
CONTINUOUS
 62
     7
 10
59.555693724613839
 20
387.44159586408119
 30
0.0
 11
-23.09159575089787
 21
304.79430638856962
 31
0.0
  0
LINE
  5
63
  8
PATTERN_FILL
  6
CONTINUOUS
 62
     7
 10
61.228578333435927
 20
385.11448047290321
 30
0.0
 11
-20.76448035972005
 21
303.12142177974738
 31
0.0
  0
LINE
  5
64
  8
PATTERN_FILL
  6
CONTINUOUS
 62
     7
 10
62.800352162088203
 20
382.68625430155572
 30
0.0
 11
-18.33625418837228
 21
301.54964795109521
 31
0.0
  0
LINE
  5
65
  8
PATTERN_FILL
  6
CONTINUOUS
 62
     7
 10
64.26777086832233
 20
380.15367300778968
 30
0.0
 11
-15.80367289460635
 21
300.08222924486108
 31
0.0
  0
LINE
  5
66
  8
PATTERN_FILL
  6
CONTINUOUS
 62
     7
 10
65.626602298483803
 20
377.51250443795118
 30
0.0
 11
-13.16250432476788
 21
298.72339781469958
 31
0.0
  0
LINE
  5
67
  8
PATTERN_FILL
  6
CONTINUOUS
 62
     7
 10
66.871441252719237
 20
374.75734339218673
 30
0.0
 11
-10.40734327900331
 21
297.4785588604642
 31
0.0
  0
LINE
  5
68
  8
PATTERN_FILL
  6
CONTINUOUS
 62
     7
 10
67.995449770257594
 20
371.88135190972491
 30
0.0
 11
-7.5313517965416414
 21
296.35455034292568
 31
0.0
  0
LINE
  5
69
  8
PATTERN_FILL
  6
CONTINUOUS
 62
     7
 10
68.98999020750081
 20
368.87589234696821
 30
0.0
 11
-4.5258922337848873
 21
295.36000990568249
 31
0.0
  0
LINE
  5
6A
  8
PATTERN_FILL
  6
CONTINUOUS
 62
     7
 10
69.844098167336213
 20
365.73000030680362
 30
0.0
 11
-1.380000193620404
 21
294.50590194584697
 31
0.0
  0
LINE
  5
6B
  8
PATTERN_FILL
  6
CONTINUOUS
 62
     7
 10
70.543706639693269
 20
362.42960877916079
 30
0.0
 11
1.9203913340226531
 21
293.80629347349009
 31
0.0
  0
LINE
  5
6C
  8
PATTERN_FILL
  6
CONTINUOUS
 62
     7
 10
71.070466350335423
 20
358.95636848980291
 30
0.0
 11
5.3936316233804433
 21
293.27953376284779
 31
0.0
  0
LINE
  5
6D
  8
PATTERN_FILL
  6
CONTINUOUS
 62
     7
 10
71.399876293080425
 20
355.28577843254789
 30
0.0
 11
9.0642216806354394
 21
292.95012382010287
 31
0.0
  0
LINE
  5
6E
  8
PATTERN_FILL
  6
CONTINUOUS
 62
     7
 10
71.498160157341033
 20
351.38406229680851
 30
0.0
 11
12.96593781637482
 21
292.85183995584231
 31
0.0
  0
LINE
  5
6F
  8
PATTERN_FILL
  6
CONTINUOUS
 62
     7
 10
71.316676861274956
 20
347.20257900074228
 30
0.0
 11
17.147421112440941
 21
293.03332325190843
 31
0.0
  0
LINE
  5
70
  8
PATTERN_FILL
  6
CONTINUOUS
 62
     7
 10
70.780956725252636
 20
342.6668588647201
 30
0.0
 11
21.68314124846329
 21
293.56904338793078
 31
0.0
  0
LINE
  5
71
  8
PATTERN_FILL
  6
CONTINUOUS
 62
     7
 10
69.766223575190352
 20
337.65212571465781
 30
0.0
 11
26.69787439852557
 21
294.583776537993
 31
0.0
  0
LINE
  5
72
  8
PATTERN_FILL
  6
CONTINUOUS
 62
     7
 10
68.030714084368753
 20
331.91661622383617
 30
0.0
 11
32.433383889347127
 21
296.31928602881447
 31
0.0
  0
LINE
  5
73
  8
PATTERN_FILL
  6
CONTINUOUS
 62
     7
 10
64.954638475869885
 20
324.84054061533737
 30
0.0
 11
39.488886492705483
 21
299.37478863217291
 31
0.0
  0
LINE
  5
74
  8
PATTERN_FILL
  6
CONTINUOUS
 62
     7
 10
65.877769098326937
 20
376.98590602655128
 30
0.0
 11
37.635905913367772
 21
405.22776921151029
 31
0.0
  0
LINE
  5
75
  8
PATTERN_FILL
  6
CONTINUOUS
 62
     7
 10
68.529904891410126
 20
370.33377023346821
 30
0.0
 11
30.98377012028477
 21
407.87990500459318
 31
0.0
  0
LINE
  5
76
  8
PATTERN_FILL
  6
CONTINUOUS
 62
     7
 10
70.060545921406174
 20
364.803129203472
 30
0.0
 11
25.45312909028867
 21
409.41054603458929
 31
0.0
  0
LINE
  5
77
  8
PATTERN_FILL
  6
CONTINUOUS
 62
     7
 10
70.945778712449552
 20
359.91789641242877
 30
0.0
 11
20.567896299245419
 21
410.29577882563268
 31
0.0
  0
LINE
  5
78
  8
PATTERN_FILL
  6
CONTINUOUS
 62
     7
 10
71.38852419220531
 20
355.4751509326731
 30
0.0
 11
16.125150819489601
 21
410.73852430538841
 31
0.0
  0
LINE
  5
79
  8
PATTERN_FILL
  6
CONTINUOUS
 62
     7
 10
71.498011980915479
 20
351.36566314396282
 30
0.0
 11
12.01566303077929
 21
410.84801209409881
 31
0.0
  0
LINE
  5
7A
  8
PATTERN_FILL
  6
CONTINUOUS
 62
     7
 10
71.341086890308461
 20
347.52258823456992
 30
0.0
 11
8.1725881213864522
 21
410.69108700349159
 31
0.0
  0
LINE
  5
7B
  8
PATTERN_FILL
  6
CONTINUOUS
 62
     7
 10
70.962140684755738
 20
343.90153444012248
 30
0.0
 11
4.5515343269392039
 21
410.31214079793881
 31
0.0
  0
LINE
  5
7C
  8
PATTERN_FILL
  6
CONTINUOUS
 62
     7
 10
70.392361310557106
 20
340.47131381432121
 30
0.0
 11
1.1213137011377929
 21
409.74236142374031
 31
0.0
  0
LINE
  5
7D
  8
PATTERN_FILL
  6
CONTINUOUS
 62
     7
 10
69.654565278646615
 20
337.2091098462318
 30
0.0
 11
-2.1408902669517
 21
409.00456539182977
 31
0.0
  0
LINE
  5
7E
  8
PATTERN_FILL
  6
CONTINUOUS
 62
     7
 10
68.765947320505148
 20
334.09772780437322
 30
0.0
 11
-5.2522723088101912
 21
408.11594743368829
 31
0.0
  0
LINE
  5
7F
  8
PATTERN_FILL
  6
CONTINUOUS
 62
     7
 10
67.739748917385896
 20
331.12392620749239
 30
0.0
 11
-8.2260739056910221
 21
407.08974903056901
 31
0.0
  0
LINE
  5
80
  8
PATTERN_FILL
  6
CONTINUOUS
 62
     7
 10
66.586322556774505
 20
328.27735256810371
 30
0.0
 11
-11.07264754507962
 21
405.93632266995758
 31
0.0
  0
LINE
  5
81
  8
PATTERN_FILL
  6
CONTINUOUS
 62
     7
 10
65.313837636589923
 20
325.5498374882884
 30
0.0
 11
-13.80016262489498
 21
404.66383774977299
 31
0.0
  0
LINE
  5
82
  8
PATTERN_FILL
  6
CONTINUOUS
 62
     7
 10
63.92876314262702
 20
322.93491198225132
 30
0.0
 11
-16.415088130932059
 21
403.27876325581002
 31
0.0
  0
LINE
  5
83
  8
PATTERN_FILL
  6
CONTINUOUS
 62
     7
 10
62.436205241719847
 20
320.42746988315849
 30
0.0
 11
-18.92253023002489
 21
401.7862053549029
 31
0.0
  0
LINE
  5
84
  8
PATTERN_FILL
  6
CONTINUOUS
 62
     7
 10
60.840146883424751
 20
318.02352824145362
 30
0.0
 11
-21.326471871729851
 21
400.19014699660789
 31
0.0
  0
LINE
  5
85
  8
PATTERN_FILL
  6
CONTINUOUS
 62
     7
 10
59.143618722041587
 20
315.7200564028368
 30
0.0
 11
-23.629943710346641
 21
398.49361883522482
 31
0.0
  0
LINE
  5
86
  8
PATTERN_FILL
  6
CONTINUOUS
 62
     7
 10
57.348820020035333
 20
313.51485510484298
 30
0.0
 11
-25.835145008340351
 21
396.69882013321848
 31
0.0
  0
LINE
  5
87
  8
PATTERN_FILL
  6
CONTINUOUS
 62
     7
 10
55.457201526847278
 20
311.4064735980312
 30
0.0
 11
-27.94352651515236
 21
394.80720164003048
 31
0.0
  0
LINE
  5
88
  8
PATTERN_FILL
  6
CONTINUOUS
 62
     7
 10
53.46951794605998
 20
309.39415717881838
 30
0.0
 11
-29.955842934365041
 21
392.81951805924308
 31
0.0
  0
LINE
  5
89
  8
PATTERN_FILL
  6
CONTINUOUS
 62
     7
 10
51.385854543614293
 20
307.4778205812641
 30
0.0
 11
-31.872179531919262
 21
390.73585465679753
 31
0.0
  0
LINE
  5
8A
  8
PATTERN_FILL
  6
CONTINUOUS
 62
     7
 10
49.205630124620718
 20
305.6580450002578
 30
0.0
 11
-33.69195511292579
 21
388.55563023780411
 31
0.0
  0
LINE
  5
8B
  8
PATTERN_FILL
  6
CONTINUOUS
 62
     7
 10
46.927576624515901
 20
303.9360985003625
 30
0.0
 11
-35.413901612820908
 21
386.27757673769918
 31
0.0
  0
LINE
  5
8C
  8
PATTERN_FILL
  6
CONTINUOUS
 62
     7
 10
44.549693615721033
 20
302.31398150915737
 30
0.0
 11
-37.036018604025983
 21
383.89969372890442
 31
0.0
  0
LINE
  5
8D
  8
PATTERN_FILL
  6
CONTINUOUS
 62
     7
 10
42.069173826435929
 20
300.79450129844253
 30
0.0
 11
-38.555498814740922
 21
381.41917393961921
 31
0.0
  0
LINE
  5
8E
  8
PATTERN_FILL
  6
CONTINUOUS
 62
     7
 10
39.488886492705497
 20
299.37478863217291
 30
0.0
 11
-39.968617930781853
 21
378.8322930556601
 31
0.0
  0
LINE
  5
8F
  8
PATTERN_FILL
  6
CONTINUOUS
 62
     7
 10
36.784252993822349
 20
298.07942213105599
 30
0.0
 11
-41.270577982127307
 21
376.13425310700558
 31
0.0
  0
LINE
  5
90
  8
PATTERN_FILL
  6
CONTINUOUS
 62
     7
 10
33.968962671747583
 20
296.89471245313092
 30
0.0
 11
-42.455287660052313
 21
373.3189627849307
 31
0.0
  0
LINE
  5
91
  8
PATTERN_FILL
  6
CONTINUOUS
 62
     7
 10
31.02872851928813
 20
295.83494660559018
 30
0.0
 11
-43.515053507593009
 21
370.37872863247139
 31
0.0
  0
LINE
  5
92
  8
PATTERN_FILL
  6
CONTINUOUS
 62
     7
 10
27.953815414799841
 20
294.90985971007848
 30
0.0
 11
-44.440140403104991
 21
367.30381552798332
 31
0.0
  0
LINE
  5
93
  8
PATTERN_FILL
  6
CONTINUOUS
 62
     7
 10
24.731807981383032
 20
294.13186714349541
 30
0.0
 11
-45.218132969688092
 21
364.08180809456633
 31
0.0
  0
LINE
  5
94
  8
PATTERN_FILL
  6
CONTINUOUS
 62
     7
 10
21.346656049387711
 20
293.51701907549062
 30
0.0
 11
-45.832981037692647
 21
360.69665616257089
 31
0.0
  0
LINE
  5
95
  8
PATTERN_FILL
  6
CONTINUOUS
 62
     7
 10
17.77719446530925
 20
293.08648065956908
 30
0.0
 11
-46.263519453614371
 21
357.12719457849272
 31
0.0
  0
LINE
  5
96
  8
PATTERN_FILL
  6
CONTINUOUS
 62
     7
 10
13.99473772783268
 20
292.86893739704561
 30
0.0
 11
-46.481062716137828
 21
353.34473784101613
 31
0.0
  0
LINE
  5
97
  8
PATTERN_FILL
  6
CONTINUOUS
 62
     7
 10
9.9589289151407332
 20
292.9047462097376
 30
0.0
 11
-46.445253903445852
 21
349.30892902832397
 31
0.0
  0
LINE
  5
98
  8
PATTERN_FILL
  6
CONTINUOUS
 62
     7
 10
5.609986441354649
 20
293.25368868352371
 30
0.0
 11
-46.096311429659757
 21
344.95998655453798
 31
0.0
  0
LINE
  5
99
  8
PATTERN_FILL
  6
CONTINUOUS
 62
     7
 10
0.85256568022875
 20
294.01110944464949
 30
0.0
 11
-45.338890668533857
 21
340.20256579341208
 31
0.0
  0
LINE
  5
9A
  8
PATTERN_FILL
  6
CONTINUOUS
 62
     7
 10
-4.4836075920727998
 20
295.34728271695099
 30
0.0
 11
-44.002717396232313
 21
334.86639252111058
 31
0.0
  0
LINE
  5
9B
  8
PATTERN_FILL
  6
CONTINUOUS
 62
     7
 10
-10.76842954163633
 20
297.63210466651452
 30
0.0
 11
-41.71789544666877
 21
328.58157057154688
 31
0.0
  0
LINE
  5
9C
  8
PATTERN_FILL
  6
CONTINUOUS
 62
     7
 10
-19.27127807809596
 20
302.1349532029742
 30
0.0
 11
-37.215046910209189
 21
320.07872203508742
 31
0.0
  0
LINE
  5
9D
  8
SPEC
  6
CONTINUOUS
 62
     7
 10
-147.49999999999989
 20
507.06362999999988
 30
0.0
 11
295.0
 21
507.06362999999988
 31
0.0
  0
LINE
  5
9E
  8
SPEC
  6
CONTINUOUS
 62
     7
 10
-147.49999999999989
 20
495.81362999999988
 30
0.0
 11
295.0
 21
495.81362999999988
 31
0.0
  0
LINE
  5
9F
  8
SPEC
  6
CONTINUOUS
 62
     7
 10
-147.49999999999989
 20
473.31362999999988
 30
0.0
 11
295.0
 21
473.31362999999988
 31
0.0
  0
LINE
  5
A0
  8
SPEC
  6
CONTINUOUS
 62
     7
 10
-147.49999999999989
 20
484.56362999999988
 30
0.0
 11
295.0
 21
484.56362999999988
 31
0.0
  0
TEXT
  5
A1
  8
SPEC
 62
     7
 10
-47.29999999999999
 20
498.17739479999989
 30
0.0
 40
5.700933749999999
  1
ポップ・スクリーン
 41
0.7
 11
-47.29999999999999
 21
503.87832854999999
 31
0.0
 73
     3
  0
LINE
  5
A2
  8
SPEC
  6
CONTINUOUS
 62
     7
 10
-147.49999999999989
 20
507.06362999999988
 30
0.0
 11
-147.49999999999989
 21
473.31362999999988
 31
0.0
  0
TEXT
  5
A3
  8
SPEC
 62
     7
 10
-143.74999999999989
 20
511.24343999999979
 30
0.0
 40
7.3297851562499989
  1
仕様
 41
0.7
 11
-143.74999999999989
 21
518.57322515624992
 31
0.0
 73
     3
  0
LINE
  5
A4
  8
SPEC
  6
CONTINUOUS
 62
     7
 10
-50.0
 20
507.06362999999988
 30
0.0
 11
-50.0
 21
473.31362999999988
 31
0.0
  0
LINE
  5
A5
  8
SPEC
  6
CONTINUOUS
 62
     7
 10
295.0
 20
507.06362999999988
 30
0.0
 11
295.0
 21
473.31362999999988
 31
0.0
  0
TEXT
  5
A6
  8
SPEC
 62
     7
 10
-144.80000000000001
 20
498.17739479999989
 30
0.0
 40
5.700933749999999
  1
形式
 41
0.7
 11
-144.80000000000001
 21
503.87832854999999
 31
0.0
 73
     3
  0
TEXT
  5
A7
  8
SPEC
 62
     7
 10
-144.80000000000001
 20
486.9273948
 30
0.0
 40
5.700933749999999
  1
寸法
 41
0.7
 11
-144.80000000000001
 21
492.62832854999999
 31
0.0
 73
     3
  0
TEXT
  5
A8
  8
SPEC
 62
     7
 10
-144.80000000000001
 20
475.6773948
 30
0.0
 40
5.700933749999999
  1
質量
 41
0.7
 11
-144.80000000000001
 21
481.37832854999999
 31
0.0
 73
     3
  0
TEXT
  5
A9
  8
SPEC
 62
     7
 10
-47.29999999999999
 20
475.6773948
 30
0.0
 40
5.700933749999999
  1
約200g
 41
0.7
 11
-47.29999999999999
 21
481.37832854999999
 31
0.0
 73
     3
  0
TEXT
  5
AA
  8
SPEC
 62
     7
 10
-47.29999999999999
 20
486.9273948
 30
0.0
 40
5.700933749999999
  1
\U+03A6135\U+00D7468(H)mm(突起は含まず)
 41
0.7
 11
-47.29999999999999
 21
492.62832854999999
 31
0.0
 73
     3
  0
TEXT
  5
AB
  8
DIMNSIONS
 62
     7
 10
40.0
 20
-206.12790000000001
 30
0.0
 40
7.3297851562499989
  1
(単位：mm)
 41
0.7
 11
40.0
 21
-198.79811484375
 31
0.0
 73
     3
  0
LINE
  5
AC
  8
DIMNSIONS
  6
CONTINUOUS
 62
     7
 10
49.94226324520298
 20
408.01339498098758
 30
0.0
 11
62.5
 21
426.85000011318323
 31
0.0
  0
LINE
  5
AD
  8
DIMNSIONS
  6
CONTINUOUS
 62
     7
 10
49.94226324520298
 20
408.01339498098758
 30
0.0
 11
52.47078991641655
 21
415.35676964401949
 31
0.0
  0
LINE
  5
AE
  8
DIMNSIONS
  6
CONTINUOUS
 62
     7
 10
49.94226324520298
 20
408.01339498098758
 30
0.0
 11
55.803718908136361
 21
413.10868065307352
 31
0.0
  0
LINE
  5
AF
  8
DIMNSIONS
  6
CONTINUOUS
 62
     7
 10
62.5
 20
426.85000011318323
 30
0.0
 11
94.958333333333314
 21
426.85000011318323
 31
0.0
  0
TEXT
  5
B0
  8
DIMNSIONS
 62
     7
 10
68.5
 20
429.8316667798498
 30
0.0
 40
8.1442057291666661
  1
\U+03C6135
 41
0.7
 11
68.5
 21
437.97587250901643
 31
0.0
 73
     3
  0
LINE
  5
B1
  8
DIMNSIONS
  6
CONTINUOUS
 62
     7
 10
-2.5000000000000142
 20
-48.64999988681663
 30
0.0
 11
-81.000000000000014
 21
-48.64999988681663
 31
0.0
  0
LINE
  5
B2
  8
DIMNSIONS
  6
CONTINUOUS
 62
     7
 10
5.9999999999999849
 20
419.34814823592831
 30
0.0
 11
-81.000000000000014
 21
419.34814823592831
 31
0.0
  0
LINE
  5
B3
  8
DIMNSIONS
  6
CONTINUOUS
 62
     7
 10
-75.000000000000014
 20
-48.64999988681663
 30
0.0
 11
-75.000000000000014
 21
419.34814823592831
 31
0.0
  0
LINE
  5
B4
  8
DIMNSIONS
  6
CONTINUOUS
 62
     7
 10
-75.000000000000014
 20
-48.64999988681663
 30
0.0
 11
-77.01011938545075
 21
-41.148132211035367
 31
0.0
  0
LINE
  5
B5
  8
DIMNSIONS
  6
CONTINUOUS
 62
     7
 10
-75.000000000000014
 20
-48.64999988681663
 30
0.0
 11
-72.989880614549264
 21
-41.148132211035367
 31
0.0
  0
LINE
  5
B6
  8
DIMNSIONS
  6
CONTINUOUS
 62
     7
 10
-75.000000000000014
 20
419.34814823592831
 30
0.0
 11
-72.989880614549264
 21
411.84628056014702
 31
0.0
  0
LINE
  5
B7
  8
DIMNSIONS
  6
CONTINUOUS
 62
     7
 10
-75.000000000000014
 20
419.34814823592831
 30
0.0
 11
-77.01011938545075
 21
411.84628056014702
 31
0.0
  0
TEXT
  5
B8
  8
DIMNSIONS
 62
     7
 10
-77.981666666666655
 20
177.4115741745558
 30
0.0
 40
8.1442057291666661
  1
468
 50
90.0
 41
0.7
 11
-86.125872395833326
 21
177.4115741745558
 31
0.0
 73
     3
  0
LINE
  5
B9
  8
DIMNSIONS
  6
CONTINUOUS
 62
     7
 10
133.84999999999991
 20
-54.649999886816637
 30
0.0
 11
133.84999999999991
 21
-106.0
 31
0.0
  0
LINE
  5
BA
  8
DIMNSIONS
  6
CONTINUOUS
 62
     7
 10
285.85000000000002
 20
-80.999999886816624
 30
0.0
 11
285.85000000000002
 21
-106.0
 31
0.0
  0
LINE
  5
BB
  8
DIMNSIONS
  6
CONTINUOUS
 62
     7
 10
133.84999999999991
 20
-100.0
 30
0.0
 11
285.85000000000002
 21
-100.0
 31
0.0
  0
LINE
  5
BC
  8
DIMNSIONS
  6
CONTINUOUS
 62
     7
 10
133.84999999999991
 20
-100.0
 30
0.0
 11
141.35186767578119
 21
-97.989880614549264
 31
0.0
  0
LINE
  5
BD
  8
DIMNSIONS
  6
CONTINUOUS
 62
     7
 10
133.84999999999991
 20
-100.0
 30
0.0
 11
141.35186767578119
 21
-102.01011938545069
 31
0.0
  0
LINE
  5
BE
  8
DIMNSIONS
  6
CONTINUOUS
 62
     7
 10
285.85000000000002
 20
-100.0
 30
0.0
 11
278.34813232421868
 21
-102.01011938545069
 31
0.0
  0
LINE
  5
BF
  8
DIMNSIONS
  6
CONTINUOUS
 62
     7
 10
285.85000000000002
 20
-100.0
 30
0.0
 11
278.34813232421868
 21
-97.989880614549264
 31
0.0
  0
TEXT
  5
C0
  8
DIMNSIONS
 62
     7
 10
201.91249999999999
 20
-97.018333333333345
 30
0.0
 40
8.1442057291666661
  1
152
 41
0.7
 11
201.91249999999999
 21
-88.874127604166674
 31
0.0
 73
     3
  0
LINE
  5
C1
  8
DIMNSIONS
  6
CONTINUOUS
 62
     7
 10
273.90177874334978
 20
-131.7715311720745
 30
0.0
 11
279.89999999999998
 21
-117.40000000000001
 31
0.0
  0
LINE
  5
C2
  8
DIMNSIONS
  6
CONTINUOUS
 62
     7
 10
273.90177874334978
 20
-131.7715311720745
 30
0.0
 11
274.98266731575882
 21
-124.0806093506846
 31
0.0
  0
LINE
  5
C3
  8
DIMNSIONS
  6
CONTINUOUS
 62
     7
 10
273.90177874334978
 20
-131.7715311720745
 30
0.0
 11
278.6833166164111
 21
-125.6514417824353
 31
0.0
  0
LINE
  5
C4
  8
DIMNSIONS
  6
CONTINUOUS
 62
     7
 10
279.89999999999998
 20
-117.40000000000001
 30
0.0
 11
338.81666666666672
 21
-117.40000000000001
 31
0.0
  0
TEXT
  5
C5
  8
DIMNSIONS
 62
     7
 10
285.90000000000009
 20
-114.41833333333329
 30
0.0
 40
8.1442057291666661
  1
 最大 \U+03C620
 41
0.7
 11
285.90000000000009
 21
-106.27412760416669
 31
0.0
 73
     3
  0
LINE
  5
C6
  8
DIMNSIONS
  6
CONTINUOUS
 62
     7
 10
-0.0000000000000142
 20
-80.999999886816624
 30
0.0
 11
-0.0000000000000142
 21
-106.0
 31
0.0
  0
LINE
  5
C7
  8
DIMNSIONS
  6
CONTINUOUS
 62
     7
 10
29.999999999999989
 20
-80.999999886816624
 30
0.0
 11
29.999999999999989
 21
-106.0
 31
0.0
  0
LINE
  5
C8
  8
DIMNSIONS
  6
CONTINUOUS
 62
     7
 10
-0.0000000000000142
 20
-100.0
 30
0.0
 11
29.999999999999989
 21
-100.0
 31
0.0
  0
LINE
  5
C9
  8
DIMNSIONS
  6
CONTINUOUS
 62
     7
 10
-0.0000000000000142
 20
-100.0
 30
0.0
 11
7.5018676757812406
 21
-97.989880614549264
 31
0.0
  0
LINE
  5
CA
  8
DIMNSIONS
  6
CONTINUOUS
 62
     7
 10
-0.0000000000000142
 20
-100.0
 30
0.0
 11
7.5018676757812406
 21
-102.01011938545069
 31
0.0
  0
LINE
  5
CB
  8
DIMNSIONS
  6
CONTINUOUS
 62
     7
 10
29.999999999999989
 20
-100.0
 30
0.0
 11
22.49813232421873
 21
-102.01011938545069
 31
0.0
  0
LINE
  5
CC
  8
DIMNSIONS
  6
CONTINUOUS
 62
     7
 10
29.999999999999989
 20
-100.0
 30
0.0
 11
22.49813232421873
 21
-97.989880614549264
 31
0.0
  0
TEXT
  5
CD
  8
DIMNSIONS
 62
     7
 10
9.7083333333333144
 20
-97.018333333333345
 30
0.0
 40
8.1442057291666661
  1
30
 41
0.7
 11
9.7083333333333144
 21
-88.874127604166674
 31
0.0
 73
     3
  0
LINE
  5
CE
  8
DIMNSIONS
  6
CONTINUOUS
 62
     7
 10
-6.0000000000000142
 20
-74.999999886816624
 30
0.0
 11
-81.000000000000014
 21
-74.999999886816624
 31
0.0
  0
LINE
  5
CF
  8
DIMNSIONS
  6
CONTINUOUS
 62
     7
 10
-2.5000000000000142
 20
-48.64999988681663
 30
0.0
 11
-81.000000000000014
 21
-48.64999988681663
 31
0.0
  0
LINE
  5
D0
  8
DIMNSIONS
  6
CONTINUOUS
 62
     7
 10
-75.000000000000014
 20
-74.999999886816624
 30
0.0
 11
-75.000000000000014
 21
-48.64999988681663
 31
0.0
  0
LINE
  5
D1
  8
DIMNSIONS
  6
CONTINUOUS
 62
     7
 10
-75.000000000000014
 20
-74.999999886816624
 30
0.0
 11
-77.01011938545075
 21
-67.498132211035355
 31
0.0
  0
LINE
  5
D2
  8
DIMNSIONS
  6
CONTINUOUS
 62
     7
 10
-75.000000000000014
 20
-74.999999886816624
 30
0.0
 11
-72.989880614549264
 21
-67.498132211035355
 31
0.0
  0
LINE
  5
D3
  8
DIMNSIONS
  6
CONTINUOUS
 62
     7
 10
-75.000000000000014
 20
-48.64999988681663
 30
0.0
 11
-72.989880614549264
 21
-56.151867562597893
 31
0.0
  0
LINE
  5
D4
  8
DIMNSIONS
  6
CONTINUOUS
 62
     7
 10
-75.000000000000014
 20
-48.64999988681663
 30
0.0
 11
-77.01011938545075
 21
-56.151867562597893
 31
0.0
  0
TEXT
  5
D5
  8
DIMNSIONS
 62
     7
 10
-77.981666666666655
 20
-67.11666655348327
 30
0.0
 40
8.1442057291666661
  1
26
 50
90.0
 41
0.7
 11
-86.125872395833326
 21
-67.11666655348327
 31
0.0
 73
     3
  0
TEXT
  5
D6
  8
DATA
 62
     7
 10
250.0
 20
-209.5437
 30
0.0
 40
7.3297851562499989
  1
PF 80
 41
0.7
 11
250.0
 21
-202.21391484374999
 31
0.0
 73
     3
  0
TEXT
  5
D7
  8
DATA
 62
     7
 10
250.0
 20
-187.7937
 30
0.0
 40
7.3297851562499989
  1
AKG
 41
0.7
 11
250.0
 21
-180.46391484374999
 31
0.0
 73
     3
  0
TEXT
  5
D8
  8
DATA
 62
     7
 10
242.5
 20
-198.22456859999991
 30
0.0
 40
4.8865311328124994
  1
ポップ・スクリーン
 41
0.7
 11
242.5
 21
-193.33803746718741
 31
0.0
 73
     3
  0
TEXT
  5
D9
  8
DATA
 62
     7
 10
-139.99999999999989
 20
-230.22237000000001
 30
0.0
 40
4.8865234374999993
  1
仕様および外観は予告なく変更されることがありますので、ご了承ください。
 41
0.7
 11
-139.99999999999989
 21
-225.3358465625
 31
0.0
 73
     3
  0
ARC
  5
DA
  8
DATA
  6
CONTINUOUS
 62
     7
 10
12.499999999999931
 20
351.85000011318351
 30
0.0
 40
67.500000000000071
 50
280.67192928576219
 51
259.3280707142377
  0
LINE
  5
DB
  8
DATA
  6
CONTINUOUS
 62
     7
 10
21.499999999999989
 20
-48.64999988681663
 30
0.0
 11
3.4999999999999849
 21
-48.64999988681663
 31
0.0
  0
LINE
  5
DC
  8
DATA
  6
CONTINUOUS
 62
     7
 10
8.3500000000000085
 20
-28.999999886816621
 30
0.0
 11
8.3500000000000085
 21
272.91674742999999
 31
0.0
  0
LINE
  5
DD
  8
DATA
  6
CONTINUOUS
 62
     7
 10
16.649999999999991
 20
272.91674740000002
 30
0.0
 11
16.649999999999991
 21
-28.999999886816649
 31
0.0
  0
LINE
  5
DE
  8
DATA
  6
CONTINUOUS
 62
     7
 10
3.4999999999999849
 20
-48.64999988681663
 30
0.0
 11
3.4999999999999849
 21
-45.999999886816617
 31
0.0
  0
LINE
  5
DF
  8
DATA
  6
CONTINUOUS
 62
     7
 10
21.499999999999989
 20
-48.64999988681663
 30
0.0
 11
21.499999999999989
 21
-45.999999886816617
 31
0.0
  0
LINE
  5
E0
  8
DATA
  6
CONTINUOUS
 62
     7
 10
21.499999999999989
 20
-45.999999886816617
 30
0.0
 11
3.4999999999999849
 21
-45.999999886816617
 31
0.0
  0
CIRCLE
  5
E1
  8
DATA
  6
CONTINUOUS
 62
     7
 10
12.49999999999998
 20
351.85000011318328
 30
0.0
 40
59.0
  0
LINE
  5
E2
  8
DATA
  6
CONTINUOUS
 62
     7
 10
15.83575358870725
 20
272.8500001131834
 30
0.0
 11
9.1642464112927229
 21
272.8500001131834
 31
0.0
  0
LINE
  5
E3
  8
DATA
  6
CONTINUOUS
 62
     7
 10
4.6455024678347314
 20
275.70968397451088
 30
0.0
 11
-0.0000000000000142
 21
285.51750430607541
 31
0.0
  0
LINE
  5
E4
  8
DATA
  6
CONTINUOUS
 62
     7
 10
20.35449753216524
 20
275.70968397451088
 30
0.0
 11
25.0
 21
285.51750430607541
 31
0.0
  0
LINE
  5
E5
  8
DATA
  6
CONTINUOUS
 62
     7
 10
-0.0000000000000142
 20
285.51750430607541
 30
0.0
 11
4.59964817703694
 21
285.92848781711092
 31
0.0
  0
LINE
  5
E6
  8
DATA
  6
CONTINUOUS
 62
     7
 10
24.999999999999989
 20
285.51750430607541
 30
0.0
 11
20.4003518229642
 21
285.92848781711092
 31
0.0
  0
ARC
  5
E7
  8
DATA
  6
CONTINUOUS
 62
     7
 10
12.49999999999998
 20
270.513709790603
 30
0.0
 40
17.03629032258036
 50
67.746281686583615
 51
112.2537183134135
  0
ARC
  5
E8
  8
DATA
  6
CONTINUOUS
 62
     7
 10
4.1546655537741932
 20
290.90864749978562
 30
0.0
 40
4.9999999999943467
 50
275.10588052816121
 51
292.25371831343273
  0
ARC
  5
E9
  8
DATA
  6
CONTINUOUS
 62
     7
 10
20.84533444622765
 20
290.9086474997934
 30
0.0
 40
5.000000000002359
 50
247.74628168659149
 51
264.89411947183891
  0
ARC
  5
EA
  8
DATA
  6
CONTINUOUS
 62
     7
 10
9.1642464112927229
 20
277.85000011318328
 30
0.0
 40
5.0000000000000071
 50
205.34471036341839
 51
270.0
  0
ARC
  5
EB
  8
DATA
  6
CONTINUOUS
 62
     7
 10
15.83575358870725
 20
277.85000011318328
 30
0.0
 40
5.0
 50
270.0
 51
334.65528963658159
  0
POLYLINE
  5
EC
  8
DATA
  6
CONTINUOUS
 62
     7
 66
     1
 10
0.0
 20
0.0
 30
0.0
 70
     1
  0
VERTEX
  5
2E8
  8
DATA
  6
CONTINUOUS
 62
     7
 10
3.3349364905399308
 20
281.46674532737489
 30
0.0
  0
VERTEX
  5
2E9
  8
DATA
  6
CONTINUOUS
 62
     7
 10
3.3349364905399019
 20
278.96674532737609
 30
0.0
  0
VERTEX
  5
2EA
  8
DATA
  6
CONTINUOUS
 62
     7
 10
5.4999999999999556
 20
277.7167453273766
 30
0.0
  0
VERTEX
  5
2EB
  8
DATA
  6
CONTINUOUS
 62
     7
 10
7.6650635094600403
 20
278.96674532737609
 30
0.0
  0
VERTEX
  5
2EC
  8
DATA
  6
CONTINUOUS
 62
     7
 10
7.6650635094600661
 20
281.46674532737478
 30
0.0
  0
VERTEX
  5
2ED
  8
DATA
  6
CONTINUOUS
 62
     7
 10
5.5000000000000142
 20
282.71674532737433
 30
0.0
  0
SEQEND
  5
2EE
  8
DATA
  6
CONTINUOUS
 62
     7
  0
CIRCLE
  5
F5
  8
DATA
  6
CONTINUOUS
 62
     7
 10
5.4999999999999849
 20
280.21674532737552
 30
0.0
 40
1.150000000000005
  0
POLYLINE
  5
F6
  8
DATA
  6
CONTINUOUS
 62
     7
 66
     1
 10
0.0
 20
0.0
 30
0.0
 70
     1
  0
VERTEX
  5
2EF
  8
DATA
  6
CONTINUOUS
 62
     7
 10
21.66506350946004
 20
281.46674532737489
 30
0.0
  0
VERTEX
  5
2F0
  8
DATA
  6
CONTINUOUS
 62
     7
 10
21.665063509460069
 20
278.96674532737609
 30
0.0
  0
VERTEX
  5
2F1
  8
DATA
  6
CONTINUOUS
 62
     7
 10
19.500000000000011
 20
277.7167453273766
 30
0.0
  0
VERTEX
  5
2F2
  8
DATA
  6
CONTINUOUS
 62
     7
 10
17.334936490539931
 20
278.96674532737609
 30
0.0
  0
VERTEX
  5
2F3
  8
DATA
  6
CONTINUOUS
 62
     7
 10
17.334936490539899
 20
281.46674532737478
 30
0.0
  0
VERTEX
  5
2F4
  8
DATA
  6
CONTINUOUS
 62
     7
 10
19.499999999999961
 20
282.71674532737433
 30
0.0
  0
SEQEND
  5
2F5
  8
DATA
  6
CONTINUOUS
 62
     7
  0
CIRCLE
  5
FF
  8
DATA
  6
CONTINUOUS
 62
     7
 10
19.499999999999979
 20
280.21674532737552
 30
0.0
 40
1.150000000000005
  0
LINE
  5
100
  8
DATA
  6
CONTINUOUS
 62
     7
 10
16.999999999999979
 20
-28.999999886816621
 30
0.0
 11
7.9999999999999867
 21
-28.999999886816621
 31
0.0
  0
LINE
  5
101
  8
DATA
  6
CONTINUOUS
 62
     7
 10
7.4999999999999867
 20
-45.999999886816617
 30
0.0
 11
7.4999999999999867
 21
-32.999999886816617
 31
0.0
  0
LINE
  5
102
  8
DATA
  6
CONTINUOUS
 62
     7
 10
17.499999999999979
 20
-45.999999886816617
 30
0.0
 11
17.499999999999979
 21
-32.999999886816617
 31
0.0
  0
LINE
  5
103
  8
DATA
  6
CONTINUOUS
 62
     7
 10
7.4999999999999867
 20
-32.999999886816617
 30
0.0
 11
7.9999999999999867
 21
-28.999999886816621
 31
0.0
  0
LINE
  5
104
  8
DATA
  6
CONTINUOUS
 62
     7
 10
17.499999999999979
 20
-32.999999886816617
 30
0.0
 11
16.999999999999979
 21
-28.999999886816621
 31
0.0
  0
LINE
  5
105
  8
DATA
  6
CONTINUOUS
 62
     7
 10
3.4999999999999849
 20
-48.64999988681663
 30
0.0
 11
3.4999999999999849
 21
-54.957235503730892
 31
0.0
  0
LINE
  5
106
  8
DATA
  6
CONTINUOUS
 62
     7
 10
3.4999999999999849
 20
-69.275056567007255
 30
0.0
 11
3.4999999999999849
 21
-74.999999886816624
 31
0.0
  0
LINE
  5
107
  8
DATA
  6
CONTINUOUS
 62
     7
 10
21.499999999999989
 20
-48.64999988681663
 30
0.0
 11
21.499999999999989
 21
-54.957235503730892
 31
0.0
  0
LINE
  5
108
  8
DATA
  6
CONTINUOUS
 62
     7
 10
21.499999999999989
 20
-69.275056567007255
 30
0.0
 11
21.499999999999989
 21
-74.999999886816624
 31
0.0
  0
LINE
  5
109
  8
DATA
  6
CONTINUOUS
 62
     7
 10
3.4999999999999849
 20
-48.999999886816617
 30
0.0
 11
-0.0000000000000142
 21
-48.999999886816617
 31
0.0
  0
LINE
  5
10A
  8
DATA
  6
CONTINUOUS
 62
     7
 10
-0.0000000000000142
 20
-48.999999886816617
 30
0.0
 11
-0.0000000000000142
 21
-74.999999886816624
 31
0.0
  0
CIRCLE
  5
10B
  8
DATA
  6
CONTINUOUS
 62
     7
 10
12.49999999999998
 20
-62.11614603536907
 30
0.0
 40
11.5
  0
LINE
  5
10C
  8
DATA
  6
CONTINUOUS
 62
     7
 10
8.3500000000000085
 20
271.35657631545871
 30
0.0
 11
13.2063133566299
 21
272.8500001131834
 31
0.0
  0
LINE
  5
10D
  8
DATA
  6
CONTINUOUS
 62
     7
 10
8.3500000000000085
 20
267.35657631545871
 30
0.0
 11
16.649999999999991
 21
269.90900994377722
 31
0.0
  0
LINE
  5
10E
  8
DATA
  6
CONTINUOUS
 62
     7
 10
8.3500000000000085
 20
263.35657631545871
 30
0.0
 11
16.649999999999991
 21
265.90900994377722
 31
0.0
  0
LINE
  5
10F
  8
DATA
  6
CONTINUOUS
 62
     7
 10
8.3500000000000085
 20
259.3565763154586
 30
0.0
 11
16.649999999999991
 21
261.90900994377722
 31
0.0
  0
LINE
  5
110
  8
DATA
  6
CONTINUOUS
 62
     7
 10
8.3500000000000085
 20
255.3565763154586
 30
0.0
 11
16.649999999999991
 21
257.90900994377722
 31
0.0
  0
LINE
  5
111
  8
DATA
  6
CONTINUOUS
 62
     7
 10
8.3500000000000085
 20
251.3565763154586
 30
0.0
 11
16.649999999999991
 21
253.90900994377711
 31
0.0
  0
LINE
  5
112
  8
DATA
  6
CONTINUOUS
 62
     7
 10
8.3500000000000085
 20
247.3565763154586
 30
0.0
 11
16.649999999999991
 21
249.90900994377719
 31
0.0
  0
LINE
  5
113
  8
DATA
  6
CONTINUOUS
 62
     7
 10
8.3500000000000085
 20
243.3565763154586
 30
0.0
 11
16.649999999999991
 21
245.90900994377719
 31
0.0
  0
LINE
  5
114
  8
DATA
  6
CONTINUOUS
 62
     7
 10
8.3500000000000085
 20
239.35657631545871
 30
0.0
 11
16.649999999999991
 21
241.90900994377711
 31
0.0
  0
LINE
  5
115
  8
DATA
  6
CONTINUOUS
 62
     7
 10
8.3500000000000085
 20
235.35657631545871
 30
0.0
 11
16.649999999999991
 21
237.90900994377711
 31
0.0
  0
LINE
  5
116
  8
DATA
  6
CONTINUOUS
 62
     7
 10
8.3500000000000085
 20
231.35657631545871
 30
0.0
 11
16.649999999999991
 21
233.90900994377711
 31
0.0
  0
LINE
  5
117
  8
DATA
  6
CONTINUOUS
 62
     7
 10
8.3500000000000085
 20
227.35657631545871
 30
0.0
 11
16.649999999999991
 21
229.90900994377711
 31
0.0
  0
LINE
  5
118
  8
DATA
  6
CONTINUOUS
 62
     7
 10
8.3500000000000085
 20
223.35657631545871
 30
0.0
 11
16.649999999999991
 21
225.90900994377711
 31
0.0
  0
LINE
  5
119
  8
DATA
  6
CONTINUOUS
 62
     7
 10
8.3500000000000085
 20
219.35657631545871
 30
0.0
 11
16.649999999999991
 21
221.90900994377711
 31
0.0
  0
LINE
  5
11A
  8
DATA
  6
CONTINUOUS
 62
     7
 10
8.3500000000000085
 20
215.35657631545871
 30
0.0
 11
16.649999999999991
 21
217.90900994377711
 31
0.0
  0
LINE
  5
11B
  8
DATA
  6
CONTINUOUS
 62
     7
 10
8.3500000000000085
 20
211.3565763154586
 30
0.0
 11
16.649999999999991
 21
213.90900994377711
 31
0.0
  0
LINE
  5
11C
  8
DATA
  6
CONTINUOUS
 62
     7
 10
8.3500000000000085
 20
207.3565763154586
 30
0.0
 11
16.649999999999991
 21
209.90900994377711
 31
0.0
  0
LINE
  5
11D
  8
DATA
  6
CONTINUOUS
 62
     7
 10
8.3500000000000085
 20
203.3565763154586
 30
0.0
 11
16.649999999999991
 21
205.90900994377711
 31
0.0
  0
LINE
  5
11E
  8
DATA
  6
CONTINUOUS
 62
     7
 10
8.3500000000000085
 20
199.3565763154586
 30
0.0
 11
16.649999999999991
 21
201.90900994377711
 31
0.0
  0
LINE
  5
11F
  8
DATA
  6
CONTINUOUS
 62
     7
 10
8.3500000000000085
 20
195.3565763154586
 30
0.0
 11
16.649999999999991
 21
197.90900994377711
 31
0.0
  0
LINE
  5
120
  8
DATA
  6
CONTINUOUS
 62
     7
 10
8.3500000000000085
 20
191.3565763154586
 30
0.0
 11
16.649999999999991
 21
193.90900994377711
 31
0.0
  0
LINE
  5
121
  8
DATA
  6
CONTINUOUS
 62
     7
 10
8.3500000000000085
 20
187.3565763154586
 30
0.0
 11
16.649999999999991
 21
189.90900994377711
 31
0.0
  0
LINE
  5
122
  8
DATA
  6
CONTINUOUS
 62
     7
 10
8.3500000000000085
 20
183.3565763154586
 30
0.0
 11
16.649999999999991
 21
185.90900994377711
 31
0.0
  0
LINE
  5
123
  8
DATA
  6
CONTINUOUS
 62
     7
 10
8.3500000000000085
 20
179.3565763154586
 30
0.0
 11
16.649999999999991
 21
181.90900994377711
 31
0.0
  0
LINE
  5
124
  8
DATA
  6
CONTINUOUS
 62
     7
 10
8.3500000000000085
 20
175.3565763154586
 30
0.0
 11
16.649999999999991
 21
177.90900994377711
 31
0.0
  0
LINE
  5
125
  8
DATA
  6
CONTINUOUS
 62
     7
 10
8.3500000000000085
 20
171.3565763154586
 30
0.0
 11
16.649999999999991
 21
173.90900994377711
 31
0.0
  0
LINE
  5
126
  8
DATA
  6
CONTINUOUS
 62
     7
 10
8.3500000000000085
 20
167.3565763154586
 30
0.0
 11
16.649999999999991
 21
169.90900994377711
 31
0.0
  0
LINE
  5
127
  8
DATA
  6
CONTINUOUS
 62
     7
 10
8.3500000000000085
 20
163.3565763154586
 30
0.0
 11
16.649999999999991
 21
165.90900994377711
 31
0.0
  0
LINE
  5
128
  8
DATA
  6
CONTINUOUS
 62
     7
 10
8.3500000000000085
 20
159.3565763154586
 30
0.0
 11
16.649999999999991
 21
161.90900994377711
 31
0.0
  0
LINE
  5
129
  8
DATA
  6
CONTINUOUS
 62
     7
 10
8.3500000000000085
 20
155.3565763154586
 30
0.0
 11
16.649999999999991
 21
157.90900994377711
 31
0.0
  0
LINE
  5
12A
  8
DATA
  6
CONTINUOUS
 62
     7
 10
8.3500000000000085
 20
151.3565763154586
 30
0.0
 11
16.649999999999991
 21
153.90900994377711
 31
0.0
  0
LINE
  5
12B
  8
DATA
  6
CONTINUOUS
 62
     7
 10
8.3500000000000085
 20
147.3565763154586
 30
0.0
 11
16.649999999999991
 21
149.90900994377711
 31
0.0
  0
LINE
  5
12C
  8
DATA
  6
CONTINUOUS
 62
     7
 10
8.3500000000000085
 20
143.3565763154586
 30
0.0
 11
16.649999999999991
 21
145.90900994377711
 31
0.0
  0
LINE
  5
12D
  8
DATA
  6
CONTINUOUS
 62
     7
 10
8.3500000000000085
 20
139.3565763154586
 30
0.0
 11
16.649999999999991
 21
141.90900994377711
 31
0.0
  0
LINE
  5
12E
  8
DATA
  6
CONTINUOUS
 62
     7
 10
8.3500000000000085
 20
135.3565763154586
 30
0.0
 11
16.649999999999991
 21
137.90900994377711
 31
0.0
  0
LINE
  5
12F
  8
DATA
  6
CONTINUOUS
 62
     7
 10
8.3500000000000085
 20
131.3565763154586
 30
0.0
 11
16.649999999999991
 21
133.90900994377711
 31
0.0
  0
LINE
  5
130
  8
DATA
  6
CONTINUOUS
 62
     7
 10
8.3500000000000085
 20
127.3565763154586
 30
0.0
 11
16.649999999999991
 21
129.90900994377711
 31
0.0
  0
LINE
  5
131
  8
DATA
  6
CONTINUOUS
 62
     7
 10
8.3500000000000085
 20
123.3565763154586
 30
0.0
 11
16.649999999999991
 21
125.90900994377709
 31
0.0
  0
LINE
  5
132
  8
DATA
  6
CONTINUOUS
 62
     7
 10
8.3500000000000085
 20
119.3565763154586
 30
0.0
 11
16.649999999999991
 21
121.90900994377709
 31
0.0
  0
LINE
  5
133
  8
DATA
  6
CONTINUOUS
 62
     7
 10
8.3500000000000085
 20
115.3565763154586
 30
0.0
 11
16.649999999999991
 21
117.90900994377709
 31
0.0
  0
LINE
  5
134
  8
DATA
  6
CONTINUOUS
 62
     7
 10
8.3500000000000085
 20
111.3565763154586
 30
0.0
 11
16.649999999999991
 21
113.90900994377709
 31
0.0
  0
LINE
  5
135
  8
DATA
  6
CONTINUOUS
 62
     7
 10
8.3500000000000085
 20
107.3565763154586
 30
0.0
 11
16.649999999999991
 21
109.90900994377709
 31
0.0
  0
LINE
  5
136
  8
DATA
  6
CONTINUOUS
 62
     7
 10
8.3500000000000085
 20
103.3565763154586
 30
0.0
 11
16.649999999999991
 21
105.90900994377709
 31
0.0
  0
LINE
  5
137
  8
DATA
  6
CONTINUOUS
 62
     7
 10
8.3500000000000085
 20
99.356576315458653
 30
0.0
 11
16.649999999999991
 21
101.90900994377709
 31
0.0
  0
LINE
  5
138
  8
DATA
  6
CONTINUOUS
 62
     7
 10
8.3500000000000085
 20
95.356576315458625
 30
0.0
 11
16.649999999999991
 21
97.909009943777136
 31
0.0
  0
LINE
  5
139
  8
DATA
  6
CONTINUOUS
 62
     7
 10
8.3500000000000085
 20
91.356576315458625
 30
0.0
 11
16.649999999999991
 21
93.909009943777065
 31
0.0
  0
LINE
  5
13A
  8
DATA
  6
CONTINUOUS
 62
     7
 10
8.3500000000000085
 20
87.356576315458625
 30
0.0
 11
16.649999999999991
 21
89.909009943777079
 31
0.0
  0
LINE
  5
13B
  8
DATA
  6
CONTINUOUS
 62
     7
 10
8.3500000000000085
 20
83.356576315458625
 30
0.0
 11
16.649999999999991
 21
85.909009943777079
 31
0.0
  0
LINE
  5
13C
  8
DATA
  6
CONTINUOUS
 62
     7
 10
8.3500000000000085
 20
79.356576315458625
 30
0.0
 11
16.649999999999991
 21
81.909009943777093
 31
0.0
  0
LINE
  5
13D
  8
DATA
  6
CONTINUOUS
 62
     7
 10
8.3500000000000085
 20
75.356576315458625
 30
0.0
 11
16.649999999999991
 21
77.909009943777093
 31
0.0
  0
LINE
  5
13E
  8
DATA
  6
CONTINUOUS
 62
     7
 10
8.3500000000000085
 20
71.356576315458625
 30
0.0
 11
16.649999999999991
 21
73.909009943777093
 31
0.0
  0
LINE
  5
13F
  8
DATA
  6
CONTINUOUS
 62
     7
 10
8.3500000000000085
 20
67.356576315458625
 30
0.0
 11
16.649999999999991
 21
69.909009943777093
 31
0.0
  0
LINE
  5
140
  8
DATA
  6
CONTINUOUS
 62
     7
 10
8.3500000000000085
 20
63.356576315458632
 30
0.0
 11
16.649999999999991
 21
65.909009943777107
 31
0.0
  0
LINE
  5
141
  8
DATA
  6
CONTINUOUS
 62
     7
 10
8.3500000000000085
 20
59.356576315458632
 30
0.0
 11
16.649999999999991
 21
61.909009943777107
 31
0.0
  0
LINE
  5
142
  8
DATA
  6
CONTINUOUS
 62
     7
 10
8.3500000000000085
 20
55.356576315458632
 30
0.0
 11
16.649999999999991
 21
57.909009943777107
 31
0.0
  0
LINE
  5
143
  8
DATA
  6
CONTINUOUS
 62
     7
 10
8.3500000000000085
 20
51.356576315458632
 30
0.0
 11
16.649999999999991
 21
53.909009943777107
 31
0.0
  0
LINE
  5
144
  8
DATA
  6
CONTINUOUS
 62
     7
 10
8.3500000000000085
 20
47.356576315458632
 30
0.0
 11
16.649999999999991
 21
49.909009943777107
 31
0.0
  0
LINE
  5
145
  8
DATA
  6
CONTINUOUS
 62
     7
 10
8.3500000000000085
 20
43.356576315458632
 30
0.0
 11
16.649999999999991
 21
45.909009943777107
 31
0.0
  0
LINE
  5
146
  8
DATA
  6
CONTINUOUS
 62
     7
 10
8.3500000000000085
 20
39.356576315458632
 30
0.0
 11
16.649999999999991
 21
41.9090099437771
 31
0.0
  0
LINE
  5
147
  8
DATA
  6
CONTINUOUS
 62
     7
 10
8.3500000000000085
 20
35.356576315458632
 30
0.0
 11
16.649999999999991
 21
37.909009943777107
 31
0.0
  0
LINE
  5
148
  8
DATA
  6
CONTINUOUS
 62
     7
 10
8.3500000000000085
 20
31.356576315458629
 30
0.0
 11
16.649999999999991
 21
33.909009943777107
 31
0.0
  0
LINE
  5
149
  8
DATA
  6
CONTINUOUS
 62
     7
 10
8.3500000000000085
 20
27.356576315458621
 30
0.0
 11
16.649999999999991
 21
29.909009943777111
 31
0.0
  0
LINE
  5
14A
  8
DATA
  6
CONTINUOUS
 62
     7
 10
8.3500000000000085
 20
23.356576315458629
 30
0.0
 11
16.649999999999991
 21
25.909009943777111
 31
0.0
  0
LINE
  5
14B
  8
DATA
  6
CONTINUOUS
 62
     7
 10
8.3500000000000085
 20
19.356576315458621
 30
0.0
 11
16.649999999999991
 21
21.909009943777111
 31
0.0
  0
LINE
  5
14C
  8
DATA
  6
CONTINUOUS
 62
     7
 10
8.3500000000000085
 20
15.35657631545862
 30
0.0
 11
16.649999999999991
 21
17.9090099437771
 31
0.0
  0
LINE
  5
14D
  8
DATA
  6
CONTINUOUS
 62
     7
 10
8.3500000000000085
 20
11.35657631545865
 30
0.0
 11
16.649999999999991
 21
13.909009943777111
 31
0.0
  0
LINE
  5
14E
  8
DATA
  6
CONTINUOUS
 62
     7
 10
8.3500000000000085
 20
7.356576315458681
 30
0.0
 11
16.649999999999991
 21
9.9090099437771357
 31
0.0
  0
LINE
  5
14F
  8
DATA
  6
CONTINUOUS
 62
     7
 10
8.3500000000000085
 20
3.3565763154587098
 30
0.0
 11
16.649999999999991
 21
5.9090099437771642
 31
0.0
  0
LINE
  5
150
  8
DATA
  6
CONTINUOUS
 62
     7
 10
8.3500000000000085
 20
-0.6434236845412613
 30
0.0
 11
16.649999999999991
 21
1.9090099437771919
 31
0.0
  0
LINE
  5
151
  8
DATA
  6
CONTINUOUS
 62
     7
 10
8.3500000000000085
 20
-4.6434236845412604
 30
0.0
 11
16.649999999999991
 21
-2.090990056222779
 31
0.0
  0
LINE
  5
152
  8
DATA
  6
CONTINUOUS
 62
     7
 10
8.3500000000000085
 20
-8.6434236845412613
 30
0.0
 11
16.649999999999991
 21
-6.0909900562227781
 31
0.0
  0
LINE
  5
153
  8
DATA
  6
CONTINUOUS
 62
     7
 10
8.3500000000000085
 20
-12.64342368454126
 30
0.0
 11
16.649999999999991
 21
-10.090990056222781
 31
0.0
  0
LINE
  5
154
  8
DATA
  6
CONTINUOUS
 62
     7
 10
8.3500000000000085
 20
-16.643423684541261
 30
0.0
 11
16.649999999999991
 21
-14.090990056222781
 31
0.0
  0
LINE
  5
155
  8
DATA
  6
CONTINUOUS
 62
     7
 10
8.3500000000000085
 20
-20.643423684541261
 30
0.0
 11
16.649999999999991
 21
-18.090990056222768
 31
0.0
  0
LINE
  5
156
  8
DATA
  6
CONTINUOUS
 62
     7
 10
8.3500000000000085
 20
-24.643423684541268
 30
0.0
 11
16.649999999999991
 21
-22.090990056222768
 31
0.0
  0
LINE
  5
157
  8
DATA
  6
CONTINUOUS
 62
     7
 10
8.3500000000000085
 20
-28.643423684541261
 30
0.0
 11
16.649999999999991
 21
-26.090990056222768
 31
0.0
  0
LINE
  5
158
  8
DATA
  6
CONTINUOUS
 62
     7
 10
137.5
 20
417.85000011318323
 30
0.0
 11
137.5
 21
285.51750430607541
 31
0.0
  0
LINE
  5
159
  8
DATA
  6
CONTINUOUS
 62
     7
 10
139.0
 20
419.35000011318323
 30
0.0
 11
149.69999999999999
 21
419.35000011318323
 31
0.0
  0
LINE
  5
15A
  8
DATA
  6
CONTINUOUS
 62
     7
 10
138.77138322732341
 20
272.8500001131834
 30
0.0
 11
149.92861677267649
 21
272.8500001131834
 31
0.0
  0
LINE
  5
15B
  8
DATA
  6
CONTINUOUS
 62
     7
 10
151.19999999999999
 20
417.85000011318323
 30
0.0
 11
151.19999999999999
 21
285.51750430607541
 31
0.0
  0
LINE
  5
15C
  8
DATA
  6
CONTINUOUS
 62
     7
 10
137.5
 20
285.51750430607541
 30
0.0
 11
151.19999999999999
 21
285.51750430607541
 31
0.0
  0
LINE
  5
15D
  8
DATA
  6
CONTINUOUS
 62
     7
 10
140.19999999999999
 20
-28.999999886816621
 30
0.0
 11
140.19999999999999
 21
272.8500001131834
 31
0.0
  0
LINE
  5
15E
  8
DATA
  6
CONTINUOUS
 62
     7
 10
148.5
 20
272.8500001131834
 30
0.0
 11
148.5
 21
-28.999999886816649
 31
0.0
  0
LINE
  5
15F
  8
DATA
  6
CONTINUOUS
 62
     7
 10
147.6857535887072
 20
272.8500001131834
 30
0.0
 11
141.0142464112927
 21
272.8500001131834
 31
0.0
  0
LINE
  5
160
  8
DATA
  6
CONTINUOUS
 62
     7
 10
148.84999999999991
 20
-28.999999886816621
 30
0.0
 11
139.84999999999991
 21
-28.999999886816621
 31
0.0
  0
LINE
  5
161
  8
DATA
  6
CONTINUOUS
 62
     7
 10
139.34999999999991
 20
-45.999999886816617
 30
0.0
 11
139.34999999999991
 21
-32.999999886816617
 31
0.0
  0
LINE
  5
162
  8
DATA
  6
CONTINUOUS
 62
     7
 10
149.34999999999991
 20
-45.999999886816617
 30
0.0
 11
149.34999999999991
 21
-32.999999886816617
 31
0.0
  0
LINE
  5
163
  8
DATA
  6
CONTINUOUS
 62
     7
 10
139.34999999999991
 20
-32.999999886816617
 30
0.0
 11
139.84999999999991
 21
-28.999999886816621
 31
0.0
  0
LINE
  5
164
  8
DATA
  6
CONTINUOUS
 62
     7
 10
149.34999999999991
 20
-32.999999886816617
 30
0.0
 11
148.84999999999991
 21
-28.999999886816621
 31
0.0
  0
LINE
  5
165
  8
DATA
  6
CONTINUOUS
 62
     7
 10
140.19999999999999
 20
271.35657631545871
 30
0.0
 11
145.05631335662989
 21
272.8500001131834
 31
0.0
  0
LINE
  5
166
  8
DATA
  6
CONTINUOUS
 62
     7
 10
140.19999999999999
 20
267.35657631545871
 30
0.0
 11
148.5
 21
269.90900994377722
 31
0.0
  0
LINE
  5
167
  8
DATA
  6
CONTINUOUS
 62
     7
 10
140.19999999999999
 20
263.35657631545871
 30
0.0
 11
148.5
 21
265.90900994377722
 31
0.0
  0
LINE
  5
168
  8
DATA
  6
CONTINUOUS
 62
     7
 10
140.19999999999999
 20
259.3565763154586
 30
0.0
 11
148.5
 21
261.90900994377722
 31
0.0
  0
LINE
  5
169
  8
DATA
  6
CONTINUOUS
 62
     7
 10
140.19999999999999
 20
255.3565763154586
 30
0.0
 11
148.5
 21
257.90900994377722
 31
0.0
  0
LINE
  5
16A
  8
DATA
  6
CONTINUOUS
 62
     7
 10
140.19999999999999
 20
251.3565763154586
 30
0.0
 11
148.5
 21
253.90900994377711
 31
0.0
  0
LINE
  5
16B
  8
DATA
  6
CONTINUOUS
 62
     7
 10
140.19999999999999
 20
247.3565763154586
 30
0.0
 11
148.5
 21
249.90900994377719
 31
0.0
  0
LINE
  5
16C
  8
DATA
  6
CONTINUOUS
 62
     7
 10
140.19999999999999
 20
243.3565763154586
 30
0.0
 11
148.5
 21
245.90900994377719
 31
0.0
  0
LINE
  5
16D
  8
DATA
  6
CONTINUOUS
 62
     7
 10
140.19999999999999
 20
239.35657631545871
 30
0.0
 11
148.5
 21
241.90900994377711
 31
0.0
  0
LINE
  5
16E
  8
DATA
  6
CONTINUOUS
 62
     7
 10
140.19999999999999
 20
235.35657631545871
 30
0.0
 11
148.5
 21
237.90900994377711
 31
0.0
  0
LINE
  5
16F
  8
DATA
  6
CONTINUOUS
 62
     7
 10
140.19999999999999
 20
231.35657631545871
 30
0.0
 11
148.5
 21
233.90900994377711
 31
0.0
  0
LINE
  5
170
  8
DATA
  6
CONTINUOUS
 62
     7
 10
140.19999999999999
 20
227.35657631545871
 30
0.0
 11
148.5
 21
229.90900994377711
 31
0.0
  0
LINE
  5
171
  8
DATA
  6
CONTINUOUS
 62
     7
 10
140.19999999999999
 20
223.35657631545871
 30
0.0
 11
148.5
 21
225.90900994377711
 31
0.0
  0
LINE
  5
172
  8
DATA
  6
CONTINUOUS
 62
     7
 10
140.19999999999999
 20
219.35657631545871
 30
0.0
 11
148.5
 21
221.90900994377711
 31
0.0
  0
LINE
  5
173
  8
DATA
  6
CONTINUOUS
 62
     7
 10
140.19999999999999
 20
215.35657631545871
 30
0.0
 11
148.5
 21
217.90900994377711
 31
0.0
  0
LINE
  5
174
  8
DATA
  6
CONTINUOUS
 62
     7
 10
140.19999999999999
 20
211.3565763154586
 30
0.0
 11
148.5
 21
213.90900994377711
 31
0.0
  0
LINE
  5
175
  8
DATA
  6
CONTINUOUS
 62
     7
 10
140.19999999999999
 20
207.3565763154586
 30
0.0
 11
148.5
 21
209.90900994377711
 31
0.0
  0
LINE
  5
176
  8
DATA
  6
CONTINUOUS
 62
     7
 10
140.19999999999999
 20
203.3565763154586
 30
0.0
 11
148.5
 21
205.90900994377711
 31
0.0
  0
LINE
  5
177
  8
DATA
  6
CONTINUOUS
 62
     7
 10
140.19999999999999
 20
199.3565763154586
 30
0.0
 11
148.5
 21
201.90900994377711
 31
0.0
  0
LINE
  5
178
  8
DATA
  6
CONTINUOUS
 62
     7
 10
140.19999999999999
 20
195.3565763154586
 30
0.0
 11
148.5
 21
197.90900994377711
 31
0.0
  0
LINE
  5
179
  8
DATA
  6
CONTINUOUS
 62
     7
 10
140.19999999999999
 20
191.3565763154586
 30
0.0
 11
148.5
 21
193.90900994377711
 31
0.0
  0
LINE
  5
17A
  8
DATA
  6
CONTINUOUS
 62
     7
 10
140.19999999999999
 20
187.3565763154586
 30
0.0
 11
148.5
 21
189.90900994377711
 31
0.0
  0
LINE
  5
17B
  8
DATA
  6
CONTINUOUS
 62
     7
 10
140.19999999999999
 20
183.3565763154586
 30
0.0
 11
148.5
 21
185.90900994377711
 31
0.0
  0
LINE
  5
17C
  8
DATA
  6
CONTINUOUS
 62
     7
 10
140.19999999999999
 20
179.3565763154586
 30
0.0
 11
148.5
 21
181.90900994377711
 31
0.0
  0
LINE
  5
17D
  8
DATA
  6
CONTINUOUS
 62
     7
 10
140.19999999999999
 20
175.3565763154586
 30
0.0
 11
148.5
 21
177.90900994377711
 31
0.0
  0
LINE
  5
17E
  8
DATA
  6
CONTINUOUS
 62
     7
 10
140.19999999999999
 20
171.3565763154586
 30
0.0
 11
148.5
 21
173.90900994377711
 31
0.0
  0
LINE
  5
17F
  8
DATA
  6
CONTINUOUS
 62
     7
 10
140.19999999999999
 20
167.3565763154586
 30
0.0
 11
148.5
 21
169.90900994377711
 31
0.0
  0
LINE
  5
180
  8
DATA
  6
CONTINUOUS
 62
     7
 10
140.19999999999999
 20
163.3565763154586
 30
0.0
 11
148.5
 21
165.90900994377711
 31
0.0
  0
LINE
  5
181
  8
DATA
  6
CONTINUOUS
 62
     7
 10
140.19999999999999
 20
159.3565763154586
 30
0.0
 11
148.5
 21
161.90900994377711
 31
0.0
  0
LINE
  5
182
  8
DATA
  6
CONTINUOUS
 62
     7
 10
140.19999999999999
 20
155.3565763154586
 30
0.0
 11
148.5
 21
157.90900994377711
 31
0.0
  0
LINE
  5
183
  8
DATA
  6
CONTINUOUS
 62
     7
 10
140.19999999999999
 20
151.3565763154586
 30
0.0
 11
148.5
 21
153.90900994377711
 31
0.0
  0
LINE
  5
184
  8
DATA
  6
CONTINUOUS
 62
     7
 10
140.19999999999999
 20
147.3565763154586
 30
0.0
 11
148.5
 21
149.90900994377711
 31
0.0
  0
LINE
  5
185
  8
DATA
  6
CONTINUOUS
 62
     7
 10
140.19999999999999
 20
143.3565763154586
 30
0.0
 11
148.5
 21
145.90900994377711
 31
0.0
  0
LINE
  5
186
  8
DATA
  6
CONTINUOUS
 62
     7
 10
140.19999999999999
 20
139.3565763154586
 30
0.0
 11
148.5
 21
141.90900994377711
 31
0.0
  0
LINE
  5
187
  8
DATA
  6
CONTINUOUS
 62
     7
 10
140.19999999999999
 20
135.3565763154586
 30
0.0
 11
148.5
 21
137.90900994377711
 31
0.0
  0
LINE
  5
188
  8
DATA
  6
CONTINUOUS
 62
     7
 10
140.19999999999999
 20
131.3565763154586
 30
0.0
 11
148.5
 21
133.90900994377711
 31
0.0
  0
LINE
  5
189
  8
DATA
  6
CONTINUOUS
 62
     7
 10
140.19999999999999
 20
127.3565763154586
 30
0.0
 11
148.5
 21
129.90900994377711
 31
0.0
  0
LINE
  5
18A
  8
DATA
  6
CONTINUOUS
 62
     7
 10
140.19999999999999
 20
123.3565763154586
 30
0.0
 11
148.5
 21
125.90900994377709
 31
0.0
  0
LINE
  5
18B
  8
DATA
  6
CONTINUOUS
 62
     7
 10
140.19999999999999
 20
119.3565763154586
 30
0.0
 11
148.5
 21
121.90900994377709
 31
0.0
  0
LINE
  5
18C
  8
DATA
  6
CONTINUOUS
 62
     7
 10
140.19999999999999
 20
115.3565763154586
 30
0.0
 11
148.5
 21
117.90900994377709
 31
0.0
  0
LINE
  5
18D
  8
DATA
  6
CONTINUOUS
 62
     7
 10
140.19999999999999
 20
111.3565763154586
 30
0.0
 11
148.5
 21
113.90900994377709
 31
0.0
  0
LINE
  5
18E
  8
DATA
  6
CONTINUOUS
 62
     7
 10
140.19999999999999
 20
107.3565763154586
 30
0.0
 11
148.5
 21
109.90900994377709
 31
0.0
  0
LINE
  5
18F
  8
DATA
  6
CONTINUOUS
 62
     7
 10
140.19999999999999
 20
103.3565763154586
 30
0.0
 11
148.5
 21
105.90900994377709
 31
0.0
  0
LINE
  5
190
  8
DATA
  6
CONTINUOUS
 62
     7
 10
140.19999999999999
 20
99.356576315458653
 30
0.0
 11
148.5
 21
101.90900994377709
 31
0.0
  0
LINE
  5
191
  8
DATA
  6
CONTINUOUS
 62
     7
 10
140.19999999999999
 20
95.356576315458625
 30
0.0
 11
148.5
 21
97.909009943777136
 31
0.0
  0
LINE
  5
192
  8
DATA
  6
CONTINUOUS
 62
     7
 10
140.19999999999999
 20
91.356576315458625
 30
0.0
 11
148.5
 21
93.909009943777065
 31
0.0
  0
LINE
  5
193
  8
DATA
  6
CONTINUOUS
 62
     7
 10
140.19999999999999
 20
87.356576315458625
 30
0.0
 11
148.5
 21
89.909009943777079
 31
0.0
  0
LINE
  5
194
  8
DATA
  6
CONTINUOUS
 62
     7
 10
140.19999999999999
 20
83.356576315458625
 30
0.0
 11
148.5
 21
85.909009943777079
 31
0.0
  0
LINE
  5
195
  8
DATA
  6
CONTINUOUS
 62
     7
 10
140.19999999999999
 20
79.356576315458625
 30
0.0
 11
148.5
 21
81.909009943777093
 31
0.0
  0
LINE
  5
196
  8
DATA
  6
CONTINUOUS
 62
     7
 10
140.19999999999999
 20
75.356576315458625
 30
0.0
 11
148.5
 21
77.909009943777093
 31
0.0
  0
LINE
  5
197
  8
DATA
  6
CONTINUOUS
 62
     7
 10
140.19999999999999
 20
71.356576315458625
 30
0.0
 11
148.5
 21
73.909009943777093
 31
0.0
  0
LINE
  5
198
  8
DATA
  6
CONTINUOUS
 62
     7
 10
140.19999999999999
 20
67.356576315458625
 30
0.0
 11
148.5
 21
69.909009943777093
 31
0.0
  0
LINE
  5
199
  8
DATA
  6
CONTINUOUS
 62
     7
 10
140.19999999999999
 20
63.356576315458632
 30
0.0
 11
148.5
 21
65.909009943777107
 31
0.0
  0
LINE
  5
19A
  8
DATA
  6
CONTINUOUS
 62
     7
 10
140.19999999999999
 20
59.356576315458632
 30
0.0
 11
148.5
 21
61.909009943777107
 31
0.0
  0
LINE
  5
19B
  8
DATA
  6
CONTINUOUS
 62
     7
 10
140.19999999999999
 20
55.356576315458632
 30
0.0
 11
148.5
 21
57.909009943777107
 31
0.0
  0
LINE
  5
19C
  8
DATA
  6
CONTINUOUS
 62
     7
 10
140.19999999999999
 20
51.356576315458632
 30
0.0
 11
148.5
 21
53.909009943777107
 31
0.0
  0
LINE
  5
19D
  8
DATA
  6
CONTINUOUS
 62
     7
 10
140.19999999999999
 20
47.356576315458632
 30
0.0
 11
148.5
 21
49.909009943777107
 31
0.0
  0
LINE
  5
19E
  8
DATA
  6
CONTINUOUS
 62
     7
 10
140.19999999999999
 20
43.356576315458632
 30
0.0
 11
148.5
 21
45.909009943777107
 31
0.0
  0
LINE
  5
19F
  8
DATA
  6
CONTINUOUS
 62
     7
 10
140.19999999999999
 20
39.356576315458632
 30
0.0
 11
148.5
 21
41.9090099437771
 31
0.0
  0
LINE
  5
1A0
  8
DATA
  6
CONTINUOUS
 62
     7
 10
140.19999999999999
 20
35.356576315458632
 30
0.0
 11
148.5
 21
37.909009943777107
 31
0.0
  0
LINE
  5
1A1
  8
DATA
  6
CONTINUOUS
 62
     7
 10
140.19999999999999
 20
31.356576315458629
 30
0.0
 11
148.5
 21
33.909009943777107
 31
0.0
  0
LINE
  5
1A2
  8
DATA
  6
CONTINUOUS
 62
     7
 10
140.19999999999999
 20
27.356576315458621
 30
0.0
 11
148.5
 21
29.909009943777111
 31
0.0
  0
LINE
  5
1A3
  8
DATA
  6
CONTINUOUS
 62
     7
 10
140.19999999999999
 20
23.356576315458629
 30
0.0
 11
148.5
 21
25.909009943777111
 31
0.0
  0
LINE
  5
1A4
  8
DATA
  6
CONTINUOUS
 62
     7
 10
140.19999999999999
 20
19.356576315458621
 30
0.0
 11
148.5
 21
21.909009943777111
 31
0.0
  0
LINE
  5
1A5
  8
DATA
  6
CONTINUOUS
 62
     7
 10
140.19999999999999
 20
15.35657631545862
 30
0.0
 11
148.5
 21
17.9090099437771
 31
0.0
  0
LINE
  5
1A6
  8
DATA
  6
CONTINUOUS
 62
     7
 10
140.19999999999999
 20
11.35657631545865
 30
0.0
 11
148.5
 21
13.909009943777111
 31
0.0
  0
LINE
  5
1A7
  8
DATA
  6
CONTINUOUS
 62
     7
 10
140.19999999999999
 20
7.356576315458681
 30
0.0
 11
148.5
 21
9.9090099437771357
 31
0.0
  0
LINE
  5
1A8
  8
DATA
  6
CONTINUOUS
 62
     7
 10
140.19999999999999
 20
3.3565763154587098
 30
0.0
 11
148.5
 21
5.9090099437771642
 31
0.0
  0
LINE
  5
1A9
  8
DATA
  6
CONTINUOUS
 62
     7
 10
140.19999999999999
 20
-0.6434236845412613
 30
0.0
 11
148.5
 21
1.9090099437771919
 31
0.0
  0
LINE
  5
1AA
  8
DATA
  6
CONTINUOUS
 62
     7
 10
140.19999999999999
 20
-4.6434236845412604
 30
0.0
 11
148.5
 21
-2.090990056222779
 31
0.0
  0
LINE
  5
1AB
  8
DATA
  6
CONTINUOUS
 62
     7
 10
140.19999999999999
 20
-8.6434236845412613
 30
0.0
 11
148.5
 21
-6.0909900562227781
 31
0.0
  0
LINE
  5
1AC
  8
DATA
  6
CONTINUOUS
 62
     7
 10
140.19999999999999
 20
-12.64342368454126
 30
0.0
 11
148.5
 21
-10.090990056222781
 31
0.0
  0
LINE
  5
1AD
  8
DATA
  6
CONTINUOUS
 62
     7
 10
140.19999999999999
 20
-16.643423684541261
 30
0.0
 11
148.5
 21
-14.090990056222781
 31
0.0
  0
LINE
  5
1AE
  8
DATA
  6
CONTINUOUS
 62
     7
 10
140.19999999999999
 20
-20.643423684541261
 30
0.0
 11
148.5
 21
-18.090990056222768
 31
0.0
  0
LINE
  5
1AF
  8
DATA
  6
CONTINUOUS
 62
     7
 10
140.19999999999999
 20
-24.643423684541268
 30
0.0
 11
148.5
 21
-22.090990056222768
 31
0.0
  0
LINE
  5
1B0
  8
DATA
  6
CONTINUOUS
 62
     7
 10
140.19999999999999
 20
-28.643423684541261
 30
0.0
 11
148.5
 21
-26.090990056222768
 31
0.0
  0
ARC
  5
1B1
  8
DATA
  6
CONTINUOUS
 62
     7
 10
138.77138322732341
 20
273.85000011318328
 30
0.0
 40
1.0
 50
180.0
 51
270.0
  0
ARC
  5
1B2
  8
DATA
  6
CONTINUOUS
 62
     7
 10
149.92861677267649
 20
273.85000011318328
 30
0.0
 40
1.0
 50
270.0
 51
0.0
  0
LINE
  5
1B3
  8
DATA
  6
CONTINUOUS
 62
     7
 10
137.55335380208609
 20
282.71674532737433
 30
0.0
 11
137.77138322732341
 21
282.71674532737433
 31
0.0
  0
LINE
  5
1B4
  8
DATA
  6
CONTINUOUS
 62
     7
 10
150.92861677267649
 20
282.71674532737433
 30
0.0
 11
151.12009527985501
 21
282.71674532737433
 31
0.0
  0
LINE
  5
1B5
  8
DATA
  6
CONTINUOUS
 62
     7
 10
137.55335380208609
 20
277.7167453273766
 30
0.0
 11
137.77138322732341
 21
277.7167453273766
 31
0.0
  0
LINE
  5
1B6
  8
DATA
  6
CONTINUOUS
 62
     7
 10
150.92861677267649
 20
277.7167453273766
 30
0.0
 11
151.12009527985501
 21
277.7167453273766
 31
0.0
  0
LINE
  5
1B7
  8
DATA
  6
CONTINUOUS
 62
     7
 10
137.77138322732341
 20
273.85000011318328
 30
0.0
 11
137.77138322732341
 21
285.51750430607541
 31
0.0
  0
LINE
  5
1B8
  8
DATA
  6
CONTINUOUS
 62
     7
 10
150.92861677267649
 20
273.85000011318328
 30
0.0
 11
150.92861677267649
 21
285.51750430607541
 31
0.0
  0
LINE
  5
1B9
  8
DATA
  6
CONTINUOUS
 62
     7
 10
137.55335380208609
 20
282.71674532737433
 30
0.0
 11
137.55335380208609
 21
277.7167453273766
 31
0.0
  0
LINE
  5
1BA
  8
DATA
  6
CONTINUOUS
 62
     7
 10
151.12009527985501
 20
282.71674532737433
 30
0.0
 11
151.12009527985501
 21
277.7167453273766
 31
0.0
  0
LINE
  5
1BB
  8
DATA
  6
CONTINUOUS
 62
     7
 10
144.34999999999999
 20
272.8500001131834
 30
0.0
 11
144.34999999999999
 21
419.35000011318323
 31
0.0
  0
ARC
  5
1BC
  8
DATA
  6
CONTINUOUS
 62
     7
 10
139.0
 20
417.85000011318323
 30
0.0
 40
1.5
 50
90.0
 51
180.0
  0
ARC
  5
1BD
  8
DATA
  6
CONTINUOUS
 62
     7
 10
149.69999999999999
 20
417.85000011318323
 30
0.0
 40
1.5000000000000071
 50
0.0
 51
89.999999999999787
  0
LINE
  5
1BE
  8
DATA
  6
CONTINUOUS
 62
     7
 10
133.84999999999991
 20
-45.999999886816617
 30
0.0
 11
237.84999999999999
 21
-45.999999886816617
 31
0.0
  0
LINE
  5
1BF
  8
DATA
  6
CONTINUOUS
 62
     7
 10
133.84999999999991
 20
-48.64999988681663
 30
0.0
 11
235.19999999999999
 21
-48.64999988681663
 31
0.0
  0
LINE
  5
1C0
  8
DATA
  6
CONTINUOUS
 62
     7
 10
133.84999999999991
 20
-45.999999886816617
 30
0.0
 11
133.84999999999991
 21
-48.64999988681663
 31
0.0
  0
POLYLINE
  5
1C1
  8
DATA
  6
CONTINUOUS
 62
     7
 66
     1
 10
0.0
 20
0.0
 30
0.0
  0
VERTEX
  5
2F6
  8
DATA
  6
CONTINUOUS
 62
     7
 10
147.09999999999999
 20
-48.64999988681663
 30
0.0
  0
VERTEX
  5
2F7
  8
DATA
  6
CONTINUOUS
 62
     7
 10
147.09999999999999
 20
-49.209467626024789
 30
0.0
  0
VERTEX
  5
2F8
  8
DATA
  6
CONTINUOUS
 62
     7
 10
141.59999999999999
 20
-49.209467626024789
 30
0.0
  0
VERTEX
  5
2F9
  8
DATA
  6
CONTINUOUS
 62
     7
 10
141.59999999999999
 20
-48.64999988681663
 30
0.0
  0
SEQEND
  5
2FA
  8
DATA
  6
CONTINUOUS
 62
     7
  0
LINE
  5
1C8
  8
DATA
  6
CONTINUOUS
 62
     7
 10
285.85000000000002
 20
-48.999999886816617
 30
0.0
 11
285.85000000000002
 21
-74.999999886816624
 31
0.0
  0
LINE
  5
1C9
  8
DATA
  6
CONTINUOUS
 62
     7
 10
239.84999999999999
 20
-47.99999988681661
 30
0.0
 11
239.84999999999999
 21
-74.999999886816624
 31
0.0
  0
LINE
  5
1CA
  8
DATA
  6
CONTINUOUS
 62
     7
 10
237.19999999999999
 20
-74.999999886816624
 30
0.0
 11
239.84999999999999
 21
-74.999999886816624
 31
0.0
  0
LINE
  5
1CB
  8
DATA
  6
CONTINUOUS
 62
     7
 10
237.19999999999999
 20
-50.64999988681663
 30
0.0
 11
237.19999999999999
 21
-74.999999886816624
 31
0.0
  0
LINE
  5
1CC
  8
DATA
  6
CONTINUOUS
 62
     7
 10
239.84999999999999
 20
-48.999999886816617
 30
0.0
 11
285.85000000000002
 21
-48.999999886816617
 31
0.0
  0
LINE
  5
1CD
  8
DATA
  6
CONTINUOUS
 62
     7
 10
239.84999999999999
 20
-74.999999886816624
 30
0.0
 11
285.85000000000002
 21
-74.999999886816624
 31
0.0
  0
ARC
  5
1CE
  8
DATA
  6
CONTINUOUS
 62
     7
 10
235.19999999999999
 20
-50.64999988681663
 30
0.0
 40
2.0
 50
0.0
 51
90.0
  0
ARC
  5
1CF
  8
DATA
  6
CONTINUOUS
 62
     7
 10
237.84999999999999
 20
-47.99999988681661
 30
0.0
 40
2.0
 50
0.0
 51
90.0
  0
LINE
  5
1D0
  8
DATA
  6
CONTINUOUS
 62
     7
 10
219.31970020879041
 20
-73.616146035369056
 30
0.0
 11
219.31970020879041
 21
-50.61614603536907
 31
0.0
  0
LINE
  5
1D1
  8
DATA
  6
CONTINUOUS
 62
     7
 10
208.9112460482248
 20
-50.61614603536907
 30
0.0
 11
219.31970020879041
 21
-50.61614603536907
 31
0.0
  0
LINE
  5
1D2
  8
DATA
  6
CONTINUOUS
 62
     7
 10
219.31970020879041
 20
-73.616146035369056
 30
0.0
 11
208.9112460482248
 21
-73.616146035369056
 31
0.0
  0
LINE
  5
1D3
  8
DATA
  6
CONTINUOUS
 62
     7
 10
219.31970020879041
 20
-59.11614603536907
 30
0.0
 11
237.19999999999999
 21
-59.11614603536907
 31
0.0
  0
LINE
  5
1D4
  8
DATA
  6
CONTINUOUS
 62
     7
 10
237.19999999999999
 20
-65.11614603536907
 30
0.0
 11
219.31970020879041
 21
-65.11614603536907
 31
0.0
  0
LINE
  5
1D5
  8
DATA
  6
CONTINUOUS
 62
     7
 10
219.31970020879041
 20
-65.11614603536907
 30
0.0
 11
220.25
 21
-59.11614603536907
 31
0.0
  0
LINE
  5
1D6
  8
DATA
  6
CONTINUOUS
 62
     7
 10
221.31970020879041
 20
-65.11614603536907
 30
0.0
 11
222.25
 21
-59.11614603536907
 31
0.0
  0
LINE
  5
1D7
  8
DATA
  6
CONTINUOUS
 62
     7
 10
223.31970020879041
 20
-65.11614603536907
 30
0.0
 11
224.25
 21
-59.11614603536907
 31
0.0
  0
LINE
  5
1D8
  8
DATA
  6
CONTINUOUS
 62
     7
 10
225.31970020879041
 20
-65.11614603536907
 30
0.0
 11
226.25
 21
-59.11614603536907
 31
0.0
  0
LINE
  5
1D9
  8
DATA
  6
CONTINUOUS
 62
     7
 10
227.31970020879041
 20
-65.11614603536907
 30
0.0
 11
228.25
 21
-59.11614603536907
 31
0.0
  0
LINE
  5
1DA
  8
DATA
  6
CONTINUOUS
 62
     7
 10
229.31970020879041
 20
-65.11614603536907
 30
0.0
 11
230.25
 21
-59.11614603536907
 31
0.0
  0
LINE
  5
1DB
  8
DATA
  6
CONTINUOUS
 62
     7
 10
231.31970020879041
 20
-65.11614603536907
 30
0.0
 11
232.25
 21
-59.11614603536907
 31
0.0
  0
LINE
  5
1DC
  8
DATA
  6
CONTINUOUS
 62
     7
 10
233.31970020879041
 20
-65.11614603536907
 30
0.0
 11
234.25
 21
-59.11614603536907
 31
0.0
  0
LINE
  5
1DD
  8
DATA
  6
CONTINUOUS
 62
     7
 10
235.31970020879041
 20
-65.11614603536907
 30
0.0
 11
236.25
 21
-59.11614603536907
 31
0.0
  0
LINE
  5
1DE
  8
DATA
  6
CONTINUOUS
 62
     7
 10
211.31970020879041
 20
-73.616146035369056
 30
0.0
 11
211.31970020879041
 21
-50.61614603536907
 31
0.0
  0
ARC
  5
1DF
  8
DATA
  6
CONTINUOUS
 62
     7
 10
249.35317652120531
 20
-62.11614603536907
 30
0.0
 40
42.633476312414849
 50
165.18042726758799
 51
194.81957273241201
  0
ARC
  5
1E0
  8
DATA
  6
CONTINUOUS
 62
     7
 10
208.9112460482248
 20
-51.416146035368882
 30
0.0
 40
0.7999999999998125
 50
90.0
 51
165.1804272676014
  0
ARC
  5
1E1
  8
DATA
  6
CONTINUOUS
 62
     7
 10
208.9112460482248
 20
-72.816146035369258
 30
0.0
 40
0.7999999999998269
 50
194.81957273239871
 51
270.0
  0
LINE
  5
1E2
  8
DATA
  6
CONTINUOUS
 62
     7
 10
211.31970020879041
 20
-50.61614603536907
 30
0.0
 11
219.31970020879041
 21
-50.61614603536907
 31
0.0
  0
LINE
  5
1E3
  8
DATA
  6
CONTINUOUS
 62
     7
 10
211.31970020879041
 20
-52.61614603536907
 30
0.0
 11
219.31970020879041
 21
-52.61614603536907
 31
0.0
  0
LINE
  5
1E4
  8
DATA
  6
CONTINUOUS
 62
     7
 10
211.31970020879041
 20
-54.61614603536907
 30
0.0
 11
219.31970020879041
 21
-54.61614603536907
 31
0.0
  0
LINE
  5
1E5
  8
DATA
  6
CONTINUOUS
 62
     7
 10
211.31970020879041
 20
-56.61614603536907
 30
0.0
 11
219.31970020879041
 21
-56.61614603536907
 31
0.0
  0
LINE
  5
1E6
  8
DATA
  6
CONTINUOUS
 62
     7
 10
211.31970020879041
 20
-58.616146035369063
 30
0.0
 11
219.31970020879041
 21
-58.616146035369063
 31
0.0
  0
LINE
  5
1E7
  8
DATA
  6
CONTINUOUS
 62
     7
 10
211.31970020879041
 20
-60.61614603536907
 30
0.0
 11
219.31970020879041
 21
-60.61614603536907
 31
0.0
  0
LINE
  5
1E8
  8
DATA
  6
CONTINUOUS
 62
     7
 10
211.31970020879041
 20
-62.61614603536907
 30
0.0
 11
219.31970020879041
 21
-62.61614603536907
 31
0.0
  0
LINE
  5
1E9
  8
DATA
  6
CONTINUOUS
 62
     7
 10
211.31970020879041
 20
-64.61614603536907
 30
0.0
 11
219.31970020879041
 21
-64.61614603536907
 31
0.0
  0
LINE
  5
1EA
  8
DATA
  6
CONTINUOUS
 62
     7
 10
211.31970020879041
 20
-66.61614603536907
 30
0.0
 11
219.31970020879041
 21
-66.61614603536907
 31
0.0
  0
LINE
  5
1EB
  8
DATA
  6
CONTINUOUS
 62
     7
 10
211.31970020879041
 20
-68.616146035369056
 30
0.0
 11
219.31970020879041
 21
-68.616146035369056
 31
0.0
  0
LINE
  5
1EC
  8
DATA
  6
CONTINUOUS
 62
     7
 10
211.31970020879041
 20
-70.616146035369056
 30
0.0
 11
219.31970020879041
 21
-70.616146035369056
 31
0.0
  0
LINE
  5
1ED
  8
DATA
  6
CONTINUOUS
 62
     7
 10
211.31970020879041
 20
-72.616146035369056
 30
0.0
 11
219.31970020879041
 21
-72.616146035369056
 31
0.0
  0
LINE
  5
1EE
  8
DATA
  6
CONTINUOUS
 62
     7
 10
136.19999999999999
 20
-150.0000000002635
 30
0.0
 11
207.6555693569164
 21
-150.0000000002635
 31
0.0
  0
LINE
  5
1EF
  8
DATA
  6
CONTINUOUS
 62
     7
 10
219.31970020879041
 20
-150.0000000002635
 30
0.0
 11
239.84999999999999
 21
-150.0000000002635
 31
0.0
  0
LINE
  5
1F0
  8
DATA
  6
CONTINUOUS
 62
     7
 10
136.19999999999999
 20
-132.0000000002635
 30
0.0
 11
207.70573744171961
 21
-132.0000000002635
 31
0.0
  0
LINE
  5
1F1
  8
DATA
  6
CONTINUOUS
 62
     7
 10
219.31970020879041
 20
-132.0000000002635
 30
0.0
 11
239.84999999999999
 21
-132.0000000002635
 31
0.0
  0
LINE
  5
1F2
  8
DATA
  6
CONTINUOUS
 62
     7
 10
239.84999999999999
 20
-128.0000000002635
 30
0.0
 11
239.84999999999999
 21
-155.0000000002635
 31
0.0
  0
CIRCLE
  5
1F3
  8
DATA
  6
CONTINUOUS
 62
     7
 10
144.34999999999999
 20
-141.0000000002635
 30
0.0
 40
2.600000000000001
  0
CIRCLE
  5
1F4
  8
DATA
  6
CONTINUOUS
 62
     7
 10
144.34999999999999
 20
-141.0000000002635
 30
0.0
 40
1.3999999999999979
  0
ARC
  5
1F5
  8
DATA
  6
CONTINUOUS
 62
     7
 10
152.25904255319131
 20
-141.0000000002635
 30
0.0
 40
18.409042553191341
 50
150.73233805686741
 51
209.26766194313259
  0
LINE
  5
1F6
  8
DATA
  6
CONTINUOUS
 62
     7
 10
242.84999999999999
 20
-125.0000000002635
 30
0.0
 11
273.61000000000001
 21
-125.0000000002635
 31
0.0
  0
LINE
  5
1F7
  8
DATA
  6
CONTINUOUS
 62
     7
 10
237.19999999999999
 20
-132.0000000002635
 30
0.0
 11
237.19999999999999
 21
-150.0000000002635
 31
0.0
  0
LINE
  5
1F8
  8
DATA
  6
CONTINUOUS
 62
     7
 10
242.44999999999999
 20
-130.60000000026349
 30
0.0
 11
242.44999999999999
 21
-155.0000000002635
 31
0.0
  0
LINE
  5
1F9
  8
DATA
  6
CONTINUOUS
 62
     7
 10
245.44999999999999
 20
-127.60000000026351
 30
0.0
 11
272.95999999999998
 21
-127.60000000026351
 31
0.0
  0
LINE
  5
1FA
  8
DATA
  6
CONTINUOUS
 62
     7
 10
287.24650347137373
 20
-141.18200462876189
 30
0.0
 11
276.00999999999999
 21
-126.2000000002635
 31
0.0
  0
LINE
  5
1FB
  8
DATA
  6
CONTINUOUS
 62
     7
 10
284.38845113241649
 20
-140.83793484348561
 30
0.0
 11
275.36000000000001
 21
-128.80000000026351
 31
0.0
  0
LINE
  5
1FC
  8
DATA
  6
CONTINUOUS
 62
     7
 10
274.19370939140589
 20
-152.28375402139889
 30
0.0
 11
274.17399999999998
 21
-152.25747483285781
 31
0.0
  0
ARC
  5
1FD
  8
DATA
  6
CONTINUOUS
 62
     7
 10
245.44999999999999
 20
-130.60000000026349
 30
0.0
 40
3.0
 50
90.0
 51
180.0
  0
ARC
  5
1FE
  8
DATA
  6
CONTINUOUS
 62
     7
 10
242.84999999999999
 20
-128.0000000002635
 30
0.0
 40
3.0
 50
90.0
 51
180.0
  0
ARC
  5
1FF
  8
DATA
  6
CONTINUOUS
 62
     7
 10
272.95999999999998
 20
-130.60000000026349
 30
0.0
 40
2.999999999999988
 50
36.86989764584446
 51
90.0
  0
ARC
  5
200
  8
DATA
  6
CONTINUOUS
 62
     7
 10
273.61000000000001
 20
-128.0000000002635
 30
0.0
 40
2.999999999999988
 50
36.86989764584446
 51
90.0
  0
LINE
  5
201
  8
DATA
  6
CONTINUOUS
 62
     7
 10
219.31970020879041
 20
-152.61614614881589
 30
0.0
 11
219.31970020879041
 21
-129.61614614881589
 31
0.0
  0
LINE
  5
202
  8
DATA
  6
CONTINUOUS
 62
     7
 10
208.9112460482248
 20
-129.61614614881589
 30
0.0
 11
219.31970020879041
 21
-129.61614614881589
 31
0.0
  0
LINE
  5
203
  8
DATA
  6
CONTINUOUS
 62
     7
 10
219.31970020879041
 20
-152.61614614881589
 30
0.0
 11
208.9112460482248
 21
-152.61614614881589
 31
0.0
  0
LINE
  5
204
  8
DATA
  6
CONTINUOUS
 62
     7
 10
219.31970020879041
 20
-138.11614614881589
 30
0.0
 11
237.19999999999999
 21
-138.11614614881589
 31
0.0
  0
LINE
  5
205
  8
DATA
  6
CONTINUOUS
 62
     7
 10
237.19999999999999
 20
-144.116146148816
 30
0.0
 11
219.31970020879041
 21
-144.116146148816
 31
0.0
  0
LINE
  5
206
  8
DATA
  6
CONTINUOUS
 62
     7
 10
219.31970020879041
 20
-144.116146148816
 30
0.0
 11
220.25
 21
-138.11614614881589
 31
0.0
  0
LINE
  5
207
  8
DATA
  6
CONTINUOUS
 62
     7
 10
221.31970020879041
 20
-144.116146148816
 30
0.0
 11
222.25
 21
-138.11614614881589
 31
0.0
  0
LINE
  5
208
  8
DATA
  6
CONTINUOUS
 62
     7
 10
223.31970020879041
 20
-144.116146148816
 30
0.0
 11
224.25
 21
-138.11614614881589
 31
0.0
  0
LINE
  5
209
  8
DATA
  6
CONTINUOUS
 62
     7
 10
225.31970020879041
 20
-144.116146148816
 30
0.0
 11
226.25
 21
-138.11614614881589
 31
0.0
  0
LINE
  5
20A
  8
DATA
  6
CONTINUOUS
 62
     7
 10
227.31970020879041
 20
-144.116146148816
 30
0.0
 11
228.25
 21
-138.11614614881589
 31
0.0
  0
LINE
  5
20B
  8
DATA
  6
CONTINUOUS
 62
     7
 10
229.31970020879041
 20
-144.116146148816
 30
0.0
 11
230.25
 21
-138.11614614881589
 31
0.0
  0
LINE
  5
20C
  8
DATA
  6
CONTINUOUS
 62
     7
 10
231.31970020879041
 20
-144.116146148816
 30
0.0
 11
232.25
 21
-138.11614614881589
 31
0.0
  0
LINE
  5
20D
  8
DATA
  6
CONTINUOUS
 62
     7
 10
233.31970020879041
 20
-144.116146148816
 30
0.0
 11
234.25
 21
-138.11614614881589
 31
0.0
  0
LINE
  5
20E
  8
DATA
  6
CONTINUOUS
 62
     7
 10
235.31970020879041
 20
-144.116146148816
 30
0.0
 11
236.25
 21
-138.11614614881589
 31
0.0
  0
LINE
  5
20F
  8
DATA
  6
CONTINUOUS
 62
     7
 10
211.31970020879041
 20
-152.61614614881589
 30
0.0
 11
211.31970020879041
 21
-129.61614614881589
 31
0.0
  0
ARC
  5
210
  8
DATA
  6
CONTINUOUS
 62
     7
 10
249.35317652120531
 20
-141.116146148816
 30
0.0
 40
42.633476312414849
 50
165.18042726758799
 51
194.81957273241201
  0
ARC
  5
211
  8
DATA
  6
CONTINUOUS
 62
     7
 10
208.9112460482248
 20
-130.4161461488157
 30
0.0
 40
0.7999999999997841
 50
90.0
 51
165.18042726760339
  0
ARC
  5
212
  8
DATA
  6
CONTINUOUS
 62
     7
 10
208.9112460482248
 20
-151.8161461488161
 30
0.0
 40
0.7999999999998341
 50
194.8195727324005
 51
270.0
  0
LINE
  5
213
  8
DATA
  6
CONTINUOUS
 62
     7
 10
211.31970020879041
 20
-129.61614614881589
 30
0.0
 11
219.31970020879041
 21
-129.61614614881589
 31
0.0
  0
LINE
  5
214
  8
DATA
  6
CONTINUOUS
 62
     7
 10
211.31970020879041
 20
-131.61614614881589
 30
0.0
 11
219.31970020879041
 21
-131.61614614881589
 31
0.0
  0
LINE
  5
215
  8
DATA
  6
CONTINUOUS
 62
     7
 10
211.31970020879041
 20
-133.61614614881589
 30
0.0
 11
219.31970020879041
 21
-133.61614614881589
 31
0.0
  0
LINE
  5
216
  8
DATA
  6
CONTINUOUS
 62
     7
 10
211.31970020879041
 20
-135.61614614881589
 30
0.0
 11
219.31970020879041
 21
-135.61614614881589
 31
0.0
  0
LINE
  5
217
  8
DATA
  6
CONTINUOUS
 62
     7
 10
211.31970020879041
 20
-137.61614614881589
 30
0.0
 11
219.31970020879041
 21
-137.61614614881589
 31
0.0
  0
LINE
  5
218
  8
DATA
  6
CONTINUOUS
 62
     7
 10
211.31970020879041
 20
-139.61614614881589
 30
0.0
 11
219.31970020879041
 21
-139.61614614881589
 31
0.0
  0
LINE
  5
219
  8
DATA
  6
CONTINUOUS
 62
     7
 10
211.31970020879041
 20
-141.61614614881589
 30
0.0
 11
219.31970020879041
 21
-141.61614614881589
 31
0.0
  0
LINE
  5
21A
  8
DATA
  6
CONTINUOUS
 62
     7
 10
211.31970020879041
 20
-143.61614614881589
 30
0.0
 11
219.31970020879041
 21
-143.61614614881589
 31
0.0
  0
LINE
  5
21B
  8
DATA
  6
CONTINUOUS
 62
     7
 10
211.31970020879041
 20
-145.61614614881589
 30
0.0
 11
219.31970020879041
 21
-145.61614614881589
 31
0.0
  0
LINE
  5
21C
  8
DATA
  6
CONTINUOUS
 62
     7
 10
211.31970020879041
 20
-147.61614614881589
 30
0.0
 11
219.31970020879041
 21
-147.61614614881589
 31
0.0
  0
LINE
  5
21D
  8
DATA
  6
CONTINUOUS
 62
     7
 10
211.31970020879041
 20
-149.61614614881589
 30
0.0
 11
219.31970020879041
 21
-149.61614614881589
 31
0.0
  0
LINE
  5
21E
  8
DATA
  6
CONTINUOUS
 62
     7
 10
211.31970020879041
 20
-151.616146148816
 30
0.0
 11
219.31970020879041
 21
-151.616146148816
 31
0.0
  0
LINE
  5
21F
  8
DATA
  6
CONTINUOUS
 62
     7
 10
261.71985841724558
 20
-134.0000000002635
 30
0.0
 11
261.71985841724558
 21
-135.0000000002635
 31
0.0
  0
LINE
  5
220
  8
DATA
  6
CONTINUOUS
 62
     7
 10
261.71985841724558
 20
-147.0000000002635
 30
0.0
 11
261.71985841724558
 21
-148.0000000002635
 31
0.0
  0
LINE
  5
221
  8
DATA
  6
CONTINUOUS
 62
     7
 10
242.44999999999999
 20
-138.11614614881589
 30
0.0
 11
248.11985841724561
 21
-138.11614614881589
 31
0.0
  0
LINE
  5
222
  8
DATA
  6
CONTINUOUS
 62
     7
 10
242.44999999999999
 20
-144.116146148816
 30
0.0
 11
248.11985841724561
 21
-144.116146148816
 31
0.0
  0
LINE
  5
223
  8
DATA
  6
CONTINUOUS
 62
     7
 10
253.91985841724559
 20
-133.0000000002635
 30
0.0
 11
253.91985841724559
 21
-149.0000000002635
 31
0.0
  0
LINE
  5
224
  8
DATA
  6
CONTINUOUS
 62
     7
 10
260.71985841724558
 20
-149.0000000002635
 30
0.0
 11
253.91985841724559
 21
-149.0000000002635
 31
0.0
  0
LINE
  5
225
  8
DATA
  6
CONTINUOUS
 62
     7
 10
253.91985841724559
 20
-133.0000000002635
 30
0.0
 11
260.71985841724558
 21
-133.0000000002635
 31
0.0
  0
ARC
  5
226
  8
DATA
  6
CONTINUOUS
 62
     7
 10
270.81985841724548
 20
-141.0000000002635
 30
0.0
 40
10.89999999999992
 50
146.60151153201241
 51
213.39848846798751
  0
ARC
  5
227
  8
DATA
  6
CONTINUOUS
 62
     7
 10
260.71985841724558
 20
-134.0000000002635
 30
0.0
 40
1.0
 50
0.0
 51
90.0
  0
ARC
  5
228
  8
DATA
  6
CONTINUOUS
 62
     7
 10
260.71985841724558
 20
-148.0000000002635
 30
0.0
 40
1.0
 50
270.0
 51
0.0
  0
LINE
  5
229
  8
DATA
  6
CONTINUOUS
 62
     7
 10
248.11985841724561
 20
-144.116146148816
 30
0.0
 11
248.11985841724561
 21
-138.11614614881589
 31
0.0
  0
LINE
  5
22A
  8
DATA
  6
CONTINUOUS
 62
     7
 10
253.91985841724559
 20
-143.2500000002635
 30
0.0
 11
248.11985841724561
 21
-143.2500000002635
 31
0.0
  0
LINE
  5
22B
  8
DATA
  6
CONTINUOUS
 62
     7
 10
248.11985841724561
 20
-138.7500000002635
 30
0.0
 11
253.91985841724559
 21
-138.7500000002635
 31
0.0
  0
LINE
  5
22C
  8
DATA
  6
CONTINUOUS
 62
     7
 10
242.70706740567019
 20
-144.116146148816
 30
0.0
 11
243.63736719687981
 21
-138.11614614881589
 31
0.0
  0
LINE
  5
22D
  8
DATA
  6
CONTINUOUS
 62
     7
 10
244.70706740567019
 20
-144.116146148816
 30
0.0
 11
245.63736719687981
 21
-138.11614614881589
 31
0.0
  0
LINE
  5
22E
  8
DATA
  6
CONTINUOUS
 62
     7
 10
246.70706740567019
 20
-144.116146148816
 30
0.0
 11
247.63736719687981
 21
-138.11614614881589
 31
0.0
  0
LINE
  5
22F
  8
DATA
  6
CONTINUOUS
 62
     7
 10
275.34633229900902
 20
-153.8571330080355
 30
0.0
 11
273.28969189533092
 21
-151.04586467442411
 31
0.0
  0
LINE
  5
230
  8
DATA
  6
CONTINUOUS
 62
     7
 10
273.28969189533092
 20
-151.04586467442411
 30
0.0
 11
281.2917396253153
 21
-145.20547483259421
 31
0.0
  0
LINE
  5
231
  8
DATA
  6
CONTINUOUS
 62
     7
 10
281.2917396253153
 20
-145.20547483259421
 30
0.0
 11
282.1179334575649
 21
-146.2995042004747
 31
0.0
  0
LINE
  5
232
  8
DATA
  6
CONTINUOUS
 62
     7
 10
281.7089018300972
 20
-139.80792728760329
 30
0.0
 11
282.92525124756332
 21
-138.9301493574732
 31
0.0
  0
LINE
  5
233
  8
DATA
  6
CONTINUOUS
 62
     7
 10
281.7089018300972
 20
-139.80792728760329
 30
0.0
 11
275.72963373746109
 21
-131.79242024959501
 31
0.0
  0
LINE
  5
234
  8
DATA
  6
CONTINUOUS
 62
     7
 10
275.72963373746109
 20
-131.79242024959501
 30
0.0
 11
276.92942986516522
 21
-130.89257315381701
 31
0.0
  0
LINE
  5
235
  8
DATA
  6
CONTINUOUS
 62
     7
 10
274.75999999999999
 20
-74.999999886816624
 30
0.0
 11
274.75999999999999
 21
-48.999999886816617
 31
0.0
  0
CIRCLE
  5
236
  8
DATA
  6
STYLE_05
 62
     7
 10
270.05010857481977
 20
-141.0000000002635
 30
0.0
 40
10.0
  0
LINE
  5
237
  8
DATA
  6
CONTINUOUS
 62
     7
 10
274.19370939140589
 20
-152.28375402139889
 30
0.0
 11
283.79638458998198
 21
-145.03196421110329
 31
0.0
  0
LINE
  5
238
  8
DATA
  6
CONTINUOUS
 62
     7
 10
286.64650347137371
 20
-145.38200462876179
 30
0.0
 11
275.34633229900902
 21
-153.85713300803539
 31
0.0
  0
ARC
  5
239
  8
DATA
  6
CONTINUOUS
 62
     7
 10
281.98845113241663
 20
-142.63793484348551
 30
0.0
 40
3.0000000000000751
 50
307.05953070214832
 51
36.869897645843253
  0
ARC
  5
23A
  8
DATA
  6
CONTINUOUS
 62
     7
 10
284.84650347137381
 20
-142.9820046287619
 30
0.0
 40
2.9999999999999711
 50
306.86989764584411
 51
36.86989764584446
  0
LINE
  5
23B
  8
DATA
  6
CONTINUOUS
 62
     7
 10
29.999999999999989
 20
-48.999999886816617
 30
0.0
 11
29.999999999999989
 21
-74.999999886816624
 31
0.0
  0
LINE
  5
23C
  8
DATA
  6
CONTINUOUS
 62
     7
 10
29.999999999999989
 20
-48.999999886816617
 30
0.0
 11
21.499999999999989
 21
-48.999999886816617
 31
0.0
  0
LINE
  5
23D
  8
DATA
  6
CONTINUOUS
 62
     7
 10
29.999999999999989
 20
-74.999999886816624
 30
0.0
 11
0.0000000000000142
 21
-74.999999886816624
 31
0.0
  0
LINE
  5
23E
  8
DATA
  6
CONTINUOUS
 62
     7
 10
242.44999999999999
 20
-155.0000000002635
 30
0.0
 11
239.84999999999999
 21
-155.0000000002635
 31
0.0
  0
CIRCLE
  5
23F
  8
DATA
  6
CONTINUOUS
 62
     7
 10
12.49999999999998
 20
-62.11614603536907
 30
0.0
 40
11.216146035369061
  0
ENDSEC
  0
EOF
