  0
SECTION
  2
HEADER
  9
$ACADVER
  1
AC1009
  9
$INSBASE
 10
0.0
 20
0.0
 30
0.0
  9
$EXTMIN
 10
-180.01098548994739
 20
-271.68557005312488
 30
-0.0015258207003583
  9
$EXTMAX
 10
180.01098716632811
 20
263.54811651401701
 30
0.0000000349246037
  9
$LIMMIN
 10
0.0
 20
0.0
  9
$LIMMAX
 10
0.0
 20
0.0
  9
$ORTHOMODE
 70
     0
  9
$REGENMODE
 70
     1
  9
$FILLMODE
 70
     1
  9
$QTEXTMODE
 70
     0
  9
$MIRRTEXT
 70
     1
  9
$DRAGMODE
 70
     2
  9
$LTSCALE
 40
10.16
  9
$OSMODE
 70
   231
  9
$ATTMODE
 70
     1
  9
$TEXTSIZE
 40
0.0
  9
$TRACEWID
 40
1.0
  9
$TEXTSTYLE
  7
STANDARD
  9
$CLAYER
  8
DATA
  9
$CELTYPE
  6
BYLAYER
  9
$CECOLOR
 62
   256
  9
$DIMSCALE
 40
1.0
  9
$DIMASZ
 40
0.18
  9
$DIMEXO
 40
0.0625
  9
$DIMDLI
 40
0.38
  9
$DIMRND
 40
0.0
  9
$DIMDLE
 40
0.0
  9
$DIMEXE
 40
0.18
  9
$DIMTP
 40
0.0
  9
$DIMTM
 40
0.0
  9
$DIMTXT
 40
0.18
  9
$DIMCEN
 40
0.09
  9
$DIMTSZ
 40
0.0
  9
$DIMTOL
 70
     0
  9
$DIMLIM
 70
     0
  9
$DIMTIH
 70
     1
  9
$DIMTOH
 70
     1
  9
$DIMSE1
 70
     0
  9
$DIMSE2
 70
     0
  9
$DIMTAD
 70
     0
  9
$DIMZIN
 70
     0
  9
$DIMBLK
  1

  9
$DIMASO
 70
     1
  9
$DIMSHO
 70
     1
  9
$DIMPOST
  1

  9
$DIMAPOST
  1

  9
$DIMALT
 70
     0
  9
$DIMALTD
 70
     2
  9
$DIMALTF
 40
25.399999999999999
  9
$DIMLFAC
 40
1.0
  9
$DIMTOFL
 70
     0
  9
$DIMTVP
 40
0.0
  9
$DIMTIX
 70
     0
  9
$DIMSOXD
 70
     0
  9
$DIMSAH
 70
     0
  9
$DIMBLK1
  1

  9
$DIMBLK2
  1

  9
$DIMSTYLE
  2
STANDARD
  9
$DIMCLRD
 70
     0
  9
$DIMCLRE
 70
     0
  9
$DIMCLRT
 70
     0
  9
$DIMTFAC
 40
1.0
  9
$DIMGAP
 40
0.09
  9
$LUNITS
 70
     2
  9
$LUPREC
 70
     4
  9
$SKETCHINC
 40
0.1
  9
$FILLETRAD
 40
0.0
  9
$AUNITS
 70
     0
  9
$AUPREC
 70
     0
  9
$MENU
  1
acad
  9
$ELEVATION
 40
0.0
  9
$PELEVATION
 40
0.0
  9
$THICKNESS
 40
0.0
  9
$LIMCHECK
 70
     0
  9
$BLIPMODE
 70
     0
  9
$CHAMFERA
 40
0.0
  9
$CHAMFERB
 40
0.0
  9
$SKPOLY
 70
     0
  9
$TDCREATE
 40
2456478.6949074068
  9
$TDUPDATE
 40
2456478.6965243402
  9
$TDINDWG
 40
0.0004321296
  9
$TDUSRTIMER
 40
0.0004260764
  9
$USRTIMER
 70
     1
  9
$ANGBASE
 50
0.0
  9
$ANGDIR
 70
     0
  9
$PDMODE
 70
     1
  9
$PDSIZE
 40
-2.0
  9
$PLINEWID
 40
0.0
  9
$COORDS
 70
     2
  9
$SPLFRAME
 70
     0
  9
$SPLINETYPE
 70
     6
  9
$SPLINESEGS
 70
     8
  9
$ATTDIA
 70
     0
  9
$ATTREQ
 70
     1
  9
$HANDLING
 70
     1
  9
$HANDSEED
  5
313
  9
$SURFTAB1
 70
     6
  9
$SURFTAB2
 70
     6
  9
$SURFTYPE
 70
     6
  9
$SURFU
 70
     6
  9
$SURFV
 70
     6
  9
$UCSNAME
  2

  9
$UCSORG
 10
0.0
 20
0.0
 30
0.0
  9
$UCSXDIR
 10
1.0
 20
0.0
 30
0.0
  9
$UCSYDIR
 10
0.0
 20
1.0
 30
0.0
  9
$PUCSNAME
  2

  9
$PUCSORG
 10
0.0
 20
0.0
 30
0.0
  9
$PUCSXDIR
 10
1.0
 20
0.0
 30
0.0
  9
$PUCSYDIR
 10
0.0
 20
1.0
 30
0.0
  9
$USERI1
 70
     0
  9
$USERI2
 70
     0
  9
$USERI3
 70
     0
  9
$USERI4
 70
     0
  9
$USERI5
 70
     0
  9
$USERR1
 40
0.0
  9
$USERR2
 40
0.0
  9
$USERR3
 40
0.0
  9
$USERR4
 40
0.0
  9
$USERR5
 40
0.0
  9
$WORLDVIEW
 70
     1
  9
$SHADEDGE
 70
     3
  9
$SHADEDIF
 70
    70
  9
$TILEMODE
 70
     1
  9
$MAXACTVP
 70
    64
  9
$PLIMCHECK
 70
     0
  9
$PEXTMIN
 10
1.0000000000000000E+020
 20
1.0000000000000000E+020
 30
1.0000000000000000E+020
  9
$PEXTMAX
 10
-1.0000000000000000E+020
 20
-1.0000000000000000E+020
 30
-1.0000000000000000E+020
  9
$PLIMMIN
 10
0.0
 20
0.0
  9
$PLIMMAX
 10
12.0
 20
9.0
  9
$UNITMODE
 70
     0
  9
$VISRETAIN
 70
     0
  9
$PLINEGEN
 70
     1
  9
$PSLTSCALE
 70
     0
  0
ENDSEC
  0
SECTION
  2
TABLES
  0
TABLE
  2
VPORT
 70
     1
  0
VPORT
  2
*ACTIVE
 70
     0
 10
0.0
 20
0.0
 11
1.0
 21
1.0
 12
0.0000008381904308
 22
-3.5318137563878049
 13
0.0
 23
0.0
 14
1.0
 24
1.0
 15
0.0
 25
0.0
 16
0.0
 26
0.0
 36
1.0
 17
0.0
 27
0.0
 37
0.0
 40
538.2846471086923
 41
2.1585051546391751
 42
50.0
 43
0.0
 44
0.0
 50
0.0
 51
0.0
 71
     0
 72
  2000
 73
     1
 74
     1
 75
     0
 76
     0
 77
     0
 78
     0
  0
ENDTAB
  0
TABLE
  2
LTYPE
 70
    11
  0
LTYPE
  2
CONTINUOUS
 70
     0
  3
Solid line
 72
    65
 73
     0
 40
0.0
  0
ENDTAB
  0
TABLE
  2
LAYER
 70
     5
  0
LAYER
  2
0
 70
     0
 62
     7
  6
CONTINUOUS
  0
LAYER
  2
DATA
 70
     0
 62
     7
  6
CONTINUOUS
  0
LAYER
  2
HIBINO-BASE
 70
     0
 62
     7
  6
CONTINUOUS
  0
LAYER
  2
SPEC
 70
     0
 62
     7
  6
CONTINUOUS
  0
LAYER
  2
DIMNSIONS
 70
     0
 62
     7
  6
CONTINUOUS
  0
ENDTAB
  0
TABLE
  2
STYLE
 70
     3
  0
STYLE
  2
STANDARD
 70
     0
 40
0.0
 41
1.0
 50
0.0
 71
     0
 42
0.0
  3
txt
  4
BIGFONT.SHX
  0
ENDTAB
  0
TABLE
  2
VIEW
 70
     0
  0
ENDTAB
  0
TABLE
  2
UCS
 70
     0
  0
ENDTAB
  0
TABLE
  2
APPID
 70
     4
  0
APPID
  2
ACAD
 70
     0
  0
APPID
  2
ACADANNOTATIVE
 70
     0
  0
APPID
  2
ACAD_NAV_VCDISPLAY
 70
     0
  0
APPID
  2
ACAD_MLEADERVER
 70
     0
  0
ENDTAB
  0
TABLE
  2
DIMSTYLE
 70
     2
  0
DIMSTYLE
  2
STANDARD
 70
     0
  3

  4

  5

  6

  7

 40
1.0
 41
0.18
 42
0.0625
 43
0.38
 44
0.18
 45
0.0
 46
0.0
 47
0.0
 48
0.0
140
0.18
141
0.09
142
0.0
143
25.399999999999999
144
1.0
145
0.0
146
1.0
147
0.09
 71
     0
 72
     0
 73
     1
 74
     1
 75
     0
 76
     0
 77
     0
 78
     0
170
     0
171
     2
172
     0
173
     0
174
     0
175
     0
176
     0
177
     0
178
     0
  0
ENDTAB
  0
ENDSEC
  0
SECTION
  2
BLOCKS
  0
BLOCK
  8
0
  2
$MODEL_SPACE
 70
     0
 10
0.0
 20
0.0
 30
0.0
  3
$MODEL_SPACE
  1

  0
ENDBLK
  5
255
  8
0
  0
BLOCK
 67
     1
  8
0
  2
$PAPER_SPACE
 70
     0
 10
0.0
 20
0.0
 30
0.0
  3
$PAPER_SPACE
  1

  0
ENDBLK
  5
251
 67
     1
  8
0
  0
ENDSEC
  0
SECTION
  2
ENTITIES
  0
LINE
  5
2C
  8
HIBINO-BASE
  6
CONTINUOUS
 62
     7
 10
-180.0
 20
263.53181500000011
 30
0.0
 11
180.0
 21
263.53181500000011
 31
0.0
  0
LINE
  5
2D
  8
HIBINO-BASE
  6
CONTINUOUS
 62
     7
 10
180.0
 20
-256.46818500000001
 30
0.0
 11
-180.0
 21
-256.46818500000001
 31
0.0
  0
LINE
  5
2E
  8
HIBINO-BASE
  6
CONTINUOUS
 62
     7
 10
-180.0
 20
-256.46818500000001
 30
0.0
 11
-180.0
 21
263.53181500000011
 31
0.0
  0
LINE
  5
2F
  8
HIBINO-BASE
  6
CONTINUOUS
 62
     7
 10
180.0
 20
263.53181500000011
 30
0.0
 11
180.0
 21
-256.46818500000001
 31
0.0
  0
LINE
  5
30
  8
HIBINO-BASE
  6
CONTINUOUS
 62
     7
 10
0.0000000000000142
 20
-211.46818500000001
 30
0.0
 11
180.0
 21
-211.46818500000001
 31
0.0
  0
LINE
  5
31
  8
HIBINO-BASE
  6
CONTINUOUS
 62
     7
 10
0.0000000000000142
 20
-256.46818500000001
 30
0.0
 11
0.0000000000000142
 21
-211.46818500000001
 31
0.0
  0
TEXT
  5
32
  8
HIBINO-BASE
 62
     7
 10
1.8000000000000249
 20
-216.48557166666669
 30
0.0
 40
3.2576822916666659
  1
NOTE
 41
0.7
 11
1.8000000000000249
 21
-213.22788937499999
 31
0.0
 73
     3
  0
LINE
  5
33
  8
HIBINO-BASE
  6
CONTINUOUS
 62
     7
 10
70.000000000000043
 20
-256.46818500000001
 30
0.0
 11
70.000000000000043
 21
-211.46818500000001
 31
0.0
  0
TEXT
  5
34
  8
HIBINO-BASE
 62
     7
 10
71.799999999999983
 20
-216.48557166666669
 30
0.0
 40
3.2576822916666659
  1
TITLE
 41
0.7
 11
71.799999999999983
 21
-213.22788937499999
 31
0.0
 73
     3
  0
LINE
  5
35
  8
HIBINO-BASE
  6
CONTINUOUS
 62
     7
 10
0.0000000000000142
 20
-236.46818500000001
 30
0.0
 11
180.0
 21
-236.46818500000001
 31
0.0
  0
TEXT
  5
36
  8
HIBINO-BASE
 62
     7
 10
96.799999999999983
 20
-241.37293166666669
 30
0.0
 40
3.2576822916666659
  1
DRAWN
 41
0.7
 11
96.799999999999983
 21
-238.11524937499999
 31
0.0
 73
     3
  0
TEXT
  5
37
  8
HIBINO-BASE
 62
     7
 10
46.79999999999999
 20
-241.37293166666669
 30
0.0
 40
3.2576822916666659
  1
DATE
 41
0.7
 11
46.79999999999999
 21
-238.11524937499999
 31
0.0
 73
     3
  0
TEXT
  5
38
  8
HIBINO-BASE
 62
     7
 10
26.800000000000001
 20
-241.37293166666669
 30
0.0
 40
3.2576822916666659
  1
SCALE
 41
0.7
 11
26.800000000000001
 21
-238.11524937499999
 31
0.0
 73
     3
  0
TEXT
  5
39
  8
HIBINO-BASE
 62
     7
 10
71.799999999999983
 20
-241.37293166666669
 30
0.0
 40
3.2576822916666659
  1
DESIGN
 41
0.7
 11
71.799999999999983
 21
-238.11524937499999
 31
0.0
 73
     3
  0
TEXT
  5
3A
  8
HIBINO-BASE
 62
     7
 10
146.7999999999999
 20
-241.37293166666669
 30
0.0
 40
3.2576822916666659
  1
DRAWING NO.
 41
0.7
 11
146.7999999999999
 21
-238.11524937499999
 31
0.0
 73
     3
  0
TEXT
  5
3B
  8
HIBINO-BASE
 62
     7
 10
121.7999999999999
 20
-241.37293166666669
 30
0.0
 40
3.2576822916666659
  1
CHECK
 41
0.7
 11
121.7999999999999
 21
-238.11524937499999
 31
0.0
 73
     3
  0
LINE
  5
3C
  8
HIBINO-BASE
  6
CONTINUOUS
 62
     7
 10
28.750000000000011
 20
-253.96818500000001
 30
0.0
 11
36.250000000000028
 21
-246.46818500000001
 31
0.0
  0
TEXT
  5
3D
  8
HIBINO-BASE
 62
     7
 10
27.500000000000011
 20
-248.68607166666661
 30
0.0
 40
3.2576822916666659
  1
1
 41
0.7
 11
27.500000000000011
 21
-245.42838937499999
 31
0.0
 73
     3
  0
LINE
  5
3E
  8
HIBINO-BASE
  6
CONTINUOUS
 62
     7
 10
25.000000000000011
 20
-256.46818500000001
 30
0.0
 11
25.000000000000011
 21
-236.46818500000001
 31
0.0
  0
LINE
  5
3F
  8
HIBINO-BASE
  6
CONTINUOUS
 62
     7
 10
44.999999999999993
 20
-256.46818500000001
 30
0.0
 11
44.999999999999993
 21
-236.46818500000001
 31
0.0
  0
LINE
  5
40
  8
HIBINO-BASE
  6
CONTINUOUS
 62
     7
 10
94.999999999999957
 20
-236.46818500000001
 30
0.0
 11
94.999999999999957
 21
-256.46818500000001
 31
0.0
  0
LINE
  5
41
  8
HIBINO-BASE
  6
CONTINUOUS
 62
     7
 10
145.0
 20
-236.46818500000001
 30
0.0
 11
145.0
 21
-256.46818500000001
 31
0.0
  0
LINE
  5
42
  8
HIBINO-BASE
  6
CONTINUOUS
 62
     7
 10
119.9999999999999
 20
-256.46818500000001
 30
0.0
 11
119.9999999999999
 21
-236.46818500000001
 31
0.0
  0
TEXT
  5
43
  8
HIBINO-BASE
 62
     7
 10
46.713080000000019
 20
-250.7408916666667
 30
0.0
 40
3.2576822916666659
  1
'13.07.
 41
0.7
 11
46.713080000000019
 21
-247.483209375
 31
0.0
 73
     3
  0
TEXT
  5
44
  8
HIBINO-BASE
 62
     7
 10
35.000000000000007
 20
-252.43607166666669
 30
0.0
 40
3.2576822916666659
  1
2
 41
0.7
 11
35.000000000000007
 21
-249.17838937499999
 31
0.0
 73
     3
  0
TEXT
  5
45
  8
HIBINO-BASE
 62
     7
 10
98.011620022069224
 20
-250.7408916666667
 30
0.0
 40
3.2576822916666659
  1
Ootake
 41
0.7
 11
98.011620022069224
 21
-247.483209375
 31
0.0
 73
     3
  0
TEXT
  5
46
  8
HIBINO-BASE
 62
     7
 10
7.7666666666667208
 20
-252.51618500000001
 30
0.0
 40
6.5153645833333318
  1
A4
 41
0.7
 11
7.7666666666667208
 21
-246.00082041666661
 31
0.0
 73
     3
  0
TEXT
  5
47
  8
HIBINO-BASE
 62
     7
 10
1.916666666666671
 20
-241.7070949999999
 30
0.0
 40
3.2576822916666659
  1
PAPER SIZE
 41
0.7
 11
1.916666666666671
 21
-238.44941270833331
 31
0.0
 73
     3
  0
TEXT
  5
48
  8
HIBINO-BASE
 62
     7
 10
-165.63199999999989
 20
-269.28554059999988
 30
0.0
 40
7.2000883593749991
  1
Hibino Corporation
 41
0.7
 11
-165.63199999999989
 21
-262.08545224062487
 31
0.0
 73
     3
  0
TEXT
  5
49
  8
HIBINO-BASE
 62
     7
 10
100.13678
 20
-269.28554059999988
 30
0.0
 40
7.2000883593749991
  1
ヒビノ株式会社
 41
0.7
 11
100.13678
 21
-262.08545224062487
 31
0.0
 73
     3
  0
LINE
  5
4A
  8
SPEC
  6
CONTINUOUS
 62
     7
 10
-164.99999999999989
 20
243.53181499999999
 30
0.0
 11
130.0
 21
243.53181499999999
 31
0.0
  0
LINE
  5
4B
  8
SPEC
  6
CONTINUOUS
 62
     7
 10
-164.99999999999989
 20
228.53181499999999
 30
0.0
 11
130.0
 21
228.53181499999999
 31
0.0
  0
LINE
  5
4C
  8
SPEC
  6
CONTINUOUS
 62
     7
 10
-164.99999999999989
 20
236.03181499999999
 30
0.0
 11
130.0
 21
236.03181499999999
 31
0.0
  0
LINE
  5
4D
  8
SPEC
  6
CONTINUOUS
 62
     7
 10
-164.99999999999989
 20
243.53181499999999
 30
0.0
 11
-164.99999999999989
 21
228.53181500000011
 31
0.0
  0
TEXT
  5
4E
  8
SPEC
 62
     7
 10
-162.49999999999989
 20
246.318355
 30
0.0
 40
4.8865234375000002
  1
仕様
 41
0.7
 11
-162.49999999999989
 21
251.20487843750001
 31
0.0
 73
     3
  0
LINE
  5
4F
  8
SPEC
  6
CONTINUOUS
 62
     7
 10
-99.999999999999957
 20
243.53181499999999
 30
0.0
 11
-99.999999999999957
 21
228.53181500000011
 31
0.0
  0
LINE
  5
50
  8
SPEC
  6
CONTINUOUS
 62
     7
 10
130.0
 20
243.53181499999999
 30
0.0
 11
130.0
 21
228.53181500000011
 31
0.0
  0
TEXT
  5
51
  8
SPEC
 62
     7
 10
-163.19999999999999
 20
237.60765055555549
 30
0.0
 40
3.8006293402777769
  1
寸法(W\U+00D7H\U+00D7D)
 41
0.7
 11
-163.19999999999999
 21
241.40827989583329
 31
0.0
 73
     3
  0
TEXT
  5
52
  8
SPEC
 62
     7
 10
-163.19999999999999
 20
230.10765055555561
 30
0.0
 40
3.8006293402777769
  1
質量
 41
0.7
 11
-163.19999999999999
 21
233.90827989583329
 31
0.0
 73
     3
  0
TEXT
  5
53
  8
SPEC
 62
     7
 10
-98.19999999999996
 20
237.72251619741709
 30
0.0
 40
3.8006293402777769
  1
91.0\U+00D741.0\U+00D7142mm(除突起部)
 41
0.7
 11
-98.19999999999996
 21
241.5231455376948
 31
0.0
 73
     3
  0
TEXT
  5
54
  8
SPEC
 62
     7
 10
-98.19999999999996
 20
230.10765055555561
 30
0.0
 40
3.8006293402777769
  1
710g
 41
0.7
 11
-98.19999999999996
 21
233.90827989583329
 31
0.0
 73
     3
  0
TEXT
  5
55
  8
DIMNSIONS
 62
     7
 10
-40.0
 20
-231.929205
 30
0.0
 40
4.8865234375000002
  1
(単位：mm)
 41
0.7
 11
-40.0
 21
-227.04268156250001
 31
0.0
 73
     3
  0
LINE
  5
56
  8
DIMNSIONS
  6
CONTINUOUS
 62
     7
 10
-98.218116254675408
 20
-60.0
 30
0.0
 11
-154.0
 21
-60.0
 31
0.0
  0
LINE
  5
57
  8
DIMNSIONS
  6
CONTINUOUS
 62
     7
 10
-87.172965227383315
 20
81.988998721317245
 30
0.0
 11
-154.0
 21
81.988998721317245
 31
0.0
  0
LINE
  5
58
  8
DIMNSIONS
  6
CONTINUOUS
 62
     7
 10
-150.0
 20
-60.0
 30
0.0
 11
-150.0
 21
81.988998721317245
 31
0.0
  0
LINE
  5
59
  8
DIMNSIONS
  6
CONTINUOUS
 62
     7
 10
-150.0
 20
-60.0
 30
0.0
 11
-151.34007959030041
 21
-54.998754882812477
 31
0.0
  0
LINE
  5
5A
  8
DIMNSIONS
  6
CONTINUOUS
 62
     7
 10
-150.0
 20
-60.0
 30
0.0
 11
-148.65992040969951
 21
-54.998754882812477
 31
0.0
  0
LINE
  5
5B
  8
DIMNSIONS
  6
CONTINUOUS
 62
     7
 10
-150.0
 20
81.988998721317245
 30
0.0
 11
-148.65992040969951
 21
76.987753604129793
 31
0.0
  0
LINE
  5
5C
  8
DIMNSIONS
  6
CONTINUOUS
 62
     7
 10
-150.0
 20
81.988998721317245
 30
0.0
 11
-151.34007959030041
 21
76.987753604129793
 31
0.0
  0
TEXT
  5
5D
  8
DIMNSIONS
 62
     7
 10
-151.98777777777769
 20
5.7028326939919829
 30
0.0
 40
5.4294704861111107
  1
142
 50
90.0
 41
0.7
 11
-157.41724826388881
 21
5.7028326939919838
 31
0.0
 73
     3
  0
LINE
  5
5E
  8
DIMNSIONS
  6
CONTINUOUS
 62
     7
 10
-125.4975477328327
 20
-47.124131115666039
 30
0.0
 11
-125.4975477328327
 21
-84.0
 31
0.0
  0
LINE
  5
5F
  8
DIMNSIONS
  6
CONTINUOUS
 62
     7
 10
-34.5024522671673
 20
-47.124131115666039
 30
0.0
 11
-34.5024522671673
 21
-84.0
 31
0.0
  0
LINE
  5
60
  8
DIMNSIONS
  6
CONTINUOUS
 62
     7
 10
-125.4975477328327
 20
-80.0
 30
0.0
 11
-34.5024522671673
 21
-80.0
 31
0.0
  0
LINE
  5
61
  8
DIMNSIONS
  6
CONTINUOUS
 62
     7
 10
-125.4975477328327
 20
-80.0
 30
0.0
 11
-120.49630261564521
 21
-78.659920409699509
 31
0.0
  0
LINE
  5
62
  8
DIMNSIONS
  6
CONTINUOUS
 62
     7
 10
-125.4975477328327
 20
-80.0
 30
0.0
 11
-120.49630261564521
 21
-81.340079590300505
 31
0.0
  0
LINE
  5
63
  8
DIMNSIONS
  6
CONTINUOUS
 62
     7
 10
-34.5024522671673
 20
-80.0
 30
0.0
 11
-39.503697384354801
 21
-81.340079590300505
 31
0.0
  0
LINE
  5
64
  8
DIMNSIONS
  6
CONTINUOUS
 62
     7
 10
-34.5024522671673
 20
-80.0
 30
0.0
 11
-39.503697384354801
 21
-78.659920409699509
 31
0.0
  0
TEXT
  5
65
  8
DIMNSIONS
 62
     7
 10
-87.055555555555543
 20
-78.012222222222206
 30
0.0
 40
5.4294704861111107
  1
91.0
 41
0.7
 11
-87.055555555555543
 21
-72.582751736111092
 31
0.0
 73
     3
  0
LINE
  5
66
  8
DIMNSIONS
  6
CONTINUOUS
 62
     7
 10
-122.0
 20
74.999999999999986
 30
0.0
 11
-122.0
 21
104.0
 31
0.0
  0
LINE
  5
67
  8
DIMNSIONS
  6
CONTINUOUS
 62
     7
 10
-37.999999999999993
 20
74.999999999999986
 30
0.0
 11
-37.999999999999993
 21
104.0
 31
0.0
  0
LINE
  5
68
  8
DIMNSIONS
  6
CONTINUOUS
 62
     7
 10
-122.0
 20
100.0
 30
0.0
 11
-37.999999999999993
 21
100.0
 31
0.0
  0
LINE
  5
69
  8
DIMNSIONS
  6
CONTINUOUS
 62
     7
 10
-122.0
 20
100.0
 30
0.0
 11
-116.99875488281251
 21
101.3400795903005
 31
0.0
  0
LINE
  5
6A
  8
DIMNSIONS
  6
CONTINUOUS
 62
     7
 10
-122.0
 20
100.0
 30
0.0
 11
-116.99875488281251
 21
98.659920409699509
 31
0.0
  0
LINE
  5
6B
  8
DIMNSIONS
  6
CONTINUOUS
 62
     7
 10
-37.999999999999993
 20
100.0
 30
0.0
 11
-43.00124511718748
 21
98.659920409699509
 31
0.0
  0
LINE
  5
6C
  8
DIMNSIONS
  6
CONTINUOUS
 62
     7
 10
-37.999999999999993
 20
100.0
 30
0.0
 11
-43.00124511718748
 21
101.3400795903005
 31
0.0
  0
TEXT
  5
6D
  8
DIMNSIONS
 62
     7
 10
-87.055555555555543
 20
101.98777777777769
 30
0.0
 40
5.4294704861111107
  1
84.0
 41
0.7
 11
-87.055555555555543
 21
107.41724826388879
 31
0.0
 73
     3
  0
LINE
  5
6E
  8
DIMNSIONS
  6
CONTINUOUS
 62
     7
 10
-129.4975477328326
 20
-149.99999999996629
 30
0.0
 11
-154.0
 21
-149.99999999996629
 31
0.0
  0
LINE
  5
6F
  8
DIMNSIONS
  6
CONTINUOUS
 62
     7
 10
-100.5
 20
-109.0
 30
0.0
 11
-154.0
 21
-109.0
 31
0.0
  0
LINE
  5
70
  8
DIMNSIONS
  6
CONTINUOUS
 62
     7
 10
-150.0
 20
-149.99999999996629
 30
0.0
 11
-150.0
 21
-109.0
 31
0.0
  0
LINE
  5
71
  8
DIMNSIONS
  6
CONTINUOUS
 62
     7
 10
-150.0
 20
-149.99999999996629
 30
0.0
 11
-151.34007959030041
 21
-144.9987548827788
 31
0.0
  0
LINE
  5
72
  8
DIMNSIONS
  6
CONTINUOUS
 62
     7
 10
-150.0
 20
-149.99999999996629
 30
0.0
 11
-148.65992040969951
 21
-144.9987548827788
 31
0.0
  0
LINE
  5
73
  8
DIMNSIONS
  6
CONTINUOUS
 62
     7
 10
-150.0
 20
-109.0
 30
0.0
 11
-148.65992040969951
 21
-114.00124511718739
 31
0.0
  0
LINE
  5
74
  8
DIMNSIONS
  6
CONTINUOUS
 62
     7
 10
-150.0
 20
-109.0
 30
0.0
 11
-151.34007959030041
 21
-114.00124511718739
 31
0.0
  0
TEXT
  5
75
  8
DIMNSIONS
 62
     7
 10
-151.98777779249679
 20
-136.55555555553869
 30
0.0
 40
5.4294705670165291
  1
41.0
 50
90.0
 41
0.7
 11
-157.41724835951331
 21
-136.55555555553869
 31
0.0
 73
     3
  0
LINE
  5
76
  8
DIMNSIONS
  6
CONTINUOUS
 62
     7
 10
-117.5
 20
-150.99999999996629
 30
0.0
 11
-154.0
 21
-150.99999999996629
 31
0.0
  0
LINE
  5
77
  8
DIMNSIONS
  6
CONTINUOUS
 62
     7
 10
-129.4975477328326
 20
-149.99999999996629
 30
0.0
 11
-154.0
 21
-149.99999999996629
 31
0.0
  0
LINE
  5
78
  8
DIMNSIONS
  6
CONTINUOUS
 62
     7
 10
-150.0
 20
-149.99999999996629
 30
0.0
 11
-150.0
 21
-150.99999999996629
 31
0.0
  0
LINE
  5
79
  8
DIMNSIONS
  6
CONTINUOUS
 62
     7
 10
-150.0
 20
-150.99999999996629
 30
0.0
 11
-150.0
 21
-163.5849609375
 31
0.0
  0
LINE
  5
7A
  8
DIMNSIONS
  6
CONTINUOUS
 62
     7
 10
-150.0
 20
-150.99999999996629
 30
0.0
 11
-148.65992040969951
 21
-156.00124511715379
 31
0.0
  0
LINE
  5
7B
  8
DIMNSIONS
  6
CONTINUOUS
 62
     7
 10
-150.0
 20
-150.99999999996629
 30
0.0
 11
-151.34007959030041
 21
-156.00124511715379
 31
0.0
  0
LINE
  5
7C
  8
DIMNSIONS
  6
CONTINUOUS
 62
     7
 10
-150.0
 20
-149.99999999996629
 30
0.0
 11
-150.0
 21
-139.99999999996629
 31
0.0
  0
LINE
  5
7D
  8
DIMNSIONS
  6
CONTINUOUS
 62
     7
 10
-150.0
 20
-149.99999999996629
 30
0.0
 11
-151.34007959030041
 21
-144.9987548827788
 31
0.0
  0
LINE
  5
7E
  8
DIMNSIONS
  6
CONTINUOUS
 62
     7
 10
-150.0
 20
-149.99999999996629
 30
0.0
 11
-148.65992040969951
 21
-144.9987548827788
 31
0.0
  0
TEXT
  5
7F
  8
DIMNSIONS
 62
     7
 10
-151.98777779249679
 20
-163.5849609375
 30
0.0
 40
5.4294705670165291
  1
1.0
 50
90.0
 41
0.7
 11
-157.41724835951331
 21
-163.5849609375
 31
0.0
 73
     3
  0
TEXT
  5
80
  8
DATA
 62
     7
 10
99.882540380674456
 20
-234.32386461932549
 30
0.0
 40
4.8865234375000002
  1
ST6
 41
0.7
 11
99.882540380674456
 21
-229.4373411818255
 31
0.0
 73
     3
  0
TEXT
  5
81
  8
DATA
 62
     7
 10
99.999999999999957
 20
-219.70640499999999
 30
0.0
 40
4.8865234375000002
  1
AKG
 41
0.7
 11
99.999999999999957
 21
-214.8198815625
 31
0.0
 73
     3
  0
TEXT
  5
82
  8
DATA
 62
     7
 10
-175.0
 20
-240.7156294444444
 30
0.0
 40
3.8006293402777769
  1
※仕様及び外観は予告なく変更されることがあります。
 41
0.7
 11
-175.0
 21
-236.91500010416669
 31
0.0
 73
     3
  0
TEXT
  5
83
  8
DATA
 62
     7
 10
-175.0
 20
-245.65451833333341
 30
0.0
 40
3.8006293402777769
  1
　また、同一商品でも若干の個体差があることがあります。ご了承ください。
 41
0.7
 11
-175.0
 21
-241.85388899305559
 31
0.0
 73
     3
  0
LINE
  5
84
  8
DATA
  6
CONTINUOUS
 62
     7
 10
-80.0
 20
-60.0
 30
0.0
 11
-94.500000000000156
 21
-60.0
 31
0.0
  0
ARC
  5
85
  8
DATA
  6
CONTINUOUS
 62
     7
 10
-80.0
 20
-375.5754170347418
 30
0.0
 40
457.57541703474169
 50
90.000000000000028
 51
94.099936026049306
  0
ARC
  5
86
  8
DATA
  6
CONTINUOUS
 62
     7
 10
-112.0
 20
70.854593083107545
 30
0.0
 40
9.9999999999999751
 50
94.099936026049022
 51
180.0
  0
ARC
  5
87
  8
DATA
  6
CONTINUOUS
 62
     7
 10
-89.25
 20
28.25
 30
0.0
 40
88.406023550434611
 50
260.7241348076688
 51
266.5954817005113
  0
ARC
  5
88
  8
DATA
  6
CONTINUOUS
 62
     7
 10
-100.3815375026943
 20
-33.570127086476653
 30
0.0
 40
28.318763525349912
 50
214.38115370759539
 51
228.78780269440551
  0
ARC
  5
89
  8
DATA
  6
CONTINUOUS
 62
     7
 10
-112.45084792032191
 20
-47.350868835041361
 30
0.0
 40
10.000000000000011
 50
228.78780269440551
 51
256.23011294207498
  0
ARC
  5
8A
  8
DATA
  6
CONTINUOUS
 62
     7
 10
-95.5625
 20
21.5625
 30
0.0
 40
80.952580641385353
 50
256.23011294207498
 51
264.37303742542889
  0
ARC
  5
8B
  8
DATA
  6
CONTINUOUS
 62
     7
 10
-111.4983677625314
 20
-42.785481108933048
 30
0.0
 40
14.003275462117569
 50
180.87775948608001
 51
208.9401538158333
  0
ARC
  5
8C
  8
DATA
  6
CONTINUOUS
 62
     7
 10
-1352.4575394506351
 20
35.421361776739417
 30
0.0
 40
1229.4611476568409
 50
356.34289748763041
 51
0.1388116787327931
  0
LINE
  5
8D
  8
DATA
  6
CONTINUOUS
 62
     7
 10
-123.0
 20
38.5
 30
0.0
 11
-122.0
 21
71.0
 31
0.0
  0
LINE
  5
8E
  8
DATA
  6
CONTINUOUS
 62
     7
 10
-80.0
 20
-60.0
 30
0.0
 11
-94.500000000000156
 21
-60.0
 31
0.0
  0
LINE
  5
8F
  8
DATA
  6
CONTINUOUS
 62
     7
 10
-78.999999999999929
 20
82.000000000000043
 30
0.0
 11
-80.000000000000071
 21
82.000000000000043
 31
0.0
  0
LINE
  5
90
  8
DATA
  6
CONTINUOUS
 62
     7
 10
-79.999999999999972
 20
-60.0
 30
0.0
 11
-65.499999999999801
 21
-60.0
 31
0.0
  0
ARC
  5
91
  8
DATA
  6
CONTINUOUS
 62
     7
 10
-79.999999999999972
 20
-375.5754170347418
 30
0.0
 40
457.57541703474169
 50
85.900063973950694
 51
90.0
  0
ARC
  5
92
  8
DATA
  6
CONTINUOUS
 62
     7
 10
-47.999999999999929
 20
70.854593083107545
 30
0.0
 40
9.9999999999999556
 50
0.0
 51
85.900063973950978
  0
ARC
  5
93
  8
DATA
  6
CONTINUOUS
 62
     7
 10
-70.749999999999972
 20
28.25
 30
0.0
 40
88.406023550434611
 50
273.40451829948881
 51
279.27586519233108
  0
ARC
  5
94
  8
DATA
  6
CONTINUOUS
 62
     7
 10
-59.618462497305693
 20
-33.570127086476653
 30
0.0
 40
28.318763525349912
 50
311.21219730559449
 51
325.61884629240473
  0
ARC
  5
95
  8
DATA
  6
CONTINUOUS
 62
     7
 10
-47.549152079678038
 20
-47.350868835041361
 30
0.0
 40
10.000000000000011
 50
283.7698870579249
 51
311.21219730559437
  0
ARC
  5
96
  8
DATA
  6
CONTINUOUS
 62
     7
 10
-64.437499999999972
 20
21.5625
 30
0.0
 40
80.952580641385353
 50
275.62696257457111
 51
283.76988705792508
  0
ARC
  5
97
  8
DATA
  6
CONTINUOUS
 62
     7
 10
-48.50163223746857
 20
-42.785481108933048
 30
0.0
 40
14.003275462117569
 50
331.05984618416682
 51
359.12224051392002
  0
ARC
  5
98
  8
DATA
  6
CONTINUOUS
 62
     7
 10
1192.4575394506351
 20
35.421361776739417
 30
0.0
 40
1229.4611476568409
 50
179.86118832126721
 51
183.65710251236959
  0
LINE
  5
99
  8
DATA
  6
CONTINUOUS
 62
     7
 10
-36.999999999999972
 20
38.5
 30
0.0
 11
-37.999999999999972
 21
71.0
 31
0.0
  0
LINE
  5
9A
  8
DATA
  6
CONTINUOUS
 62
     7
 10
-79.999999999999972
 20
-60.0
 30
0.0
 11
-65.499999999999801
 21
-60.0
 31
0.0
  0
LINE
  5
9B
  8
DATA
  6
CONTINUOUS
 62
     7
 10
-81.000000000000028
 20
82.000000000000043
 30
0.0
 11
-79.999999999999901
 21
82.000000000000043
 31
0.0
  0
LINE
  5
9C
  8
DATA
  6
CONTINUOUS
 62
     7
 10
-93.499999999999986
 20
20.722681283367141
 30
0.0
 11
-93.499999999999986
 21
57.222681283367137
 31
0.0
  0
LINE
  5
9D
  8
DATA
  6
CONTINUOUS
 62
     7
 10
-66.5
 20
20.722681283367141
 30
0.0
 11
-93.499999999999986
 21
20.722681283367141
 31
0.0
  0
LINE
  5
9E
  8
DATA
  6
CONTINUOUS
 62
     7
 10
-66.5
 20
57.222681283367137
 30
0.0
 11
-66.5
 21
20.722681283367141
 31
0.0
  0
LINE
  5
9F
  8
DATA
  6
CONTINUOUS
 62
     7
 10
-93.499999999999986
 20
57.222681283367137
 30
0.0
 11
-84.900000000000006
 21
57.222681283367137
 31
0.0
  0
LINE
  5
A0
  8
DATA
  6
CONTINUOUS
 62
     7
 10
-74.900000000000006
 20
57.222681283367137
 30
0.0
 11
-66.5
 21
57.222681283367137
 31
0.0
  0
POLYLINE
  5
A1
  8
DATA
  6
CONTINUOUS
 62
     7
 66
     1
 10
0.0
 20
0.0
 30
0.0
 70
   129
  0
VERTEX
  5
285
  8
DATA
  6
CONTINUOUS
 62
     7
 10
-90.329999999999984
 20
52.052681283367129
 30
0.0
 42
-0.4142135623730951
  0
VERTEX
  5
286
  8
DATA
  6
CONTINUOUS
 62
     7
 10
-88.329999999999998
 20
54.052681283367143
 30
0.0
 42
-0.4142135623730951
  0
VERTEX
  5
287
  8
DATA
  6
CONTINUOUS
 62
     7
 10
-86.329999999999998
 20
52.052681283367129
 30
0.0
 42
-0.4142135623730951
  0
VERTEX
  5
288
  8
DATA
  6
CONTINUOUS
 62
     7
 10
-88.329999999999998
 20
50.052681283367129
 30
0.0
 42
-0.4142135623730951
  0
VERTEX
  5
289
  8
DATA
  6
CONTINUOUS
 62
     7
 10
-90.329999999999984
 20
52.052681283367129
 30
0.0
  0
SEQEND
  5
28A
  8
DATA
  6
CONTINUOUS
 62
     7
  0
POLYLINE
  5
A8
  8
DATA
  6
CONTINUOUS
 62
     7
 66
     1
 10
0.0
 20
0.0
 30
0.0
 70
   129
  0
VERTEX
  5
28B
  8
DATA
  6
CONTINUOUS
 62
     7
 10
-73.670000000000002
 20
25.892681283367139
 30
0.0
 42
-0.4142135623730951
  0
VERTEX
  5
28C
  8
DATA
  6
CONTINUOUS
 62
     7
 10
-71.670000000000002
 20
27.892681283367139
 30
0.0
 42
-0.4142135623730951
  0
VERTEX
  5
28D
  8
DATA
  6
CONTINUOUS
 62
     7
 10
-69.670000000000002
 20
25.892681283367139
 30
0.0
 42
-0.4142135623730951
  0
VERTEX
  5
28E
  8
DATA
  6
CONTINUOUS
 62
     7
 10
-71.670000000000002
 20
23.892681283367139
 30
0.0
 42
-0.4142135623730951
  0
VERTEX
  5
28F
  8
DATA
  6
CONTINUOUS
 62
     7
 10
-73.670000000000002
 20
25.892681283367139
 30
0.0
  0
SEQEND
  5
290
  8
DATA
  6
CONTINUOUS
 62
     7
  0
POLYLINE
  5
AF
  8
DATA
  6
CONTINUOUS
 62
     7
 66
     1
 10
0.0
 20
0.0
 30
0.0
 70
   129
  0
VERTEX
  5
291
  8
DATA
  6
CONTINUOUS
 62
     7
 10
-91.180000000000007
 20
52.052681283367129
 30
0.0
 42
-0.4142135623730951
  0
VERTEX
  5
292
  8
DATA
  6
CONTINUOUS
 62
     7
 10
-88.330000000000013
 20
54.90268128336713
 30
0.0
 42
-0.4142135623730936
  0
VERTEX
  5
293
  8
DATA
  6
CONTINUOUS
 62
     7
 10
-85.480000000000032
 20
52.052681283367129
 30
0.0
 42
-0.4142135623730951
  0
VERTEX
  5
294
  8
DATA
  6
CONTINUOUS
 62
     7
 10
-88.330000000000013
 20
49.202681283367141
 30
0.0
 42
-0.4142135623730966
  0
VERTEX
  5
295
  8
DATA
  6
CONTINUOUS
 62
     7
 10
-91.180000000000007
 20
52.052681283367129
 30
0.0
  0
SEQEND
  5
296
  8
DATA
  6
CONTINUOUS
 62
     7
  0
POLYLINE
  5
B6
  8
DATA
  6
CONTINUOUS
 62
     7
 66
     1
 10
0.0
 20
0.0
 30
0.0
 70
   129
  0
VERTEX
  5
297
  8
DATA
  6
CONTINUOUS
 62
     7
 10
-74.519999999999982
 20
25.892681283367139
 30
0.0
 42
-0.4142135623730966
  0
VERTEX
  5
298
  8
DATA
  6
CONTINUOUS
 62
     7
 10
-71.669999999999973
 20
28.742681283367141
 30
0.0
 42
-0.4142135623730951
  0
VERTEX
  5
299
  8
DATA
  6
CONTINUOUS
 62
     7
 10
-68.819999999999993
 20
25.892681283367139
 30
0.0
 42
-0.4142135623730951
  0
VERTEX
  5
29A
  8
DATA
  6
CONTINUOUS
 62
     7
 10
-71.669999999999973
 20
23.042681283367141
 30
0.0
 42
-0.4142135623730936
  0
VERTEX
  5
29B
  8
DATA
  6
CONTINUOUS
 62
     7
 10
-74.519999999999982
 20
25.892681283367139
 30
0.0
  0
SEQEND
  5
29C
  8
DATA
  6
CONTINUOUS
 62
     7
  0
LINE
  5
BD
  8
DATA
  6
CONTINUOUS
 62
     7
 10
-84.900000000000006
 20
51.695920021020612
 30
0.0
 11
-84.900000000000006
 21
58.195920021020612
 31
0.0
  0
LINE
  5
BE
  8
DATA
  6
CONTINUOUS
 62
     7
 10
-74.900000000000006
 20
51.695920021020612
 30
0.0
 11
-84.900000000000006
 21
51.695920021020612
 31
0.0
  0
LINE
  5
BF
  8
DATA
  6
CONTINUOUS
 62
     7
 10
-74.900000000000006
 20
58.195920021020612
 30
0.0
 11
-74.900000000000006
 21
51.695920021020612
 31
0.0
  0
LINE
  5
C0
  8
DATA
  6
CONTINUOUS
 62
     7
 10
-84.900000000000006
 20
58.195920021020612
 30
0.0
 11
-74.900000000000006
 21
58.195920021020612
 31
0.0
  0
ARC
  5
C1
  8
DATA
  6
CONTINUOUS
 62
     7
 10
-80.0
 20
38.97268128336713
 30
0.0
 40
10.000004548238961
 50
102.0000125714765
 51
77.99998742852344
  0
ARC
  5
C2
  8
DATA
  6
CONTINUOUS
 62
     7
 10
-80.0
 20
38.97268128336713
 30
0.0
 40
6.3500007008897263
 50
137.99999780681091
 51
42.000002193189097
  0
POLYLINE
  5
C3
  8
DATA
  6
CONTINUOUS
 62
     7
 66
     1
 10
0.0
 20
0.0
 30
0.0
 70
   129
  0
VERTEX
  5
29D
  8
DATA
  6
CONTINUOUS
 62
     7
 10
-85.449999999999989
 20
38.97268128336713
 30
0.0
 42
-0.4142135623730951
  0
VERTEX
  5
29E
  8
DATA
  6
CONTINUOUS
 62
     7
 10
-83.950000000000017
 20
40.47268128336713
 30
0.0
 42
-0.4142135623730951
  0
VERTEX
  5
29F
  8
DATA
  6
CONTINUOUS
 62
     7
 10
-82.450000000000003
 20
38.97268128336713
 30
0.0
 42
-0.4142135623730951
  0
VERTEX
  5
2A0
  8
DATA
  6
CONTINUOUS
 62
     7
 10
-83.950000000000017
 20
37.47268128336713
 30
0.0
 42
-0.4142135623730951
  0
VERTEX
  5
2A1
  8
DATA
  6
CONTINUOUS
 62
     7
 10
-85.449999999999989
 20
38.97268128336713
 30
0.0
  0
SEQEND
  5
2A2
  8
DATA
  6
CONTINUOUS
 62
     7
  0
POLYLINE
  5
CA
  8
DATA
  6
CONTINUOUS
 62
     7
 66
     1
 10
0.0
 20
0.0
 30
0.0
 70
   129
  0
VERTEX
  5
2A3
  8
DATA
  6
CONTINUOUS
 62
     7
 10
-77.549999999999983
 20
38.97268128336713
 30
0.0
 42
-0.4142135623730951
  0
VERTEX
  5
2A4
  8
DATA
  6
CONTINUOUS
 62
     7
 10
-76.049999999999983
 20
40.47268128336713
 30
0.0
 42
-0.4142135623730951
  0
VERTEX
  5
2A5
  8
DATA
  6
CONTINUOUS
 62
     7
 10
-74.549999999999983
 20
38.97268128336713
 30
0.0
 42
-0.4142135623730951
  0
VERTEX
  5
2A6
  8
DATA
  6
CONTINUOUS
 62
     7
 10
-76.049999999999983
 20
37.47268128336713
 30
0.0
 42
-0.4142135623730951
  0
VERTEX
  5
2A7
  8
DATA
  6
CONTINUOUS
 62
     7
 10
-77.549999999999983
 20
38.97268128336713
 30
0.0
  0
SEQEND
  5
2A8
  8
DATA
  6
CONTINUOUS
 62
     7
  0
POLYLINE
  5
D1
  8
DATA
  6
CONTINUOUS
 62
     7
 66
     1
 10
0.0
 20
0.0
 30
0.0
 70
   129
  0
VERTEX
  5
2A9
  8
DATA
  6
CONTINUOUS
 62
     7
 10
-81.5
 20
35.22268128336713
 30
0.0
 42
-0.4142135623730951
  0
VERTEX
  5
2AA
  8
DATA
  6
CONTINUOUS
 62
     7
 10
-80.0
 20
36.72268128336713
 30
0.0
 42
-0.4142135623730951
  0
VERTEX
  5
2AB
  8
DATA
  6
CONTINUOUS
 62
     7
 10
-78.5
 20
35.22268128336713
 30
0.0
 42
-0.4142135623730951
  0
VERTEX
  5
2AC
  8
DATA
  6
CONTINUOUS
 62
     7
 10
-80.0
 20
33.722681283367137
 30
0.0
 42
-0.4142135623730951
  0
VERTEX
  5
2AD
  8
DATA
  6
CONTINUOUS
 62
     7
 10
-81.5
 20
35.22268128336713
 30
0.0
  0
SEQEND
  5
2AE
  8
DATA
  6
CONTINUOUS
 62
     7
  0
LINE
  5
D8
  8
DATA
  6
CONTINUOUS
 62
     7
 10
-84.718999999999966
 20
43.221631283367131
 30
0.0
 11
-75.28107
 21
43.221701283367132
 31
0.0
  0
ARC
  5
D9
  8
DATA
  6
CONTINUOUS
 62
     7
 10
-85.656850000000006
 20
44.629531283367129
 30
0.0
 40
0.7500023947295106
 50
42.000045523693203
 51
227.00017739308041
  0
ARC
  5
DA
  8
DATA
  6
CONTINUOUS
 62
     7
 10
-80.0
 20
38.97268128336713
 30
0.0
 40
8.0000028487244936
 50
140.00002532363601
 51
128.99997218353931
  0
LINE
  5
DB
  8
DATA
  6
CONTINUOUS
 62
     7
 10
-82.07929
 20
48.754121283367141
 30
0.0
 11
-82.07929
 21
51.695920021020612
 31
0.0
  0
LINE
  5
DC
  8
DATA
  6
CONTINUOUS
 62
     7
 10
-77.920860000000005
 20
48.754151283367129
 30
0.0
 11
-77.920860000000005
 21
51.695920021020612
 31
0.0
  0
LINE
  5
DD
  8
DATA
  6
CONTINUOUS
 62
     7
 10
-89.329999999999984
 20
52.052681283367129
 30
0.0
 11
-87.329999999999998
 21
52.052681283367129
 31
0.0
  0
LINE
  5
DE
  8
DATA
  6
CONTINUOUS
 62
     7
 10
-88.329999999999998
 20
51.052681283367143
 30
0.0
 11
-88.329999999999998
 21
53.052681283367129
 31
0.0
  0
LINE
  5
DF
  8
DATA
  6
CONTINUOUS
 62
     7
 10
-72.670000000000002
 20
25.892681283367139
 30
0.0
 11
-70.670000000000002
 21
25.892681283367139
 31
0.0
  0
LINE
  5
E0
  8
DATA
  6
CONTINUOUS
 62
     7
 10
-71.670000000000002
 20
24.892681283367139
 30
0.0
 11
-71.670000000000002
 21
26.892681283367139
 31
0.0
  0
LINE
  5
E1
  8
DATA
  6
CONTINUOUS
 62
     7
 10
-94.500000000000014
 20
19.472681283367141
 30
0.0
 11
-94.500000000000014
 21
58.472681283367137
 31
0.0
  0
LINE
  5
E2
  8
DATA
  6
CONTINUOUS
 62
     7
 10
-65.5
 20
19.472681283367141
 30
0.0
 11
-94.500000000000014
 21
19.472681283367141
 31
0.0
  0
LINE
  5
E3
  8
DATA
  6
CONTINUOUS
 62
     7
 10
-65.5
 20
58.472681283367137
 30
0.0
 11
-65.5
 21
19.472681283367141
 31
0.0
  0
LINE
  5
E4
  8
DATA
  6
CONTINUOUS
 62
     7
 10
-94.500000000000014
 20
58.472681283367137
 30
0.0
 11
-65.5
 21
58.472681283367137
 31
0.0
  0
ARC
  5
E5
  8
DATA
  6
CONTINUOUS
 62
     7
 10
-76.827020202020037
 20
151.0176767676794
 30
0.0
 40
203.20284854972419
 50
263.06852040815562
 51
267.55379346094998
  0
ARC
  5
E6
  8
DATA
  6
CONTINUOUS
 62
     7
 10
25.923827379214131
 20
-36.468517284734958
 30
0.0
 40
131.14673225856509
 50
171.32297580072739
 51
184.6317138347849
  0
ARC
  5
E7
  8
DATA
  6
CONTINUOUS
 62
     7
 10
-39.349999999999838
 20
-27.153846153846199
 30
0.0
 40
65.177639035005981
 50
156.2995322310058
 51
170.85951084501531
  0
ARC
  5
E8
  8
DATA
  6
CONTINUOUS
 62
     7
 10
-84.333204458075812
 20
-10.13082483491395
 30
0.0
 40
17.326285148840078
 50
98.853943391762442
 51
148.0236243761394
  0
ARC
  5
E9
  8
DATA
  6
CONTINUOUS
 62
     7
 10
-100.8076862194047
 20
-46.735697278986521
 30
0.0
 40
4.0000000000000009
 50
184.6317138347851
 51
260.66010789762407
  0
ARC
  5
EA
  8
DATA
  6
CONTINUOUS
 62
     7
 10
-97.488829787233854
 20
-26.556755319148181
 30
0.0
 40
24.450049061943272
 50
260.66010789762402
 51
260.91377002929528
  0
ARC
  5
EB
  8
DATA
  6
CONTINUOUS
 62
     7
 10
-83.172979797979906
 20
151.0176767676794
 30
0.0
 40
203.20284854972419
 50
272.44620653905002
 51
276.93147959184438
  0
ARC
  5
EC
  8
DATA
  6
CONTINUOUS
 62
     7
 10
-185.92382737921409
 20
-36.468517284734958
 30
0.0
 40
131.14673225856509
 50
355.36828616521512
 51
8.6770241992725232
  0
ARC
  5
ED
  8
DATA
  6
CONTINUOUS
 62
     7
 10
-120.65000000000011
 20
-27.153846153846199
 30
0.0
 40
65.177639035005981
 50
9.1404891549846408
 51
23.700467768994169
  0
ARC
  5
EE
  8
DATA
  6
CONTINUOUS
 62
     7
 10
-75.666795541924145
 20
-10.13082483491395
 30
0.0
 40
17.326285148840071
 50
31.976375623860559
 51
81.146056608237586
  0
ARC
  5
EF
  8
DATA
  6
CONTINUOUS
 62
     7
 10
-59.192313780595271
 20
-46.735697278986521
 30
0.0
 40
4.0000000000000124
 50
279.33989210237598
 51
355.36828616521478
  0
ARC
  5
F0
  8
DATA
  6
CONTINUOUS
 62
     7
 10
-62.511170212766068
 20
-26.556755319148181
 30
0.0
 40
24.450049061943261
 50
279.08622997070472
 51
279.3398921023761
  0
ARC
  5
F1
  8
DATA
  6
CONTINUOUS
 62
     7
 10
-80.238738293751226
 20
17.9449091418103
 30
0.0
 40
70.142506296807909
 50
265.69830771793818
 51
274.69161316599741
  0
LINE
  5
F2
  8
DATA
  6
CONTINUOUS
 62
     7
 10
-86.999999999999943
 20
6.9889987213172731
 30
0.0
 11
-72.999999999999972
 21
6.9889987213172731
 31
0.0
  0
TEXT
  5
F3
  8
DATA
 62
     7
 10
-84.158458585676811
 20
-24.616520019541369
 30
0.0
 40
4.3435763888888879
  1
AKG
 41
0.7
 11
-84.158458585676811
 21
-22.44473182509693
 31
0.0
 73
     2
  0
TEXT
  5
F4
  8
DATA
 62
     7
 10
-83.173372716163044
 20
-29.800202047147259
 30
0.0
 40
3.2576822916666659
  1
ST6
 41
0.7
 11
-83.173372716163044
 21
-28.171360901313928
 31
0.0
 73
     2
  0
ARC
  5
F5
  8
DATA
  6
CONTINUOUS
 62
     7
 10
-849.20081698106753
 20
81.052512588922283
 30
0.0
 40
746.70092091058063
 50
355.31008935921409
 51
0.0302296930815373
  0
ARC
  5
F6
  8
DATA
  6
CONTINUOUS
 62
     7
 10
333.04500580378158
 20
-27.692759020950529
 30
0.0
 40
440.63366459301028
 50
173.78631768462981
 51
184.0284144171311
  0
ARC
  5
F7
  8
DATA
  6
CONTINUOUS
 62
     7
 10
689.20081698106776
 20
81.052512588922283
 30
0.0
 40
746.70092091058029
 50
179.96977030691849
 51
184.68991064078591
  0
ARC
  5
F8
  8
DATA
  6
CONTINUOUS
 62
     7
 10
-493.04500580378158
 20
-27.692759020950529
 30
0.0
 40
440.63366459301028
 50
355.97158558286878
 51
6.2136823153701934
  0
LINE
  5
F9
  8
DATA
  6
CONTINUOUS
 62
     7
 10
17.210006682544019
 20
-60.0
 30
0.0
 11
30.0
 21
-60.0
 31
0.0
  0
LINE
  5
FA
  8
DATA
  6
CONTINUOUS
 62
     7
 10
0.242001658120472
 20
82.000000000000043
 30
0.0
 11
30.0
 21
82.000000000000043
 31
0.0
  0
LINE
  5
FB
  8
DATA
  6
CONTINUOUS
 62
     7
 10
30.0
 20
-60.0
 30
0.0
 11
30.0
 21
82.000000000000014
 31
0.0
  0
LINE
  5
FC
  8
DATA
  6
CONTINUOUS
 62
     7
 10
-11.0
 20
19.47268128336713
 30
0.0
 11
-11.0
 21
58.472681283367137
 31
0.0
  0
LINE
  5
FD
  8
DATA
  6
CONTINUOUS
 62
     7
 10
-96.370682575673413
 20
130.0
 30
0.0
 11
-65.5
 21
130.0
 31
0.0
  0
LINE
  5
FE
  8
DATA
  6
CONTINUOUS
 62
     7
 10
-125.4975477328327
 20
171.0
 30
0.0
 11
-34.502452267167307
 21
171.0
 31
0.0
  0
LINE
  5
FF
  8
DATA
  6
CONTINUOUS
 62
     7
 10
-125.4975477328327
 20
143.97688222293701
 30
0.0
 11
-125.4975477328327
 21
171.0
 31
0.0
  0
LINE
  5
100
  8
DATA
  6
CONTINUOUS
 62
     7
 10
-34.5024522671673
 20
143.97688222293701
 30
0.0
 11
-34.5024522671673
 21
171.0
 31
0.0
  0
LINE
  5
101
  8
DATA
  6
CONTINUOUS
 62
     7
 10
-120.0
 20
153.0
 30
0.0
 11
-120.0
 21
171.0
 31
0.0
  0
LINE
  5
102
  8
DATA
  6
CONTINUOUS
 62
     7
 10
-40.0
 20
171.0
 30
0.0
 11
-40.0
 21
153.0
 31
0.0
  0
LINE
  5
103
  8
DATA
  6
CONTINUOUS
 62
     7
 10
-125.4975477328327
 20
153.0
 30
0.0
 11
-104.5
 21
153.0
 31
0.0
  0
LINE
  5
104
  8
DATA
  6
CONTINUOUS
 62
     7
 10
-104.5
 20
153.0
 30
0.0
 11
-101.7798791229073
 21
153.0
 31
0.0
  0
LINE
  5
105
  8
DATA
  6
CONTINUOUS
 62
     7
 10
-55.499999999999993
 20
153.0
 30
0.0
 11
-34.502452267167293
 21
153.0
 31
0.0
  0
LINE
  5
106
  8
DATA
  6
CONTINUOUS
 62
     7
 10
-58.220120877092619
 20
153.0
 30
0.0
 11
-55.499999999999993
 21
153.0
 31
0.0
  0
POLYLINE
  5
107
  8
DATA
  6
CONTINUOUS
 62
     7
 66
     1
 10
0.0
 20
0.0
 30
0.0
 70
   129
  0
VERTEX
  5
2AF
  8
DATA
  6
CONTINUOUS
 62
     7
 10
-77.522979817376552
 20
155.9581077210444
 30
0.0
 42
-0.4142135623730951
  0
VERTEX
  5
2B0
  8
DATA
  6
CONTINUOUS
 62
     7
 10
-76.022979817376552
 20
157.4581077210444
 30
0.0
 42
-0.4142135623730951
  0
VERTEX
  5
2B1
  8
DATA
  6
CONTINUOUS
 62
     7
 10
-74.522979817376552
 20
155.9581077210444
 30
0.0
 42
-0.4142135623730951
  0
VERTEX
  5
2B2
  8
DATA
  6
CONTINUOUS
 62
     7
 10
-76.022979817376552
 20
154.4581077210444
 30
0.0
 42
-0.4142135623730951
  0
VERTEX
  5
2B3
  8
DATA
  6
CONTINUOUS
 62
     7
 10
-77.522979817376552
 20
155.9581077210444
 30
0.0
  0
SEQEND
  5
2B4
  8
DATA
  6
CONTINUOUS
 62
     7
  0
POLYLINE
  5
10E
  8
DATA
  6
CONTINUOUS
 62
     7
 66
     1
 10
0.0
 20
0.0
 30
0.0
 70
   129
  0
VERTEX
  5
2B5
  8
DATA
  6
CONTINUOUS
 62
     7
 10
-85.522979817376552
 20
155.9581077210444
 30
0.0
 42
-0.4142135623730951
  0
VERTEX
  5
2B6
  8
DATA
  6
CONTINUOUS
 62
     7
 10
-84.022979817376552
 20
157.4581077210444
 30
0.0
 42
-0.4142135623730951
  0
VERTEX
  5
2B7
  8
DATA
  6
CONTINUOUS
 62
     7
 10
-82.522979817376552
 20
155.9581077210444
 30
0.0
 42
-0.4142135623730951
  0
VERTEX
  5
2B8
  8
DATA
  6
CONTINUOUS
 62
     7
 10
-84.022979817376552
 20
154.4581077210444
 30
0.0
 42
-0.4142135623730951
  0
VERTEX
  5
2B9
  8
DATA
  6
CONTINUOUS
 62
     7
 10
-85.522979817376552
 20
155.9581077210444
 30
0.0
  0
SEQEND
  5
2BA
  8
DATA
  6
CONTINUOUS
 62
     7
  0
POLYLINE
  5
115
  8
DATA
  6
CONTINUOUS
 62
     7
 66
     1
 10
0.0
 20
0.0
 30
0.0
 70
   129
  0
VERTEX
  5
2BB
  8
DATA
  6
CONTINUOUS
 62
     7
 10
-81.522979817376552
 20
160.9581077210444
 30
0.0
 42
-0.4142135623730951
  0
VERTEX
  5
2BC
  8
DATA
  6
CONTINUOUS
 62
     7
 10
-80.022979817376552
 20
162.4581077210444
 30
0.0
 42
-0.4142135623730951
  0
VERTEX
  5
2BD
  8
DATA
  6
CONTINUOUS
 62
     7
 10
-78.522979817376552
 20
160.9581077210444
 30
0.0
 42
-0.4142135623730951
  0
VERTEX
  5
2BE
  8
DATA
  6
CONTINUOUS
 62
     7
 10
-80.022979817376552
 20
159.4581077210444
 30
0.0
 42
-0.4142135623730951
  0
VERTEX
  5
2BF
  8
DATA
  6
CONTINUOUS
 62
     7
 10
-81.522979817376552
 20
160.9581077210444
 30
0.0
  0
SEQEND
  5
2C0
  8
DATA
  6
CONTINUOUS
 62
     7
  0
POLYLINE
  5
11C
  8
DATA
  6
CONTINUOUS
 62
     7
 66
     1
 10
0.0
 20
0.0
 30
0.0
 70
   129
  0
VERTEX
  5
2C1
  8
DATA
  6
CONTINUOUS
 62
     7
 10
-90.022979817376552
 20
146.95810772104431
 30
0.0
 42
-0.4142135623730951
  0
VERTEX
  5
2C2
  8
DATA
  6
CONTINUOUS
 62
     7
 10
-88.022979817376552
 20
148.95810772104431
 30
0.0
 42
-0.4142135623730951
  0
VERTEX
  5
2C3
  8
DATA
  6
CONTINUOUS
 62
     7
 10
-86.022979817376537
 20
146.95810772104431
 30
0.0
 42
-0.4142135623730951
  0
VERTEX
  5
2C4
  8
DATA
  6
CONTINUOUS
 62
     7
 10
-88.022979817376552
 20
144.95810772104431
 30
0.0
 42
-0.4142135623730951
  0
VERTEX
  5
2C5
  8
DATA
  6
CONTINUOUS
 62
     7
 10
-90.022979817376552
 20
146.95810772104431
 30
0.0
  0
SEQEND
  5
2C6
  8
DATA
  6
CONTINUOUS
 62
     7
  0
POLYLINE
  5
123
  8
DATA
  6
CONTINUOUS
 62
     7
 66
     1
 10
0.0
 20
0.0
 30
0.0
 70
   129
  0
VERTEX
  5
2C7
  8
DATA
  6
CONTINUOUS
 62
     7
 10
-74.022979817376552
 20
164.9581077210444
 30
0.0
 42
-0.414213562373091
  0
VERTEX
  5
2C8
  8
DATA
  6
CONTINUOUS
 62
     7
 10
-72.02297981737658
 20
166.9581077210444
 30
0.0
 42
-0.4142135623730951
  0
VERTEX
  5
2C9
  8
DATA
  6
CONTINUOUS
 62
     7
 10
-70.022979817376608
 20
164.9581077210444
 30
0.0
 42
-0.414213562373091
  0
VERTEX
  5
2CA
  8
DATA
  6
CONTINUOUS
 62
     7
 10
-72.02297981737658
 20
162.9581077210444
 30
0.0
 42
-0.4142135623730951
  0
VERTEX
  5
2CB
  8
DATA
  6
CONTINUOUS
 62
     7
 10
-74.022979817376552
 20
164.9581077210444
 30
0.0
  0
SEQEND
  5
2CC
  8
DATA
  6
CONTINUOUS
 62
     7
  0
LINE
  5
12A
  8
DATA
  6
CONTINUOUS
 62
     7
 10
-86.772979817376552
 20
146.95810772104431
 30
0.0
 11
-89.272979817376552
 21
146.95810772104431
 31
0.0
  0
LINE
  5
12B
  8
DATA
  6
CONTINUOUS
 62
     7
 10
-88.022979817376552
 20
148.20810772104431
 30
0.0
 11
-88.022979817376552
 21
145.70810772104431
 31
0.0
  0
LINE
  5
12C
  8
DATA
  6
CONTINUOUS
 62
     7
 10
-70.772979817376608
 20
164.9581077210444
 30
0.0
 11
-73.272979817376552
 21
164.9581077210444
 31
0.0
  0
LINE
  5
12D
  8
DATA
  6
CONTINUOUS
 62
     7
 10
-72.022979817376608
 20
166.2081077210444
 30
0.0
 11
-72.022979817376608
 21
163.7081077210444
 31
0.0
  0
LINE
  5
12E
  8
DATA
  6
CONTINUOUS
 62
     7
 10
-68.922979817376572
 20
165.9581077210444
 30
0.0
 11
-68.922979817376572
 21
145.95810772104431
 31
0.0
  0
LINE
  5
12F
  8
DATA
  6
CONTINUOUS
 62
     7
 10
-89.122979817376574
 20
167.9581077210444
 30
0.0
 11
-70.922979817376572
 21
167.9581077210444
 31
0.0
  0
LINE
  5
130
  8
DATA
  6
CONTINUOUS
 62
     7
 10
-91.12297981737656
 20
145.95810772104431
 30
0.0
 11
-91.12297981737656
 21
165.9581077210444
 31
0.0
  0
LINE
  5
131
  8
DATA
  6
CONTINUOUS
 62
     7
 10
-70.922979817376572
 20
143.95810772104431
 30
0.0
 11
-89.122979817376574
 21
143.95810772104431
 31
0.0
  0
ARC
  5
132
  8
DATA
  6
CONTINUOUS
 62
     7
 10
-70.922979817376572
 20
145.95810772104431
 30
0.0
 40
2.0
 50
270.0
 51
0.0
  0
ARC
  5
133
  8
DATA
  6
CONTINUOUS
 62
     7
 10
-70.922979817376572
 20
165.9581077210444
 30
0.0
 40
2.0
 50
0.0
 51
90.0
  0
ARC
  5
134
  8
DATA
  6
CONTINUOUS
 62
     7
 10
-89.122979817376574
 20
165.9581077210444
 30
0.0
 40
2.0
 50
90.0
 51
180.0
  0
ARC
  5
135
  8
DATA
  6
CONTINUOUS
 62
     7
 10
-89.122979817376574
 20
145.95810772104431
 30
0.0
 40
2.0
 50
180.0
 51
270.0
  0
LINE
  5
136
  8
DATA
  6
CONTINUOUS
 62
     7
 10
-103.5
 20
171.0
 30
0.0
 11
-103.5
 21
154.0
 31
0.0
  0
LINE
  5
137
  8
DATA
  6
CONTINUOUS
 62
     7
 10
-100.5
 20
171.0
 30
0.0
 11
-100.78001448738959
 21
153.9835467133687
 31
0.0
  0
LINE
  5
138
  8
DATA
  6
CONTINUOUS
 62
     7
 10
-56.499999999999993
 20
171.0
 30
0.0
 11
-56.499999999999993
 21
154.0
 31
0.0
  0
LINE
  5
139
  8
DATA
  6
CONTINUOUS
 62
     7
 10
-59.499999999999993
 20
171.0
 30
0.0
 11
-59.219985512610378
 21
153.9835467133687
 31
0.0
  0
LINE
  5
13A
  8
DATA
  6
CONTINUOUS
 62
     7
 10
-113.5
 20
171.0
 30
0.0
 11
-113.5
 21
172.0
 31
0.0
  0
LINE
  5
13B
  8
DATA
  6
CONTINUOUS
 62
     7
 10
-105.5
 20
172.0
 30
0.0
 11
-105.5
 21
171.0
 31
0.0
  0
LINE
  5
13C
  8
DATA
  6
CONTINUOUS
 62
     7
 10
-113.5
 20
172.0
 30
0.0
 11
-105.5
 21
172.0
 31
0.0
  0
LINE
  5
13D
  8
DATA
  6
CONTINUOUS
 62
     7
 10
-46.499999999999993
 20
171.0
 30
0.0
 11
-46.499999999999993
 21
172.0
 31
0.0
  0
LINE
  5
13E
  8
DATA
  6
CONTINUOUS
 62
     7
 10
-54.499999999999993
 20
172.0
 30
0.0
 11
-54.499999999999993
 21
171.0
 31
0.0
  0
LINE
  5
13F
  8
DATA
  6
CONTINUOUS
 62
     7
 10
-46.499999999999993
 20
172.0
 30
0.0
 11
-54.499999999999993
 21
172.0
 31
0.0
  0
CIRCLE
  5
140
  8
DATA
  6
CONTINUOUS
 62
     7
 10
-80.022979817376552
 20
155.9581077210444
 30
0.0
 40
8.0000028487245096
  0
LINE
  5
141
  8
DATA
  6
CONTINUOUS
 62
     7
 10
-94.500000000000014
 20
130.0
 30
0.0
 11
-94.500000000000014
 21
132.65000000000001
 31
0.0
  0
LINE
  5
142
  8
DATA
  6
CONTINUOUS
 62
     7
 10
-65.5
 20
130.0
 30
0.0
 11
-65.5
 21
132.58467239119989
 31
0.0
  0
ARC
  5
143
  8
DATA
  6
CONTINUOUS
 62
     7
 10
-120.4975477328326
 20
143.97688222293701
 30
0.0
 40
5.0000000000000417
 50
180.0
 51
241.92727185958279
  0
ARC
  5
144
  8
DATA
  6
CONTINUOUS
 62
     7
 10
-18.210805785788729
 20
335.7625789241165
 30
0.0
 40
222.3576109486344
 50
241.9272718595833
 51
246.02575927091601
  0
LINE
  5
145
  8
DATA
  6
CONTINUOUS
 62
     7
 10
-92.54481829110027
 20
137.0
 30
0.0
 11
-67.455181708899772
 21
137.0
 31
0.0
  0
LINE
  5
146
  8
DATA
  6
CONTINUOUS
 62
     7
 10
-122.5590061885666
 20
140.88473727199579
 30
0.0
 11
-98.206608513699322
 21
137.4027257064923
 31
0.0
  0
ARC
  5
147
  8
DATA
  6
CONTINUOUS
 62
     7
 10
-92.544818291100185
 20
177.0
 30
0.0
 40
40.0
 50
261.86275554042697
 51
269.99999999999989
  0
ARC
  5
148
  8
DATA
  6
CONTINUOUS
 62
     7
 10
-122.20250865051899
 20
144.28538062283741
 30
0.0
 40
3.419278534173078
 50
199.3045978868272
 51
264.0154063720376
  0
LINE
  5
149
  8
DATA
  6
CONTINUOUS
 62
     7
 10
-65.499999999999972
 20
130.0
 30
0.0
 11
-65.499999999999972
 21
132.65000000000001
 31
0.0
  0
LINE
  5
14A
  8
DATA
  6
CONTINUOUS
 62
     7
 10
-94.499999999999943
 20
130.0
 30
0.0
 11
-94.499999999999943
 21
132.58467239119989
 31
0.0
  0
ARC
  5
14B
  8
DATA
  6
CONTINUOUS
 62
     7
 10
-39.502452267167342
 20
143.97688222293701
 30
0.0
 40
5.0000000000000444
 50
298.0727281404171
 51
0.0
  0
LINE
  5
14C
  8
DATA
  6
CONTINUOUS
 62
     7
 10
-37.440993811433373
 20
140.88473727199579
 30
0.0
 11
-61.793391486300642
 21
137.4027257064923
 31
0.0
  0
ARC
  5
14D
  8
DATA
  6
CONTINUOUS
 62
     7
 10
-80.210686469150843
 20
226.1445250458149
 30
0.0
 40
94.644759548197726
 50
261.31636999467611
 51
274.85529585330409
  0
ARC
  5
14E
  8
DATA
  6
CONTINUOUS
 62
     7
 10
-67.455181708899758
 20
177.0
 30
0.0
 40
40.0
 50
270.00000000000011
 51
278.13724445957303
  0
ARC
  5
14F
  8
DATA
  6
CONTINUOUS
 62
     7
 10
-37.797491349480957
 20
144.28538062283741
 30
0.0
 40
3.4192785341730958
 50
275.9845936279624
 51
340.6954021131728
  0
ARC
  5
150
  8
DATA
  6
CONTINUOUS
 62
     7
 10
-96.370682575673413
 20
160.00000000000031
 30
0.0
 40
30.000000000000369
 50
246.0257592709163
 51
270.0
  0
ARC
  5
151
  8
DATA
  6
CONTINUOUS
 62
     7
 10
-63.62931742432658
 20
160.00000000000031
 30
0.0
 40
30.000000000000369
 50
270.0
 51
293.97424072908359
  0
ARC
  5
152
  8
DATA
  6
CONTINUOUS
 62
     7
 10
-141.78919421421119
 20
335.7625789241165
 30
0.0
 40
222.3576109486344
 50
293.97424072908399
 51
298.0727281404167
  0
LINE
  5
153
  8
DATA
  6
CONTINUOUS
 62
     7
 10
-87.799999999999983
 20
128.5
 30
0.0
 11
-87.799999999999983
 21
130.0
 31
0.0
  0
LINE
  5
154
  8
DATA
  6
CONTINUOUS
 62
     7
 10
-87.799999999999983
 20
131.8045397264041
 30
0.0
 11
-87.799999999999983
 21
131.8393851422596
 31
0.0
  0
LINE
  5
155
  8
DATA
  6
CONTINUOUS
 62
     7
 10
-72.200000000000003
 20
130.0
 30
0.0
 11
-72.200000000000003
 21
128.5
 31
0.0
  0
LINE
  5
156
  8
DATA
  6
CONTINUOUS
 62
     7
 10
-87.799999999999983
 20
128.5
 30
0.0
 11
-82.249999999999986
 21
128.5
 31
0.0
  0
LINE
  5
157
  8
DATA
  6
CONTINUOUS
 62
     7
 10
-77.749999999999986
 20
128.5
 30
0.0
 11
-72.200000000000003
 21
128.5
 31
0.0
  0
LINE
  5
158
  8
DATA
  6
CONTINUOUS
 62
     7
 10
-84.999999999999986
 20
124.5
 30
0.0
 11
-74.999999999999986
 21
124.5
 31
0.0
  0
LINE
  5
159
  8
DATA
  6
CONTINUOUS
 62
     7
 10
-84.999999999999986
 20
124.5
 30
0.0
 11
-84.999999999999986
 21
125.3
 31
0.0
  0
LINE
  5
15A
  8
DATA
  6
CONTINUOUS
 62
     7
 10
-74.999999999999986
 20
124.5
 30
0.0
 11
-74.999999999999986
 21
125.3
 31
0.0
  0
LINE
  5
15B
  8
DATA
  6
CONTINUOUS
 62
     7
 10
-77.749999999999986
 20
130.0
 30
0.0
 11
-77.749999999999986
 21
125.3
 31
0.0
  0
LINE
  5
15C
  8
DATA
  6
CONTINUOUS
 62
     7
 10
-82.249999999999986
 20
125.3
 30
0.0
 11
-82.249999999999986
 21
130.0
 31
0.0
  0
LINE
  5
15D
  8
DATA
  6
CONTINUOUS
 62
     7
 10
-84.999999999999986
 20
125.3
 30
0.0
 11
-74.999999999999986
 21
125.3
 31
0.0
  0
LINE
  5
15E
  8
DATA
  6
CONTINUOUS
 62
     7
 10
-11.0
 20
58.472681283367137
 30
0.0
 11
-10.141185256586359
 21
58.472681283367137
 31
0.0
  0
LINE
  5
15F
  8
DATA
  6
CONTINUOUS
 62
     7
 10
-11.000000000000011
 20
19.472681283367141
 30
0.0
 11
-9.6721148815902875
 21
19.472681283367141
 31
0.0
  0
ARC
  5
160
  8
DATA
  6
CONTINUOUS
 62
     7
 10
273.38811188811189
 20
60.524475524475527
 30
0.0
 40
286.02157574093877
 50
186.1263231479746
 51
204.27317231557609
  0
ARC
  5
161
  8
DATA
  6
CONTINUOUS
 62
     7
 10
0.242001658120472
 20
74.000000000000043
 30
0.0
 40
8.0
 50
90.0
 51
168.76324943589319
  0
ARC
  5
162
  8
DATA
  6
CONTINUOUS
 62
     7
 10
166.2703703703703
 20
41.014814814814812
 30
0.0
 40
177.2732750878051
 50
168.76324943589319
 51
180.3279959905199
  0
ARC
  5
163
  8
DATA
  6
CONTINUOUS
 62
     7
 10
17.210006682544019
 20
-55.0
 30
0.0
 40
4.9999999999999956
 50
204.27317231557629
 51
270.0
  0
LINE
  5
164
  8
DATA
  6
CONTINUOUS
 62
     7
 10
31.0
 20
-44.000000000000021
 30
0.0
 11
31.0
 21
-36.0
 31
0.0
  0
LINE
  5
165
  8
DATA
  6
CONTINUOUS
 62
     7
 10
31.0
 20
58.0
 30
0.0
 11
31.0
 21
66.0
 31
0.0
  0
LINE
  5
166
  8
DATA
  6
CONTINUOUS
 62
     7
 10
30.0
 20
66.0
 30
0.0
 11
31.0
 21
66.0
 31
0.0
  0
LINE
  5
167
  8
DATA
  6
CONTINUOUS
 62
     7
 10
30.0
 20
58.0
 30
0.0
 11
31.0
 21
58.0
 31
0.0
  0
LINE
  5
168
  8
DATA
  6
CONTINUOUS
 62
     7
 10
30.0
 20
-36.0
 30
0.0
 11
31.0
 21
-36.0
 31
0.0
  0
LINE
  5
169
  8
DATA
  6
CONTINUOUS
 62
     7
 10
30.0
 20
-44.0
 30
0.0
 11
31.0
 21
-44.0
 31
0.0
  0
ARC
  5
16A
  8
DATA
  6
CONTINUOUS
 62
     7
 10
426.87971718024392
 20
87.317064162093615
 30
0.0
 40
414.71641616610202
 50
180.73460724184039
 51
196.86507361421269
  0
LINE
  5
16B
  8
DATA
  6
CONTINUOUS
 62
     7
 10
30.0
 20
79.5
 30
0.0
 11
12.23698018182332
 21
79.5
 31
0.0
  0
LINE
  5
16C
  8
DATA
  6
CONTINUOUS
 62
     7
 10
-13.0
 20
30.972678434642649
 30
0.0
 11
-11.000000000000011
 21
30.972678434642649
 31
0.0
  0
LINE
  5
16D
  8
DATA
  6
CONTINUOUS
 62
     7
 10
-13.0
 20
46.972684132091608
 30
0.0
 11
-10.902759233288521
 21
46.972684132091608
 31
0.0
  0
LINE
  5
16E
  8
DATA
  6
CONTINUOUS
 62
     7
 10
-13.0
 20
46.972684132091608
 30
0.0
 11
-13.0
 21
30.972678434642649
 31
0.0
  0
LINE
  5
16F
  8
DATA
  6
CONTINUOUS
 62
     7
 10
-15.1808320893208
 20
58.195920021020612
 30
0.0
 11
-14.380832089320799
 21
58.195920021020612
 31
0.0
  0
LINE
  5
170
  8
DATA
  6
CONTINUOUS
 62
     7
 10
-15.1808320893208
 20
51.695920021020612
 30
0.0
 11
-14.380832089320799
 21
51.695920021020612
 31
0.0
  0
LINE
  5
171
  8
DATA
  6
CONTINUOUS
 62
     7
 10
-15.1808320893208
 20
51.695920021020612
 30
0.0
 11
-15.1808320893208
 21
58.195920021020612
 31
0.0
  0
LINE
  5
172
  8
DATA
  6
CONTINUOUS
 62
     7
 10
-14.380832089320799
 20
51.695920021020612
 30
0.0
 11
-14.380832089320799
 21
58.195920021020612
 31
0.0
  0
ARC
  5
173
  8
DATA
  6
CONTINUOUS
 62
     7
 10
-8.8078891797372165
 20
54.927175720637891
 30
0.0
 40
6.4419489341182441
 50
210.10564559140849
 51
250.1056455914088
  0
ARC
  5
174
  8
DATA
  6
CONTINUOUS
 62
     7
 10
-8.8819981376220198
 20
54.802643252953537
 30
0.0
 40
7.0233210371522334
 50
206.25352719475879
 51
252.6192997288112
  0
LINE
  5
175
  8
DATA
  6
CONTINUOUS
 62
     7
 10
-96.370682575673413
 20
-108.9999999999666
 30
0.0
 11
-65.5
 21
-108.9999999999666
 31
0.0
  0
LINE
  5
176
  8
DATA
  6
CONTINUOUS
 62
     7
 10
-125.4975477328327
 20
-149.99999999996629
 30
0.0
 11
-34.502452267167307
 21
-149.99999999996629
 31
0.0
  0
LINE
  5
177
  8
DATA
  6
CONTINUOUS
 62
     7
 10
-125.4975477328327
 20
-122.9768822229037
 30
0.0
 11
-125.4975477328327
 21
-149.99999999996629
 31
0.0
  0
LINE
  5
178
  8
DATA
  6
CONTINUOUS
 62
     7
 10
-34.5024522671673
 20
-122.9768822229037
 30
0.0
 11
-34.5024522671673
 21
-149.99999999996629
 31
0.0
  0
LINE
  5
179
  8
DATA
  6
CONTINUOUS
 62
     7
 10
-113.5
 20
-149.99999999996629
 30
0.0
 11
-113.5
 21
-150.99999999996629
 31
0.0
  0
LINE
  5
17A
  8
DATA
  6
CONTINUOUS
 62
     7
 10
-105.5
 20
-150.99999999996629
 30
0.0
 11
-105.5
 21
-149.99999999996629
 31
0.0
  0
LINE
  5
17B
  8
DATA
  6
CONTINUOUS
 62
     7
 10
-113.5
 20
-150.99999999996629
 30
0.0
 11
-105.5
 21
-150.99999999996629
 31
0.0
  0
LINE
  5
17C
  8
DATA
  6
CONTINUOUS
 62
     7
 10
-46.499999999999993
 20
-149.99999999996629
 30
0.0
 11
-46.499999999999993
 21
-150.99999999996629
 31
0.0
  0
LINE
  5
17D
  8
DATA
  6
CONTINUOUS
 62
     7
 10
-54.499999999999993
 20
-150.99999999996629
 30
0.0
 11
-54.499999999999993
 21
-149.99999999996629
 31
0.0
  0
LINE
  5
17E
  8
DATA
  6
CONTINUOUS
 62
     7
 10
-46.499999999999993
 20
-150.99999999996629
 30
0.0
 11
-54.499999999999993
 21
-150.99999999996629
 31
0.0
  0
ARC
  5
17F
  8
DATA
  6
CONTINUOUS
 62
     7
 10
-120.4975477328326
 20
-122.9768822229037
 30
0.0
 40
5.0000000000000444
 50
118.0727281404172
 51
180.0
  0
ARC
  5
180
  8
DATA
  6
CONTINUOUS
 62
     7
 10
-18.210805785788729
 20
-314.76257892408353
 30
0.0
 40
222.3576109486348
 50
113.9742407290839
 51
118.0727281404167
  0
LINE
  5
181
  8
DATA
  6
CONTINUOUS
 62
     7
 10
-63.62931742432658
 20
-108.9999999999666
 30
0.0
 11
-94.499999999999943
 21
-108.9999999999666
 31
0.0
  0
ARC
  5
182
  8
DATA
  6
CONTINUOUS
 62
     7
 10
-39.502452267167342
 20
-122.9768822229037
 30
0.0
 40
5.0000000000000417
 50
0.0
 51
61.927271859582788
  0
ARC
  5
183
  8
DATA
  6
CONTINUOUS
 62
     7
 10
-96.370682575673413
 20
-138.9999999999668
 30
0.0
 40
30.00000000000021
 50
90.0
 51
113.9742407290838
  0
ARC
  5
184
  8
DATA
  6
CONTINUOUS
 62
     7
 10
-63.62931742432658
 20
-138.9999999999668
 30
0.0
 40
30.000000000000231
 50
66.025759270916211
 51
90.0
  0
ARC
  5
185
  8
DATA
  6
CONTINUOUS
 62
     7
 10
-141.78919421421119
 20
-314.76257892408353
 30
0.0
 40
222.3576109486348
 50
61.927271859583321
 51
66.025759270916055
  0
LINE
  5
186
  8
DATA
  6
CONTINUOUS
 62
     7
 10
-84.999999999999986
 20
-105.0496304471003
 30
0.0
 11
-74.999999999999986
 21
-105.0496304471003
 31
0.0
  0
LINE
  5
187
  8
DATA
  6
CONTINUOUS
 62
     7
 10
-84.999999999999986
 20
-105.0496304471003
 30
0.0
 11
-84.999999999999986
 21
-105.8496304471003
 31
0.0
  0
LINE
  5
188
  8
DATA
  6
CONTINUOUS
 62
     7
 10
-74.999999999999986
 20
-105.0496304471003
 30
0.0
 11
-74.999999999999986
 21
-105.8496304471003
 31
0.0
  0
LINE
  5
189
  8
DATA
  6
CONTINUOUS
 62
     7
 10
-77.749999999999986
 20
-108.9999999999666
 30
0.0
 11
-77.749999999999986
 21
-105.8496304471003
 31
0.0
  0
LINE
  5
18A
  8
DATA
  6
CONTINUOUS
 62
     7
 10
-82.249999999999986
 20
-105.8496304471003
 30
0.0
 11
-82.249999999999986
 21
-108.9999999999666
 31
0.0
  0
LINE
  5
18B
  8
DATA
  6
CONTINUOUS
 62
     7
 10
-84.999999999999986
 20
-105.8496304471003
 30
0.0
 11
-74.999999999999986
 21
-105.8496304471003
 31
0.0
  0
ARC
  5
18C
  8
DATA
  6
CONTINUOUS
 62
     7
 10
-78.514241144244693
 20
-367.24253143871442
 30
0.0
 40
233.59818657870039
 50
79.140103110718627
 51
83.383918106644416
  0
ARC
  5
18D
  8
DATA
  6
CONTINUOUS
 62
     7
 10
-68.038957287513213
 20
-324.21956928945173
 30
0.0
 40
189.73306746866899
 50
85.029515279983386
 51
89.316550727697887
  0
LINE
  5
18E
  8
DATA
  6
CONTINUOUS
 62
     7
 10
-65.775791433525598
 20
-134.49999999996629
 30
0.0
 11
-80.0
 21
-134.3303193326098
 31
0.0
  0
ARC
  5
18F
  8
DATA
  6
CONTINUOUS
 62
     7
 10
-81.485758855755293
 20
-367.24253143871442
 30
0.0
 40
233.59818657870039
 50
96.616081893355584
 51
100.8598968892813
  0
ARC
  5
190
  8
DATA
  6
CONTINUOUS
 62
     7
 10
-91.961042712486787
 20
-324.21956928945173
 30
0.0
 40
189.73306746866899
 50
90.683449272302127
 51
94.970484720016628
  0
LINE
  5
191
  8
DATA
  6
CONTINUOUS
 62
     7
 10
-94.224208566474388
 20
-134.49999999996629
 30
0.0
 11
-79.999999999999417
 21
-134.3303193326098
 31
0.0
  0
ARC
  5
192
  8
DATA
  6
CONTINUOUS
 62
     7
 10
-74.60044994411713
 20
179.774063958406
 30
0.0
 40
47.994745474284258
 50
272.86683582915521
 51
280.93022726661758
  0
LINE
  5
193
  8
DATA
  6
CONTINUOUS
 62
     7
 10
-63.62931742432658
 20
130.0
 30
0.0
 11
-65.499999999999972
 21
130.0
 31
0.0
  0
ARC
  5
194
  8
DATA
  6
CONTINUOUS
 62
     7
 10
-76.827020202020037
 20
70.645416682517606
 30
0.0
 40
203.20284854972419
 50
263.06852040815562
 51
267.55379346094998
  0
ARC
  5
195
  8
DATA
  6
CONTINUOUS
 62
     7
 10
-100.8076862194047
 20
-127.1079573641484
 30
0.0
 40
4.0000000000000009
 50
184.6317138347851
 51
260.66010789762407
  0
ARC
  5
196
  8
DATA
  6
CONTINUOUS
 62
     7
 10
-83.172979797979906
 20
70.645416682517606
 30
0.0
 40
203.20284854972419
 50
272.44620653905002
 51
276.93147959184438
  0
ARC
  5
197
  8
DATA
  6
CONTINUOUS
 62
     7
 10
-59.192313780595271
 20
-127.1079573641484
 30
0.0
 40
4.0000000000000284
 50
279.33989210237598
 51
355.36828616521501
  0
ARC
  5
198
  8
DATA
  6
CONTINUOUS
 62
     7
 10
-80.238738293751226
 20
-62.427350943351577
 30
0.0
 40
70.142506296807909
 50
265.69830771793818
 51
274.69161316599741
  0
ARC
  5
199
  8
DATA
  6
CONTINUOUS
 62
     7
 10
-77.504713024021015
 20
-132.9323989423952
 30
0.0
 40
27.838912483400879
 50
126.1659540978338
 51
168.60236487405859
  0
ARC
  5
19A
  8
DATA
  6
CONTINUOUS
 62
     7
 10
-82.495286975978928
 20
-132.9323989423952
 30
0.0
 40
27.83891248340089
 50
11.39763512594139
 51
53.559687282259063
  0
TEXT
  5
19B
  8
DATA
 62
     7
 10
-84.158458585676811
 20
-122.6165200195413
 30
0.0
 40
4.3435763888888879
  1
AKG
 41
0.7
 11
-84.158458585676811
 21
-120.44473182509689
 31
0.0
 73
     2
  0
TEXT
  5
19C
  8
DATA
 62
     7
 10
-83.173372716163044
 20
-127.8002020471472
 30
0.0
 40
3.2576822916666659
  1
ST6
 41
0.7
 11
-83.173372716163044
 21
-126.1713609013139
 31
0.0
 73
     2
  0
LINE
  5
19D
  8
DATA
  6
CONTINUOUS
 62
     7
 10
109.98928392100009
 20
-60.000000000000028
 30
0.0
 11
124.48928392100019
 21
-60.000000000000028
 31
0.0
  0
ARC
  5
19E
  8
DATA
  6
CONTINUOUS
 62
     7
 10
109.98928392100009
 20
-375.5754170347418
 30
0.0
 40
457.57541703474169
 50
85.900063973950694
 51
90.0
  0
ARC
  5
19F
  8
DATA
  6
CONTINUOUS
 62
     7
 10
141.9892839209999
 20
70.854593083107474
 30
0.0
 40
10.0
 50
0.0
 51
85.900063973950807
  0
ARC
  5
1A0
  8
DATA
  6
CONTINUOUS
 62
     7
 10
119.23928392099999
 20
28.24999999999995
 30
0.0
 40
88.406023550434611
 50
273.40451829948881
 51
279.27586519233103
  0
ARC
  5
1A1
  8
DATA
  6
CONTINUOUS
 62
     7
 10
130.3708214236942
 20
-33.570127086476717
 30
0.0
 40
28.31876352534988
 50
311.21219730559449
 51
325.61884629240473
  0
ARC
  5
1A2
  8
DATA
  6
CONTINUOUS
 62
     7
 10
142.4401318413218
 20
-47.350868835041403
 30
0.0
 40
10.0
 50
283.76988705792479
 51
311.21219730559432
  0
ARC
  5
1A3
  8
DATA
  6
CONTINUOUS
 62
     7
 10
125.55178392099999
 20
21.56249999999994
 30
0.0
 40
80.952580641385325
 50
275.626962574571
 51
283.7698870579249
  0
ARC
  5
1A4
  8
DATA
  6
CONTINUOUS
 62
     7
 10
141.48765168353131
 20
-42.785481108933112
 30
0.0
 40
14.003275462117591
 50
331.05984618416682
 51
359.12224051392002
  0
ARC
  5
1A5
  8
DATA
  6
CONTINUOUS
 62
     7
 10
1382.4468233716359
 20
35.42136177673936
 30
0.0
 40
1229.4611476568421
 50
179.86118832126721
 51
183.65710251236959
  0
LINE
  5
1A6
  8
DATA
  6
CONTINUOUS
 62
     7
 10
152.9892839209999
 20
38.499999999999943
 30
0.0
 11
151.9892839209999
 21
70.999999999999929
 31
0.0
  0
LINE
  5
1A7
  8
DATA
  6
CONTINUOUS
 62
     7
 10
109.98928392100009
 20
-60.000000000000028
 30
0.0
 11
124.48928392100019
 21
-60.000000000000028
 31
0.0
  0
LINE
  5
1A8
  8
DATA
  6
CONTINUOUS
 62
     7
 10
108.98928392099999
 20
82.0
 30
0.0
 11
109.98928392100009
 21
82.0
 31
0.0
  0
LINE
  5
1A9
  8
DATA
  6
CONTINUOUS
 62
     7
 10
109.98928392099999
 20
-60.000000000000028
 30
0.0
 11
95.489283920999867
 21
-60.000000000000028
 31
0.0
  0
ARC
  5
1AA
  8
DATA
  6
CONTINUOUS
 62
     7
 10
109.98928392099999
 20
-375.5754170347418
 30
0.0
 40
457.57541703474169
 50
90.000000000000028
 51
94.099936026049306
  0
ARC
  5
1AB
  8
DATA
  6
CONTINUOUS
 62
     7
 10
77.989283921000009
 20
70.854593083107474
 30
0.0
 40
9.9999999999999751
 50
94.099936026048866
 51
180.0
  0
ARC
  5
1AC
  8
DATA
  6
CONTINUOUS
 62
     7
 10
100.73928392099999
 20
28.24999999999995
 30
0.0
 40
88.406023550434611
 50
260.7241348076688
 51
266.5954817005113
  0
ARC
  5
1AD
  8
DATA
  6
CONTINUOUS
 62
     7
 10
89.607746418305766
 20
-33.570127086476717
 30
0.0
 40
28.31876352534989
 50
214.38115370759539
 51
228.78780269440551
  0
ARC
  5
1AE
  8
DATA
  6
CONTINUOUS
 62
     7
 10
77.538436000678089
 20
-47.350868835041403
 30
0.0
 40
9.9999999999999822
 50
228.78780269440571
 51
256.23011294207492
  0
ARC
  5
1AF
  8
DATA
  6
CONTINUOUS
 62
     7
 10
94.426783921000023
 20
21.56249999999994
 30
0.0
 40
80.952580641385353
 50
256.23011294207498
 51
264.37303742542889
  0
ARC
  5
1B0
  8
DATA
  6
CONTINUOUS
 62
     7
 10
78.490916158468593
 20
-42.785481108933112
 30
0.0
 40
14.003275462117569
 50
180.87775948608001
 51
208.9401538158333
  0
ARC
  5
1B1
  8
DATA
  6
CONTINUOUS
 62
     7
 10
-1162.468255529634
 20
35.42136177673936
 30
0.0
 40
1229.4611476568391
 50
356.34289748763041
 51
0.1388116787327931
  0
LINE
  5
1B2
  8
DATA
  6
CONTINUOUS
 62
     7
 10
66.989283920999995
 20
38.499999999999943
 30
0.0
 11
67.989283921000066
 21
70.999999999999929
 31
0.0
  0
LINE
  5
1B3
  8
DATA
  6
CONTINUOUS
 62
     7
 10
109.98928392099999
 20
-60.000000000000028
 30
0.0
 11
95.489283920999867
 21
-60.000000000000028
 31
0.0
  0
LINE
  5
1B4
  8
DATA
  6
CONTINUOUS
 62
     7
 10
110.98928392100009
 20
82.0
 30
0.0
 11
109.9892839209999
 21
82.0
 31
0.0
  0
LINE
  5
1B5
  8
DATA
  6
CONTINUOUS
 62
     7
 10
70.00000000004124
 20
-45.499999999999993
 30
0.0
 11
70.00000000004124
 21
65.5
 31
0.0
  0
LINE
  5
1B6
  8
DATA
  6
CONTINUOUS
 62
     7
 10
150.0000000000413
 20
-45.499999999999993
 30
0.0
 11
150.0000000000413
 21
65.5
 31
0.0
  0
LINE
  5
1B7
  8
DATA
  6
CONTINUOUS
 62
     7
 10
79.00000000004124
 20
79.0
 30
0.0
 11
87.50000000004124
 21
79.0
 31
0.0
  0
LINE
  5
1B8
  8
DATA
  6
CONTINUOUS
 62
     7
 10
132.50000000004121
 20
79.0
 30
0.0
 11
141.00000000004121
 21
79.0
 31
0.0
  0
LINE
  5
1B9
  8
DATA
  6
CONTINUOUS
 62
     7
 10
73.50000000004124
 20
69.0
 30
0.0
 11
146.50000000004121
 21
69.0
 31
0.0
  0
LINE
  5
1BA
  8
DATA
  6
CONTINUOUS
 62
     7
 10
73.50000000004124
 20
-49.0
 30
0.0
 11
146.50000000004121
 21
-49.0
 31
0.0
  0
CIRCLE
  5
1BB
  8
DATA
  6
CONTINUOUS
 62
     7
 10
80.500000000041226
 20
61.999999999999929
 30
0.0
 40
4.0
  0
CIRCLE
  5
1BC
  8
DATA
  6
CONTINUOUS
 62
     7
 10
80.500000000041226
 20
-40.000000000000071
 30
0.0
 40
4.0
  0
CIRCLE
  5
1BD
  8
DATA
  6
CONTINUOUS
 62
     7
 10
139.50000000004121
 20
-40.000000000000071
 30
0.0
 40
4.0
  0
CIRCLE
  5
1BE
  8
DATA
  6
CONTINUOUS
 62
     7
 10
139.50000000004121
 20
61.999999999999929
 30
0.0
 40
4.0
  0
LINE
  5
1BF
  8
DATA
  6
CONTINUOUS
 62
     7
 10
65.087539882651328
 20
-32.999999999999403
 30
0.0
 11
69.00000000004124
 21
-32.999999999999403
 31
0.0
  0
LINE
  5
1C0
  8
DATA
  6
CONTINUOUS
 62
     7
 10
151.00000000004121
 20
-32.999999999999403
 30
0.0
 11
154.89102795934861
 21
-32.999999999999403
 31
0.0
  0
ARC
  5
1C1
  8
DATA
  6
CONTINUOUS
 62
     7
 10
73.50000000004124
 20
65.5
 30
0.0
 40
3.5
 50
90.0
 51
180.0
  0
ARC
  5
1C2
  8
DATA
  6
CONTINUOUS
 62
     7
 10
146.50000000004121
 20
65.5
 30
0.0
 40
3.5
 50
0.0
 51
90.0
  0
ARC
  5
1C3
  8
DATA
  6
CONTINUOUS
 62
     7
 10
73.50000000004124
 20
-45.499999999999993
 30
0.0
 40
3.5
 50
180.0
 51
270.0
  0
ARC
  5
1C4
  8
DATA
  6
CONTINUOUS
 62
     7
 10
146.50000000004121
 20
-45.499999999999993
 30
0.0
 40
3.5
 50
270.0
 51
0.0
  0
LINE
  5
1C5
  8
DATA
  6
CONTINUOUS
 62
     7
 10
69.00000000004124
 20
-32.999999999999403
 30
0.0
 11
69.00000000004124
 21
69.0
 31
0.0
  0
LINE
  5
1C6
  8
DATA
  6
CONTINUOUS
 62
     7
 10
151.00000000004121
 20
69.0
 30
0.0
 11
151.00000000004121
 21
-32.999999999999403
 31
0.0
  0
ARC
  5
1C7
  8
DATA
  6
CONTINUOUS
 62
     7
 10
79.00000000004124
 20
69.0
 30
0.0
 40
10.0
 50
90.0
 51
180.0
  0
ARC
  5
1C8
  8
DATA
  6
CONTINUOUS
 62
     7
 10
141.00000000004121
 20
69.0
 30
0.0
 40
10.0
 50
0.0
 51
90.0
  0
ARC
  5
1C9
  8
DATA
  6
CONTINUOUS
 62
     7
 10
96.774008209603366
 20
69.762874867602065
 30
0.0
 40
13.089373895744689
 50
115.1141605876538
 51
135.1141605876538
  0
ARC
  5
1CA
  8
DATA
  6
CONTINUOUS
 62
     7
 10
123.2045596323966
 20
69.762874867602065
 30
0.0
 40
13.08937389574467
 50
44.885839412346328
 51
64.885839412346385
  0
LINE
  5
1CB
  8
DATA
  6
CONTINUOUS
 62
     7
 10
95.500000000041226
 20
71.172196431205307
 30
0.0
 11
95.500000000041226
 21
77.172196431205307
 31
0.0
  0
LINE
  5
1CC
  8
DATA
  6
CONTINUOUS
 62
     7
 10
124.5000000000412
 20
71.172196431205307
 30
0.0
 11
95.500000000041226
 21
71.172196431205307
 31
0.0
  0
LINE
  5
1CD
  8
DATA
  6
CONTINUOUS
 62
     7
 10
124.5000000000412
 20
77.172196431205307
 30
0.0
 11
124.5000000000412
 21
71.172196431205307
 31
0.0
  0
LINE
  5
1CE
  8
DATA
  6
CONTINUOUS
 62
     7
 10
95.500000000041226
 20
77.172196431205307
 30
0.0
 11
124.5000000000412
 21
77.172196431205307
 31
0.0
  0
POLYLINE
  5
1CF
  8
DATA
  6
CONTINUOUS
 62
     7
 66
     1
 10
0.0
 20
0.0
 30
0.0
  0
VERTEX
  5
2CD
  8
DATA
  6
CONTINUOUS
 62
     7
 10
121.0892839210001
 20
81.865346643483363
 30
0.0
  0
VERTEX
  5
2CE
  8
DATA
  6
CONTINUOUS
 62
     7
 10
121.0892839210001
 20
81.710988646693707
 30
0.0
  0
VERTEX
  5
2CF
  8
DATA
  6
CONTINUOUS
 62
     7
 10
98.889283921000157
 20
81.710988646693707
 30
0.0
  0
VERTEX
  5
2D0
  8
DATA
  6
CONTINUOUS
 62
     7
 10
98.889283921000157
 20
81.865346643483392
 30
0.0
  0
SEQEND
  5
2D1
  8
DATA
  6
CONTINUOUS
 62
     7
  0
LINE
  5
1D6
  8
DATA
  6
CONTINUOUS
 62
     7
 10
81.500000000041254
 20
-54.22545626368543
 30
0.0
 11
81.500000000041254
 21
-51.925456263685447
 31
0.0
  0
LINE
  5
1D7
  8
DATA
  6
CONTINUOUS
 62
     7
 10
138.50000000004121
 20
-51.925456263685447
 30
0.0
 11
138.50000000004121
 21
-54.22545626368543
 31
0.0
  0
LINE
  5
1D8
  8
DATA
  6
CONTINUOUS
 62
     7
 10
81.500000000041254
 20
-51.925456263685447
 30
0.0
 11
138.50000000004121
 21
-51.925456263685447
 31
0.0
  0
ARC
  5
1D9
  8
DATA
  6
CONTINUOUS
 62
     7
 10
110.0000000000412
 20
63.523073148079057
 30
0.0
 40
121.1485294117645
 50
256.3937333329938
 51
283.60626666700608
  0
LINE
  5
1DA
  8
DATA
  6
CONTINUOUS
 62
     7
 10
-65.546024121645544
 20
-109.0000000000238
 30
0.0
 11
-65.546024121645544
 21
-110.61461016538981
 31
0.0
  0
LINE
  5
1DB
  8
DATA
  6
CONTINUOUS
 62
     7
 10
-94.546024121645587
 20
-109.0000000000238
 30
0.0
 11
-94.546024121645587
 21
-110.5492825565898
 31
0.0
  0
ARC
  5
1DC
  8
DATA
  6
CONTINUOUS
 62
     7
 10
-80.256710590796416
 20
-204.10913521120469
 30
0.0
 40
94.644759548197726
 50
85.144704146695915
 51
98.68363000532392
  0
ARC
  5
1DD
  8
DATA
  6
CONTINUOUS
 62
     7
 10
-74.646474065762732
 20
-157.7386741237959
 30
0.0
 40
47.994745474284258
 50
79.069772733382379
 51
87.133164170844836
  0
ARC
  5
1DE
  8
DATA
  6
CONTINUOUS
 62
     7
 10
-104.5
 20
154.0
 30
0.0
 40
1.0
 50
270.0
 51
0.0
  0
ARC
  5
1DF
  8
DATA
  6
CONTINUOUS
 62
     7
 10
-101.7798791229073
 20
154.0
 30
0.0
 40
1.000000000000028
 50
270.0
 51
359.0572535783931
  0
ARC
  5
1E0
  8
DATA
  6
CONTINUOUS
 62
     7
 10
-55.499999999999993
 20
154.0
 30
0.0
 40
1.0
 50
180.0
 51
270.0
  0
ARC
  5
1E1
  8
DATA
  6
CONTINUOUS
 62
     7
 10
-58.220120877092619
 20
154.0
 30
0.0
 40
1.00000000000001
 50
180.94274642160519
 51
269.9999999999996
  0
TEXT
  5
1E2
  8
DATA
 62
     7
 10
97.877760673475436
 20
-226.5428577806745
 30
0.0
 40
3.257687421875
  1
デスクスタンド
 41
0.7
 11
97.877760673475436
 21
-223.28517035879949
 31
0.0
 73
     3
  0
ENDSEC
  0
EOF
