  0
SECTION
  2
HEADER
  9
$ACADVER
  1
AC1009
  9
$INSBASE
 10
0.0
 20
0.0
 30
0.0
  9
$EXTMIN
 10
-350.02746372486848
 20
-533.98230819777791
 30
-0.0015258207003583
  9
$EXTMAX
 10
550.02746791582013
 20
804.16801378504158
 30
0.0000000349246037
  9
$LIMMIN
 10
0.0
 20
0.0
  9
$LIMMAX
 10
0.0
 20
0.0
  9
$ORTHOMODE
 70
     0
  9
$REGENMODE
 70
     1
  9
$FILLMODE
 70
     1
  9
$QTEXTMODE
 70
     0
  9
$MIRRTEXT
 70
     1
  9
$DRAGMODE
 70
     2
  9
$LTSCALE
 40
25.399999999999999
  9
$OSMODE
 70
   231
  9
$ATTMODE
 70
     1
  9
$TEXTSIZE
 40
0.0
  9
$TRACEWID
 40
1.0
  9
$TEXTSTYLE
  7
STANDARD
  9
$CLAYER
  8
DATA
  9
$CELTYPE
  6
BYLAYER
  9
$CECOLOR
 62
   256
  9
$DIMSCALE
 40
1.0
  9
$DIMASZ
 40
0.18
  9
$DIMEXO
 40
0.0625
  9
$DIMDLI
 40
0.38
  9
$DIMRND
 40
0.0
  9
$DIMDLE
 40
0.0
  9
$DIMEXE
 40
0.18
  9
$DIMTP
 40
0.0
  9
$DIMTM
 40
0.0
  9
$DIMTXT
 40
0.18
  9
$DIMCEN
 40
0.09
  9
$DIMTSZ
 40
0.0
  9
$DIMTOL
 70
     0
  9
$DIMLIM
 70
     0
  9
$DIMTIH
 70
     1
  9
$DIMTOH
 70
     1
  9
$DIMSE1
 70
     0
  9
$DIMSE2
 70
     0
  9
$DIMTAD
 70
     0
  9
$DIMZIN
 70
     0
  9
$DIMBLK
  1

  9
$DIMASO
 70
     1
  9
$DIMSHO
 70
     1
  9
$DIMPOST
  1

  9
$DIMAPOST
  1

  9
$DIMALT
 70
     0
  9
$DIMALTD
 70
     2
  9
$DIMALTF
 40
25.399999999999999
  9
$DIMLFAC
 40
1.0
  9
$DIMTOFL
 70
     0
  9
$DIMTVP
 40
0.0
  9
$DIMTIX
 70
     0
  9
$DIMSOXD
 70
     0
  9
$DIMSAH
 70
     0
  9
$DIMBLK1
  1

  9
$DIMBLK2
  1

  9
$DIMSTYLE
  2
STANDARD
  9
$DIMCLRD
 70
     0
  9
$DIMCLRE
 70
     0
  9
$DIMCLRT
 70
     0
  9
$DIMTFAC
 40
1.0
  9
$DIMGAP
 40
0.09
  9
$LUNITS
 70
     2
  9
$LUPREC
 70
     4
  9
$SKETCHINC
 40
0.1
  9
$FILLETRAD
 40
0.0
  9
$AUNITS
 70
     0
  9
$AUPREC
 70
     0
  9
$MENU
  1
acad
  9
$ELEVATION
 40
0.0
  9
$PELEVATION
 40
0.0
  9
$THICKNESS
 40
0.0
  9
$LIMCHECK
 70
     0
  9
$BLIPMODE
 70
     0
  9
$CHAMFERA
 40
0.0
  9
$CHAMFERB
 40
0.0
  9
$SKPOLY
 70
     0
  9
$TDCREATE
 40
2454272.7567013889
  9
$TDUPDATE
 40
2454272.758574097
  9
$TDINDWG
 40
0.0002677662
  9
$TDUSRTIMER
 40
0.000267419
  9
$USRTIMER
 70
     1
  9
$ANGBASE
 50
0.0
  9
$ANGDIR
 70
     0
  9
$PDMODE
 70
     1
  9
$PDSIZE
 40
-2.0
  9
$PLINEWID
 40
0.0
  9
$COORDS
 70
     1
  9
$SPLFRAME
 70
     0
  9
$SPLINETYPE
 70
     6
  9
$SPLINESEGS
 70
     8
  9
$ATTDIA
 70
     0
  9
$ATTREQ
 70
     1
  9
$HANDLING
 70
     1
  9
$HANDSEED
  5
D5E
  9
$SURFTAB1
 70
     6
  9
$SURFTAB2
 70
     6
  9
$SURFTYPE
 70
     6
  9
$SURFU
 70
     6
  9
$SURFV
 70
     6
  9
$UCSNAME
  2

  9
$UCSORG
 10
0.0
 20
0.0
 30
0.0
  9
$UCSXDIR
 10
1.0
 20
0.0
 30
0.0
  9
$UCSYDIR
 10
0.0
 20
1.0
 30
0.0
  9
$PUCSNAME
  2

  9
$PUCSORG
 10
0.0
 20
0.0
 30
0.0
  9
$PUCSXDIR
 10
1.0
 20
0.0
 30
0.0
  9
$PUCSYDIR
 10
0.0
 20
1.0
 30
0.0
  9
$USERI1
 70
     0
  9
$USERI2
 70
     0
  9
$USERI3
 70
     0
  9
$USERI4
 70
     0
  9
$USERI5
 70
     0
  9
$USERR1
 40
0.0
  9
$USERR2
 40
0.0
  9
$USERR3
 40
0.0
  9
$USERR4
 40
0.0
  9
$USERR5
 40
0.0
  9
$WORLDVIEW
 70
     1
  9
$SHADEDGE
 70
     3
  9
$SHADEDIF
 70
    70
  9
$TILEMODE
 70
     1
  9
$MAXACTVP
 70
    64
  9
$PLIMCHECK
 70
     0
  9
$PEXTMIN
 10
1.0000000000000000E+020
 20
1.0000000000000000E+020
 30
1.0000000000000000E+020
  9
$PEXTMAX
 10
-1.0000000000000000E+020
 20
-1.0000000000000000E+020
 30
-1.0000000000000000E+020
  9
$PLIMMIN
 10
0.0
 20
0.0
  9
$PLIMMAX
 10
12.0
 20
9.0
  9
$UNITMODE
 70
     0
  9
$VISRETAIN
 70
     0
  9
$PLINEGEN
 70
     1
  9
$PSLTSCALE
 70
     0
  0
ENDSEC
  0
SECTION
  2
TABLES
  0
TABLE
  2
VPORT
 70
     1
  0
VPORT
  2
*ACTIVE
 70
     0
 10
0.0
 20
0.0
 11
1.0
 21
1.0
 12
100.00000209547591
 22
135.09285279363189
 13
0.0
 23
0.0
 14
1.0
 24
1.0
 15
0.0
 25
0.0
 16
0.0
 26
0.0
 36
1.0
 17
0.0
 27
0.0
 37
0.0
 40
1349.255303907988
 41
1.6703601108033239
 42
50.0
 43
0.0
 44
0.0
 50
0.0
 51
0.0
 71
     0
 72
  2000
 73
     1
 74
     1
 75
     0
 76
     0
 77
     0
 78
     0
  0
ENDTAB
  0
TABLE
  2
LTYPE
 70
    11
  0
LTYPE
  2
CONTINUOUS
 70
     0
  3
Solid line
 72
    65
 73
     0
 40
0.0
  0
ENDTAB
  0
TABLE
  2
LAYER
 70
     5
  0
LAYER
  2
0
 70
     0
 62
     7
  6
CONTINUOUS
  0
LAYER
  2
DATA
 70
     0
 62
     7
  6
CONTINUOUS
  0
LAYER
  2
HIBINO-BASE
 70
     0
 62
     7
  6
CONTINUOUS
  0
LAYER
  2
SPEC
 70
     0
 62
     7
  6
CONTINUOUS
  0
LAYER
  2
DIMNSIONS
 70
     0
 62
     7
  6
CONTINUOUS
  0
ENDTAB
  0
TABLE
  2
STYLE
 70
     2
  0
STYLE
  2
STANDARD
 70
     0
 40
0.0
 41
1.0
 50
0.0
 71
     0
 42
0.0
  3
txt
  4
BIGFONT.SHX
  0
ENDTAB
  0
TABLE
  2
VIEW
 70
     0
  0
ENDTAB
  0
TABLE
  2
UCS
 70
     0
  0
ENDTAB
  0
TABLE
  2
APPID
 70
     1
  0
APPID
  2
ACAD
 70
     0
  0
ENDTAB
  0
TABLE
  2
DIMSTYLE
 70
     1
  0
DIMSTYLE
  2
STANDARD
 70
     0
  3

  4

  5

  6

  7

 40
1.0
 41
0.18
 42
0.0625
 43
0.38
 44
0.18
 45
0.0
 46
0.0
 47
0.0
 48
0.0
140
0.18
141
0.09
142
0.0
143
25.399999999999999
144
1.0
145
0.0
146
1.0
147
0.09
 71
     0
 72
     0
 73
     1
 74
     1
 75
     0
 76
     0
 77
     0
 78
     0
170
     0
171
     2
172
     0
173
     0
174
     0
175
     0
176
     0
177
     0
178
     0
  0
ENDTAB
  0
ENDSEC
  0
SECTION
  2
BLOCKS
  0
BLOCK
  8
0
  2
$MODEL_SPACE
 70
     0
 10
0.0
 20
0.0
 30
0.0
  3
$MODEL_SPACE
  1

  0
ENDBLK
  5
A6C
  8
0
  0
BLOCK
 67
     1
  8
0
  2
$PAPER_SPACE
 70
     0
 10
0.0
 20
0.0
 30
0.0
  3
$PAPER_SPACE
  1

  0
ENDBLK
  5
A68
 67
     1
  8
0
  0
ENDSEC
  0
SECTION
  2
ENTITIES
  0
LINE
  5
2C
  8
HIBINO-BASE
  6
CONTINUOUS
 62
     7
 10
-350.0
 20
804.12725999999986
 30
0.0
 11
549.99999999999989
 21
804.12725999999986
 31
0.0
  0
LINE
  5
2D
  8
HIBINO-BASE
  6
CONTINUOUS
 62
     7
 10
549.99999999999989
 20
-495.87273999999991
 30
0.0
 11
-350.0
 21
-495.87273999999991
 31
0.0
  0
LINE
  5
2E
  8
HIBINO-BASE
  6
CONTINUOUS
 62
     7
 10
-350.0
 20
-495.87273999999991
 30
0.0
 11
-350.0
 21
804.12725999999986
 31
0.0
  0
TEXT
  5
2F
  8
HIBINO-BASE
 62
     7
 10
-314.07999999999993
 20
-527.91612899999984
 30
0.0
 40
18.00022089843749
  1
Hibino Corporation
 41
0.7
 11
-314.07999999999993
 21
-509.91590810156231
 31
0.0
 73
     3
  0
LINE
  5
30
  8
HIBINO-BASE
  6
CONTINUOUS
 62
     7
 10
549.99999999999989
 20
804.12725999999986
 30
0.0
 11
549.99999999999989
 21
-495.87273999999991
 31
0.0
  0
LINE
  5
31
  8
HIBINO-BASE
  6
CONTINUOUS
 62
     7
 10
100.0
 20
-383.37274000000002
 30
0.0
 11
549.99999999999989
 21
-383.37274000000002
 31
0.0
  0
LINE
  5
32
  8
HIBINO-BASE
  6
CONTINUOUS
 62
     7
 10
100.0
 20
-495.87273999999991
 30
0.0
 11
100.0
 21
-383.37274000000002
 31
0.0
  0
TEXT
  5
33
  8
HIBINO-BASE
 62
     7
 10
104.5
 20
-395.91620666666671
 30
0.0
 40
8.1442057291666661
  1
NOTE
 41
0.7
 11
104.5
 21
-387.77200093750002
 31
0.0
 73
     3
  0
LINE
  5
34
  8
HIBINO-BASE
  6
CONTINUOUS
 62
     7
 10
275.0
 20
-495.87273999999991
 30
0.0
 11
275.0
 21
-383.37274000000002
 31
0.0
  0
TEXT
  5
35
  8
HIBINO-BASE
 62
     7
 10
279.5
 20
-395.91620666666671
 30
0.0
 40
8.1442057291666661
  1
TITLE
 41
0.7
 11
279.5
 21
-387.77200093750002
 31
0.0
 73
     3
  0
TEXT
  5
36
  8
HIBINO-BASE
 62
     7
 10
350.34195
 20
-527.91612899999984
 30
0.0
 40
18.00022089843749
  1
ヒビノ株式会社
 41
0.7
 11
350.34195
 21
-509.91590810156231
 31
0.0
 73
     3
  0
LINE
  5
37
  8
HIBINO-BASE
  6
CONTINUOUS
 62
     7
 10
100.0
 20
-445.87273999999991
 30
0.0
 11
549.99999999999989
 21
-445.87273999999991
 31
0.0
  0
TEXT
  5
38
  8
HIBINO-BASE
 62
     7
 10
342.0
 20
-458.13460666666663
 30
0.0
 40
8.1442057291666661
  1
DRAWN
 41
0.7
 11
342.0
 21
-449.9904009375
 31
0.0
 73
     3
  0
TEXT
  5
39
  8
HIBINO-BASE
 62
     7
 10
217.0
 20
-458.13460666666663
 30
0.0
 40
8.1442057291666661
  1
DATE
 41
0.7
 11
217.0
 21
-449.9904009375
 31
0.0
 73
     3
  0
TEXT
  5
3A
  8
HIBINO-BASE
 62
     7
 10
167.0
 20
-458.13460666666663
 30
0.0
 40
8.1442057291666661
  1
SCALE
 41
0.7
 11
167.0
 21
-449.9904009375
 31
0.0
 73
     3
  0
TEXT
  5
3B
  8
HIBINO-BASE
 62
     7
 10
279.5
 20
-458.13460666666663
 30
0.0
 40
8.1442057291666661
  1
DESIGN
 41
0.7
 11
279.5
 21
-449.9904009375
 31
0.0
 73
     3
  0
TEXT
  5
3C
  8
HIBINO-BASE
 62
     7
 10
467.0
 20
-458.13460666666663
 30
0.0
 40
8.1442057291666661
  1
DRAWING NO.
 41
0.7
 11
467.0
 21
-449.9904009375
 31
0.0
 73
     3
  0
TEXT
  5
3D
  8
HIBINO-BASE
 62
     7
 10
404.49999999999989
 20
-458.13460666666663
 30
0.0
 40
8.1442057291666661
  1
CHECK
 41
0.7
 11
404.49999999999989
 21
-449.9904009375
 31
0.0
 73
     3
  0
LINE
  5
3E
  8
HIBINO-BASE
  6
CONTINUOUS
 62
     7
 10
171.875
 20
-489.62273999999991
 30
0.0
 11
190.625
 21
-470.87273999999991
 31
0.0
  0
TEXT
  5
3F
  8
HIBINO-BASE
 62
     7
 10
168.75
 20
-476.41745666666651
 30
0.0
 40
8.1442057291666661
  1
1
 41
0.7
 11
168.75
 21
-468.27325093749982
 31
0.0
 73
     3
  0
LINE
  5
40
  8
HIBINO-BASE
  6
CONTINUOUS
 62
     7
 10
162.5
 20
-495.87273999999991
 30
0.0
 11
162.5
 21
-445.87273999999991
 31
0.0
  0
LINE
  5
41
  8
HIBINO-BASE
  6
CONTINUOUS
 62
     7
 10
212.5
 20
-495.87273999999991
 30
0.0
 11
212.5
 21
-445.87273999999991
 31
0.0
  0
LINE
  5
42
  8
HIBINO-BASE
  6
CONTINUOUS
 62
     7
 10
337.5
 20
-445.87273999999991
 30
0.0
 11
337.5
 21
-495.87273999999991
 31
0.0
  0
LINE
  5
43
  8
HIBINO-BASE
  6
CONTINUOUS
 62
     7
 10
462.5
 20
-445.87273999999991
 30
0.0
 11
462.5
 21
-495.87273999999991
 31
0.0
  0
LINE
  5
44
  8
HIBINO-BASE
  6
CONTINUOUS
 62
     7
 10
400.0
 20
-495.87273999999991
 30
0.0
 11
400.0
 21
-445.87273999999991
 31
0.0
  0
TEXT
  5
45
  8
HIBINO-BASE
 62
     7
 10
216.78270000000001
 20
-481.55450666666661
 30
0.0
 40
8.1442057291666661
  1
'07.06.
 41
0.7
 11
216.78270000000001
 21
-473.41030093749993
 31
0.0
 73
     3
  0
TEXT
  5
46
  8
HIBINO-BASE
 62
     7
 10
187.5
 20
-485.79245666666651
 30
0.0
 40
8.1442057291666661
  1
5
 41
0.7
 11
187.5
 21
-477.64825093749982
 31
0.0
 73
     3
  0
TEXT
  5
47
  8
HIBINO-BASE
 62
     7
 10
345.02905005517312
 20
-481.55450666666661
 30
0.0
 40
8.1442057291666661
  1
N.Sasaki
 41
0.7
 11
345.02905005517312
 21
-473.41030093749993
 31
0.0
 73
     3
  0
TEXT
  5
48
  8
HIBINO-BASE
 62
     7
 10
119.4166666666667
 20
-485.99274000000008
 30
0.0
 40
16.288411458333329
  1
A4
 41
0.7
 11
119.4166666666667
 21
-469.70432854166671
 31
0.0
 73
     3
  0
TEXT
  5
49
  8
HIBINO-BASE
 62
     7
 10
104.7916666666666
 20
-458.97001499999971
 30
0.0
 40
8.1442057291666661
  1
PAPER SIZE
 41
0.7
 11
104.7916666666666
 21
-450.82580927083308
 31
0.0
 73
     3
  0
LINE
  5
4A
  8
SPEC
  6
CONTINUOUS
 62
     7
 10
-232.5
 20
735.37725999999998
 30
0.0
 11
200.0
 21
735.37725999999998
 31
0.0
  0
LINE
  5
4B
  8
SPEC
  6
CONTINUOUS
 62
     7
 10
-312.5
 20
641.62726000000009
 30
0.0
 11
200.0
 21
641.62726000000009
 31
0.0
  0
LINE
  5
4C
  8
SPEC
  6
CONTINUOUS
 62
     7
 10
-232.5
 20
660.37725999999998
 30
0.0
 11
200.0
 21
660.37725999999998
 31
0.0
  0
LINE
  5
4D
  8
SPEC
  6
CONTINUOUS
 62
     7
 10
-232.5
 20
697.87725999999998
 30
0.0
 11
200.0
 21
697.87725999999998
 31
0.0
  0
LINE
  5
4E
  8
SPEC
  6
CONTINUOUS
 62
     7
 10
-232.5
 20
622.87726000000009
 30
0.0
 11
200.0
 21
622.87726000000009
 31
0.0
  0
LINE
  5
4F
  8
SPEC
  6
CONTINUOUS
 62
     7
 10
-232.5
 20
585.37726000000009
 30
0.0
 11
200.0
 21
585.37726000000009
 31
0.0
  0
LINE
  5
50
  8
SPEC
  6
CONTINUOUS
 62
     7
 10
-232.5
 20
604.12726000000009
 30
0.0
 11
200.0
 21
604.12726000000009
 31
0.0
  0
LINE
  5
51
  8
SPEC
  6
CONTINUOUS
 62
     7
 10
-312.5
 20
566.62726000000009
 30
0.0
 11
200.0
 21
566.62726000000009
 31
0.0
  0
LINE
  5
52
  8
SPEC
  6
CONTINUOUS
 62
     7
 10
-232.5
 20
716.62725999999998
 30
0.0
 11
200.0
 21
716.62725999999998
 31
0.0
  0
TEXT
  5
53
  8
SPEC
 62
     7
 10
-105.0
 20
739.31684888888901
 30
0.0
 40
9.5015733506944464
  1
最大16(アナログ)
 41
0.7
 11
-105.0
 21
748.81842223958336
 31
0.0
 73
     3
  0
LINE
  5
54
  8
SPEC
  6
CONTINUOUS
 62
     7
 10
-312.5
 20
754.12725999999998
 30
0.0
 11
-312.5
 21
360.37906000000009
 31
0.0
  0
TEXT
  5
55
  8
SPEC
 62
     7
 10
-306.25
 20
761.09361000000013
 30
0.0
 40
12.21630859375
  1
仕様
 41
0.7
 11
-306.25
 21
773.30991859375013
 31
0.0
 73
     3
  0
LINE
  5
56
  8
SPEC
  6
CONTINUOUS
 62
     7
 10
-110.0
 20
754.12725999999998
 30
0.0
 11
-110.0
 21
360.37906000000009
 31
0.0
  0
TEXT
  5
57
  8
SPEC
 62
     7
 10
-308.0
 20
739.31684888888901
 30
0.0
 40
9.5015733506944464
  1
入力
 41
0.7
 11
-308.0
 21
748.81842223958336
 31
0.0
 73
     3
  0
TEXT
  5
58
  8
SPEC
 62
     7
 10
-308.0
 20
626.81684888888901
 30
0.0
 40
9.5015733506944464
  1
出力
 41
0.7
 11
-308.0
 21
636.31842223958336
 31
0.0
 73
     3
  0
LINE
  5
59
  8
SPEC
  6
CONTINUOUS
 62
     7
 10
-312.5
 20
754.12725999999998
 30
0.0
 11
200.0
 21
754.12725999999998
 31
0.0
  0
LINE
  5
5A
  8
SPEC
  6
CONTINUOUS
 62
     7
 10
-232.5
 20
754.12725999999998
 30
0.0
 11
-232.5
 21
566.62726000000009
 31
0.0
  0
TEXT
  5
5B
  8
SPEC
 62
     7
 10
-226.75
 20
739.31684888888901
 30
0.0
 40
9.5015733506944464
  1
チャンネル数
 41
0.7
 11
-226.75
 21
748.81842223958336
 31
0.0
 73
     3
  0
TEXT
  5
5C
  8
SPEC
 62
     7
 10
-226.75
 20
720.56684888888901
 30
0.0
 40
9.5015733506944464
  1
形式
 41
0.7
 11
-226.75
 21
730.06842223958336
 31
0.0
 73
     3
  0
TEXT
  5
5D
  8
SPEC
 62
     7
 10
-226.75
 20
701.81684888888901
 30
0.0
 40
9.5015733506944464
  1
端子
 41
0.7
 11
-226.75
 21
711.31842223958336
 31
0.0
 73
     3
  0
TEXT
  5
5E
  8
SPEC
 62
     7
 10
-226.75
 20
683.06684888888901
 30
0.0
 40
9.5015733506944464
  1
インピーダンス
 41
0.7
 11
-226.75
 21
692.56842223958336
 31
0.0
 73
     3
  0
TEXT
  5
5F
  8
SPEC
 62
     7
 10
-226.75
 20
645.56684888888901
 30
0.0
 40
9.5015733506944464
  1
最大入力レベル
 41
0.7
 11
-226.75
 21
655.06842223958336
 31
0.0
 73
     3
  0
TEXT
  5
60
  8
SPEC
 62
     7
 10
-226.75
 20
626.81684888888901
 30
0.0
 40
9.5015733506944464
  1
チャンネル数
 41
0.7
 11
-226.75
 21
636.31842223958336
 31
0.0
 73
     3
  0
TEXT
  5
61
  8
SPEC
 62
     7
 10
-226.75
 20
608.06684888888901
 30
0.0
 40
9.5015733506944464
  1
形式
 41
0.7
 11
-226.75
 21
617.56842223958336
 31
0.0
 73
     3
  0
TEXT
  5
62
  8
SPEC
 62
     7
 10
-226.75
 20
589.31684888888901
 30
0.0
 40
9.5015733506944464
  1
端子
 41
0.7
 11
-226.75
 21
598.81842223958336
 31
0.0
 73
     3
  0
TEXT
  5
63
  8
SPEC
 62
     7
 10
-226.75
 20
570.56684888888901
 30
0.0
 40
9.5015733506944464
  1
最大出力レベル
 41
0.7
 11
-226.75
 21
580.06842223958336
 31
0.0
 73
     3
  0
TEXT
  5
64
  8
SPEC
 62
     7
 10
-105.0
 20
720.56684888888901
 30
0.0
 40
9.5015733506944464
  1
バランス
 41
0.7
 11
-105.0
 21
730.06842223958336
 31
0.0
 73
     3
  0
TEXT
  5
65
  8
SPEC
 62
     7
 10
-105.0
 20
701.81684888888901
 30
0.0
 40
9.5015733506944464
  1
ユーロブロック
 41
0.7
 11
-105.0
 21
711.31842223958336
 31
0.0
 73
     3
  0
TEXT
  5
66
  8
SPEC
 62
     7
 10
-105.0
 20
683.06684888888901
 30
0.0
 40
9.5015733506944464
  1
3.5kΩ
 41
0.7
 11
-105.0
 21
692.56842223958336
 31
0.0
 73
     3
  0
TEXT
  5
67
  8
SPEC
 62
     7
 10
-105.0
 20
645.56684888888901
 30
0.0
 40
9.5015733506944464
  1
+20dBu(0dB入力ゲイン)
 41
0.7
 11
-105.0
 21
655.06842223958336
 31
0.0
 73
     3
  0
TEXT
  5
68
  8
SPEC
 62
     7
 10
-105.0
 20
626.81684888888901
 30
0.0
 40
9.5015733506944464
  1
最大16(アナログ)
 41
0.7
 11
-105.0
 21
636.31842223958336
 31
0.0
 73
     3
  0
TEXT
  5
69
  8
SPEC
 62
     7
 10
-105.0
 20
608.06684888888901
 30
0.0
 40
9.5015733506944464
  1
バランス
 41
0.7
 11
-105.0
 21
617.56842223958336
 31
0.0
 73
     3
  0
TEXT
  5
6A
  8
SPEC
 62
     7
 10
-105.0
 20
589.31684888888901
 30
0.0
 40
9.5015733506944464
  1
ユーロブロック
 41
0.7
 11
-105.0
 21
598.81842223958336
 31
0.0
 73
     3
  0
TEXT
  5
6B
  8
SPEC
 62
     7
 10
-105.0
 20
570.56684888888901
 30
0.0
 40
9.5015733506944464
  1
+19dBu
 41
0.7
 11
-105.0
 21
580.06842223958336
 31
0.0
 73
     3
  0
LINE
  5
6C
  8
SPEC
  6
CONTINUOUS
 62
     7
 10
200.0
 20
754.12725999999998
 30
0.0
 11
200.0
 21
360.37906000000009
 31
0.0
  0
LINE
  5
6D
  8
SPEC
  6
CONTINUOUS
 62
     7
 10
-312.5
 20
491.62906000000009
 30
0.0
 11
200.0
 21
491.62906000000009
 31
0.0
  0
LINE
  5
6E
  8
SPEC
  6
CONTINUOUS
 62
     7
 10
-312.5
 20
454.12906000000009
 30
0.0
 11
200.0
 21
454.12906000000009
 31
0.0
  0
LINE
  5
6F
  8
SPEC
  6
CONTINUOUS
 62
     7
 10
-312.5
 20
397.87906000000009
 30
0.0
 11
200.0
 21
397.87906000000009
 31
0.0
  0
LINE
  5
70
  8
SPEC
  6
CONTINUOUS
 62
     7
 10
-312.5
 20
379.12906000000009
 30
0.0
 11
200.0
 21
379.12906000000009
 31
0.0
  0
TEXT
  5
71
  8
SPEC
 62
     7
 10
-308.0
 20
401.8186488888889
 30
0.0
 40
9.5015733506944464
  1
消費電力
 41
0.7
 11
-308.0
 21
411.32022223958342
 31
0.0
 73
     3
  0
TEXT
  5
72
  8
SPEC
 62
     7
 10
-308.0
 20
476.8186488888889
 30
0.0
 40
9.5015733506944464
  1
THD
 41
0.7
 11
-308.0
 21
486.3202222395833
 31
0.0
 73
     3
  0
LINE
  5
73
  8
SPEC
  6
CONTINUOUS
 62
     7
 10
-312.5
 20
510.37905999999998
 30
0.0
 11
200.0
 21
510.37905999999998
 31
0.0
  0
TEXT
  5
74
  8
SPEC
 62
     7
 10
-308.0
 20
495.5686488888889
 30
0.0
 40
9.5015733506944464
  1
周波数特性
 41
0.7
 11
-308.0
 21
505.0702222395833
 31
0.0
 73
     3
  0
TEXT
  5
75
  8
SPEC
 62
     7
 10
-105.0
 20
495.5686488888889
 30
0.0
 40
9.5015733506944464
  1
15Hz～20kHz(+0.5dB/-1dB)
 41
0.7
 11
-105.0
 21
505.0702222395833
 31
0.0
 73
     3
  0
TEXT
  5
76
  8
SPEC
 62
     7
 10
-105.0
 20
476.8186488888889
 30
0.0
 40
9.5015733506944464
  1
0.01%%%以下(20Hz～20kHz,+10dBu)
 41
0.7
 11
-105.0
 21
486.3202222395833
 31
0.0
 73
     3
  0
TEXT
  5
77
  8
SPEC
 62
     7
 10
-308.0
 20
458.0686488888889
 30
0.0
 40
9.5015733506944464
  1
ダイナミックレンジ
 41
0.7
 11
-308.0
 21
467.5702222395833
 31
0.0
 73
     3
  0
TEXT
  5
78
  8
SPEC
 62
     7
 10
-105.0
 20
458.0686488888889
 30
0.0
 40
9.5015733506944464
  1
108dB(22Hz～22kHz,アンウェイト)
 41
0.7
 11
-105.0
 21
467.5702222395833
 31
0.0
 73
     3
  0
LINE
  5
79
  8
SPEC
  6
CONTINUOUS
 62
     7
 10
-312.5
 20
472.87906000000009
 30
0.0
 11
200.0
 21
472.87906000000009
 31
0.0
  0
LINE
  5
7A
  8
SPEC
  6
CONTINUOUS
 62
     7
 10
-312.5
 20
435.37906000000009
 30
0.0
 11
200.0
 21
435.37906000000009
 31
0.0
  0
TEXT
  5
7B
  8
SPEC
 62
     7
 10
-308.0
 20
439.3186488888889
 30
0.0
 40
9.5015733506944464
  1
ファンタム電源
 41
0.7
 11
-308.0
 21
448.8202222395833
 31
0.0
 73
     3
  0
TEXT
  5
7C
  8
SPEC
 62
     7
 10
-105.0
 20
439.3186488888889
 30
0.0
 40
9.5015733506944464
  1
DC48V、チャンネル毎にon/off可能
 41
0.7
 11
-105.0
 21
448.8202222395833
 31
0.0
 73
     3
  0
LINE
  5
7D
  8
SPEC
  6
CONTINUOUS
 62
     7
 10
-312.5
 20
416.62906000000009
 30
0.0
 11
200.0
 21
416.62906000000009
 31
0.0
  0
TEXT
  5
7E
  8
SPEC
 62
     7
 10
-308.0
 20
420.5686488888889
 30
0.0
 40
9.5015733506944464
  1
電源
 41
0.7
 11
-308.0
 21
430.0702222395833
 31
0.0
 73
     3
  0
TEXT
  5
7F
  8
SPEC
 62
     7
 10
-105.0
 20
420.5686488888889
 30
0.0
 40
9.5015733506944464
  1
AC100～240V、50/60Hz
 41
0.7
 11
-105.0
 21
430.0702222395833
 31
0.0
 73
     3
  0
TEXT
  5
80
  8
SPEC
 62
     7
 10
-105.0
 20
401.8186488888889
 30
0.0
 40
9.5015733506944464
  1
40W
 41
0.7
 11
-105.0
 21
411.3202222395833
 31
0.0
 73
     3
  0
LINE
  5
81
  8
SPEC
  6
CONTINUOUS
 62
     7
 10
-312.5
 20
360.37906000000009
 30
0.0
 11
200.0
 21
360.37906000000009
 31
0.0
  0
TEXT
  5
82
  8
SPEC
 62
     7
 10
-308.0
 20
364.31864888888902
 30
0.0
 40
9.5015733506944464
  1
質量
 41
0.7
 11
-308.0
 21
373.82022223958342
 31
0.0
 73
     3
  0
TEXT
  5
83
  8
SPEC
 62
     7
 10
-105.0
 20
364.3186488888889
 30
0.0
 40
9.5015733506944464
  1
約3.2kg
 41
0.7
 11
-105.0
 21
373.8202222395833
 31
0.0
 73
     3
  0
TEXT
  5
84
  8
SPEC
 62
     7
 10
-308.0
 20
551.81864888888902
 30
0.0
 40
9.5015733506944464
  1
ネットワーク・コネクタ 
 41
0.7
 11
-308.0
 21
561.32022223958336
 31
0.0
 73
     3
  0
TEXT
  5
85
  8
SPEC
 62
     7
 10
-105.0
 20
551.81864888888902
 30
0.0
 40
9.5015733506944464
  1
Ethernet×1(RJ45)
 41
0.7
 11
-105.0
 21
561.32022223958336
 31
0.0
 73
     3
  0
TEXT
  5
86
  8
SPEC
 62
     7
 10
-308.0
 20
533.06864888888902
 30
0.0
 40
9.5015733506944464
  1
コントロールポート
 41
0.7
 11
-308.0
 21
542.57022223958336
 31
0.0
 73
     3
  0
TEXT
  5
87
  8
SPEC
 62
     7
 10
-105.0
 20
533.06864888888902
 30
0.0
 40
9.5015733506944464
  1
コントロール入力×12、ロジック出力×6
 41
0.7
 11
-105.0
 21
542.57022223958336
 31
0.0
 73
     3
  0
TEXT
  5
88
  8
SPEC
 62
     7
 10
-308.0
 20
383.06864888888902
 30
0.0
 40
9.5015733506944464
  1
寸法(W×H×D、マウント面から)
 41
0.7
 11
-308.0
 21
392.57022223958342
 31
0.0
 73
     3
  0
TEXT
  5
89
  8
SPEC
 62
     7
 10
-105.0
 20
383.0686488888889
 30
0.0
 40
9.5015733506944464
  1
483×44×228mm(突起部含まず)
 41
0.7
 11
-105.0
 21
392.57022223958342
 31
0.0
 73
     3
  0
LINE
  5
8A
  8
SPEC
  6
CONTINUOUS
 62
     7
 10
-312.5
 20
529.12905999999998
 30
0.0
 11
200.0
 21
529.12905999999998
 31
0.0
  0
TEXT
  5
8B
  8
SPEC
 62
     7
 10
-308.0
 20
514.31864888888902
 30
0.0
 40
9.5015733506944464
  1
その他接続インターフェース
 41
0.7
 11
-308.0
 21
523.82022223958336
 31
0.0
 73
     3
  0
TEXT
  5
8C
  8
SPEC
 62
     7
 10
-105.0
 20
514.31864888888902
 30
0.0
 40
9.5015733506944464
  1
USB1.1×1、RS232×1
 41
0.7
 11
-105.0
 21
523.82022223958336
 31
0.0
 73
     3
  0
LINE
  5
8D
  8
SPEC
  6
CONTINUOUS
 62
     7
 10
-232.5
 20
679.12725999999998
 30
0.0
 11
200.0
 21
679.12725999999998
 31
0.0
  0
TEXT
  5
8E
  8
SPEC
 62
     7
 10
-226.75
 20
664.31684888888901
 30
0.0
 40
9.5015733506944464
  1
入力ゲイン
 41
0.7
 11
-226.75
 21
673.81842223958336
 31
0.0
 73
     3
  0
TEXT
  5
8F
  8
SPEC
 62
     7
 10
-105.0
 20
664.31684888888901
 30
0.0
 40
9.5015733506944464
  1
0dB(nominal)、最大+48dBまで6dB刻み
 41
0.7
 11
-105.0
 21
673.81842223958336
 31
0.0
 73
     3
  0
LINE
  5
90
  8
SPEC
  6
CONTINUOUS
 62
     7
 10
-312.5
 20
547.87905999999998
 30
0.0
 11
200.0
 21
547.87905999999998
 31
0.0
  0
TEXT
  5
91
  8
DIMNSIONS
 62
     7
 10
-0.0000000000000149
 20
-434.52528999999993
 30
0.0
 40
12.21630859375
  1
(単位：mm)
 41
0.7
 11
-0.0000000000000142
 21
-422.30898140624993
 31
0.0
 73
     3
  0
LINE
  5
92
  8
DIMNSIONS
  6
CONTINUOUS
 62
     7
 10
-250.0
 20
-310.0
 30
0.0
 11
-250.0
 21
-360.0
 31
0.0
  0
LINE
  5
93
  8
DIMNSIONS
  6
CONTINUOUS
 62
     7
 10
232.60000000000011
 20
-310.0
 30
0.0
 11
232.60000000000011
 21
-360.0
 31
0.0
  0
LINE
  5
94
  8
DIMNSIONS
  6
CONTINUOUS
 62
     7
 10
-250.0
 20
-350.0
 30
0.0
 11
232.60000000000011
 21
-350.0
 31
0.0
  0
LINE
  5
95
  8
DIMNSIONS
  6
CONTINUOUS
 62
     7
 10
-250.0
 20
-350.0
 30
0.0
 11
-237.49688720703119
 21
-346.6498010242488
 31
0.0
  0
LINE
  5
96
  8
DIMNSIONS
  6
CONTINUOUS
 62
     7
 10
-250.0
 20
-350.0
 30
0.0
 11
-237.49688720703119
 21
-353.3501989757512
 31
0.0
  0
LINE
  5
97
  8
DIMNSIONS
  6
CONTINUOUS
 62
     7
 10
232.60000000000011
 20
-350.0
 30
0.0
 11
220.09688720703139
 21
-353.3501989757512
 31
0.0
  0
LINE
  5
98
  8
DIMNSIONS
  6
CONTINUOUS
 62
     7
 10
232.60000000000011
 20
-350.0
 30
0.0
 11
220.09688720703139
 21
-346.6498010242488
 31
0.0
  0
TEXT
  5
99
  8
DIMNSIONS
 62
     7
 10
-21.92916666666661
 20
-345.03055555555551
 30
0.0
 40
13.57367621527778
  1
483
 41
0.7
 11
-21.92916666666661
 21
-331.45687934027779
 31
0.0
 73
     3
  0
LINE
  5
9A
  8
DIMNSIONS
  6
CONTINUOUS
 62
     7
 10
-260.0
 20
-300.0
 30
0.0
 11
-310.0
 21
-300.0
 31
0.0
  0
LINE
  5
9B
  8
DIMNSIONS
  6
CONTINUOUS
 62
     7
 10
-260.0
 20
-256.0
 30
0.0
 11
-310.0
 21
-256.0
 31
0.0
  0
LINE
  5
9C
  8
DIMNSIONS
  6
CONTINUOUS
 62
     7
 10
-300.0
 20
-300.0
 30
0.0
 11
-300.0
 21
-256.0
 31
0.0
  0
LINE
  5
9D
  8
DIMNSIONS
  6
CONTINUOUS
 62
     7
 10
-300.0
 20
-300.0
 30
0.0
 11
-303.3501989757512
 21
-287.49688720703119
 31
0.0
  0
LINE
  5
9E
  8
DIMNSIONS
  6
CONTINUOUS
 62
     7
 10
-300.0
 20
-300.0
 30
0.0
 11
-296.6498010242488
 21
-287.49688720703119
 31
0.0
  0
LINE
  5
9F
  8
DIMNSIONS
  6
CONTINUOUS
 62
     7
 10
-300.0
 20
-256.0
 30
0.0
 11
-296.6498010242488
 21
-268.50311279296881
 31
0.0
  0
LINE
  5
A0
  8
DIMNSIONS
  6
CONTINUOUS
 62
     7
 10
-300.0
 20
-256.0
 30
0.0
 11
-303.3501989757512
 21
-268.50311279296881
 31
0.0
  0
TEXT
  5
A1
  8
DIMNSIONS
 62
     7
 10
-304.96944444444449
 20
-286.81944444444451
 30
0.0
 40
13.57367621527778
  1
44
 50
90.0
 41
0.7
 11
-318.54312065972232
 21
-286.81944444444451
 31
0.0
 73
     3
  0
LINE
  5
A2
  8
DIMNSIONS
  6
CONTINUOUS
 62
     7
 10
-260.0
 20
-200.0
 30
0.0
 11
-310.0
 21
-200.0
 31
0.0
  0
LINE
  5
A3
  8
DIMNSIONS
  6
CONTINUOUS
 62
     7
 10
-260.0
 20
-194.5
 30
0.0
 11
-310.0
 21
-194.5
 31
0.0
  0
LINE
  5
A4
  8
DIMNSIONS
  6
CONTINUOUS
 62
     7
 10
-300.0
 20
-194.5
 30
0.0
 11
-300.0
 21
-200.0
 31
0.0
  0
LINE
  5
A5
  8
DIMNSIONS
  6
CONTINUOUS
 62
     7
 10
-300.0
 20
-200.0
 30
0.0
 11
-300.0
 21
-221.3194444444444
 31
0.0
  0
LINE
  5
A6
  8
DIMNSIONS
  6
CONTINUOUS
 62
     7
 10
-300.0
 20
-200.0
 30
0.0
 11
-296.6498010242488
 21
-212.50311279296881
 31
0.0
  0
LINE
  5
A7
  8
DIMNSIONS
  6
CONTINUOUS
 62
     7
 10
-300.0
 20
-200.0
 30
0.0
 11
-303.3501989757512
 21
-212.50311279296881
 31
0.0
  0
LINE
  5
A8
  8
DIMNSIONS
  6
CONTINUOUS
 62
     7
 10
-300.0
 20
-194.5
 30
0.0
 11
-300.0
 21
-169.5
 31
0.0
  0
LINE
  5
A9
  8
DIMNSIONS
  6
CONTINUOUS
 62
     7
 10
-300.0
 20
-194.5
 30
0.0
 11
-303.3501989757512
 21
-181.99688720703119
 31
0.0
  0
LINE
  5
AA
  8
DIMNSIONS
  6
CONTINUOUS
 62
     7
 10
-300.0
 20
-194.5
 30
0.0
 11
-296.6498010242488
 21
-181.99688720703119
 31
0.0
  0
TEXT
  5
AB
  8
DIMNSIONS
 62
     7
 10
-304.96944444444449
 20
-221.3194444444444
 30
0.0
 40
13.57367621527778
  1
6
 50
90.0
 41
0.7
 11
-318.54312065972232
 21
-221.3194444444444
 31
0.0
 73
     3
  0
LINE
  5
AC
  8
DIMNSIONS
  6
CONTINUOUS
 62
     7
 10
-236.6999999999999
 20
33.5
 30
0.0
 11
-310.0
 21
33.5
 31
0.0
  0
LINE
  5
AD
  8
DIMNSIONS
  6
CONTINUOUS
 62
     7
 10
-260.0
 20
-194.5
 30
0.0
 11
-310.0
 21
-194.5
 31
0.0
  0
LINE
  5
AE
  8
DIMNSIONS
  6
CONTINUOUS
 62
     7
 10
-300.0
 20
33.5
 30
0.0
 11
-300.0
 21
-194.5
 31
0.0
  0
LINE
  5
AF
  8
DIMNSIONS
  6
CONTINUOUS
 62
     7
 10
-300.0
 20
33.5
 30
0.0
 11
-296.6498010242488
 21
20.99688720703125
 31
0.0
  0
LINE
  5
B0
  8
DIMNSIONS
  6
CONTINUOUS
 62
     7
 10
-300.0
 20
33.5
 30
0.0
 11
-303.3501989757512
 21
20.99688720703125
 31
0.0
  0
LINE
  5
B1
  8
DIMNSIONS
  6
CONTINUOUS
 62
     7
 10
-300.0
 20
-194.5
 30
0.0
 11
-303.3501989757512
 21
-181.99688720703119
 31
0.0
  0
LINE
  5
B2
  8
DIMNSIONS
  6
CONTINUOUS
 62
     7
 10
-300.0
 20
-194.5
 30
0.0
 11
-296.6498010242488
 21
-181.99688720703119
 31
0.0
  0
TEXT
  5
B3
  8
DIMNSIONS
 62
     7
 10
-304.96944444444449
 20
-93.729166666666686
 30
0.0
 40
13.57367621527778
  1
228
 50
90.0
 41
0.7
 11
-318.54312065972232
 21
-93.729166666666686
 31
0.0
 73
     3
  0
LINE
  5
B4
  8
DIMNSIONS
  6
CONTINUOUS
 62
     7
 10
-236.6999999999999
 20
33.5
 30
0.0
 11
-310.0
 21
33.5
 31
0.0
  0
LINE
  5
B5
  8
DIMNSIONS
  6
CONTINUOUS
 62
     7
 10
-225.19999999999999
 20
47.0
 30
0.0
 11
-310.0
 21
47.0
 31
0.0
  0
LINE
  5
B6
  8
DIMNSIONS
  6
CONTINUOUS
 62
     7
 10
-300.0
 20
47.0
 30
0.0
 11
-300.0
 21
33.5
 31
0.0
  0
LINE
  5
B7
  8
DIMNSIONS
  6
CONTINUOUS
 62
     7
 10
-300.0
 20
33.5
 30
0.0
 11
-300.0
 21
8.5
 31
0.0
  0
LINE
  5
B8
  8
DIMNSIONS
  6
CONTINUOUS
 62
     7
 10
-300.0
 20
33.5
 30
0.0
 11
-296.6498010242488
 21
20.99688720703125
 31
0.0
  0
LINE
  5
B9
  8
DIMNSIONS
  6
CONTINUOUS
 62
     7
 10
-300.0
 20
33.5
 30
0.0
 11
-303.3501989757512
 21
20.99688720703125
 31
0.0
  0
LINE
  5
BA
  8
DIMNSIONS
  6
CONTINUOUS
 62
     7
 10
-300.0
 20
47.0
 30
0.0
 11
-300.0
 21
67.6388888888889
 31
0.0
  0
LINE
  5
BB
  8
DIMNSIONS
  6
CONTINUOUS
 62
     7
 10
-300.0
 20
47.0
 30
0.0
 11
-303.3501989757512
 21
59.50311279296875
 31
0.0
  0
LINE
  5
BC
  8
DIMNSIONS
  6
CONTINUOUS
 62
     7
 10
-300.0
 20
47.0
 30
0.0
 11
-296.6498010242488
 21
59.50311279296875
 31
0.0
  0
TEXT
  5
BD
  8
DIMNSIONS
 62
     7
 10
-304.96944444444449
 20
50.0
 30
0.0
 40
13.57367621527778
  1
14
 50
90.0
 41
0.7
 11
-318.54312065972232
 21
50.0
 31
0.0
 73
     3
  0
LINE
  5
BE
  8
DIMNSIONS
  6
CONTINUOUS
 62
     7
 10
209.30000000000021
 20
43.5
 30
0.0
 11
209.30000000000021
 21
110.0
 31
0.0
  0
LINE
  5
BF
  8
DIMNSIONS
  6
CONTINUOUS
 62
     7
 10
-226.6999999999999
 20
43.5
 30
0.0
 11
-226.6999999999999
 21
110.0
 31
0.0
  0
LINE
  5
C0
  8
DIMNSIONS
  6
CONTINUOUS
 62
     7
 10
209.30000000000021
 20
100.0
 30
0.0
 11
-226.6999999999999
 21
100.0
 31
0.0
  0
LINE
  5
C1
  8
DIMNSIONS
  6
CONTINUOUS
 62
     7
 10
209.30000000000021
 20
100.0
 30
0.0
 11
196.7968872070314
 21
96.649801024248774
 31
0.0
  0
LINE
  5
C2
  8
DIMNSIONS
  6
CONTINUOUS
 62
     7
 10
209.30000000000021
 20
100.0
 30
0.0
 11
196.7968872070314
 21
103.3501989757512
 31
0.0
  0
LINE
  5
C3
  8
DIMNSIONS
  6
CONTINUOUS
 62
     7
 10
-226.6999999999999
 20
100.0
 30
0.0
 11
-214.19688720703121
 21
103.3501989757512
 31
0.0
  0
LINE
  5
C4
  8
DIMNSIONS
  6
CONTINUOUS
 62
     7
 10
-226.6999999999999
 20
100.0
 30
0.0
 11
-214.19688720703121
 21
96.649801024248788
 31
0.0
  0
TEXT
  5
C5
  8
DIMNSIONS
 62
     7
 10
-21.929166666666561
 20
104.96944444444441
 30
0.0
 40
13.57367621527778
  1
436
 41
0.7
 11
-21.929166666666561
 21
118.54312065972221
 31
0.0
 73
     3
  0
TEXT
  5
C6
  8
DATA
 62
     7
 10
-300.0
 20
-474.68273999999991
 30
0.0
 40
8.1442057291666661
  1
仕様および外観は予告なく変更されることがありますので、ご了承ください。
 41
0.7
 11
-300.0
 21
-466.53853427083322
 31
0.0
 73
     3
  0
POLYLINE
  5
C7
  8
DATA
  6
CONTINUOUS
 62
     7
 66
     1
 10
0.0
 20
0.0
 30
0.0
 70
     1
  0
VERTEX
  5
A89
  8
DATA
  6
CONTINUOUS
 62
     7
 10
-250.0
 20
-256.0
 30
0.0
  0
VERTEX
  5
A8A
  8
DATA
  6
CONTINUOUS
 62
     7
 10
232.60000000000011
 20
-256.0
 30
0.0
  0
VERTEX
  5
A8B
  8
DATA
  6
CONTINUOUS
 62
     7
 10
232.60000000000011
 20
-300.0
 30
0.0
  0
VERTEX
  5
A8C
  8
DATA
  6
CONTINUOUS
 62
     7
 10
-250.0
 20
-300.0
 30
0.0
  0
SEQEND
  5
A8D
  8
DATA
  6
CONTINUOUS
 62
     7
  0
LINE
  5
CE
  8
DATA
  6
CONTINUOUS
 62
     7
 10
-243.15000000000001
 20
-289.94999999999999
 30
0.0
 11
-239.84999999999991
 21
-289.94999999999999
 31
0.0
  0
LINE
  5
CF
  8
DATA
  6
CONTINUOUS
 62
     7
 10
-243.15000000000001
 20
-297.05000000000001
 30
0.0
 11
-239.84999999999991
 21
-297.05000000000001
 31
0.0
  0
ARC
  5
D0
  8
DATA
  6
CONTINUOUS
 62
     7
 10
-243.15000000000009
 20
-293.5
 30
0.0
 40
3.5500000000000109
 50
90.0
 51
270.0
  0
ARC
  5
D1
  8
DATA
  6
CONTINUOUS
 62
     7
 10
-239.84999999999991
 20
-293.5
 30
0.0
 40
3.5500000000000109
 50
270.0
 51
90.0
  0
LINE
  5
D2
  8
DATA
  6
CONTINUOUS
 62
     7
 10
-243.15000000000001
 20
-258.94999999999999
 30
0.0
 11
-239.84999999999991
 21
-258.94999999999999
 31
0.0
  0
LINE
  5
D3
  8
DATA
  6
CONTINUOUS
 62
     7
 10
-243.15000000000001
 20
-266.05000000000001
 30
0.0
 11
-239.84999999999991
 21
-266.05000000000001
 31
0.0
  0
ARC
  5
D4
  8
DATA
  6
CONTINUOUS
 62
     7
 10
-243.15000000000009
 20
-262.5
 30
0.0
 40
3.5500000000000109
 50
90.0
 51
270.0
  0
ARC
  5
D5
  8
DATA
  6
CONTINUOUS
 62
     7
 10
-239.84999999999991
 20
-262.5
 30
0.0
 40
3.5500000000000109
 50
270.0
 51
90.0
  0
LINE
  5
D6
  8
DATA
  6
CONTINUOUS
 62
     7
 10
225.75
 20
-289.94999999999999
 30
0.0
 11
222.44999999999999
 21
-289.94999999999999
 31
0.0
  0
LINE
  5
D7
  8
DATA
  6
CONTINUOUS
 62
     7
 10
225.75
 20
-297.05000000000001
 30
0.0
 11
222.44999999999999
 21
-297.05000000000001
 31
0.0
  0
ARC
  5
D8
  8
DATA
  6
CONTINUOUS
 62
     7
 10
225.7500000000002
 20
-293.5
 30
0.0
 40
3.5500000000000109
 50
270.0
 51
90.0
  0
ARC
  5
D9
  8
DATA
  6
CONTINUOUS
 62
     7
 10
222.44999999999999
 20
-293.5
 30
0.0
 40
3.5500000000000109
 50
90.0
 51
270.0
  0
LINE
  5
DA
  8
DATA
  6
CONTINUOUS
 62
     7
 10
225.75
 20
-258.94999999999999
 30
0.0
 11
222.44999999999999
 21
-258.94999999999999
 31
0.0
  0
LINE
  5
DB
  8
DATA
  6
CONTINUOUS
 62
     7
 10
225.75
 20
-266.05000000000001
 30
0.0
 11
222.44999999999999
 21
-266.05000000000001
 31
0.0
  0
ARC
  5
DC
  8
DATA
  6
CONTINUOUS
 62
     7
 10
225.7500000000002
 20
-262.5
 30
0.0
 40
3.5500000000000109
 50
270.0
 51
90.0
  0
ARC
  5
DD
  8
DATA
  6
CONTINUOUS
 62
     7
 10
222.44999999999999
 20
-262.5
 30
0.0
 40
3.5500000000000109
 50
90.0
 51
270.0
  0
TEXT
  5
DE
  8
DATA
 62
     7
 10
259.0
 20
169.89833333333331
 30
0.0
 40
8.1442057291666661
  1
背面図のみユーロブロック非装着状態
 41
0.7
 11
259.0
 21
178.0425390625
 31
0.0
 73
     3
  0
LINE
  5
DF
  8
DATA
  6
CONTINUOUS
 62
     7
 10
-250.0
 20
-269.25
 30
0.0
 11
-250.0
 21
-286.75
 31
0.0
  0
LINE
  5
E0
  8
DATA
  6
CONTINUOUS
 62
     7
 10
-250.0
 20
-286.75
 30
0.0
 11
-238.5
 21
-286.75
 31
0.0
  0
LINE
  5
E1
  8
DATA
  6
CONTINUOUS
 62
     7
 10
-232.5
 20
-292.75
 30
0.0
 11
-232.5
 21
-300.0
 31
0.0
  0
ARC
  5
E2
  8
DATA
  6
CONTINUOUS
 62
     7
 10
-238.5
 20
-292.75
 30
0.0
 40
6.0
 50
0.0
 51
90.0
  0
LINE
  5
E3
  8
DATA
  6
CONTINUOUS
 62
     7
 10
-250.0
 20
-269.25
 30
0.0
 11
-238.5
 21
-269.25
 31
0.0
  0
LINE
  5
E4
  8
DATA
  6
CONTINUOUS
 62
     7
 10
-232.5
 20
-263.25
 30
0.0
 11
-232.5
 21
-256.0
 31
0.0
  0
ARC
  5
E5
  8
DATA
  6
CONTINUOUS
 62
     7
 10
-238.5
 20
-263.25
 30
0.0
 40
6.0
 50
270.0
 51
0.0
  0
ARC
  5
E6
  8
DATA
  6
CONTINUOUS
 62
     7
 10
-212.5
 20
-278.0
 30
0.0
 40
11.0
 50
89.999978980875085
 51
270.00002103301938
  0
LINE
  5
E7
  8
DATA
  6
CONTINUOUS
 62
     7
 10
-212.5
 20
-267.0
 30
0.0
 11
-177.6904810515469
 21
-267.0
 31
0.0
  0
LINE
  5
E8
  8
DATA
  6
CONTINUOUS
 62
     7
 10
-212.5
 20
-289.0
 30
0.0
 11
-177.6904810515469
 21
-289.0
 31
0.0
  0
ARC
  5
E9
  8
DATA
  6
CONTINUOUS
 62
     7
 10
-236.00000000000011
 20
-278.0
 30
0.0
 40
61.000000000000192
 50
351.2257103521535
 51
8.7742896478465582
  0
ARC
  5
EA
  8
DATA
  6
CONTINUOUS
 62
     7
 10
-177.6904810515469
 20
-268.99999999999989
 30
0.0
 40
1.9999999999999021
 50
8.774289647843716
 51
90.0
  0
ARC
  5
EB
  8
DATA
  6
CONTINUOUS
 62
     7
 10
-177.6904810515469
 20
-287.0
 30
0.0
 40
1.9999999999998861
 50
270.0
 51
351.22571035215623
  0
LINE
  5
EC
  8
DATA
  6
CONTINUOUS
 62
     7
 10
-166.4411254969543
 20
-263.0
 30
0.0
 11
-129.4914479399817
 21
-263.0
 31
0.0
  0
LINE
  5
ED
  8
DATA
  6
CONTINUOUS
 62
     7
 10
-166.4411254969543
 20
-293.0
 30
0.0
 11
-161.94252292413151
 21
-293.0
 31
0.0
  0
ARC
  5
EE
  8
DATA
  6
CONTINUOUS
 62
     7
 10
-132.5
 20
-278.0
 30
0.0
 40
38.999999999999972
 50
160.52877936550931
 51
199.47122063449069
  0
ARC
  5
EF
  8
DATA
  6
CONTINUOUS
 62
     7
 10
-166.4411254969543
 20
-266.0
 30
0.0
 40
2.9999999999999432
 50
90.0
 51
160.52877936550971
  0
ARC
  5
F0
  8
DATA
  6
CONTINUOUS
 62
     7
 10
-166.4411254969543
 20
-290.00000000000011
 30
0.0
 40
2.9999999999998952
 50
199.47122063449029
 51
270.0
  0
ARC
  5
F1
  8
DATA
  6
CONTINUOUS
 62
     7
 10
-157.51041666666649
 20
-276.75
 30
0.0
 40
33.010416666666607
 50
339.00975749449998
 51
20.990242505499911
  0
ARC
  5
F2
  8
DATA
  6
CONTINUOUS
 62
     7
 10
-161.94252292413151
 20
-290.5
 30
0.0
 40
2.5
 50
270.0
 51
0.0
  0
LINE
  5
F3
  8
DATA
  6
CONTINUOUS
 62
     7
 10
-159.44252292413151
 20
-290.5
 30
0.0
 11
-129.4914479399817
 21
-290.5
 31
0.0
  0
ARC
  5
F4
  8
DATA
  6
CONTINUOUS
 62
     7
 10
-129.4914479399817
 20
-287.50000000000023
 30
0.0
 40
2.999999999999829
 50
270.0
 51
339.00975749450367
  0
ARC
  5
F5
  8
DATA
  6
CONTINUOUS
 62
     7
 10
-129.4914479399817
 20
-265.99999999999977
 30
0.0
 40
2.9999999999999809
 50
20.99024250549633
 51
90.0
  0
LINE
  5
F6
  8
DATA
  6
CONTINUOUS
 62
     7
 10
-166.4411254969543
 20
-263.5
 30
0.0
 11
-129.4914479399817
 21
-263.5
 31
0.0
  0
ARC
  5
F7
  8
DATA
  6
CONTINUOUS
 62
     7
 10
-129.4914479399817
 20
-265.99999999999977
 30
0.0
 40
2.499999999999996
 50
20.990242505495772
 51
90.0
  0
ARC
  5
F8
  8
DATA
  6
CONTINUOUS
 62
     7
 10
-157.51041666666649
 20
-276.75
 30
0.0
 40
32.510416666666629
 50
339.00975749449998
 51
20.990242505499911
  0
ARC
  5
F9
  8
DATA
  6
CONTINUOUS
 62
     7
 10
-129.4914479399817
 20
-287.50000000000023
 30
0.0
 40
2.499999999999829
 50
270.0
 51
339.00975749450328
  0
LINE
  5
FA
  8
DATA
  6
CONTINUOUS
 62
     7
 10
-159.94252292413151
 20
-290.0
 30
0.0
 11
-129.4914479399817
 21
-290.0
 31
0.0
  0
ARC
  5
FB
  8
DATA
  6
CONTINUOUS
 62
     7
 10
-166.4411254969543
 20
-266.0
 30
0.0
 40
2.4999999999999432
 50
90.0
 51
160.5287793655105
  0
ARC
  5
FC
  8
DATA
  6
CONTINUOUS
 62
     7
 10
-132.5
 20
-278.0
 30
0.0
 40
38.5
 50
160.52877936550931
 51
199.47122063449061
  0
ARC
  5
FD
  8
DATA
  6
CONTINUOUS
 62
     7
 10
-166.4411254969543
 20
-290.00000000000011
 30
0.0
 40
2.4999999999999201
 50
199.4712206344895
 51
270.0
  0
LINE
  5
FE
  8
DATA
  6
CONTINUOUS
 62
     7
 10
-166.4411254969543
 20
-292.5
 30
0.0
 11
-161.94252292413151
 21
-292.5
 31
0.0
  0
ARC
  5
FF
  8
DATA
  6
CONTINUOUS
 62
     7
 10
-161.94252292413151
 20
-290.5
 30
0.0
 40
2.0
 50
270.0
 51
0.0
  0
LINE
  5
100
  8
DATA
  6
CONTINUOUS
 62
     7
 10
-159.94252292413151
 20
-290.5
 30
0.0
 11
-159.94252292413151
 21
-290.0
 31
0.0
  0
ARC
  5
101
  8
DATA
  6
CONTINUOUS
 62
     7
 10
-152.99999999999969
 20
-278.0
 30
0.0
 40
1.0
 50
90.0
 51
270.0
  0
ARC
  5
102
  8
DATA
  6
CONTINUOUS
 62
     7
 10
-151.99999999999969
 20
-278.00000000000011
 30
0.0
 40
1.0
 50
270.0
 51
90.0
  0
LINE
  5
103
  8
DATA
  6
CONTINUOUS
 62
     7
 10
-152.99999999999969
 20
-277.0
 30
0.0
 11
-151.99999999999969
 21
-277.0
 31
0.0
  0
LINE
  5
104
  8
DATA
  6
CONTINUOUS
 62
     7
 10
-152.99999999999969
 20
-279.0
 30
0.0
 11
-151.99999999999969
 21
-279.0
 31
0.0
  0
ARC
  5
105
  8
DATA
  6
CONTINUOUS
 62
     7
 10
-159.99999999999969
 20
-278.0
 30
0.0
 40
1.0
 50
90.0
 51
270.0
  0
ARC
  5
106
  8
DATA
  6
CONTINUOUS
 62
     7
 10
-158.99999999999969
 20
-278.00000000000011
 30
0.0
 40
1.0
 50
270.0
 51
90.0
  0
LINE
  5
107
  8
DATA
  6
CONTINUOUS
 62
     7
 10
-159.99999999999969
 20
-277.0
 30
0.0
 11
-158.99999999999969
 21
-277.0
 31
0.0
  0
LINE
  5
108
  8
DATA
  6
CONTINUOUS
 62
     7
 10
-159.99999999999969
 20
-279.0
 30
0.0
 11
-158.99999999999969
 21
-279.0
 31
0.0
  0
ARC
  5
109
  8
DATA
  6
CONTINUOUS
 62
     7
 10
-145.99999999999969
 20
-278.0
 30
0.0
 40
1.0
 50
90.0
 51
270.0
  0
ARC
  5
10A
  8
DATA
  6
CONTINUOUS
 62
     7
 10
-144.99999999999969
 20
-278.00000000000011
 30
0.0
 40
1.0
 50
270.0
 51
90.0
  0
LINE
  5
10B
  8
DATA
  6
CONTINUOUS
 62
     7
 10
-145.99999999999969
 20
-277.0
 30
0.0
 11
-144.99999999999969
 21
-277.0
 31
0.0
  0
LINE
  5
10C
  8
DATA
  6
CONTINUOUS
 62
     7
 10
-145.99999999999969
 20
-279.0
 30
0.0
 11
-144.99999999999969
 21
-279.0
 31
0.0
  0
ARC
  5
10D
  8
DATA
  6
CONTINUOUS
 62
     7
 10
-138.99999999999969
 20
-278.0
 30
0.0
 40
1.0
 50
90.0
 51
270.0
  0
ARC
  5
10E
  8
DATA
  6
CONTINUOUS
 62
     7
 10
-137.99999999999969
 20
-278.00000000000011
 30
0.0
 40
1.0
 50
270.0
 51
90.0
  0
LINE
  5
10F
  8
DATA
  6
CONTINUOUS
 62
     7
 10
-138.99999999999969
 20
-277.0
 30
0.0
 11
-137.99999999999969
 21
-277.0
 31
0.0
  0
LINE
  5
110
  8
DATA
  6
CONTINUOUS
 62
     7
 10
-138.99999999999969
 20
-279.0
 30
0.0
 11
-137.99999999999969
 21
-279.0
 31
0.0
  0
ARC
  5
111
  8
DATA
  6
CONTINUOUS
 62
     7
 10
-152.99999999999969
 20
-273.0
 30
0.0
 40
1.0
 50
90.0
 51
270.0
  0
ARC
  5
112
  8
DATA
  6
CONTINUOUS
 62
     7
 10
-151.99999999999969
 20
-273.0
 30
0.0
 40
1.0
 50
270.0
 51
90.0
  0
LINE
  5
113
  8
DATA
  6
CONTINUOUS
 62
     7
 10
-152.99999999999969
 20
-272.0
 30
0.0
 11
-151.99999999999969
 21
-272.0
 31
0.0
  0
LINE
  5
114
  8
DATA
  6
CONTINUOUS
 62
     7
 10
-152.99999999999969
 20
-274.0
 30
0.0
 11
-151.99999999999969
 21
-274.0
 31
0.0
  0
ARC
  5
115
  8
DATA
  6
CONTINUOUS
 62
     7
 10
-159.99999999999969
 20
-273.0
 30
0.0
 40
1.0
 50
90.0
 51
270.0
  0
ARC
  5
116
  8
DATA
  6
CONTINUOUS
 62
     7
 10
-158.99999999999969
 20
-273.0
 30
0.0
 40
1.0
 50
270.0
 51
90.0
  0
LINE
  5
117
  8
DATA
  6
CONTINUOUS
 62
     7
 10
-159.99999999999969
 20
-272.0
 30
0.0
 11
-158.99999999999969
 21
-272.0
 31
0.0
  0
LINE
  5
118
  8
DATA
  6
CONTINUOUS
 62
     7
 10
-159.99999999999969
 20
-274.0
 30
0.0
 11
-158.99999999999969
 21
-274.0
 31
0.0
  0
ARC
  5
119
  8
DATA
  6
CONTINUOUS
 62
     7
 10
-145.99999999999969
 20
-273.0
 30
0.0
 40
1.0
 50
90.0
 51
270.0
  0
ARC
  5
11A
  8
DATA
  6
CONTINUOUS
 62
     7
 10
-144.99999999999969
 20
-273.0
 30
0.0
 40
1.0
 50
270.0
 51
90.0
  0
LINE
  5
11B
  8
DATA
  6
CONTINUOUS
 62
     7
 10
-145.99999999999969
 20
-272.0
 30
0.0
 11
-144.99999999999969
 21
-272.0
 31
0.0
  0
LINE
  5
11C
  8
DATA
  6
CONTINUOUS
 62
     7
 10
-145.99999999999969
 20
-274.0
 30
0.0
 11
-144.99999999999969
 21
-274.0
 31
0.0
  0
ARC
  5
11D
  8
DATA
  6
CONTINUOUS
 62
     7
 10
-138.99999999999969
 20
-273.0
 30
0.0
 40
1.0
 50
90.0
 51
270.0
  0
ARC
  5
11E
  8
DATA
  6
CONTINUOUS
 62
     7
 10
-137.99999999999969
 20
-273.0
 30
0.0
 40
1.0
 50
270.0
 51
90.0
  0
LINE
  5
11F
  8
DATA
  6
CONTINUOUS
 62
     7
 10
-138.99999999999969
 20
-272.0
 30
0.0
 11
-137.99999999999969
 21
-272.0
 31
0.0
  0
LINE
  5
120
  8
DATA
  6
CONTINUOUS
 62
     7
 10
-138.99999999999969
 20
-274.0
 30
0.0
 11
-137.99999999999969
 21
-274.0
 31
0.0
  0
ARC
  5
121
  8
DATA
  6
CONTINUOUS
 62
     7
 10
-152.99999999999969
 20
-287.0
 30
0.0
 40
1.0
 50
90.0
 51
270.0
  0
ARC
  5
122
  8
DATA
  6
CONTINUOUS
 62
     7
 10
-151.99999999999969
 20
-287.0
 30
0.0
 40
1.0
 50
270.0
 51
90.0
  0
LINE
  5
123
  8
DATA
  6
CONTINUOUS
 62
     7
 10
-152.99999999999969
 20
-286.0
 30
0.0
 11
-151.99999999999969
 21
-286.0
 31
0.0
  0
LINE
  5
124
  8
DATA
  6
CONTINUOUS
 62
     7
 10
-152.99999999999969
 20
-288.0
 30
0.0
 11
-151.99999999999969
 21
-288.0
 31
0.0
  0
ARC
  5
125
  8
DATA
  6
CONTINUOUS
 62
     7
 10
-159.99999999999969
 20
-287.0
 30
0.0
 40
1.0
 50
90.0
 51
270.0
  0
ARC
  5
126
  8
DATA
  6
CONTINUOUS
 62
     7
 10
-158.99999999999969
 20
-287.0
 30
0.0
 40
1.0
 50
270.0
 51
90.0
  0
LINE
  5
127
  8
DATA
  6
CONTINUOUS
 62
     7
 10
-159.99999999999969
 20
-286.0
 30
0.0
 11
-158.99999999999969
 21
-286.0
 31
0.0
  0
LINE
  5
128
  8
DATA
  6
CONTINUOUS
 62
     7
 10
-159.99999999999969
 20
-288.0
 30
0.0
 11
-158.99999999999969
 21
-288.0
 31
0.0
  0
ARC
  5
129
  8
DATA
  6
CONTINUOUS
 62
     7
 10
-145.99999999999969
 20
-287.0
 30
0.0
 40
1.0
 50
90.0
 51
270.0
  0
ARC
  5
12A
  8
DATA
  6
CONTINUOUS
 62
     7
 10
-144.99999999999969
 20
-287.0
 30
0.0
 40
1.0
 50
270.0
 51
90.0
  0
LINE
  5
12B
  8
DATA
  6
CONTINUOUS
 62
     7
 10
-145.99999999999969
 20
-286.0
 30
0.0
 11
-144.99999999999969
 21
-286.0
 31
0.0
  0
LINE
  5
12C
  8
DATA
  6
CONTINUOUS
 62
     7
 10
-145.99999999999969
 20
-288.0
 30
0.0
 11
-144.99999999999969
 21
-288.0
 31
0.0
  0
ARC
  5
12D
  8
DATA
  6
CONTINUOUS
 62
     7
 10
-138.99999999999969
 20
-287.0
 30
0.0
 40
1.0
 50
90.0
 51
270.0
  0
ARC
  5
12E
  8
DATA
  6
CONTINUOUS
 62
     7
 10
-137.99999999999969
 20
-287.0
 30
0.0
 40
1.0
 50
270.0
 51
90.0
  0
LINE
  5
12F
  8
DATA
  6
CONTINUOUS
 62
     7
 10
-138.99999999999969
 20
-286.0
 30
0.0
 11
-137.99999999999969
 21
-286.0
 31
0.0
  0
LINE
  5
130
  8
DATA
  6
CONTINUOUS
 62
     7
 10
-138.99999999999969
 20
-288.0
 30
0.0
 11
-137.99999999999969
 21
-288.0
 31
0.0
  0
CIRCLE
  5
131
  8
DATA
  6
CONTINUOUS
 62
     7
 10
-166.0
 20
-267.0
 30
0.0
 40
0.7500000000000398
  0
CIRCLE
  5
132
  8
DATA
  6
CONTINUOUS
 62
     7
 10
-159.0
 20
-267.0
 30
0.0
 40
0.7500000000000398
  0
CIRCLE
  5
133
  8
DATA
  6
CONTINUOUS
 62
     7
 10
-152.0
 20
-267.0
 30
0.0
 40
0.7500000000000398
  0
TEXT
  5
134
  8
DATA
 62
     7
 10
-165.00000006953869
 20
-267.89999999999998
 30
0.0
 40
1.923828125
  1
IN
 41
0.7
 11
-165.00000006953869
 21
-265.97617187499998
 31
0.0
 73
     3
  0
TEXT
  5
135
  8
DATA
 62
     7
 10
-158.00000006953869
 20
-267.89999999999998
 30
0.0
 40
1.923828125
  1
OUT
 41
0.7
 11
-158.00000006953869
 21
-265.97617187499998
 31
0.0
 73
     3
  0
TEXT
  5
136
  8
DATA
 62
     7
 10
-151.00000006953869
 20
-267.89999999999998
 30
0.0
 40
1.923828125
  1
DIG
 41
0.7
 11
-151.00000006953869
 21
-265.97617187499998
 31
0.0
 73
     3
  0
TEXT
  5
137
  8
DATA
 62
     7
 10
-136.5
 20
-273.89999999999998
 30
0.0
 40
1.923828125
  1
Clip
 41
0.7
 11
-136.5
 21
-271.97617187499998
 31
0.0
 73
     3
  0
TEXT
  5
138
  8
DATA
 62
     7
 10
-136.5
 20
-278.89999999999998
 30
0.0
 40
1.923828125
  1
Signal
 41
0.7
 11
-136.5
 21
-276.97617187499998
 31
0.0
 73
     3
  0
TEXT
  5
139
  8
DATA
 62
     7
 10
-136.5
 20
-287.89999999999998
 30
0.0
 40
1.923828125
  1
Sync/48V
 41
0.7
 11
-136.5
 21
-285.97617187499998
 31
0.0
 73
     3
  0
TEXT
  5
13A
  8
DATA
 62
     7
 10
-160.5
 20
-283.94
 30
0.0
 40
3.078125
  1
1
 41
0.7
 11
-160.5
 21
-280.861875
 31
0.0
 73
     3
  0
TEXT
  5
13B
  8
DATA
 62
     7
 10
-153.5
 20
-283.94
 30
0.0
 40
3.078125
  1
2
 41
0.7
 11
-153.5
 21
-280.861875
 31
0.0
 73
     3
  0
TEXT
  5
13C
  8
DATA
 62
     7
 10
-146.5
 20
-283.94
 30
0.0
 40
3.078125
  1
3
 41
0.7
 11
-146.5
 21
-280.861875
 31
0.0
 73
     3
  0
TEXT
  5
13D
  8
DATA
 62
     7
 10
-139.5
 20
-283.94
 30
0.0
 40
3.078125
  1
4
 41
0.7
 11
-139.5
 21
-280.861875
 31
0.0
 73
     3
  0
TEXT
  5
13E
  8
DATA
 62
     7
 10
-166.0
 20
-292.06777777777768
 30
0.0
 40
5.4294704861111107
  1
A
 41
0.7
 11
-166.0
 21
-286.63830729166659
 31
0.0
 73
     3
  0
LINE
  5
13F
  8
DATA
  6
CONTINUOUS
 62
     7
 10
-115.4411254969543
 20
-263.0
 30
0.0
 11
-78.491447939981768
 21
-263.0
 31
0.0
  0
LINE
  5
140
  8
DATA
  6
CONTINUOUS
 62
     7
 10
-115.4411254969543
 20
-293.0
 30
0.0
 11
-110.9425229241315
 21
-293.0
 31
0.0
  0
ARC
  5
141
  8
DATA
  6
CONTINUOUS
 62
     7
 10
-81.500000000000014
 20
-278.0
 30
0.0
 40
38.999999999999972
 50
160.52877936550931
 51
199.47122063449069
  0
ARC
  5
142
  8
DATA
  6
CONTINUOUS
 62
     7
 10
-115.4411254969543
 20
-266.0
 30
0.0
 40
2.9999999999999432
 50
90.0
 51
160.52877936550971
  0
ARC
  5
143
  8
DATA
  6
CONTINUOUS
 62
     7
 10
-115.4411254969543
 20
-290.00000000000011
 30
0.0
 40
2.9999999999998952
 50
199.47122063449029
 51
270.0
  0
ARC
  5
144
  8
DATA
  6
CONTINUOUS
 62
     7
 10
-106.5104166666665
 20
-276.75
 30
0.0
 40
33.010416666666607
 50
339.00975749449998
 51
20.990242505499911
  0
ARC
  5
145
  8
DATA
  6
CONTINUOUS
 62
     7
 10
-110.9425229241315
 20
-290.5
 30
0.0
 40
2.5
 50
270.0
 51
0.0
  0
LINE
  5
146
  8
DATA
  6
CONTINUOUS
 62
     7
 10
-108.4425229241315
 20
-290.5
 30
0.0
 11
-78.491447939981768
 21
-290.5
 31
0.0
  0
ARC
  5
147
  8
DATA
  6
CONTINUOUS
 62
     7
 10
-78.491447939981768
 20
-287.50000000000023
 30
0.0
 40
2.999999999999829
 50
270.0
 51
339.00975749450367
  0
ARC
  5
148
  8
DATA
  6
CONTINUOUS
 62
     7
 10
-78.491447939981768
 20
-265.99999999999977
 30
0.0
 40
2.9999999999999809
 50
20.99024250549633
 51
90.0
  0
LINE
  5
149
  8
DATA
  6
CONTINUOUS
 62
     7
 10
-115.4411254969543
 20
-263.5
 30
0.0
 11
-78.491447939981768
 21
-263.5
 31
0.0
  0
ARC
  5
14A
  8
DATA
  6
CONTINUOUS
 62
     7
 10
-78.491447939981768
 20
-265.99999999999977
 30
0.0
 40
2.499999999999996
 50
20.990242505495772
 51
90.0
  0
ARC
  5
14B
  8
DATA
  6
CONTINUOUS
 62
     7
 10
-106.5104166666665
 20
-276.75
 30
0.0
 40
32.510416666666629
 50
339.00975749449998
 51
20.990242505499911
  0
ARC
  5
14C
  8
DATA
  6
CONTINUOUS
 62
     7
 10
-78.491447939981768
 20
-287.50000000000023
 30
0.0
 40
2.499999999999829
 50
270.0
 51
339.00975749450328
  0
LINE
  5
14D
  8
DATA
  6
CONTINUOUS
 62
     7
 10
-108.9425229241315
 20
-290.0
 30
0.0
 11
-78.491447939981768
 21
-290.0
 31
0.0
  0
ARC
  5
14E
  8
DATA
  6
CONTINUOUS
 62
     7
 10
-115.4411254969543
 20
-266.0
 30
0.0
 40
2.4999999999999432
 50
90.0
 51
160.5287793655105
  0
ARC
  5
14F
  8
DATA
  6
CONTINUOUS
 62
     7
 10
-81.500000000000014
 20
-278.0
 30
0.0
 40
38.5
 50
160.52877936550931
 51
199.47122063449061
  0
ARC
  5
150
  8
DATA
  6
CONTINUOUS
 62
     7
 10
-115.4411254969543
 20
-290.00000000000011
 30
0.0
 40
2.4999999999999201
 50
199.4712206344895
 51
270.0
  0
LINE
  5
151
  8
DATA
  6
CONTINUOUS
 62
     7
 10
-115.4411254969543
 20
-292.5
 30
0.0
 11
-110.9425229241315
 21
-292.5
 31
0.0
  0
ARC
  5
152
  8
DATA
  6
CONTINUOUS
 62
     7
 10
-110.9425229241315
 20
-290.5
 30
0.0
 40
2.0
 50
270.0
 51
0.0
  0
LINE
  5
153
  8
DATA
  6
CONTINUOUS
 62
     7
 10
-108.9425229241315
 20
-290.5
 30
0.0
 11
-108.9425229241315
 21
-290.0
 31
0.0
  0
ARC
  5
154
  8
DATA
  6
CONTINUOUS
 62
     7
 10
-101.9999999999998
 20
-278.0
 30
0.0
 40
1.0
 50
90.0
 51
270.0
  0
ARC
  5
155
  8
DATA
  6
CONTINUOUS
 62
     7
 10
-100.9999999999998
 20
-278.00000000000011
 30
0.0
 40
1.0
 50
270.0
 51
90.0
  0
LINE
  5
156
  8
DATA
  6
CONTINUOUS
 62
     7
 10
-101.9999999999998
 20
-277.0
 30
0.0
 11
-100.9999999999998
 21
-277.0
 31
0.0
  0
LINE
  5
157
  8
DATA
  6
CONTINUOUS
 62
     7
 10
-101.9999999999998
 20
-279.0
 30
0.0
 11
-100.9999999999998
 21
-279.0
 31
0.0
  0
ARC
  5
158
  8
DATA
  6
CONTINUOUS
 62
     7
 10
-108.9999999999998
 20
-278.0
 30
0.0
 40
1.0
 50
90.0
 51
270.0
  0
ARC
  5
159
  8
DATA
  6
CONTINUOUS
 62
     7
 10
-107.9999999999998
 20
-278.00000000000011
 30
0.0
 40
1.0
 50
270.0
 51
90.0
  0
LINE
  5
15A
  8
DATA
  6
CONTINUOUS
 62
     7
 10
-108.9999999999998
 20
-277.0
 30
0.0
 11
-107.9999999999998
 21
-277.0
 31
0.0
  0
LINE
  5
15B
  8
DATA
  6
CONTINUOUS
 62
     7
 10
-108.9999999999998
 20
-279.0
 30
0.0
 11
-107.9999999999998
 21
-279.0
 31
0.0
  0
ARC
  5
15C
  8
DATA
  6
CONTINUOUS
 62
     7
 10
-94.999999999999787
 20
-278.0
 30
0.0
 40
1.0
 50
90.0
 51
270.0
  0
ARC
  5
15D
  8
DATA
  6
CONTINUOUS
 62
     7
 10
-93.999999999999787
 20
-278.00000000000011
 30
0.0
 40
1.0
 50
270.0
 51
90.0
  0
LINE
  5
15E
  8
DATA
  6
CONTINUOUS
 62
     7
 10
-94.999999999999787
 20
-277.0
 30
0.0
 11
-93.999999999999787
 21
-277.0
 31
0.0
  0
LINE
  5
15F
  8
DATA
  6
CONTINUOUS
 62
     7
 10
-94.999999999999787
 20
-279.0
 30
0.0
 11
-93.999999999999787
 21
-279.0
 31
0.0
  0
ARC
  5
160
  8
DATA
  6
CONTINUOUS
 62
     7
 10
-87.999999999999787
 20
-278.0
 30
0.0
 40
1.0
 50
90.0
 51
270.0
  0
ARC
  5
161
  8
DATA
  6
CONTINUOUS
 62
     7
 10
-86.999999999999787
 20
-278.00000000000011
 30
0.0
 40
1.0
 50
270.0
 51
90.0
  0
LINE
  5
162
  8
DATA
  6
CONTINUOUS
 62
     7
 10
-87.999999999999787
 20
-277.0
 30
0.0
 11
-86.999999999999787
 21
-277.0
 31
0.0
  0
LINE
  5
163
  8
DATA
  6
CONTINUOUS
 62
     7
 10
-87.999999999999787
 20
-279.0
 30
0.0
 11
-86.999999999999787
 21
-279.0
 31
0.0
  0
ARC
  5
164
  8
DATA
  6
CONTINUOUS
 62
     7
 10
-101.9999999999998
 20
-273.0
 30
0.0
 40
1.0
 50
90.0
 51
270.0
  0
ARC
  5
165
  8
DATA
  6
CONTINUOUS
 62
     7
 10
-100.9999999999998
 20
-273.0
 30
0.0
 40
1.0
 50
270.0
 51
90.0
  0
LINE
  5
166
  8
DATA
  6
CONTINUOUS
 62
     7
 10
-101.9999999999998
 20
-272.0
 30
0.0
 11
-100.9999999999998
 21
-272.0
 31
0.0
  0
LINE
  5
167
  8
DATA
  6
CONTINUOUS
 62
     7
 10
-101.9999999999998
 20
-274.0
 30
0.0
 11
-100.9999999999998
 21
-274.0
 31
0.0
  0
ARC
  5
168
  8
DATA
  6
CONTINUOUS
 62
     7
 10
-108.9999999999998
 20
-273.0
 30
0.0
 40
1.0
 50
90.0
 51
270.0
  0
ARC
  5
169
  8
DATA
  6
CONTINUOUS
 62
     7
 10
-107.9999999999998
 20
-273.0
 30
0.0
 40
1.0
 50
270.0
 51
90.0
  0
LINE
  5
16A
  8
DATA
  6
CONTINUOUS
 62
     7
 10
-108.9999999999998
 20
-272.0
 30
0.0
 11
-107.9999999999998
 21
-272.0
 31
0.0
  0
LINE
  5
16B
  8
DATA
  6
CONTINUOUS
 62
     7
 10
-108.9999999999998
 20
-274.0
 30
0.0
 11
-107.9999999999998
 21
-274.0
 31
0.0
  0
ARC
  5
16C
  8
DATA
  6
CONTINUOUS
 62
     7
 10
-94.999999999999787
 20
-273.0
 30
0.0
 40
1.0
 50
90.0
 51
270.0
  0
ARC
  5
16D
  8
DATA
  6
CONTINUOUS
 62
     7
 10
-93.999999999999787
 20
-273.0
 30
0.0
 40
1.0
 50
270.0
 51
90.0
  0
LINE
  5
16E
  8
DATA
  6
CONTINUOUS
 62
     7
 10
-94.999999999999787
 20
-272.0
 30
0.0
 11
-93.999999999999787
 21
-272.0
 31
0.0
  0
LINE
  5
16F
  8
DATA
  6
CONTINUOUS
 62
     7
 10
-94.999999999999787
 20
-274.0
 30
0.0
 11
-93.999999999999787
 21
-274.0
 31
0.0
  0
ARC
  5
170
  8
DATA
  6
CONTINUOUS
 62
     7
 10
-87.999999999999787
 20
-273.0
 30
0.0
 40
1.0
 50
90.0
 51
270.0
  0
ARC
  5
171
  8
DATA
  6
CONTINUOUS
 62
     7
 10
-86.999999999999787
 20
-273.0
 30
0.0
 40
1.0
 50
270.0
 51
90.0
  0
LINE
  5
172
  8
DATA
  6
CONTINUOUS
 62
     7
 10
-87.999999999999787
 20
-272.0
 30
0.0
 11
-86.999999999999787
 21
-272.0
 31
0.0
  0
LINE
  5
173
  8
DATA
  6
CONTINUOUS
 62
     7
 10
-87.999999999999787
 20
-274.0
 30
0.0
 11
-86.999999999999787
 21
-274.0
 31
0.0
  0
ARC
  5
174
  8
DATA
  6
CONTINUOUS
 62
     7
 10
-101.9999999999998
 20
-287.0
 30
0.0
 40
1.0
 50
90.0
 51
270.0
  0
ARC
  5
175
  8
DATA
  6
CONTINUOUS
 62
     7
 10
-100.9999999999998
 20
-287.0
 30
0.0
 40
1.0
 50
270.0
 51
90.0
  0
LINE
  5
176
  8
DATA
  6
CONTINUOUS
 62
     7
 10
-101.9999999999998
 20
-286.0
 30
0.0
 11
-100.9999999999998
 21
-286.0
 31
0.0
  0
LINE
  5
177
  8
DATA
  6
CONTINUOUS
 62
     7
 10
-101.9999999999998
 20
-288.0
 30
0.0
 11
-100.9999999999998
 21
-288.0
 31
0.0
  0
ARC
  5
178
  8
DATA
  6
CONTINUOUS
 62
     7
 10
-108.9999999999998
 20
-287.0
 30
0.0
 40
1.0
 50
90.0
 51
270.0
  0
ARC
  5
179
  8
DATA
  6
CONTINUOUS
 62
     7
 10
-107.9999999999998
 20
-287.0
 30
0.0
 40
1.0
 50
270.0
 51
90.0
  0
LINE
  5
17A
  8
DATA
  6
CONTINUOUS
 62
     7
 10
-108.9999999999998
 20
-286.0
 30
0.0
 11
-107.9999999999998
 21
-286.0
 31
0.0
  0
LINE
  5
17B
  8
DATA
  6
CONTINUOUS
 62
     7
 10
-108.9999999999998
 20
-288.0
 30
0.0
 11
-107.9999999999998
 21
-288.0
 31
0.0
  0
ARC
  5
17C
  8
DATA
  6
CONTINUOUS
 62
     7
 10
-94.999999999999787
 20
-287.0
 30
0.0
 40
1.0
 50
90.0
 51
270.0
  0
ARC
  5
17D
  8
DATA
  6
CONTINUOUS
 62
     7
 10
-93.999999999999787
 20
-287.0
 30
0.0
 40
1.0
 50
270.0
 51
90.0
  0
LINE
  5
17E
  8
DATA
  6
CONTINUOUS
 62
     7
 10
-94.999999999999787
 20
-286.0
 30
0.0
 11
-93.999999999999787
 21
-286.0
 31
0.0
  0
LINE
  5
17F
  8
DATA
  6
CONTINUOUS
 62
     7
 10
-94.999999999999787
 20
-288.0
 30
0.0
 11
-93.999999999999787
 21
-288.0
 31
0.0
  0
ARC
  5
180
  8
DATA
  6
CONTINUOUS
 62
     7
 10
-87.999999999999787
 20
-287.0
 30
0.0
 40
1.0
 50
90.0
 51
270.0
  0
ARC
  5
181
  8
DATA
  6
CONTINUOUS
 62
     7
 10
-86.999999999999787
 20
-287.0
 30
0.0
 40
1.0
 50
270.0
 51
90.0
  0
LINE
  5
182
  8
DATA
  6
CONTINUOUS
 62
     7
 10
-87.999999999999787
 20
-286.0
 30
0.0
 11
-86.999999999999787
 21
-286.0
 31
0.0
  0
LINE
  5
183
  8
DATA
  6
CONTINUOUS
 62
     7
 10
-87.999999999999787
 20
-288.0
 30
0.0
 11
-86.999999999999787
 21
-288.0
 31
0.0
  0
CIRCLE
  5
184
  8
DATA
  6
CONTINUOUS
 62
     7
 10
-115.0
 20
-267.0
 30
0.0
 40
0.7500000000000398
  0
CIRCLE
  5
185
  8
DATA
  6
CONTINUOUS
 62
     7
 10
-108.0
 20
-267.0
 30
0.0
 40
0.7500000000000398
  0
CIRCLE
  5
186
  8
DATA
  6
CONTINUOUS
 62
     7
 10
-101.0
 20
-267.0
 30
0.0
 40
0.7500000000000398
  0
TEXT
  5
187
  8
DATA
 62
     7
 10
-114.0000000695387
 20
-267.89999999999998
 30
0.0
 40
1.923828125
  1
IN
 41
0.7
 11
-114.0000000695387
 21
-265.97617187499998
 31
0.0
 73
     3
  0
TEXT
  5
188
  8
DATA
 62
     7
 10
-107.0000000695387
 20
-267.89999999999998
 30
0.0
 40
1.923828125
  1
OUT
 41
0.7
 11
-107.0000000695387
 21
-265.97617187499998
 31
0.0
 73
     3
  0
TEXT
  5
189
  8
DATA
 62
     7
 10
-100.0000000695387
 20
-267.89999999999998
 30
0.0
 40
1.923828125
  1
DIG
 41
0.7
 11
-100.0000000695387
 21
-265.97617187499998
 31
0.0
 73
     3
  0
TEXT
  5
18A
  8
DATA
 62
     7
 10
-85.500000000000014
 20
-273.89999999999998
 30
0.0
 40
1.923828125
  1
Clip
 41
0.7
 11
-85.500000000000014
 21
-271.97617187499998
 31
0.0
 73
     3
  0
TEXT
  5
18B
  8
DATA
 62
     7
 10
-85.500000000000014
 20
-278.89999999999998
 30
0.0
 40
1.923828125
  1
Signal
 41
0.7
 11
-85.500000000000014
 21
-276.97617187499998
 31
0.0
 73
     3
  0
TEXT
  5
18C
  8
DATA
 62
     7
 10
-85.500000000000014
 20
-287.89999999999998
 30
0.0
 40
1.923828125
  1
Sync/48V
 41
0.7
 11
-85.500000000000014
 21
-285.97617187499998
 31
0.0
 73
     3
  0
TEXT
  5
18D
  8
DATA
 62
     7
 10
-109.5
 20
-283.94
 30
0.0
 40
3.078125
  1
1
 41
0.7
 11
-109.5
 21
-280.861875
 31
0.0
 73
     3
  0
TEXT
  5
18E
  8
DATA
 62
     7
 10
-102.5
 20
-283.94
 30
0.0
 40
3.078125
  1
2
 41
0.7
 11
-102.5
 21
-280.861875
 31
0.0
 73
     3
  0
TEXT
  5
18F
  8
DATA
 62
     7
 10
-95.5
 20
-283.94
 30
0.0
 40
3.078125
  1
3
 41
0.7
 11
-95.5
 21
-280.861875
 31
0.0
 73
     3
  0
TEXT
  5
190
  8
DATA
 62
     7
 10
-88.500000000000014
 20
-283.94
 30
0.0
 40
3.078125
  1
4
 41
0.7
 11
-88.500000000000014
 21
-280.861875
 31
0.0
 73
     3
  0
TEXT
  5
191
  8
DATA
 62
     7
 10
-115.0
 20
-292.06777777777768
 30
0.0
 40
5.4294704861111107
  1
B
 41
0.7
 11
-115.0
 21
-286.63830729166659
 31
0.0
 73
     3
  0
LINE
  5
192
  8
DATA
  6
CONTINUOUS
 62
     7
 10
-64.441125496954342
 20
-263.0
 30
0.0
 11
-27.491447939981771
 21
-263.0
 31
0.0
  0
LINE
  5
193
  8
DATA
  6
CONTINUOUS
 62
     7
 10
-64.441125496954342
 20
-293.0
 30
0.0
 11
-59.942522924131502
 21
-293.0
 31
0.0
  0
ARC
  5
194
  8
DATA
  6
CONTINUOUS
 62
     7
 10
-30.500000000000011
 20
-278.0
 30
0.0
 40
38.999999999999972
 50
160.52877936550931
 51
199.47122063449069
  0
ARC
  5
195
  8
DATA
  6
CONTINUOUS
 62
     7
 10
-64.441125496954342
 20
-266.0
 30
0.0
 40
2.9999999999999432
 50
90.0
 51
160.52877936550971
  0
ARC
  5
196
  8
DATA
  6
CONTINUOUS
 62
     7
 10
-64.441125496954342
 20
-290.00000000000011
 30
0.0
 40
2.9999999999998952
 50
199.47122063449029
 51
270.0
  0
ARC
  5
197
  8
DATA
  6
CONTINUOUS
 62
     7
 10
-55.510416666666529
 20
-276.75
 30
0.0
 40
33.010416666666607
 50
339.00975749449998
 51
20.990242505499911
  0
ARC
  5
198
  8
DATA
  6
CONTINUOUS
 62
     7
 10
-59.942522924131502
 20
-290.5
 30
0.0
 40
2.5
 50
270.0
 51
0.0
  0
LINE
  5
199
  8
DATA
  6
CONTINUOUS
 62
     7
 10
-57.442522924131502
 20
-290.5
 30
0.0
 11
-27.491447939981771
 21
-290.5
 31
0.0
  0
ARC
  5
19A
  8
DATA
  6
CONTINUOUS
 62
     7
 10
-27.491447939981771
 20
-287.50000000000023
 30
0.0
 40
2.999999999999829
 50
270.0
 51
339.00975749450367
  0
ARC
  5
19B
  8
DATA
  6
CONTINUOUS
 62
     7
 10
-27.491447939981771
 20
-265.99999999999977
 30
0.0
 40
2.9999999999999809
 50
20.99024250549633
 51
90.0
  0
LINE
  5
19C
  8
DATA
  6
CONTINUOUS
 62
     7
 10
-64.441125496954342
 20
-263.5
 30
0.0
 11
-27.491447939981771
 21
-263.5
 31
0.0
  0
ARC
  5
19D
  8
DATA
  6
CONTINUOUS
 62
     7
 10
-27.491447939981771
 20
-265.99999999999977
 30
0.0
 40
2.499999999999996
 50
20.990242505495772
 51
90.0
  0
ARC
  5
19E
  8
DATA
  6
CONTINUOUS
 62
     7
 10
-55.510416666666529
 20
-276.75
 30
0.0
 40
32.510416666666629
 50
339.00975749449998
 51
20.990242505499911
  0
ARC
  5
19F
  8
DATA
  6
CONTINUOUS
 62
     7
 10
-27.491447939981771
 20
-287.50000000000023
 30
0.0
 40
2.499999999999829
 50
270.0
 51
339.00975749450328
  0
LINE
  5
1A0
  8
DATA
  6
CONTINUOUS
 62
     7
 10
-57.942522924131488
 20
-290.0
 30
0.0
 11
-27.491447939981771
 21
-290.0
 31
0.0
  0
ARC
  5
1A1
  8
DATA
  6
CONTINUOUS
 62
     7
 10
-64.441125496954342
 20
-266.0
 30
0.0
 40
2.4999999999999432
 50
90.0
 51
160.5287793655105
  0
ARC
  5
1A2
  8
DATA
  6
CONTINUOUS
 62
     7
 10
-30.500000000000011
 20
-278.0
 30
0.0
 40
38.5
 50
160.52877936550931
 51
199.47122063449061
  0
ARC
  5
1A3
  8
DATA
  6
CONTINUOUS
 62
     7
 10
-64.441125496954342
 20
-290.00000000000011
 30
0.0
 40
2.4999999999999201
 50
199.4712206344895
 51
270.0
  0
LINE
  5
1A4
  8
DATA
  6
CONTINUOUS
 62
     7
 10
-64.441125496954342
 20
-292.5
 30
0.0
 11
-59.942522924131502
 21
-292.5
 31
0.0
  0
ARC
  5
1A5
  8
DATA
  6
CONTINUOUS
 62
     7
 10
-59.942522924131502
 20
-290.5
 30
0.0
 40
2.0
 50
270.0
 51
0.0
  0
LINE
  5
1A6
  8
DATA
  6
CONTINUOUS
 62
     7
 10
-57.942522924131488
 20
-290.5
 30
0.0
 11
-57.942522924131488
 21
-290.0
 31
0.0
  0
ARC
  5
1A7
  8
DATA
  6
CONTINUOUS
 62
     7
 10
-50.99999999999978
 20
-278.0
 30
0.0
 40
1.0
 50
90.0
 51
270.0
  0
ARC
  5
1A8
  8
DATA
  6
CONTINUOUS
 62
     7
 10
-49.99999999999978
 20
-278.00000000000011
 30
0.0
 40
1.0
 50
270.0
 51
90.0
  0
LINE
  5
1A9
  8
DATA
  6
CONTINUOUS
 62
     7
 10
-50.99999999999978
 20
-277.0
 30
0.0
 11
-49.99999999999978
 21
-277.0
 31
0.0
  0
LINE
  5
1AA
  8
DATA
  6
CONTINUOUS
 62
     7
 10
-50.99999999999978
 20
-279.0
 30
0.0
 11
-49.99999999999978
 21
-279.0
 31
0.0
  0
ARC
  5
1AB
  8
DATA
  6
CONTINUOUS
 62
     7
 10
-57.99999999999978
 20
-278.0
 30
0.0
 40
1.0
 50
90.0
 51
270.0
  0
ARC
  5
1AC
  8
DATA
  6
CONTINUOUS
 62
     7
 10
-56.999999999999773
 20
-278.00000000000011
 30
0.0
 40
1.0
 50
270.0
 51
90.0
  0
LINE
  5
1AD
  8
DATA
  6
CONTINUOUS
 62
     7
 10
-57.99999999999978
 20
-277.0
 30
0.0
 11
-56.999999999999773
 21
-277.0
 31
0.0
  0
LINE
  5
1AE
  8
DATA
  6
CONTINUOUS
 62
     7
 10
-57.99999999999978
 20
-279.0
 30
0.0
 11
-56.999999999999773
 21
-279.0
 31
0.0
  0
ARC
  5
1AF
  8
DATA
  6
CONTINUOUS
 62
     7
 10
-43.99999999999978
 20
-278.0
 30
0.0
 40
1.0
 50
90.0
 51
270.0
  0
ARC
  5
1B0
  8
DATA
  6
CONTINUOUS
 62
     7
 10
-42.99999999999978
 20
-278.00000000000011
 30
0.0
 40
1.0
 50
270.0
 51
90.0
  0
LINE
  5
1B1
  8
DATA
  6
CONTINUOUS
 62
     7
 10
-43.99999999999978
 20
-277.0
 30
0.0
 11
-42.99999999999978
 21
-277.0
 31
0.0
  0
LINE
  5
1B2
  8
DATA
  6
CONTINUOUS
 62
     7
 10
-43.99999999999978
 20
-279.0
 30
0.0
 11
-42.99999999999978
 21
-279.0
 31
0.0
  0
ARC
  5
1B3
  8
DATA
  6
CONTINUOUS
 62
     7
 10
-36.99999999999978
 20
-278.0
 30
0.0
 40
1.0
 50
90.0
 51
270.0
  0
ARC
  5
1B4
  8
DATA
  6
CONTINUOUS
 62
     7
 10
-35.999999999999787
 20
-278.00000000000011
 30
0.0
 40
1.0
 50
270.0
 51
90.0
  0
LINE
  5
1B5
  8
DATA
  6
CONTINUOUS
 62
     7
 10
-36.99999999999978
 20
-277.0
 30
0.0
 11
-35.999999999999787
 21
-277.0
 31
0.0
  0
LINE
  5
1B6
  8
DATA
  6
CONTINUOUS
 62
     7
 10
-36.99999999999978
 20
-279.0
 30
0.0
 11
-35.999999999999787
 21
-279.0
 31
0.0
  0
ARC
  5
1B7
  8
DATA
  6
CONTINUOUS
 62
     7
 10
-50.99999999999978
 20
-273.0
 30
0.0
 40
1.0
 50
90.0
 51
270.0
  0
ARC
  5
1B8
  8
DATA
  6
CONTINUOUS
 62
     7
 10
-49.99999999999978
 20
-273.0
 30
0.0
 40
1.0
 50
270.0
 51
90.0
  0
LINE
  5
1B9
  8
DATA
  6
CONTINUOUS
 62
     7
 10
-50.99999999999978
 20
-272.0
 30
0.0
 11
-49.99999999999978
 21
-272.0
 31
0.0
  0
LINE
  5
1BA
  8
DATA
  6
CONTINUOUS
 62
     7
 10
-50.99999999999978
 20
-274.0
 30
0.0
 11
-49.99999999999978
 21
-274.0
 31
0.0
  0
ARC
  5
1BB
  8
DATA
  6
CONTINUOUS
 62
     7
 10
-57.99999999999978
 20
-273.0
 30
0.0
 40
1.0
 50
90.0
 51
270.0
  0
ARC
  5
1BC
  8
DATA
  6
CONTINUOUS
 62
     7
 10
-56.999999999999773
 20
-273.0
 30
0.0
 40
1.0
 50
270.0
 51
90.0
  0
LINE
  5
1BD
  8
DATA
  6
CONTINUOUS
 62
     7
 10
-57.99999999999978
 20
-272.0
 30
0.0
 11
-56.999999999999773
 21
-272.0
 31
0.0
  0
LINE
  5
1BE
  8
DATA
  6
CONTINUOUS
 62
     7
 10
-57.99999999999978
 20
-274.0
 30
0.0
 11
-56.999999999999773
 21
-274.0
 31
0.0
  0
ARC
  5
1BF
  8
DATA
  6
CONTINUOUS
 62
     7
 10
-43.99999999999978
 20
-273.0
 30
0.0
 40
1.0
 50
90.0
 51
270.0
  0
ARC
  5
1C0
  8
DATA
  6
CONTINUOUS
 62
     7
 10
-42.99999999999978
 20
-273.0
 30
0.0
 40
1.0
 50
270.0
 51
90.0
  0
LINE
  5
1C1
  8
DATA
  6
CONTINUOUS
 62
     7
 10
-43.99999999999978
 20
-272.0
 30
0.0
 11
-42.99999999999978
 21
-272.0
 31
0.0
  0
LINE
  5
1C2
  8
DATA
  6
CONTINUOUS
 62
     7
 10
-43.99999999999978
 20
-274.0
 30
0.0
 11
-42.99999999999978
 21
-274.0
 31
0.0
  0
ARC
  5
1C3
  8
DATA
  6
CONTINUOUS
 62
     7
 10
-36.99999999999978
 20
-273.0
 30
0.0
 40
1.0
 50
90.0
 51
270.0
  0
ARC
  5
1C4
  8
DATA
  6
CONTINUOUS
 62
     7
 10
-35.999999999999787
 20
-273.0
 30
0.0
 40
1.0
 50
270.0
 51
90.0
  0
LINE
  5
1C5
  8
DATA
  6
CONTINUOUS
 62
     7
 10
-36.99999999999978
 20
-272.0
 30
0.0
 11
-35.999999999999787
 21
-272.0
 31
0.0
  0
LINE
  5
1C6
  8
DATA
  6
CONTINUOUS
 62
     7
 10
-36.99999999999978
 20
-274.0
 30
0.0
 11
-35.999999999999787
 21
-274.0
 31
0.0
  0
ARC
  5
1C7
  8
DATA
  6
CONTINUOUS
 62
     7
 10
-50.99999999999978
 20
-287.0
 30
0.0
 40
1.0
 50
90.0
 51
270.0
  0
ARC
  5
1C8
  8
DATA
  6
CONTINUOUS
 62
     7
 10
-49.99999999999978
 20
-287.0
 30
0.0
 40
1.0
 50
270.0
 51
90.0
  0
LINE
  5
1C9
  8
DATA
  6
CONTINUOUS
 62
     7
 10
-50.99999999999978
 20
-286.0
 30
0.0
 11
-49.99999999999978
 21
-286.0
 31
0.0
  0
LINE
  5
1CA
  8
DATA
  6
CONTINUOUS
 62
     7
 10
-50.99999999999978
 20
-288.0
 30
0.0
 11
-49.99999999999978
 21
-288.0
 31
0.0
  0
ARC
  5
1CB
  8
DATA
  6
CONTINUOUS
 62
     7
 10
-57.99999999999978
 20
-287.0
 30
0.0
 40
1.0
 50
90.0
 51
270.0
  0
ARC
  5
1CC
  8
DATA
  6
CONTINUOUS
 62
     7
 10
-56.999999999999773
 20
-287.0
 30
0.0
 40
1.0
 50
270.0
 51
90.0
  0
LINE
  5
1CD
  8
DATA
  6
CONTINUOUS
 62
     7
 10
-57.99999999999978
 20
-286.0
 30
0.0
 11
-56.999999999999773
 21
-286.0
 31
0.0
  0
LINE
  5
1CE
  8
DATA
  6
CONTINUOUS
 62
     7
 10
-57.99999999999978
 20
-288.0
 30
0.0
 11
-56.999999999999773
 21
-288.0
 31
0.0
  0
ARC
  5
1CF
  8
DATA
  6
CONTINUOUS
 62
     7
 10
-43.99999999999978
 20
-287.0
 30
0.0
 40
1.0
 50
90.0
 51
270.0
  0
ARC
  5
1D0
  8
DATA
  6
CONTINUOUS
 62
     7
 10
-42.99999999999978
 20
-287.0
 30
0.0
 40
1.0
 50
270.0
 51
90.0
  0
LINE
  5
1D1
  8
DATA
  6
CONTINUOUS
 62
     7
 10
-43.99999999999978
 20
-286.0
 30
0.0
 11
-42.99999999999978
 21
-286.0
 31
0.0
  0
LINE
  5
1D2
  8
DATA
  6
CONTINUOUS
 62
     7
 10
-43.99999999999978
 20
-288.0
 30
0.0
 11
-42.99999999999978
 21
-288.0
 31
0.0
  0
ARC
  5
1D3
  8
DATA
  6
CONTINUOUS
 62
     7
 10
-36.99999999999978
 20
-287.0
 30
0.0
 40
1.0
 50
90.0
 51
270.0
  0
ARC
  5
1D4
  8
DATA
  6
CONTINUOUS
 62
     7
 10
-35.999999999999787
 20
-287.0
 30
0.0
 40
1.0
 50
270.0
 51
90.0
  0
LINE
  5
1D5
  8
DATA
  6
CONTINUOUS
 62
     7
 10
-36.99999999999978
 20
-286.0
 30
0.0
 11
-35.999999999999787
 21
-286.0
 31
0.0
  0
LINE
  5
1D6
  8
DATA
  6
CONTINUOUS
 62
     7
 10
-36.99999999999978
 20
-288.0
 30
0.0
 11
-35.999999999999787
 21
-288.0
 31
0.0
  0
CIRCLE
  5
1D7
  8
DATA
  6
CONTINUOUS
 62
     7
 10
-64.000000000000014
 20
-267.0
 30
0.0
 40
0.7500000000000398
  0
CIRCLE
  5
1D8
  8
DATA
  6
CONTINUOUS
 62
     7
 10
-57.000000000000021
 20
-267.0
 30
0.0
 40
0.7500000000000398
  0
CIRCLE
  5
1D9
  8
DATA
  6
CONTINUOUS
 62
     7
 10
-50.000000000000021
 20
-267.0
 30
0.0
 40
0.7500000000000398
  0
TEXT
  5
1DA
  8
DATA
 62
     7
 10
-63.000000069538721
 20
-267.89999999999998
 30
0.0
 40
1.923828125
  1
IN
 41
0.7
 11
-63.000000069538721
 21
-265.97617187499998
 31
0.0
 73
     3
  0
TEXT
  5
1DB
  8
DATA
 62
     7
 10
-56.000000069538729
 20
-267.89999999999998
 30
0.0
 40
1.923828125
  1
OUT
 41
0.7
 11
-56.000000069538729
 21
-265.97617187499998
 31
0.0
 73
     3
  0
TEXT
  5
1DC
  8
DATA
 62
     7
 10
-49.000000069538729
 20
-267.89999999999998
 30
0.0
 40
1.923828125
  1
DIG
 41
0.7
 11
-49.000000069538729
 21
-265.97617187499998
 31
0.0
 73
     3
  0
TEXT
  5
1DD
  8
DATA
 62
     7
 10
-34.500000000000007
 20
-273.89999999999998
 30
0.0
 40
1.923828125
  1
Clip
 41
0.7
 11
-34.500000000000007
 21
-271.97617187499998
 31
0.0
 73
     3
  0
TEXT
  5
1DE
  8
DATA
 62
     7
 10
-34.500000000000007
 20
-278.89999999999998
 30
0.0
 40
1.923828125
  1
Signal
 41
0.7
 11
-34.500000000000007
 21
-276.97617187499998
 31
0.0
 73
     3
  0
TEXT
  5
1DF
  8
DATA
 62
     7
 10
-34.500000000000007
 20
-287.89999999999998
 30
0.0
 40
1.923828125
  1
Sync/48V
 41
0.7
 11
-34.500000000000007
 21
-285.97617187499998
 31
0.0
 73
     3
  0
TEXT
  5
1E0
  8
DATA
 62
     7
 10
-58.500000000000021
 20
-283.94
 30
0.0
 40
3.078125
  1
1
 41
0.7
 11
-58.500000000000021
 21
-280.861875
 31
0.0
 73
     3
  0
TEXT
  5
1E1
  8
DATA
 62
     7
 10
-51.500000000000021
 20
-283.94
 30
0.0
 40
3.078125
  1
2
 41
0.7
 11
-51.500000000000021
 21
-280.861875
 31
0.0
 73
     3
  0
TEXT
  5
1E2
  8
DATA
 62
     7
 10
-44.500000000000007
 20
-283.94
 30
0.0
 40
3.078125
  1
3
 41
0.7
 11
-44.500000000000007
 21
-280.861875
 31
0.0
 73
     3
  0
TEXT
  5
1E3
  8
DATA
 62
     7
 10
-37.500000000000021
 20
-283.94
 30
0.0
 40
3.078125
  1
4
 41
0.7
 11
-37.500000000000021
 21
-280.861875
 31
0.0
 73
     3
  0
TEXT
  5
1E4
  8
DATA
 62
     7
 10
-64.000000000000014
 20
-292.06777777777768
 30
0.0
 40
5.4294704861111107
  1
C
 41
0.7
 11
-64.000000000000014
 21
-286.63830729166659
 31
0.0
 73
     3
  0
LINE
  5
1E5
  8
DATA
  6
CONTINUOUS
 62
     7
 10
-13.44112549695434
 20
-263.0
 30
0.0
 11
23.508552060018229
 21
-263.0
 31
0.0
  0
LINE
  5
1E6
  8
DATA
  6
CONTINUOUS
 62
     7
 10
-13.44112549695434
 20
-293.0
 30
0.0
 11
-8.9425229241314952
 21
-293.0
 31
0.0
  0
ARC
  5
1E7
  8
DATA
  6
CONTINUOUS
 62
     7
 10
20.499999999999979
 20
-278.0
 30
0.0
 40
38.999999999999972
 50
160.52877936550931
 51
199.47122063449069
  0
ARC
  5
1E8
  8
DATA
  6
CONTINUOUS
 62
     7
 10
-13.44112549695434
 20
-266.0
 30
0.0
 40
2.9999999999999432
 50
90.0
 51
160.52877936550971
  0
ARC
  5
1E9
  8
DATA
  6
CONTINUOUS
 62
     7
 10
-13.44112549695434
 20
-290.00000000000011
 30
0.0
 40
2.9999999999998952
 50
199.47122063449029
 51
270.0
  0
ARC
  5
1EA
  8
DATA
  6
CONTINUOUS
 62
     7
 10
-4.5104166666665284
 20
-276.75
 30
0.0
 40
33.010416666666607
 50
339.00975749449998
 51
20.990242505499911
  0
ARC
  5
1EB
  8
DATA
  6
CONTINUOUS
 62
     7
 10
-8.9425229241314952
 20
-290.5
 30
0.0
 40
2.5
 50
270.0
 51
0.0
  0
LINE
  5
1EC
  8
DATA
  6
CONTINUOUS
 62
     7
 10
-6.4425229241314952
 20
-290.5
 30
0.0
 11
23.508552060018229
 21
-290.5
 31
0.0
  0
ARC
  5
1ED
  8
DATA
  6
CONTINUOUS
 62
     7
 10
23.508552060018229
 20
-287.50000000000023
 30
0.0
 40
2.999999999999829
 50
270.0
 51
339.00975749450367
  0
ARC
  5
1EE
  8
DATA
  6
CONTINUOUS
 62
     7
 10
23.508552060018229
 20
-265.99999999999977
 30
0.0
 40
2.9999999999999809
 50
20.99024250549633
 51
90.0
  0
LINE
  5
1EF
  8
DATA
  6
CONTINUOUS
 62
     7
 10
-13.44112549695434
 20
-263.5
 30
0.0
 11
23.508552060018229
 21
-263.5
 31
0.0
  0
ARC
  5
1F0
  8
DATA
  6
CONTINUOUS
 62
     7
 10
23.508552060018229
 20
-265.99999999999977
 30
0.0
 40
2.499999999999996
 50
20.990242505495772
 51
90.0
  0
ARC
  5
1F1
  8
DATA
  6
CONTINUOUS
 62
     7
 10
-4.5104166666665284
 20
-276.75
 30
0.0
 40
32.510416666666629
 50
339.00975749449998
 51
20.990242505499911
  0
ARC
  5
1F2
  8
DATA
  6
CONTINUOUS
 62
     7
 10
23.508552060018229
 20
-287.50000000000023
 30
0.0
 40
2.499999999999829
 50
270.0
 51
339.00975749450328
  0
LINE
  5
1F3
  8
DATA
  6
CONTINUOUS
 62
     7
 10
-6.9425229241314952
 20
-290.0
 30
0.0
 11
23.508552060018229
 21
-290.0
 31
0.0
  0
ARC
  5
1F4
  8
DATA
  6
CONTINUOUS
 62
     7
 10
-13.44112549695434
 20
-266.0
 30
0.0
 40
2.4999999999999432
 50
90.0
 51
160.5287793655105
  0
ARC
  5
1F5
  8
DATA
  6
CONTINUOUS
 62
     7
 10
20.499999999999979
 20
-278.0
 30
0.0
 40
38.5
 50
160.52877936550931
 51
199.47122063449061
  0
ARC
  5
1F6
  8
DATA
  6
CONTINUOUS
 62
     7
 10
-13.44112549695434
 20
-290.00000000000011
 30
0.0
 40
2.4999999999999201
 50
199.4712206344895
 51
270.0
  0
LINE
  5
1F7
  8
DATA
  6
CONTINUOUS
 62
     7
 10
-13.44112549695434
 20
-292.5
 30
0.0
 11
-8.9425229241314952
 21
-292.5
 31
0.0
  0
ARC
  5
1F8
  8
DATA
  6
CONTINUOUS
 62
     7
 10
-8.9425229241314952
 20
-290.5
 30
0.0
 40
2.0
 50
270.0
 51
0.0
  0
LINE
  5
1F9
  8
DATA
  6
CONTINUOUS
 62
     7
 10
-6.9425229241314952
 20
-290.5
 30
0.0
 11
-6.9425229241314952
 21
-290.0
 31
0.0
  0
ARC
  5
1FA
  8
DATA
  6
CONTINUOUS
 62
     7
 10
0.0000000000002132
 20
-278.0
 30
0.0
 40
1.0
 50
90.0
 51
270.0
  0
ARC
  5
1FB
  8
DATA
  6
CONTINUOUS
 62
     7
 10
1.0000000000002129
 20
-278.00000000000011
 30
0.0
 40
1.0
 50
270.0
 51
90.0
  0
LINE
  5
1FC
  8
DATA
  6
CONTINUOUS
 62
     7
 10
0.0000000000002132
 20
-277.0
 30
0.0
 11
1.0000000000002129
 21
-277.0
 31
0.0
  0
LINE
  5
1FD
  8
DATA
  6
CONTINUOUS
 62
     7
 10
0.0000000000002132
 20
-279.0
 30
0.0
 11
1.0000000000002129
 21
-279.0
 31
0.0
  0
ARC
  5
1FE
  8
DATA
  6
CONTINUOUS
 62
     7
 10
-6.9999999999997859
 20
-278.0
 30
0.0
 40
1.0
 50
90.0
 51
270.0
  0
ARC
  5
1FF
  8
DATA
  6
CONTINUOUS
 62
     7
 10
-5.9999999999997859
 20
-278.00000000000011
 30
0.0
 40
1.0
 50
270.0
 51
90.0
  0
LINE
  5
200
  8
DATA
  6
CONTINUOUS
 62
     7
 10
-6.9999999999997859
 20
-277.0
 30
0.0
 11
-5.9999999999997859
 21
-277.0
 31
0.0
  0
LINE
  5
201
  8
DATA
  6
CONTINUOUS
 62
     7
 10
-6.9999999999997859
 20
-279.0
 30
0.0
 11
-5.9999999999997859
 21
-279.0
 31
0.0
  0
ARC
  5
202
  8
DATA
  6
CONTINUOUS
 62
     7
 10
7.0000000000002132
 20
-278.0
 30
0.0
 40
1.0
 50
90.0
 51
270.0
  0
ARC
  5
203
  8
DATA
  6
CONTINUOUS
 62
     7
 10
8.0000000000002132
 20
-278.00000000000011
 30
0.0
 40
1.0
 50
270.0
 51
90.0
  0
LINE
  5
204
  8
DATA
  6
CONTINUOUS
 62
     7
 10
7.0000000000002132
 20
-277.0
 30
0.0
 11
8.0000000000002132
 21
-277.0
 31
0.0
  0
LINE
  5
205
  8
DATA
  6
CONTINUOUS
 62
     7
 10
7.0000000000002132
 20
-279.0
 30
0.0
 11
8.0000000000002132
 21
-279.0
 31
0.0
  0
ARC
  5
206
  8
DATA
  6
CONTINUOUS
 62
     7
 10
14.00000000000021
 20
-278.0
 30
0.0
 40
1.0
 50
90.0
 51
270.0
  0
ARC
  5
207
  8
DATA
  6
CONTINUOUS
 62
     7
 10
15.00000000000021
 20
-278.00000000000011
 30
0.0
 40
1.0
 50
270.0
 51
90.0
  0
LINE
  5
208
  8
DATA
  6
CONTINUOUS
 62
     7
 10
14.00000000000021
 20
-277.0
 30
0.0
 11
15.00000000000021
 21
-277.0
 31
0.0
  0
LINE
  5
209
  8
DATA
  6
CONTINUOUS
 62
     7
 10
14.00000000000021
 20
-279.0
 30
0.0
 11
15.00000000000021
 21
-279.0
 31
0.0
  0
ARC
  5
20A
  8
DATA
  6
CONTINUOUS
 62
     7
 10
0.0000000000002132
 20
-273.0
 30
0.0
 40
1.0
 50
90.0
 51
270.0
  0
ARC
  5
20B
  8
DATA
  6
CONTINUOUS
 62
     7
 10
1.0000000000002129
 20
-273.0
 30
0.0
 40
1.0
 50
270.0
 51
90.0
  0
LINE
  5
20C
  8
DATA
  6
CONTINUOUS
 62
     7
 10
0.0000000000002132
 20
-272.0
 30
0.0
 11
1.0000000000002129
 21
-272.0
 31
0.0
  0
LINE
  5
20D
  8
DATA
  6
CONTINUOUS
 62
     7
 10
0.0000000000002132
 20
-274.0
 30
0.0
 11
1.0000000000002129
 21
-274.0
 31
0.0
  0
ARC
  5
20E
  8
DATA
  6
CONTINUOUS
 62
     7
 10
-6.9999999999997859
 20
-273.0
 30
0.0
 40
1.0
 50
90.0
 51
270.0
  0
ARC
  5
20F
  8
DATA
  6
CONTINUOUS
 62
     7
 10
-5.9999999999997859
 20
-273.0
 30
0.0
 40
1.0
 50
270.0
 51
90.0
  0
LINE
  5
210
  8
DATA
  6
CONTINUOUS
 62
     7
 10
-6.9999999999997859
 20
-272.0
 30
0.0
 11
-5.9999999999997859
 21
-272.0
 31
0.0
  0
LINE
  5
211
  8
DATA
  6
CONTINUOUS
 62
     7
 10
-6.9999999999997859
 20
-274.0
 30
0.0
 11
-5.9999999999997859
 21
-274.0
 31
0.0
  0
ARC
  5
212
  8
DATA
  6
CONTINUOUS
 62
     7
 10
7.0000000000002132
 20
-273.0
 30
0.0
 40
1.0
 50
90.0
 51
270.0
  0
ARC
  5
213
  8
DATA
  6
CONTINUOUS
 62
     7
 10
8.0000000000002132
 20
-273.0
 30
0.0
 40
1.0
 50
270.0
 51
90.0
  0
LINE
  5
214
  8
DATA
  6
CONTINUOUS
 62
     7
 10
7.0000000000002132
 20
-272.0
 30
0.0
 11
8.0000000000002132
 21
-272.0
 31
0.0
  0
LINE
  5
215
  8
DATA
  6
CONTINUOUS
 62
     7
 10
7.0000000000002132
 20
-274.0
 30
0.0
 11
8.0000000000002132
 21
-274.0
 31
0.0
  0
ARC
  5
216
  8
DATA
  6
CONTINUOUS
 62
     7
 10
14.00000000000021
 20
-273.0
 30
0.0
 40
1.0
 50
90.0
 51
270.0
  0
ARC
  5
217
  8
DATA
  6
CONTINUOUS
 62
     7
 10
15.00000000000021
 20
-273.0
 30
0.0
 40
1.0
 50
270.0
 51
90.0
  0
LINE
  5
218
  8
DATA
  6
CONTINUOUS
 62
     7
 10
14.00000000000021
 20
-272.0
 30
0.0
 11
15.00000000000021
 21
-272.0
 31
0.0
  0
LINE
  5
219
  8
DATA
  6
CONTINUOUS
 62
     7
 10
14.00000000000021
 20
-274.0
 30
0.0
 11
15.00000000000021
 21
-274.0
 31
0.0
  0
ARC
  5
21A
  8
DATA
  6
CONTINUOUS
 62
     7
 10
0.0000000000002132
 20
-287.0
 30
0.0
 40
1.0
 50
90.0
 51
270.0
  0
ARC
  5
21B
  8
DATA
  6
CONTINUOUS
 62
     7
 10
1.0000000000002129
 20
-287.0
 30
0.0
 40
1.0
 50
270.0
 51
90.0
  0
LINE
  5
21C
  8
DATA
  6
CONTINUOUS
 62
     7
 10
0.0000000000002132
 20
-286.0
 30
0.0
 11
1.0000000000002129
 21
-286.0
 31
0.0
  0
LINE
  5
21D
  8
DATA
  6
CONTINUOUS
 62
     7
 10
0.0000000000002132
 20
-288.0
 30
0.0
 11
1.0000000000002129
 21
-288.0
 31
0.0
  0
ARC
  5
21E
  8
DATA
  6
CONTINUOUS
 62
     7
 10
-6.9999999999997859
 20
-287.0
 30
0.0
 40
1.0
 50
90.0
 51
270.0
  0
ARC
  5
21F
  8
DATA
  6
CONTINUOUS
 62
     7
 10
-5.9999999999997859
 20
-287.0
 30
0.0
 40
1.0
 50
270.0
 51
90.0
  0
LINE
  5
220
  8
DATA
  6
CONTINUOUS
 62
     7
 10
-6.9999999999997859
 20
-286.0
 30
0.0
 11
-5.9999999999997859
 21
-286.0
 31
0.0
  0
LINE
  5
221
  8
DATA
  6
CONTINUOUS
 62
     7
 10
-6.9999999999997859
 20
-288.0
 30
0.0
 11
-5.9999999999997859
 21
-288.0
 31
0.0
  0
ARC
  5
222
  8
DATA
  6
CONTINUOUS
 62
     7
 10
7.0000000000002132
 20
-287.0
 30
0.0
 40
1.0
 50
90.0
 51
270.0
  0
ARC
  5
223
  8
DATA
  6
CONTINUOUS
 62
     7
 10
8.0000000000002132
 20
-287.0
 30
0.0
 40
1.0
 50
270.0
 51
90.0
  0
LINE
  5
224
  8
DATA
  6
CONTINUOUS
 62
     7
 10
7.0000000000002132
 20
-286.0
 30
0.0
 11
8.0000000000002132
 21
-286.0
 31
0.0
  0
LINE
  5
225
  8
DATA
  6
CONTINUOUS
 62
     7
 10
7.0000000000002132
 20
-288.0
 30
0.0
 11
8.0000000000002132
 21
-288.0
 31
0.0
  0
ARC
  5
226
  8
DATA
  6
CONTINUOUS
 62
     7
 10
14.00000000000021
 20
-287.0
 30
0.0
 40
1.0
 50
90.0
 51
270.0
  0
ARC
  5
227
  8
DATA
  6
CONTINUOUS
 62
     7
 10
15.00000000000021
 20
-287.0
 30
0.0
 40
1.0
 50
270.0
 51
90.0
  0
LINE
  5
228
  8
DATA
  6
CONTINUOUS
 62
     7
 10
14.00000000000021
 20
-286.0
 30
0.0
 11
15.00000000000021
 21
-286.0
 31
0.0
  0
LINE
  5
229
  8
DATA
  6
CONTINUOUS
 62
     7
 10
14.00000000000021
 20
-288.0
 30
0.0
 11
15.00000000000021
 21
-288.0
 31
0.0
  0
CIRCLE
  5
22A
  8
DATA
  6
CONTINUOUS
 62
     7
 10
-13.000000000000011
 20
-267.0
 30
0.0
 40
0.7500000000000398
  0
CIRCLE
  5
22B
  8
DATA
  6
CONTINUOUS
 62
     7
 10
-6.0000000000000142
 20
-267.0
 30
0.0
 40
0.7500000000000398
  0
CIRCLE
  5
22C
  8
DATA
  6
CONTINUOUS
 62
     7
 10
0.9999999999999857
 20
-267.0
 30
0.0
 40
0.7500000000000398
  0
TEXT
  5
22D
  8
DATA
 62
     7
 10
-12.00000006953872
 20
-267.89999999999998
 30
0.0
 40
1.923828125
  1
IN
 41
0.7
 11
-12.00000006953872
 21
-265.97617187499998
 31
0.0
 73
     3
  0
TEXT
  5
22E
  8
DATA
 62
     7
 10
-5.0000000695387277
 20
-267.89999999999998
 30
0.0
 40
1.923828125
  1
OUT
 41
0.7
 11
-5.0000000695387277
 21
-265.97617187499998
 31
0.0
 73
     3
  0
TEXT
  5
22F
  8
DATA
 62
     7
 10
1.999999930461271
 20
-267.89999999999998
 30
0.0
 40
1.923828125
  1
DIG
 41
0.7
 11
1.999999930461271
 21
-265.97617187499998
 31
0.0
 73
     3
  0
TEXT
  5
230
  8
DATA
 62
     7
 10
16.499999999999979
 20
-273.89999999999998
 30
0.0
 40
1.923828125
  1
Clip
 41
0.7
 11
16.499999999999979
 21
-271.97617187499998
 31
0.0
 73
     3
  0
TEXT
  5
231
  8
DATA
 62
     7
 10
16.499999999999979
 20
-278.89999999999998
 30
0.0
 40
1.923828125
  1
Signal
 41
0.7
 11
16.499999999999979
 21
-276.97617187499998
 31
0.0
 73
     3
  0
TEXT
  5
232
  8
DATA
 62
     7
 10
16.499999999999979
 20
-287.89999999999998
 30
0.0
 40
1.923828125
  1
Sync/48V
 41
0.7
 11
16.499999999999979
 21
-285.97617187499998
 31
0.0
 73
     3
  0
TEXT
  5
233
  8
DATA
 62
     7
 10
-7.5000000000000142
 20
-283.94
 30
0.0
 40
3.078125
  1
1
 41
0.7
 11
-7.5000000000000142
 21
-280.861875
 31
0.0
 73
     3
  0
TEXT
  5
234
  8
DATA
 62
     7
 10
-0.5000000000000144
 20
-283.94
 30
0.0
 40
3.078125
  1
2
 41
0.7
 11
-0.5000000000000142
 21
-280.861875
 31
0.0
 73
     3
  0
TEXT
  5
235
  8
DATA
 62
     7
 10
6.4999999999999849
 20
-283.94
 30
0.0
 40
3.078125
  1
3
 41
0.7
 11
6.4999999999999849
 21
-280.861875
 31
0.0
 73
     3
  0
TEXT
  5
236
  8
DATA
 62
     7
 10
13.49999999999998
 20
-283.94
 30
0.0
 40
3.078125
  1
4
 41
0.7
 11
13.49999999999998
 21
-280.861875
 31
0.0
 73
     3
  0
TEXT
  5
237
  8
DATA
 62
     7
 10
-13.000000000000011
 20
-292.06777777777768
 30
0.0
 40
5.4294704861111107
  1
D
 41
0.7
 11
-13.000000000000011
 21
-286.63830729166659
 31
0.0
 73
     3
  0
ARC
  5
238
  8
DATA
  6
CONTINUOUS
 62
     7
 10
71.999999999999986
 20
-278.0
 30
0.0
 40
38.999999999999972
 50
160.52877936550931
 51
199.47122063449069
  0
ARC
  5
239
  8
DATA
  6
CONTINUOUS
 62
     7
 10
38.058874503045651
 20
-266.0
 30
0.0
 40
2.9999999999999432
 50
90.0
 51
160.52877936550971
  0
ARC
  5
23A
  8
DATA
  6
CONTINUOUS
 62
     7
 10
38.058874503045651
 20
-290.00000000000011
 30
0.0
 40
2.9999999999998952
 50
199.47122063449029
 51
270.0
  0
ARC
  5
23B
  8
DATA
  6
CONTINUOUS
 62
     7
 10
38.058874503045651
 20
-266.0
 30
0.0
 40
2.4999999999999432
 50
90.0
 51
160.5287793655105
  0
ARC
  5
23C
  8
DATA
  6
CONTINUOUS
 62
     7
 10
71.999999999999986
 20
-278.0
 30
0.0
 40
38.5
 50
160.52877936550931
 51
199.47122063449061
  0
ARC
  5
23D
  8
DATA
  6
CONTINUOUS
 62
     7
 10
38.058874503045651
 20
-290.00000000000011
 30
0.0
 40
2.4999999999999201
 50
199.4712206344895
 51
270.0
  0
LINE
  5
23E
  8
DATA
  6
CONTINUOUS
 62
     7
 10
38.058874503045651
 20
-293.0
 30
0.0
 11
190.60000000000011
 21
-293.0
 31
0.0
  0
ARC
  5
23F
  8
DATA
  6
CONTINUOUS
 62
     7
 10
190.60000000000011
 20
-278.00000000000011
 30
0.0
 40
14.99999999999994
 50
270.0
 51
90.0
  0
LINE
  5
240
  8
DATA
  6
CONTINUOUS
 62
     7
 10
38.058874503045651
 20
-263.0
 30
0.0
 11
190.60000000000011
 21
-263.0
 31
0.0
  0
ARC
  5
241
  8
DATA
  6
CONTINUOUS
 62
     7
 10
190.60000000000011
 20
-278.0
 30
0.0
 40
14.5
 50
270.0
 51
90.0
  0
LINE
  5
242
  8
DATA
  6
CONTINUOUS
 62
     7
 10
38.058874503045651
 20
-292.5
 30
0.0
 11
190.60000000000011
 21
-292.5
 31
0.0
  0
LINE
  5
243
  8
DATA
  6
CONTINUOUS
 62
     7
 10
38.058874503045651
 20
-263.5
 30
0.0
 11
190.60000000000011
 21
-263.5
 31
0.0
  0
CIRCLE
  5
244
  8
DATA
  6
CONTINUOUS
 62
     7
 10
190.60000000000011
 20
-278.0
 30
0.0
 40
8.5
  0
CIRCLE
  5
245
  8
DATA
  6
CONTINUOUS
 62
     7
 10
190.60000000000011
 20
-278.0
 30
0.0
 40
7.0
  0
LINE
  5
246
  8
DATA
  6
CONTINUOUS
 62
     7
 10
173.10000000000011
 20
-269.5
 30
0.0
 11
173.10000000000011
 21
-286.5
 31
0.0
  0
LINE
  5
247
  8
DATA
  6
CONTINUOUS
 62
     7
 10
171.10000000000011
 20
-288.5
 30
0.0
 11
97.100000000000151
 21
-288.5
 31
0.0
  0
LINE
  5
248
  8
DATA
  6
CONTINUOUS
 62
     7
 10
171.10000000000011
 20
-267.5
 30
0.0
 11
97.100000000000151
 21
-267.5
 31
0.0
  0
LINE
  5
249
  8
DATA
  6
CONTINUOUS
 62
     7
 10
95.100000000000136
 20
-269.5
 30
0.0
 11
95.100000000000136
 21
-286.5
 31
0.0
  0
LINE
  5
24A
  8
DATA
  6
CONTINUOUS
 62
     7
 10
166.10000000000011
 20
-273.75
 30
0.0
 11
166.10000000000011
 21
-282.25
 31
0.0
  0
LINE
  5
24B
  8
DATA
  6
CONTINUOUS
 62
     7
 10
165.10000000000011
 20
-272.75
 30
0.0
 11
103.10000000000009
 21
-272.75
 31
0.0
  0
LINE
  5
24C
  8
DATA
  6
CONTINUOUS
 62
     7
 10
165.10000000000011
 20
-283.25
 30
0.0
 11
103.10000000000009
 21
-283.25
 31
0.0
  0
LINE
  5
24D
  8
DATA
  6
CONTINUOUS
 62
     7
 10
102.10000000000009
 20
-282.25
 30
0.0
 11
102.10000000000009
 21
-273.75
 31
0.0
  0
ARC
  5
24E
  8
DATA
  6
CONTINUOUS
 62
     7
 10
97.100000000000151
 20
-269.5
 30
0.0
 40
2.0
 50
90.0
 51
180.0
  0
ARC
  5
24F
  8
DATA
  6
CONTINUOUS
 62
     7
 10
97.100000000000151
 20
-286.5
 30
0.0
 40
2.0
 50
180.0
 51
270.0
  0
ARC
  5
250
  8
DATA
  6
CONTINUOUS
 62
     7
 10
171.10000000000011
 20
-269.5
 30
0.0
 40
2.0
 50
0.0
 51
90.0
  0
ARC
  5
251
  8
DATA
  6
CONTINUOUS
 62
     7
 10
171.10000000000011
 20
-286.5
 30
0.0
 40
2.0
 50
270.0
 51
0.0
  0
ARC
  5
252
  8
DATA
  6
CONTINUOUS
 62
     7
 10
103.10000000000009
 20
-273.75
 30
0.0
 40
1.0
 50
90.0
 51
180.0
  0
ARC
  5
253
  8
DATA
  6
CONTINUOUS
 62
     7
 10
103.10000000000009
 20
-282.25
 30
0.0
 40
1.0
 50
180.0
 51
270.0
  0
ARC
  5
254
  8
DATA
  6
CONTINUOUS
 62
     7
 10
165.10000000000011
 20
-273.75
 30
0.0
 40
1.0
 50
0.0
 51
90.0
  0
ARC
  5
255
  8
DATA
  6
CONTINUOUS
 62
     7
 10
165.10000000000011
 20
-282.25
 30
0.0
 40
1.0
 50
270.0
 51
0.0
  0
CIRCLE
  5
256
  8
DATA
  6
CONTINUOUS
 62
     7
 10
58.100000000000122
 20
-283.0
 30
0.0
 40
0.75
  0
LINE
  5
257
  8
DATA
  6
CONTINUOUS
 62
     7
 10
84.100000000000122
 20
-282.0
 30
0.0
 11
84.100000000000122
 21
-292.0
 31
0.0
  0
LINE
  5
258
  8
DATA
  6
CONTINUOUS
 62
     7
 10
84.100000000000122
 20
-292.0
 30
0.0
 11
72.100000000000122
 21
-292.0
 31
0.0
  0
LINE
  5
259
  8
DATA
  6
CONTINUOUS
 62
     7
 10
72.100000000000122
 20
-292.0
 30
0.0
 11
72.100000000000122
 21
-282.0
 31
0.0
  0
LINE
  5
25A
  8
DATA
  6
CONTINUOUS
 62
     7
 10
72.100000000000122
 20
-282.0
 30
0.0
 11
84.100000000000122
 21
-282.0
 31
0.0
  0
LINE
  5
25B
  8
DATA
  6
CONTINUOUS
 62
     7
 10
73.600000000000122
 20
-291.0
 30
0.0
 11
82.600000000000122
 21
-291.0
 31
0.0
  0
LINE
  5
25C
  8
DATA
  6
CONTINUOUS
 62
     7
 10
82.600000000000122
 20
-291.0
 30
0.0
 11
82.600000000000122
 21
-285.0
 31
0.0
  0
LINE
  5
25D
  8
DATA
  6
CONTINUOUS
 62
     7
 10
73.600000000000122
 20
-291.0
 30
0.0
 11
73.600000000000122
 21
-285.0
 31
0.0
  0
LINE
  5
25E
  8
DATA
  6
CONTINUOUS
 62
     7
 10
75.600000000000122
 20
-283.0
 30
0.0
 11
80.600000000000122
 21
-283.0
 31
0.0
  0
LINE
  5
25F
  8
DATA
  6
CONTINUOUS
 62
     7
 10
75.600000000000122
 20
-283.0
 30
0.0
 11
73.600000000000122
 21
-285.0
 31
0.0
  0
LINE
  5
260
  8
DATA
  6
CONTINUOUS
 62
     7
 10
80.600000000000122
 20
-283.0
 30
0.0
 11
82.600000000000122
 21
-285.0
 31
0.0
  0
LINE
  5
261
  8
DATA
  6
CONTINUOUS
 62
     7
 10
75.600000000000122
 20
-288.5
 30
0.0
 11
80.600000000000122
 21
-288.5
 31
0.0
  0
LINE
  5
262
  8
DATA
  6
CONTINUOUS
 62
     7
 10
75.600000000000122
 20
-288.5
 30
0.0
 11
75.600000000000122
 21
-285.5
 31
0.0
  0
LINE
  5
263
  8
DATA
  6
CONTINUOUS
 62
     7
 10
75.600000000000122
 20
-285.5
 30
0.0
 11
80.600000000000122
 21
-285.5
 31
0.0
  0
LINE
  5
264
  8
DATA
  6
CONTINUOUS
 62
     7
 10
80.600000000000122
 20
-285.5
 30
0.0
 11
80.600000000000122
 21
-288.5
 31
0.0
  0
TEXT
  5
265
  8
DATA
 62
     7
 10
34.600000000000122
 20
-284.00999999999999
 30
0.0
 40
2.693359375
  1
Data
 41
0.7
 11
34.600000000000122
 21
-281.31664062499999
 31
0.0
 73
     3
  0
TEXT
  5
266
  8
DATA
 62
     7
 10
42.600000000000122
 20
-284.00999999999999
 30
0.0
 40
2.693359375
  1
activity
 41
0.7
 11
42.600000000000122
 21
-281.31664062499999
 31
0.0
 73
     3
  0
TEXT
  5
267
  8
DATA
 62
     7
 10
65.600000000000108
 20
-284.50999999999999
 30
0.0
 40
2.693359375
  1
USB
 41
0.7
 11
65.600000000000108
 21
-281.81664062499999
 31
0.0
 73
     3
  0
CIRCLE
  5
268
  8
DATA
  6
CONTINUOUS
 62
     7
 10
177.60000000000011
 20
-278.00000000000011
 30
0.0
 40
2.0
  0
LINE
  5
269
  8
DATA
  6
CONTINUOUS
 62
     7
 10
177.60000000000011
 20
-276.00000000000011
 30
0.0
 11
177.60000000000011
 21
-280.00000000000011
 31
0.0
  0
TEXT
  5
26A
  8
DATA
 62
     7
 10
174.10000000000011
 20
-284.0100000000001
 30
0.0
 40
2.693359375
  1
Hold
 41
0.7
 11
174.10000000000011
 21
-281.3166406250001
 31
0.0
 73
     3
  0
TEXT
  5
26B
  8
DATA
 62
     7
 10
184.60000000000011
 20
-279.94000000000011
 30
0.0
 40
3.078125
  1
LOCATE
 41
0.7
 11
184.60000000000011
 21
-276.86187500000011
 31
0.0
 73
     3
  0
TEXT
  5
26C
  8
DATA
 62
     7
 10
-195.89999999999981
 20
-275.16000000000008
 30
0.0
 40
4.6171875
  1
BLU-16
 41
0.7
 11
-195.89999999999981
 21
-270.54281250000008
 31
0.0
 73
     3
  0
LINE
  5
26D
  8
DATA
  6
CONTINUOUS
 62
     7
 10
232.60000000000011
 20
-286.75
 30
0.0
 11
221.10000000000011
 21
-286.75
 31
0.0
  0
LINE
  5
26E
  8
DATA
  6
CONTINUOUS
 62
     7
 10
215.10000000000011
 20
-292.75
 30
0.0
 11
215.10000000000011
 21
-300.0
 31
0.0
  0
ARC
  5
26F
  8
DATA
  6
CONTINUOUS
 62
     7
 10
221.10000000000011
 20
-292.75
 30
0.0
 40
6.0
 50
90.0
 51
180.0
  0
LINE
  5
270
  8
DATA
  6
CONTINUOUS
 62
     7
 10
232.60000000000011
 20
-269.25
 30
0.0
 11
221.10000000000011
 21
-269.25
 31
0.0
  0
LINE
  5
271
  8
DATA
  6
CONTINUOUS
 62
     7
 10
215.10000000000011
 20
-263.25
 30
0.0
 11
215.10000000000011
 21
-256.0
 31
0.0
  0
ARC
  5
272
  8
DATA
  6
CONTINUOUS
 62
     7
 10
221.10000000000011
 20
-263.25
 30
0.0
 40
6.0
 50
180.0
 51
270.0
  0
LINE
  5
273
  8
DATA
  6
CONTINUOUS
 62
     7
 10
-250.0
 20
-200.0
 30
0.0
 11
-250.0
 21
-194.5
 31
0.0
  0
LINE
  5
274
  8
DATA
  6
CONTINUOUS
 62
     7
 10
-250.0
 20
-195.5
 30
0.0
 11
-222.0
 21
-195.5
 31
0.0
  0
LINE
  5
275
  8
DATA
  6
CONTINUOUS
 62
     7
 10
-232.5
 20
-198.5
 30
0.0
 11
-232.5
 21
-195.5
 31
0.0
  0
LINE
  5
276
  8
DATA
  6
CONTINUOUS
 62
     7
 10
-250.0
 20
-198.0
 30
0.0
 11
-232.5
 21
-198.0
 31
0.0
  0
LINE
  5
277
  8
DATA
  6
CONTINUOUS
 62
     7
 10
215.10000000000011
 20
-198.5
 30
0.0
 11
-232.5
 21
-198.5
 31
0.0
  0
LINE
  5
278
  8
DATA
  6
CONTINUOUS
 62
     7
 10
232.60000000000011
 20
-200.0
 30
0.0
 11
-250.0
 21
-200.0
 31
0.0
  0
LINE
  5
279
  8
DATA
  6
CONTINUOUS
 62
     7
 10
-250.0
 20
-194.5
 30
0.0
 11
-226.0
 21
-194.5
 31
0.0
  0
LINE
  5
27A
  8
DATA
  6
CONTINUOUS
 62
     7
 10
-222.0
 20
-195.5
 30
0.0
 11
-222.0
 21
-193.5
 31
0.0
  0
LINE
  5
27B
  8
DATA
  6
CONTINUOUS
 62
     7
 10
-222.0
 20
-193.5
 30
0.0
 11
204.60000000000011
 21
-193.5
 31
0.0
  0
LINE
  5
27C
  8
DATA
  6
CONTINUOUS
 62
     7
 10
-222.0
 20
-193.0
 30
0.0
 11
204.60000000000011
 21
-193.0
 31
0.0
  0
LINE
  5
27D
  8
DATA
  6
CONTINUOUS
 62
     7
 10
-226.6999999999999
 20
-192.5
 30
0.0
 11
-222.0
 21
-192.5
 31
0.0
  0
LINE
  5
27E
  8
DATA
  6
CONTINUOUS
 62
     7
 10
204.60000000000011
 20
-192.5
 30
0.0
 11
209.30000000000021
 21
-192.5
 31
0.0
  0
LINE
  5
27F
  8
DATA
  6
CONTINUOUS
 62
     7
 10
-222.0
 20
-193.0
 30
0.0
 11
-222.0
 21
-192.5
 31
0.0
  0
LINE
  5
280
  8
DATA
  6
CONTINUOUS
 62
     7
 10
-226.6999999999999
 20
-192.5
 30
0.0
 11
-226.6999999999999
 21
33.5
 31
0.0
  0
LINE
  5
281
  8
DATA
  6
CONTINUOUS
 62
     7
 10
-226.0
 20
-194.5
 30
0.0
 11
-226.0
 21
-192.5
 31
0.0
  0
LINE
  5
282
  8
DATA
  6
CONTINUOUS
 62
     7
 10
232.60000000000011
 20
-200.0
 30
0.0
 11
232.60000000000011
 21
-194.5
 31
0.0
  0
LINE
  5
283
  8
DATA
  6
CONTINUOUS
 62
     7
 10
232.60000000000011
 20
-195.5
 30
0.0
 11
204.60000000000011
 21
-195.5
 31
0.0
  0
LINE
  5
284
  8
DATA
  6
CONTINUOUS
 62
     7
 10
215.10000000000011
 20
-198.5
 30
0.0
 11
215.10000000000011
 21
-195.5
 31
0.0
  0
LINE
  5
285
  8
DATA
  6
CONTINUOUS
 62
     7
 10
232.60000000000011
 20
-198.0
 30
0.0
 11
215.10000000000011
 21
-198.0
 31
0.0
  0
LINE
  5
286
  8
DATA
  6
CONTINUOUS
 62
     7
 10
232.60000000000011
 20
-194.5
 30
0.0
 11
208.60000000000011
 21
-194.5
 31
0.0
  0
LINE
  5
287
  8
DATA
  6
CONTINUOUS
 62
     7
 10
204.60000000000011
 20
-195.5
 30
0.0
 11
204.60000000000011
 21
-193.5
 31
0.0
  0
LINE
  5
288
  8
DATA
  6
CONTINUOUS
 62
     7
 10
204.60000000000011
 20
-193.0
 30
0.0
 11
204.60000000000011
 21
-192.5
 31
0.0
  0
LINE
  5
289
  8
DATA
  6
CONTINUOUS
 62
     7
 10
209.30000000000021
 20
-192.5
 30
0.0
 11
209.30000000000021
 21
33.5
 31
0.0
  0
LINE
  5
28A
  8
DATA
  6
CONTINUOUS
 62
     7
 10
208.60000000000011
 20
-194.5
 30
0.0
 11
208.60000000000011
 21
-192.5
 31
0.0
  0
LINE
  5
28B
  8
DATA
  6
CONTINUOUS
 62
     7
 10
-226.6999999999999
 20
33.5
 30
0.0
 11
209.30000000000021
 21
33.5
 31
0.0
  0
CIRCLE
  5
28C
  8
DATA
  6
CONTINUOUS
 62
     7
 10
-8.6999999999999442
 20
-188.0
 30
0.0
 40
3.499999999999952
  0
POLYLINE
  5
28D
  8
DATA
  6
CONTINUOUS
 62
     7
 66
     1
 10
0.0
 20
0.0
 30
0.0
  0
VERTEX
  5
A8E
  8
DATA
  6
CONTINUOUS
 62
     7
 10
-8.1999999999999442
 20
-187.5
 30
0.0
  0
VERTEX
  5
A8F
  8
DATA
  6
CONTINUOUS
 62
     7
 10
-8.1999999999999442
 20
-186.0
 30
0.0
  0
VERTEX
  5
A90
  8
DATA
  6
CONTINUOUS
 62
     7
 10
-9.1999999999999442
 20
-186.0
 30
0.0
  0
VERTEX
  5
A91
  8
DATA
  6
CONTINUOUS
 62
     7
 10
-9.1999999999999442
 20
-187.5
 30
0.0
  0
SEQEND
  5
A92
  8
DATA
  6
CONTINUOUS
 62
     7
  0
POLYLINE
  5
294
  8
DATA
  6
CONTINUOUS
 62
     7
 66
     1
 10
0.0
 20
0.0
 30
0.0
  0
VERTEX
  5
A93
  8
DATA
  6
CONTINUOUS
 62
     7
 10
-8.1999999999999442
 20
-188.5
 30
0.0
  0
VERTEX
  5
A94
  8
DATA
  6
CONTINUOUS
 62
     7
 10
-8.1999999999999442
 20
-190.0
 30
0.0
  0
VERTEX
  5
A95
  8
DATA
  6
CONTINUOUS
 62
     7
 10
-9.1999999999999442
 20
-190.0
 30
0.0
  0
VERTEX
  5
A96
  8
DATA
  6
CONTINUOUS
 62
     7
 10
-9.1999999999999442
 20
-188.5
 30
0.0
  0
SEQEND
  5
A97
  8
DATA
  6
CONTINUOUS
 62
     7
  0
POLYLINE
  5
29B
  8
DATA
  6
CONTINUOUS
 62
     7
 66
     1
 10
0.0
 20
0.0
 30
0.0
  0
VERTEX
  5
A98
  8
DATA
  6
CONTINUOUS
 62
     7
 10
-8.1999999999999442
 20
-188.5
 30
0.0
  0
VERTEX
  5
A99
  8
DATA
  6
CONTINUOUS
 62
     7
 10
-6.6999999999999451
 20
-188.5
 30
0.0
  0
VERTEX
  5
A9A
  8
DATA
  6
CONTINUOUS
 62
     7
 10
-6.6999999999999451
 20
-187.5
 30
0.0
  0
VERTEX
  5
A9B
  8
DATA
  6
CONTINUOUS
 62
     7
 10
-8.1999999999999442
 20
-187.5
 30
0.0
  0
SEQEND
  5
A9C
  8
DATA
  6
CONTINUOUS
 62
     7
  0
POLYLINE
  5
2A2
  8
DATA
  6
CONTINUOUS
 62
     7
 66
     1
 10
0.0
 20
0.0
 30
0.0
  0
VERTEX
  5
A9D
  8
DATA
  6
CONTINUOUS
 62
     7
 10
-9.1999999999999442
 20
-188.5
 30
0.0
  0
VERTEX
  5
A9E
  8
DATA
  6
CONTINUOUS
 62
     7
 10
-10.699999999999941
 20
-188.5
 30
0.0
  0
VERTEX
  5
A9F
  8
DATA
  6
CONTINUOUS
 62
     7
 10
-10.699999999999941
 20
-187.5
 30
0.0
  0
VERTEX
  5
AA0
  8
DATA
  6
CONTINUOUS
 62
     7
 10
-9.1999999999999442
 20
-187.5
 30
0.0
  0
SEQEND
  5
AA1
  8
DATA
  6
CONTINUOUS
 62
     7
  0
ARC
  5
2A9
  8
DATA
  6
CONTINUOUS
 62
     7
 10
-8.6999999999999442
 20
-188.0
 30
0.0
 40
4.0
 50
0.0
 51
180.0
  0
LINE
  5
2AA
  8
DATA
  6
CONTINUOUS
 62
     7
 10
-12.699999999999941
 20
-188.0
 30
0.0
 11
-12.699999999999941
 21
-193.0
 31
0.0
  0
LINE
  5
2AB
  8
DATA
  6
CONTINUOUS
 62
     7
 10
-4.6999999999999451
 20
-188.0
 30
0.0
 11
-4.6999999999999451
 21
-193.0
 31
0.0
  0
CIRCLE
  5
2AC
  8
DATA
  6
CONTINUOUS
 62
     7
 10
-198.6999999999999
 20
-188.0
 30
0.0
 40
3.499999999999952
  0
POLYLINE
  5
2AD
  8
DATA
  6
CONTINUOUS
 62
     7
 66
     1
 10
0.0
 20
0.0
 30
0.0
  0
VERTEX
  5
AA2
  8
DATA
  6
CONTINUOUS
 62
     7
 10
-198.1999999999999
 20
-187.5
 30
0.0
  0
VERTEX
  5
AA3
  8
DATA
  6
CONTINUOUS
 62
     7
 10
-198.1999999999999
 20
-186.0
 30
0.0
  0
VERTEX
  5
AA4
  8
DATA
  6
CONTINUOUS
 62
     7
 10
-199.1999999999999
 20
-186.0
 30
0.0
  0
VERTEX
  5
AA5
  8
DATA
  6
CONTINUOUS
 62
     7
 10
-199.1999999999999
 20
-187.5
 30
0.0
  0
SEQEND
  5
AA6
  8
DATA
  6
CONTINUOUS
 62
     7
  0
POLYLINE
  5
2B4
  8
DATA
  6
CONTINUOUS
 62
     7
 66
     1
 10
0.0
 20
0.0
 30
0.0
  0
VERTEX
  5
AA7
  8
DATA
  6
CONTINUOUS
 62
     7
 10
-198.1999999999999
 20
-188.5
 30
0.0
  0
VERTEX
  5
AA8
  8
DATA
  6
CONTINUOUS
 62
     7
 10
-198.1999999999999
 20
-190.0
 30
0.0
  0
VERTEX
  5
AA9
  8
DATA
  6
CONTINUOUS
 62
     7
 10
-199.1999999999999
 20
-190.0
 30
0.0
  0
VERTEX
  5
AAA
  8
DATA
  6
CONTINUOUS
 62
     7
 10
-199.1999999999999
 20
-188.5
 30
0.0
  0
SEQEND
  5
AAB
  8
DATA
  6
CONTINUOUS
 62
     7
  0
POLYLINE
  5
2BB
  8
DATA
  6
CONTINUOUS
 62
     7
 66
     1
 10
0.0
 20
0.0
 30
0.0
  0
VERTEX
  5
AAC
  8
DATA
  6
CONTINUOUS
 62
     7
 10
-198.1999999999999
 20
-188.5
 30
0.0
  0
VERTEX
  5
AAD
  8
DATA
  6
CONTINUOUS
 62
     7
 10
-196.6999999999999
 20
-188.5
 30
0.0
  0
VERTEX
  5
AAE
  8
DATA
  6
CONTINUOUS
 62
     7
 10
-196.6999999999999
 20
-187.5
 30
0.0
  0
VERTEX
  5
AAF
  8
DATA
  6
CONTINUOUS
 62
     7
 10
-198.1999999999999
 20
-187.5
 30
0.0
  0
SEQEND
  5
AB0
  8
DATA
  6
CONTINUOUS
 62
     7
  0
POLYLINE
  5
2C2
  8
DATA
  6
CONTINUOUS
 62
     7
 66
     1
 10
0.0
 20
0.0
 30
0.0
  0
VERTEX
  5
AB1
  8
DATA
  6
CONTINUOUS
 62
     7
 10
-199.1999999999999
 20
-188.5
 30
0.0
  0
VERTEX
  5
AB2
  8
DATA
  6
CONTINUOUS
 62
     7
 10
-200.69999999999999
 20
-188.5
 30
0.0
  0
VERTEX
  5
AB3
  8
DATA
  6
CONTINUOUS
 62
     7
 10
-200.69999999999999
 20
-187.5
 30
0.0
  0
VERTEX
  5
AB4
  8
DATA
  6
CONTINUOUS
 62
     7
 10
-199.1999999999999
 20
-187.5
 30
0.0
  0
SEQEND
  5
AB5
  8
DATA
  6
CONTINUOUS
 62
     7
  0
ARC
  5
2C9
  8
DATA
  6
CONTINUOUS
 62
     7
 10
-198.6999999999999
 20
-188.0
 30
0.0
 40
4.0
 50
0.0
 51
180.0
  0
LINE
  5
2CA
  8
DATA
  6
CONTINUOUS
 62
     7
 10
-202.69999999999999
 20
-188.0
 30
0.0
 11
-202.69999999999999
 21
-193.0
 31
0.0
  0
LINE
  5
2CB
  8
DATA
  6
CONTINUOUS
 62
     7
 10
-194.6999999999999
 20
-188.0
 30
0.0
 11
-194.6999999999999
 21
-193.0
 31
0.0
  0
CIRCLE
  5
2CC
  8
DATA
  6
CONTINUOUS
 62
     7
 10
181.3000000000001
 20
-188.0
 30
0.0
 40
3.4999999999998419
  0
POLYLINE
  5
2CD
  8
DATA
  6
CONTINUOUS
 62
     7
 66
     1
 10
0.0
 20
0.0
 30
0.0
  0
VERTEX
  5
AB6
  8
DATA
  6
CONTINUOUS
 62
     7
 10
181.8000000000001
 20
-187.5
 30
0.0
  0
VERTEX
  5
AB7
  8
DATA
  6
CONTINUOUS
 62
     7
 10
181.8000000000001
 20
-186.0
 30
0.0
  0
VERTEX
  5
AB8
  8
DATA
  6
CONTINUOUS
 62
     7
 10
180.8000000000001
 20
-186.0
 30
0.0
  0
VERTEX
  5
AB9
  8
DATA
  6
CONTINUOUS
 62
     7
 10
180.8000000000001
 20
-187.5
 30
0.0
  0
SEQEND
  5
ABA
  8
DATA
  6
CONTINUOUS
 62
     7
  0
POLYLINE
  5
2D4
  8
DATA
  6
CONTINUOUS
 62
     7
 66
     1
 10
0.0
 20
0.0
 30
0.0
  0
VERTEX
  5
ABB
  8
DATA
  6
CONTINUOUS
 62
     7
 10
181.8000000000001
 20
-188.5
 30
0.0
  0
VERTEX
  5
ABC
  8
DATA
  6
CONTINUOUS
 62
     7
 10
181.8000000000001
 20
-190.0
 30
0.0
  0
VERTEX
  5
ABD
  8
DATA
  6
CONTINUOUS
 62
     7
 10
180.8000000000001
 20
-190.0
 30
0.0
  0
VERTEX
  5
ABE
  8
DATA
  6
CONTINUOUS
 62
     7
 10
180.8000000000001
 20
-188.5
 30
0.0
  0
SEQEND
  5
ABF
  8
DATA
  6
CONTINUOUS
 62
     7
  0
POLYLINE
  5
2DB
  8
DATA
  6
CONTINUOUS
 62
     7
 66
     1
 10
0.0
 20
0.0
 30
0.0
  0
VERTEX
  5
AC0
  8
DATA
  6
CONTINUOUS
 62
     7
 10
181.8000000000001
 20
-188.5
 30
0.0
  0
VERTEX
  5
AC1
  8
DATA
  6
CONTINUOUS
 62
     7
 10
183.3000000000001
 20
-188.5
 30
0.0
  0
VERTEX
  5
AC2
  8
DATA
  6
CONTINUOUS
 62
     7
 10
183.3000000000001
 20
-187.5
 30
0.0
  0
VERTEX
  5
AC3
  8
DATA
  6
CONTINUOUS
 62
     7
 10
181.8000000000001
 20
-187.5
 30
0.0
  0
SEQEND
  5
AC4
  8
DATA
  6
CONTINUOUS
 62
     7
  0
POLYLINE
  5
2E2
  8
DATA
  6
CONTINUOUS
 62
     7
 66
     1
 10
0.0
 20
0.0
 30
0.0
  0
VERTEX
  5
AC5
  8
DATA
  6
CONTINUOUS
 62
     7
 10
180.8000000000001
 20
-188.5
 30
0.0
  0
VERTEX
  5
AC6
  8
DATA
  6
CONTINUOUS
 62
     7
 10
179.30000000000021
 20
-188.5
 30
0.0
  0
VERTEX
  5
AC7
  8
DATA
  6
CONTINUOUS
 62
     7
 10
179.30000000000021
 20
-187.5
 30
0.0
  0
VERTEX
  5
AC8
  8
DATA
  6
CONTINUOUS
 62
     7
 10
180.8000000000001
 20
-187.5
 30
0.0
  0
SEQEND
  5
AC9
  8
DATA
  6
CONTINUOUS
 62
     7
  0
ARC
  5
2E9
  8
DATA
  6
CONTINUOUS
 62
     7
 10
181.3000000000001
 20
-188.0
 30
0.0
 40
4.0
 50
0.0
 51
180.0
  0
LINE
  5
2EA
  8
DATA
  6
CONTINUOUS
 62
     7
 10
177.30000000000021
 20
-188.0
 30
0.0
 11
177.30000000000021
 21
-193.0
 31
0.0
  0
LINE
  5
2EB
  8
DATA
  6
CONTINUOUS
 62
     7
 10
185.3000000000001
 20
-188.0
 30
0.0
 11
185.3000000000001
 21
-193.0
 31
0.0
  0
LINE
  5
2EC
  8
DATA
  6
CONTINUOUS
 62
     7
 10
-226.6999999999999
 20
-175.0
 30
0.0
 11
-226.6999999999999
 21
-182.0
 31
0.0
  0
LINE
  5
2ED
  8
DATA
  6
CONTINUOUS
 62
     7
 10
-226.6999999999999
 20
-175.0
 30
0.0
 11
-227.19999999999999
 21
-175.0
 31
0.0
  0
LINE
  5
2EE
  8
DATA
  6
CONTINUOUS
 62
     7
 10
-227.19999999999999
 20
-175.0
 30
0.0
 11
-227.19999999999999
 21
-182.0
 31
0.0
  0
LINE
  5
2EF
  8
DATA
  6
CONTINUOUS
 62
     7
 10
-227.19999999999999
 20
-182.0
 30
0.0
 11
-226.6999999999999
 21
-182.0
 31
0.0
  0
ARC
  5
2F0
  8
DATA
  6
CONTINUOUS
 62
     7
 10
-223.19999999999999
 20
-178.5
 30
0.0
 40
5.0
 50
143.13010235415589
 51
216.86989764584399
  0
LINE
  5
2F1
  8
DATA
  6
CONTINUOUS
 62
     7
 10
-226.6999999999999
 20
2.0
 30
0.0
 11
-226.6999999999999
 21
-5.0
 31
0.0
  0
LINE
  5
2F2
  8
DATA
  6
CONTINUOUS
 62
     7
 10
-226.6999999999999
 20
2.0
 30
0.0
 11
-227.19999999999999
 21
2.0
 31
0.0
  0
LINE
  5
2F3
  8
DATA
  6
CONTINUOUS
 62
     7
 10
-227.19999999999999
 20
2.0
 30
0.0
 11
-227.19999999999999
 21
-5.0
 31
0.0
  0
LINE
  5
2F4
  8
DATA
  6
CONTINUOUS
 62
     7
 10
-227.19999999999999
 20
-5.0
 30
0.0
 11
-226.6999999999999
 21
-5.0
 31
0.0
  0
ARC
  5
2F5
  8
DATA
  6
CONTINUOUS
 62
     7
 10
-223.19999999999999
 20
-1.5
 30
0.0
 40
5.0
 50
143.13010235415589
 51
216.86989764584399
  0
LINE
  5
2F6
  8
DATA
  6
CONTINUOUS
 62
     7
 10
209.30000000000021
 20
-175.0
 30
0.0
 11
209.30000000000021
 21
-182.0
 31
0.0
  0
LINE
  5
2F7
  8
DATA
  6
CONTINUOUS
 62
     7
 10
209.30000000000021
 20
-175.0
 30
0.0
 11
209.80000000000021
 21
-175.0
 31
0.0
  0
LINE
  5
2F8
  8
DATA
  6
CONTINUOUS
 62
     7
 10
209.80000000000021
 20
-175.0
 30
0.0
 11
209.80000000000021
 21
-182.0
 31
0.0
  0
LINE
  5
2F9
  8
DATA
  6
CONTINUOUS
 62
     7
 10
209.80000000000021
 20
-182.0
 30
0.0
 11
209.30000000000021
 21
-182.0
 31
0.0
  0
ARC
  5
2FA
  8
DATA
  6
CONTINUOUS
 62
     7
 10
205.80000000000021
 20
-178.5
 30
0.0
 40
5.0
 50
323.13010235415612
 51
36.869897645844041
  0
LINE
  5
2FB
  8
DATA
  6
CONTINUOUS
 62
     7
 10
209.30000000000021
 20
2.0
 30
0.0
 11
209.30000000000021
 21
-5.0
 31
0.0
  0
LINE
  5
2FC
  8
DATA
  6
CONTINUOUS
 62
     7
 10
209.30000000000021
 20
2.0
 30
0.0
 11
209.80000000000021
 21
2.0
 31
0.0
  0
LINE
  5
2FD
  8
DATA
  6
CONTINUOUS
 62
     7
 10
209.80000000000021
 20
2.0
 30
0.0
 11
209.80000000000021
 21
-5.0
 31
0.0
  0
LINE
  5
2FE
  8
DATA
  6
CONTINUOUS
 62
     7
 10
209.80000000000021
 20
-5.0
 30
0.0
 11
209.30000000000021
 21
-5.0
 31
0.0
  0
ARC
  5
2FF
  8
DATA
  6
CONTINUOUS
 62
     7
 10
205.80000000000021
 20
-1.5
 30
0.0
 40
5.0
 50
323.13010235415612
 51
36.869897645844041
  0
ARC
  5
300
  8
DATA
  6
CONTINUOUS
 62
     7
 10
-222.1999999999999
 20
-188.5
 30
0.0
 40
5.0000000000000009
 50
154.15806723683281
 51
205.84193276316719
  0
ARC
  5
301
  8
DATA
  6
CONTINUOUS
 62
     7
 10
204.8000000000001
 20
-188.5
 30
0.0
 40
5.0000000000000009
 50
334.15806723683289
 51
25.841932763167179
  0
ARC
  5
302
  8
DATA
  6
CONTINUOUS
 62
     7
 10
204.7166666666667
 20
-171.5
 30
0.0
 40
6.083333333333373
 50
324.87638119071681
 51
41.112090439166018
  0
ARC
  5
303
  8
DATA
  6
CONTINUOUS
 62
     7
 10
204.7166666666667
 20
-139.5
 30
0.0
 40
6.0833333333334467
 50
318.88790956083398
 51
41.112090439166018
  0
LINE
  5
304
  8
DATA
  6
CONTINUOUS
 62
     7
 10
-185.1999999999999
 20
37.5
 30
0.0
 11
-185.1999999999999
 21
33.5
 31
0.0
  0
LINE
  5
305
  8
DATA
  6
CONTINUOUS
 62
     7
 10
-215.19999999999999
 20
37.5
 30
0.0
 11
-215.19999999999999
 21
33.5
 31
0.0
  0
LINE
  5
306
  8
DATA
  6
CONTINUOUS
 62
     7
 10
-215.19999999999999
 20
37.5
 30
0.0
 11
-185.1999999999999
 21
37.5
 31
0.0
  0
LINE
  5
307
  8
DATA
  6
CONTINUOUS
 62
     7
 10
-185.1999999999999
 20
37.5
 30
0.0
 11
-185.1999999999999
 21
47.0
 31
0.0
  0
LINE
  5
308
  8
DATA
  6
CONTINUOUS
 62
     7
 10
-215.19999999999999
 20
37.5
 30
0.0
 11
-215.19999999999999
 21
47.0
 31
0.0
  0
LINE
  5
309
  8
DATA
  6
CONTINUOUS
 62
     7
 10
-215.19999999999999
 20
47.0
 30
0.0
 11
-185.1999999999999
 21
47.0
 31
0.0
  0
LINE
  5
30A
  8
DATA
  6
CONTINUOUS
 62
     7
 10
-215.19999999999999
 20
45.0
 30
0.0
 11
-185.1999999999999
 21
45.0
 31
0.0
  0
LINE
  5
30B
  8
DATA
  6
CONTINUOUS
 62
     7
 10
-215.19999999999999
 20
38.0
 30
0.0
 11
-185.1999999999999
 21
38.0
 31
0.0
  0
CIRCLE
  5
30C
  8
DATA
  6
CONTINUOUS
 62
     7
 10
-212.69999999999999
 20
41.5
 30
0.0
 40
2.0000000000000222
  0
LINE
  5
30D
  8
DATA
  6
CONTINUOUS
 62
     7
 10
-214.54346588560841
 20
40.724349609296887
 30
0.0
 11
-211.10653411439151
 21
42.708663092595323
 31
0.0
  0
LINE
  5
30E
  8
DATA
  6
CONTINUOUS
 62
     7
 10
-214.29346588560841
 20
40.291336907404691
 30
0.0
 11
-210.85653411439151
 21
42.275650390703113
 31
0.0
  0
CIRCLE
  5
30F
  8
DATA
  6
CONTINUOUS
 62
     7
 10
-207.6999999999999
 20
41.5
 30
0.0
 40
2.0000000000000222
  0
LINE
  5
310
  8
DATA
  6
CONTINUOUS
 62
     7
 10
-209.54346588560841
 20
40.724349609296887
 30
0.0
 11
-206.10653411439151
 21
42.708663092595323
 31
0.0
  0
LINE
  5
311
  8
DATA
  6
CONTINUOUS
 62
     7
 10
-209.29346588560841
 20
40.291336907404691
 30
0.0
 11
-205.85653411439151
 21
42.275650390703113
 31
0.0
  0
CIRCLE
  5
312
  8
DATA
  6
CONTINUOUS
 62
     7
 10
-202.69999999999999
 20
41.5
 30
0.0
 40
2.0000000000000222
  0
LINE
  5
313
  8
DATA
  6
CONTINUOUS
 62
     7
 10
-204.54346588560841
 20
40.724349609296887
 30
0.0
 11
-201.10653411439151
 21
42.708663092595323
 31
0.0
  0
LINE
  5
314
  8
DATA
  6
CONTINUOUS
 62
     7
 10
-204.29346588560841
 20
40.291336907404691
 30
0.0
 11
-200.85653411439151
 21
42.275650390703113
 31
0.0
  0
CIRCLE
  5
315
  8
DATA
  6
CONTINUOUS
 62
     7
 10
-197.6999999999999
 20
41.5
 30
0.0
 40
2.0000000000000222
  0
LINE
  5
316
  8
DATA
  6
CONTINUOUS
 62
     7
 10
-199.54346588560841
 20
40.724349609296887
 30
0.0
 11
-196.10653411439139
 21
42.708663092595323
 31
0.0
  0
LINE
  5
317
  8
DATA
  6
CONTINUOUS
 62
     7
 10
-199.29346588560841
 20
40.291336907404691
 30
0.0
 11
-195.85653411439151
 21
42.275650390703113
 31
0.0
  0
CIRCLE
  5
318
  8
DATA
  6
CONTINUOUS
 62
     7
 10
-192.6999999999999
 20
41.5
 30
0.0
 40
2.0000000000000222
  0
LINE
  5
319
  8
DATA
  6
CONTINUOUS
 62
     7
 10
-194.54346588560841
 20
40.724349609296887
 30
0.0
 11
-191.10653411439151
 21
42.708663092595323
 31
0.0
  0
LINE
  5
31A
  8
DATA
  6
CONTINUOUS
 62
     7
 10
-194.29346588560841
 20
40.291336907404691
 30
0.0
 11
-190.85653411439151
 21
42.275650390703113
 31
0.0
  0
CIRCLE
  5
31B
  8
DATA
  6
CONTINUOUS
 62
     7
 10
-187.6999999999999
 20
41.5
 30
0.0
 40
2.0000000000000222
  0
LINE
  5
31C
  8
DATA
  6
CONTINUOUS
 62
     7
 10
-189.54346588560841
 20
40.724349609296887
 30
0.0
 11
-186.10653411439151
 21
42.708663092595323
 31
0.0
  0
LINE
  5
31D
  8
DATA
  6
CONTINUOUS
 62
     7
 10
-189.29346588560841
 20
40.291336907404691
 30
0.0
 11
-185.85653411439151
 21
42.275650390703113
 31
0.0
  0
LINE
  5
31E
  8
DATA
  6
CONTINUOUS
 62
     7
 10
-142.6999999999999
 20
37.5
 30
0.0
 11
-142.6999999999999
 21
33.5
 31
0.0
  0
LINE
  5
31F
  8
DATA
  6
CONTINUOUS
 62
     7
 10
-172.6999999999999
 20
37.5
 30
0.0
 11
-172.6999999999999
 21
33.5
 31
0.0
  0
LINE
  5
320
  8
DATA
  6
CONTINUOUS
 62
     7
 10
-172.6999999999999
 20
37.5
 30
0.0
 11
-142.6999999999999
 21
37.5
 31
0.0
  0
LINE
  5
321
  8
DATA
  6
CONTINUOUS
 62
     7
 10
-142.6999999999999
 20
37.5
 30
0.0
 11
-142.6999999999999
 21
47.0
 31
0.0
  0
LINE
  5
322
  8
DATA
  6
CONTINUOUS
 62
     7
 10
-172.6999999999999
 20
37.5
 30
0.0
 11
-172.6999999999999
 21
47.0
 31
0.0
  0
LINE
  5
323
  8
DATA
  6
CONTINUOUS
 62
     7
 10
-172.6999999999999
 20
47.0
 30
0.0
 11
-142.6999999999999
 21
47.0
 31
0.0
  0
LINE
  5
324
  8
DATA
  6
CONTINUOUS
 62
     7
 10
-172.6999999999999
 20
45.0
 30
0.0
 11
-142.6999999999999
 21
45.0
 31
0.0
  0
LINE
  5
325
  8
DATA
  6
CONTINUOUS
 62
     7
 10
-172.6999999999999
 20
38.0
 30
0.0
 11
-142.6999999999999
 21
38.0
 31
0.0
  0
CIRCLE
  5
326
  8
DATA
  6
CONTINUOUS
 62
     7
 10
-170.1999999999999
 20
41.5
 30
0.0
 40
2.0000000000000222
  0
LINE
  5
327
  8
DATA
  6
CONTINUOUS
 62
     7
 10
-172.0434658856083
 20
40.724349609296887
 30
0.0
 11
-168.60653411439139
 21
42.708663092595323
 31
0.0
  0
LINE
  5
328
  8
DATA
  6
CONTINUOUS
 62
     7
 10
-171.7934658856083
 20
40.291336907404691
 30
0.0
 11
-168.35653411439139
 21
42.275650390703113
 31
0.0
  0
CIRCLE
  5
329
  8
DATA
  6
CONTINUOUS
 62
     7
 10
-165.1999999999999
 20
41.5
 30
0.0
 40
2.0000000000000222
  0
LINE
  5
32A
  8
DATA
  6
CONTINUOUS
 62
     7
 10
-167.0434658856083
 20
40.724349609296887
 30
0.0
 11
-163.60653411439139
 21
42.708663092595323
 31
0.0
  0
LINE
  5
32B
  8
DATA
  6
CONTINUOUS
 62
     7
 10
-166.7934658856083
 20
40.291336907404691
 30
0.0
 11
-163.35653411439139
 21
42.275650390703113
 31
0.0
  0
CIRCLE
  5
32C
  8
DATA
  6
CONTINUOUS
 62
     7
 10
-160.1999999999999
 20
41.5
 30
0.0
 40
2.0000000000000222
  0
LINE
  5
32D
  8
DATA
  6
CONTINUOUS
 62
     7
 10
-162.0434658856083
 20
40.724349609296887
 30
0.0
 11
-158.60653411439139
 21
42.708663092595323
 31
0.0
  0
LINE
  5
32E
  8
DATA
  6
CONTINUOUS
 62
     7
 10
-161.7934658856083
 20
40.291336907404691
 30
0.0
 11
-158.35653411439139
 21
42.275650390703113
 31
0.0
  0
CIRCLE
  5
32F
  8
DATA
  6
CONTINUOUS
 62
     7
 10
-155.1999999999999
 20
41.5
 30
0.0
 40
2.0000000000000222
  0
LINE
  5
330
  8
DATA
  6
CONTINUOUS
 62
     7
 10
-157.0434658856083
 20
40.724349609296887
 30
0.0
 11
-153.60653411439139
 21
42.708663092595323
 31
0.0
  0
LINE
  5
331
  8
DATA
  6
CONTINUOUS
 62
     7
 10
-156.7934658856083
 20
40.291336907404691
 30
0.0
 11
-153.35653411439139
 21
42.275650390703113
 31
0.0
  0
CIRCLE
  5
332
  8
DATA
  6
CONTINUOUS
 62
     7
 10
-150.1999999999999
 20
41.5
 30
0.0
 40
2.0000000000000222
  0
LINE
  5
333
  8
DATA
  6
CONTINUOUS
 62
     7
 10
-152.0434658856083
 20
40.724349609296887
 30
0.0
 11
-148.60653411439139
 21
42.708663092595323
 31
0.0
  0
LINE
  5
334
  8
DATA
  6
CONTINUOUS
 62
     7
 10
-151.7934658856083
 20
40.291336907404691
 30
0.0
 11
-148.35653411439139
 21
42.275650390703113
 31
0.0
  0
CIRCLE
  5
335
  8
DATA
  6
CONTINUOUS
 62
     7
 10
-145.1999999999999
 20
41.5
 30
0.0
 40
2.0000000000000222
  0
LINE
  5
336
  8
DATA
  6
CONTINUOUS
 62
     7
 10
-147.0434658856083
 20
40.724349609296887
 30
0.0
 11
-143.60653411439139
 21
42.708663092595323
 31
0.0
  0
LINE
  5
337
  8
DATA
  6
CONTINUOUS
 62
     7
 10
-146.7934658856083
 20
40.291336907404691
 30
0.0
 11
-143.35653411439139
 21
42.275650390703113
 31
0.0
  0
LINE
  5
338
  8
DATA
  6
CONTINUOUS
 62
     7
 10
-97.199999999999946
 20
37.5
 30
0.0
 11
-97.199999999999946
 21
33.5
 31
0.0
  0
LINE
  5
339
  8
DATA
  6
CONTINUOUS
 62
     7
 10
-127.1999999999999
 20
37.5
 30
0.0
 11
-127.1999999999999
 21
33.5
 31
0.0
  0
LINE
  5
33A
  8
DATA
  6
CONTINUOUS
 62
     7
 10
-127.1999999999999
 20
37.5
 30
0.0
 11
-97.199999999999946
 21
37.5
 31
0.0
  0
LINE
  5
33B
  8
DATA
  6
CONTINUOUS
 62
     7
 10
-97.199999999999946
 20
37.5
 30
0.0
 11
-97.199999999999946
 21
47.0
 31
0.0
  0
LINE
  5
33C
  8
DATA
  6
CONTINUOUS
 62
     7
 10
-127.1999999999999
 20
37.5
 30
0.0
 11
-127.1999999999999
 21
47.0
 31
0.0
  0
LINE
  5
33D
  8
DATA
  6
CONTINUOUS
 62
     7
 10
-127.1999999999999
 20
47.0
 30
0.0
 11
-97.199999999999946
 21
47.0
 31
0.0
  0
LINE
  5
33E
  8
DATA
  6
CONTINUOUS
 62
     7
 10
-127.1999999999999
 20
45.0
 30
0.0
 11
-97.199999999999946
 21
45.0
 31
0.0
  0
LINE
  5
33F
  8
DATA
  6
CONTINUOUS
 62
     7
 10
-127.1999999999999
 20
38.0
 30
0.0
 11
-97.199999999999946
 21
38.0
 31
0.0
  0
CIRCLE
  5
340
  8
DATA
  6
CONTINUOUS
 62
     7
 10
-124.6999999999999
 20
41.5
 30
0.0
 40
2.0000000000000222
  0
LINE
  5
341
  8
DATA
  6
CONTINUOUS
 62
     7
 10
-126.5434658856084
 20
40.724349609296887
 30
0.0
 11
-123.10653411439139
 21
42.708663092595323
 31
0.0
  0
LINE
  5
342
  8
DATA
  6
CONTINUOUS
 62
     7
 10
-126.2934658856084
 20
40.291336907404691
 30
0.0
 11
-122.85653411439149
 21
42.275650390703113
 31
0.0
  0
CIRCLE
  5
343
  8
DATA
  6
CONTINUOUS
 62
     7
 10
-119.6999999999999
 20
41.5
 30
0.0
 40
2.0000000000000222
  0
LINE
  5
344
  8
DATA
  6
CONTINUOUS
 62
     7
 10
-121.5434658856084
 20
40.724349609296887
 30
0.0
 11
-118.10653411439149
 21
42.708663092595323
 31
0.0
  0
LINE
  5
345
  8
DATA
  6
CONTINUOUS
 62
     7
 10
-121.2934658856084
 20
40.291336907404691
 30
0.0
 11
-117.85653411439139
 21
42.275650390703113
 31
0.0
  0
CIRCLE
  5
346
  8
DATA
  6
CONTINUOUS
 62
     7
 10
-114.6999999999999
 20
41.5
 30
0.0
 40
2.0000000000000222
  0
LINE
  5
347
  8
DATA
  6
CONTINUOUS
 62
     7
 10
-116.5434658856084
 20
40.724349609296887
 30
0.0
 11
-113.10653411439149
 21
42.708663092595323
 31
0.0
  0
LINE
  5
348
  8
DATA
  6
CONTINUOUS
 62
     7
 10
-116.2934658856084
 20
40.291336907404691
 30
0.0
 11
-112.85653411439139
 21
42.275650390703113
 31
0.0
  0
CIRCLE
  5
349
  8
DATA
  6
CONTINUOUS
 62
     7
 10
-109.6999999999999
 20
41.5
 30
0.0
 40
2.0000000000000222
  0
LINE
  5
34A
  8
DATA
  6
CONTINUOUS
 62
     7
 10
-111.5434658856084
 20
40.724349609296887
 30
0.0
 11
-108.10653411439149
 21
42.708663092595323
 31
0.0
  0
LINE
  5
34B
  8
DATA
  6
CONTINUOUS
 62
     7
 10
-111.2934658856084
 20
40.291336907404691
 30
0.0
 11
-107.85653411439149
 21
42.275650390703113
 31
0.0
  0
CIRCLE
  5
34C
  8
DATA
  6
CONTINUOUS
 62
     7
 10
-104.6999999999999
 20
41.5
 30
0.0
 40
2.0000000000000222
  0
LINE
  5
34D
  8
DATA
  6
CONTINUOUS
 62
     7
 10
-106.5434658856084
 20
40.724349609296887
 30
0.0
 11
-103.10653411439149
 21
42.708663092595323
 31
0.0
  0
LINE
  5
34E
  8
DATA
  6
CONTINUOUS
 62
     7
 10
-106.2934658856084
 20
40.291336907404691
 30
0.0
 11
-102.85653411439149
 21
42.275650390703113
 31
0.0
  0
CIRCLE
  5
34F
  8
DATA
  6
CONTINUOUS
 62
     7
 10
-99.699999999999946
 20
41.5
 30
0.0
 40
2.0000000000000222
  0
LINE
  5
350
  8
DATA
  6
CONTINUOUS
 62
     7
 10
-101.5434658856084
 20
40.724349609296887
 30
0.0
 11
-98.106534114391465
 21
42.708663092595323
 31
0.0
  0
LINE
  5
351
  8
DATA
  6
CONTINUOUS
 62
     7
 10
-101.2934658856084
 20
40.291336907404691
 30
0.0
 11
-97.856534114391494
 21
42.275650390703113
 31
0.0
  0
LINE
  5
352
  8
DATA
  6
CONTINUOUS
 62
     7
 10
-54.699999999999932
 20
37.5
 30
0.0
 11
-54.699999999999932
 21
33.5
 31
0.0
  0
LINE
  5
353
  8
DATA
  6
CONTINUOUS
 62
     7
 10
-84.699999999999932
 20
37.5
 30
0.0
 11
-84.699999999999932
 21
33.5
 31
0.0
  0
LINE
  5
354
  8
DATA
  6
CONTINUOUS
 62
     7
 10
-84.699999999999932
 20
37.5
 30
0.0
 11
-54.699999999999932
 21
37.5
 31
0.0
  0
LINE
  5
355
  8
DATA
  6
CONTINUOUS
 62
     7
 10
-54.699999999999932
 20
37.5
 30
0.0
 11
-54.699999999999932
 21
47.0
 31
0.0
  0
LINE
  5
356
  8
DATA
  6
CONTINUOUS
 62
     7
 10
-84.699999999999932
 20
37.5
 30
0.0
 11
-84.699999999999932
 21
47.0
 31
0.0
  0
LINE
  5
357
  8
DATA
  6
CONTINUOUS
 62
     7
 10
-84.699999999999932
 20
47.0
 30
0.0
 11
-54.699999999999932
 21
47.0
 31
0.0
  0
LINE
  5
358
  8
DATA
  6
CONTINUOUS
 62
     7
 10
-84.699999999999932
 20
45.0
 30
0.0
 11
-54.699999999999932
 21
45.0
 31
0.0
  0
LINE
  5
359
  8
DATA
  6
CONTINUOUS
 62
     7
 10
-84.699999999999932
 20
38.0
 30
0.0
 11
-54.699999999999932
 21
38.0
 31
0.0
  0
CIRCLE
  5
35A
  8
DATA
  6
CONTINUOUS
 62
     7
 10
-82.199999999999932
 20
41.5
 30
0.0
 40
2.0000000000000222
  0
LINE
  5
35B
  8
DATA
  6
CONTINUOUS
 62
     7
 10
-84.043465885608384
 20
40.724349609296887
 30
0.0
 11
-80.606534114391494
 21
42.708663092595323
 31
0.0
  0
LINE
  5
35C
  8
DATA
  6
CONTINUOUS
 62
     7
 10
-83.793465885608384
 20
40.291336907404691
 30
0.0
 11
-80.356534114391494
 21
42.275650390703113
 31
0.0
  0
CIRCLE
  5
35D
  8
DATA
  6
CONTINUOUS
 62
     7
 10
-77.199999999999932
 20
41.5
 30
0.0
 40
2.0000000000000222
  0
LINE
  5
35E
  8
DATA
  6
CONTINUOUS
 62
     7
 10
-79.043465885608384
 20
40.724349609296887
 30
0.0
 11
-75.606534114391494
 21
42.708663092595323
 31
0.0
  0
LINE
  5
35F
  8
DATA
  6
CONTINUOUS
 62
     7
 10
-78.793465885608384
 20
40.291336907404691
 30
0.0
 11
-75.356534114391494
 21
42.275650390703113
 31
0.0
  0
CIRCLE
  5
360
  8
DATA
  6
CONTINUOUS
 62
     7
 10
-72.199999999999932
 20
41.5
 30
0.0
 40
2.0000000000000222
  0
LINE
  5
361
  8
DATA
  6
CONTINUOUS
 62
     7
 10
-74.043465885608384
 20
40.724349609296887
 30
0.0
 11
-70.606534114391494
 21
42.708663092595323
 31
0.0
  0
LINE
  5
362
  8
DATA
  6
CONTINUOUS
 62
     7
 10
-73.793465885608384
 20
40.291336907404691
 30
0.0
 11
-70.356534114391494
 21
42.275650390703113
 31
0.0
  0
CIRCLE
  5
363
  8
DATA
  6
CONTINUOUS
 62
     7
 10
-67.199999999999932
 20
41.5
 30
0.0
 40
2.0000000000000222
  0
LINE
  5
364
  8
DATA
  6
CONTINUOUS
 62
     7
 10
-69.043465885608398
 20
40.724349609296887
 30
0.0
 11
-65.606534114391494
 21
42.708663092595323
 31
0.0
  0
LINE
  5
365
  8
DATA
  6
CONTINUOUS
 62
     7
 10
-68.793465885608398
 20
40.291336907404691
 30
0.0
 11
-65.356534114391494
 21
42.275650390703113
 31
0.0
  0
CIRCLE
  5
366
  8
DATA
  6
CONTINUOUS
 62
     7
 10
-62.199999999999932
 20
41.5
 30
0.0
 40
2.0000000000000222
  0
LINE
  5
367
  8
DATA
  6
CONTINUOUS
 62
     7
 10
-64.043465885608398
 20
40.724349609296887
 30
0.0
 11
-60.606534114391479
 21
42.708663092595323
 31
0.0
  0
LINE
  5
368
  8
DATA
  6
CONTINUOUS
 62
     7
 10
-63.793465885608398
 20
40.291336907404691
 30
0.0
 11
-60.356534114391494
 21
42.275650390703113
 31
0.0
  0
CIRCLE
  5
369
  8
DATA
  6
CONTINUOUS
 62
     7
 10
-57.199999999999932
 20
41.5
 30
0.0
 40
2.0000000000000222
  0
LINE
  5
36A
  8
DATA
  6
CONTINUOUS
 62
     7
 10
-59.043465885608398
 20
40.724349609296887
 30
0.0
 11
-55.606534114391479
 21
42.708663092595323
 31
0.0
  0
LINE
  5
36B
  8
DATA
  6
CONTINUOUS
 62
     7
 10
-58.793465885608398
 20
40.291336907404691
 30
0.0
 11
-55.356534114391494
 21
42.275650390703113
 31
0.0
  0
LINE
  5
36C
  8
DATA
  6
CONTINUOUS
 62
     7
 10
17.30000000000005
 20
36.5
 30
0.0
 11
17.30000000000005
 21
33.5
 31
0.0
  0
LINE
  5
36D
  8
DATA
  6
CONTINUOUS
 62
     7
 10
-45.699999999999932
 20
36.5
 30
0.0
 11
-45.699999999999932
 21
33.5
 31
0.0
  0
LINE
  5
36E
  8
DATA
  6
CONTINUOUS
 62
     7
 10
-45.699999999999932
 20
36.5
 30
0.0
 11
17.30000000000005
 21
36.5
 31
0.0
  0
LINE
  5
36F
  8
DATA
  6
CONTINUOUS
 62
     7
 10
-44.199999999999939
 20
36.5
 30
0.0
 11
-14.199999999999941
 21
36.5
 31
0.0
  0
LINE
  5
370
  8
DATA
  6
CONTINUOUS
 62
     7
 10
-14.199999999999941
 20
36.5
 30
0.0
 11
-14.199999999999941
 21
46.0
 31
0.0
  0
LINE
  5
371
  8
DATA
  6
CONTINUOUS
 62
     7
 10
-44.199999999999939
 20
36.5
 30
0.0
 11
-44.199999999999939
 21
46.0
 31
0.0
  0
LINE
  5
372
  8
DATA
  6
CONTINUOUS
 62
     7
 10
-44.199999999999939
 20
46.0
 30
0.0
 11
-14.199999999999941
 21
46.0
 31
0.0
  0
LINE
  5
373
  8
DATA
  6
CONTINUOUS
 62
     7
 10
-44.199999999999939
 20
44.0
 30
0.0
 11
-14.199999999999941
 21
44.0
 31
0.0
  0
LINE
  5
374
  8
DATA
  6
CONTINUOUS
 62
     7
 10
-44.199999999999939
 20
37.0
 30
0.0
 11
-14.199999999999941
 21
37.0
 31
0.0
  0
CIRCLE
  5
375
  8
DATA
  6
CONTINUOUS
 62
     7
 10
-41.699999999999939
 20
40.499999999999993
 30
0.0
 40
2.0000000000000222
  0
LINE
  5
376
  8
DATA
  6
CONTINUOUS
 62
     7
 10
-43.543465885608391
 20
39.724349609296901
 30
0.0
 11
-40.106534114391494
 21
41.708663092595323
 31
0.0
  0
LINE
  5
377
  8
DATA
  6
CONTINUOUS
 62
     7
 10
-43.293465885608398
 20
39.291336907404691
 30
0.0
 11
-39.856534114391501
 21
41.275650390703113
 31
0.0
  0
CIRCLE
  5
378
  8
DATA
  6
CONTINUOUS
 62
     7
 10
-36.699999999999953
 20
40.499999999999993
 30
0.0
 40
2.0000000000000222
  0
LINE
  5
379
  8
DATA
  6
CONTINUOUS
 62
     7
 10
-38.543465885608398
 20
39.724349609296901
 30
0.0
 11
-35.106534114391494
 21
41.708663092595323
 31
0.0
  0
LINE
  5
37A
  8
DATA
  6
CONTINUOUS
 62
     7
 10
-38.293465885608398
 20
39.291336907404691
 30
0.0
 11
-34.856534114391494
 21
41.275650390703113
 31
0.0
  0
CIRCLE
  5
37B
  8
DATA
  6
CONTINUOUS
 62
     7
 10
-31.69999999999995
 20
40.499999999999993
 30
0.0
 40
2.0000000000000222
  0
LINE
  5
37C
  8
DATA
  6
CONTINUOUS
 62
     7
 10
-33.543465885608398
 20
39.724349609296901
 30
0.0
 11
-30.10653411439149
 21
41.708663092595323
 31
0.0
  0
LINE
  5
37D
  8
DATA
  6
CONTINUOUS
 62
     7
 10
-33.293465885608398
 20
39.291336907404691
 30
0.0
 11
-29.85653411439149
 21
41.275650390703113
 31
0.0
  0
CIRCLE
  5
37E
  8
DATA
  6
CONTINUOUS
 62
     7
 10
-26.69999999999995
 20
40.499999999999993
 30
0.0
 40
2.0000000000000222
  0
LINE
  5
37F
  8
DATA
  6
CONTINUOUS
 62
     7
 10
-28.543465885608398
 20
39.724349609296901
 30
0.0
 11
-25.10653411439149
 21
41.708663092595323
 31
0.0
  0
LINE
  5
380
  8
DATA
  6
CONTINUOUS
 62
     7
 10
-28.293465885608398
 20
39.291336907404691
 30
0.0
 11
-24.85653411439149
 21
41.275650390703113
 31
0.0
  0
CIRCLE
  5
381
  8
DATA
  6
CONTINUOUS
 62
     7
 10
-21.69999999999995
 20
40.499999999999993
 30
0.0
 40
2.0000000000000222
  0
LINE
  5
382
  8
DATA
  6
CONTINUOUS
 62
     7
 10
-23.543465885608398
 20
39.724349609296901
 30
0.0
 11
-20.10653411439149
 21
41.708663092595323
 31
0.0
  0
LINE
  5
383
  8
DATA
  6
CONTINUOUS
 62
     7
 10
-23.293465885608398
 20
39.291336907404691
 30
0.0
 11
-19.85653411439149
 21
41.275650390703113
 31
0.0
  0
CIRCLE
  5
384
  8
DATA
  6
CONTINUOUS
 62
     7
 10
-16.699999999999939
 20
40.499999999999993
 30
0.0
 40
2.0000000000000222
  0
LINE
  5
385
  8
DATA
  6
CONTINUOUS
 62
     7
 10
-18.543465885608398
 20
39.724349609296901
 30
0.0
 11
-15.10653411439149
 21
41.708663092595323
 31
0.0
  0
LINE
  5
386
  8
DATA
  6
CONTINUOUS
 62
     7
 10
-18.293465885608398
 20
39.291336907404691
 30
0.0
 11
-14.85653411439149
 21
41.275650390703113
 31
0.0
  0
LINE
  5
387
  8
DATA
  6
CONTINUOUS
 62
     7
 10
-14.199999999999941
 20
36.5
 30
0.0
 11
15.80000000000005
 21
36.5
 31
0.0
  0
LINE
  5
388
  8
DATA
  6
CONTINUOUS
 62
     7
 10
15.80000000000005
 20
36.5
 30
0.0
 11
15.80000000000005
 21
46.0
 31
0.0
  0
LINE
  5
389
  8
DATA
  6
CONTINUOUS
 62
     7
 10
-14.199999999999941
 20
46.0
 30
0.0
 11
15.80000000000005
 21
46.0
 31
0.0
  0
LINE
  5
38A
  8
DATA
  6
CONTINUOUS
 62
     7
 10
-14.199999999999941
 20
44.0
 30
0.0
 11
15.80000000000005
 21
44.0
 31
0.0
  0
LINE
  5
38B
  8
DATA
  6
CONTINUOUS
 62
     7
 10
-14.199999999999941
 20
37.0
 30
0.0
 11
15.80000000000005
 21
37.0
 31
0.0
  0
CIRCLE
  5
38C
  8
DATA
  6
CONTINUOUS
 62
     7
 10
-11.699999999999941
 20
40.499999999999993
 30
0.0
 40
2.0000000000000222
  0
LINE
  5
38D
  8
DATA
  6
CONTINUOUS
 62
     7
 10
-13.5434658856084
 20
39.724349609296901
 30
0.0
 11
-10.10653411439149
 21
41.708663092595323
 31
0.0
  0
LINE
  5
38E
  8
DATA
  6
CONTINUOUS
 62
     7
 10
-13.2934658856084
 20
39.291336907404691
 30
0.0
 11
-9.8565341143914917
 21
41.275650390703113
 31
0.0
  0
CIRCLE
  5
38F
  8
DATA
  6
CONTINUOUS
 62
     7
 10
-6.6999999999999451
 20
40.499999999999993
 30
0.0
 40
2.0000000000000222
  0
LINE
  5
390
  8
DATA
  6
CONTINUOUS
 62
     7
 10
-8.5434658856083985
 20
39.724349609296901
 30
0.0
 11
-5.1065341143914926
 21
41.708663092595323
 31
0.0
  0
LINE
  5
391
  8
DATA
  6
CONTINUOUS
 62
     7
 10
-8.2934658856083985
 20
39.291336907404691
 30
0.0
 11
-4.8565341143914926
 21
41.275650390703113
 31
0.0
  0
CIRCLE
  5
392
  8
DATA
  6
CONTINUOUS
 62
     7
 10
-1.6999999999999451
 20
40.499999999999993
 30
0.0
 40
2.0000000000000222
  0
LINE
  5
393
  8
DATA
  6
CONTINUOUS
 62
     7
 10
-3.543465885608398
 20
39.724349609296901
 30
0.0
 11
-0.1065341143914935
 21
41.708663092595323
 31
0.0
  0
LINE
  5
394
  8
DATA
  6
CONTINUOUS
 62
     7
 10
-3.293465885608398
 20
39.291336907404691
 30
0.0
 11
0.1434658856085065
 21
41.275650390703113
 31
0.0
  0
CIRCLE
  5
395
  8
DATA
  6
CONTINUOUS
 62
     7
 10
3.3000000000000531
 20
40.499999999999993
 30
0.0
 40
2.0000000000000222
  0
LINE
  5
396
  8
DATA
  6
CONTINUOUS
 62
     7
 10
1.4565341143916011
 20
39.724349609296901
 30
0.0
 11
4.8934658856085056
 21
41.708663092595323
 31
0.0
  0
LINE
  5
397
  8
DATA
  6
CONTINUOUS
 62
     7
 10
1.7065341143916011
 20
39.291336907404691
 30
0.0
 11
5.1434658856085056
 21
41.275650390703113
 31
0.0
  0
CIRCLE
  5
398
  8
DATA
  6
CONTINUOUS
 62
     7
 10
8.300000000000054
 20
40.499999999999993
 30
0.0
 40
2.0000000000000222
  0
LINE
  5
399
  8
DATA
  6
CONTINUOUS
 62
     7
 10
6.4565341143916006
 20
39.724349609296901
 30
0.0
 11
9.8934658856085065
 21
41.708663092595323
 31
0.0
  0
LINE
  5
39A
  8
DATA
  6
CONTINUOUS
 62
     7
 10
6.7065341143916006
 20
39.291336907404691
 30
0.0
 11
10.143465885608499
 21
41.275650390703113
 31
0.0
  0
CIRCLE
  5
39B
  8
DATA
  6
CONTINUOUS
 62
     7
 10
13.30000000000005
 20
40.499999999999993
 30
0.0
 40
2.0000000000000222
  0
LINE
  5
39C
  8
DATA
  6
CONTINUOUS
 62
     7
 10
11.4565341143916
 20
39.724349609296901
 30
0.0
 11
14.89346588560851
 21
41.708663092595323
 31
0.0
  0
LINE
  5
39D
  8
DATA
  6
CONTINUOUS
 62
     7
 10
11.7065341143916
 20
39.291336907404691
 30
0.0
 11
15.143465885608499
 21
41.275650390703113
 31
0.0
  0
LINE
  5
39E
  8
DATA
  6
CONTINUOUS
 62
     7
 10
99.733533815678555
 20
37.0
 30
0.0
 11
99.733533815678555
 21
33.5
 31
0.0
  0
LINE
  5
39F
  8
DATA
  6
CONTINUOUS
 62
     7
 10
94.860000000000127
 20
37.0
 30
0.0
 11
94.860000000000127
 21
33.5
 31
0.0
  0
LINE
  5
3A0
  8
DATA
  6
CONTINUOUS
 62
     7
 10
92.701993373749247
 20
37.0
 30
0.0
 11
92.701993373749247
 21
33.5
 31
0.0
  0
LINE
  5
3A1
  8
DATA
  6
CONTINUOUS
 62
     7
 10
76.891540441929223
 20
37.0
 30
0.0
 11
76.891540441929223
 21
33.5
 31
0.0
  0
LINE
  5
3A2
  8
DATA
  6
CONTINUOUS
 62
     7
 10
74.733533815678456
 20
37.0
 30
0.0
 11
74.733533815678456
 21
33.5
 31
0.0
  0
LINE
  5
3A3
  8
DATA
  6
CONTINUOUS
 62
     7
 10
69.860000000000099
 20
37.0
 30
0.0
 11
69.860000000000099
 21
33.5
 31
0.0
  0
LINE
  5
3A4
  8
DATA
  6
CONTINUOUS
 62
     7
 10
69.860000000000099
 20
37.0
 30
0.0
 11
74.733533815678456
 21
37.0
 31
0.0
  0
LINE
  5
3A5
  8
DATA
  6
CONTINUOUS
 62
     7
 10
76.891540441929223
 20
37.0
 30
0.0
 11
92.701993373749247
 21
37.0
 31
0.0
  0
LINE
  5
3A6
  8
DATA
  6
CONTINUOUS
 62
     7
 10
94.860000000000127
 20
37.0
 30
0.0
 11
99.733533815678555
 21
37.0
 31
0.0
  0
LINE
  5
3A7
  8
DATA
  6
CONTINUOUS
 62
     7
 10
72.300000000000054
 20
37.0
 30
0.0
 11
72.300000000000054
 21
33.5
 31
0.0
  0
LINE
  5
3A8
  8
DATA
  6
CONTINUOUS
 62
     7
 10
97.296766907839341
 20
37.0
 30
0.0
 11
97.296766907839341
 21
33.5
 31
0.0
  0
LINE
  5
3A9
  8
DATA
  6
CONTINUOUS
 62
     7
 10
22.550000000000061
 20
43.0
 30
0.0
 11
22.550000000000061
 21
33.5
 31
0.0
  0
LINE
  5
3AA
  8
DATA
  6
CONTINUOUS
 62
     7
 10
32.050000000000047
 20
43.0
 30
0.0
 11
32.050000000000047
 21
33.5
 31
0.0
  0
LINE
  5
3AB
  8
DATA
  6
CONTINUOUS
 62
     7
 10
22.550000000000061
 20
43.0
 30
0.0
 11
32.050000000000047
 21
43.0
 31
0.0
  0
LINE
  5
3AC
  8
DATA
  6
CONTINUOUS
 62
     7
 10
21.80000000000005
 20
40.0
 30
0.0
 11
21.80000000000005
 21
38.0
 31
0.0
  0
LINE
  5
3AD
  8
DATA
  6
CONTINUOUS
 62
     7
 10
21.80000000000005
 20
38.0
 30
0.0
 11
22.550000000000061
 21
38.0
 31
0.0
  0
LINE
  5
3AE
  8
DATA
  6
CONTINUOUS
 62
     7
 10
21.80000000000005
 20
40.0
 30
0.0
 11
22.550000000000061
 21
40.0
 31
0.0
  0
LINE
  5
3AF
  8
DATA
  6
CONTINUOUS
 62
     7
 10
32.800000000000061
 20
40.0
 30
0.0
 11
32.800000000000061
 21
38.0
 31
0.0
  0
LINE
  5
3B0
  8
DATA
  6
CONTINUOUS
 62
     7
 10
32.800000000000061
 20
38.0
 30
0.0
 11
32.050000000000047
 21
38.0
 31
0.0
  0
LINE
  5
3B1
  8
DATA
  6
CONTINUOUS
 62
     7
 10
32.800000000000061
 20
40.0
 30
0.0
 11
32.050000000000047
 21
40.0
 31
0.0
  0
LINE
  5
3B2
  8
DATA
  6
CONTINUOUS
 62
     7
 10
49.300000000000047
 20
34.5
 30
0.0
 11
49.300000000000047
 21
33.5
 31
0.0
  0
LINE
  5
3B3
  8
DATA
  6
CONTINUOUS
 62
     7
 10
64.800000000000054
 20
34.5
 30
0.0
 11
64.800000000000054
 21
33.5
 31
0.0
  0
LINE
  5
3B4
  8
DATA
  6
CONTINUOUS
 62
     7
 10
49.300000000000047
 20
34.5
 30
0.0
 11
64.800000000000054
 21
34.5
 31
0.0
  0
LINE
  5
3B5
  8
DATA
  6
CONTINUOUS
 62
     7
 10
105.3000000000001
 20
34.5
 30
0.0
 11
105.3000000000001
 21
33.5
 31
0.0
  0
LINE
  5
3B6
  8
DATA
  6
CONTINUOUS
 62
     7
 10
111.2999999999999
 20
34.5
 30
0.0
 11
111.2999999999999
 21
33.5
 31
0.0
  0
ARC
  5
3B7
  8
DATA
  6
CONTINUOUS
 62
     7
 10
108.3000000000001
 20
30.5
 30
0.0
 40
4.9999999999998632
 50
53.130102354158062
 51
126.86989764584401
  0
LINE
  5
3B8
  8
DATA
  6
CONTINUOUS
 62
     7
 10
296.0
 20
-300.0
 30
0.0
 11
300.0
 21
-300.0
 31
0.0
  0
LINE
  5
3B9
  8
DATA
  6
CONTINUOUS
 62
     7
 10
296.0
 20
-256.0
 30
0.0
 11
301.0
 21
-256.0
 31
0.0
  0
LINE
  5
3BA
  8
DATA
  6
CONTINUOUS
 62
     7
 10
294.5
 20
-269.25
 30
0.0
 11
294.5
 21
-286.75
 31
0.0
  0
LINE
  5
3BB
  8
DATA
  6
CONTINUOUS
 62
     7
 10
296.5
 20
-256.0
 30
0.0
 11
296.5
 21
-269.25
 31
0.0
  0
LINE
  5
3BC
  8
DATA
  6
CONTINUOUS
 62
     7
 10
296.5
 20
-286.75
 30
0.0
 11
296.5
 21
-300.0
 31
0.0
  0
LINE
  5
3BD
  8
DATA
  6
CONTINUOUS
 62
     7
 10
299.0
 20
-256.0
 30
0.0
 11
299.0
 21
-300.0
 31
0.0
  0
LINE
  5
3BE
  8
DATA
  6
CONTINUOUS
 62
     7
 10
294.5
 20
-269.25
 30
0.0
 11
296.5
 21
-269.25
 31
0.0
  0
LINE
  5
3BF
  8
DATA
  6
CONTINUOUS
 62
     7
 10
294.5
 20
-286.75
 30
0.0
 11
296.5
 21
-286.75
 31
0.0
  0
LINE
  5
3C0
  8
DATA
  6
CONTINUOUS
 62
     7
 10
296.0
 20
-256.0
 30
0.0
 11
294.5
 21
-269.25
 31
0.0
  0
LINE
  5
3C1
  8
DATA
  6
CONTINUOUS
 62
     7
 10
294.5
 20
-286.75
 30
0.0
 11
296.0
 21
-300.0
 31
0.0
  0
LINE
  5
3C2
  8
DATA
  6
CONTINUOUS
 62
     7
 10
300.0
 20
-256.0
 30
0.0
 11
300.0
 21
-300.0
 31
0.0
  0
POLYLINE
  5
3C3
  8
DATA
  6
CONTINUOUS
 62
     7
 66
     1
 10
0.0
 20
0.0
 30
0.0
 70
     1
  0
VERTEX
  5
ACA
  8
DATA
  6
CONTINUOUS
 62
     7
 10
-250.0
 20
194.0
 30
0.0
  0
VERTEX
  5
ACB
  8
DATA
  6
CONTINUOUS
 62
     7
 10
233.0
 20
194.0
 30
0.0
  0
VERTEX
  5
ACC
  8
DATA
  6
CONTINUOUS
 62
     7
 10
233.0
 20
150.0
 30
0.0
  0
VERTEX
  5
ACD
  8
DATA
  6
CONTINUOUS
 62
     7
 10
-250.0
 20
150.0
 30
0.0
  0
SEQEND
  5
ACE
  8
DATA
  6
CONTINUOUS
 62
     7
  0
LINE
  5
3CA
  8
DATA
  6
CONTINUOUS
 62
     7
 10
-226.6999999999999
 20
150.5
 30
0.0
 11
-226.6999999999999
 21
162.0
 31
0.0
  0
LINE
  5
3CB
  8
DATA
  6
CONTINUOUS
 62
     7
 10
209.30000000000021
 20
150.5
 30
0.0
 11
209.30000000000021
 21
162.0
 31
0.0
  0
LINE
  5
3CC
  8
DATA
  6
CONTINUOUS
 62
     7
 10
-225.69999999999999
 20
156.0
 30
0.0
 11
-225.69999999999999
 21
193.5
 31
0.0
  0
LINE
  5
3CD
  8
DATA
  6
CONTINUOUS
 62
     7
 10
-225.69999999999999
 20
156.0
 30
0.0
 11
-140.69999999999979
 21
156.0
 31
0.0
  0
LINE
  5
3CE
  8
DATA
  6
CONTINUOUS
 62
     7
 10
-132.69999999999979
 20
156.0
 30
0.0
 11
115.3000000000001
 21
156.0
 31
0.0
  0
LINE
  5
3CF
  8
DATA
  6
CONTINUOUS
 62
     7
 10
123.3000000000001
 20
156.0
 30
0.0
 11
208.3000000000001
 21
156.0
 31
0.0
  0
LINE
  5
3D0
  8
DATA
  6
CONTINUOUS
 62
     7
 10
208.3000000000001
 20
156.0
 30
0.0
 11
208.3000000000001
 21
193.5
 31
0.0
  0
LINE
  5
3D1
  8
DATA
  6
CONTINUOUS
 62
     7
 10
-226.6999999999999
 20
162.0
 30
0.0
 11
-225.69999999999999
 21
162.0
 31
0.0
  0
LINE
  5
3D2
  8
DATA
  6
CONTINUOUS
 62
     7
 10
209.30000000000021
 20
162.0
 30
0.0
 11
208.3000000000001
 21
162.0
 31
0.0
  0
LINE
  5
3D3
  8
DATA
  6
CONTINUOUS
 62
     7
 10
209.30000000000021
 20
150.5
 30
0.0
 11
-226.6999999999999
 21
150.5
 31
0.0
  0
LINE
  5
3D4
  8
DATA
  6
CONTINUOUS
 62
     7
 10
-225.69999999999999
 20
193.5
 30
0.0
 11
208.3000000000001
 21
193.5
 31
0.0
  0
TEXT
  5
3D5
  8
DATA
 62
     7
 10
146.6750000000001
 20
191.50999999999999
 30
0.0
 40
2.693359375
  1
T1AL-250V FUSE
 50
180.0
 41
0.7
 11
146.6750000000001
 21
188.81664062499999
 31
0.0
 73
     3
  0
LINE
  5
3D6
  8
DATA
  6
CONTINUOUS
 62
     7
 10
226.15000000000009
 20
160.05000000000001
 30
0.0
 11
222.84999999999991
 21
160.05000000000001
 31
0.0
  0
LINE
  5
3D7
  8
DATA
  6
CONTINUOUS
 62
     7
 10
226.15000000000009
 20
152.94999999999999
 30
0.0
 11
222.84999999999991
 21
152.94999999999999
 31
0.0
  0
ARC
  5
3D8
  8
DATA
  6
CONTINUOUS
 62
     7
 10
226.15000000000009
 20
156.5
 30
0.0
 40
3.5500000000000109
 50
270.0
 51
90.0
  0
ARC
  5
3D9
  8
DATA
  6
CONTINUOUS
 62
     7
 10
222.84999999999991
 20
156.5
 30
0.0
 40
3.5500000000000109
 50
90.0
 51
270.0
  0
LINE
  5
3DA
  8
DATA
  6
CONTINUOUS
 62
     7
 10
226.15000000000009
 20
191.05000000000001
 30
0.0
 11
222.84999999999991
 21
191.05000000000001
 31
0.0
  0
LINE
  5
3DB
  8
DATA
  6
CONTINUOUS
 62
     7
 10
226.15000000000009
 20
183.94999999999999
 30
0.0
 11
222.84999999999991
 21
183.94999999999999
 31
0.0
  0
ARC
  5
3DC
  8
DATA
  6
CONTINUOUS
 62
     7
 10
226.15000000000009
 20
187.5
 30
0.0
 40
3.5500000000000109
 50
270.0
 51
90.0
  0
ARC
  5
3DD
  8
DATA
  6
CONTINUOUS
 62
     7
 10
222.84999999999991
 20
187.5
 30
0.0
 40
3.5500000000000109
 50
90.0
 51
270.0
  0
LINE
  5
3DE
  8
DATA
  6
CONTINUOUS
 62
     7
 10
-243.14999999999981
 20
160.05000000000001
 30
0.0
 11
-239.84999999999991
 21
160.05000000000001
 31
0.0
  0
LINE
  5
3DF
  8
DATA
  6
CONTINUOUS
 62
     7
 10
-243.14999999999981
 20
152.94999999999999
 30
0.0
 11
-239.84999999999991
 21
152.94999999999999
 31
0.0
  0
ARC
  5
3E0
  8
DATA
  6
CONTINUOUS
 62
     7
 10
-243.15000000000001
 20
156.5
 30
0.0
 40
3.5500000000000109
 50
90.0
 51
270.0
  0
ARC
  5
3E1
  8
DATA
  6
CONTINUOUS
 62
     7
 10
-239.84999999999991
 20
156.5
 30
0.0
 40
3.5500000000000109
 50
270.0
 51
90.0
  0
LINE
  5
3E2
  8
DATA
  6
CONTINUOUS
 62
     7
 10
-243.14999999999981
 20
191.05000000000001
 30
0.0
 11
-239.84999999999991
 21
191.05000000000001
 31
0.0
  0
LINE
  5
3E3
  8
DATA
  6
CONTINUOUS
 62
     7
 10
-243.14999999999981
 20
183.94999999999999
 30
0.0
 11
-239.84999999999991
 21
183.94999999999999
 31
0.0
  0
ARC
  5
3E4
  8
DATA
  6
CONTINUOUS
 62
     7
 10
-243.15000000000001
 20
187.5
 30
0.0
 40
3.5500000000000109
 50
90.0
 51
270.0
  0
ARC
  5
3E5
  8
DATA
  6
CONTINUOUS
 62
     7
 10
-239.84999999999991
 20
187.5
 30
0.0
 40
3.5500000000000109
 50
270.0
 51
90.0
  0
LINE
  5
3E6
  8
DATA
  6
CONTINUOUS
 62
     7
 10
162.80000000000021
 20
182.0
 30
0.0
 11
184.8000000000001
 21
182.0
 31
0.0
  0
LINE
  5
3E7
  8
DATA
  6
CONTINUOUS
 62
     7
 10
188.8000000000001
 20
178.0
 30
0.0
 11
188.8000000000001
 21
166.0
 31
0.0
  0
LINE
  5
3E8
  8
DATA
  6
CONTINUOUS
 62
     7
 10
158.80000000000021
 20
178.0
 30
0.0
 11
158.80000000000021
 21
166.0
 31
0.0
  0
LINE
  5
3E9
  8
DATA
  6
CONTINUOUS
 62
     7
 10
162.80000000000021
 20
162.0
 30
0.0
 11
184.8000000000001
 21
162.0
 31
0.0
  0
ARC
  5
3EA
  8
DATA
  6
CONTINUOUS
 62
     7
 10
162.80000000000021
 20
178.0
 30
0.0
 40
4.0
 50
90.0
 51
180.0
  0
ARC
  5
3EB
  8
DATA
  6
CONTINUOUS
 62
     7
 10
184.8000000000001
 20
178.0
 30
0.0
 40
4.0
 50
0.0
 51
90.0
  0
ARC
  5
3EC
  8
DATA
  6
CONTINUOUS
 62
     7
 10
184.8000000000001
 20
166.0
 30
0.0
 40
4.0
 50
270.0
 51
0.0
  0
ARC
  5
3ED
  8
DATA
  6
CONTINUOUS
 62
     7
 10
162.80000000000021
 20
166.0
 30
0.0
 40
4.0
 50
180.0
 51
270.0
  0
LINE
  5
3EE
  8
DATA
  6
CONTINUOUS
 62
     7
 10
185.90000000000001
 20
165.90000000000001
 30
0.0
 11
185.90000000000001
 21
175.0512195121949
 31
0.0
  0
LINE
  5
3EF
  8
DATA
  6
CONTINUOUS
 62
     7
 10
180.90000000000001
 20
180.09999999999999
 30
0.0
 11
166.69999999999999
 21
180.09999999999999
 31
0.0
  0
LINE
  5
3F0
  8
DATA
  6
CONTINUOUS
 62
     7
 10
161.69999999999999
 20
175.0512195121949
 30
0.0
 11
161.69999999999999
 21
165.90000000000001
 31
0.0
  0
LINE
  5
3F1
  8
DATA
  6
CONTINUOUS
 62
     7
 10
163.69999999999999
 20
163.90000000000001
 30
0.0
 11
183.90000000000001
 21
163.90000000000001
 31
0.0
  0
LINE
  5
3F2
  8
DATA
  6
CONTINUOUS
 62
     7
 10
166.69999999999999
 20
180.09999999999999
 30
0.0
 11
161.69999999999999
 21
175.0512195121949
 31
0.0
  0
LINE
  5
3F3
  8
DATA
  6
CONTINUOUS
 62
     7
 10
180.90000000000001
 20
180.09999999999999
 30
0.0
 11
185.90000000000001
 21
175.0512195121949
 31
0.0
  0
POLYLINE
  5
3F4
  8
DATA
  6
CONTINUOUS
 62
     7
 66
     1
 10
0.0
 20
0.0
 30
0.0
 70
     1
  0
VERTEX
  5
ACF
  8
DATA
  6
CONTINUOUS
 62
     7
 10
172.8000000000001
 20
175.59999999999999
 30
0.0
  0
VERTEX
  5
AD0
  8
DATA
  6
CONTINUOUS
 62
     7
 10
174.8000000000001
 20
175.59999999999999
 30
0.0
  0
VERTEX
  5
AD1
  8
DATA
  6
CONTINUOUS
 62
     7
 10
174.8000000000001
 20
171.59999999999999
 30
0.0
  0
VERTEX
  5
AD2
  8
DATA
  6
CONTINUOUS
 62
     7
 10
172.8000000000001
 20
171.59999999999999
 30
0.0
  0
SEQEND
  5
AD3
  8
DATA
  6
CONTINUOUS
 62
     7
  0
POLYLINE
  5
3FB
  8
DATA
  6
CONTINUOUS
 62
     7
 66
     1
 10
0.0
 20
0.0
 30
0.0
 70
     1
  0
VERTEX
  5
AD4
  8
DATA
  6
CONTINUOUS
 62
     7
 10
179.8000000000001
 20
171.59999999999999
 30
0.0
  0
VERTEX
  5
AD5
  8
DATA
  6
CONTINUOUS
 62
     7
 10
181.8000000000001
 20
171.59999999999999
 30
0.0
  0
VERTEX
  5
AD6
  8
DATA
  6
CONTINUOUS
 62
     7
 10
181.8000000000001
 20
167.59999999999999
 30
0.0
  0
VERTEX
  5
AD7
  8
DATA
  6
CONTINUOUS
 62
     7
 10
179.8000000000001
 20
167.59999999999999
 30
0.0
  0
SEQEND
  5
AD8
  8
DATA
  6
CONTINUOUS
 62
     7
  0
POLYLINE
  5
402
  8
DATA
  6
CONTINUOUS
 62
     7
 66
     1
 10
0.0
 20
0.0
 30
0.0
 70
     1
  0
VERTEX
  5
AD9
  8
DATA
  6
CONTINUOUS
 62
     7
 10
165.80000000000021
 20
171.59999999999999
 30
0.0
  0
VERTEX
  5
ADA
  8
DATA
  6
CONTINUOUS
 62
     7
 10
167.80000000000021
 20
171.59999999999999
 30
0.0
  0
VERTEX
  5
ADB
  8
DATA
  6
CONTINUOUS
 62
     7
 10
167.80000000000021
 20
167.59999999999999
 30
0.0
  0
VERTEX
  5
ADC
  8
DATA
  6
CONTINUOUS
 62
     7
 10
165.80000000000021
 20
167.59999999999999
 30
0.0
  0
SEQEND
  5
ADD
  8
DATA
  6
CONTINUOUS
 62
     7
  0
POLYLINE
  5
409
  8
DATA
  6
CONTINUOUS
 62
     7
 66
     1
 10
0.0
 20
0.0
 30
0.0
  0
VERTEX
  5
ADE
  8
DATA
  6
CONTINUOUS
 62
     7
 10
194.3000000000001
 20
172.5
 30
0.0
  0
VERTEX
  5
ADF
  8
DATA
  6
CONTINUOUS
 62
     7
 10
194.3000000000001
 20
173.5
 30
0.0
  0
VERTEX
  5
AE0
  8
DATA
  6
CONTINUOUS
 62
     7
 10
193.3000000000001
 20
173.5
 30
0.0
  0
VERTEX
  5
AE1
  8
DATA
  6
CONTINUOUS
 62
     7
 10
193.3000000000001
 20
172.5
 30
0.0
  0
SEQEND
  5
AE2
  8
DATA
  6
CONTINUOUS
 62
     7
  0
POLYLINE
  5
410
  8
DATA
  6
CONTINUOUS
 62
     7
 66
     1
 10
0.0
 20
0.0
 30
0.0
  0
VERTEX
  5
AE3
  8
DATA
  6
CONTINUOUS
 62
     7
 10
194.3000000000001
 20
171.5
 30
0.0
  0
VERTEX
  5
AE4
  8
DATA
  6
CONTINUOUS
 62
     7
 10
194.3000000000001
 20
170.5
 30
0.0
  0
VERTEX
  5
AE5
  8
DATA
  6
CONTINUOUS
 62
     7
 10
193.3000000000001
 20
170.5
 30
0.0
  0
VERTEX
  5
AE6
  8
DATA
  6
CONTINUOUS
 62
     7
 10
193.3000000000001
 20
171.5
 30
0.0
  0
SEQEND
  5
AE7
  8
DATA
  6
CONTINUOUS
 62
     7
  0
CIRCLE
  5
417
  8
DATA
  6
CONTINUOUS
 62
     7
 10
193.8000000000001
 20
172.0
 30
0.0
 40
2.499999999999988
  0
POLYLINE
  5
418
  8
DATA
  6
CONTINUOUS
 62
     7
 66
     1
 10
0.0
 20
0.0
 30
0.0
  0
VERTEX
  5
AE8
  8
DATA
  6
CONTINUOUS
 62
     7
 10
194.3000000000001
 20
171.5
 30
0.0
  0
VERTEX
  5
AE9
  8
DATA
  6
CONTINUOUS
 62
     7
 10
195.3000000000001
 20
171.5
 30
0.0
  0
VERTEX
  5
AEA
  8
DATA
  6
CONTINUOUS
 62
     7
 10
195.3000000000001
 20
172.5
 30
0.0
  0
VERTEX
  5
AEB
  8
DATA
  6
CONTINUOUS
 62
     7
 10
194.3000000000001
 20
172.5
 30
0.0
  0
SEQEND
  5
AEC
  8
DATA
  6
CONTINUOUS
 62
     7
  0
POLYLINE
  5
41F
  8
DATA
  6
CONTINUOUS
 62
     7
 66
     1
 10
0.0
 20
0.0
 30
0.0
  0
VERTEX
  5
AED
  8
DATA
  6
CONTINUOUS
 62
     7
 10
193.3000000000001
 20
171.5
 30
0.0
  0
VERTEX
  5
AEE
  8
DATA
  6
CONTINUOUS
 62
     7
 10
192.3000000000001
 20
171.5
 30
0.0
  0
VERTEX
  5
AEF
  8
DATA
  6
CONTINUOUS
 62
     7
 10
192.3000000000001
 20
172.5
 30
0.0
  0
VERTEX
  5
AF0
  8
DATA
  6
CONTINUOUS
 62
     7
 10
193.3000000000001
 20
172.5
 30
0.0
  0
SEQEND
  5
AF1
  8
DATA
  6
CONTINUOUS
 62
     7
  0
LINE
  5
426
  8
DATA
  6
CONTINUOUS
 62
     7
 10
208.3000000000001
 20
164.84999999999999
 30
0.0
 11
208.3000000000001
 21
158.15000000000001
 31
0.0
  0
ARC
  5
427
  8
DATA
  6
CONTINUOUS
 62
     7
 10
163.69999999999999
 20
165.90000000000001
 30
0.0
 40
2.0
 50
180.0
 51
270.0
  0
ARC
  5
428
  8
DATA
  6
CONTINUOUS
 62
     7
 10
183.90000000000001
 20
165.90000000000001
 30
0.0
 40
2.0
 50
270.0
 51
0.0
  0
LINE
  5
429
  8
DATA
  6
CONTINUOUS
 62
     7
 10
208.3000000000001
 20
192.84999999999999
 30
0.0
 11
208.3000000000001
 21
186.15000000000001
 31
0.0
  0
LINE
  5
42A
  8
DATA
  6
CONTINUOUS
 62
     7
 10
208.3000000000001
 20
192.84999999999999
 30
0.0
 11
209.30000000000021
 21
192.84999999999999
 31
0.0
  0
LINE
  5
42B
  8
DATA
  6
CONTINUOUS
 62
     7
 10
209.80000000000021
 20
192.34999999999999
 30
0.0
 11
209.80000000000021
 21
186.65000000000001
 31
0.0
  0
LINE
  5
42C
  8
DATA
  6
CONTINUOUS
 62
     7
 10
209.30000000000021
 20
186.15000000000001
 30
0.0
 11
208.3000000000001
 21
186.15000000000001
 31
0.0
  0
ARC
  5
42D
  8
DATA
  6
CONTINUOUS
 62
     7
 10
209.30000000000021
 20
192.34999999999999
 30
0.0
 40
0.5
 50
0.0
 51
90.0
  0
ARC
  5
42E
  8
DATA
  6
CONTINUOUS
 62
     7
 10
209.30000000000021
 20
186.65000000000001
 30
0.0
 40
0.5
 50
270.0
 51
0.0
  0
LINE
  5
42F
  8
DATA
  6
CONTINUOUS
 62
     7
 10
208.3000000000001
 20
163.34999999999999
 30
0.0
 11
208.3000000000001
 21
156.65000000000001
 31
0.0
  0
LINE
  5
430
  8
DATA
  6
CONTINUOUS
 62
     7
 10
208.3000000000001
 20
163.34999999999999
 30
0.0
 11
209.30000000000021
 21
163.34999999999999
 31
0.0
  0
LINE
  5
431
  8
DATA
  6
CONTINUOUS
 62
     7
 10
209.80000000000021
 20
162.84999999999999
 30
0.0
 11
209.80000000000021
 21
161.16739573366979
 31
0.0
  0
ARC
  5
432
  8
DATA
  6
CONTINUOUS
 62
     7
 10
209.30000000000021
 20
162.84999999999999
 30
0.0
 40
0.5
 50
0.0
 51
90.0
  0
LINE
  5
433
  8
DATA
  6
CONTINUOUS
 62
     7
 10
-215.19999999999999
 20
179.5
 30
0.0
 11
-185.1999999999999
 21
179.5
 31
0.0
  0
LINE
  5
434
  8
DATA
  6
CONTINUOUS
 62
     7
 10
-215.19999999999999
 20
180.5
 30
0.0
 11
-213.69999999999999
 21
180.5
 31
0.0
  0
LINE
  5
435
  8
DATA
  6
CONTINUOUS
 62
     7
 10
-213.69999999999999
 20
180.5
 30
0.0
 11
-214.1999999999999
 21
179.5
 31
0.0
  0
LINE
  5
436
  8
DATA
  6
CONTINUOUS
 62
     7
 10
-211.19999999999999
 20
179.5
 30
0.0
 11
-211.6999999999999
 21
180.5
 31
0.0
  0
LINE
  5
437
  8
DATA
  6
CONTINUOUS
 62
     7
 10
-211.6999999999999
 20
180.5
 30
0.0
 11
-208.69999999999999
 21
180.5
 31
0.0
  0
LINE
  5
438
  8
DATA
  6
CONTINUOUS
 62
     7
 10
-208.69999999999999
 20
180.5
 30
0.0
 11
-209.19999999999999
 21
179.5
 31
0.0
  0
LINE
  5
439
  8
DATA
  6
CONTINUOUS
 62
     7
 10
-206.19999999999999
 20
179.5
 30
0.0
 11
-206.69999999999999
 21
180.5
 31
0.0
  0
LINE
  5
43A
  8
DATA
  6
CONTINUOUS
 62
     7
 10
-206.69999999999999
 20
180.5
 30
0.0
 11
-203.6999999999999
 21
180.5
 31
0.0
  0
LINE
  5
43B
  8
DATA
  6
CONTINUOUS
 62
     7
 10
-203.6999999999999
 20
180.5
 30
0.0
 11
-204.19999999999999
 21
179.5
 31
0.0
  0
LINE
  5
43C
  8
DATA
  6
CONTINUOUS
 62
     7
 10
-201.19999999999999
 20
179.5
 30
0.0
 11
-201.6999999999999
 21
180.5
 31
0.0
  0
LINE
  5
43D
  8
DATA
  6
CONTINUOUS
 62
     7
 10
-201.6999999999999
 20
180.5
 30
0.0
 11
-198.6999999999999
 21
180.5
 31
0.0
  0
LINE
  5
43E
  8
DATA
  6
CONTINUOUS
 62
     7
 10
-198.6999999999999
 20
180.5
 30
0.0
 11
-199.1999999999999
 21
179.5
 31
0.0
  0
LINE
  5
43F
  8
DATA
  6
CONTINUOUS
 62
     7
 10
-196.1999999999999
 20
179.5
 30
0.0
 11
-196.6999999999999
 21
180.5
 31
0.0
  0
LINE
  5
440
  8
DATA
  6
CONTINUOUS
 62
     7
 10
-196.6999999999999
 20
180.5
 30
0.0
 11
-193.6999999999999
 21
180.5
 31
0.0
  0
LINE
  5
441
  8
DATA
  6
CONTINUOUS
 62
     7
 10
-193.6999999999999
 20
180.5
 30
0.0
 11
-194.1999999999999
 21
179.5
 31
0.0
  0
LINE
  5
442
  8
DATA
  6
CONTINUOUS
 62
     7
 10
-191.1999999999999
 20
179.5
 30
0.0
 11
-191.6999999999999
 21
180.5
 31
0.0
  0
LINE
  5
443
  8
DATA
  6
CONTINUOUS
 62
     7
 10
-191.6999999999999
 20
180.5
 30
0.0
 11
-188.6999999999999
 21
180.5
 31
0.0
  0
LINE
  5
444
  8
DATA
  6
CONTINUOUS
 62
     7
 10
-188.6999999999999
 20
180.5
 30
0.0
 11
-189.1999999999999
 21
179.5
 31
0.0
  0
LINE
  5
445
  8
DATA
  6
CONTINUOUS
 62
     7
 10
-185.1999999999999
 20
180.5
 30
0.0
 11
-186.6999999999999
 21
180.5
 31
0.0
  0
LINE
  5
446
  8
DATA
  6
CONTINUOUS
 62
     7
 10
-186.6999999999999
 20
180.5
 30
0.0
 11
-186.1999999999999
 21
179.5
 31
0.0
  0
POLYLINE
  5
447
  8
DATA
  6
CONTINUOUS
 62
     7
 66
     1
 10
0.0
 20
0.0
 30
0.0
 70
     1
  0
VERTEX
  5
AF2
  8
DATA
  6
CONTINUOUS
 62
     7
 10
-213.2000000000001
 20
184.0
 30
0.0
  0
VERTEX
  5
AF3
  8
DATA
  6
CONTINUOUS
 62
     7
 10
-212.1999999999999
 20
184.0
 30
0.0
  0
VERTEX
  5
AF4
  8
DATA
  6
CONTINUOUS
 62
     7
 10
-212.1999999999999
 20
183.0
 30
0.0
  0
VERTEX
  5
AF5
  8
DATA
  6
CONTINUOUS
 62
     7
 10
-213.2000000000001
 20
183.0
 30
0.0
  0
SEQEND
  5
AF6
  8
DATA
  6
CONTINUOUS
 62
     7
  0
POLYLINE
  5
44E
  8
DATA
  6
CONTINUOUS
 62
     7
 66
     1
 10
0.0
 20
0.0
 30
0.0
 70
     1
  0
VERTEX
  5
AF7
  8
DATA
  6
CONTINUOUS
 62
     7
 10
-208.19999999999999
 20
184.0
 30
0.0
  0
VERTEX
  5
AF8
  8
DATA
  6
CONTINUOUS
 62
     7
 10
-207.19999999999999
 20
184.0
 30
0.0
  0
VERTEX
  5
AF9
  8
DATA
  6
CONTINUOUS
 62
     7
 10
-207.19999999999999
 20
183.0
 30
0.0
  0
VERTEX
  5
AFA
  8
DATA
  6
CONTINUOUS
 62
     7
 10
-208.19999999999999
 20
183.0
 30
0.0
  0
SEQEND
  5
AFB
  8
DATA
  6
CONTINUOUS
 62
     7
  0
POLYLINE
  5
455
  8
DATA
  6
CONTINUOUS
 62
     7
 66
     1
 10
0.0
 20
0.0
 30
0.0
 70
     1
  0
VERTEX
  5
AFC
  8
DATA
  6
CONTINUOUS
 62
     7
 10
-203.19999999999999
 20
184.0
 30
0.0
  0
VERTEX
  5
AFD
  8
DATA
  6
CONTINUOUS
 62
     7
 10
-202.19999999999999
 20
184.0
 30
0.0
  0
VERTEX
  5
AFE
  8
DATA
  6
CONTINUOUS
 62
     7
 10
-202.19999999999999
 20
183.0
 30
0.0
  0
VERTEX
  5
AFF
  8
DATA
  6
CONTINUOUS
 62
     7
 10
-203.19999999999999
 20
183.0
 30
0.0
  0
SEQEND
  5
B00
  8
DATA
  6
CONTINUOUS
 62
     7
  0
POLYLINE
  5
45C
  8
DATA
  6
CONTINUOUS
 62
     7
 66
     1
 10
0.0
 20
0.0
 30
0.0
 70
     1
  0
VERTEX
  5
B01
  8
DATA
  6
CONTINUOUS
 62
     7
 10
-198.19999999999999
 20
184.0
 30
0.0
  0
VERTEX
  5
B02
  8
DATA
  6
CONTINUOUS
 62
     7
 10
-197.1999999999999
 20
184.0
 30
0.0
  0
VERTEX
  5
B03
  8
DATA
  6
CONTINUOUS
 62
     7
 10
-197.1999999999999
 20
183.0
 30
0.0
  0
VERTEX
  5
B04
  8
DATA
  6
CONTINUOUS
 62
     7
 10
-198.19999999999999
 20
183.0
 30
0.0
  0
SEQEND
  5
B05
  8
DATA
  6
CONTINUOUS
 62
     7
  0
POLYLINE
  5
463
  8
DATA
  6
CONTINUOUS
 62
     7
 66
     1
 10
0.0
 20
0.0
 30
0.0
 70
     1
  0
VERTEX
  5
B06
  8
DATA
  6
CONTINUOUS
 62
     7
 10
-193.19999999999999
 20
184.0
 30
0.0
  0
VERTEX
  5
B07
  8
DATA
  6
CONTINUOUS
 62
     7
 10
-192.1999999999999
 20
184.0
 30
0.0
  0
VERTEX
  5
B08
  8
DATA
  6
CONTINUOUS
 62
     7
 10
-192.1999999999999
 20
183.0
 30
0.0
  0
VERTEX
  5
B09
  8
DATA
  6
CONTINUOUS
 62
     7
 10
-193.19999999999999
 20
183.0
 30
0.0
  0
SEQEND
  5
B0A
  8
DATA
  6
CONTINUOUS
 62
     7
  0
POLYLINE
  5
46A
  8
DATA
  6
CONTINUOUS
 62
     7
 66
     1
 10
0.0
 20
0.0
 30
0.0
 70
     1
  0
VERTEX
  5
B0B
  8
DATA
  6
CONTINUOUS
 62
     7
 10
-188.19999999999999
 20
184.0
 30
0.0
  0
VERTEX
  5
B0C
  8
DATA
  6
CONTINUOUS
 62
     7
 10
-187.1999999999999
 20
184.0
 30
0.0
  0
VERTEX
  5
B0D
  8
DATA
  6
CONTINUOUS
 62
     7
 10
-187.1999999999999
 20
183.0
 30
0.0
  0
VERTEX
  5
B0E
  8
DATA
  6
CONTINUOUS
 62
     7
 10
-188.19999999999999
 20
183.0
 30
0.0
  0
SEQEND
  5
B0F
  8
DATA
  6
CONTINUOUS
 62
     7
  0
LINE
  5
471
  8
DATA
  6
CONTINUOUS
 62
     7
 10
-215.19999999999999
 20
179.0
 30
0.0
 11
-215.19999999999999
 21
186.0
 31
0.0
  0
ARC
  5
472
  8
DATA
  6
CONTINUOUS
 62
     7
 10
-212.69999999999999
 20
182.875
 30
0.0
 40
3.625
 50
46.397181027296369
 51
133.6028189727036
  0
ARC
  5
473
  8
DATA
  6
CONTINUOUS
 62
     7
 10
-207.6999999999999
 20
182.875
 30
0.0
 40
3.625
 50
46.397181027296369
 51
133.6028189727036
  0
ARC
  5
474
  8
DATA
  6
CONTINUOUS
 62
     7
 10
-202.69999999999999
 20
182.875
 30
0.0
 40
3.625
 50
46.397181027296369
 51
133.6028189727036
  0
ARC
  5
475
  8
DATA
  6
CONTINUOUS
 62
     7
 10
-197.6999999999999
 20
182.875
 30
0.0
 40
3.625
 50
46.397181027296369
 51
133.6028189727036
  0
ARC
  5
476
  8
DATA
  6
CONTINUOUS
 62
     7
 10
-192.6999999999999
 20
182.875
 30
0.0
 40
3.625
 50
46.397181027296369
 51
133.6028189727036
  0
ARC
  5
477
  8
DATA
  6
CONTINUOUS
 62
     7
 10
-187.6999999999999
 20
182.875
 30
0.0
 40
3.625
 50
46.397181027296369
 51
133.6028189727036
  0
LINE
  5
478
  8
DATA
  6
CONTINUOUS
 62
     7
 10
-185.1999999999999
 20
186.0
 30
0.0
 11
-185.1999999999999
 21
179.0
 31
0.0
  0
ARC
  5
479
  8
DATA
  6
CONTINUOUS
 62
     7
 10
-212.69999999999999
 20
183.375
 30
0.0
 40
3.625
 50
46.397181027296369
 51
133.6028189727036
  0
ARC
  5
47A
  8
DATA
  6
CONTINUOUS
 62
     7
 10
-207.6999999999999
 20
183.375
 30
0.0
 40
3.625
 50
46.397181027296369
 51
133.6028189727036
  0
ARC
  5
47B
  8
DATA
  6
CONTINUOUS
 62
     7
 10
-202.69999999999999
 20
183.375
 30
0.0
 40
3.625
 50
46.397181027296369
 51
133.6028189727036
  0
ARC
  5
47C
  8
DATA
  6
CONTINUOUS
 62
     7
 10
-197.6999999999999
 20
183.375
 30
0.0
 40
3.625
 50
46.397181027296369
 51
133.6028189727036
  0
ARC
  5
47D
  8
DATA
  6
CONTINUOUS
 62
     7
 10
-192.6999999999999
 20
183.375
 30
0.0
 40
3.625
 50
46.397181027296369
 51
133.6028189727036
  0
ARC
  5
47E
  8
DATA
  6
CONTINUOUS
 62
     7
 10
-187.6999999999999
 20
183.375
 30
0.0
 40
3.625
 50
46.397181027296369
 51
133.6028189727036
  0
LINE
  5
47F
  8
DATA
  6
CONTINUOUS
 62
     7
 10
-215.19999999999999
 20
179.0
 30
0.0
 11
-185.1999999999999
 21
179.0
 31
0.0
  0
LINE
  5
480
  8
DATA
  6
CONTINUOUS
 62
     7
 10
-172.6999999999999
 20
161.5
 30
0.0
 11
-142.6999999999999
 21
161.5
 31
0.0
  0
LINE
  5
481
  8
DATA
  6
CONTINUOUS
 62
     7
 10
-172.6999999999999
 20
162.5
 30
0.0
 11
-171.1999999999999
 21
162.5
 31
0.0
  0
LINE
  5
482
  8
DATA
  6
CONTINUOUS
 62
     7
 10
-171.1999999999999
 20
162.5
 30
0.0
 11
-171.6999999999999
 21
161.5
 31
0.0
  0
LINE
  5
483
  8
DATA
  6
CONTINUOUS
 62
     7
 10
-168.6999999999999
 20
161.5
 30
0.0
 11
-169.1999999999999
 21
162.5
 31
0.0
  0
LINE
  5
484
  8
DATA
  6
CONTINUOUS
 62
     7
 10
-169.1999999999999
 20
162.5
 30
0.0
 11
-166.1999999999999
 21
162.5
 31
0.0
  0
LINE
  5
485
  8
DATA
  6
CONTINUOUS
 62
     7
 10
-166.1999999999999
 20
162.5
 30
0.0
 11
-166.6999999999999
 21
161.5
 31
0.0
  0
LINE
  5
486
  8
DATA
  6
CONTINUOUS
 62
     7
 10
-163.6999999999999
 20
161.5
 30
0.0
 11
-164.1999999999999
 21
162.5
 31
0.0
  0
LINE
  5
487
  8
DATA
  6
CONTINUOUS
 62
     7
 10
-164.1999999999999
 20
162.5
 30
0.0
 11
-161.1999999999999
 21
162.5
 31
0.0
  0
LINE
  5
488
  8
DATA
  6
CONTINUOUS
 62
     7
 10
-161.1999999999999
 20
162.5
 30
0.0
 11
-161.6999999999999
 21
161.5
 31
0.0
  0
LINE
  5
489
  8
DATA
  6
CONTINUOUS
 62
     7
 10
-158.6999999999999
 20
161.5
 30
0.0
 11
-159.1999999999999
 21
162.5
 31
0.0
  0
LINE
  5
48A
  8
DATA
  6
CONTINUOUS
 62
     7
 10
-159.1999999999999
 20
162.5
 30
0.0
 11
-156.1999999999999
 21
162.5
 31
0.0
  0
LINE
  5
48B
  8
DATA
  6
CONTINUOUS
 62
     7
 10
-156.1999999999999
 20
162.5
 30
0.0
 11
-156.6999999999999
 21
161.5
 31
0.0
  0
LINE
  5
48C
  8
DATA
  6
CONTINUOUS
 62
     7
 10
-153.6999999999999
 20
161.5
 30
0.0
 11
-154.1999999999999
 21
162.5
 31
0.0
  0
LINE
  5
48D
  8
DATA
  6
CONTINUOUS
 62
     7
 10
-154.1999999999999
 20
162.5
 30
0.0
 11
-151.1999999999999
 21
162.5
 31
0.0
  0
LINE
  5
48E
  8
DATA
  6
CONTINUOUS
 62
     7
 10
-151.1999999999999
 20
162.5
 30
0.0
 11
-151.6999999999999
 21
161.5
 31
0.0
  0
LINE
  5
48F
  8
DATA
  6
CONTINUOUS
 62
     7
 10
-148.6999999999999
 20
161.5
 30
0.0
 11
-149.1999999999999
 21
162.5
 31
0.0
  0
LINE
  5
490
  8
DATA
  6
CONTINUOUS
 62
     7
 10
-149.1999999999999
 20
162.5
 30
0.0
 11
-146.1999999999999
 21
162.5
 31
0.0
  0
LINE
  5
491
  8
DATA
  6
CONTINUOUS
 62
     7
 10
-146.1999999999999
 20
162.5
 30
0.0
 11
-146.6999999999999
 21
161.5
 31
0.0
  0
LINE
  5
492
  8
DATA
  6
CONTINUOUS
 62
     7
 10
-142.6999999999999
 20
162.5
 30
0.0
 11
-144.1999999999999
 21
162.5
 31
0.0
  0
LINE
  5
493
  8
DATA
  6
CONTINUOUS
 62
     7
 10
-144.1999999999999
 20
162.5
 30
0.0
 11
-143.6999999999999
 21
161.5
 31
0.0
  0
POLYLINE
  5
494
  8
DATA
  6
CONTINUOUS
 62
     7
 66
     1
 10
0.0
 20
0.0
 30
0.0
 70
     1
  0
VERTEX
  5
B10
  8
DATA
  6
CONTINUOUS
 62
     7
 10
-170.69999999999999
 20
166.0
 30
0.0
  0
VERTEX
  5
B11
  8
DATA
  6
CONTINUOUS
 62
     7
 10
-169.6999999999999
 20
166.0
 30
0.0
  0
VERTEX
  5
B12
  8
DATA
  6
CONTINUOUS
 62
     7
 10
-169.6999999999999
 20
165.0
 30
0.0
  0
VERTEX
  5
B13
  8
DATA
  6
CONTINUOUS
 62
     7
 10
-170.69999999999999
 20
165.0
 30
0.0
  0
SEQEND
  5
B14
  8
DATA
  6
CONTINUOUS
 62
     7
  0
POLYLINE
  5
49B
  8
DATA
  6
CONTINUOUS
 62
     7
 66
     1
 10
0.0
 20
0.0
 30
0.0
 70
     1
  0
VERTEX
  5
B15
  8
DATA
  6
CONTINUOUS
 62
     7
 10
-165.69999999999999
 20
166.0
 30
0.0
  0
VERTEX
  5
B16
  8
DATA
  6
CONTINUOUS
 62
     7
 10
-164.6999999999999
 20
166.0
 30
0.0
  0
VERTEX
  5
B17
  8
DATA
  6
CONTINUOUS
 62
     7
 10
-164.6999999999999
 20
165.0
 30
0.0
  0
VERTEX
  5
B18
  8
DATA
  6
CONTINUOUS
 62
     7
 10
-165.69999999999999
 20
165.0
 30
0.0
  0
SEQEND
  5
B19
  8
DATA
  6
CONTINUOUS
 62
     7
  0
POLYLINE
  5
4A2
  8
DATA
  6
CONTINUOUS
 62
     7
 66
     1
 10
0.0
 20
0.0
 30
0.0
 70
     1
  0
VERTEX
  5
B1A
  8
DATA
  6
CONTINUOUS
 62
     7
 10
-160.69999999999999
 20
166.0
 30
0.0
  0
VERTEX
  5
B1B
  8
DATA
  6
CONTINUOUS
 62
     7
 10
-159.6999999999999
 20
166.0
 30
0.0
  0
VERTEX
  5
B1C
  8
DATA
  6
CONTINUOUS
 62
     7
 10
-159.6999999999999
 20
165.0
 30
0.0
  0
VERTEX
  5
B1D
  8
DATA
  6
CONTINUOUS
 62
     7
 10
-160.69999999999999
 20
165.0
 30
0.0
  0
SEQEND
  5
B1E
  8
DATA
  6
CONTINUOUS
 62
     7
  0
POLYLINE
  5
4A9
  8
DATA
  6
CONTINUOUS
 62
     7
 66
     1
 10
0.0
 20
0.0
 30
0.0
 70
     1
  0
VERTEX
  5
B1F
  8
DATA
  6
CONTINUOUS
 62
     7
 10
-155.69999999999999
 20
166.0
 30
0.0
  0
VERTEX
  5
B20
  8
DATA
  6
CONTINUOUS
 62
     7
 10
-154.6999999999999
 20
166.0
 30
0.0
  0
VERTEX
  5
B21
  8
DATA
  6
CONTINUOUS
 62
     7
 10
-154.6999999999999
 20
165.0
 30
0.0
  0
VERTEX
  5
B22
  8
DATA
  6
CONTINUOUS
 62
     7
 10
-155.69999999999999
 20
165.0
 30
0.0
  0
SEQEND
  5
B23
  8
DATA
  6
CONTINUOUS
 62
     7
  0
POLYLINE
  5
4B0
  8
DATA
  6
CONTINUOUS
 62
     7
 66
     1
 10
0.0
 20
0.0
 30
0.0
 70
     1
  0
VERTEX
  5
B24
  8
DATA
  6
CONTINUOUS
 62
     7
 10
-150.69999999999999
 20
166.0
 30
0.0
  0
VERTEX
  5
B25
  8
DATA
  6
CONTINUOUS
 62
     7
 10
-149.6999999999999
 20
166.0
 30
0.0
  0
VERTEX
  5
B26
  8
DATA
  6
CONTINUOUS
 62
     7
 10
-149.6999999999999
 20
165.0
 30
0.0
  0
VERTEX
  5
B27
  8
DATA
  6
CONTINUOUS
 62
     7
 10
-150.69999999999999
 20
165.0
 30
0.0
  0
SEQEND
  5
B28
  8
DATA
  6
CONTINUOUS
 62
     7
  0
POLYLINE
  5
4B7
  8
DATA
  6
CONTINUOUS
 62
     7
 66
     1
 10
0.0
 20
0.0
 30
0.0
 70
     1
  0
VERTEX
  5
B29
  8
DATA
  6
CONTINUOUS
 62
     7
 10
-145.69999999999999
 20
166.0
 30
0.0
  0
VERTEX
  5
B2A
  8
DATA
  6
CONTINUOUS
 62
     7
 10
-144.6999999999999
 20
166.0
 30
0.0
  0
VERTEX
  5
B2B
  8
DATA
  6
CONTINUOUS
 62
     7
 10
-144.6999999999999
 20
165.0
 30
0.0
  0
VERTEX
  5
B2C
  8
DATA
  6
CONTINUOUS
 62
     7
 10
-145.69999999999999
 20
165.0
 30
0.0
  0
SEQEND
  5
B2D
  8
DATA
  6
CONTINUOUS
 62
     7
  0
LINE
  5
4BE
  8
DATA
  6
CONTINUOUS
 62
     7
 10
-172.6999999999999
 20
161.0
 30
0.0
 11
-172.6999999999999
 21
168.0
 31
0.0
  0
ARC
  5
4BF
  8
DATA
  6
CONTINUOUS
 62
     7
 10
-170.1999999999999
 20
164.875
 30
0.0
 40
3.625
 50
46.397181027296369
 51
133.6028189727036
  0
ARC
  5
4C0
  8
DATA
  6
CONTINUOUS
 62
     7
 10
-165.1999999999999
 20
164.875
 30
0.0
 40
3.625
 50
46.397181027296369
 51
133.6028189727036
  0
ARC
  5
4C1
  8
DATA
  6
CONTINUOUS
 62
     7
 10
-160.1999999999999
 20
164.875
 30
0.0
 40
3.625
 50
46.397181027296369
 51
133.6028189727036
  0
ARC
  5
4C2
  8
DATA
  6
CONTINUOUS
 62
     7
 10
-155.1999999999999
 20
164.875
 30
0.0
 40
3.625
 50
46.397181027296369
 51
133.6028189727036
  0
ARC
  5
4C3
  8
DATA
  6
CONTINUOUS
 62
     7
 10
-150.1999999999999
 20
164.875
 30
0.0
 40
3.625
 50
46.397181027296369
 51
133.6028189727036
  0
ARC
  5
4C4
  8
DATA
  6
CONTINUOUS
 62
     7
 10
-145.1999999999999
 20
164.875
 30
0.0
 40
3.625
 50
46.397181027296369
 51
133.6028189727036
  0
LINE
  5
4C5
  8
DATA
  6
CONTINUOUS
 62
     7
 10
-142.6999999999999
 20
168.0
 30
0.0
 11
-142.6999999999999
 21
161.0
 31
0.0
  0
ARC
  5
4C6
  8
DATA
  6
CONTINUOUS
 62
     7
 10
-170.1999999999999
 20
165.375
 30
0.0
 40
3.625
 50
46.397181027296369
 51
133.6028189727036
  0
ARC
  5
4C7
  8
DATA
  6
CONTINUOUS
 62
     7
 10
-165.1999999999999
 20
165.375
 30
0.0
 40
3.625
 50
46.397181027296369
 51
133.6028189727036
  0
ARC
  5
4C8
  8
DATA
  6
CONTINUOUS
 62
     7
 10
-160.1999999999999
 20
165.375
 30
0.0
 40
3.625
 50
46.397181027296369
 51
133.6028189727036
  0
ARC
  5
4C9
  8
DATA
  6
CONTINUOUS
 62
     7
 10
-155.1999999999999
 20
165.375
 30
0.0
 40
3.625
 50
46.397181027296369
 51
133.6028189727036
  0
ARC
  5
4CA
  8
DATA
  6
CONTINUOUS
 62
     7
 10
-150.1999999999999
 20
165.375
 30
0.0
 40
3.625
 50
46.397181027296369
 51
133.6028189727036
  0
ARC
  5
4CB
  8
DATA
  6
CONTINUOUS
 62
     7
 10
-145.1999999999999
 20
165.375
 30
0.0
 40
3.625
 50
46.397181027296369
 51
133.6028189727036
  0
LINE
  5
4CC
  8
DATA
  6
CONTINUOUS
 62
     7
 10
-172.6999999999999
 20
161.0
 30
0.0
 11
-142.6999999999999
 21
161.0
 31
0.0
  0
LINE
  5
4CD
  8
DATA
  6
CONTINUOUS
 62
     7
 10
-172.6999999999999
 20
179.5
 30
0.0
 11
-142.6999999999999
 21
179.5
 31
0.0
  0
LINE
  5
4CE
  8
DATA
  6
CONTINUOUS
 62
     7
 10
-172.6999999999999
 20
180.5
 30
0.0
 11
-171.1999999999999
 21
180.5
 31
0.0
  0
LINE
  5
4CF
  8
DATA
  6
CONTINUOUS
 62
     7
 10
-171.1999999999999
 20
180.5
 30
0.0
 11
-171.6999999999999
 21
179.5
 31
0.0
  0
LINE
  5
4D0
  8
DATA
  6
CONTINUOUS
 62
     7
 10
-168.6999999999999
 20
179.5
 30
0.0
 11
-169.1999999999999
 21
180.5
 31
0.0
  0
LINE
  5
4D1
  8
DATA
  6
CONTINUOUS
 62
     7
 10
-169.1999999999999
 20
180.5
 30
0.0
 11
-166.1999999999999
 21
180.5
 31
0.0
  0
LINE
  5
4D2
  8
DATA
  6
CONTINUOUS
 62
     7
 10
-166.1999999999999
 20
180.5
 30
0.0
 11
-166.6999999999999
 21
179.5
 31
0.0
  0
LINE
  5
4D3
  8
DATA
  6
CONTINUOUS
 62
     7
 10
-163.6999999999999
 20
179.5
 30
0.0
 11
-164.1999999999999
 21
180.5
 31
0.0
  0
LINE
  5
4D4
  8
DATA
  6
CONTINUOUS
 62
     7
 10
-164.1999999999999
 20
180.5
 30
0.0
 11
-161.1999999999999
 21
180.5
 31
0.0
  0
LINE
  5
4D5
  8
DATA
  6
CONTINUOUS
 62
     7
 10
-161.1999999999999
 20
180.5
 30
0.0
 11
-161.6999999999999
 21
179.5
 31
0.0
  0
LINE
  5
4D6
  8
DATA
  6
CONTINUOUS
 62
     7
 10
-158.6999999999999
 20
179.5
 30
0.0
 11
-159.1999999999999
 21
180.5
 31
0.0
  0
LINE
  5
4D7
  8
DATA
  6
CONTINUOUS
 62
     7
 10
-159.1999999999999
 20
180.5
 30
0.0
 11
-156.1999999999999
 21
180.5
 31
0.0
  0
LINE
  5
4D8
  8
DATA
  6
CONTINUOUS
 62
     7
 10
-156.1999999999999
 20
180.5
 30
0.0
 11
-156.6999999999999
 21
179.5
 31
0.0
  0
LINE
  5
4D9
  8
DATA
  6
CONTINUOUS
 62
     7
 10
-153.6999999999999
 20
179.5
 30
0.0
 11
-154.1999999999999
 21
180.5
 31
0.0
  0
LINE
  5
4DA
  8
DATA
  6
CONTINUOUS
 62
     7
 10
-154.1999999999999
 20
180.5
 30
0.0
 11
-151.1999999999999
 21
180.5
 31
0.0
  0
LINE
  5
4DB
  8
DATA
  6
CONTINUOUS
 62
     7
 10
-151.1999999999999
 20
180.5
 30
0.0
 11
-151.6999999999999
 21
179.5
 31
0.0
  0
LINE
  5
4DC
  8
DATA
  6
CONTINUOUS
 62
     7
 10
-148.6999999999999
 20
179.5
 30
0.0
 11
-149.1999999999999
 21
180.5
 31
0.0
  0
LINE
  5
4DD
  8
DATA
  6
CONTINUOUS
 62
     7
 10
-149.1999999999999
 20
180.5
 30
0.0
 11
-146.1999999999999
 21
180.5
 31
0.0
  0
LINE
  5
4DE
  8
DATA
  6
CONTINUOUS
 62
     7
 10
-146.1999999999999
 20
180.5
 30
0.0
 11
-146.6999999999999
 21
179.5
 31
0.0
  0
LINE
  5
4DF
  8
DATA
  6
CONTINUOUS
 62
     7
 10
-142.6999999999999
 20
180.5
 30
0.0
 11
-144.1999999999999
 21
180.5
 31
0.0
  0
LINE
  5
4E0
  8
DATA
  6
CONTINUOUS
 62
     7
 10
-144.1999999999999
 20
180.5
 30
0.0
 11
-143.6999999999999
 21
179.5
 31
0.0
  0
POLYLINE
  5
4E1
  8
DATA
  6
CONTINUOUS
 62
     7
 66
     1
 10
0.0
 20
0.0
 30
0.0
 70
     1
  0
VERTEX
  5
B2E
  8
DATA
  6
CONTINUOUS
 62
     7
 10
-170.69999999999999
 20
184.0
 30
0.0
  0
VERTEX
  5
B2F
  8
DATA
  6
CONTINUOUS
 62
     7
 10
-169.6999999999999
 20
184.0
 30
0.0
  0
VERTEX
  5
B30
  8
DATA
  6
CONTINUOUS
 62
     7
 10
-169.6999999999999
 20
183.0
 30
0.0
  0
VERTEX
  5
B31
  8
DATA
  6
CONTINUOUS
 62
     7
 10
-170.69999999999999
 20
183.0
 30
0.0
  0
SEQEND
  5
B32
  8
DATA
  6
CONTINUOUS
 62
     7
  0
POLYLINE
  5
4E8
  8
DATA
  6
CONTINUOUS
 62
     7
 66
     1
 10
0.0
 20
0.0
 30
0.0
 70
     1
  0
VERTEX
  5
B33
  8
DATA
  6
CONTINUOUS
 62
     7
 10
-165.69999999999999
 20
184.0
 30
0.0
  0
VERTEX
  5
B34
  8
DATA
  6
CONTINUOUS
 62
     7
 10
-164.6999999999999
 20
184.0
 30
0.0
  0
VERTEX
  5
B35
  8
DATA
  6
CONTINUOUS
 62
     7
 10
-164.6999999999999
 20
183.0
 30
0.0
  0
VERTEX
  5
B36
  8
DATA
  6
CONTINUOUS
 62
     7
 10
-165.69999999999999
 20
183.0
 30
0.0
  0
SEQEND
  5
B37
  8
DATA
  6
CONTINUOUS
 62
     7
  0
POLYLINE
  5
4EF
  8
DATA
  6
CONTINUOUS
 62
     7
 66
     1
 10
0.0
 20
0.0
 30
0.0
 70
     1
  0
VERTEX
  5
B38
  8
DATA
  6
CONTINUOUS
 62
     7
 10
-160.69999999999999
 20
184.0
 30
0.0
  0
VERTEX
  5
B39
  8
DATA
  6
CONTINUOUS
 62
     7
 10
-159.6999999999999
 20
184.0
 30
0.0
  0
VERTEX
  5
B3A
  8
DATA
  6
CONTINUOUS
 62
     7
 10
-159.6999999999999
 20
183.0
 30
0.0
  0
VERTEX
  5
B3B
  8
DATA
  6
CONTINUOUS
 62
     7
 10
-160.69999999999999
 20
183.0
 30
0.0
  0
SEQEND
  5
B3C
  8
DATA
  6
CONTINUOUS
 62
     7
  0
POLYLINE
  5
4F6
  8
DATA
  6
CONTINUOUS
 62
     7
 66
     1
 10
0.0
 20
0.0
 30
0.0
 70
     1
  0
VERTEX
  5
B3D
  8
DATA
  6
CONTINUOUS
 62
     7
 10
-155.69999999999999
 20
184.0
 30
0.0
  0
VERTEX
  5
B3E
  8
DATA
  6
CONTINUOUS
 62
     7
 10
-154.6999999999999
 20
184.0
 30
0.0
  0
VERTEX
  5
B3F
  8
DATA
  6
CONTINUOUS
 62
     7
 10
-154.6999999999999
 20
183.0
 30
0.0
  0
VERTEX
  5
B40
  8
DATA
  6
CONTINUOUS
 62
     7
 10
-155.69999999999999
 20
183.0
 30
0.0
  0
SEQEND
  5
B41
  8
DATA
  6
CONTINUOUS
 62
     7
  0
POLYLINE
  5
4FD
  8
DATA
  6
CONTINUOUS
 62
     7
 66
     1
 10
0.0
 20
0.0
 30
0.0
 70
     1
  0
VERTEX
  5
B42
  8
DATA
  6
CONTINUOUS
 62
     7
 10
-150.69999999999999
 20
184.0
 30
0.0
  0
VERTEX
  5
B43
  8
DATA
  6
CONTINUOUS
 62
     7
 10
-149.6999999999999
 20
184.0
 30
0.0
  0
VERTEX
  5
B44
  8
DATA
  6
CONTINUOUS
 62
     7
 10
-149.6999999999999
 20
183.0
 30
0.0
  0
VERTEX
  5
B45
  8
DATA
  6
CONTINUOUS
 62
     7
 10
-150.69999999999999
 20
183.0
 30
0.0
  0
SEQEND
  5
B46
  8
DATA
  6
CONTINUOUS
 62
     7
  0
POLYLINE
  5
504
  8
DATA
  6
CONTINUOUS
 62
     7
 66
     1
 10
0.0
 20
0.0
 30
0.0
 70
     1
  0
VERTEX
  5
B47
  8
DATA
  6
CONTINUOUS
 62
     7
 10
-145.69999999999999
 20
184.0
 30
0.0
  0
VERTEX
  5
B48
  8
DATA
  6
CONTINUOUS
 62
     7
 10
-144.6999999999999
 20
184.0
 30
0.0
  0
VERTEX
  5
B49
  8
DATA
  6
CONTINUOUS
 62
     7
 10
-144.6999999999999
 20
183.0
 30
0.0
  0
VERTEX
  5
B4A
  8
DATA
  6
CONTINUOUS
 62
     7
 10
-145.69999999999999
 20
183.0
 30
0.0
  0
SEQEND
  5
B4B
  8
DATA
  6
CONTINUOUS
 62
     7
  0
LINE
  5
50B
  8
DATA
  6
CONTINUOUS
 62
     7
 10
-172.6999999999999
 20
179.0
 30
0.0
 11
-172.6999999999999
 21
186.0
 31
0.0
  0
ARC
  5
50C
  8
DATA
  6
CONTINUOUS
 62
     7
 10
-170.1999999999999
 20
182.875
 30
0.0
 40
3.625
 50
46.397181027296369
 51
133.6028189727036
  0
ARC
  5
50D
  8
DATA
  6
CONTINUOUS
 62
     7
 10
-165.1999999999999
 20
182.875
 30
0.0
 40
3.625
 50
46.397181027296369
 51
133.6028189727036
  0
ARC
  5
50E
  8
DATA
  6
CONTINUOUS
 62
     7
 10
-160.1999999999999
 20
182.875
 30
0.0
 40
3.625
 50
46.397181027296369
 51
133.6028189727036
  0
ARC
  5
50F
  8
DATA
  6
CONTINUOUS
 62
     7
 10
-155.1999999999999
 20
182.875
 30
0.0
 40
3.625
 50
46.397181027296369
 51
133.6028189727036
  0
ARC
  5
510
  8
DATA
  6
CONTINUOUS
 62
     7
 10
-150.1999999999999
 20
182.875
 30
0.0
 40
3.625
 50
46.397181027296369
 51
133.6028189727036
  0
ARC
  5
511
  8
DATA
  6
CONTINUOUS
 62
     7
 10
-145.1999999999999
 20
182.875
 30
0.0
 40
3.625
 50
46.397181027296369
 51
133.6028189727036
  0
LINE
  5
512
  8
DATA
  6
CONTINUOUS
 62
     7
 10
-142.6999999999999
 20
186.0
 30
0.0
 11
-142.6999999999999
 21
179.0
 31
0.0
  0
ARC
  5
513
  8
DATA
  6
CONTINUOUS
 62
     7
 10
-170.1999999999999
 20
183.375
 30
0.0
 40
3.625
 50
46.397181027296369
 51
133.6028189727036
  0
ARC
  5
514
  8
DATA
  6
CONTINUOUS
 62
     7
 10
-165.1999999999999
 20
183.375
 30
0.0
 40
3.625
 50
46.397181027296369
 51
133.6028189727036
  0
ARC
  5
515
  8
DATA
  6
CONTINUOUS
 62
     7
 10
-160.1999999999999
 20
183.375
 30
0.0
 40
3.625
 50
46.397181027296369
 51
133.6028189727036
  0
ARC
  5
516
  8
DATA
  6
CONTINUOUS
 62
     7
 10
-155.1999999999999
 20
183.375
 30
0.0
 40
3.625
 50
46.397181027296369
 51
133.6028189727036
  0
ARC
  5
517
  8
DATA
  6
CONTINUOUS
 62
     7
 10
-150.1999999999999
 20
183.375
 30
0.0
 40
3.625
 50
46.397181027296369
 51
133.6028189727036
  0
ARC
  5
518
  8
DATA
  6
CONTINUOUS
 62
     7
 10
-145.1999999999999
 20
183.375
 30
0.0
 40
3.625
 50
46.397181027296369
 51
133.6028189727036
  0
LINE
  5
519
  8
DATA
  6
CONTINUOUS
 62
     7
 10
-172.6999999999999
 20
179.0
 30
0.0
 11
-142.6999999999999
 21
179.0
 31
0.0
  0
POLYLINE
  5
51A
  8
DATA
  6
CONTINUOUS
 62
     7
 66
     1
 10
0.0
 20
0.0
 30
0.0
  0
VERTEX
  5
B4C
  8
DATA
  6
CONTINUOUS
 62
     7
 10
154.30000000000021
 20
172.5
 30
0.0
  0
VERTEX
  5
B4D
  8
DATA
  6
CONTINUOUS
 62
     7
 10
154.30000000000021
 20
173.5
 30
0.0
  0
VERTEX
  5
B4E
  8
DATA
  6
CONTINUOUS
 62
     7
 10
153.30000000000021
 20
173.5
 30
0.0
  0
VERTEX
  5
B4F
  8
DATA
  6
CONTINUOUS
 62
     7
 10
153.30000000000021
 20
172.5
 30
0.0
  0
SEQEND
  5
B50
  8
DATA
  6
CONTINUOUS
 62
     7
  0
POLYLINE
  5
521
  8
DATA
  6
CONTINUOUS
 62
     7
 66
     1
 10
0.0
 20
0.0
 30
0.0
  0
VERTEX
  5
B51
  8
DATA
  6
CONTINUOUS
 62
     7
 10
154.30000000000021
 20
171.5
 30
0.0
  0
VERTEX
  5
B52
  8
DATA
  6
CONTINUOUS
 62
     7
 10
154.30000000000021
 20
170.5
 30
0.0
  0
VERTEX
  5
B53
  8
DATA
  6
CONTINUOUS
 62
     7
 10
153.30000000000021
 20
170.5
 30
0.0
  0
VERTEX
  5
B54
  8
DATA
  6
CONTINUOUS
 62
     7
 10
153.30000000000021
 20
171.5
 30
0.0
  0
SEQEND
  5
B55
  8
DATA
  6
CONTINUOUS
 62
     7
  0
CIRCLE
  5
528
  8
DATA
  6
CONTINUOUS
 62
     7
 10
153.80000000000021
 20
172.0
 30
0.0
 40
2.499999999999988
  0
POLYLINE
  5
529
  8
DATA
  6
CONTINUOUS
 62
     7
 66
     1
 10
0.0
 20
0.0
 30
0.0
  0
VERTEX
  5
B56
  8
DATA
  6
CONTINUOUS
 62
     7
 10
154.30000000000021
 20
171.5
 30
0.0
  0
VERTEX
  5
B57
  8
DATA
  6
CONTINUOUS
 62
     7
 10
155.30000000000021
 20
171.5
 30
0.0
  0
VERTEX
  5
B58
  8
DATA
  6
CONTINUOUS
 62
     7
 10
155.30000000000021
 20
172.5
 30
0.0
  0
VERTEX
  5
B59
  8
DATA
  6
CONTINUOUS
 62
     7
 10
154.30000000000021
 20
172.5
 30
0.0
  0
SEQEND
  5
B5A
  8
DATA
  6
CONTINUOUS
 62
     7
  0
POLYLINE
  5
530
  8
DATA
  6
CONTINUOUS
 62
     7
 66
     1
 10
0.0
 20
0.0
 30
0.0
  0
VERTEX
  5
B5B
  8
DATA
  6
CONTINUOUS
 62
     7
 10
153.30000000000021
 20
171.5
 30
0.0
  0
VERTEX
  5
B5C
  8
DATA
  6
CONTINUOUS
 62
     7
 10
152.30000000000021
 20
171.5
 30
0.0
  0
VERTEX
  5
B5D
  8
DATA
  6
CONTINUOUS
 62
     7
 10
152.30000000000021
 20
172.5
 30
0.0
  0
VERTEX
  5
B5E
  8
DATA
  6
CONTINUOUS
 62
     7
 10
153.30000000000021
 20
172.5
 30
0.0
  0
SEQEND
  5
B5F
  8
DATA
  6
CONTINUOUS
 62
     7
  0
CIRCLE
  5
537
  8
DATA
  6
CONTINUOUS
 62
     7
 10
-50.699999999999932
 20
174.5
 30
0.0
 40
2.7500000000000049
  0
POLYLINE
  5
538
  8
DATA
  6
CONTINUOUS
 62
     7
 66
     1
 10
0.0
 20
0.0
 30
0.0
  0
VERTEX
  5
B60
  8
DATA
  6
CONTINUOUS
 62
     7
 10
-50.199999999999932
 20
175.0
 30
0.0
  0
VERTEX
  5
B61
  8
DATA
  6
CONTINUOUS
 62
     7
 10
-50.199999999999932
 20
176.0
 30
0.0
  0
VERTEX
  5
B62
  8
DATA
  6
CONTINUOUS
 62
     7
 10
-51.199999999999932
 20
176.0
 30
0.0
  0
VERTEX
  5
B63
  8
DATA
  6
CONTINUOUS
 62
     7
 10
-51.199999999999932
 20
175.0
 30
0.0
  0
SEQEND
  5
B64
  8
DATA
  6
CONTINUOUS
 62
     7
  0
POLYLINE
  5
53F
  8
DATA
  6
CONTINUOUS
 62
     7
 66
     1
 10
0.0
 20
0.0
 30
0.0
  0
VERTEX
  5
B65
  8
DATA
  6
CONTINUOUS
 62
     7
 10
-50.199999999999932
 20
174.0
 30
0.0
  0
VERTEX
  5
B66
  8
DATA
  6
CONTINUOUS
 62
     7
 10
-50.199999999999932
 20
173.0
 30
0.0
  0
VERTEX
  5
B67
  8
DATA
  6
CONTINUOUS
 62
     7
 10
-51.199999999999932
 20
173.0
 30
0.0
  0
VERTEX
  5
B68
  8
DATA
  6
CONTINUOUS
 62
     7
 10
-51.199999999999932
 20
174.0
 30
0.0
  0
SEQEND
  5
B69
  8
DATA
  6
CONTINUOUS
 62
     7
  0
POLYLINE
  5
546
  8
DATA
  6
CONTINUOUS
 62
     7
 66
     1
 10
0.0
 20
0.0
 30
0.0
  0
VERTEX
  5
B6A
  8
DATA
  6
CONTINUOUS
 62
     7
 10
-50.199999999999932
 20
174.0
 30
0.0
  0
VERTEX
  5
B6B
  8
DATA
  6
CONTINUOUS
 62
     7
 10
-49.199999999999932
 20
174.0
 30
0.0
  0
VERTEX
  5
B6C
  8
DATA
  6
CONTINUOUS
 62
     7
 10
-49.199999999999932
 20
175.0
 30
0.0
  0
VERTEX
  5
B6D
  8
DATA
  6
CONTINUOUS
 62
     7
 10
-50.199999999999932
 20
175.0
 30
0.0
  0
SEQEND
  5
B6E
  8
DATA
  6
CONTINUOUS
 62
     7
  0
POLYLINE
  5
54D
  8
DATA
  6
CONTINUOUS
 62
     7
 66
     1
 10
0.0
 20
0.0
 30
0.0
  0
VERTEX
  5
B6F
  8
DATA
  6
CONTINUOUS
 62
     7
 10
-51.199999999999932
 20
174.0
 30
0.0
  0
VERTEX
  5
B70
  8
DATA
  6
CONTINUOUS
 62
     7
 10
-52.199999999999932
 20
174.0
 30
0.0
  0
VERTEX
  5
B71
  8
DATA
  6
CONTINUOUS
 62
     7
 10
-52.199999999999932
 20
175.0
 30
0.0
  0
VERTEX
  5
B72
  8
DATA
  6
CONTINUOUS
 62
     7
 10
-51.199999999999932
 20
175.0
 30
0.0
  0
SEQEND
  5
B73
  8
DATA
  6
CONTINUOUS
 62
     7
  0
TEXT
  5
554
  8
DATA
 62
     7
 10
-211.6999999999999
 20
190.25999999999991
 30
0.0
 40
2.693359375
  1
-
 50
180.0
 41
0.7
 11
-211.6999999999999
 21
187.56664062499999
 31
0.0
 73
     3
  0
TEXT
  5
555
  8
DATA
 62
     7
 10
-206.8249999999999
 20
190.25999999999991
 30
0.0
 40
2.693359375
  1
+
 50
180.0
 41
0.7
 11
-206.8249999999999
 21
187.56664062499999
 31
0.0
 73
     3
  0
TEXT
  5
556
  8
DATA
 62
     7
 10
-201.6999999999999
 20
190.25999999999991
 30
0.0
 40
2.693359375
  1
S
 50
180.0
 41
0.7
 11
-201.6999999999999
 21
187.56664062499999
 31
0.0
 73
     3
  0
TEXT
  5
557
  8
DATA
 62
     7
 10
-196.8249999999999
 20
190.25999999999991
 30
0.0
 40
2.693359375
  1
-
 50
180.0
 41
0.7
 11
-196.8249999999999
 21
187.56664062499999
 31
0.0
 73
     3
  0
TEXT
  5
558
  8
DATA
 62
     7
 10
-191.9499999999999
 20
190.25999999999991
 30
0.0
 40
2.693359375
  1
+
 50
180.0
 41
0.7
 11
-191.9499999999999
 21
187.56664062499999
 31
0.0
 73
     3
  0
TEXT
  5
559
  8
DATA
 62
     7
 10
-186.8249999999999
 20
190.25999999999991
 30
0.0
 40
2.693359375
  1
S
 50
180.0
 41
0.7
 11
-186.8249999999999
 21
187.56664062499999
 31
0.0
 73
     3
  0
LINE
  5
55A
  8
DATA
  6
CONTINUOUS
 62
     7
 10
-215.19999999999999
 20
187.625
 30
0.0
 11
-215.19999999999999
 21
191.125
 31
0.0
  0
LINE
  5
55B
  8
DATA
  6
CONTINUOUS
 62
     7
 10
-215.19999999999999
 20
191.0
 30
0.0
 11
-185.1999999999999
 21
191.0
 31
0.0
  0
LINE
  5
55C
  8
DATA
  6
CONTINUOUS
 62
     7
 10
-185.1999999999999
 20
191.0
 30
0.0
 11
-185.1999999999999
 21
187.5
 31
0.0
  0
TEXT
  5
55D
  8
DATA
 62
     7
 10
-169.1999999999999
 20
172.25999999999999
 30
0.0
 40
2.693359375
  1
-
 50
180.0
 41
0.7
 11
-169.1999999999999
 21
169.56664062499999
 31
0.0
 73
     3
  0
TEXT
  5
55E
  8
DATA
 62
     7
 10
-164.3249999999999
 20
172.25999999999999
 30
0.0
 40
2.693359375
  1
+
 50
180.0
 41
0.7
 11
-164.3249999999999
 21
169.56664062499999
 31
0.0
 73
     3
  0
TEXT
  5
55F
  8
DATA
 62
     7
 10
-159.1999999999999
 20
172.25999999999999
 30
0.0
 40
2.693359375
  1
S
 50
180.0
 41
0.7
 11
-159.1999999999999
 21
169.56664062499999
 31
0.0
 73
     3
  0
TEXT
  5
560
  8
DATA
 62
     7
 10
-154.3249999999999
 20
172.25999999999999
 30
0.0
 40
2.693359375
  1
-
 50
180.0
 41
0.7
 11
-154.3249999999999
 21
169.56664062499999
 31
0.0
 73
     3
  0
TEXT
  5
561
  8
DATA
 62
     7
 10
-149.4499999999999
 20
172.25999999999999
 30
0.0
 40
2.693359375
  1
+
 50
180.0
 41
0.7
 11
-149.4499999999999
 21
169.56664062499999
 31
0.0
 73
     3
  0
TEXT
  5
562
  8
DATA
 62
     7
 10
-144.3249999999999
 20
172.25999999999999
 30
0.0
 40
2.693359375
  1
S
 50
180.0
 41
0.7
 11
-144.3249999999999
 21
169.56664062499999
 31
0.0
 73
     3
  0
LINE
  5
563
  8
DATA
  6
CONTINUOUS
 62
     7
 10
-172.6999999999999
 20
169.625
 30
0.0
 11
-172.6999999999999
 21
173.125
 31
0.0
  0
LINE
  5
564
  8
DATA
  6
CONTINUOUS
 62
     7
 10
-172.6999999999999
 20
173.0
 30
0.0
 11
-142.6999999999999
 21
173.0
 31
0.0
  0
LINE
  5
565
  8
DATA
  6
CONTINUOUS
 62
     7
 10
-142.6999999999999
 20
173.0
 30
0.0
 11
-142.6999999999999
 21
169.5
 31
0.0
  0
TEXT
  5
566
  8
DATA
 62
     7
 10
-169.1999999999999
 20
190.25999999999991
 30
0.0
 40
2.693359375
  1
-
 50
180.0
 41
0.7
 11
-169.1999999999999
 21
187.56664062499999
 31
0.0
 73
     3
  0
TEXT
  5
567
  8
DATA
 62
     7
 10
-164.3249999999999
 20
190.25999999999991
 30
0.0
 40
2.693359375
  1
+
 50
180.0
 41
0.7
 11
-164.3249999999999
 21
187.56664062499999
 31
0.0
 73
     3
  0
TEXT
  5
568
  8
DATA
 62
     7
 10
-159.1999999999999
 20
190.25999999999991
 30
0.0
 40
2.693359375
  1
S
 50
180.0
 41
0.7
 11
-159.1999999999999
 21
187.56664062499999
 31
0.0
 73
     3
  0
TEXT
  5
569
  8
DATA
 62
     7
 10
-154.3249999999999
 20
190.25999999999991
 30
0.0
 40
2.693359375
  1
-
 50
180.0
 41
0.7
 11
-154.3249999999999
 21
187.56664062499999
 31
0.0
 73
     3
  0
TEXT
  5
56A
  8
DATA
 62
     7
 10
-149.4499999999999
 20
190.25999999999991
 30
0.0
 40
2.693359375
  1
+
 50
180.0
 41
0.7
 11
-149.4499999999999
 21
187.56664062499999
 31
0.0
 73
     3
  0
TEXT
  5
56B
  8
DATA
 62
     7
 10
-144.3249999999999
 20
190.25999999999991
 30
0.0
 40
2.693359375
  1
S
 50
180.0
 41
0.7
 11
-144.3249999999999
 21
187.56664062499999
 31
0.0
 73
     3
  0
LINE
  5
56C
  8
DATA
  6
CONTINUOUS
 62
     7
 10
-172.6999999999999
 20
187.625
 30
0.0
 11
-172.6999999999999
 21
191.125
 31
0.0
  0
LINE
  5
56D
  8
DATA
  6
CONTINUOUS
 62
     7
 10
-172.6999999999999
 20
191.0
 30
0.0
 11
-142.6999999999999
 21
191.0
 31
0.0
  0
LINE
  5
56E
  8
DATA
  6
CONTINUOUS
 62
     7
 10
-142.6999999999999
 20
191.0
 30
0.0
 11
-142.6999999999999
 21
187.5
 31
0.0
  0
TEXT
  5
56F
  8
DATA
 62
     7
 10
-164.1999999999999
 20
159.60401076758549
 30
0.0
 40
2.693359375
  1
3
 50
180.0
 41
0.7
 11
-164.1999999999999
 21
156.91065139258549
 31
0.0
 73
     3
  0
TEXT
  5
570
  8
DATA
 62
     7
 10
-149.1999999999999
 20
159.60401076758549
 30
0.0
 40
2.693359375
  1
4
 50
180.0
 41
0.7
 11
-149.1999999999999
 21
156.91065139258549
 31
0.0
 73
     3
  0
LINE
  5
571
  8
DATA
  6
CONTINUOUS
 62
     7
 10
-50.699999999999932
 20
178.0
 30
0.0
 11
-50.699999999999932
 21
180.0
 31
0.0
  0
LINE
  5
572
  8
DATA
  6
CONTINUOUS
 62
     7
 10
-53.199999999999932
 20
180.0
 30
0.0
 11
-48.199999999999932
 21
180.0
 31
0.0
  0
LINE
  5
573
  8
DATA
  6
CONTINUOUS
 62
     7
 10
-53.199999999999932
 20
180.0
 30
0.0
 11
-51.699999999999932
 21
182.5980762113532
 31
0.0
  0
LINE
  5
574
  8
DATA
  6
CONTINUOUS
 62
     7
 10
-50.699999999999932
 20
180.0
 30
0.0
 11
-49.199999999999932
 21
182.5980762113532
 31
0.0
  0
LINE
  5
575
  8
DATA
  6
CONTINUOUS
 62
     7
 10
-48.199999999999932
 20
180.0
 30
0.0
 11
-46.699999999999932
 21
182.5980762113532
 31
0.0
  0
LINE
  5
576
  8
DATA
  6
CONTINUOUS
 62
     7
 10
-226.6999999999999
 20
162.0
 30
0.0
 11
-226.6999999999999
 21
155.0
 31
0.0
  0
LINE
  5
577
  8
DATA
  6
CONTINUOUS
 62
     7
 10
-226.6999999999999
 20
162.0
 30
0.0
 11
-227.19999999999999
 21
162.0
 31
0.0
  0
LINE
  5
578
  8
DATA
  6
CONTINUOUS
 62
     7
 10
-227.19999999999999
 20
162.0
 30
0.0
 11
-227.19999999999999
 21
155.0
 31
0.0
  0
LINE
  5
579
  8
DATA
  6
CONTINUOUS
 62
     7
 10
-227.19999999999999
 20
155.0
 30
0.0
 11
-226.6999999999999
 21
155.0
 31
0.0
  0
ARC
  5
57A
  8
DATA
  6
CONTINUOUS
 62
     7
 10
-223.19999999999999
 20
158.5
 30
0.0
 40
5.0
 50
143.13010235415589
 51
216.86989764584399
  0
LINE
  5
57B
  8
DATA
  6
CONTINUOUS
 62
     7
 10
209.30000000000021
 20
162.0
 30
0.0
 11
209.30000000000021
 21
155.0
 31
0.0
  0
LINE
  5
57C
  8
DATA
  6
CONTINUOUS
 62
     7
 10
209.30000000000021
 20
162.0
 30
0.0
 11
209.80000000000021
 21
162.0
 31
0.0
  0
LINE
  5
57D
  8
DATA
  6
CONTINUOUS
 62
     7
 10
209.80000000000021
 20
162.0
 30
0.0
 11
209.80000000000021
 21
155.0
 31
0.0
  0
LINE
  5
57E
  8
DATA
  6
CONTINUOUS
 62
     7
 10
209.80000000000021
 20
155.0
 30
0.0
 11
209.30000000000021
 21
155.0
 31
0.0
  0
ARC
  5
57F
  8
DATA
  6
CONTINUOUS
 62
     7
 10
205.80000000000021
 20
158.5
 30
0.0
 40
5.0
 50
323.13010235415612
 51
36.869897645844041
  0
CIRCLE
  5
580
  8
DATA
  6
CONTINUOUS
 62
     7
 10
133.80000000000021
 20
180.5
 30
0.0
 40
6.4999999999999796
  0
POLYLINE
  5
581
  8
DATA
  6
CONTINUOUS
 62
     7
 66
     1
 10
0.0
 20
0.0
 30
0.0
 70
     1
  0
VERTEX
  5
B74
  8
DATA
  6
CONTINUOUS
 62
     7
 10
133.3000000000001
 20
183.0
 30
0.0
  0
VERTEX
  5
B75
  8
DATA
  6
CONTINUOUS
 62
     7
 10
134.3000000000001
 20
183.0
 30
0.0
  0
VERTEX
  5
B76
  8
DATA
  6
CONTINUOUS
 62
     7
 10
134.3000000000001
 20
178.0
 30
0.0
  0
VERTEX
  5
B77
  8
DATA
  6
CONTINUOUS
 62
     7
 10
133.3000000000001
 20
178.0
 30
0.0
  0
SEQEND
  5
B78
  8
DATA
  6
CONTINUOUS
 62
     7
  0
CIRCLE
  5
588
  8
DATA
  6
CONTINUOUS
 62
     7
 10
133.80000000000021
 20
180.5
 30
0.0
 40
4.9999999999998188
  0
CIRCLE
  5
589
  8
DATA
  6
CONTINUOUS
 62
     7
 10
119.3000000000001
 20
156.0
 30
0.0
 40
3.150000000000019
  0
POLYLINE
  5
58A
  8
DATA
  6
CONTINUOUS
 62
     7
 66
     1
 10
0.0
 20
0.0
 30
0.0
  0
VERTEX
  5
B79
  8
DATA
  6
CONTINUOUS
 62
     7
 10
119.8000000000001
 20
156.5
 30
0.0
  0
VERTEX
  5
B7A
  8
DATA
  6
CONTINUOUS
 62
     7
 10
119.8000000000001
 20
158.0
 30
0.0
  0
VERTEX
  5
B7B
  8
DATA
  6
CONTINUOUS
 62
     7
 10
118.8000000000001
 20
158.0
 30
0.0
  0
VERTEX
  5
B7C
  8
DATA
  6
CONTINUOUS
 62
     7
 10
118.8000000000001
 20
156.5
 30
0.0
  0
SEQEND
  5
B7D
  8
DATA
  6
CONTINUOUS
 62
     7
  0
POLYLINE
  5
591
  8
DATA
  6
CONTINUOUS
 62
     7
 66
     1
 10
0.0
 20
0.0
 30
0.0
  0
VERTEX
  5
B7E
  8
DATA
  6
CONTINUOUS
 62
     7
 10
119.8000000000001
 20
155.5
 30
0.0
  0
VERTEX
  5
B7F
  8
DATA
  6
CONTINUOUS
 62
     7
 10
119.8000000000001
 20
154.0
 30
0.0
  0
VERTEX
  5
B80
  8
DATA
  6
CONTINUOUS
 62
     7
 10
118.8000000000001
 20
154.0
 30
0.0
  0
VERTEX
  5
B81
  8
DATA
  6
CONTINUOUS
 62
     7
 10
118.8000000000001
 20
155.5
 30
0.0
  0
SEQEND
  5
B82
  8
DATA
  6
CONTINUOUS
 62
     7
  0
CIRCLE
  5
598
  8
DATA
  6
CONTINUOUS
 62
     7
 10
119.3000000000001
 20
156.0
 30
0.0
 40
3.1500000000001278
  0
POLYLINE
  5
599
  8
DATA
  6
CONTINUOUS
 62
     7
 66
     1
 10
0.0
 20
0.0
 30
0.0
  0
VERTEX
  5
B83
  8
DATA
  6
CONTINUOUS
 62
     7
 10
119.8000000000001
 20
155.5
 30
0.0
  0
VERTEX
  5
B84
  8
DATA
  6
CONTINUOUS
 62
     7
 10
121.3000000000001
 20
155.5
 30
0.0
  0
VERTEX
  5
B85
  8
DATA
  6
CONTINUOUS
 62
     7
 10
121.3000000000001
 20
156.5
 30
0.0
  0
VERTEX
  5
B86
  8
DATA
  6
CONTINUOUS
 62
     7
 10
119.8000000000001
 20
156.5
 30
0.0
  0
SEQEND
  5
B87
  8
DATA
  6
CONTINUOUS
 62
     7
  0
POLYLINE
  5
5A0
  8
DATA
  6
CONTINUOUS
 62
     7
 66
     1
 10
0.0
 20
0.0
 30
0.0
  0
VERTEX
  5
B88
  8
DATA
  6
CONTINUOUS
 62
     7
 10
118.8000000000001
 20
155.5
 30
0.0
  0
VERTEX
  5
B89
  8
DATA
  6
CONTINUOUS
 62
     7
 10
117.3000000000001
 20
155.5
 30
0.0
  0
VERTEX
  5
B8A
  8
DATA
  6
CONTINUOUS
 62
     7
 10
117.3000000000001
 20
156.5
 30
0.0
  0
VERTEX
  5
B8B
  8
DATA
  6
CONTINUOUS
 62
     7
 10
118.8000000000001
 20
156.5
 30
0.0
  0
SEQEND
  5
B8C
  8
DATA
  6
CONTINUOUS
 62
     7
  0
ARC
  5
5A7
  8
DATA
  6
CONTINUOUS
 62
     7
 10
119.3000000000001
 20
156.0
 30
0.0
 40
4.0
 50
0.0
 51
180.0
  0
CIRCLE
  5
5A8
  8
DATA
  6
CONTINUOUS
 62
     7
 10
-136.69999999999979
 20
156.00000000000031
 30
0.0
 40
3.149999999999991
  0
POLYLINE
  5
5A9
  8
DATA
  6
CONTINUOUS
 62
     7
 66
     1
 10
0.0
 20
0.0
 30
0.0
  0
VERTEX
  5
B8D
  8
DATA
  6
CONTINUOUS
 62
     7
 10
-137.19999999999979
 20
156.50000000000031
 30
0.0
  0
VERTEX
  5
B8E
  8
DATA
  6
CONTINUOUS
 62
     7
 10
-137.19999999999979
 20
158.00000000000031
 30
0.0
  0
VERTEX
  5
B8F
  8
DATA
  6
CONTINUOUS
 62
     7
 10
-136.19999999999979
 20
158.00000000000031
 30
0.0
  0
VERTEX
  5
B90
  8
DATA
  6
CONTINUOUS
 62
     7
 10
-136.19999999999979
 20
156.50000000000031
 30
0.0
  0
SEQEND
  5
B91
  8
DATA
  6
CONTINUOUS
 62
     7
  0
POLYLINE
  5
5B0
  8
DATA
  6
CONTINUOUS
 62
     7
 66
     1
 10
0.0
 20
0.0
 30
0.0
  0
VERTEX
  5
B92
  8
DATA
  6
CONTINUOUS
 62
     7
 10
-137.19999999999979
 20
155.50000000000031
 30
0.0
  0
VERTEX
  5
B93
  8
DATA
  6
CONTINUOUS
 62
     7
 10
-137.19999999999979
 20
154.00000000000031
 30
0.0
  0
VERTEX
  5
B94
  8
DATA
  6
CONTINUOUS
 62
     7
 10
-136.19999999999979
 20
154.00000000000031
 30
0.0
  0
VERTEX
  5
B95
  8
DATA
  6
CONTINUOUS
 62
     7
 10
-136.19999999999979
 20
155.50000000000031
 30
0.0
  0
SEQEND
  5
B96
  8
DATA
  6
CONTINUOUS
 62
     7
  0
CIRCLE
  5
5B7
  8
DATA
  6
CONTINUOUS
 62
     7
 10
-136.69999999999979
 20
156.00000000000031
 30
0.0
 40
3.1500000000000181
  0
POLYLINE
  5
5B8
  8
DATA
  6
CONTINUOUS
 62
     7
 66
     1
 10
0.0
 20
0.0
 30
0.0
  0
VERTEX
  5
B97
  8
DATA
  6
CONTINUOUS
 62
     7
 10
-137.19999999999979
 20
155.50000000000031
 30
0.0
  0
VERTEX
  5
B98
  8
DATA
  6
CONTINUOUS
 62
     7
 10
-138.69999999999979
 20
155.50000000000031
 30
0.0
  0
VERTEX
  5
B99
  8
DATA
  6
CONTINUOUS
 62
     7
 10
-138.69999999999979
 20
156.50000000000031
 30
0.0
  0
VERTEX
  5
B9A
  8
DATA
  6
CONTINUOUS
 62
     7
 10
-137.19999999999979
 20
156.50000000000031
 30
0.0
  0
SEQEND
  5
B9B
  8
DATA
  6
CONTINUOUS
 62
     7
  0
POLYLINE
  5
5BF
  8
DATA
  6
CONTINUOUS
 62
     7
 66
     1
 10
0.0
 20
0.0
 30
0.0
  0
VERTEX
  5
B9C
  8
DATA
  6
CONTINUOUS
 62
     7
 10
-136.19999999999979
 20
155.50000000000031
 30
0.0
  0
VERTEX
  5
B9D
  8
DATA
  6
CONTINUOUS
 62
     7
 10
-134.69999999999979
 20
155.50000000000031
 30
0.0
  0
VERTEX
  5
B9E
  8
DATA
  6
CONTINUOUS
 62
     7
 10
-134.69999999999979
 20
156.50000000000031
 30
0.0
  0
VERTEX
  5
B9F
  8
DATA
  6
CONTINUOUS
 62
     7
 10
-136.19999999999979
 20
156.50000000000031
 30
0.0
  0
SEQEND
  5
BA0
  8
DATA
  6
CONTINUOUS
 62
     7
  0
ARC
  5
5C6
  8
DATA
  6
CONTINUOUS
 62
     7
 10
-136.69999999999979
 20
156.00000000000031
 30
0.0
 40
4.0
 50
0.0
 51
180.0
  0
POLYLINE
  5
5C7
  8
DATA
  6
CONTINUOUS
 62
     7
 66
     1
 10
0.0
 20
0.0
 30
0.0
 70
     1
  0
VERTEX
  5
BA1
  8
DATA
  6
CONTINUOUS
 62
     7
 10
72.300000000000054
 20
178.1862639396133
 30
0.0
  0
VERTEX
  5
BA2
  8
DATA
  6
CONTINUOUS
 62
     7
 10
74.736766907839282
 20
179.59313196980671
 30
0.0
  0
VERTEX
  5
BA3
  8
DATA
  6
CONTINUOUS
 62
     7
 10
74.736766907839282
 20
182.40686803019329
 30
0.0
  0
VERTEX
  5
BA4
  8
DATA
  6
CONTINUOUS
 62
     7
 10
72.300000000000054
 20
183.8137360603867
 30
0.0
  0
VERTEX
  5
BA5
  8
DATA
  6
CONTINUOUS
 62
     7
 10
69.863233092160812
 20
182.40686803019329
 30
0.0
  0
VERTEX
  5
BA6
  8
DATA
  6
CONTINUOUS
 62
     7
 10
69.863233092160812
 20
179.59313196980671
 30
0.0
  0
SEQEND
  5
BA7
  8
DATA
  6
CONTINUOUS
 62
     7
  0
CIRCLE
  5
5D0
  8
DATA
  6
CONTINUOUS
 62
     7
 10
72.300000000000054
 20
181.0
 30
0.0
 40
1.500000000000024
  0
POLYLINE
  5
5D1
  8
DATA
  6
CONTINUOUS
 62
     7
 66
     1
 10
0.0
 20
0.0
 30
0.0
 70
     1
  0
VERTEX
  5
BA8
  8
DATA
  6
CONTINUOUS
 62
     7
 10
97.300000000000153
 20
178.1862639396133
 30
0.0
  0
VERTEX
  5
BA9
  8
DATA
  6
CONTINUOUS
 62
     7
 10
99.736766907839183
 20
179.59313196980671
 30
0.0
  0
VERTEX
  5
BAA
  8
DATA
  6
CONTINUOUS
 62
     7
 10
99.736766907839183
 20
182.40686803019329
 30
0.0
  0
VERTEX
  5
BAB
  8
DATA
  6
CONTINUOUS
 62
     7
 10
97.300000000000153
 20
183.8137360603867
 30
0.0
  0
VERTEX
  5
BAC
  8
DATA
  6
CONTINUOUS
 62
     7
 10
94.863233092160925
 20
182.40686803019329
 30
0.0
  0
VERTEX
  5
BAD
  8
DATA
  6
CONTINUOUS
 62
     7
 10
94.863233092160925
 20
179.59313196980671
 30
0.0
  0
SEQEND
  5
BAE
  8
DATA
  6
CONTINUOUS
 62
     7
  0
CIRCLE
  5
5DA
  8
DATA
  6
CONTINUOUS
 62
     7
 10
97.300000000000153
 20
181.0
 30
0.0
 40
1.4999999999999261
  0
ARC
  5
5DB
  8
DATA
  6
CONTINUOUS
 62
     7
 10
79.294773534090012
 20
178.7751065681756
 30
0.0
 40
2.3999999999999768
 50
179.99999999999969
 51
261.74056202012162
  0
ARC
  5
5DC
  8
DATA
  6
CONTINUOUS
 62
     7
 10
90.305226465909954
 20
178.7751065681756
 30
0.0
 40
2.399999999999995
 50
278.25943797988123
 51
0.0000000000003979
  0
LINE
  5
5DD
  8
DATA
  6
CONTINUOUS
 62
     7
 10
78.950000000000031
 20
176.40000000000001
 30
0.0
 11
90.650000000000077
 21
176.40000000000001
 31
0.0
  0
LINE
  5
5DE
  8
DATA
  6
CONTINUOUS
 62
     7
 10
77.713247669034644
 20
184.4134839422382
 30
0.0
 11
76.894773534090064
 21
178.7751065681756
 31
0.0
  0
ARC
  5
5DF
  8
DATA
  6
CONTINUOUS
 62
     7
 10
79.136027039818231
 20
184.27159491208911
 30
0.0
 40
1.429836925947898
 50
87.435648395548512
 51
174.30491362457221
  0
ARC
  5
5E0
  8
DATA
  6
CONTINUOUS
 62
     7
 10
90.463972960181749
 20
184.27159491208911
 30
0.0
 40
1.42983692594796
 50
5.6950863754273531
 51
92.564351604446927
  0
LINE
  5
5E1
  8
DATA
  6
CONTINUOUS
 62
     7
 10
79.200000000000031
 20
185.69999999999999
 30
0.0
 11
90.400000000000077
 21
185.69999999999999
 31
0.0
  0
LINE
  5
5E2
  8
DATA
  6
CONTINUOUS
 62
     7
 10
91.886752330965436
 20
184.4134839422382
 30
0.0
 11
92.705226465910059
 21
178.7751065681756
 31
0.0
  0
CIRCLE
  5
5E3
  8
DATA
  6
CONTINUOUS
 62
     7
 10
84.800000000000054
 20
179.5
 30
0.0
 40
0.5000000000000088
  0
CIRCLE
  5
5E4
  8
DATA
  6
CONTINUOUS
 62
     7
 10
87.300000000000026
 20
179.5
 30
0.0
 40
0.5000000000000088
  0
CIRCLE
  5
5E5
  8
DATA
  6
CONTINUOUS
 62
     7
 10
89.800000000000153
 20
179.5
 30
0.0
 40
0.4999999999999579
  0
CIRCLE
  5
5E6
  8
DATA
  6
CONTINUOUS
 62
     7
 10
82.300000000000054
 20
179.5
 30
0.0
 40
0.5000000000000088
  0
CIRCLE
  5
5E7
  8
DATA
  6
CONTINUOUS
 62
     7
 10
79.800000000000054
 20
179.5
 30
0.0
 40
0.5000000000000088
  0
CIRCLE
  5
5E8
  8
DATA
  6
CONTINUOUS
 62
     7
 10
86.050000000000026
 20
182.5
 30
0.0
 40
0.5000000000000088
  0
CIRCLE
  5
5E9
  8
DATA
  6
CONTINUOUS
 62
     7
 10
88.550000000000026
 20
182.5
 30
0.0
 40
0.5000000000000088
  0
CIRCLE
  5
5EA
  8
DATA
  6
CONTINUOUS
 62
     7
 10
83.550000000000054
 20
182.5
 30
0.0
 40
0.5000000000000088
  0
CIRCLE
  5
5EB
  8
DATA
  6
CONTINUOUS
 62
     7
 10
81.050000000000054
 20
182.5
 30
0.0
 40
0.5000000000000088
  0
CIRCLE
  5
5EC
  8
DATA
  6
CONTINUOUS
 62
     7
 10
108.3000000000001
 20
182.5
 30
0.0
 40
2.9999999999999778
  0
TEXT
  5
5ED
  8
DATA
 62
     7
 10
-217.6722222222221
 20
166.01222222222219
 30
0.0
 40
5.4294704861111107
  1
A
 50
180.0
 41
0.7
 11
-217.6722222222221
 21
160.58275173611111
 31
0.0
 73
     3
  0
LINE
  5
5EE
  8
DATA
  6
CONTINUOUS
 62
     7
 10
-215.19999999999999
 20
161.5
 30
0.0
 11
-185.1999999999999
 21
161.5
 31
0.0
  0
LINE
  5
5EF
  8
DATA
  6
CONTINUOUS
 62
     7
 10
-215.19999999999999
 20
162.5
 30
0.0
 11
-213.69999999999999
 21
162.5
 31
0.0
  0
LINE
  5
5F0
  8
DATA
  6
CONTINUOUS
 62
     7
 10
-213.69999999999999
 20
162.5
 30
0.0
 11
-214.1999999999999
 21
161.5
 31
0.0
  0
LINE
  5
5F1
  8
DATA
  6
CONTINUOUS
 62
     7
 10
-211.19999999999999
 20
161.5
 30
0.0
 11
-211.6999999999999
 21
162.5
 31
0.0
  0
LINE
  5
5F2
  8
DATA
  6
CONTINUOUS
 62
     7
 10
-211.6999999999999
 20
162.5
 30
0.0
 11
-208.69999999999999
 21
162.5
 31
0.0
  0
LINE
  5
5F3
  8
DATA
  6
CONTINUOUS
 62
     7
 10
-208.69999999999999
 20
162.5
 30
0.0
 11
-209.19999999999999
 21
161.5
 31
0.0
  0
LINE
  5
5F4
  8
DATA
  6
CONTINUOUS
 62
     7
 10
-206.19999999999999
 20
161.5
 30
0.0
 11
-206.69999999999999
 21
162.5
 31
0.0
  0
LINE
  5
5F5
  8
DATA
  6
CONTINUOUS
 62
     7
 10
-206.69999999999999
 20
162.5
 30
0.0
 11
-203.6999999999999
 21
162.5
 31
0.0
  0
LINE
  5
5F6
  8
DATA
  6
CONTINUOUS
 62
     7
 10
-203.6999999999999
 20
162.5
 30
0.0
 11
-204.19999999999999
 21
161.5
 31
0.0
  0
LINE
  5
5F7
  8
DATA
  6
CONTINUOUS
 62
     7
 10
-201.19999999999999
 20
161.5
 30
0.0
 11
-201.6999999999999
 21
162.5
 31
0.0
  0
LINE
  5
5F8
  8
DATA
  6
CONTINUOUS
 62
     7
 10
-201.6999999999999
 20
162.5
 30
0.0
 11
-198.6999999999999
 21
162.5
 31
0.0
  0
LINE
  5
5F9
  8
DATA
  6
CONTINUOUS
 62
     7
 10
-198.6999999999999
 20
162.5
 30
0.0
 11
-199.1999999999999
 21
161.5
 31
0.0
  0
LINE
  5
5FA
  8
DATA
  6
CONTINUOUS
 62
     7
 10
-196.1999999999999
 20
161.5
 30
0.0
 11
-196.6999999999999
 21
162.5
 31
0.0
  0
LINE
  5
5FB
  8
DATA
  6
CONTINUOUS
 62
     7
 10
-196.6999999999999
 20
162.5
 30
0.0
 11
-193.6999999999999
 21
162.5
 31
0.0
  0
LINE
  5
5FC
  8
DATA
  6
CONTINUOUS
 62
     7
 10
-193.6999999999999
 20
162.5
 30
0.0
 11
-194.1999999999999
 21
161.5
 31
0.0
  0
LINE
  5
5FD
  8
DATA
  6
CONTINUOUS
 62
     7
 10
-191.1999999999999
 20
161.5
 30
0.0
 11
-191.6999999999999
 21
162.5
 31
0.0
  0
LINE
  5
5FE
  8
DATA
  6
CONTINUOUS
 62
     7
 10
-191.6999999999999
 20
162.5
 30
0.0
 11
-188.6999999999999
 21
162.5
 31
0.0
  0
LINE
  5
5FF
  8
DATA
  6
CONTINUOUS
 62
     7
 10
-188.6999999999999
 20
162.5
 30
0.0
 11
-189.1999999999999
 21
161.5
 31
0.0
  0
LINE
  5
600
  8
DATA
  6
CONTINUOUS
 62
     7
 10
-185.1999999999999
 20
162.5
 30
0.0
 11
-186.6999999999999
 21
162.5
 31
0.0
  0
LINE
  5
601
  8
DATA
  6
CONTINUOUS
 62
     7
 10
-186.6999999999999
 20
162.5
 30
0.0
 11
-186.1999999999999
 21
161.5
 31
0.0
  0
POLYLINE
  5
602
  8
DATA
  6
CONTINUOUS
 62
     7
 66
     1
 10
0.0
 20
0.0
 30
0.0
 70
     1
  0
VERTEX
  5
BAF
  8
DATA
  6
CONTINUOUS
 62
     7
 10
-213.2000000000001
 20
166.0
 30
0.0
  0
VERTEX
  5
BB0
  8
DATA
  6
CONTINUOUS
 62
     7
 10
-212.1999999999999
 20
166.0
 30
0.0
  0
VERTEX
  5
BB1
  8
DATA
  6
CONTINUOUS
 62
     7
 10
-212.1999999999999
 20
165.0
 30
0.0
  0
VERTEX
  5
BB2
  8
DATA
  6
CONTINUOUS
 62
     7
 10
-213.2000000000001
 20
165.0
 30
0.0
  0
SEQEND
  5
BB3
  8
DATA
  6
CONTINUOUS
 62
     7
  0
POLYLINE
  5
609
  8
DATA
  6
CONTINUOUS
 62
     7
 66
     1
 10
0.0
 20
0.0
 30
0.0
 70
     1
  0
VERTEX
  5
BB4
  8
DATA
  6
CONTINUOUS
 62
     7
 10
-208.19999999999999
 20
166.0
 30
0.0
  0
VERTEX
  5
BB5
  8
DATA
  6
CONTINUOUS
 62
     7
 10
-207.19999999999999
 20
166.0
 30
0.0
  0
VERTEX
  5
BB6
  8
DATA
  6
CONTINUOUS
 62
     7
 10
-207.19999999999999
 20
165.0
 30
0.0
  0
VERTEX
  5
BB7
  8
DATA
  6
CONTINUOUS
 62
     7
 10
-208.19999999999999
 20
165.0
 30
0.0
  0
SEQEND
  5
BB8
  8
DATA
  6
CONTINUOUS
 62
     7
  0
POLYLINE
  5
610
  8
DATA
  6
CONTINUOUS
 62
     7
 66
     1
 10
0.0
 20
0.0
 30
0.0
 70
     1
  0
VERTEX
  5
BB9
  8
DATA
  6
CONTINUOUS
 62
     7
 10
-203.19999999999999
 20
166.0
 30
0.0
  0
VERTEX
  5
BBA
  8
DATA
  6
CONTINUOUS
 62
     7
 10
-202.19999999999999
 20
166.0
 30
0.0
  0
VERTEX
  5
BBB
  8
DATA
  6
CONTINUOUS
 62
     7
 10
-202.19999999999999
 20
165.0
 30
0.0
  0
VERTEX
  5
BBC
  8
DATA
  6
CONTINUOUS
 62
     7
 10
-203.19999999999999
 20
165.0
 30
0.0
  0
SEQEND
  5
BBD
  8
DATA
  6
CONTINUOUS
 62
     7
  0
POLYLINE
  5
617
  8
DATA
  6
CONTINUOUS
 62
     7
 66
     1
 10
0.0
 20
0.0
 30
0.0
 70
     1
  0
VERTEX
  5
BBE
  8
DATA
  6
CONTINUOUS
 62
     7
 10
-198.19999999999999
 20
166.0
 30
0.0
  0
VERTEX
  5
BBF
  8
DATA
  6
CONTINUOUS
 62
     7
 10
-197.1999999999999
 20
166.0
 30
0.0
  0
VERTEX
  5
BC0
  8
DATA
  6
CONTINUOUS
 62
     7
 10
-197.1999999999999
 20
165.0
 30
0.0
  0
VERTEX
  5
BC1
  8
DATA
  6
CONTINUOUS
 62
     7
 10
-198.19999999999999
 20
165.0
 30
0.0
  0
SEQEND
  5
BC2
  8
DATA
  6
CONTINUOUS
 62
     7
  0
POLYLINE
  5
61E
  8
DATA
  6
CONTINUOUS
 62
     7
 66
     1
 10
0.0
 20
0.0
 30
0.0
 70
     1
  0
VERTEX
  5
BC3
  8
DATA
  6
CONTINUOUS
 62
     7
 10
-193.19999999999999
 20
166.0
 30
0.0
  0
VERTEX
  5
BC4
  8
DATA
  6
CONTINUOUS
 62
     7
 10
-192.1999999999999
 20
166.0
 30
0.0
  0
VERTEX
  5
BC5
  8
DATA
  6
CONTINUOUS
 62
     7
 10
-192.1999999999999
 20
165.0
 30
0.0
  0
VERTEX
  5
BC6
  8
DATA
  6
CONTINUOUS
 62
     7
 10
-193.19999999999999
 20
165.0
 30
0.0
  0
SEQEND
  5
BC7
  8
DATA
  6
CONTINUOUS
 62
     7
  0
POLYLINE
  5
625
  8
DATA
  6
CONTINUOUS
 62
     7
 66
     1
 10
0.0
 20
0.0
 30
0.0
 70
     1
  0
VERTEX
  5
BC8
  8
DATA
  6
CONTINUOUS
 62
     7
 10
-188.19999999999999
 20
166.0
 30
0.0
  0
VERTEX
  5
BC9
  8
DATA
  6
CONTINUOUS
 62
     7
 10
-187.1999999999999
 20
166.0
 30
0.0
  0
VERTEX
  5
BCA
  8
DATA
  6
CONTINUOUS
 62
     7
 10
-187.1999999999999
 20
165.0
 30
0.0
  0
VERTEX
  5
BCB
  8
DATA
  6
CONTINUOUS
 62
     7
 10
-188.19999999999999
 20
165.0
 30
0.0
  0
SEQEND
  5
BCC
  8
DATA
  6
CONTINUOUS
 62
     7
  0
LINE
  5
62C
  8
DATA
  6
CONTINUOUS
 62
     7
 10
-215.19999999999999
 20
161.0
 30
0.0
 11
-215.19999999999999
 21
168.0
 31
0.0
  0
ARC
  5
62D
  8
DATA
  6
CONTINUOUS
 62
     7
 10
-212.69999999999999
 20
164.875
 30
0.0
 40
3.625
 50
46.397181027296369
 51
133.6028189727036
  0
ARC
  5
62E
  8
DATA
  6
CONTINUOUS
 62
     7
 10
-207.6999999999999
 20
164.875
 30
0.0
 40
3.625
 50
46.397181027296369
 51
133.6028189727036
  0
ARC
  5
62F
  8
DATA
  6
CONTINUOUS
 62
     7
 10
-202.69999999999999
 20
164.875
 30
0.0
 40
3.625
 50
46.397181027296369
 51
133.6028189727036
  0
ARC
  5
630
  8
DATA
  6
CONTINUOUS
 62
     7
 10
-197.6999999999999
 20
164.875
 30
0.0
 40
3.625
 50
46.397181027296369
 51
133.6028189727036
  0
ARC
  5
631
  8
DATA
  6
CONTINUOUS
 62
     7
 10
-192.6999999999999
 20
164.875
 30
0.0
 40
3.625
 50
46.397181027296369
 51
133.6028189727036
  0
ARC
  5
632
  8
DATA
  6
CONTINUOUS
 62
     7
 10
-187.6999999999999
 20
164.875
 30
0.0
 40
3.625
 50
46.397181027296369
 51
133.6028189727036
  0
LINE
  5
633
  8
DATA
  6
CONTINUOUS
 62
     7
 10
-185.1999999999999
 20
168.0
 30
0.0
 11
-185.1999999999999
 21
161.0
 31
0.0
  0
ARC
  5
634
  8
DATA
  6
CONTINUOUS
 62
     7
 10
-212.69999999999999
 20
165.375
 30
0.0
 40
3.625
 50
46.397181027296369
 51
133.6028189727036
  0
ARC
  5
635
  8
DATA
  6
CONTINUOUS
 62
     7
 10
-207.6999999999999
 20
165.375
 30
0.0
 40
3.625
 50
46.397181027296369
 51
133.6028189727036
  0
ARC
  5
636
  8
DATA
  6
CONTINUOUS
 62
     7
 10
-202.69999999999999
 20
165.375
 30
0.0
 40
3.625
 50
46.397181027296369
 51
133.6028189727036
  0
ARC
  5
637
  8
DATA
  6
CONTINUOUS
 62
     7
 10
-197.6999999999999
 20
165.375
 30
0.0
 40
3.625
 50
46.397181027296369
 51
133.6028189727036
  0
ARC
  5
638
  8
DATA
  6
CONTINUOUS
 62
     7
 10
-192.6999999999999
 20
165.375
 30
0.0
 40
3.625
 50
46.397181027296369
 51
133.6028189727036
  0
ARC
  5
639
  8
DATA
  6
CONTINUOUS
 62
     7
 10
-187.6999999999999
 20
165.375
 30
0.0
 40
3.625
 50
46.397181027296369
 51
133.6028189727036
  0
LINE
  5
63A
  8
DATA
  6
CONTINUOUS
 62
     7
 10
-215.19999999999999
 20
161.0
 30
0.0
 11
-185.1999999999999
 21
161.0
 31
0.0
  0
TEXT
  5
63B
  8
DATA
 62
     7
 10
-206.69999999999999
 20
159.60401076758549
 30
0.0
 40
2.693359375
  1
1
 50
180.0
 41
0.7
 11
-206.69999999999999
 21
156.91065139258549
 31
0.0
 73
     3
  0
TEXT
  5
63C
  8
DATA
 62
     7
 10
-191.6999999999999
 20
159.60401076758549
 30
0.0
 40
2.693359375
  1
2
 50
180.0
 41
0.7
 11
-191.6999999999999
 21
156.91065139258549
 31
0.0
 73
     3
  0
TEXT
  5
63D
  8
DATA
 62
     7
 10
-211.6999999999999
 20
172.25999999999999
 30
0.0
 40
2.693359375
  1
-
 50
180.0
 41
0.7
 11
-211.6999999999999
 21
169.56664062499999
 31
0.0
 73
     3
  0
TEXT
  5
63E
  8
DATA
 62
     7
 10
-206.8249999999999
 20
172.25999999999999
 30
0.0
 40
2.693359375
  1
+
 50
180.0
 41
0.7
 11
-206.8249999999999
 21
169.56664062499999
 31
0.0
 73
     3
  0
TEXT
  5
63F
  8
DATA
 62
     7
 10
-201.6999999999999
 20
172.25999999999999
 30
0.0
 40
2.693359375
  1
S
 50
180.0
 41
0.7
 11
-201.6999999999999
 21
169.56664062499999
 31
0.0
 73
     3
  0
TEXT
  5
640
  8
DATA
 62
     7
 10
-196.8249999999999
 20
172.25999999999999
 30
0.0
 40
2.693359375
  1
-
 50
180.0
 41
0.7
 11
-196.8249999999999
 21
169.56664062499999
 31
0.0
 73
     3
  0
TEXT
  5
641
  8
DATA
 62
     7
 10
-191.9499999999999
 20
172.25999999999999
 30
0.0
 40
2.693359375
  1
+
 50
180.0
 41
0.7
 11
-191.9499999999999
 21
169.56664062499999
 31
0.0
 73
     3
  0
TEXT
  5
642
  8
DATA
 62
     7
 10
-186.8249999999999
 20
172.25999999999999
 30
0.0
 40
2.693359375
  1
S
 50
180.0
 41
0.7
 11
-186.8249999999999
 21
169.56664062499999
 31
0.0
 73
     3
  0
LINE
  5
643
  8
DATA
  6
CONTINUOUS
 62
     7
 10
-215.19999999999999
 20
169.625
 30
0.0
 11
-215.19999999999999
 21
173.125
 31
0.0
  0
LINE
  5
644
  8
DATA
  6
CONTINUOUS
 62
     7
 10
-215.19999999999999
 20
173.0
 30
0.0
 11
-185.1999999999999
 21
173.0
 31
0.0
  0
LINE
  5
645
  8
DATA
  6
CONTINUOUS
 62
     7
 10
-185.1999999999999
 20
173.0
 30
0.0
 11
-185.1999999999999
 21
169.5
 31
0.0
  0
CIRCLE
  5
646
  8
DATA
  6
CONTINUOUS
 62
     7
 10
-219.19999999999999
 20
187.0
 30
0.0
 40
1.500000000000042
  0
CIRCLE
  5
647
  8
DATA
  6
CONTINUOUS
 62
     7
 10
-219.19999999999999
 20
169.0
 30
0.0
 40
1.500000000000042
  0
TEXT
  5
648
  8
DATA
 62
     7
 10
-217.6722222222221
 20
184.01222222222219
 30
0.0
 40
5.4294704861111107
  1
C
 50
180.0
 41
0.7
 11
-217.6722222222221
 21
178.58275173611111
 31
0.0
 73
     3
  0
CIRCLE
  5
649
  8
DATA
  6
CONTINUOUS
 62
     7
 10
-178.9499999999999
 20
183.0
 30
0.0
 40
3.5000000000000511
  0
LINE
  5
64A
  8
DATA
  6
CONTINUOUS
 62
     7
 10
-182.4499999999999
 20
183.0
 30
0.0
 11
-175.4499999999999
 21
183.0
 31
0.0
  0
LINE
  5
64B
  8
DATA
  6
CONTINUOUS
 62
     7
 10
-178.9499999999999
 20
185.0
 30
0.0
 11
-178.9499999999999
 21
181.0
 31
0.0
  0
CIRCLE
  5
64C
  8
DATA
  6
CONTINUOUS
 62
     7
 10
-178.9499999999999
 20
165.0
 30
0.0
 40
2.75
  0
LINE
  5
64D
  8
DATA
  6
CONTINUOUS
 62
     7
 10
-180.4499999999999
 20
165.0
 30
0.0
 11
-177.4499999999999
 21
165.0
 31
0.0
  0
LINE
  5
64E
  8
DATA
  6
CONTINUOUS
 62
     7
 10
-178.9499999999999
 20
166.5
 30
0.0
 11
-178.9499999999999
 21
163.5
 31
0.0
  0
LINE
  5
64F
  8
DATA
  6
CONTINUOUS
 62
     7
 10
-127.1999999999999
 20
179.5
 30
0.0
 11
-97.199999999999946
 21
179.5
 31
0.0
  0
LINE
  5
650
  8
DATA
  6
CONTINUOUS
 62
     7
 10
-127.1999999999999
 20
180.5
 30
0.0
 11
-125.6999999999999
 21
180.5
 31
0.0
  0
LINE
  5
651
  8
DATA
  6
CONTINUOUS
 62
     7
 10
-125.6999999999999
 20
180.5
 30
0.0
 11
-126.1999999999999
 21
179.5
 31
0.0
  0
LINE
  5
652
  8
DATA
  6
CONTINUOUS
 62
     7
 10
-123.1999999999999
 20
179.5
 30
0.0
 11
-123.6999999999999
 21
180.5
 31
0.0
  0
LINE
  5
653
  8
DATA
  6
CONTINUOUS
 62
     7
 10
-123.6999999999999
 20
180.5
 30
0.0
 11
-120.6999999999999
 21
180.5
 31
0.0
  0
LINE
  5
654
  8
DATA
  6
CONTINUOUS
 62
     7
 10
-120.6999999999999
 20
180.5
 30
0.0
 11
-121.1999999999999
 21
179.5
 31
0.0
  0
LINE
  5
655
  8
DATA
  6
CONTINUOUS
 62
     7
 10
-118.1999999999999
 20
179.5
 30
0.0
 11
-118.6999999999999
 21
180.5
 31
0.0
  0
LINE
  5
656
  8
DATA
  6
CONTINUOUS
 62
     7
 10
-118.6999999999999
 20
180.5
 30
0.0
 11
-115.6999999999999
 21
180.5
 31
0.0
  0
LINE
  5
657
  8
DATA
  6
CONTINUOUS
 62
     7
 10
-115.6999999999999
 20
180.5
 30
0.0
 11
-116.1999999999999
 21
179.5
 31
0.0
  0
LINE
  5
658
  8
DATA
  6
CONTINUOUS
 62
     7
 10
-113.1999999999999
 20
179.5
 30
0.0
 11
-113.6999999999999
 21
180.5
 31
0.0
  0
LINE
  5
659
  8
DATA
  6
CONTINUOUS
 62
     7
 10
-113.6999999999999
 20
180.5
 30
0.0
 11
-110.6999999999999
 21
180.5
 31
0.0
  0
LINE
  5
65A
  8
DATA
  6
CONTINUOUS
 62
     7
 10
-110.6999999999999
 20
180.5
 30
0.0
 11
-111.1999999999999
 21
179.5
 31
0.0
  0
LINE
  5
65B
  8
DATA
  6
CONTINUOUS
 62
     7
 10
-108.1999999999999
 20
179.5
 30
0.0
 11
-108.6999999999999
 21
180.5
 31
0.0
  0
LINE
  5
65C
  8
DATA
  6
CONTINUOUS
 62
     7
 10
-108.6999999999999
 20
180.5
 30
0.0
 11
-105.6999999999999
 21
180.5
 31
0.0
  0
LINE
  5
65D
  8
DATA
  6
CONTINUOUS
 62
     7
 10
-105.6999999999999
 20
180.5
 30
0.0
 11
-106.1999999999999
 21
179.5
 31
0.0
  0
LINE
  5
65E
  8
DATA
  6
CONTINUOUS
 62
     7
 10
-103.1999999999999
 20
179.5
 30
0.0
 11
-103.6999999999999
 21
180.5
 31
0.0
  0
LINE
  5
65F
  8
DATA
  6
CONTINUOUS
 62
     7
 10
-103.6999999999999
 20
180.5
 30
0.0
 11
-100.6999999999999
 21
180.5
 31
0.0
  0
LINE
  5
660
  8
DATA
  6
CONTINUOUS
 62
     7
 10
-100.6999999999999
 20
180.5
 30
0.0
 11
-101.1999999999999
 21
179.5
 31
0.0
  0
LINE
  5
661
  8
DATA
  6
CONTINUOUS
 62
     7
 10
-97.199999999999946
 20
180.5
 30
0.0
 11
-98.699999999999946
 21
180.5
 31
0.0
  0
LINE
  5
662
  8
DATA
  6
CONTINUOUS
 62
     7
 10
-98.699999999999946
 20
180.5
 30
0.0
 11
-98.199999999999946
 21
179.5
 31
0.0
  0
POLYLINE
  5
663
  8
DATA
  6
CONTINUOUS
 62
     7
 66
     1
 10
0.0
 20
0.0
 30
0.0
 70
     1
  0
VERTEX
  5
BCD
  8
DATA
  6
CONTINUOUS
 62
     7
 10
-125.2
 20
184.0
 30
0.0
  0
VERTEX
  5
BCE
  8
DATA
  6
CONTINUOUS
 62
     7
 10
-124.1999999999999
 20
184.0
 30
0.0
  0
VERTEX
  5
BCF
  8
DATA
  6
CONTINUOUS
 62
     7
 10
-124.1999999999999
 20
183.0
 30
0.0
  0
VERTEX
  5
BD0
  8
DATA
  6
CONTINUOUS
 62
     7
 10
-125.2
 20
183.0
 30
0.0
  0
SEQEND
  5
BD1
  8
DATA
  6
CONTINUOUS
 62
     7
  0
POLYLINE
  5
66A
  8
DATA
  6
CONTINUOUS
 62
     7
 66
     1
 10
0.0
 20
0.0
 30
0.0
 70
     1
  0
VERTEX
  5
BD2
  8
DATA
  6
CONTINUOUS
 62
     7
 10
-120.2
 20
184.0
 30
0.0
  0
VERTEX
  5
BD3
  8
DATA
  6
CONTINUOUS
 62
     7
 10
-119.1999999999999
 20
184.0
 30
0.0
  0
VERTEX
  5
BD4
  8
DATA
  6
CONTINUOUS
 62
     7
 10
-119.1999999999999
 20
183.0
 30
0.0
  0
VERTEX
  5
BD5
  8
DATA
  6
CONTINUOUS
 62
     7
 10
-120.2
 20
183.0
 30
0.0
  0
SEQEND
  5
BD6
  8
DATA
  6
CONTINUOUS
 62
     7
  0
POLYLINE
  5
671
  8
DATA
  6
CONTINUOUS
 62
     7
 66
     1
 10
0.0
 20
0.0
 30
0.0
 70
     1
  0
VERTEX
  5
BD7
  8
DATA
  6
CONTINUOUS
 62
     7
 10
-115.2
 20
184.0
 30
0.0
  0
VERTEX
  5
BD8
  8
DATA
  6
CONTINUOUS
 62
     7
 10
-114.1999999999999
 20
184.0
 30
0.0
  0
VERTEX
  5
BD9
  8
DATA
  6
CONTINUOUS
 62
     7
 10
-114.1999999999999
 20
183.0
 30
0.0
  0
VERTEX
  5
BDA
  8
DATA
  6
CONTINUOUS
 62
     7
 10
-115.2
 20
183.0
 30
0.0
  0
SEQEND
  5
BDB
  8
DATA
  6
CONTINUOUS
 62
     7
  0
POLYLINE
  5
678
  8
DATA
  6
CONTINUOUS
 62
     7
 66
     1
 10
0.0
 20
0.0
 30
0.0
 70
     1
  0
VERTEX
  5
BDC
  8
DATA
  6
CONTINUOUS
 62
     7
 10
-110.2
 20
184.0
 30
0.0
  0
VERTEX
  5
BDD
  8
DATA
  6
CONTINUOUS
 62
     7
 10
-109.1999999999999
 20
184.0
 30
0.0
  0
VERTEX
  5
BDE
  8
DATA
  6
CONTINUOUS
 62
     7
 10
-109.1999999999999
 20
183.0
 30
0.0
  0
VERTEX
  5
BDF
  8
DATA
  6
CONTINUOUS
 62
     7
 10
-110.2
 20
183.0
 30
0.0
  0
SEQEND
  5
BE0
  8
DATA
  6
CONTINUOUS
 62
     7
  0
POLYLINE
  5
67F
  8
DATA
  6
CONTINUOUS
 62
     7
 66
     1
 10
0.0
 20
0.0
 30
0.0
 70
     1
  0
VERTEX
  5
BE1
  8
DATA
  6
CONTINUOUS
 62
     7
 10
-105.2
 20
184.0
 30
0.0
  0
VERTEX
  5
BE2
  8
DATA
  6
CONTINUOUS
 62
     7
 10
-104.1999999999999
 20
184.0
 30
0.0
  0
VERTEX
  5
BE3
  8
DATA
  6
CONTINUOUS
 62
     7
 10
-104.1999999999999
 20
183.0
 30
0.0
  0
VERTEX
  5
BE4
  8
DATA
  6
CONTINUOUS
 62
     7
 10
-105.2
 20
183.0
 30
0.0
  0
SEQEND
  5
BE5
  8
DATA
  6
CONTINUOUS
 62
     7
  0
POLYLINE
  5
686
  8
DATA
  6
CONTINUOUS
 62
     7
 66
     1
 10
0.0
 20
0.0
 30
0.0
 70
     1
  0
VERTEX
  5
BE6
  8
DATA
  6
CONTINUOUS
 62
     7
 10
-100.2
 20
184.0
 30
0.0
  0
VERTEX
  5
BE7
  8
DATA
  6
CONTINUOUS
 62
     7
 10
-99.199999999999946
 20
184.0
 30
0.0
  0
VERTEX
  5
BE8
  8
DATA
  6
CONTINUOUS
 62
     7
 10
-99.199999999999946
 20
183.0
 30
0.0
  0
VERTEX
  5
BE9
  8
DATA
  6
CONTINUOUS
 62
     7
 10
-100.2
 20
183.0
 30
0.0
  0
SEQEND
  5
BEA
  8
DATA
  6
CONTINUOUS
 62
     7
  0
LINE
  5
68D
  8
DATA
  6
CONTINUOUS
 62
     7
 10
-127.1999999999999
 20
179.0
 30
0.0
 11
-127.1999999999999
 21
186.0
 31
0.0
  0
ARC
  5
68E
  8
DATA
  6
CONTINUOUS
 62
     7
 10
-124.6999999999999
 20
182.875
 30
0.0
 40
3.625
 50
46.397181027296369
 51
133.6028189727036
  0
ARC
  5
68F
  8
DATA
  6
CONTINUOUS
 62
     7
 10
-119.6999999999999
 20
182.875
 30
0.0
 40
3.625
 50
46.397181027296369
 51
133.6028189727036
  0
ARC
  5
690
  8
DATA
  6
CONTINUOUS
 62
     7
 10
-114.6999999999999
 20
182.875
 30
0.0
 40
3.625
 50
46.397181027296369
 51
133.6028189727036
  0
ARC
  5
691
  8
DATA
  6
CONTINUOUS
 62
     7
 10
-109.6999999999999
 20
182.875
 30
0.0
 40
3.625
 50
46.397181027296369
 51
133.6028189727036
  0
ARC
  5
692
  8
DATA
  6
CONTINUOUS
 62
     7
 10
-104.6999999999999
 20
182.875
 30
0.0
 40
3.625
 50
46.397181027296369
 51
133.6028189727036
  0
ARC
  5
693
  8
DATA
  6
CONTINUOUS
 62
     7
 10
-99.699999999999946
 20
182.875
 30
0.0
 40
3.625
 50
46.397181027296369
 51
133.6028189727036
  0
LINE
  5
694
  8
DATA
  6
CONTINUOUS
 62
     7
 10
-97.199999999999946
 20
186.0
 30
0.0
 11
-97.199999999999946
 21
179.0
 31
0.0
  0
ARC
  5
695
  8
DATA
  6
CONTINUOUS
 62
     7
 10
-124.6999999999999
 20
183.375
 30
0.0
 40
3.625
 50
46.397181027296369
 51
133.6028189727036
  0
ARC
  5
696
  8
DATA
  6
CONTINUOUS
 62
     7
 10
-119.6999999999999
 20
183.375
 30
0.0
 40
3.625
 50
46.397181027296369
 51
133.6028189727036
  0
ARC
  5
697
  8
DATA
  6
CONTINUOUS
 62
     7
 10
-114.6999999999999
 20
183.375
 30
0.0
 40
3.625
 50
46.397181027296369
 51
133.6028189727036
  0
ARC
  5
698
  8
DATA
  6
CONTINUOUS
 62
     7
 10
-109.6999999999999
 20
183.375
 30
0.0
 40
3.625
 50
46.397181027296369
 51
133.6028189727036
  0
ARC
  5
699
  8
DATA
  6
CONTINUOUS
 62
     7
 10
-104.6999999999999
 20
183.375
 30
0.0
 40
3.625
 50
46.397181027296369
 51
133.6028189727036
  0
ARC
  5
69A
  8
DATA
  6
CONTINUOUS
 62
     7
 10
-99.699999999999946
 20
183.375
 30
0.0
 40
3.625
 50
46.397181027296369
 51
133.6028189727036
  0
LINE
  5
69B
  8
DATA
  6
CONTINUOUS
 62
     7
 10
-127.1999999999999
 20
179.0
 30
0.0
 11
-97.199999999999946
 21
179.0
 31
0.0
  0
LINE
  5
69C
  8
DATA
  6
CONTINUOUS
 62
     7
 10
-84.699999999999932
 20
161.5
 30
0.0
 11
-54.699999999999932
 21
161.5
 31
0.0
  0
LINE
  5
69D
  8
DATA
  6
CONTINUOUS
 62
     7
 10
-84.699999999999932
 20
162.5
 30
0.0
 11
-83.199999999999932
 21
162.5
 31
0.0
  0
LINE
  5
69E
  8
DATA
  6
CONTINUOUS
 62
     7
 10
-83.199999999999932
 20
162.5
 30
0.0
 11
-83.699999999999932
 21
161.5
 31
0.0
  0
LINE
  5
69F
  8
DATA
  6
CONTINUOUS
 62
     7
 10
-80.699999999999932
 20
161.5
 30
0.0
 11
-81.199999999999932
 21
162.5
 31
0.0
  0
LINE
  5
6A0
  8
DATA
  6
CONTINUOUS
 62
     7
 10
-81.199999999999932
 20
162.5
 30
0.0
 11
-78.199999999999932
 21
162.5
 31
0.0
  0
LINE
  5
6A1
  8
DATA
  6
CONTINUOUS
 62
     7
 10
-78.199999999999932
 20
162.5
 30
0.0
 11
-78.699999999999932
 21
161.5
 31
0.0
  0
LINE
  5
6A2
  8
DATA
  6
CONTINUOUS
 62
     7
 10
-75.699999999999932
 20
161.5
 30
0.0
 11
-76.199999999999932
 21
162.5
 31
0.0
  0
LINE
  5
6A3
  8
DATA
  6
CONTINUOUS
 62
     7
 10
-76.199999999999932
 20
162.5
 30
0.0
 11
-73.199999999999932
 21
162.5
 31
0.0
  0
LINE
  5
6A4
  8
DATA
  6
CONTINUOUS
 62
     7
 10
-73.199999999999932
 20
162.5
 30
0.0
 11
-73.699999999999932
 21
161.5
 31
0.0
  0
LINE
  5
6A5
  8
DATA
  6
CONTINUOUS
 62
     7
 10
-70.699999999999932
 20
161.5
 30
0.0
 11
-71.199999999999932
 21
162.5
 31
0.0
  0
LINE
  5
6A6
  8
DATA
  6
CONTINUOUS
 62
     7
 10
-71.199999999999932
 20
162.5
 30
0.0
 11
-68.199999999999932
 21
162.5
 31
0.0
  0
LINE
  5
6A7
  8
DATA
  6
CONTINUOUS
 62
     7
 10
-68.199999999999932
 20
162.5
 30
0.0
 11
-68.699999999999932
 21
161.5
 31
0.0
  0
LINE
  5
6A8
  8
DATA
  6
CONTINUOUS
 62
     7
 10
-65.699999999999932
 20
161.5
 30
0.0
 11
-66.199999999999932
 21
162.5
 31
0.0
  0
LINE
  5
6A9
  8
DATA
  6
CONTINUOUS
 62
     7
 10
-66.199999999999932
 20
162.5
 30
0.0
 11
-63.199999999999932
 21
162.5
 31
0.0
  0
LINE
  5
6AA
  8
DATA
  6
CONTINUOUS
 62
     7
 10
-63.199999999999932
 20
162.5
 30
0.0
 11
-63.699999999999932
 21
161.5
 31
0.0
  0
LINE
  5
6AB
  8
DATA
  6
CONTINUOUS
 62
     7
 10
-60.699999999999932
 20
161.5
 30
0.0
 11
-61.199999999999932
 21
162.5
 31
0.0
  0
LINE
  5
6AC
  8
DATA
  6
CONTINUOUS
 62
     7
 10
-61.199999999999932
 20
162.5
 30
0.0
 11
-58.199999999999932
 21
162.5
 31
0.0
  0
LINE
  5
6AD
  8
DATA
  6
CONTINUOUS
 62
     7
 10
-58.199999999999932
 20
162.5
 30
0.0
 11
-58.699999999999932
 21
161.5
 31
0.0
  0
LINE
  5
6AE
  8
DATA
  6
CONTINUOUS
 62
     7
 10
-54.699999999999932
 20
162.5
 30
0.0
 11
-56.199999999999932
 21
162.5
 31
0.0
  0
LINE
  5
6AF
  8
DATA
  6
CONTINUOUS
 62
     7
 10
-56.199999999999932
 20
162.5
 30
0.0
 11
-55.699999999999932
 21
161.5
 31
0.0
  0
POLYLINE
  5
6B0
  8
DATA
  6
CONTINUOUS
 62
     7
 66
     1
 10
0.0
 20
0.0
 30
0.0
 70
     1
  0
VERTEX
  5
BEB
  8
DATA
  6
CONTINUOUS
 62
     7
 10
-82.70000000000006
 20
166.0
 30
0.0
  0
VERTEX
  5
BEC
  8
DATA
  6
CONTINUOUS
 62
     7
 10
-81.699999999999918
 20
166.0
 30
0.0
  0
VERTEX
  5
BED
  8
DATA
  6
CONTINUOUS
 62
     7
 10
-81.699999999999918
 20
165.0
 30
0.0
  0
VERTEX
  5
BEE
  8
DATA
  6
CONTINUOUS
 62
     7
 10
-82.70000000000006
 20
165.0
 30
0.0
  0
SEQEND
  5
BEF
  8
DATA
  6
CONTINUOUS
 62
     7
  0
POLYLINE
  5
6B7
  8
DATA
  6
CONTINUOUS
 62
     7
 66
     1
 10
0.0
 20
0.0
 30
0.0
 70
     1
  0
VERTEX
  5
BF0
  8
DATA
  6
CONTINUOUS
 62
     7
 10
-77.70000000000006
 20
166.0
 30
0.0
  0
VERTEX
  5
BF1
  8
DATA
  6
CONTINUOUS
 62
     7
 10
-76.699999999999932
 20
166.0
 30
0.0
  0
VERTEX
  5
BF2
  8
DATA
  6
CONTINUOUS
 62
     7
 10
-76.699999999999932
 20
165.0
 30
0.0
  0
VERTEX
  5
BF3
  8
DATA
  6
CONTINUOUS
 62
     7
 10
-77.70000000000006
 20
165.0
 30
0.0
  0
SEQEND
  5
BF4
  8
DATA
  6
CONTINUOUS
 62
     7
  0
POLYLINE
  5
6BE
  8
DATA
  6
CONTINUOUS
 62
     7
 66
     1
 10
0.0
 20
0.0
 30
0.0
 70
     1
  0
VERTEX
  5
BF5
  8
DATA
  6
CONTINUOUS
 62
     7
 10
-72.70000000000006
 20
166.0
 30
0.0
  0
VERTEX
  5
BF6
  8
DATA
  6
CONTINUOUS
 62
     7
 10
-71.699999999999932
 20
166.0
 30
0.0
  0
VERTEX
  5
BF7
  8
DATA
  6
CONTINUOUS
 62
     7
 10
-71.699999999999932
 20
165.0
 30
0.0
  0
VERTEX
  5
BF8
  8
DATA
  6
CONTINUOUS
 62
     7
 10
-72.70000000000006
 20
165.0
 30
0.0
  0
SEQEND
  5
BF9
  8
DATA
  6
CONTINUOUS
 62
     7
  0
POLYLINE
  5
6C5
  8
DATA
  6
CONTINUOUS
 62
     7
 66
     1
 10
0.0
 20
0.0
 30
0.0
 70
     1
  0
VERTEX
  5
BFA
  8
DATA
  6
CONTINUOUS
 62
     7
 10
-67.70000000000006
 20
166.0
 30
0.0
  0
VERTEX
  5
BFB
  8
DATA
  6
CONTINUOUS
 62
     7
 10
-66.699999999999932
 20
166.0
 30
0.0
  0
VERTEX
  5
BFC
  8
DATA
  6
CONTINUOUS
 62
     7
 10
-66.699999999999932
 20
165.0
 30
0.0
  0
VERTEX
  5
BFD
  8
DATA
  6
CONTINUOUS
 62
     7
 10
-67.70000000000006
 20
165.0
 30
0.0
  0
SEQEND
  5
BFE
  8
DATA
  6
CONTINUOUS
 62
     7
  0
POLYLINE
  5
6CC
  8
DATA
  6
CONTINUOUS
 62
     7
 66
     1
 10
0.0
 20
0.0
 30
0.0
 70
     1
  0
VERTEX
  5
BFF
  8
DATA
  6
CONTINUOUS
 62
     7
 10
-62.70000000000006
 20
166.0
 30
0.0
  0
VERTEX
  5
C00
  8
DATA
  6
CONTINUOUS
 62
     7
 10
-61.699999999999932
 20
166.0
 30
0.0
  0
VERTEX
  5
C01
  8
DATA
  6
CONTINUOUS
 62
     7
 10
-61.699999999999932
 20
165.0
 30
0.0
  0
VERTEX
  5
C02
  8
DATA
  6
CONTINUOUS
 62
     7
 10
-62.70000000000006
 20
165.0
 30
0.0
  0
SEQEND
  5
C03
  8
DATA
  6
CONTINUOUS
 62
     7
  0
POLYLINE
  5
6D3
  8
DATA
  6
CONTINUOUS
 62
     7
 66
     1
 10
0.0
 20
0.0
 30
0.0
 70
     1
  0
VERTEX
  5
C04
  8
DATA
  6
CONTINUOUS
 62
     7
 10
-57.70000000000006
 20
166.0
 30
0.0
  0
VERTEX
  5
C05
  8
DATA
  6
CONTINUOUS
 62
     7
 10
-56.699999999999932
 20
166.0
 30
0.0
  0
VERTEX
  5
C06
  8
DATA
  6
CONTINUOUS
 62
     7
 10
-56.699999999999932
 20
165.0
 30
0.0
  0
VERTEX
  5
C07
  8
DATA
  6
CONTINUOUS
 62
     7
 10
-57.70000000000006
 20
165.0
 30
0.0
  0
SEQEND
  5
C08
  8
DATA
  6
CONTINUOUS
 62
     7
  0
LINE
  5
6DA
  8
DATA
  6
CONTINUOUS
 62
     7
 10
-84.699999999999932
 20
161.0
 30
0.0
 11
-84.699999999999932
 21
168.0
 31
0.0
  0
ARC
  5
6DB
  8
DATA
  6
CONTINUOUS
 62
     7
 10
-82.199999999999932
 20
164.875
 30
0.0
 40
3.625
 50
46.397181027296369
 51
133.6028189727036
  0
ARC
  5
6DC
  8
DATA
  6
CONTINUOUS
 62
     7
 10
-77.199999999999932
 20
164.875
 30
0.0
 40
3.625
 50
46.397181027296369
 51
133.6028189727036
  0
ARC
  5
6DD
  8
DATA
  6
CONTINUOUS
 62
     7
 10
-72.199999999999932
 20
164.875
 30
0.0
 40
3.625
 50
46.397181027296369
 51
133.6028189727036
  0
ARC
  5
6DE
  8
DATA
  6
CONTINUOUS
 62
     7
 10
-67.199999999999932
 20
164.875
 30
0.0
 40
3.625
 50
46.397181027296369
 51
133.6028189727036
  0
ARC
  5
6DF
  8
DATA
  6
CONTINUOUS
 62
     7
 10
-62.199999999999932
 20
164.875
 30
0.0
 40
3.625
 50
46.397181027296369
 51
133.6028189727036
  0
ARC
  5
6E0
  8
DATA
  6
CONTINUOUS
 62
     7
 10
-57.199999999999932
 20
164.875
 30
0.0
 40
3.625
 50
46.397181027296369
 51
133.6028189727036
  0
LINE
  5
6E1
  8
DATA
  6
CONTINUOUS
 62
     7
 10
-54.699999999999932
 20
168.0
 30
0.0
 11
-54.699999999999932
 21
161.0
 31
0.0
  0
ARC
  5
6E2
  8
DATA
  6
CONTINUOUS
 62
     7
 10
-82.199999999999932
 20
165.375
 30
0.0
 40
3.625
 50
46.397181027296369
 51
133.6028189727036
  0
ARC
  5
6E3
  8
DATA
  6
CONTINUOUS
 62
     7
 10
-77.199999999999932
 20
165.375
 30
0.0
 40
3.625
 50
46.397181027296369
 51
133.6028189727036
  0
ARC
  5
6E4
  8
DATA
  6
CONTINUOUS
 62
     7
 10
-72.199999999999932
 20
165.375
 30
0.0
 40
3.625
 50
46.397181027296369
 51
133.6028189727036
  0
ARC
  5
6E5
  8
DATA
  6
CONTINUOUS
 62
     7
 10
-67.199999999999932
 20
165.375
 30
0.0
 40
3.625
 50
46.397181027296369
 51
133.6028189727036
  0
ARC
  5
6E6
  8
DATA
  6
CONTINUOUS
 62
     7
 10
-62.199999999999932
 20
165.375
 30
0.0
 40
3.625
 50
46.397181027296369
 51
133.6028189727036
  0
ARC
  5
6E7
  8
DATA
  6
CONTINUOUS
 62
     7
 10
-57.199999999999932
 20
165.375
 30
0.0
 40
3.625
 50
46.397181027296369
 51
133.6028189727036
  0
LINE
  5
6E8
  8
DATA
  6
CONTINUOUS
 62
     7
 10
-84.699999999999932
 20
161.0
 30
0.0
 11
-54.699999999999932
 21
161.0
 31
0.0
  0
LINE
  5
6E9
  8
DATA
  6
CONTINUOUS
 62
     7
 10
-84.699999999999932
 20
179.5
 30
0.0
 11
-54.699999999999932
 21
179.5
 31
0.0
  0
LINE
  5
6EA
  8
DATA
  6
CONTINUOUS
 62
     7
 10
-84.699999999999932
 20
180.5
 30
0.0
 11
-83.199999999999932
 21
180.5
 31
0.0
  0
LINE
  5
6EB
  8
DATA
  6
CONTINUOUS
 62
     7
 10
-83.199999999999932
 20
180.5
 30
0.0
 11
-83.699999999999932
 21
179.5
 31
0.0
  0
LINE
  5
6EC
  8
DATA
  6
CONTINUOUS
 62
     7
 10
-80.699999999999932
 20
179.5
 30
0.0
 11
-81.199999999999932
 21
180.5
 31
0.0
  0
LINE
  5
6ED
  8
DATA
  6
CONTINUOUS
 62
     7
 10
-81.199999999999932
 20
180.5
 30
0.0
 11
-78.199999999999932
 21
180.5
 31
0.0
  0
LINE
  5
6EE
  8
DATA
  6
CONTINUOUS
 62
     7
 10
-78.199999999999932
 20
180.5
 30
0.0
 11
-78.699999999999932
 21
179.5
 31
0.0
  0
LINE
  5
6EF
  8
DATA
  6
CONTINUOUS
 62
     7
 10
-75.699999999999932
 20
179.5
 30
0.0
 11
-76.199999999999932
 21
180.5
 31
0.0
  0
LINE
  5
6F0
  8
DATA
  6
CONTINUOUS
 62
     7
 10
-76.199999999999932
 20
180.5
 30
0.0
 11
-73.199999999999932
 21
180.5
 31
0.0
  0
LINE
  5
6F1
  8
DATA
  6
CONTINUOUS
 62
     7
 10
-73.199999999999932
 20
180.5
 30
0.0
 11
-73.699999999999932
 21
179.5
 31
0.0
  0
LINE
  5
6F2
  8
DATA
  6
CONTINUOUS
 62
     7
 10
-70.699999999999932
 20
179.5
 30
0.0
 11
-71.199999999999932
 21
180.5
 31
0.0
  0
LINE
  5
6F3
  8
DATA
  6
CONTINUOUS
 62
     7
 10
-71.199999999999932
 20
180.5
 30
0.0
 11
-68.199999999999932
 21
180.5
 31
0.0
  0
LINE
  5
6F4
  8
DATA
  6
CONTINUOUS
 62
     7
 10
-68.199999999999932
 20
180.5
 30
0.0
 11
-68.699999999999932
 21
179.5
 31
0.0
  0
LINE
  5
6F5
  8
DATA
  6
CONTINUOUS
 62
     7
 10
-65.699999999999932
 20
179.5
 30
0.0
 11
-66.199999999999932
 21
180.5
 31
0.0
  0
LINE
  5
6F6
  8
DATA
  6
CONTINUOUS
 62
     7
 10
-66.199999999999932
 20
180.5
 30
0.0
 11
-63.199999999999932
 21
180.5
 31
0.0
  0
LINE
  5
6F7
  8
DATA
  6
CONTINUOUS
 62
     7
 10
-63.199999999999932
 20
180.5
 30
0.0
 11
-63.699999999999932
 21
179.5
 31
0.0
  0
LINE
  5
6F8
  8
DATA
  6
CONTINUOUS
 62
     7
 10
-60.699999999999932
 20
179.5
 30
0.0
 11
-61.199999999999932
 21
180.5
 31
0.0
  0
LINE
  5
6F9
  8
DATA
  6
CONTINUOUS
 62
     7
 10
-61.199999999999932
 20
180.5
 30
0.0
 11
-58.199999999999932
 21
180.5
 31
0.0
  0
LINE
  5
6FA
  8
DATA
  6
CONTINUOUS
 62
     7
 10
-58.199999999999932
 20
180.5
 30
0.0
 11
-58.699999999999932
 21
179.5
 31
0.0
  0
LINE
  5
6FB
  8
DATA
  6
CONTINUOUS
 62
     7
 10
-54.699999999999932
 20
180.5
 30
0.0
 11
-56.199999999999932
 21
180.5
 31
0.0
  0
LINE
  5
6FC
  8
DATA
  6
CONTINUOUS
 62
     7
 10
-56.199999999999932
 20
180.5
 30
0.0
 11
-55.699999999999932
 21
179.5
 31
0.0
  0
POLYLINE
  5
6FD
  8
DATA
  6
CONTINUOUS
 62
     7
 66
     1
 10
0.0
 20
0.0
 30
0.0
 70
     1
  0
VERTEX
  5
C09
  8
DATA
  6
CONTINUOUS
 62
     7
 10
-82.70000000000006
 20
184.0
 30
0.0
  0
VERTEX
  5
C0A
  8
DATA
  6
CONTINUOUS
 62
     7
 10
-81.699999999999918
 20
184.0
 30
0.0
  0
VERTEX
  5
C0B
  8
DATA
  6
CONTINUOUS
 62
     7
 10
-81.699999999999918
 20
183.0
 30
0.0
  0
VERTEX
  5
C0C
  8
DATA
  6
CONTINUOUS
 62
     7
 10
-82.70000000000006
 20
183.0
 30
0.0
  0
SEQEND
  5
C0D
  8
DATA
  6
CONTINUOUS
 62
     7
  0
POLYLINE
  5
704
  8
DATA
  6
CONTINUOUS
 62
     7
 66
     1
 10
0.0
 20
0.0
 30
0.0
 70
     1
  0
VERTEX
  5
C0E
  8
DATA
  6
CONTINUOUS
 62
     7
 10
-77.70000000000006
 20
184.0
 30
0.0
  0
VERTEX
  5
C0F
  8
DATA
  6
CONTINUOUS
 62
     7
 10
-76.699999999999932
 20
184.0
 30
0.0
  0
VERTEX
  5
C10
  8
DATA
  6
CONTINUOUS
 62
     7
 10
-76.699999999999932
 20
183.0
 30
0.0
  0
VERTEX
  5
C11
  8
DATA
  6
CONTINUOUS
 62
     7
 10
-77.70000000000006
 20
183.0
 30
0.0
  0
SEQEND
  5
C12
  8
DATA
  6
CONTINUOUS
 62
     7
  0
POLYLINE
  5
70B
  8
DATA
  6
CONTINUOUS
 62
     7
 66
     1
 10
0.0
 20
0.0
 30
0.0
 70
     1
  0
VERTEX
  5
C13
  8
DATA
  6
CONTINUOUS
 62
     7
 10
-72.70000000000006
 20
184.0
 30
0.0
  0
VERTEX
  5
C14
  8
DATA
  6
CONTINUOUS
 62
     7
 10
-71.699999999999932
 20
184.0
 30
0.0
  0
VERTEX
  5
C15
  8
DATA
  6
CONTINUOUS
 62
     7
 10
-71.699999999999932
 20
183.0
 30
0.0
  0
VERTEX
  5
C16
  8
DATA
  6
CONTINUOUS
 62
     7
 10
-72.70000000000006
 20
183.0
 30
0.0
  0
SEQEND
  5
C17
  8
DATA
  6
CONTINUOUS
 62
     7
  0
POLYLINE
  5
712
  8
DATA
  6
CONTINUOUS
 62
     7
 66
     1
 10
0.0
 20
0.0
 30
0.0
 70
     1
  0
VERTEX
  5
C18
  8
DATA
  6
CONTINUOUS
 62
     7
 10
-67.70000000000006
 20
184.0
 30
0.0
  0
VERTEX
  5
C19
  8
DATA
  6
CONTINUOUS
 62
     7
 10
-66.699999999999932
 20
184.0
 30
0.0
  0
VERTEX
  5
C1A
  8
DATA
  6
CONTINUOUS
 62
     7
 10
-66.699999999999932
 20
183.0
 30
0.0
  0
VERTEX
  5
C1B
  8
DATA
  6
CONTINUOUS
 62
     7
 10
-67.70000000000006
 20
183.0
 30
0.0
  0
SEQEND
  5
C1C
  8
DATA
  6
CONTINUOUS
 62
     7
  0
POLYLINE
  5
719
  8
DATA
  6
CONTINUOUS
 62
     7
 66
     1
 10
0.0
 20
0.0
 30
0.0
 70
     1
  0
VERTEX
  5
C1D
  8
DATA
  6
CONTINUOUS
 62
     7
 10
-62.70000000000006
 20
184.0
 30
0.0
  0
VERTEX
  5
C1E
  8
DATA
  6
CONTINUOUS
 62
     7
 10
-61.699999999999932
 20
184.0
 30
0.0
  0
VERTEX
  5
C1F
  8
DATA
  6
CONTINUOUS
 62
     7
 10
-61.699999999999932
 20
183.0
 30
0.0
  0
VERTEX
  5
C20
  8
DATA
  6
CONTINUOUS
 62
     7
 10
-62.70000000000006
 20
183.0
 30
0.0
  0
SEQEND
  5
C21
  8
DATA
  6
CONTINUOUS
 62
     7
  0
POLYLINE
  5
720
  8
DATA
  6
CONTINUOUS
 62
     7
 66
     1
 10
0.0
 20
0.0
 30
0.0
 70
     1
  0
VERTEX
  5
C22
  8
DATA
  6
CONTINUOUS
 62
     7
 10
-57.70000000000006
 20
184.0
 30
0.0
  0
VERTEX
  5
C23
  8
DATA
  6
CONTINUOUS
 62
     7
 10
-56.699999999999932
 20
184.0
 30
0.0
  0
VERTEX
  5
C24
  8
DATA
  6
CONTINUOUS
 62
     7
 10
-56.699999999999932
 20
183.0
 30
0.0
  0
VERTEX
  5
C25
  8
DATA
  6
CONTINUOUS
 62
     7
 10
-57.70000000000006
 20
183.0
 30
0.0
  0
SEQEND
  5
C26
  8
DATA
  6
CONTINUOUS
 62
     7
  0
LINE
  5
727
  8
DATA
  6
CONTINUOUS
 62
     7
 10
-84.699999999999932
 20
179.0
 30
0.0
 11
-84.699999999999932
 21
186.0
 31
0.0
  0
ARC
  5
728
  8
DATA
  6
CONTINUOUS
 62
     7
 10
-82.199999999999932
 20
182.875
 30
0.0
 40
3.625
 50
46.397181027296369
 51
133.6028189727036
  0
ARC
  5
729
  8
DATA
  6
CONTINUOUS
 62
     7
 10
-77.199999999999932
 20
182.875
 30
0.0
 40
3.625
 50
46.397181027296369
 51
133.6028189727036
  0
ARC
  5
72A
  8
DATA
  6
CONTINUOUS
 62
     7
 10
-72.199999999999932
 20
182.875
 30
0.0
 40
3.625
 50
46.397181027296369
 51
133.6028189727036
  0
ARC
  5
72B
  8
DATA
  6
CONTINUOUS
 62
     7
 10
-67.199999999999932
 20
182.875
 30
0.0
 40
3.625
 50
46.397181027296369
 51
133.6028189727036
  0
ARC
  5
72C
  8
DATA
  6
CONTINUOUS
 62
     7
 10
-62.199999999999932
 20
182.875
 30
0.0
 40
3.625
 50
46.397181027296369
 51
133.6028189727036
  0
ARC
  5
72D
  8
DATA
  6
CONTINUOUS
 62
     7
 10
-57.199999999999932
 20
182.875
 30
0.0
 40
3.625
 50
46.397181027296369
 51
133.6028189727036
  0
LINE
  5
72E
  8
DATA
  6
CONTINUOUS
 62
     7
 10
-54.699999999999932
 20
186.0
 30
0.0
 11
-54.699999999999932
 21
179.0
 31
0.0
  0
ARC
  5
72F
  8
DATA
  6
CONTINUOUS
 62
     7
 10
-82.199999999999932
 20
183.375
 30
0.0
 40
3.625
 50
46.397181027296369
 51
133.6028189727036
  0
ARC
  5
730
  8
DATA
  6
CONTINUOUS
 62
     7
 10
-77.199999999999932
 20
183.375
 30
0.0
 40
3.625
 50
46.397181027296369
 51
133.6028189727036
  0
ARC
  5
731
  8
DATA
  6
CONTINUOUS
 62
     7
 10
-72.199999999999932
 20
183.375
 30
0.0
 40
3.625
 50
46.397181027296369
 51
133.6028189727036
  0
ARC
  5
732
  8
DATA
  6
CONTINUOUS
 62
     7
 10
-67.199999999999932
 20
183.375
 30
0.0
 40
3.625
 50
46.397181027296369
 51
133.6028189727036
  0
ARC
  5
733
  8
DATA
  6
CONTINUOUS
 62
     7
 10
-62.199999999999932
 20
183.375
 30
0.0
 40
3.625
 50
46.397181027296369
 51
133.6028189727036
  0
ARC
  5
734
  8
DATA
  6
CONTINUOUS
 62
     7
 10
-57.199999999999932
 20
183.375
 30
0.0
 40
3.625
 50
46.397181027296369
 51
133.6028189727036
  0
LINE
  5
735
  8
DATA
  6
CONTINUOUS
 62
     7
 10
-84.699999999999932
 20
179.0
 30
0.0
 11
-54.699999999999932
 21
179.0
 31
0.0
  0
TEXT
  5
736
  8
DATA
 62
     7
 10
-123.6999999999999
 20
190.25999999999991
 30
0.0
 40
2.693359375
  1
-
 50
180.0
 41
0.7
 11
-123.6999999999999
 21
187.56664062499999
 31
0.0
 73
     3
  0
TEXT
  5
737
  8
DATA
 62
     7
 10
-118.8249999999999
 20
190.25999999999991
 30
0.0
 40
2.693359375
  1
+
 50
180.0
 41
0.7
 11
-118.8249999999999
 21
187.56664062499999
 31
0.0
 73
     3
  0
TEXT
  5
738
  8
DATA
 62
     7
 10
-113.6999999999999
 20
190.25999999999991
 30
0.0
 40
2.693359375
  1
S
 50
180.0
 41
0.7
 11
-113.6999999999999
 21
187.56664062499999
 31
0.0
 73
     3
  0
TEXT
  5
739
  8
DATA
 62
     7
 10
-108.8249999999999
 20
190.25999999999991
 30
0.0
 40
2.693359375
  1
-
 50
180.0
 41
0.7
 11
-108.8249999999999
 21
187.56664062499999
 31
0.0
 73
     3
  0
TEXT
  5
73A
  8
DATA
 62
     7
 10
-103.9499999999999
 20
190.25999999999991
 30
0.0
 40
2.693359375
  1
+
 50
180.0
 41
0.7
 11
-103.9499999999999
 21
187.56664062499999
 31
0.0
 73
     3
  0
TEXT
  5
73B
  8
DATA
 62
     7
 10
-98.824999999999946
 20
190.25999999999991
 30
0.0
 40
2.693359375
  1
S
 50
180.0
 41
0.7
 11
-98.824999999999946
 21
187.56664062499999
 31
0.0
 73
     3
  0
LINE
  5
73C
  8
DATA
  6
CONTINUOUS
 62
     7
 10
-127.1999999999999
 20
187.625
 30
0.0
 11
-127.1999999999999
 21
191.125
 31
0.0
  0
LINE
  5
73D
  8
DATA
  6
CONTINUOUS
 62
     7
 10
-127.1999999999999
 20
191.0
 30
0.0
 11
-97.199999999999946
 21
191.0
 31
0.0
  0
LINE
  5
73E
  8
DATA
  6
CONTINUOUS
 62
     7
 10
-97.199999999999946
 20
191.0
 30
0.0
 11
-97.199999999999946
 21
187.5
 31
0.0
  0
TEXT
  5
73F
  8
DATA
 62
     7
 10
-81.199999999999932
 20
172.25999999999999
 30
0.0
 40
2.693359375
  1
-
 50
180.0
 41
0.7
 11
-81.199999999999932
 21
169.56664062499999
 31
0.0
 73
     3
  0
TEXT
  5
740
  8
DATA
 62
     7
 10
-76.324999999999932
 20
172.25999999999999
 30
0.0
 40
2.693359375
  1
+
 50
180.0
 41
0.7
 11
-76.324999999999932
 21
169.56664062499999
 31
0.0
 73
     3
  0
TEXT
  5
741
  8
DATA
 62
     7
 10
-71.199999999999932
 20
172.25999999999999
 30
0.0
 40
2.693359375
  1
S
 50
180.0
 41
0.7
 11
-71.199999999999932
 21
169.56664062499999
 31
0.0
 73
     3
  0
TEXT
  5
742
  8
DATA
 62
     7
 10
-66.324999999999932
 20
172.25999999999999
 30
0.0
 40
2.693359375
  1
-
 50
180.0
 41
0.7
 11
-66.324999999999932
 21
169.56664062499999
 31
0.0
 73
     3
  0
TEXT
  5
743
  8
DATA
 62
     7
 10
-61.449999999999932
 20
172.25999999999999
 30
0.0
 40
2.693359375
  1
+
 50
180.0
 41
0.7
 11
-61.449999999999932
 21
169.56664062499999
 31
0.0
 73
     3
  0
TEXT
  5
744
  8
DATA
 62
     7
 10
-56.324999999999932
 20
172.25999999999999
 30
0.0
 40
2.693359375
  1
S
 50
180.0
 41
0.7
 11
-56.324999999999932
 21
169.56664062499999
 31
0.0
 73
     3
  0
LINE
  5
745
  8
DATA
  6
CONTINUOUS
 62
     7
 10
-84.699999999999932
 20
169.625
 30
0.0
 11
-84.699999999999932
 21
173.125
 31
0.0
  0
LINE
  5
746
  8
DATA
  6
CONTINUOUS
 62
     7
 10
-84.699999999999932
 20
173.0
 30
0.0
 11
-54.699999999999932
 21
173.0
 31
0.0
  0
LINE
  5
747
  8
DATA
  6
CONTINUOUS
 62
     7
 10
-54.699999999999932
 20
173.0
 30
0.0
 11
-54.699999999999932
 21
169.5
 31
0.0
  0
TEXT
  5
748
  8
DATA
 62
     7
 10
-81.199999999999932
 20
190.25999999999991
 30
0.0
 40
2.693359375
  1
-
 50
180.0
 41
0.7
 11
-81.199999999999932
 21
187.56664062499999
 31
0.0
 73
     3
  0
TEXT
  5
749
  8
DATA
 62
     7
 10
-76.324999999999932
 20
190.25999999999991
 30
0.0
 40
2.693359375
  1
+
 50
180.0
 41
0.7
 11
-76.324999999999932
 21
187.56664062499999
 31
0.0
 73
     3
  0
TEXT
  5
74A
  8
DATA
 62
     7
 10
-71.199999999999932
 20
190.25999999999991
 30
0.0
 40
2.693359375
  1
S
 50
180.0
 41
0.7
 11
-71.199999999999932
 21
187.56664062499999
 31
0.0
 73
     3
  0
TEXT
  5
74B
  8
DATA
 62
     7
 10
-66.324999999999932
 20
190.25999999999991
 30
0.0
 40
2.693359375
  1
-
 50
180.0
 41
0.7
 11
-66.324999999999932
 21
187.56664062499999
 31
0.0
 73
     3
  0
TEXT
  5
74C
  8
DATA
 62
     7
 10
-61.449999999999932
 20
190.25999999999991
 30
0.0
 40
2.693359375
  1
+
 50
180.0
 41
0.7
 11
-61.449999999999932
 21
187.56664062499999
 31
0.0
 73
     3
  0
TEXT
  5
74D
  8
DATA
 62
     7
 10
-56.324999999999932
 20
190.25999999999991
 30
0.0
 40
2.693359375
  1
S
 50
180.0
 41
0.7
 11
-56.324999999999932
 21
187.56664062499999
 31
0.0
 73
     3
  0
LINE
  5
74E
  8
DATA
  6
CONTINUOUS
 62
     7
 10
-84.699999999999932
 20
187.625
 30
0.0
 11
-84.699999999999932
 21
191.125
 31
0.0
  0
LINE
  5
74F
  8
DATA
  6
CONTINUOUS
 62
     7
 10
-84.699999999999932
 20
191.0
 30
0.0
 11
-54.699999999999932
 21
191.0
 31
0.0
  0
LINE
  5
750
  8
DATA
  6
CONTINUOUS
 62
     7
 10
-54.699999999999932
 20
191.0
 30
0.0
 11
-54.699999999999932
 21
187.5
 31
0.0
  0
TEXT
  5
751
  8
DATA
 62
     7
 10
-76.199999999999932
 20
159.60401076758549
 30
0.0
 40
2.693359375
  1
3
 50
180.0
 41
0.7
 11
-76.199999999999932
 21
156.91065139258549
 31
0.0
 73
     3
  0
TEXT
  5
752
  8
DATA
 62
     7
 10
-61.199999999999932
 20
159.60401076758549
 30
0.0
 40
2.693359375
  1
4
 50
180.0
 41
0.7
 11
-61.199999999999932
 21
156.91065139258549
 31
0.0
 73
     3
  0
TEXT
  5
753
  8
DATA
 62
     7
 10
-129.6722222222221
 20
166.01222222222219
 30
0.0
 40
5.4294704861111107
  1
B
 50
180.0
 41
0.7
 11
-129.6722222222221
 21
160.58275173611111
 31
0.0
 73
     3
  0
LINE
  5
754
  8
DATA
  6
CONTINUOUS
 62
     7
 10
-127.1999999999999
 20
161.5
 30
0.0
 11
-97.199999999999946
 21
161.5
 31
0.0
  0
LINE
  5
755
  8
DATA
  6
CONTINUOUS
 62
     7
 10
-127.1999999999999
 20
162.5
 30
0.0
 11
-125.6999999999999
 21
162.5
 31
0.0
  0
LINE
  5
756
  8
DATA
  6
CONTINUOUS
 62
     7
 10
-125.6999999999999
 20
162.5
 30
0.0
 11
-126.1999999999999
 21
161.5
 31
0.0
  0
LINE
  5
757
  8
DATA
  6
CONTINUOUS
 62
     7
 10
-123.1999999999999
 20
161.5
 30
0.0
 11
-123.6999999999999
 21
162.5
 31
0.0
  0
LINE
  5
758
  8
DATA
  6
CONTINUOUS
 62
     7
 10
-123.6999999999999
 20
162.5
 30
0.0
 11
-120.6999999999999
 21
162.5
 31
0.0
  0
LINE
  5
759
  8
DATA
  6
CONTINUOUS
 62
     7
 10
-120.6999999999999
 20
162.5
 30
0.0
 11
-121.1999999999999
 21
161.5
 31
0.0
  0
LINE
  5
75A
  8
DATA
  6
CONTINUOUS
 62
     7
 10
-118.1999999999999
 20
161.5
 30
0.0
 11
-118.6999999999999
 21
162.5
 31
0.0
  0
LINE
  5
75B
  8
DATA
  6
CONTINUOUS
 62
     7
 10
-118.6999999999999
 20
162.5
 30
0.0
 11
-115.6999999999999
 21
162.5
 31
0.0
  0
LINE
  5
75C
  8
DATA
  6
CONTINUOUS
 62
     7
 10
-115.6999999999999
 20
162.5
 30
0.0
 11
-116.1999999999999
 21
161.5
 31
0.0
  0
LINE
  5
75D
  8
DATA
  6
CONTINUOUS
 62
     7
 10
-113.1999999999999
 20
161.5
 30
0.0
 11
-113.6999999999999
 21
162.5
 31
0.0
  0
LINE
  5
75E
  8
DATA
  6
CONTINUOUS
 62
     7
 10
-113.6999999999999
 20
162.5
 30
0.0
 11
-110.6999999999999
 21
162.5
 31
0.0
  0
LINE
  5
75F
  8
DATA
  6
CONTINUOUS
 62
     7
 10
-110.6999999999999
 20
162.5
 30
0.0
 11
-111.1999999999999
 21
161.5
 31
0.0
  0
LINE
  5
760
  8
DATA
  6
CONTINUOUS
 62
     7
 10
-108.1999999999999
 20
161.5
 30
0.0
 11
-108.6999999999999
 21
162.5
 31
0.0
  0
LINE
  5
761
  8
DATA
  6
CONTINUOUS
 62
     7
 10
-108.6999999999999
 20
162.5
 30
0.0
 11
-105.6999999999999
 21
162.5
 31
0.0
  0
LINE
  5
762
  8
DATA
  6
CONTINUOUS
 62
     7
 10
-105.6999999999999
 20
162.5
 30
0.0
 11
-106.1999999999999
 21
161.5
 31
0.0
  0
LINE
  5
763
  8
DATA
  6
CONTINUOUS
 62
     7
 10
-103.1999999999999
 20
161.5
 30
0.0
 11
-103.6999999999999
 21
162.5
 31
0.0
  0
LINE
  5
764
  8
DATA
  6
CONTINUOUS
 62
     7
 10
-103.6999999999999
 20
162.5
 30
0.0
 11
-100.6999999999999
 21
162.5
 31
0.0
  0
LINE
  5
765
  8
DATA
  6
CONTINUOUS
 62
     7
 10
-100.6999999999999
 20
162.5
 30
0.0
 11
-101.1999999999999
 21
161.5
 31
0.0
  0
LINE
  5
766
  8
DATA
  6
CONTINUOUS
 62
     7
 10
-97.199999999999946
 20
162.5
 30
0.0
 11
-98.699999999999946
 21
162.5
 31
0.0
  0
LINE
  5
767
  8
DATA
  6
CONTINUOUS
 62
     7
 10
-98.699999999999946
 20
162.5
 30
0.0
 11
-98.199999999999946
 21
161.5
 31
0.0
  0
POLYLINE
  5
768
  8
DATA
  6
CONTINUOUS
 62
     7
 66
     1
 10
0.0
 20
0.0
 30
0.0
 70
     1
  0
VERTEX
  5
C27
  8
DATA
  6
CONTINUOUS
 62
     7
 10
-125.2
 20
166.0
 30
0.0
  0
VERTEX
  5
C28
  8
DATA
  6
CONTINUOUS
 62
     7
 10
-124.1999999999999
 20
166.0
 30
0.0
  0
VERTEX
  5
C29
  8
DATA
  6
CONTINUOUS
 62
     7
 10
-124.1999999999999
 20
165.0
 30
0.0
  0
VERTEX
  5
C2A
  8
DATA
  6
CONTINUOUS
 62
     7
 10
-125.2
 20
165.0
 30
0.0
  0
SEQEND
  5
C2B
  8
DATA
  6
CONTINUOUS
 62
     7
  0
POLYLINE
  5
76F
  8
DATA
  6
CONTINUOUS
 62
     7
 66
     1
 10
0.0
 20
0.0
 30
0.0
 70
     1
  0
VERTEX
  5
C2C
  8
DATA
  6
CONTINUOUS
 62
     7
 10
-120.2
 20
166.0
 30
0.0
  0
VERTEX
  5
C2D
  8
DATA
  6
CONTINUOUS
 62
     7
 10
-119.1999999999999
 20
166.0
 30
0.0
  0
VERTEX
  5
C2E
  8
DATA
  6
CONTINUOUS
 62
     7
 10
-119.1999999999999
 20
165.0
 30
0.0
  0
VERTEX
  5
C2F
  8
DATA
  6
CONTINUOUS
 62
     7
 10
-120.2
 20
165.0
 30
0.0
  0
SEQEND
  5
C30
  8
DATA
  6
CONTINUOUS
 62
     7
  0
POLYLINE
  5
776
  8
DATA
  6
CONTINUOUS
 62
     7
 66
     1
 10
0.0
 20
0.0
 30
0.0
 70
     1
  0
VERTEX
  5
C31
  8
DATA
  6
CONTINUOUS
 62
     7
 10
-115.2
 20
166.0
 30
0.0
  0
VERTEX
  5
C32
  8
DATA
  6
CONTINUOUS
 62
     7
 10
-114.1999999999999
 20
166.0
 30
0.0
  0
VERTEX
  5
C33
  8
DATA
  6
CONTINUOUS
 62
     7
 10
-114.1999999999999
 20
165.0
 30
0.0
  0
VERTEX
  5
C34
  8
DATA
  6
CONTINUOUS
 62
     7
 10
-115.2
 20
165.0
 30
0.0
  0
SEQEND
  5
C35
  8
DATA
  6
CONTINUOUS
 62
     7
  0
POLYLINE
  5
77D
  8
DATA
  6
CONTINUOUS
 62
     7
 66
     1
 10
0.0
 20
0.0
 30
0.0
 70
     1
  0
VERTEX
  5
C36
  8
DATA
  6
CONTINUOUS
 62
     7
 10
-110.2
 20
166.0
 30
0.0
  0
VERTEX
  5
C37
  8
DATA
  6
CONTINUOUS
 62
     7
 10
-109.1999999999999
 20
166.0
 30
0.0
  0
VERTEX
  5
C38
  8
DATA
  6
CONTINUOUS
 62
     7
 10
-109.1999999999999
 20
165.0
 30
0.0
  0
VERTEX
  5
C39
  8
DATA
  6
CONTINUOUS
 62
     7
 10
-110.2
 20
165.0
 30
0.0
  0
SEQEND
  5
C3A
  8
DATA
  6
CONTINUOUS
 62
     7
  0
POLYLINE
  5
784
  8
DATA
  6
CONTINUOUS
 62
     7
 66
     1
 10
0.0
 20
0.0
 30
0.0
 70
     1
  0
VERTEX
  5
C3B
  8
DATA
  6
CONTINUOUS
 62
     7
 10
-105.2
 20
166.0
 30
0.0
  0
VERTEX
  5
C3C
  8
DATA
  6
CONTINUOUS
 62
     7
 10
-104.1999999999999
 20
166.0
 30
0.0
  0
VERTEX
  5
C3D
  8
DATA
  6
CONTINUOUS
 62
     7
 10
-104.1999999999999
 20
165.0
 30
0.0
  0
VERTEX
  5
C3E
  8
DATA
  6
CONTINUOUS
 62
     7
 10
-105.2
 20
165.0
 30
0.0
  0
SEQEND
  5
C3F
  8
DATA
  6
CONTINUOUS
 62
     7
  0
POLYLINE
  5
78B
  8
DATA
  6
CONTINUOUS
 62
     7
 66
     1
 10
0.0
 20
0.0
 30
0.0
 70
     1
  0
VERTEX
  5
C40
  8
DATA
  6
CONTINUOUS
 62
     7
 10
-100.2
 20
166.0
 30
0.0
  0
VERTEX
  5
C41
  8
DATA
  6
CONTINUOUS
 62
     7
 10
-99.199999999999946
 20
166.0
 30
0.0
  0
VERTEX
  5
C42
  8
DATA
  6
CONTINUOUS
 62
     7
 10
-99.199999999999946
 20
165.0
 30
0.0
  0
VERTEX
  5
C43
  8
DATA
  6
CONTINUOUS
 62
     7
 10
-100.2
 20
165.0
 30
0.0
  0
SEQEND
  5
C44
  8
DATA
  6
CONTINUOUS
 62
     7
  0
LINE
  5
792
  8
DATA
  6
CONTINUOUS
 62
     7
 10
-127.1999999999999
 20
161.0
 30
0.0
 11
-127.1999999999999
 21
168.0
 31
0.0
  0
ARC
  5
793
  8
DATA
  6
CONTINUOUS
 62
     7
 10
-124.6999999999999
 20
164.875
 30
0.0
 40
3.625
 50
46.397181027296369
 51
133.6028189727036
  0
ARC
  5
794
  8
DATA
  6
CONTINUOUS
 62
     7
 10
-119.6999999999999
 20
164.875
 30
0.0
 40
3.625
 50
46.397181027296369
 51
133.6028189727036
  0
ARC
  5
795
  8
DATA
  6
CONTINUOUS
 62
     7
 10
-114.6999999999999
 20
164.875
 30
0.0
 40
3.625
 50
46.397181027296369
 51
133.6028189727036
  0
ARC
  5
796
  8
DATA
  6
CONTINUOUS
 62
     7
 10
-109.6999999999999
 20
164.875
 30
0.0
 40
3.625
 50
46.397181027296369
 51
133.6028189727036
  0
ARC
  5
797
  8
DATA
  6
CONTINUOUS
 62
     7
 10
-104.6999999999999
 20
164.875
 30
0.0
 40
3.625
 50
46.397181027296369
 51
133.6028189727036
  0
ARC
  5
798
  8
DATA
  6
CONTINUOUS
 62
     7
 10
-99.699999999999946
 20
164.875
 30
0.0
 40
3.625
 50
46.397181027296369
 51
133.6028189727036
  0
LINE
  5
799
  8
DATA
  6
CONTINUOUS
 62
     7
 10
-97.199999999999946
 20
168.0
 30
0.0
 11
-97.199999999999946
 21
161.0
 31
0.0
  0
ARC
  5
79A
  8
DATA
  6
CONTINUOUS
 62
     7
 10
-124.6999999999999
 20
165.375
 30
0.0
 40
3.625
 50
46.397181027296369
 51
133.6028189727036
  0
ARC
  5
79B
  8
DATA
  6
CONTINUOUS
 62
     7
 10
-119.6999999999999
 20
165.375
 30
0.0
 40
3.625
 50
46.397181027296369
 51
133.6028189727036
  0
ARC
  5
79C
  8
DATA
  6
CONTINUOUS
 62
     7
 10
-114.6999999999999
 20
165.375
 30
0.0
 40
3.625
 50
46.397181027296369
 51
133.6028189727036
  0
ARC
  5
79D
  8
DATA
  6
CONTINUOUS
 62
     7
 10
-109.6999999999999
 20
165.375
 30
0.0
 40
3.625
 50
46.397181027296369
 51
133.6028189727036
  0
ARC
  5
79E
  8
DATA
  6
CONTINUOUS
 62
     7
 10
-104.6999999999999
 20
165.375
 30
0.0
 40
3.625
 50
46.397181027296369
 51
133.6028189727036
  0
ARC
  5
79F
  8
DATA
  6
CONTINUOUS
 62
     7
 10
-99.699999999999946
 20
165.375
 30
0.0
 40
3.625
 50
46.397181027296369
 51
133.6028189727036
  0
LINE
  5
7A0
  8
DATA
  6
CONTINUOUS
 62
     7
 10
-127.1999999999999
 20
161.0
 30
0.0
 11
-97.199999999999946
 21
161.0
 31
0.0
  0
TEXT
  5
7A1
  8
DATA
 62
     7
 10
-118.6999999999999
 20
159.60401076758549
 30
0.0
 40
2.693359375
  1
1
 50
180.0
 41
0.7
 11
-118.6999999999999
 21
156.91065139258549
 31
0.0
 73
     3
  0
TEXT
  5
7A2
  8
DATA
 62
     7
 10
-103.6999999999999
 20
159.60401076758549
 30
0.0
 40
2.693359375
  1
2
 50
180.0
 41
0.7
 11
-103.6999999999999
 21
156.91065139258549
 31
0.0
 73
     3
  0
TEXT
  5
7A3
  8
DATA
 62
     7
 10
-123.6999999999999
 20
172.25999999999999
 30
0.0
 40
2.693359375
  1
-
 50
180.0
 41
0.7
 11
-123.6999999999999
 21
169.56664062499999
 31
0.0
 73
     3
  0
TEXT
  5
7A4
  8
DATA
 62
     7
 10
-118.8249999999999
 20
172.25999999999999
 30
0.0
 40
2.693359375
  1
+
 50
180.0
 41
0.7
 11
-118.8249999999999
 21
169.56664062499999
 31
0.0
 73
     3
  0
TEXT
  5
7A5
  8
DATA
 62
     7
 10
-113.6999999999999
 20
172.25999999999999
 30
0.0
 40
2.693359375
  1
S
 50
180.0
 41
0.7
 11
-113.6999999999999
 21
169.56664062499999
 31
0.0
 73
     3
  0
TEXT
  5
7A6
  8
DATA
 62
     7
 10
-108.8249999999999
 20
172.25999999999999
 30
0.0
 40
2.693359375
  1
-
 50
180.0
 41
0.7
 11
-108.8249999999999
 21
169.56664062499999
 31
0.0
 73
     3
  0
TEXT
  5
7A7
  8
DATA
 62
     7
 10
-103.9499999999999
 20
172.25999999999999
 30
0.0
 40
2.693359375
  1
+
 50
180.0
 41
0.7
 11
-103.9499999999999
 21
169.56664062499999
 31
0.0
 73
     3
  0
TEXT
  5
7A8
  8
DATA
 62
     7
 10
-98.824999999999946
 20
172.25999999999999
 30
0.0
 40
2.693359375
  1
S
 50
180.0
 41
0.7
 11
-98.824999999999946
 21
169.56664062499999
 31
0.0
 73
     3
  0
LINE
  5
7A9
  8
DATA
  6
CONTINUOUS
 62
     7
 10
-127.1999999999999
 20
169.625
 30
0.0
 11
-127.1999999999999
 21
173.125
 31
0.0
  0
LINE
  5
7AA
  8
DATA
  6
CONTINUOUS
 62
     7
 10
-127.1999999999999
 20
173.0
 30
0.0
 11
-97.199999999999946
 21
173.0
 31
0.0
  0
LINE
  5
7AB
  8
DATA
  6
CONTINUOUS
 62
     7
 10
-97.199999999999946
 20
173.0
 30
0.0
 11
-97.199999999999946
 21
169.5
 31
0.0
  0
CIRCLE
  5
7AC
  8
DATA
  6
CONTINUOUS
 62
     7
 10
-131.1999999999999
 20
187.0
 30
0.0
 40
1.500000000000042
  0
CIRCLE
  5
7AD
  8
DATA
  6
CONTINUOUS
 62
     7
 10
-131.1999999999999
 20
169.0
 30
0.0
 40
1.500000000000042
  0
TEXT
  5
7AE
  8
DATA
 62
     7
 10
-129.6722222222221
 20
184.01222222222219
 30
0.0
 40
5.4294704861111107
  1
D
 50
180.0
 41
0.7
 11
-129.6722222222221
 21
178.58275173611111
 31
0.0
 73
     3
  0
CIRCLE
  5
7AF
  8
DATA
  6
CONTINUOUS
 62
     7
 10
-90.949999999999946
 20
183.0
 30
0.0
 40
3.5000000000000511
  0
LINE
  5
7B0
  8
DATA
  6
CONTINUOUS
 62
     7
 10
-94.449999999999946
 20
183.0
 30
0.0
 11
-87.449999999999946
 21
183.0
 31
0.0
  0
LINE
  5
7B1
  8
DATA
  6
CONTINUOUS
 62
     7
 10
-90.949999999999946
 20
185.0
 30
0.0
 11
-90.949999999999946
 21
181.0
 31
0.0
  0
CIRCLE
  5
7B2
  8
DATA
  6
CONTINUOUS
 62
     7
 10
-90.949999999999946
 20
165.0
 30
0.0
 40
2.75
  0
LINE
  5
7B3
  8
DATA
  6
CONTINUOUS
 62
     7
 10
-92.449999999999946
 20
165.0
 30
0.0
 11
-89.449999999999946
 21
165.0
 31
0.0
  0
LINE
  5
7B4
  8
DATA
  6
CONTINUOUS
 62
     7
 10
-90.949999999999946
 20
166.5
 30
0.0
 11
-90.949999999999946
 21
163.5
 31
0.0
  0
LINE
  5
7B5
  8
DATA
  6
CONTINUOUS
 62
     7
 10
-43.199999999999939
 20
179.0
 30
0.0
 11
14.80000000000005
 21
179.0
 31
0.0
  0
LINE
  5
7B6
  8
DATA
  6
CONTINUOUS
 62
     7
 10
-45.199999999999932
 20
180.0
 30
0.0
 11
-42.699999999999953
 21
180.0
 31
0.0
  0
LINE
  5
7B7
  8
DATA
  6
CONTINUOUS
 62
     7
 10
-42.699999999999953
 20
180.0
 30
0.0
 11
-43.199999999999939
 21
179.0
 31
0.0
  0
LINE
  5
7B8
  8
DATA
  6
CONTINUOUS
 62
     7
 10
-40.199999999999953
 20
179.0
 30
0.0
 11
-40.699999999999939
 21
180.0
 31
0.0
  0
LINE
  5
7B9
  8
DATA
  6
CONTINUOUS
 62
     7
 10
-40.699999999999939
 20
180.0
 30
0.0
 11
-37.699999999999953
 21
180.0
 31
0.0
  0
LINE
  5
7BA
  8
DATA
  6
CONTINUOUS
 62
     7
 10
-37.699999999999953
 20
180.0
 30
0.0
 11
-38.199999999999953
 21
179.0
 31
0.0
  0
LINE
  5
7BB
  8
DATA
  6
CONTINUOUS
 62
     7
 10
-35.199999999999953
 20
179.0
 30
0.0
 11
-35.699999999999953
 21
180.0
 31
0.0
  0
LINE
  5
7BC
  8
DATA
  6
CONTINUOUS
 62
     7
 10
-35.699999999999953
 20
180.0
 30
0.0
 11
-32.699999999999953
 21
180.0
 31
0.0
  0
LINE
  5
7BD
  8
DATA
  6
CONTINUOUS
 62
     7
 10
-32.699999999999953
 20
180.0
 30
0.0
 11
-33.199999999999953
 21
179.0
 31
0.0
  0
LINE
  5
7BE
  8
DATA
  6
CONTINUOUS
 62
     7
 10
-30.19999999999995
 20
179.0
 30
0.0
 11
-30.69999999999995
 21
180.0
 31
0.0
  0
LINE
  5
7BF
  8
DATA
  6
CONTINUOUS
 62
     7
 10
-30.69999999999995
 20
180.0
 30
0.0
 11
-27.69999999999995
 21
180.0
 31
0.0
  0
LINE
  5
7C0
  8
DATA
  6
CONTINUOUS
 62
     7
 10
-27.69999999999995
 20
180.0
 30
0.0
 11
-28.19999999999995
 21
179.0
 31
0.0
  0
LINE
  5
7C1
  8
DATA
  6
CONTINUOUS
 62
     7
 10
-25.19999999999995
 20
179.0
 30
0.0
 11
-25.69999999999995
 21
180.0
 31
0.0
  0
LINE
  5
7C2
  8
DATA
  6
CONTINUOUS
 62
     7
 10
-25.69999999999995
 20
180.0
 30
0.0
 11
-22.69999999999995
 21
180.0
 31
0.0
  0
LINE
  5
7C3
  8
DATA
  6
CONTINUOUS
 62
     7
 10
-22.69999999999995
 20
180.0
 30
0.0
 11
-23.199999999999939
 21
179.0
 31
0.0
  0
LINE
  5
7C4
  8
DATA
  6
CONTINUOUS
 62
     7
 10
-20.19999999999995
 20
179.0
 30
0.0
 11
-20.699999999999939
 21
180.0
 31
0.0
  0
LINE
  5
7C5
  8
DATA
  6
CONTINUOUS
 62
     7
 10
-20.699999999999939
 20
180.0
 30
0.0
 11
-17.699999999999939
 21
180.0
 31
0.0
  0
LINE
  5
7C6
  8
DATA
  6
CONTINUOUS
 62
     7
 10
-17.699999999999939
 20
180.0
 30
0.0
 11
-18.199999999999939
 21
179.0
 31
0.0
  0
POLYLINE
  5
7C7
  8
DATA
  6
CONTINUOUS
 62
     7
 66
     1
 10
0.0
 20
0.0
 30
0.0
 70
     1
  0
VERTEX
  5
C45
  8
DATA
  6
CONTINUOUS
 62
     7
 10
-42.200000000000053
 20
183.5
 30
0.0
  0
VERTEX
  5
C46
  8
DATA
  6
CONTINUOUS
 62
     7
 10
-41.199999999999939
 20
183.5
 30
0.0
  0
VERTEX
  5
C47
  8
DATA
  6
CONTINUOUS
 62
     7
 10
-41.199999999999939
 20
182.5
 30
0.0
  0
VERTEX
  5
C48
  8
DATA
  6
CONTINUOUS
 62
     7
 10
-42.200000000000053
 20
182.5
 30
0.0
  0
SEQEND
  5
C49
  8
DATA
  6
CONTINUOUS
 62
     7
  0
POLYLINE
  5
7CE
  8
DATA
  6
CONTINUOUS
 62
     7
 66
     1
 10
0.0
 20
0.0
 30
0.0
 70
     1
  0
VERTEX
  5
C4A
  8
DATA
  6
CONTINUOUS
 62
     7
 10
-37.20000000000006
 20
183.5
 30
0.0
  0
VERTEX
  5
C4B
  8
DATA
  6
CONTINUOUS
 62
     7
 10
-36.199999999999953
 20
183.5
 30
0.0
  0
VERTEX
  5
C4C
  8
DATA
  6
CONTINUOUS
 62
     7
 10
-36.199999999999953
 20
182.5
 30
0.0
  0
VERTEX
  5
C4D
  8
DATA
  6
CONTINUOUS
 62
     7
 10
-37.20000000000006
 20
182.5
 30
0.0
  0
SEQEND
  5
C4E
  8
DATA
  6
CONTINUOUS
 62
     7
  0
POLYLINE
  5
7D5
  8
DATA
  6
CONTINUOUS
 62
     7
 66
     1
 10
0.0
 20
0.0
 30
0.0
 70
     1
  0
VERTEX
  5
C4F
  8
DATA
  6
CONTINUOUS
 62
     7
 10
-32.20000000000006
 20
183.5
 30
0.0
  0
VERTEX
  5
C50
  8
DATA
  6
CONTINUOUS
 62
     7
 10
-31.19999999999995
 20
183.5
 30
0.0
  0
VERTEX
  5
C51
  8
DATA
  6
CONTINUOUS
 62
     7
 10
-31.19999999999995
 20
182.5
 30
0.0
  0
VERTEX
  5
C52
  8
DATA
  6
CONTINUOUS
 62
     7
 10
-32.20000000000006
 20
182.5
 30
0.0
  0
SEQEND
  5
C53
  8
DATA
  6
CONTINUOUS
 62
     7
  0
POLYLINE
  5
7DC
  8
DATA
  6
CONTINUOUS
 62
     7
 66
     1
 10
0.0
 20
0.0
 30
0.0
 70
     1
  0
VERTEX
  5
C54
  8
DATA
  6
CONTINUOUS
 62
     7
 10
-27.20000000000006
 20
183.5
 30
0.0
  0
VERTEX
  5
C55
  8
DATA
  6
CONTINUOUS
 62
     7
 10
-26.19999999999995
 20
183.5
 30
0.0
  0
VERTEX
  5
C56
  8
DATA
  6
CONTINUOUS
 62
     7
 10
-26.19999999999995
 20
182.5
 30
0.0
  0
VERTEX
  5
C57
  8
DATA
  6
CONTINUOUS
 62
     7
 10
-27.20000000000006
 20
182.5
 30
0.0
  0
SEQEND
  5
C58
  8
DATA
  6
CONTINUOUS
 62
     7
  0
POLYLINE
  5
7E3
  8
DATA
  6
CONTINUOUS
 62
     7
 66
     1
 10
0.0
 20
0.0
 30
0.0
 70
     1
  0
VERTEX
  5
C59
  8
DATA
  6
CONTINUOUS
 62
     7
 10
-22.200000000000049
 20
183.5
 30
0.0
  0
VERTEX
  5
C5A
  8
DATA
  6
CONTINUOUS
 62
     7
 10
-21.19999999999995
 20
183.5
 30
0.0
  0
VERTEX
  5
C5B
  8
DATA
  6
CONTINUOUS
 62
     7
 10
-21.19999999999995
 20
182.5
 30
0.0
  0
VERTEX
  5
C5C
  8
DATA
  6
CONTINUOUS
 62
     7
 10
-22.200000000000049
 20
182.5
 30
0.0
  0
SEQEND
  5
C5D
  8
DATA
  6
CONTINUOUS
 62
     7
  0
POLYLINE
  5
7EA
  8
DATA
  6
CONTINUOUS
 62
     7
 66
     1
 10
0.0
 20
0.0
 30
0.0
 70
     1
  0
VERTEX
  5
C5E
  8
DATA
  6
CONTINUOUS
 62
     7
 10
-17.20000000000006
 20
183.5
 30
0.0
  0
VERTEX
  5
C5F
  8
DATA
  6
CONTINUOUS
 62
     7
 10
-16.199999999999939
 20
183.5
 30
0.0
  0
VERTEX
  5
C60
  8
DATA
  6
CONTINUOUS
 62
     7
 10
-16.199999999999939
 20
182.5
 30
0.0
  0
VERTEX
  5
C61
  8
DATA
  6
CONTINUOUS
 62
     7
 10
-17.20000000000006
 20
182.5
 30
0.0
  0
SEQEND
  5
C62
  8
DATA
  6
CONTINUOUS
 62
     7
  0
ARC
  5
7F1
  8
DATA
  6
CONTINUOUS
 62
     7
 10
-41.699999999999939
 20
182.375
 30
0.0
 40
3.625
 50
46.397181027296369
 51
133.6028189727036
  0
ARC
  5
7F2
  8
DATA
  6
CONTINUOUS
 62
     7
 10
-36.699999999999953
 20
182.375
 30
0.0
 40
3.625
 50
46.397181027296369
 51
133.6028189727036
  0
ARC
  5
7F3
  8
DATA
  6
CONTINUOUS
 62
     7
 10
-31.69999999999995
 20
182.375
 30
0.0
 40
3.625
 50
46.397181027296369
 51
133.6028189727036
  0
ARC
  5
7F4
  8
DATA
  6
CONTINUOUS
 62
     7
 10
-26.69999999999995
 20
182.375
 30
0.0
 40
3.625
 50
46.397181027296369
 51
133.6028189727036
  0
ARC
  5
7F5
  8
DATA
  6
CONTINUOUS
 62
     7
 10
-21.69999999999995
 20
182.375
 30
0.0
 40
3.625
 50
46.397181027296369
 51
133.6028189727036
  0
ARC
  5
7F6
  8
DATA
  6
CONTINUOUS
 62
     7
 10
-16.699999999999939
 20
182.375
 30
0.0
 40
3.625
 50
46.397181027296369
 51
133.6028189727036
  0
LINE
  5
7F7
  8
DATA
  6
CONTINUOUS
 62
     7
 10
-45.699999999999932
 20
178.5
 30
0.0
 11
17.30000000000005
 21
178.5
 31
0.0
  0
LINE
  5
7F8
  8
DATA
  6
CONTINUOUS
 62
     7
 10
-45.699999999999932
 20
186.5
 30
0.0
 11
17.30000000000005
 21
186.5
 31
0.0
  0
LINE
  5
7F9
  8
DATA
  6
CONTINUOUS
 62
     7
 10
-44.199999999999939
 20
185.0
 30
0.0
 11
-45.199999999999932
 21
185.0
 31
0.0
  0
LINE
  5
7FA
  8
DATA
  6
CONTINUOUS
 62
     7
 10
-45.199999999999932
 20
185.0
 30
0.0
 11
-45.199999999999932
 21
180.0
 31
0.0
  0
LINE
  5
7FB
  8
DATA
  6
CONTINUOUS
 62
     7
 10
16.80000000000005
 20
180.0
 30
0.0
 11
14.30000000000005
 21
180.0
 31
0.0
  0
LINE
  5
7FC
  8
DATA
  6
CONTINUOUS
 62
     7
 10
14.30000000000005
 20
180.0
 30
0.0
 11
14.80000000000005
 21
179.0
 31
0.0
  0
LINE
  5
7FD
  8
DATA
  6
CONTINUOUS
 62
     7
 10
11.80000000000005
 20
179.0
 30
0.0
 11
12.30000000000005
 21
180.0
 31
0.0
  0
LINE
  5
7FE
  8
DATA
  6
CONTINUOUS
 62
     7
 10
12.30000000000005
 20
180.0
 30
0.0
 11
9.300000000000054
 21
180.0
 31
0.0
  0
LINE
  5
7FF
  8
DATA
  6
CONTINUOUS
 62
     7
 10
9.300000000000054
 20
180.0
 30
0.0
 11
9.800000000000054
 21
179.0
 31
0.0
  0
LINE
  5
800
  8
DATA
  6
CONTINUOUS
 62
     7
 10
6.800000000000054
 20
179.0
 30
0.0
 11
7.300000000000054
 21
180.0
 31
0.0
  0
LINE
  5
801
  8
DATA
  6
CONTINUOUS
 62
     7
 10
7.300000000000054
 20
180.0
 30
0.0
 11
4.300000000000054
 21
180.0
 31
0.0
  0
LINE
  5
802
  8
DATA
  6
CONTINUOUS
 62
     7
 10
4.300000000000054
 20
180.0
 30
0.0
 11
4.800000000000054
 21
179.0
 31
0.0
  0
LINE
  5
803
  8
DATA
  6
CONTINUOUS
 62
     7
 10
1.800000000000054
 20
179.0
 30
0.0
 11
2.300000000000054
 21
180.0
 31
0.0
  0
LINE
  5
804
  8
DATA
  6
CONTINUOUS
 62
     7
 10
2.300000000000054
 20
180.0
 30
0.0
 11
-0.6999999999999461
 21
180.0
 31
0.0
  0
LINE
  5
805
  8
DATA
  6
CONTINUOUS
 62
     7
 10
-0.6999999999999461
 20
180.0
 30
0.0
 11
-0.199999999999946
 21
179.0
 31
0.0
  0
LINE
  5
806
  8
DATA
  6
CONTINUOUS
 62
     7
 10
-3.199999999999946
 20
179.0
 30
0.0
 11
-2.6999999999999451
 21
180.0
 31
0.0
  0
LINE
  5
807
  8
DATA
  6
CONTINUOUS
 62
     7
 10
-2.6999999999999451
 20
180.0
 30
0.0
 11
-5.6999999999999451
 21
180.0
 31
0.0
  0
LINE
  5
808
  8
DATA
  6
CONTINUOUS
 62
     7
 10
-5.6999999999999451
 20
180.0
 30
0.0
 11
-5.1999999999999451
 21
179.0
 31
0.0
  0
LINE
  5
809
  8
DATA
  6
CONTINUOUS
 62
     7
 10
-8.1999999999999442
 20
179.0
 30
0.0
 11
-7.6999999999999451
 21
180.0
 31
0.0
  0
LINE
  5
80A
  8
DATA
  6
CONTINUOUS
 62
     7
 10
-7.6999999999999451
 20
180.0
 30
0.0
 11
-10.699999999999941
 21
180.0
 31
0.0
  0
LINE
  5
80B
  8
DATA
  6
CONTINUOUS
 62
     7
 10
-10.699999999999941
 20
180.0
 30
0.0
 11
-10.199999999999941
 21
179.0
 31
0.0
  0
POLYLINE
  5
80C
  8
DATA
  6
CONTINUOUS
 62
     7
 66
     1
 10
0.0
 20
0.0
 30
0.0
 70
     1
  0
VERTEX
  5
C63
  8
DATA
  6
CONTINUOUS
 62
     7
 10
12.80000000000005
 20
183.5
 30
0.0
  0
VERTEX
  5
C64
  8
DATA
  6
CONTINUOUS
 62
     7
 10
13.800000000000161
 20
183.5
 30
0.0
  0
VERTEX
  5
C65
  8
DATA
  6
CONTINUOUS
 62
     7
 10
13.800000000000161
 20
182.5
 30
0.0
  0
VERTEX
  5
C66
  8
DATA
  6
CONTINUOUS
 62
     7
 10
12.80000000000005
 20
182.5
 30
0.0
  0
SEQEND
  5
C67
  8
DATA
  6
CONTINUOUS
 62
     7
  0
POLYLINE
  5
813
  8
DATA
  6
CONTINUOUS
 62
     7
 66
     1
 10
0.0
 20
0.0
 30
0.0
 70
     1
  0
VERTEX
  5
C68
  8
DATA
  6
CONTINUOUS
 62
     7
 10
7.800000000000054
 20
183.5
 30
0.0
  0
VERTEX
  5
C69
  8
DATA
  6
CONTINUOUS
 62
     7
 10
8.8000000000001641
 20
183.5
 30
0.0
  0
VERTEX
  5
C6A
  8
DATA
  6
CONTINUOUS
 62
     7
 10
8.8000000000001641
 20
182.5
 30
0.0
  0
VERTEX
  5
C6B
  8
DATA
  6
CONTINUOUS
 62
     7
 10
7.800000000000054
 20
182.5
 30
0.0
  0
SEQEND
  5
C6C
  8
DATA
  6
CONTINUOUS
 62
     7
  0
POLYLINE
  5
81A
  8
DATA
  6
CONTINUOUS
 62
     7
 66
     1
 10
0.0
 20
0.0
 30
0.0
 70
     1
  0
VERTEX
  5
C6D
  8
DATA
  6
CONTINUOUS
 62
     7
 10
2.800000000000054
 20
183.5
 30
0.0
  0
VERTEX
  5
C6E
  8
DATA
  6
CONTINUOUS
 62
     7
 10
3.8000000000001681
 20
183.5
 30
0.0
  0
VERTEX
  5
C6F
  8
DATA
  6
CONTINUOUS
 62
     7
 10
3.8000000000001681
 20
182.5
 30
0.0
  0
VERTEX
  5
C70
  8
DATA
  6
CONTINUOUS
 62
     7
 10
2.800000000000054
 20
182.5
 30
0.0
  0
SEQEND
  5
C71
  8
DATA
  6
CONTINUOUS
 62
     7
  0
POLYLINE
  5
821
  8
DATA
  6
CONTINUOUS
 62
     7
 66
     1
 10
0.0
 20
0.0
 30
0.0
 70
     1
  0
VERTEX
  5
C72
  8
DATA
  6
CONTINUOUS
 62
     7
 10
-2.1999999999999451
 20
183.5
 30
0.0
  0
VERTEX
  5
C73
  8
DATA
  6
CONTINUOUS
 62
     7
 10
-1.1999999999998321
 20
183.5
 30
0.0
  0
VERTEX
  5
C74
  8
DATA
  6
CONTINUOUS
 62
     7
 10
-1.1999999999998321
 20
182.5
 30
0.0
  0
VERTEX
  5
C75
  8
DATA
  6
CONTINUOUS
 62
     7
 10
-2.1999999999999451
 20
182.5
 30
0.0
  0
SEQEND
  5
C76
  8
DATA
  6
CONTINUOUS
 62
     7
  0
POLYLINE
  5
828
  8
DATA
  6
CONTINUOUS
 62
     7
 66
     1
 10
0.0
 20
0.0
 30
0.0
 70
     1
  0
VERTEX
  5
C77
  8
DATA
  6
CONTINUOUS
 62
     7
 10
-7.1999999999999451
 20
183.5
 30
0.0
  0
VERTEX
  5
C78
  8
DATA
  6
CONTINUOUS
 62
     7
 10
-6.1999999999998323
 20
183.5
 30
0.0
  0
VERTEX
  5
C79
  8
DATA
  6
CONTINUOUS
 62
     7
 10
-6.1999999999998323
 20
182.5
 30
0.0
  0
VERTEX
  5
C7A
  8
DATA
  6
CONTINUOUS
 62
     7
 10
-7.1999999999999451
 20
182.5
 30
0.0
  0
SEQEND
  5
C7B
  8
DATA
  6
CONTINUOUS
 62
     7
  0
POLYLINE
  5
82F
  8
DATA
  6
CONTINUOUS
 62
     7
 66
     1
 10
0.0
 20
0.0
 30
0.0
 70
     1
  0
VERTEX
  5
C7C
  8
DATA
  6
CONTINUOUS
 62
     7
 10
-12.199999999999941
 20
183.5
 30
0.0
  0
VERTEX
  5
C7D
  8
DATA
  6
CONTINUOUS
 62
     7
 10
-11.199999999999831
 20
183.5
 30
0.0
  0
VERTEX
  5
C7E
  8
DATA
  6
CONTINUOUS
 62
     7
 10
-11.199999999999831
 20
182.5
 30
0.0
  0
VERTEX
  5
C7F
  8
DATA
  6
CONTINUOUS
 62
     7
 10
-12.199999999999941
 20
182.5
 30
0.0
  0
SEQEND
  5
C80
  8
DATA
  6
CONTINUOUS
 62
     7
  0
ARC
  5
836
  8
DATA
  6
CONTINUOUS
 62
     7
 10
13.30000000000005
 20
182.375
 30
0.0
 40
3.625
 50
46.397181027296369
 51
133.6028189727036
  0
ARC
  5
837
  8
DATA
  6
CONTINUOUS
 62
     7
 10
8.300000000000054
 20
182.375
 30
0.0
 40
3.625
 50
46.397181027296369
 51
133.6028189727036
  0
ARC
  5
838
  8
DATA
  6
CONTINUOUS
 62
     7
 10
3.3000000000000531
 20
182.375
 30
0.0
 40
3.625
 50
46.397181027296369
 51
133.6028189727036
  0
ARC
  5
839
  8
DATA
  6
CONTINUOUS
 62
     7
 10
-1.6999999999999451
 20
182.375
 30
0.0
 40
3.625
 50
46.397181027296369
 51
133.6028189727036
  0
ARC
  5
83A
  8
DATA
  6
CONTINUOUS
 62
     7
 10
-6.6999999999999451
 20
182.375
 30
0.0
 40
3.625
 50
46.397181027296369
 51
133.6028189727036
  0
ARC
  5
83B
  8
DATA
  6
CONTINUOUS
 62
     7
 10
-11.699999999999941
 20
182.375
 30
0.0
 40
3.625
 50
46.397181027296369
 51
133.6028189727036
  0
LINE
  5
83C
  8
DATA
  6
CONTINUOUS
 62
     7
 10
15.80000000000005
 20
185.0
 30
0.0
 11
16.80000000000005
 21
185.0
 31
0.0
  0
LINE
  5
83D
  8
DATA
  6
CONTINUOUS
 62
     7
 10
16.80000000000005
 20
185.0
 30
0.0
 11
16.80000000000005
 21
180.0
 31
0.0
  0
LINE
  5
83E
  8
DATA
  6
CONTINUOUS
 62
     7
 10
-15.199999999999941
 20
179.0
 30
0.0
 11
-15.699999999999941
 21
180.0
 31
0.0
  0
LINE
  5
83F
  8
DATA
  6
CONTINUOUS
 62
     7
 10
-15.699999999999941
 20
180.0
 30
0.0
 11
-12.699999999999941
 21
180.0
 31
0.0
  0
LINE
  5
840
  8
DATA
  6
CONTINUOUS
 62
     7
 10
-12.699999999999941
 20
180.0
 30
0.0
 11
-13.199999999999941
 21
179.0
 31
0.0
  0
LINE
  5
841
  8
DATA
  6
CONTINUOUS
 62
     7
 10
-43.199999999999939
 20
159.0
 30
0.0
 11
14.80000000000005
 21
159.0
 31
0.0
  0
LINE
  5
842
  8
DATA
  6
CONTINUOUS
 62
     7
 10
-45.199999999999932
 20
160.0
 30
0.0
 11
-42.699999999999953
 21
160.0
 31
0.0
  0
LINE
  5
843
  8
DATA
  6
CONTINUOUS
 62
     7
 10
-42.699999999999953
 20
160.0
 30
0.0
 11
-43.199999999999939
 21
159.0
 31
0.0
  0
LINE
  5
844
  8
DATA
  6
CONTINUOUS
 62
     7
 10
-40.199999999999953
 20
159.0
 30
0.0
 11
-40.699999999999939
 21
160.0
 31
0.0
  0
LINE
  5
845
  8
DATA
  6
CONTINUOUS
 62
     7
 10
-40.699999999999939
 20
160.0
 30
0.0
 11
-37.699999999999953
 21
160.0
 31
0.0
  0
LINE
  5
846
  8
DATA
  6
CONTINUOUS
 62
     7
 10
-37.699999999999953
 20
160.0
 30
0.0
 11
-38.199999999999953
 21
159.0
 31
0.0
  0
LINE
  5
847
  8
DATA
  6
CONTINUOUS
 62
     7
 10
-35.199999999999953
 20
159.0
 30
0.0
 11
-35.699999999999953
 21
160.0
 31
0.0
  0
LINE
  5
848
  8
DATA
  6
CONTINUOUS
 62
     7
 10
-35.699999999999953
 20
160.0
 30
0.0
 11
-32.699999999999953
 21
160.0
 31
0.0
  0
LINE
  5
849
  8
DATA
  6
CONTINUOUS
 62
     7
 10
-32.699999999999953
 20
160.0
 30
0.0
 11
-33.199999999999953
 21
159.0
 31
0.0
  0
LINE
  5
84A
  8
DATA
  6
CONTINUOUS
 62
     7
 10
-30.19999999999995
 20
159.0
 30
0.0
 11
-30.69999999999995
 21
160.0
 31
0.0
  0
LINE
  5
84B
  8
DATA
  6
CONTINUOUS
 62
     7
 10
-30.69999999999995
 20
160.0
 30
0.0
 11
-27.69999999999995
 21
160.0
 31
0.0
  0
LINE
  5
84C
  8
DATA
  6
CONTINUOUS
 62
     7
 10
-27.69999999999995
 20
160.0
 30
0.0
 11
-28.19999999999995
 21
159.0
 31
0.0
  0
LINE
  5
84D
  8
DATA
  6
CONTINUOUS
 62
     7
 10
-25.19999999999995
 20
159.0
 30
0.0
 11
-25.69999999999995
 21
160.0
 31
0.0
  0
LINE
  5
84E
  8
DATA
  6
CONTINUOUS
 62
     7
 10
-25.69999999999995
 20
160.0
 30
0.0
 11
-22.69999999999995
 21
160.0
 31
0.0
  0
LINE
  5
84F
  8
DATA
  6
CONTINUOUS
 62
     7
 10
-22.69999999999995
 20
160.0
 30
0.0
 11
-23.199999999999939
 21
159.0
 31
0.0
  0
LINE
  5
850
  8
DATA
  6
CONTINUOUS
 62
     7
 10
-20.19999999999995
 20
159.0
 30
0.0
 11
-20.699999999999939
 21
160.0
 31
0.0
  0
LINE
  5
851
  8
DATA
  6
CONTINUOUS
 62
     7
 10
-20.699999999999939
 20
160.0
 30
0.0
 11
-17.699999999999939
 21
160.0
 31
0.0
  0
LINE
  5
852
  8
DATA
  6
CONTINUOUS
 62
     7
 10
-17.699999999999939
 20
160.0
 30
0.0
 11
-18.199999999999939
 21
159.0
 31
0.0
  0
POLYLINE
  5
853
  8
DATA
  6
CONTINUOUS
 62
     7
 66
     1
 10
0.0
 20
0.0
 30
0.0
 70
     1
  0
VERTEX
  5
C81
  8
DATA
  6
CONTINUOUS
 62
     7
 10
-42.200000000000053
 20
163.5
 30
0.0
  0
VERTEX
  5
C82
  8
DATA
  6
CONTINUOUS
 62
     7
 10
-41.199999999999939
 20
163.5
 30
0.0
  0
VERTEX
  5
C83
  8
DATA
  6
CONTINUOUS
 62
     7
 10
-41.199999999999939
 20
162.5
 30
0.0
  0
VERTEX
  5
C84
  8
DATA
  6
CONTINUOUS
 62
     7
 10
-42.200000000000053
 20
162.5
 30
0.0
  0
SEQEND
  5
C85
  8
DATA
  6
CONTINUOUS
 62
     7
  0
POLYLINE
  5
85A
  8
DATA
  6
CONTINUOUS
 62
     7
 66
     1
 10
0.0
 20
0.0
 30
0.0
 70
     1
  0
VERTEX
  5
C86
  8
DATA
  6
CONTINUOUS
 62
     7
 10
-37.20000000000006
 20
163.5
 30
0.0
  0
VERTEX
  5
C87
  8
DATA
  6
CONTINUOUS
 62
     7
 10
-36.199999999999953
 20
163.5
 30
0.0
  0
VERTEX
  5
C88
  8
DATA
  6
CONTINUOUS
 62
     7
 10
-36.199999999999953
 20
162.5
 30
0.0
  0
VERTEX
  5
C89
  8
DATA
  6
CONTINUOUS
 62
     7
 10
-37.20000000000006
 20
162.5
 30
0.0
  0
SEQEND
  5
C8A
  8
DATA
  6
CONTINUOUS
 62
     7
  0
POLYLINE
  5
861
  8
DATA
  6
CONTINUOUS
 62
     7
 66
     1
 10
0.0
 20
0.0
 30
0.0
 70
     1
  0
VERTEX
  5
C8B
  8
DATA
  6
CONTINUOUS
 62
     7
 10
-32.20000000000006
 20
163.5
 30
0.0
  0
VERTEX
  5
C8C
  8
DATA
  6
CONTINUOUS
 62
     7
 10
-31.19999999999995
 20
163.5
 30
0.0
  0
VERTEX
  5
C8D
  8
DATA
  6
CONTINUOUS
 62
     7
 10
-31.19999999999995
 20
162.5
 30
0.0
  0
VERTEX
  5
C8E
  8
DATA
  6
CONTINUOUS
 62
     7
 10
-32.20000000000006
 20
162.5
 30
0.0
  0
SEQEND
  5
C8F
  8
DATA
  6
CONTINUOUS
 62
     7
  0
POLYLINE
  5
868
  8
DATA
  6
CONTINUOUS
 62
     7
 66
     1
 10
0.0
 20
0.0
 30
0.0
 70
     1
  0
VERTEX
  5
C90
  8
DATA
  6
CONTINUOUS
 62
     7
 10
-27.20000000000006
 20
163.5
 30
0.0
  0
VERTEX
  5
C91
  8
DATA
  6
CONTINUOUS
 62
     7
 10
-26.19999999999995
 20
163.5
 30
0.0
  0
VERTEX
  5
C92
  8
DATA
  6
CONTINUOUS
 62
     7
 10
-26.19999999999995
 20
162.5
 30
0.0
  0
VERTEX
  5
C93
  8
DATA
  6
CONTINUOUS
 62
     7
 10
-27.20000000000006
 20
162.5
 30
0.0
  0
SEQEND
  5
C94
  8
DATA
  6
CONTINUOUS
 62
     7
  0
POLYLINE
  5
86F
  8
DATA
  6
CONTINUOUS
 62
     7
 66
     1
 10
0.0
 20
0.0
 30
0.0
 70
     1
  0
VERTEX
  5
C95
  8
DATA
  6
CONTINUOUS
 62
     7
 10
-22.200000000000049
 20
163.5
 30
0.0
  0
VERTEX
  5
C96
  8
DATA
  6
CONTINUOUS
 62
     7
 10
-21.19999999999995
 20
163.5
 30
0.0
  0
VERTEX
  5
C97
  8
DATA
  6
CONTINUOUS
 62
     7
 10
-21.19999999999995
 20
162.5
 30
0.0
  0
VERTEX
  5
C98
  8
DATA
  6
CONTINUOUS
 62
     7
 10
-22.200000000000049
 20
162.5
 30
0.0
  0
SEQEND
  5
C99
  8
DATA
  6
CONTINUOUS
 62
     7
  0
POLYLINE
  5
876
  8
DATA
  6
CONTINUOUS
 62
     7
 66
     1
 10
0.0
 20
0.0
 30
0.0
 70
     1
  0
VERTEX
  5
C9A
  8
DATA
  6
CONTINUOUS
 62
     7
 10
-17.20000000000006
 20
163.5
 30
0.0
  0
VERTEX
  5
C9B
  8
DATA
  6
CONTINUOUS
 62
     7
 10
-16.199999999999939
 20
163.5
 30
0.0
  0
VERTEX
  5
C9C
  8
DATA
  6
CONTINUOUS
 62
     7
 10
-16.199999999999939
 20
162.5
 30
0.0
  0
VERTEX
  5
C9D
  8
DATA
  6
CONTINUOUS
 62
     7
 10
-17.20000000000006
 20
162.5
 30
0.0
  0
SEQEND
  5
C9E
  8
DATA
  6
CONTINUOUS
 62
     7
  0
LINE
  5
87D
  8
DATA
  6
CONTINUOUS
 62
     7
 10
-45.699999999999932
 20
158.5
 30
0.0
 11
-45.699999999999932
 21
186.5
 31
0.0
  0
ARC
  5
87E
  8
DATA
  6
CONTINUOUS
 62
     7
 10
-41.699999999999939
 20
162.375
 30
0.0
 40
3.625
 50
46.397181027296369
 51
133.6028189727036
  0
ARC
  5
87F
  8
DATA
  6
CONTINUOUS
 62
     7
 10
-36.699999999999953
 20
162.375
 30
0.0
 40
3.625
 50
46.397181027296369
 51
133.6028189727036
  0
ARC
  5
880
  8
DATA
  6
CONTINUOUS
 62
     7
 10
-31.69999999999995
 20
162.375
 30
0.0
 40
3.625
 50
46.397181027296369
 51
133.6028189727036
  0
ARC
  5
881
  8
DATA
  6
CONTINUOUS
 62
     7
 10
-26.69999999999995
 20
162.375
 30
0.0
 40
3.625
 50
46.397181027296369
 51
133.6028189727036
  0
ARC
  5
882
  8
DATA
  6
CONTINUOUS
 62
     7
 10
-21.69999999999995
 20
162.375
 30
0.0
 40
3.625
 50
46.397181027296369
 51
133.6028189727036
  0
ARC
  5
883
  8
DATA
  6
CONTINUOUS
 62
     7
 10
-16.699999999999939
 20
162.375
 30
0.0
 40
3.625
 50
46.397181027296369
 51
133.6028189727036
  0
LINE
  5
884
  8
DATA
  6
CONTINUOUS
 62
     7
 10
-45.699999999999932
 20
158.5
 30
0.0
 11
17.30000000000005
 21
158.5
 31
0.0
  0
LINE
  5
885
  8
DATA
  6
CONTINUOUS
 62
     7
 10
-45.699999999999932
 20
166.5
 30
0.0
 11
17.30000000000005
 21
166.5
 31
0.0
  0
LINE
  5
886
  8
DATA
  6
CONTINUOUS
 62
     7
 10
-44.199999999999939
 20
165.0
 30
0.0
 11
-45.199999999999932
 21
165.0
 31
0.0
  0
LINE
  5
887
  8
DATA
  6
CONTINUOUS
 62
     7
 10
-45.199999999999932
 20
165.0
 30
0.0
 11
-45.199999999999932
 21
160.0
 31
0.0
  0
LINE
  5
888
  8
DATA
  6
CONTINUOUS
 62
     7
 10
16.80000000000005
 20
160.0
 30
0.0
 11
14.30000000000005
 21
160.0
 31
0.0
  0
LINE
  5
889
  8
DATA
  6
CONTINUOUS
 62
     7
 10
14.30000000000005
 20
160.0
 30
0.0
 11
14.80000000000005
 21
159.0
 31
0.0
  0
LINE
  5
88A
  8
DATA
  6
CONTINUOUS
 62
     7
 10
11.80000000000005
 20
159.0
 30
0.0
 11
12.30000000000005
 21
160.0
 31
0.0
  0
LINE
  5
88B
  8
DATA
  6
CONTINUOUS
 62
     7
 10
12.30000000000005
 20
160.0
 30
0.0
 11
9.300000000000054
 21
160.0
 31
0.0
  0
LINE
  5
88C
  8
DATA
  6
CONTINUOUS
 62
     7
 10
9.300000000000054
 20
160.0
 30
0.0
 11
9.800000000000054
 21
159.0
 31
0.0
  0
LINE
  5
88D
  8
DATA
  6
CONTINUOUS
 62
     7
 10
6.800000000000054
 20
159.0
 30
0.0
 11
7.300000000000054
 21
160.0
 31
0.0
  0
LINE
  5
88E
  8
DATA
  6
CONTINUOUS
 62
     7
 10
7.300000000000054
 20
160.0
 30
0.0
 11
4.300000000000054
 21
160.0
 31
0.0
  0
LINE
  5
88F
  8
DATA
  6
CONTINUOUS
 62
     7
 10
4.300000000000054
 20
160.0
 30
0.0
 11
4.800000000000054
 21
159.0
 31
0.0
  0
LINE
  5
890
  8
DATA
  6
CONTINUOUS
 62
     7
 10
1.800000000000054
 20
159.0
 30
0.0
 11
2.300000000000054
 21
160.0
 31
0.0
  0
LINE
  5
891
  8
DATA
  6
CONTINUOUS
 62
     7
 10
2.300000000000054
 20
160.0
 30
0.0
 11
-0.6999999999999461
 21
160.0
 31
0.0
  0
LINE
  5
892
  8
DATA
  6
CONTINUOUS
 62
     7
 10
-0.6999999999999461
 20
160.0
 30
0.0
 11
-0.199999999999946
 21
159.0
 31
0.0
  0
LINE
  5
893
  8
DATA
  6
CONTINUOUS
 62
     7
 10
-3.199999999999946
 20
159.0
 30
0.0
 11
-2.6999999999999451
 21
160.0
 31
0.0
  0
LINE
  5
894
  8
DATA
  6
CONTINUOUS
 62
     7
 10
-2.6999999999999451
 20
160.0
 30
0.0
 11
-5.6999999999999451
 21
160.0
 31
0.0
  0
LINE
  5
895
  8
DATA
  6
CONTINUOUS
 62
     7
 10
-5.6999999999999451
 20
160.0
 30
0.0
 11
-5.1999999999999451
 21
159.0
 31
0.0
  0
LINE
  5
896
  8
DATA
  6
CONTINUOUS
 62
     7
 10
-8.1999999999999442
 20
159.0
 30
0.0
 11
-7.6999999999999451
 21
160.0
 31
0.0
  0
LINE
  5
897
  8
DATA
  6
CONTINUOUS
 62
     7
 10
-7.6999999999999451
 20
160.0
 30
0.0
 11
-10.699999999999941
 21
160.0
 31
0.0
  0
LINE
  5
898
  8
DATA
  6
CONTINUOUS
 62
     7
 10
-10.699999999999941
 20
160.0
 30
0.0
 11
-10.199999999999941
 21
159.0
 31
0.0
  0
POLYLINE
  5
899
  8
DATA
  6
CONTINUOUS
 62
     7
 66
     1
 10
0.0
 20
0.0
 30
0.0
 70
     1
  0
VERTEX
  5
C9F
  8
DATA
  6
CONTINUOUS
 62
     7
 10
12.80000000000005
 20
163.5
 30
0.0
  0
VERTEX
  5
CA0
  8
DATA
  6
CONTINUOUS
 62
     7
 10
13.800000000000161
 20
163.5
 30
0.0
  0
VERTEX
  5
CA1
  8
DATA
  6
CONTINUOUS
 62
     7
 10
13.800000000000161
 20
162.5
 30
0.0
  0
VERTEX
  5
CA2
  8
DATA
  6
CONTINUOUS
 62
     7
 10
12.80000000000005
 20
162.5
 30
0.0
  0
SEQEND
  5
CA3
  8
DATA
  6
CONTINUOUS
 62
     7
  0
POLYLINE
  5
8A0
  8
DATA
  6
CONTINUOUS
 62
     7
 66
     1
 10
0.0
 20
0.0
 30
0.0
 70
     1
  0
VERTEX
  5
CA4
  8
DATA
  6
CONTINUOUS
 62
     7
 10
7.800000000000054
 20
163.5
 30
0.0
  0
VERTEX
  5
CA5
  8
DATA
  6
CONTINUOUS
 62
     7
 10
8.8000000000001641
 20
163.5
 30
0.0
  0
VERTEX
  5
CA6
  8
DATA
  6
CONTINUOUS
 62
     7
 10
8.8000000000001641
 20
162.5
 30
0.0
  0
VERTEX
  5
CA7
  8
DATA
  6
CONTINUOUS
 62
     7
 10
7.800000000000054
 20
162.5
 30
0.0
  0
SEQEND
  5
CA8
  8
DATA
  6
CONTINUOUS
 62
     7
  0
POLYLINE
  5
8A7
  8
DATA
  6
CONTINUOUS
 62
     7
 66
     1
 10
0.0
 20
0.0
 30
0.0
 70
     1
  0
VERTEX
  5
CA9
  8
DATA
  6
CONTINUOUS
 62
     7
 10
2.800000000000054
 20
163.5
 30
0.0
  0
VERTEX
  5
CAA
  8
DATA
  6
CONTINUOUS
 62
     7
 10
3.8000000000001681
 20
163.5
 30
0.0
  0
VERTEX
  5
CAB
  8
DATA
  6
CONTINUOUS
 62
     7
 10
3.8000000000001681
 20
162.5
 30
0.0
  0
VERTEX
  5
CAC
  8
DATA
  6
CONTINUOUS
 62
     7
 10
2.800000000000054
 20
162.5
 30
0.0
  0
SEQEND
  5
CAD
  8
DATA
  6
CONTINUOUS
 62
     7
  0
POLYLINE
  5
8AE
  8
DATA
  6
CONTINUOUS
 62
     7
 66
     1
 10
0.0
 20
0.0
 30
0.0
 70
     1
  0
VERTEX
  5
CAE
  8
DATA
  6
CONTINUOUS
 62
     7
 10
-2.1999999999999451
 20
163.5
 30
0.0
  0
VERTEX
  5
CAF
  8
DATA
  6
CONTINUOUS
 62
     7
 10
-1.1999999999998321
 20
163.5
 30
0.0
  0
VERTEX
  5
CB0
  8
DATA
  6
CONTINUOUS
 62
     7
 10
-1.1999999999998321
 20
162.5
 30
0.0
  0
VERTEX
  5
CB1
  8
DATA
  6
CONTINUOUS
 62
     7
 10
-2.1999999999999451
 20
162.5
 30
0.0
  0
SEQEND
  5
CB2
  8
DATA
  6
CONTINUOUS
 62
     7
  0
POLYLINE
  5
8B5
  8
DATA
  6
CONTINUOUS
 62
     7
 66
     1
 10
0.0
 20
0.0
 30
0.0
 70
     1
  0
VERTEX
  5
CB3
  8
DATA
  6
CONTINUOUS
 62
     7
 10
-7.1999999999999451
 20
163.5
 30
0.0
  0
VERTEX
  5
CB4
  8
DATA
  6
CONTINUOUS
 62
     7
 10
-6.1999999999998323
 20
163.5
 30
0.0
  0
VERTEX
  5
CB5
  8
DATA
  6
CONTINUOUS
 62
     7
 10
-6.1999999999998323
 20
162.5
 30
0.0
  0
VERTEX
  5
CB6
  8
DATA
  6
CONTINUOUS
 62
     7
 10
-7.1999999999999451
 20
162.5
 30
0.0
  0
SEQEND
  5
CB7
  8
DATA
  6
CONTINUOUS
 62
     7
  0
POLYLINE
  5
8BC
  8
DATA
  6
CONTINUOUS
 62
     7
 66
     1
 10
0.0
 20
0.0
 30
0.0
 70
     1
  0
VERTEX
  5
CB8
  8
DATA
  6
CONTINUOUS
 62
     7
 10
-12.199999999999941
 20
163.5
 30
0.0
  0
VERTEX
  5
CB9
  8
DATA
  6
CONTINUOUS
 62
     7
 10
-11.199999999999831
 20
163.5
 30
0.0
  0
VERTEX
  5
CBA
  8
DATA
  6
CONTINUOUS
 62
     7
 10
-11.199999999999831
 20
162.5
 30
0.0
  0
VERTEX
  5
CBB
  8
DATA
  6
CONTINUOUS
 62
     7
 10
-12.199999999999941
 20
162.5
 30
0.0
  0
SEQEND
  5
CBC
  8
DATA
  6
CONTINUOUS
 62
     7
  0
LINE
  5
8C3
  8
DATA
  6
CONTINUOUS
 62
     7
 10
17.30000000000005
 20
158.5
 30
0.0
 11
17.30000000000005
 21
186.5
 31
0.0
  0
ARC
  5
8C4
  8
DATA
  6
CONTINUOUS
 62
     7
 10
13.30000000000005
 20
162.375
 30
0.0
 40
3.625
 50
46.397181027296369
 51
133.6028189727036
  0
ARC
  5
8C5
  8
DATA
  6
CONTINUOUS
 62
     7
 10
8.300000000000054
 20
162.375
 30
0.0
 40
3.625
 50
46.397181027296369
 51
133.6028189727036
  0
ARC
  5
8C6
  8
DATA
  6
CONTINUOUS
 62
     7
 10
3.3000000000000531
 20
162.375
 30
0.0
 40
3.625
 50
46.397181027296369
 51
133.6028189727036
  0
ARC
  5
8C7
  8
DATA
  6
CONTINUOUS
 62
     7
 10
-1.6999999999999451
 20
162.375
 30
0.0
 40
3.625
 50
46.397181027296369
 51
133.6028189727036
  0
ARC
  5
8C8
  8
DATA
  6
CONTINUOUS
 62
     7
 10
-6.6999999999999451
 20
162.375
 30
0.0
 40
3.625
 50
46.397181027296369
 51
133.6028189727036
  0
ARC
  5
8C9
  8
DATA
  6
CONTINUOUS
 62
     7
 10
-11.699999999999941
 20
162.375
 30
0.0
 40
3.625
 50
46.397181027296369
 51
133.6028189727036
  0
LINE
  5
8CA
  8
DATA
  6
CONTINUOUS
 62
     7
 10
15.80000000000005
 20
165.0
 30
0.0
 11
16.80000000000005
 21
165.0
 31
0.0
  0
LINE
  5
8CB
  8
DATA
  6
CONTINUOUS
 62
     7
 10
16.80000000000005
 20
165.0
 30
0.0
 11
16.80000000000005
 21
160.0
 31
0.0
  0
LINE
  5
8CC
  8
DATA
  6
CONTINUOUS
 62
     7
 10
-15.199999999999941
 20
159.0
 30
0.0
 11
-15.699999999999941
 21
160.0
 31
0.0
  0
LINE
  5
8CD
  8
DATA
  6
CONTINUOUS
 62
     7
 10
-15.699999999999941
 20
160.0
 30
0.0
 11
-12.699999999999941
 21
160.0
 31
0.0
  0
LINE
  5
8CE
  8
DATA
  6
CONTINUOUS
 62
     7
 10
-12.699999999999941
 20
160.0
 30
0.0
 11
-13.199999999999941
 21
159.0
 31
0.0
  0
LINE
  5
8CF
  8
DATA
  6
CONTINUOUS
 62
     7
 10
-45.699999999999932
 20
175.5
 30
0.0
 11
17.30000000000005
 21
175.5
 31
0.0
  0
TEXT
  5
8D0
  8
DATA
 62
     7
 10
-39.655729166666582
 20
169.96000000000001
 30
0.0
 40
2.693359375
  1
12
 50
180.0
 41
0.7
 11
-39.655729166666582
 21
167.26664062500001
 31
0.0
 73
     3
  0
TEXT
  5
8D1
  8
DATA
 62
     7
 10
-34.780729166666568
 20
169.96000000000001
 30
0.0
 40
2.693359375
  1
11
 50
180.0
 41
0.7
 11
-34.780729166666568
 21
167.26664062500001
 31
0.0
 73
     3
  0
TEXT
  5
8D2
  8
DATA
 62
     7
 10
-29.655729166666571
 20
169.96000000000001
 30
0.0
 40
2.693359375
  1
10
 50
180.0
 41
0.7
 11
-29.655729166666571
 21
167.26664062500001
 31
0.0
 73
     3
  0
TEXT
  5
8D3
  8
DATA
 62
     7
 10
-25.780729166666571
 20
169.96000000000001
 30
0.0
 40
2.693359375
  1
9
 50
180.0
 41
0.7
 11
-25.780729166666571
 21
167.26664062500001
 31
0.0
 73
     3
  0
TEXT
  5
8D4
  8
DATA
 62
     7
 10
-15.6114583333332
 20
169.59999999999999
 30
0.0
 40
1.923828125
  1
INPUTS
 50
180.0
 41
0.7
 11
-15.6114583333332
 21
167.67617187499999
 31
0.0
 73
     3
  0
TEXT
  5
8D5
  8
DATA
 62
     7
 10
-5.8249999999999451
 20
169.59999999999999
 30
0.0
 40
1.923828125
  1
CONTROL
 50
180.0
 41
0.7
 11
-5.8249999999999451
 21
167.67617187499999
 31
0.0
 73
     3
  0
TEXT
  5
8D6
  8
DATA
 62
     7
 10
-0.6999999999999457
 20
169.96000000000001
 30
0.0
 40
2.693359375
  1
4
 50
180.0
 41
0.7
 11
-0.6999999999999461
 21
167.26664062500001
 31
0.0
 73
     3
  0
TEXT
  5
8D7
  8
DATA
 62
     7
 10
4.425000000000054
 20
169.96000000000001
 30
0.0
 40
2.693359375
  1
3
 50
180.0
 41
0.7
 11
4.425000000000054
 21
167.26664062500001
 31
0.0
 73
     3
  0
TEXT
  5
8D8
  8
DATA
 62
     7
 10
9.300000000000054
 20
169.96000000000001
 30
0.0
 40
2.693359375
  1
2
 50
180.0
 41
0.7
 11
9.300000000000054
 21
167.26664062500001
 31
0.0
 73
     3
  0
TEXT
  5
8D9
  8
DATA
 62
     7
 10
14.17500000000005
 20
169.96000000000001
 30
0.0
 40
2.693359375
  1
1
 50
180.0
 41
0.7
 11
14.17500000000005
 21
167.26664062500001
 31
0.0
 73
     3
  0
TEXT
  5
8DA
  8
DATA
 62
     7
 10
-40.655729166666582
 20
174.46000000000001
 30
0.0
 40
2.693359375
  1
R
 50
180.0
 41
0.7
 11
-40.655729166666582
 21
171.76664062500001
 31
0.0
 73
     3
  0
TEXT
  5
8DB
  8
DATA
 62
     7
 10
-35.780729166666568
 20
174.46000000000001
 30
0.0
 40
2.693359375
  1
R
 50
180.0
 41
0.7
 11
-35.780729166666568
 21
171.76664062500001
 31
0.0
 73
     3
  0
TEXT
  5
8DC
  8
DATA
 62
     7
 10
-30.655729166666571
 20
174.46000000000001
 30
0.0
 40
2.693359375
  1
6
 50
180.0
 41
0.7
 11
-30.655729166666571
 21
171.76664062500001
 31
0.0
 73
     3
  0
TEXT
  5
8DD
  8
DATA
 62
     7
 10
-18.384027777777661
 20
174.09999999999999
 30
0.0
 40
1.923828125
  1
OUTPUTS
 50
180.0
 41
0.7
 11
-18.384027777777661
 21
172.17617187499999
 31
0.0
 73
     3
  0
TEXT
  5
8DE
  8
DATA
 62
     7
 10
-11.134027777777661
 20
174.09999999999999
 30
0.0
 40
1.923828125
  1
LOGIC
 50
180.0
 41
0.7
 11
-11.134027777777661
 21
172.17617187499999
 31
0.0
 73
     3
  0
TEXT
  5
8DF
  8
DATA
 62
     7
 10
-0.6999999999999459
 20
174.84999999999999
 30
0.0
 40
1.923828125
  1
-
 50
180.0
 41
0.7
 11
-0.6999999999999461
 21
172.92617187499999
 31
0.0
 73
     3
  0
TEXT
  5
8E0
  8
DATA
 62
     7
 10
4.175000000000054
 20
174.84999999999999
 30
0.0
 40
1.923828125
  1
+
 50
180.0
 41
0.7
 11
4.175000000000054
 21
172.92617187499999
 31
0.0
 73
     3
  0
TEXT
  5
8E1
  8
DATA
 62
     7
 10
3.550000000000054
 20
172.84999999999999
 30
0.0
 40
1.923828125
  1
OPTO
 50
180.0
 41
0.7
 11
3.5500000000000531
 21
170.92617187499999
 31
0.0
 73
     3
  0
LINE
  5
8E2
  8
DATA
  6
CONTINUOUS
 62
     7
 10
3.8000000000000531
 20
171.94999999999999
 30
0.0
 11
5.300000000000054
 21
171.94999999999999
 31
0.0
  0
LINE
  5
8E3
  8
DATA
  6
CONTINUOUS
 62
     7
 10
5.300000000000054
 20
171.94999999999999
 30
0.0
 11
5.300000000000054
 21
175.5
 31
0.0
  0
LINE
  5
8E4
  8
DATA
  6
CONTINUOUS
 62
     7
 10
-1.6999999999999451
 20
171.94999999999999
 30
0.0
 11
-3.199999999999946
 21
171.94999999999999
 31
0.0
  0
LINE
  5
8E5
  8
DATA
  6
CONTINUOUS
 62
     7
 10
-3.199999999999946
 20
171.94999999999999
 30
0.0
 11
-3.199999999999946
 21
175.5
 31
0.0
  0
CIRCLE
  5
8E6
  8
DATA
  6
CONTINUOUS
 62
     7
 10
20.30000000000005
 20
169.5
 30
0.0
 40
2.7500000000000049
  0
POLYLINE
  5
8E7
  8
DATA
  6
CONTINUOUS
 62
     7
 66
     1
 10
0.0
 20
0.0
 30
0.0
  0
VERTEX
  5
CBD
  8
DATA
  6
CONTINUOUS
 62
     7
 10
20.80000000000005
 20
170.0
 30
0.0
  0
VERTEX
  5
CBE
  8
DATA
  6
CONTINUOUS
 62
     7
 10
20.80000000000005
 20
171.0
 30
0.0
  0
VERTEX
  5
CBF
  8
DATA
  6
CONTINUOUS
 62
     7
 10
19.80000000000005
 20
171.0
 30
0.0
  0
VERTEX
  5
CC0
  8
DATA
  6
CONTINUOUS
 62
     7
 10
19.80000000000005
 20
170.0
 30
0.0
  0
SEQEND
  5
CC1
  8
DATA
  6
CONTINUOUS
 62
     7
  0
POLYLINE
  5
8EE
  8
DATA
  6
CONTINUOUS
 62
     7
 66
     1
 10
0.0
 20
0.0
 30
0.0
  0
VERTEX
  5
CC2
  8
DATA
  6
CONTINUOUS
 62
     7
 10
20.80000000000005
 20
169.0
 30
0.0
  0
VERTEX
  5
CC3
  8
DATA
  6
CONTINUOUS
 62
     7
 10
20.80000000000005
 20
168.0
 30
0.0
  0
VERTEX
  5
CC4
  8
DATA
  6
CONTINUOUS
 62
     7
 10
19.80000000000005
 20
168.0
 30
0.0
  0
VERTEX
  5
CC5
  8
DATA
  6
CONTINUOUS
 62
     7
 10
19.80000000000005
 20
169.0
 30
0.0
  0
SEQEND
  5
CC6
  8
DATA
  6
CONTINUOUS
 62
     7
  0
POLYLINE
  5
8F5
  8
DATA
  6
CONTINUOUS
 62
     7
 66
     1
 10
0.0
 20
0.0
 30
0.0
  0
VERTEX
  5
CC7
  8
DATA
  6
CONTINUOUS
 62
     7
 10
20.80000000000005
 20
169.0
 30
0.0
  0
VERTEX
  5
CC8
  8
DATA
  6
CONTINUOUS
 62
     7
 10
21.80000000000005
 20
169.0
 30
0.0
  0
VERTEX
  5
CC9
  8
DATA
  6
CONTINUOUS
 62
     7
 10
21.80000000000005
 20
170.0
 30
0.0
  0
VERTEX
  5
CCA
  8
DATA
  6
CONTINUOUS
 62
     7
 10
20.80000000000005
 20
170.0
 30
0.0
  0
SEQEND
  5
CCB
  8
DATA
  6
CONTINUOUS
 62
     7
  0
POLYLINE
  5
8FC
  8
DATA
  6
CONTINUOUS
 62
     7
 66
     1
 10
0.0
 20
0.0
 30
0.0
  0
VERTEX
  5
CCC
  8
DATA
  6
CONTINUOUS
 62
     7
 10
19.80000000000005
 20
169.0
 30
0.0
  0
VERTEX
  5
CCD
  8
DATA
  6
CONTINUOUS
 62
     7
 10
18.80000000000005
 20
169.0
 30
0.0
  0
VERTEX
  5
CCE
  8
DATA
  6
CONTINUOUS
 62
     7
 10
18.80000000000005
 20
170.0
 30
0.0
  0
VERTEX
  5
CCF
  8
DATA
  6
CONTINUOUS
 62
     7
 10
19.80000000000005
 20
170.0
 30
0.0
  0
SEQEND
  5
CD0
  8
DATA
  6
CONTINUOUS
 62
     7
  0
POLYLINE
  5
903
  8
DATA
  6
CONTINUOUS
 62
     7
 66
     1
 10
0.0
 20
0.0
 30
0.0
 70
     1
  0
VERTEX
  5
CD1
  8
DATA
  6
CONTINUOUS
 62
     7
 10
49.300000000000047
 20
187.5
 30
0.0
  0
VERTEX
  5
CD2
  8
DATA
  6
CONTINUOUS
 62
     7
 10
64.800000000000054
 20
187.5
 30
0.0
  0
VERTEX
  5
CD3
  8
DATA
  6
CONTINUOUS
 62
     7
 10
64.800000000000054
 20
176.0
 30
0.0
  0
VERTEX
  5
CD4
  8
DATA
  6
CONTINUOUS
 62
     7
 10
49.300000000000047
 20
176.0
 30
0.0
  0
SEQEND
  5
CD5
  8
DATA
  6
CONTINUOUS
 62
     7
  0
LINE
  5
90A
  8
DATA
  6
CONTINUOUS
 62
     7
 10
60.30000000000004
 20
177.5
 30
0.0
 11
60.30000000000004
 21
178.5
 31
0.0
  0
LINE
  5
90B
  8
DATA
  6
CONTINUOUS
 62
     7
 10
60.30000000000004
 20
178.5
 30
0.0
 11
63.300000000000047
 21
178.5
 31
0.0
  0
LINE
  5
90C
  8
DATA
  6
CONTINUOUS
 62
     7
 10
63.300000000000047
 20
178.5
 30
0.0
 11
63.300000000000047
 21
186.0
 31
0.0
  0
LINE
  5
90D
  8
DATA
  6
CONTINUOUS
 62
     7
 10
53.800000000000047
 20
177.5
 30
0.0
 11
53.800000000000047
 21
178.5
 31
0.0
  0
LINE
  5
90E
  8
DATA
  6
CONTINUOUS
 62
     7
 10
53.800000000000047
 20
178.5
 30
0.0
 11
50.800000000000047
 21
178.5
 31
0.0
  0
LINE
  5
90F
  8
DATA
  6
CONTINUOUS
 62
     7
 10
50.800000000000047
 20
178.5
 30
0.0
 11
50.800000000000047
 21
186.0
 31
0.0
  0
LINE
  5
910
  8
DATA
  6
CONTINUOUS
 62
     7
 10
63.300000000000047
 20
186.0
 30
0.0
 11
50.800000000000047
 21
186.0
 31
0.0
  0
LINE
  5
911
  8
DATA
  6
CONTINUOUS
 62
     7
 10
53.55000000000004
 20
178.25
 30
0.0
 11
50.800000000000047
 21
178.25
 31
0.0
  0
LINE
  5
912
  8
DATA
  6
CONTINUOUS
 62
     7
 10
53.55000000000004
 20
178.25
 30
0.0
 11
53.55000000000004
 21
177.25
 31
0.0
  0
LINE
  5
913
  8
DATA
  6
CONTINUOUS
 62
     7
 10
50.800000000000047
 20
178.25
 30
0.0
 11
50.800000000000047
 21
177.25
 31
0.0
  0
LINE
  5
914
  8
DATA
  6
CONTINUOUS
 62
     7
 10
50.800000000000047
 20
177.25
 30
0.0
 11
53.55000000000004
 21
177.25
 31
0.0
  0
LINE
  5
915
  8
DATA
  6
CONTINUOUS
 62
     7
 10
60.550000000000047
 20
178.25
 30
0.0
 11
63.300000000000047
 21
178.25
 31
0.0
  0
LINE
  5
916
  8
DATA
  6
CONTINUOUS
 62
     7
 10
60.550000000000047
 20
178.25
 30
0.0
 11
60.550000000000047
 21
177.25
 31
0.0
  0
LINE
  5
917
  8
DATA
  6
CONTINUOUS
 62
     7
 10
63.300000000000047
 20
178.25
 30
0.0
 11
63.300000000000047
 21
177.25
 31
0.0
  0
LINE
  5
918
  8
DATA
  6
CONTINUOUS
 62
     7
 10
63.300000000000047
 20
177.25
 30
0.0
 11
60.550000000000047
 21
177.25
 31
0.0
  0
LINE
  5
919
  8
DATA
  6
CONTINUOUS
 62
     7
 10
53.800000000000047
 20
177.5
 30
0.0
 11
54.80000000000004
 21
177.5
 31
0.0
  0
LINE
  5
91A
  8
DATA
  6
CONTINUOUS
 62
     7
 10
60.30000000000004
 20
177.5
 30
0.0
 11
59.300000000000047
 21
177.5
 31
0.0
  0
LINE
  5
91B
  8
DATA
  6
CONTINUOUS
 62
     7
 10
59.300000000000047
 20
177.5
 30
0.0
 11
59.300000000000047
 21
176.5
 31
0.0
  0
LINE
  5
91C
  8
DATA
  6
CONTINUOUS
 62
     7
 10
54.80000000000004
 20
177.5
 30
0.0
 11
54.80000000000004
 21
176.5
 31
0.0
  0
LINE
  5
91D
  8
DATA
  6
CONTINUOUS
 62
     7
 10
54.80000000000004
 20
176.5
 30
0.0
 11
59.300000000000047
 21
176.5
 31
0.0
  0
TEXT
  5
91E
  8
DATA
 62
     7
 10
64.050000019868321
 20
191.50999999999999
 30
0.0
 40
2.693359375
  1
ETHERNET
 50
180.0
 41
0.7
 11
64.050000019868321
 21
188.81664062499999
 31
0.0
 73
     3
  0
TEXT
  5
91F
  8
DATA
 62
     7
 10
89.300000052981886
 20
191.50999999999999
 30
0.0
 40
2.693359375
  1
RS232
 50
180.0
 41
0.7
 11
89.300000052981886
 21
188.81664062499999
 31
0.0
 73
     3
  0
TEXT
  5
920
  8
DATA
 62
     7
 10
113.3000000529818
 20
191.50999999999999
 30
0.0
 40
2.693359375
  1
LOCATE
 50
180.0
 41
0.7
 11
113.3000000529818
 21
188.81664062499999
 31
0.0
 73
     3
  0
LINE
  5
921
  8
DATA
  6
CONTINUOUS
 62
     7
 10
527.0
 20
-256.5
 30
0.0
 11
301.5
 21
-256.5
 31
0.0
  0
LINE
  5
922
  8
DATA
  6
CONTINUOUS
 62
     7
 10
526.0
 20
-299.5
 30
0.0
 11
300.0
 21
-299.5
 31
0.0
  0
LINE
  5
923
  8
DATA
  6
CONTINUOUS
 62
     7
 10
322.5
 20
-268.0
 30
0.0
 11
306.0
 21
-268.0
 31
0.0
  0
LINE
  5
924
  8
DATA
  6
CONTINUOUS
 62
     7
 10
523.0
 20
-268.0
 30
0.0
 11
356.5
 21
-268.0
 31
0.0
  0
LINE
  5
925
  8
DATA
  6
CONTINUOUS
 62
     7
 10
302.0
 20
-256.5
 30
0.0
 11
302.0
 21
-264.0
 31
0.0
  0
LINE
  5
926
  8
DATA
  6
CONTINUOUS
 62
     7
 10
301.0
 20
-256.0
 30
0.0
 11
301.0
 21
-257.0
 31
0.0
  0
LINE
  5
927
  8
DATA
  6
CONTINUOUS
 62
     7
 10
300.0
 20
-258.5
 30
0.0
 11
302.0
 21
-258.5
 31
0.0
  0
LINE
  5
928
  8
DATA
  6
CONTINUOUS
 62
     7
 10
302.0
 20
-257.0
 30
0.0
 11
301.5
 21
-257.0
 31
0.0
  0
LINE
  5
929
  8
DATA
  6
CONTINUOUS
 62
     7
 10
301.0
 20
-257.0
 30
0.0
 11
300.0
 21
-257.0
 31
0.0
  0
LINE
  5
92A
  8
DATA
  6
CONTINUOUS
 62
     7
 10
301.5
 20
-256.5
 30
0.0
 11
301.5
 21
-257.0
 31
0.0
  0
ARC
  5
92B
  8
DATA
  6
CONTINUOUS
 62
     7
 10
306.0
 20
-264.0
 30
0.0
 40
4.0
 50
180.0
 51
270.0
  0
LINE
  5
92C
  8
DATA
  6
CONTINUOUS
 62
     7
 10
326.5
 20
-259.0
 30
0.0
 11
326.5
 21
-264.0
 31
0.0
  0
ARC
  5
92D
  8
DATA
  6
CONTINUOUS
 62
     7
 10
322.5
 20
-264.0
 30
0.0
 40
4.0
 50
270.0
 51
0.0
  0
LINE
  5
92E
  8
DATA
  6
CONTINUOUS
 62
     7
 10
326.5
 20
-259.0
 30
0.0
 11
352.5
 21
-259.0
 31
0.0
  0
LINE
  5
92F
  8
DATA
  6
CONTINUOUS
 62
     7
 10
352.5
 20
-259.0
 30
0.0
 11
352.5
 21
-264.0
 31
0.0
  0
ARC
  5
930
  8
DATA
  6
CONTINUOUS
 62
     7
 10
356.5
 20
-264.0
 30
0.0
 40
4.0
 50
180.0
 51
270.0
  0
LINE
  5
931
  8
DATA
  6
CONTINUOUS
 62
     7
 10
527.0
 20
-257.5
 30
0.0
 11
527.0
 21
-298.5
 31
0.0
  0
ARC
  5
932
  8
DATA
  6
CONTINUOUS
 62
     7
 10
523.0
 20
-264.0
 30
0.0
 40
4.0
 50
270.0
 51
0.0
  0
LINE
  5
933
  8
DATA
  6
CONTINUOUS
 62
     7
 10
528.0
 20
-257.5
 30
0.0
 11
528.0
 21
-262.75
 31
0.0
  0
LINE
  5
934
  8
DATA
  6
CONTINUOUS
 62
     7
 10
528.0
 20
-261.5
 30
0.0
 11
527.0
 21
-261.5
 31
0.0
  0
LINE
  5
935
  8
DATA
  6
CONTINUOUS
 62
     7
 10
526.0
 20
-266.6457513110646
 30
0.0
 11
526.0
 21
-299.5
 31
0.0
  0
ARC
  5
936
  8
DATA
  6
CONTINUOUS
 62
     7
 10
527.0
 20
-257.5
 30
0.0
 40
1.0
 50
0.0
 51
90.0
  0
ARC
  5
937
  8
DATA
  6
CONTINUOUS
 62
     7
 10
526.0
 20
-298.5
 30
0.0
 40
1.0
 50
270.0
 51
0.0
  0
ARC
  5
938
  8
DATA
  6
CONTINUOUS
 62
     7
 10
339.50000000000028
 20
-278.99999999999972
 30
0.0
 40
18.74999999999967
 50
136.38575182873419
 51
140.7669169212617
  0
ARC
  5
939
  8
DATA
  6
CONTINUOUS
 62
     7
 10
339.5
 20
-279.0
 30
0.0
 40
13.249999999999931
 50
44.999972608213803
 51
75.000027345886323
  0
ARC
  5
93A
  8
DATA
  6
CONTINUOUS
 62
     7
 10
339.50000000000028
 20
-278.99999999999972
 30
0.0
 40
18.749999999999751
 50
45.000000000000369
 51
75.000000000000298
  0
ARC
  5
93B
  8
DATA
  6
CONTINUOUS
 62
     7
 10
343.64110472163918
 20
-263.54518677937921
 30
0.0
 40
2.7500000000043641
 50
75.000000000000483
 51
255.00013168333729
  0
ARC
  5
93C
  8
DATA
  6
CONTINUOUS
 62
     7
 10
350.81370849898173
 20
-267.68629150101827
 30
0.0
 40
2.7500000000045239
 50
224.99986819769799
 51
45.0
  0
ARC
  5
93D
  8
DATA
  6
CONTINUOUS
 62
     7
 10
339.5
 20
-279.0
 30
0.0
 40
13.24999999999997
 50
344.9999726082134
 51
15.00002734588673
  0
ARC
  5
93E
  8
DATA
  6
CONTINUOUS
 62
     7
 10
339.5000000000004
 20
-279.00000000000023
 30
0.0
 40
18.749999999999559
 50
345.00000000000011
 51
15.000000000000909
  0
ARC
  5
93F
  8
DATA
  6
CONTINUOUS
 62
     7
 10
354.95481322062068
 20
-274.85889527836082
 30
0.0
 40
2.7500000000045288
 50
14.999999999998609
 51
195.00013168334141
  0
ARC
  5
940
  8
DATA
  6
CONTINUOUS
 62
     7
 10
354.95481322062102
 20
-283.14110472163912
 30
0.0
 40
2.750000000004615
 50
164.9998681977012
 51
344.99999999999778
  0
ARC
  5
941
  8
DATA
  6
CONTINUOUS
 62
     7
 10
339.5
 20
-279.0
 30
0.0
 40
13.25000000000003
 50
284.9999726082138
 51
315.00002734588662
  0
ARC
  5
942
  8
DATA
  6
CONTINUOUS
 62
     7
 10
339.5
 20
-279.0000000000004
 30
0.0
 40
18.74999999999984
 50
285.0000000000004
 51
315.00000000000051
  0
ARC
  5
943
  8
DATA
  6
CONTINUOUS
 62
     7
 10
350.81370849898173
 20
-290.31370849898173
 30
0.0
 40
2.7500000000043232
 50
315.0
 51
135.00013168334149
  0
ARC
  5
944
  8
DATA
  6
CONTINUOUS
 62
     7
 10
343.64110472163918
 20
-294.45481322062079
 30
0.0
 40
2.750000000004436
 50
104.9998681977013
 51
284.9999999999992
  0
ARC
  5
945
  8
DATA
  6
CONTINUOUS
 62
     7
 10
339.5
 20
-279.0
 30
0.0
 40
13.249999999999931
 50
224.99997260821391
 51
255.00002734588639
  0
ARC
  5
946
  8
DATA
  6
CONTINUOUS
 62
     7
 10
339.49999999999972
 20
-279.00000000000028
 30
0.0
 40
18.749999999999751
 50
225.0000000000004
 51
255.0000000000004
  0
ARC
  5
947
  8
DATA
  6
CONTINUOUS
 62
     7
 10
335.35889527836082
 20
-294.45481322062079
 30
0.0
 40
2.7500000000043641
 50
255.00000000000051
 51
75.000131683337315
  0
ARC
  5
948
  8
DATA
  6
CONTINUOUS
 62
     7
 10
328.18629150101839
 20
-290.31370849898173
 30
0.0
 40
2.7500000000045239
 50
44.999868197698042
 51
225.0
  0
ARC
  5
949
  8
DATA
  6
CONTINUOUS
 62
     7
 10
339.5
 20
-278.99999999999989
 30
0.0
 40
13.25000000000019
 50
164.99997260821371
 51
195.00002734588671
  0
ARC
  5
94A
  8
DATA
  6
CONTINUOUS
 62
     7
 10
339.4999999999996
 20
-278.99999999999972
 30
0.0
 40
18.749999999999769
 50
165.00000000000031
 51
195.00000000000071
  0
ARC
  5
94B
  8
DATA
  6
CONTINUOUS
 62
     7
 10
324.04518677937898
 20
-283.14110472163912
 30
0.0
 40
2.7500000000043081
 50
194.9999999999998
 51
15.00013168334146
  0
ARC
  5
94C
  8
DATA
  6
CONTINUOUS
 62
     7
 10
324.04518677937898
 20
-274.85889527836082
 30
0.0
 40
2.750000000004396
 50
344.99986819769998
 51
164.99999999999901
  0
ARC
  5
94D
  8
DATA
  6
CONTINUOUS
 62
     7
 10
339.5
 20
-279.0
 30
0.0
 40
13.249999999999959
 50
104.9999726082128
 51
135.00002734588659
  0
ARC
  5
94E
  8
DATA
  6
CONTINUOUS
 62
     7
 10
339.5
 20
-278.99999999999972
 30
0.0
 40
18.74999999999984
 50
105.0000000000004
 51
135.00000000000051
  0
ARC
  5
94F
  8
DATA
  6
CONTINUOUS
 62
     7
 10
328.18629150101839
 20
-267.68629150101839
 30
0.0
 40
2.7500000000043232
 50
135.0
 51
315.00013168334158
  0
ARC
  5
950
  8
DATA
  6
CONTINUOUS
 62
     7
 10
335.35889527836082
 20
-263.54518677937921
 30
0.0
 40
2.750000000004436
 50
284.99986819770129
 51
104.9999999999992
  0
CIRCLE
  5
951
  8
DATA
  6
CONTINUOUS
 62
     7
 10
306.0
 20
-272.0
 30
0.0
 40
3.500000000000091
  0
POLYLINE
  5
952
  8
DATA
  6
CONTINUOUS
 62
     7
 66
     1
 10
0.0
 20
0.0
 30
0.0
  0
VERTEX
  5
CD6
  8
DATA
  6
CONTINUOUS
 62
     7
 10
306.5
 20
-272.5
 30
0.0
  0
VERTEX
  5
CD7
  8
DATA
  6
CONTINUOUS
 62
     7
 10
308.0
 20
-272.5
 30
0.0
  0
VERTEX
  5
CD8
  8
DATA
  6
CONTINUOUS
 62
     7
 10
308.0
 20
-271.5
 30
0.0
  0
VERTEX
  5
CD9
  8
DATA
  6
CONTINUOUS
 62
     7
 10
306.5
 20
-271.5
 30
0.0
  0
SEQEND
  5
CDA
  8
DATA
  6
CONTINUOUS
 62
     7
  0
POLYLINE
  5
959
  8
DATA
  6
CONTINUOUS
 62
     7
 66
     1
 10
0.0
 20
0.0
 30
0.0
  0
VERTEX
  5
CDB
  8
DATA
  6
CONTINUOUS
 62
     7
 10
305.5
 20
-272.5
 30
0.0
  0
VERTEX
  5
CDC
  8
DATA
  6
CONTINUOUS
 62
     7
 10
304.0
 20
-272.5
 30
0.0
  0
VERTEX
  5
CDD
  8
DATA
  6
CONTINUOUS
 62
     7
 10
304.0
 20
-271.5
 30
0.0
  0
VERTEX
  5
CDE
  8
DATA
  6
CONTINUOUS
 62
     7
 10
305.5
 20
-271.5
 30
0.0
  0
SEQEND
  5
CDF
  8
DATA
  6
CONTINUOUS
 62
     7
  0
POLYLINE
  5
960
  8
DATA
  6
CONTINUOUS
 62
     7
 66
     1
 10
0.0
 20
0.0
 30
0.0
  0
VERTEX
  5
CE0
  8
DATA
  6
CONTINUOUS
 62
     7
 10
305.5
 20
-272.5
 30
0.0
  0
VERTEX
  5
CE1
  8
DATA
  6
CONTINUOUS
 62
     7
 10
305.5
 20
-274.0
 30
0.0
  0
VERTEX
  5
CE2
  8
DATA
  6
CONTINUOUS
 62
     7
 10
306.5
 20
-274.0
 30
0.0
  0
VERTEX
  5
CE3
  8
DATA
  6
CONTINUOUS
 62
     7
 10
306.5
 20
-272.5
 30
0.0
  0
SEQEND
  5
CE4
  8
DATA
  6
CONTINUOUS
 62
     7
  0
POLYLINE
  5
967
  8
DATA
  6
CONTINUOUS
 62
     7
 66
     1
 10
0.0
 20
0.0
 30
0.0
  0
VERTEX
  5
CE5
  8
DATA
  6
CONTINUOUS
 62
     7
 10
305.5
 20
-271.5
 30
0.0
  0
VERTEX
  5
CE6
  8
DATA
  6
CONTINUOUS
 62
     7
 10
305.5
 20
-270.0
 30
0.0
  0
VERTEX
  5
CE7
  8
DATA
  6
CONTINUOUS
 62
     7
 10
306.5
 20
-270.0
 30
0.0
  0
VERTEX
  5
CE8
  8
DATA
  6
CONTINUOUS
 62
     7
 10
306.5
 20
-271.5
 30
0.0
  0
SEQEND
  5
CE9
  8
DATA
  6
CONTINUOUS
 62
     7
  0
CIRCLE
  5
96E
  8
DATA
  6
CONTINUOUS
 62
     7
 10
306.0
 20
-272.0
 30
0.0
 40
2.9999999999999831
  0
CIRCLE
  5
96F
  8
DATA
  6
CONTINUOUS
 62
     7
 10
306.0
 20
-289.0
 30
0.0
 40
3.500000000000091
  0
POLYLINE
  5
970
  8
DATA
  6
CONTINUOUS
 62
     7
 66
     1
 10
0.0
 20
0.0
 30
0.0
  0
VERTEX
  5
CEA
  8
DATA
  6
CONTINUOUS
 62
     7
 10
306.5
 20
-289.5
 30
0.0
  0
VERTEX
  5
CEB
  8
DATA
  6
CONTINUOUS
 62
     7
 10
308.0
 20
-289.5
 30
0.0
  0
VERTEX
  5
CEC
  8
DATA
  6
CONTINUOUS
 62
     7
 10
308.0
 20
-288.5
 30
0.0
  0
VERTEX
  5
CED
  8
DATA
  6
CONTINUOUS
 62
     7
 10
306.5
 20
-288.5
 30
0.0
  0
SEQEND
  5
CEE
  8
DATA
  6
CONTINUOUS
 62
     7
  0
POLYLINE
  5
977
  8
DATA
  6
CONTINUOUS
 62
     7
 66
     1
 10
0.0
 20
0.0
 30
0.0
  0
VERTEX
  5
CEF
  8
DATA
  6
CONTINUOUS
 62
     7
 10
305.5
 20
-289.5
 30
0.0
  0
VERTEX
  5
CF0
  8
DATA
  6
CONTINUOUS
 62
     7
 10
304.0
 20
-289.5
 30
0.0
  0
VERTEX
  5
CF1
  8
DATA
  6
CONTINUOUS
 62
     7
 10
304.0
 20
-288.5
 30
0.0
  0
VERTEX
  5
CF2
  8
DATA
  6
CONTINUOUS
 62
     7
 10
305.5
 20
-288.5
 30
0.0
  0
SEQEND
  5
CF3
  8
DATA
  6
CONTINUOUS
 62
     7
  0
POLYLINE
  5
97E
  8
DATA
  6
CONTINUOUS
 62
     7
 66
     1
 10
0.0
 20
0.0
 30
0.0
  0
VERTEX
  5
CF4
  8
DATA
  6
CONTINUOUS
 62
     7
 10
305.5
 20
-289.5
 30
0.0
  0
VERTEX
  5
CF5
  8
DATA
  6
CONTINUOUS
 62
     7
 10
305.5
 20
-291.0
 30
0.0
  0
VERTEX
  5
CF6
  8
DATA
  6
CONTINUOUS
 62
     7
 10
306.5
 20
-291.0
 30
0.0
  0
VERTEX
  5
CF7
  8
DATA
  6
CONTINUOUS
 62
     7
 10
306.5
 20
-289.5
 30
0.0
  0
SEQEND
  5
CF8
  8
DATA
  6
CONTINUOUS
 62
     7
  0
POLYLINE
  5
985
  8
DATA
  6
CONTINUOUS
 62
     7
 66
     1
 10
0.0
 20
0.0
 30
0.0
  0
VERTEX
  5
CF9
  8
DATA
  6
CONTINUOUS
 62
     7
 10
305.5
 20
-288.5
 30
0.0
  0
VERTEX
  5
CFA
  8
DATA
  6
CONTINUOUS
 62
     7
 10
305.5
 20
-287.0
 30
0.0
  0
VERTEX
  5
CFB
  8
DATA
  6
CONTINUOUS
 62
     7
 10
306.5
 20
-287.0
 30
0.0
  0
VERTEX
  5
CFC
  8
DATA
  6
CONTINUOUS
 62
     7
 10
306.5
 20
-288.5
 30
0.0
  0
SEQEND
  5
CFD
  8
DATA
  6
CONTINUOUS
 62
     7
  0
CIRCLE
  5
98C
  8
DATA
  6
CONTINUOUS
 62
     7
 10
306.0
 20
-289.0
 30
0.0
 40
2.9999999999999831
  0
CIRCLE
  5
98D
  8
DATA
  6
CONTINUOUS
 62
     7
 10
316.0
 20
-264.5
 30
0.0
 40
3.500000000000091
  0
POLYLINE
  5
98E
  8
DATA
  6
CONTINUOUS
 62
     7
 66
     1
 10
0.0
 20
0.0
 30
0.0
  0
VERTEX
  5
CFE
  8
DATA
  6
CONTINUOUS
 62
     7
 10
316.5
 20
-265.0
 30
0.0
  0
VERTEX
  5
CFF
  8
DATA
  6
CONTINUOUS
 62
     7
 10
318.0
 20
-265.0
 30
0.0
  0
VERTEX
  5
D00
  8
DATA
  6
CONTINUOUS
 62
     7
 10
318.0
 20
-264.0
 30
0.0
  0
VERTEX
  5
D01
  8
DATA
  6
CONTINUOUS
 62
     7
 10
316.5
 20
-264.0
 30
0.0
  0
SEQEND
  5
D02
  8
DATA
  6
CONTINUOUS
 62
     7
  0
POLYLINE
  5
995
  8
DATA
  6
CONTINUOUS
 62
     7
 66
     1
 10
0.0
 20
0.0
 30
0.0
  0
VERTEX
  5
D03
  8
DATA
  6
CONTINUOUS
 62
     7
 10
315.5
 20
-265.0
 30
0.0
  0
VERTEX
  5
D04
  8
DATA
  6
CONTINUOUS
 62
     7
 10
314.0
 20
-265.0
 30
0.0
  0
VERTEX
  5
D05
  8
DATA
  6
CONTINUOUS
 62
     7
 10
314.0
 20
-264.0
 30
0.0
  0
VERTEX
  5
D06
  8
DATA
  6
CONTINUOUS
 62
     7
 10
315.5
 20
-264.0
 30
0.0
  0
SEQEND
  5
D07
  8
DATA
  6
CONTINUOUS
 62
     7
  0
POLYLINE
  5
99C
  8
DATA
  6
CONTINUOUS
 62
     7
 66
     1
 10
0.0
 20
0.0
 30
0.0
  0
VERTEX
  5
D08
  8
DATA
  6
CONTINUOUS
 62
     7
 10
315.5
 20
-265.0
 30
0.0
  0
VERTEX
  5
D09
  8
DATA
  6
CONTINUOUS
 62
     7
 10
315.5
 20
-266.5
 30
0.0
  0
VERTEX
  5
D0A
  8
DATA
  6
CONTINUOUS
 62
     7
 10
316.5
 20
-266.5
 30
0.0
  0
VERTEX
  5
D0B
  8
DATA
  6
CONTINUOUS
 62
     7
 10
316.5
 20
-265.0
 30
0.0
  0
SEQEND
  5
D0C
  8
DATA
  6
CONTINUOUS
 62
     7
  0
POLYLINE
  5
9A3
  8
DATA
  6
CONTINUOUS
 62
     7
 66
     1
 10
0.0
 20
0.0
 30
0.0
  0
VERTEX
  5
D0D
  8
DATA
  6
CONTINUOUS
 62
     7
 10
315.5
 20
-264.0
 30
0.0
  0
VERTEX
  5
D0E
  8
DATA
  6
CONTINUOUS
 62
     7
 10
315.5
 20
-262.5
 30
0.0
  0
VERTEX
  5
D0F
  8
DATA
  6
CONTINUOUS
 62
     7
 10
316.5
 20
-262.5
 30
0.0
  0
VERTEX
  5
D10
  8
DATA
  6
CONTINUOUS
 62
     7
 10
316.5
 20
-264.0
 30
0.0
  0
SEQEND
  5
D11
  8
DATA
  6
CONTINUOUS
 62
     7
  0
CIRCLE
  5
9AA
  8
DATA
  6
CONTINUOUS
 62
     7
 10
316.0
 20
-264.5
 30
0.0
 40
2.9999999999999831
  0
CIRCLE
  5
9AB
  8
DATA
  6
CONTINUOUS
 62
     7
 10
493.0
 20
-264.5
 30
0.0
 40
3.500000000000091
  0
POLYLINE
  5
9AC
  8
DATA
  6
CONTINUOUS
 62
     7
 66
     1
 10
0.0
 20
0.0
 30
0.0
  0
VERTEX
  5
D12
  8
DATA
  6
CONTINUOUS
 62
     7
 10
493.5
 20
-265.0
 30
0.0
  0
VERTEX
  5
D13
  8
DATA
  6
CONTINUOUS
 62
     7
 10
495.0
 20
-265.0
 30
0.0
  0
VERTEX
  5
D14
  8
DATA
  6
CONTINUOUS
 62
     7
 10
495.0
 20
-264.0
 30
0.0
  0
VERTEX
  5
D15
  8
DATA
  6
CONTINUOUS
 62
     7
 10
493.5
 20
-264.0
 30
0.0
  0
SEQEND
  5
D16
  8
DATA
  6
CONTINUOUS
 62
     7
  0
POLYLINE
  5
9B3
  8
DATA
  6
CONTINUOUS
 62
     7
 66
     1
 10
0.0
 20
0.0
 30
0.0
  0
VERTEX
  5
D17
  8
DATA
  6
CONTINUOUS
 62
     7
 10
492.49999999999989
 20
-265.0
 30
0.0
  0
VERTEX
  5
D18
  8
DATA
  6
CONTINUOUS
 62
     7
 10
491.0
 20
-265.0
 30
0.0
  0
VERTEX
  5
D19
  8
DATA
  6
CONTINUOUS
 62
     7
 10
491.0
 20
-264.0
 30
0.0
  0
VERTEX
  5
D1A
  8
DATA
  6
CONTINUOUS
 62
     7
 10
492.49999999999989
 20
-264.0
 30
0.0
  0
SEQEND
  5
D1B
  8
DATA
  6
CONTINUOUS
 62
     7
  0
POLYLINE
  5
9BA
  8
DATA
  6
CONTINUOUS
 62
     7
 66
     1
 10
0.0
 20
0.0
 30
0.0
  0
VERTEX
  5
D1C
  8
DATA
  6
CONTINUOUS
 62
     7
 10
492.49999999999989
 20
-265.0
 30
0.0
  0
VERTEX
  5
D1D
  8
DATA
  6
CONTINUOUS
 62
     7
 10
492.49999999999989
 20
-266.5
 30
0.0
  0
VERTEX
  5
D1E
  8
DATA
  6
CONTINUOUS
 62
     7
 10
493.5
 20
-266.5
 30
0.0
  0
VERTEX
  5
D1F
  8
DATA
  6
CONTINUOUS
 62
     7
 10
493.5
 20
-265.0
 30
0.0
  0
SEQEND
  5
D20
  8
DATA
  6
CONTINUOUS
 62
     7
  0
POLYLINE
  5
9C1
  8
DATA
  6
CONTINUOUS
 62
     7
 66
     1
 10
0.0
 20
0.0
 30
0.0
  0
VERTEX
  5
D21
  8
DATA
  6
CONTINUOUS
 62
     7
 10
492.49999999999989
 20
-264.0
 30
0.0
  0
VERTEX
  5
D22
  8
DATA
  6
CONTINUOUS
 62
     7
 10
492.49999999999989
 20
-262.5
 30
0.0
  0
VERTEX
  5
D23
  8
DATA
  6
CONTINUOUS
 62
     7
 10
493.5
 20
-262.5
 30
0.0
  0
VERTEX
  5
D24
  8
DATA
  6
CONTINUOUS
 62
     7
 10
493.5
 20
-264.0
 30
0.0
  0
SEQEND
  5
D25
  8
DATA
  6
CONTINUOUS
 62
     7
  0
CIRCLE
  5
9C8
  8
DATA
  6
CONTINUOUS
 62
     7
 10
493.0
 20
-264.5
 30
0.0
 40
2.9999999999999831
  0
LINE
  5
9C9
  8
DATA
  6
CONTINUOUS
 62
     7
 10
528.5
 20
-280.5
 30
0.0
 11
527.0
 21
-280.5
 31
0.0
  0
LINE
  5
9CA
  8
DATA
  6
CONTINUOUS
 62
     7
 10
528.5
 20
-275.5
 30
0.0
 11
527.0
 21
-275.5
 31
0.0
  0
ARC
  5
9CB
  8
DATA
  6
CONTINUOUS
 62
     7
 10
522.5
 20
-278.0
 30
0.0
 40
6.5
 50
337.3801350519596
 51
22.619864948040409
  0
LINE
  5
9CC
  8
DATA
  6
CONTINUOUS
 62
     7
 10
529.0
 20
-293.0
 30
0.0
 11
527.0
 21
-293.0
 31
0.0
  0
LINE
  5
9CD
  8
DATA
  6
CONTINUOUS
 62
     7
 10
529.0
 20
-280.0
 30
0.0
 11
528.68465843842966
 21
-280.0
 31
0.0
  0
LINE
  5
9CE
  8
DATA
  6
CONTINUOUS
 62
     7
 10
529.0
 20
-280.0
 30
0.0
 11
529.0
 21
-293.0
 31
0.0
  0
LINE
  5
9CF
  8
DATA
  6
CONTINUOUS
 62
     7
 10
529.49999999999989
 20
-291.5
 30
0.0
 11
529.0
 21
-291.5
 31
0.0
  0
LINE
  5
9D0
  8
DATA
  6
CONTINUOUS
 62
     7
 10
529.49999999999989
 20
-285.5
 30
0.0
 11
529.0
 21
-285.5
 31
0.0
  0
ARC
  5
9D1
  8
DATA
  6
CONTINUOUS
 62
     7
 10
520.75
 20
-288.5
 30
0.0
 40
9.25
 50
341.07535558394881
 51
18.924644416051251
  0
LINE
  5
9D2
  8
DATA
  6
CONTINUOUS
 62
     7
 10
531.5
 20
-289.81373606038659
 30
0.0
 11
529.90623271677009
 21
-289.81373606038659
 31
0.0
  0
LINE
  5
9D3
  8
DATA
  6
CONTINUOUS
 62
     7
 10
531.5
 20
-284.1862639396133
 30
0.0
 11
529.0
 21
-284.1862639396133
 31
0.0
  0
LINE
  5
9D4
  8
DATA
  6
CONTINUOUS
 62
     7
 10
531.5
 20
-284.1862639396133
 30
0.0
 11
531.5
 21
-289.81373606038659
 31
0.0
  0
LINE
  5
9D5
  8
DATA
  6
CONTINUOUS
 62
     7
 10
531.5
 20
-285.59313196980668
 30
0.0
 11
529.53137906339452
 21
-285.59313196980668
 31
0.0
  0
LINE
  5
9D6
  8
DATA
  6
CONTINUOUS
 62
     7
 10
531.5
 20
-288.40686803019332
 30
0.0
 11
529.99953114683058
 21
-288.40686803019332
 31
0.0
  0
LINE
  5
9D7
  8
DATA
  6
CONTINUOUS
 62
     7
 10
531.5
 20
-282.39999999999998
 30
0.0
 11
529.0
 21
-282.39999999999998
 31
0.0
  0
LINE
  5
9D8
  8
DATA
  6
CONTINUOUS
 62
     7
 10
531.5
 20
-291.69999999999999
 30
0.0
 11
529.0
 21
-291.69999999999999
 31
0.0
  0
LINE
  5
9D9
  8
DATA
  6
CONTINUOUS
 62
     7
 10
531.5
 20
-282.39999999999998
 30
0.0
 11
531.5
 21
-291.69999999999999
 31
0.0
  0
LINE
  5
9DA
  8
DATA
  6
CONTINUOUS
 62
     7
 10
537.5
 20
-289.25
 30
0.0
 11
531.5
 21
-289.25
 31
0.0
  0
LINE
  5
9DB
  8
DATA
  6
CONTINUOUS
 62
     7
 10
537.5
 20
-279.75
 30
0.0
 11
528.7599920127775
 21
-279.75
 31
0.0
  0
LINE
  5
9DC
  8
DATA
  6
CONTINUOUS
 62
     7
 10
537.5
 20
-262.75
 30
0.0
 11
537.5
 21
-272.25
 31
0.0
  0
LINE
  5
9DD
  8
DATA
  6
CONTINUOUS
 62
     7
 10
537.5
 20
-279.75
 30
0.0
 11
537.5
 21
-289.25
 31
0.0
  0
CIRCLE
  5
9DE
  8
DATA
  6
CONTINUOUS
 62
     7
 10
533.49999999999989
 20
-284.5
 30
0.0
 40
1.0
  0
LINE
  5
9DF
  8
DATA
  6
CONTINUOUS
 62
     7
 10
537.5
 20
-272.25
 30
0.0
 11
527.0
 21
-272.25
 31
0.0
  0
LINE
  5
9E0
  8
DATA
  6
CONTINUOUS
 62
     7
 10
537.5
 20
-262.75
 30
0.0
 11
527.0
 21
-262.75
 31
0.0
  0
CIRCLE
  5
9E1
  8
DATA
  6
CONTINUOUS
 62
     7
 10
533.49999999999989
 20
-267.5
 30
0.0
 40
1.0
  0
LINE
  5
9E2
  8
DATA
  6
CONTINUOUS
 62
     7
 10
540.5
 20
-292.5
 30
0.0
 11
529.0
 21
-292.5
 31
0.0
  0
LINE
  5
9E3
  8
DATA
  6
CONTINUOUS
 62
     7
 10
540.5
 20
-292.5
 30
0.0
 11
540.5
 21
-283.0
 31
0.0
  0
LINE
  5
9E4
  8
DATA
  6
CONTINUOUS
 62
     7
 10
540.5
 20
-283.0
 30
0.0
 11
538.49999999999989
 21
-283.0
 31
0.0
  0
LINE
  5
9E5
  8
DATA
  6
CONTINUOUS
 62
     7
 10
538.49999999999989
 20
-283.0
 30
0.0
 11
538.49999999999989
 21
-280.0
 31
0.0
  0
LINE
  5
9E6
  8
DATA
  6
CONTINUOUS
 62
     7
 10
538.49999999999989
 20
-280.0
 30
0.0
 11
537.5
 21
-280.0
 31
0.0
  0
LINE
  5
9E7
  8
DATA
  6
CONTINUOUS
 62
     7
 10
531.5
 20
-292.5
 30
0.0
 11
531.5
 21
-279.75
 31
0.0
  0
LINE
  5
9E8
  8
DATA
  6
CONTINUOUS
 62
     7
 10
540.5
 20
-272.5
 30
0.0
 11
527.0
 21
-272.5
 31
0.0
  0
LINE
  5
9E9
  8
DATA
  6
CONTINUOUS
 62
     7
 10
540.5
 20
-272.5
 30
0.0
 11
540.5
 21
-263.0
 31
0.0
  0
LINE
  5
9EA
  8
DATA
  6
CONTINUOUS
 62
     7
 10
540.5
 20
-263.0
 30
0.0
 11
538.49999999999989
 21
-263.0
 31
0.0
  0
LINE
  5
9EB
  8
DATA
  6
CONTINUOUS
 62
     7
 10
538.49999999999989
 20
-263.0
 30
0.0
 11
538.49999999999989
 21
-260.0
 31
0.0
  0
LINE
  5
9EC
  8
DATA
  6
CONTINUOUS
 62
     7
 10
538.49999999999989
 20
-260.0
 30
0.0
 11
531.5
 21
-260.0
 31
0.0
  0
LINE
  5
9ED
  8
DATA
  6
CONTINUOUS
 62
     7
 10
531.5
 20
-260.0
 30
0.0
 11
531.5
 21
-262.0
 31
0.0
  0
LINE
  5
9EE
  8
DATA
  6
CONTINUOUS
 62
     7
 10
531.5
 20
-262.0
 30
0.0
 11
529.49999999999989
 21
-262.0
 31
0.0
  0
LINE
  5
9EF
  8
DATA
  6
CONTINUOUS
 62
     7
 10
529.49999999999989
 20
-262.0
 30
0.0
 11
528.75
 21
-262.75
 31
0.0
  0
LINE
  5
9F0
  8
DATA
  6
CONTINUOUS
 62
     7
 10
540.5
 20
-274.98756487831071
 30
0.0
 11
527.0
 21
-274.98756487831071
 31
0.0
  0
LINE
  5
9F1
  8
DATA
  6
CONTINUOUS
 62
     7
 10
540.5
 20
-272.5
 30
0.0
 11
540.5
 21
-274.98756487831071
 31
0.0
  0
CIRCLE
  5
9F2
  8
DATA
  6
CONTINUOUS
 62
     7
 10
323.0
 20
-294.5
 30
0.0
 40
3.999999999999992
  0
POLYLINE
  5
9F3
  8
DATA
  6
CONTINUOUS
 62
     7
 66
     1
 10
0.0
 20
0.0
 30
0.0
  0
VERTEX
  5
D26
  8
DATA
  6
CONTINUOUS
 62
     7
 10
323.5
 20
-295.0
 30
0.0
  0
VERTEX
  5
D27
  8
DATA
  6
CONTINUOUS
 62
     7
 10
325.0
 20
-295.0
 30
0.0
  0
VERTEX
  5
D28
  8
DATA
  6
CONTINUOUS
 62
     7
 10
325.0
 20
-294.0
 30
0.0
  0
VERTEX
  5
D29
  8
DATA
  6
CONTINUOUS
 62
     7
 10
323.5
 20
-294.0
 30
0.0
  0
SEQEND
  5
D2A
  8
DATA
  6
CONTINUOUS
 62
     7
  0
POLYLINE
  5
9FA
  8
DATA
  6
CONTINUOUS
 62
     7
 66
     1
 10
0.0
 20
0.0
 30
0.0
  0
VERTEX
  5
D2B
  8
DATA
  6
CONTINUOUS
 62
     7
 10
322.5
 20
-295.0
 30
0.0
  0
VERTEX
  5
D2C
  8
DATA
  6
CONTINUOUS
 62
     7
 10
321.0
 20
-295.0
 30
0.0
  0
VERTEX
  5
D2D
  8
DATA
  6
CONTINUOUS
 62
     7
 10
321.0
 20
-294.0
 30
0.0
  0
VERTEX
  5
D2E
  8
DATA
  6
CONTINUOUS
 62
     7
 10
322.5
 20
-294.0
 30
0.0
  0
SEQEND
  5
D2F
  8
DATA
  6
CONTINUOUS
 62
     7
  0
POLYLINE
  5
A01
  8
DATA
  6
CONTINUOUS
 62
     7
 66
     1
 10
0.0
 20
0.0
 30
0.0
  0
VERTEX
  5
D30
  8
DATA
  6
CONTINUOUS
 62
     7
 10
322.5
 20
-295.0
 30
0.0
  0
VERTEX
  5
D31
  8
DATA
  6
CONTINUOUS
 62
     7
 10
322.5
 20
-296.5
 30
0.0
  0
VERTEX
  5
D32
  8
DATA
  6
CONTINUOUS
 62
     7
 10
323.5
 20
-296.5
 30
0.0
  0
VERTEX
  5
D33
  8
DATA
  6
CONTINUOUS
 62
     7
 10
323.5
 20
-295.0
 30
0.0
  0
SEQEND
  5
D34
  8
DATA
  6
CONTINUOUS
 62
     7
  0
POLYLINE
  5
A08
  8
DATA
  6
CONTINUOUS
 62
     7
 66
     1
 10
0.0
 20
0.0
 30
0.0
  0
VERTEX
  5
D35
  8
DATA
  6
CONTINUOUS
 62
     7
 10
322.5
 20
-294.0
 30
0.0
  0
VERTEX
  5
D36
  8
DATA
  6
CONTINUOUS
 62
     7
 10
322.5
 20
-292.5
 30
0.0
  0
VERTEX
  5
D37
  8
DATA
  6
CONTINUOUS
 62
     7
 10
323.5
 20
-292.5
 30
0.0
  0
VERTEX
  5
D38
  8
DATA
  6
CONTINUOUS
 62
     7
 10
323.5
 20
-294.0
 30
0.0
  0
SEQEND
  5
D39
  8
DATA
  6
CONTINUOUS
 62
     7
  0
CIRCLE
  5
A0F
  8
DATA
  6
CONTINUOUS
 62
     7
 10
356.0
 20
-294.5
 30
0.0
 40
3.999999999999992
  0
POLYLINE
  5
A10
  8
DATA
  6
CONTINUOUS
 62
     7
 66
     1
 10
0.0
 20
0.0
 30
0.0
  0
VERTEX
  5
D3A
  8
DATA
  6
CONTINUOUS
 62
     7
 10
356.5
 20
-295.0
 30
0.0
  0
VERTEX
  5
D3B
  8
DATA
  6
CONTINUOUS
 62
     7
 10
358.0
 20
-295.0
 30
0.0
  0
VERTEX
  5
D3C
  8
DATA
  6
CONTINUOUS
 62
     7
 10
358.0
 20
-294.0
 30
0.0
  0
VERTEX
  5
D3D
  8
DATA
  6
CONTINUOUS
 62
     7
 10
356.5
 20
-294.0
 30
0.0
  0
SEQEND
  5
D3E
  8
DATA
  6
CONTINUOUS
 62
     7
  0
POLYLINE
  5
A17
  8
DATA
  6
CONTINUOUS
 62
     7
 66
     1
 10
0.0
 20
0.0
 30
0.0
  0
VERTEX
  5
D3F
  8
DATA
  6
CONTINUOUS
 62
     7
 10
355.5
 20
-295.0
 30
0.0
  0
VERTEX
  5
D40
  8
DATA
  6
CONTINUOUS
 62
     7
 10
354.0
 20
-295.0
 30
0.0
  0
VERTEX
  5
D41
  8
DATA
  6
CONTINUOUS
 62
     7
 10
354.0
 20
-294.0
 30
0.0
  0
VERTEX
  5
D42
  8
DATA
  6
CONTINUOUS
 62
     7
 10
355.5
 20
-294.0
 30
0.0
  0
SEQEND
  5
D43
  8
DATA
  6
CONTINUOUS
 62
     7
  0
POLYLINE
  5
A1E
  8
DATA
  6
CONTINUOUS
 62
     7
 66
     1
 10
0.0
 20
0.0
 30
0.0
  0
VERTEX
  5
D44
  8
DATA
  6
CONTINUOUS
 62
     7
 10
355.5
 20
-295.0
 30
0.0
  0
VERTEX
  5
D45
  8
DATA
  6
CONTINUOUS
 62
     7
 10
355.5
 20
-296.5
 30
0.0
  0
VERTEX
  5
D46
  8
DATA
  6
CONTINUOUS
 62
     7
 10
356.5
 20
-296.5
 30
0.0
  0
VERTEX
  5
D47
  8
DATA
  6
CONTINUOUS
 62
     7
 10
356.5
 20
-295.0
 30
0.0
  0
SEQEND
  5
D48
  8
DATA
  6
CONTINUOUS
 62
     7
  0
POLYLINE
  5
A25
  8
DATA
  6
CONTINUOUS
 62
     7
 66
     1
 10
0.0
 20
0.0
 30
0.0
  0
VERTEX
  5
D49
  8
DATA
  6
CONTINUOUS
 62
     7
 10
355.5
 20
-294.0
 30
0.0
  0
VERTEX
  5
D4A
  8
DATA
  6
CONTINUOUS
 62
     7
 10
355.5
 20
-292.5
 30
0.0
  0
VERTEX
  5
D4B
  8
DATA
  6
CONTINUOUS
 62
     7
 10
356.5
 20
-292.5
 30
0.0
  0
VERTEX
  5
D4C
  8
DATA
  6
CONTINUOUS
 62
     7
 10
356.5
 20
-294.0
 30
0.0
  0
SEQEND
  5
D4D
  8
DATA
  6
CONTINUOUS
 62
     7
  0
TEXT
  5
A2C
  8
DATA
 62
     7
 10
190.6750000000001
 20
191.08000000000001
 30
0.0
 40
2.30859375
  1
100-240VAC～50/60Hz 40W
 50
180.0
 41
0.7
 11
190.6750000000001
 21
188.77140625000001
 31
0.0
 73
     3
  0
TEXT
  5
A2D
  8
DATA
 62
     7
 10
9.300000000000054
 20
174.46000000000001
 30
0.0
 40
2.693359375
  1
C
 50
180.0
 41
0.7
 11
9.300000000000054
 21
171.76664062500001
 31
0.0
 73
     3
  0
TEXT
  5
A2E
  8
DATA
 62
     7
 10
14.17500000000005
 20
174.46000000000001
 30
0.0
 40
2.693359375
  1
C
 50
180.0
 41
0.7
 11
14.17500000000005
 21
171.76664062500001
 31
0.0
 73
     3
  0
TEXT
  5
A2F
  8
DATA
 62
     7
 10
-5.655729166666573
 20
174.46000000000001
 30
0.0
 40
2.693359375
  1
1
 50
180.0
 41
0.7
 11
-5.6557291666665739
 21
171.76664062500001
 31
0.0
 73
     3
  0
TEXT
  5
A30
  8
DATA
 62
     7
 10
350.0
 20
-440.2182899999998
 30
0.0
 40
12.21630859375
  1
BLU-16
 41
0.7
 11
350.0
 21
-428.00198140624991
 31
0.0
 73
     3
  0
TEXT
  5
A31
  8
DATA
 62
     7
 10
350.0
 20
-403.9682899999998
 30
0.0
 40
12.21630859375
  1
BSS
 41
0.7
 11
350.0
 21
-391.75198140624991
 31
0.0
 73
     3
  0
TEXT
  5
A32
  8
DATA
 62
     7
 10
337.5
 20
-421.98806499999978
 30
0.0
 40
9.5015733506944464
  1
Soundweb London
 41
0.7
 11
337.5
 21
-412.48649164930538
 31
0.0
 73
     3
  0
ENDSEC
  0
EOF
