  0
SECTION
  2
HEADER
  9
$ACADVER
  1
AC1009
  9
$INSBASE
 10
0.0
 20
0.0
 30
0.0
  9
$EXTMIN
 10
-80.027463724868767
 20
-238.10956819777809
 30
-0.0015258207003583
  9
$EXTMAX
 10
820.02746791582013
 20
1100.040753785041
 30
0.0000000349246037
  9
$LIMMIN
 10
0.0
 20
0.0
  9
$LIMMAX
 10
0.0
 20
0.0
  9
$ORTHOMODE
 70
     0
  9
$REGENMODE
 70
     1
  9
$FILLMODE
 70
     1
  9
$QTEXTMODE
 70
     0
  9
$MIRRTEXT
 70
     1
  9
$DRAGMODE
 70
     2
  9
$LTSCALE
 40
25.399999999999999
  9
$OSMODE
 70
   167
  9
$ATTMODE
 70
     1
  9
$TEXTSIZE
 40
0.0
  9
$TRACEWID
 40
1.0
  9
$TEXTSTYLE
  7
STANDARD
  9
$CLAYER
  8
DATA
  9
$CELTYPE
  6
CONTINUOUS
  9
$CECOLOR
 62
   256
  9
$DIMSCALE
 40
1.0
  9
$DIMASZ
 40
0.18
  9
$DIMEXO
 40
0.0625
  9
$DIMDLI
 40
0.38
  9
$DIMRND
 40
0.0
  9
$DIMDLE
 40
0.0
  9
$DIMEXE
 40
0.18
  9
$DIMTP
 40
0.0
  9
$DIMTM
 40
0.0
  9
$DIMTXT
 40
0.18
  9
$DIMCEN
 40
0.09
  9
$DIMTSZ
 40
0.0
  9
$DIMTOL
 70
     0
  9
$DIMLIM
 70
     0
  9
$DIMTIH
 70
     1
  9
$DIMTOH
 70
     1
  9
$DIMSE1
 70
     0
  9
$DIMSE2
 70
     0
  9
$DIMTAD
 70
     0
  9
$DIMZIN
 70
     0
  9
$DIMBLK
  1

  9
$DIMASO
 70
     1
  9
$DIMSHO
 70
     1
  9
$DIMPOST
  1

  9
$DIMAPOST
  1

  9
$DIMALT
 70
     0
  9
$DIMALTD
 70
     2
  9
$DIMALTF
 40
25.399999999999999
  9
$DIMLFAC
 40
1.0
  9
$DIMTOFL
 70
     0
  9
$DIMTVP
 40
0.0
  9
$DIMTIX
 70
     0
  9
$DIMSOXD
 70
     0
  9
$DIMSAH
 70
     0
  9
$DIMBLK1
  1

  9
$DIMBLK2
  1

  9
$DIMSTYLE
  2
STANDARD
  9
$DIMCLRD
 70
     0
  9
$DIMCLRE
 70
     0
  9
$DIMCLRT
 70
     0
  9
$DIMTFAC
 40
1.0
  9
$DIMGAP
 40
0.09
  9
$LUNITS
 70
     2
  9
$LUPREC
 70
     4
  9
$SKETCHINC
 40
0.1
  9
$FILLETRAD
 40
0.0
  9
$AUNITS
 70
     0
  9
$AUPREC
 70
     0
  9
$MENU
  1
acad
  9
$ELEVATION
 40
0.0
  9
$PELEVATION
 40
0.0
  9
$THICKNESS
 40
0.0
  9
$LIMCHECK
 70
     0
  9
$BLIPMODE
 70
     0
  9
$CHAMFERA
 40
0.0
  9
$CHAMFERB
 40
0.0
  9
$SKPOLY
 70
     0
  9
$TDCREATE
 40
2453256.7232986111
  9
$TDUPDATE
 40
2453256.7241956019
  9
$TDINDWG
 40
0.0002443287
  9
$TDUSRTIMER
 40
0.0002441435
  9
$USRTIMER
 70
     1
  9
$ANGBASE
 50
0.0
  9
$ANGDIR
 70
     0
  9
$PDMODE
 70
     1
  9
$PDSIZE
 40
-2.0
  9
$PLINEWID
 40
0.0
  9
$COORDS
 70
     1
  9
$SPLFRAME
 70
     0
  9
$SPLINETYPE
 70
     6
  9
$SPLINESEGS
 70
     8
  9
$ATTDIA
 70
     0
  9
$ATTREQ
 70
     1
  9
$HANDLING
 70
     1
  9
$HANDSEED
  5
CED
  9
$SURFTAB1
 70
     6
  9
$SURFTAB2
 70
     6
  9
$SURFTYPE
 70
     6
  9
$SURFU
 70
     6
  9
$SURFV
 70
     6
  9
$UCSNAME
  2

  9
$UCSORG
 10
0.0
 20
0.0
 30
0.0
  9
$UCSXDIR
 10
1.0
 20
0.0
 30
0.0
  9
$UCSYDIR
 10
0.0
 20
1.0
 30
0.0
  9
$PUCSNAME
  2

  9
$PUCSORG
 10
0.0
 20
0.0
 30
0.0
  9
$PUCSXDIR
 10
1.0
 20
0.0
 30
0.0
  9
$PUCSYDIR
 10
0.0
 20
1.0
 30
0.0
  9
$USERI1
 70
     0
  9
$USERI2
 70
     0
  9
$USERI3
 70
     0
  9
$USERI4
 70
     0
  9
$USERI5
 70
     0
  9
$USERR1
 40
0.0
  9
$USERR2
 40
0.0
  9
$USERR3
 40
0.0
  9
$USERR4
 40
0.0
  9
$USERR5
 40
0.0
  9
$WORLDVIEW
 70
     1
  9
$SHADEDGE
 70
     3
  9
$SHADEDIF
 70
    70
  9
$TILEMODE
 70
     1
  9
$MAXACTVP
 70
    16
  9
$PLIMCHECK
 70
     0
  9
$PEXTMIN
 10
1.0000000000000000E+020
 20
1.0000000000000000E+020
 30
1.0000000000000000E+020
  9
$PEXTMAX
 10
-1.0000000000000000E+020
 20
-1.0000000000000000E+020
 30
-1.0000000000000000E+020
  9
$PLIMMIN
 10
0.0
 20
0.0
  9
$PLIMMAX
 10
12.0
 20
9.0
  9
$UNITMODE
 70
     0
  9
$VISRETAIN
 70
     0
  9
$PLINEGEN
 70
     1
  9
$PSLTSCALE
 70
     0
  0
ENDSEC
  0
SECTION
  2
TABLES
  0
TABLE
  2
VPORT
 70
     2
  0
VPORT
  2
*ACTIVE
 70
     0
 10
0.0
 20
0.0
 11
1.0
 21
1.0
 12
370.00000209547568
 22
430.96559279363152
 13
0.0
 23
0.0
 14
1.0
 24
1.0
 15
0.0
 25
0.0
 16
0.0
 26
0.0
 36
1.0
 17
0.0
 27
0.0
 37
0.0
 40
1348.7846291773851
 41
1.5994694960212199
 42
50.0
 43
0.0
 44
0.0
 50
0.0
 51
0.0
 71
     0
 72
   100
 73
     1
 74
     1
 75
     0
 76
     0
 77
     0
 78
     0
  0
ENDTAB
  0
TABLE
  2
LTYPE
 70
    11
  0
LTYPE
  2
CONTINUOUS
 70
     0
  3
Solid line
 72
    65
 73
     0
 40
0.0
  0
ENDTAB
  0
TABLE
  2
LAYER
 70
     6
  0
LAYER
  2
0
 70
     0
 62
     7
  6
CONTINUOUS
  0
LAYER
  2
DATA
 70
     0
 62
     7
  6
CONTINUOUS
  0
LAYER
  2
DEFPOINTS
 70
     0
 62
     7
  6
CONTINUOUS
  0
LAYER
  2
HIBINO-BASE
 70
     0
 62
     7
  6
CONTINUOUS
  0
LAYER
  2
SPEC
 70
     0
 62
     7
  6
CONTINUOUS
  0
LAYER
  2
DIMNSIONS
 70
     0
 62
     7
  6
CONTINUOUS
  0
ENDTAB
  0
TABLE
  2
STYLE
 70
     2
  0
STYLE
  2
STANDARD
 70
     0
 40
0.0
 41
1.0
 50
0.0
 71
     0
 42
0.0
  3
txt
  4
BIGFONT.SHX
  0
ENDTAB
  0
TABLE
  2
VIEW
 70
     0
  0
ENDTAB
  0
TABLE
  2
UCS
 70
     0
  0
ENDTAB
  0
TABLE
  2
APPID
 70
     1
  0
APPID
  2
ACAD
 70
     0
  0
ENDTAB
  0
TABLE
  2
DIMSTYLE
 70
     1
  0
DIMSTYLE
  2
STANDARD
 70
     0
  3

  4

  5

  6

  7

 40
1.0
 41
0.18
 42
0.0625
 43
0.38
 44
0.18
 45
0.0
 46
0.0
 47
0.0
 48
0.0
140
0.18
141
0.09
142
0.0
143
25.399999999999999
144
1.0
145
0.0
146
1.0
147
0.09
 71
     0
 72
     0
 73
     1
 74
     1
 75
     0
 76
     0
 77
     0
 78
     0
170
     0
171
     2
172
     0
173
     0
174
     0
175
     0
176
     0
177
     0
178
     0
  0
ENDTAB
  0
ENDSEC
  0
SECTION
  2
BLOCKS
  0
BLOCK
  8
0
  2
$MODEL_SPACE
 70
     0
 10
0.0
 20
0.0
 30
0.0
  3
$MODEL_SPACE
  1

  0
ENDBLK
  5
96C
  8
0
  0
BLOCK
 67
     1
  8
0
  2
$PAPER_SPACE
 70
     0
 10
0.0
 20
0.0
 30
0.0
  3
$PAPER_SPACE
  1

  0
ENDBLK
  5
968
 67
     1
  8
0
  0
BLOCK
  8
DATA
  2
*U0
 70
     1
 10
0.0
 20
0.0
 30
0.0
  3
*U0
  1

  0
LINE
  5
2F
  8
0
  6
CONTINUOUS
 62
     7
 10
182.00000000000011
 20
-434.49999999999989
 30
0.0
 11
184.00000000000011
 21
-434.49999999999989
 31
0.0
  0
LINE
  5
30
  8
0
  6
CONTINUOUS
 62
     7
 10
182.00000002107831
 20
-441.53589838486221
 30
0.0
 11
184.00000002107831
 21
-441.53589350756971
 31
0.0
  0
ARC
  5
31
  8
0
  6
CONTINUOUS
 62
     7
 10
187.68782211387031
 20
-438.01794917539138
 30
0.0
 40
6.687846200359937
 50
148.26298165518119
 51
211.73701868811401
  0
ENDBLK
  5
32
  8
DATA
  0
ENDSEC
  0
SECTION
  2
ENTITIES
  0
LINE
  5
33
  8
HIBINO-BASE
  6
CONTINUOUS
 62
     7
 10
-80.0
 20
1100.0
 30
0.0
 11
820.0
 21
1100.0
 31
0.0
  0
LINE
  5
34
  8
HIBINO-BASE
  6
CONTINUOUS
 62
     7
 10
820.0
 20
-200.0
 30
0.0
 11
-80.0
 21
-200.0
 31
0.0
  0
LINE
  5
35
  8
HIBINO-BASE
  6
CONTINUOUS
 62
     7
 10
-80.0
 20
-200.0
 30
0.0
 11
-80.0
 21
1100.0
 31
0.0
  0
TEXT
  5
36
  8
HIBINO-BASE
 62
     7
 10
-44.079999999999977
 20
-232.04338899999991
 30
0.0
 40
18.00022089843749
  1
Hibino Corporation
 41
0.85
 11
-44.079999999999977
 21
-214.0431681015624
 31
0.0
 73
     3
  0
LINE
  5
37
  8
HIBINO-BASE
  6
CONTINUOUS
 62
     7
 10
820.0
 20
1100.0
 30
0.0
 11
820.0
 21
-200.0
 31
0.0
  0
LINE
  5
38
  8
HIBINO-BASE
  6
CONTINUOUS
 62
     7
 10
370.0
 20
-87.499999999999872
 30
0.0
 11
820.0
 21
-87.499999999999872
 31
0.0
  0
LINE
  5
39
  8
HIBINO-BASE
  6
CONTINUOUS
 62
     7
 10
370.0
 20
-200.0
 30
0.0
 11
370.0
 21
-87.499999999999872
 31
0.0
  0
TEXT
  5
3A
  8
HIBINO-BASE
 62
     7
 10
374.5
 20
-100.0434666666665
 30
0.0
 40
8.1442057291666661
  1
NOTE
 41
0.85
 11
374.5
 21
-91.899260937499875
 31
0.0
 73
     3
  0
LINE
  5
3B
  8
HIBINO-BASE
  6
CONTINUOUS
 62
     7
 10
545.0
 20
-200.0
 30
0.0
 11
545.0
 21
-87.499999999999872
 31
0.0
  0
TEXT
  5
3C
  8
HIBINO-BASE
 62
     7
 10
549.5
 20
-100.0434666666665
 30
0.0
 40
8.1442057291666661
  1
TITLE
 41
0.85
 11
549.5
 21
-91.899260937499875
 31
0.0
 73
     3
  0
TEXT
  5
3D
  8
HIBINO-BASE
 62
     7
 10
620.34194999999977
 20
-232.04338899999991
 30
0.0
 40
18.00022089843749
  1
ヒビノ株式会社
 41
0.85
 11
620.34194999999977
 21
-214.0431681015624
 31
0.0
 73
     3
  0
LINE
  5
3E
  8
HIBINO-BASE
  6
CONTINUOUS
 62
     7
 10
370.0
 20
-149.9999999999998
 30
0.0
 11
820.0
 21
-149.9999999999998
 31
0.0
  0
TEXT
  5
3F
  8
HIBINO-BASE
 62
     7
 10
612.0
 20
-162.26186666666649
 30
0.0
 40
8.1442057291666661
  1
DRAWN
 41
0.85
 11
612.0
 21
-154.11766093749981
 31
0.0
 73
     3
  0
TEXT
  5
40
  8
HIBINO-BASE
 62
     7
 10
487.0
 20
-162.26186666666649
 30
0.0
 40
8.1442057291666661
  1
DATE
 41
0.85
 11
487.0
 21
-154.11766093749981
 31
0.0
 73
     3
  0
TEXT
  5
41
  8
HIBINO-BASE
 62
     7
 10
375.5
 20
-163.0972809999999
 30
0.0
 40
8.1442185546874981
  1
図面サイズ
 41
0.85
 11
375.5
 21
-154.95306244531241
 31
0.0
 73
     3
  0
TEXT
  5
42
  8
HIBINO-BASE
 62
     7
 10
437.0
 20
-162.26186666666649
 30
0.0
 40
8.1442057291666661
  1
SCALE
 41
0.85
 11
437.0
 21
-154.11766093749981
 31
0.0
 73
     3
  0
TEXT
  5
43
  8
HIBINO-BASE
 62
     7
 10
549.5
 20
-162.26186666666649
 30
0.0
 40
8.1442057291666661
  1
DESIGN
 41
0.85
 11
549.5
 21
-154.11766093749981
 31
0.0
 73
     3
  0
TEXT
  5
44
  8
HIBINO-BASE
 62
     7
 10
737.0
 20
-162.26186666666649
 30
0.0
 40
8.1442057291666661
  1
DRAWING NO.
 41
0.85
 11
737.0
 21
-154.11766093749981
 31
0.0
 73
     3
  0
TEXT
  5
45
  8
HIBINO-BASE
 62
     7
 10
674.49999999999989
 20
-162.26186666666649
 30
0.0
 40
8.1442057291666661
  1
CHECK
 41
0.85
 11
674.49999999999989
 21
-154.11766093749981
 31
0.0
 73
     3
  0
LINE
  5
46
  8
HIBINO-BASE
  6
CONTINUOUS
 62
     7
 10
441.875
 20
-193.75
 30
0.0
 11
460.625
 21
-174.99999999999989
 31
0.0
  0
TEXT
  5
47
  8
HIBINO-BASE
 62
     7
 10
438.75
 20
-180.5447166666666
 30
0.0
 40
8.1442057291666661
  1
1
 41
0.85
 11
438.75
 21
-172.40051093749989
 31
0.0
 73
     3
  0
LINE
  5
48
  8
HIBINO-BASE
  6
CONTINUOUS
 62
     7
 10
432.5
 20
-200.0
 30
0.0
 11
432.5
 21
-149.9999999999998
 31
0.0
  0
LINE
  5
49
  8
HIBINO-BASE
  6
CONTINUOUS
 62
     7
 10
482.5
 20
-200.0
 30
0.0
 11
482.5
 21
-149.9999999999998
 31
0.0
  0
LINE
  5
4A
  8
HIBINO-BASE
  6
CONTINUOUS
 62
     7
 10
607.49999999999989
 20
-149.9999999999998
 30
0.0
 11
607.49999999999989
 21
-200.0
 31
0.0
  0
LINE
  5
4B
  8
HIBINO-BASE
  6
CONTINUOUS
 62
     7
 10
732.5
 20
-149.9999999999998
 30
0.0
 11
732.5
 21
-200.0
 31
0.0
  0
LINE
  5
4C
  8
HIBINO-BASE
  6
CONTINUOUS
 62
     7
 10
669.99999999999989
 20
-200.0
 30
0.0
 11
669.99999999999989
 21
-149.9999999999998
 31
0.0
  0
TEXT
  5
4D
  8
HIBINO-BASE
 62
     7
 10
486.78269999999992
 20
-185.68176666666659
 30
0.0
 40
8.1442057291666661
  1
'04.09.
 41
0.85
 11
486.78269999999992
 21
-177.5375609374999
 31
0.0
 73
     3
  0
TEXT
  5
4E
  8
HIBINO-BASE
 62
     7
 10
457.5
 20
-189.9197166666666
 30
0.0
 40
8.1442057291666661
  1
5
 41
0.85
 11
457.5
 21
-181.77551093749989
 31
0.0
 73
     3
  0
TEXT
  5
4F
  8
HIBINO-BASE
 62
     7
 10
389.41666666666657
 20
-190.12
 30
0.0
 40
16.288411458333329
  1
A4
 41
0.85
 11
389.41666666666657
 21
-173.8315885416666
 31
0.0
 73
     3
  0
TEXT
  5
50
  8
HIBINO-BASE
 62
     7
 10
615.02905005517312
 20
-185.68176666666639
 30
0.0
 40
8.1442057291666661
  1
N.Sasaki
 41
0.85
 11
615.02905005517312
 21
-177.53756093749971
 31
0.0
 73
     3
  0
TEXT
  5
51
  8
SPEC
 62
     7
 10
-36.25
 20
1056.9663499999999
 30
0.0
 40
12.21630859375
  1
仕様
 41
0.85
 11
-36.25
 21
1069.1826585937499
 31
0.0
 73
     3
  0
LINE
  5
52
  8
SPEC
  6
CONTINUOUS
 62
     7
 10
-42.50000000000005
 20
1050.0
 30
0.0
 11
501.25
 21
1050.0
 31
0.0
  0
LINE
  5
53
  8
SPEC
  6
CONTINUOUS
 62
     7
 10
51.325200534759396
 20
1031.25
 30
0.0
 11
501.25
 21
1031.25
 31
0.0
  0
LINE
  5
54
  8
SPEC
  6
CONTINUOUS
 62
     7
 10
-42.50000000000005
 20
956.25
 30
0.0
 11
501.25
 21
956.25
 31
0.0
  0
LINE
  5
55
  8
SPEC
  6
CONTINUOUS
 62
     7
 10
52.525000000000027
 20
975.0
 30
0.0
 11
501.25
 21
975.0
 31
0.0
  0
LINE
  5
56
  8
SPEC
  6
CONTINUOUS
 62
     7
 10
52.525000000000027
 20
993.75
 30
0.0
 11
501.25
 21
993.75
 31
0.0
  0
LINE
  5
57
  8
SPEC
  6
CONTINUOUS
 62
     7
 10
51.249999999999929
 20
937.5
 30
0.0
 11
501.25
 21
937.5
 31
0.0
  0
LINE
  5
58
  8
SPEC
  6
CONTINUOUS
 62
     7
 10
49.960601719197648
 20
900.0
 30
0.0
 11
501.25
 21
900.0
 31
0.0
  0
LINE
  5
59
  8
SPEC
  6
CONTINUOUS
 62
     7
 10
51.249999999999929
 20
918.75
 30
0.0
 11
501.25
 21
918.75
 31
0.0
  0
LINE
  5
5A
  8
SPEC
  6
CONTINUOUS
 62
     7
 10
51.249999999999929
 20
881.25
 30
0.0
 11
501.25
 21
881.25
 31
0.0
  0
LINE
  5
5B
  8
SPEC
  6
CONTINUOUS
 62
     7
 10
-42.50000000000005
 20
862.5
 30
0.0
 11
501.25
 21
862.5
 31
0.0
  0
LINE
  5
5C
  8
SPEC
  6
CONTINUOUS
 62
     7
 10
51.325200534759396
 20
1012.5
 30
0.0
 11
501.25
 21
1012.5
 31
0.0
  0
TEXT
  5
5D
  8
SPEC
 62
     7
 10
192.47471821551599
 20
1036.180008
 30
0.0
 40
9.5015562499999984
  1
2
 41
0.85
 11
192.47471821551599
 21
1045.6815642500001
 31
0.0
 73
     3
  0
LINE
  5
5E
  8
SPEC
  6
CONTINUOUS
 62
     7
 10
-42.50000000000005
 20
731.25
 30
0.0
 11
501.25
 21
731.25
 31
0.0
  0
LINE
  5
5F
  8
SPEC
  6
CONTINUOUS
 62
     7
 10
-42.50000000000005
 20
693.75
 30
0.0
 11
501.25
 21
693.75
 31
0.0
  0
LINE
  5
60
  8
SPEC
  6
CONTINUOUS
 62
     7
 10
-42.50000000000005
 20
1050.0
 30
0.0
 11
-42.50000000000005
 21
656.25
 31
0.0
  0
TEXT
  5
61
  8
SPEC
 62
     7
 10
192.47471821551599
 20
867.43000799999982
 30
0.0
 40
9.5015562499999984
  1
+20dBu(600Ω)
 41
0.85
 11
192.47471821551599
 21
876.93156424999984
 31
0.0
 73
     3
  0
TEXT
  5
62
  8
SPEC
 62
     7
 10
192.47471821551599
 20
886.18000799999982
 30
0.0
 40
9.5015562499999984
  1
47Ω
 41
0.85
 11
192.47471821551599
 21
895.68156424999984
 31
0.0
 73
     3
  0
TEXT
  5
63
  8
SPEC
 62
     7
 10
60.999999999999943
 20
961.18000800000004
 30
0.0
 40
9.5015562499999984
  1
最大レベル
 41
0.85
 11
60.999999999999943
 21
970.68156424999995
 31
0.0
 73
     3
  0
TEXT
  5
64
  8
SPEC
 62
     7
 10
-38.00000000000005
 20
1036.180008
 30
0.0
 40
9.5015562499999984
  1
入力
 41
0.85
 11
-38.00000000000005
 21
1045.6815642500001
 31
0.0
 73
     3
  0
TEXT
  5
65
  8
SPEC
 62
     7
 10
-38.00000000000005
 20
792.43000799999982
 30
0.0
 40
9.5015562499999984
  1
A/D-D/A変換
 41
0.85
 11
-38.00000000000005
 21
801.93156424999984
 31
0.0
 73
     3
  0
TEXT
  5
66
  8
SPEC
 62
     7
 10
60.999999999999943
 20
923.68000799999982
 30
0.0
 40
9.5015562499999984
  1
形式
 41
0.85
 11
60.999999999999943
 21
933.18156424999984
 31
0.0
 73
     3
  0
TEXT
  5
67
  8
SPEC
 62
     7
 10
60.999999999999943
 20
904.93000799999982
 30
0.0
 40
9.5015562499999984
  1
端子
 41
0.85
 11
60.999999999999943
 21
914.43156424999984
 31
0.0
 73
     3
  0
TEXT
  5
68
  8
SPEC
 62
     7
 10
60.999999999999943
 20
979.93000800000004
 30
0.0
 40
9.5015562499999984
  1
インピーダンス
 41
0.85
 11
60.999999999999943
 21
989.43156424999995
 31
0.0
 73
     3
  0
TEXT
  5
69
  8
SPEC
 62
     7
 10
-38.00000000000005
 20
942.43000799999982
 30
0.0
 40
9.5015562499999984
  1
出力
 41
0.85
 11
-38.00000000000005
 21
951.93156424999984
 31
0.0
 73
     3
  0
TEXT
  5
6A
  8
SPEC
 62
     7
 10
60.999999999999943
 20
1017.430008
 30
0.0
 40
9.5015562499999984
  1
形式
 41
0.85
 11
60.999999999999943
 21
1026.9315642500001
 31
0.0
 73
     3
  0
TEXT
  5
6B
  8
SPEC
 62
     7
 10
60.999999999999943
 20
998.68000800000004
 30
0.0
 40
9.5015562499999984
  1
端子
 41
0.85
 11
60.999999999999943
 21
1008.18156425
 31
0.0
 73
     3
  0
TEXT
  5
6C
  8
SPEC
 62
     7
 10
60.999999999999943
 20
886.18000799999982
 30
0.0
 40
9.5015562499999984
  1
インピーダンス
 41
0.85
 11
60.999999999999943
 21
895.68156424999984
 31
0.0
 73
     3
  0
TEXT
  5
6D
  8
SPEC
 62
     7
 10
60.999999999999943
 20
867.43000799999982
 30
0.0
 40
9.5015562499999984
  1
最大レベル
 41
0.85
 11
60.999999999999943
 21
876.93156424999984
 31
0.0
 73
     3
  0
TEXT
  5
6E
  8
SPEC
 62
     7
 10
192.47471821551599
 20
961.18000800000004
 30
0.0
 40
9.5015562499999984
  1
+20dBu
 41
0.85
 11
192.47471821551599
 21
970.68156424999995
 31
0.0
 73
     3
  0
TEXT
  5
6F
  8
SPEC
 62
     7
 10
192.47471821551599
 20
923.68000799999982
 30
0.0
 40
9.5015562499999984
  1
バランス
 41
0.85
 11
192.47471821551599
 21
933.18156424999984
 31
0.0
 73
     3
  0
TEXT
  5
70
  8
SPEC
 62
     7
 10
192.47471821551599
 20
904.93000799999982
 30
0.0
 40
9.5015562499999984
  1
XLR3ピンオス(2-HOT)
 41
0.85
 11
192.47471821551599
 21
914.43156424999984
 31
0.0
 73
     3
  0
TEXT
  5
71
  8
SPEC
 62
     7
 10
192.47471821551599
 20
792.43000799999982
 30
0.0
 40
9.5015562499999984
  1
24bit,48kHz
 41
0.85
 11
192.47471821551599
 21
801.93156424999984
 31
0.0
 73
     3
  0
TEXT
  5
72
  8
SPEC
 62
     7
 10
192.47471821551599
 20
979.93000800000004
 30
0.0
 40
9.5015562499999984
  1
10kΩ
 41
0.85
 11
192.47471821551599
 21
989.43156424999995
 31
0.0
 73
     3
  0
TEXT
  5
73
  8
SPEC
 62
     7
 10
192.47471821551599
 20
942.43000799999982
 30
0.0
 40
9.5015562499999984
  1
6
 41
0.85
 11
192.47471821551599
 21
951.93156424999984
 31
0.0
 73
     3
  0
TEXT
  5
74
  8
SPEC
 62
     7
 10
192.47471821551599
 20
998.68000800000004
 30
0.0
 40
9.5015562499999984
  1
XLR3ピンメス(2-HOT)
 41
0.85
 11
192.47471821551599
 21
1008.18156425
 31
0.0
 73
     3
  0
TEXT
  5
75
  8
SPEC
 62
     7
 10
192.47471821551599
 20
1017.430008
 30
0.0
 40
9.5015562499999984
  1
バランス
 41
0.85
 11
192.47471821551599
 21
1026.9315642500001
 31
0.0
 73
     3
  0
TEXT
  5
76
  8
SPEC
 62
     7
 10
60.999999999999943
 20
1036.180008
 30
0.0
 40
9.5015562499999984
  1
チャンネル数
 41
0.85
 11
60.999999999999943
 21
1045.6815642500001
 31
0.0
 73
     3
  0
TEXT
  5
77
  8
SPEC
 62
     7
 10
60.999999999999943
 20
942.43000799999982
 30
0.0
 40
9.5015562499999984
  1
チャンネル数
 41
0.85
 11
60.999999999999943
 21
951.93156424999984
 31
0.0
 73
     3
  0
LINE
  5
78
  8
SPEC
  6
CONTINUOUS
 62
     7
 10
51.249999999999929
 20
1050.0
 30
0.0
 11
51.249999999999929
 21
806.25
 31
0.0
  0
LINE
  5
79
  8
SPEC
  6
CONTINUOUS
 62
     7
 10
-42.50000000000005
 20
750.0
 30
0.0
 11
501.25
 21
750.0
 31
0.0
  0
TEXT
  5
7A
  8
SPEC
 62
     7
 10
-38.00000000000005
 20
754.93000799999982
 30
0.0
 40
9.5015562499999984
  1
THD
 41
0.85
 11
-38.00000000000005
 21
764.43156424999984
 31
0.0
 73
     3
  0
TEXT
  5
7B
  8
SPEC
 62
     7
 10
192.47471821551599
 20
754.93000799999982
 30
0.0
 40
9.5015562499999984
  1
0.01%%%以下(20Hz～20kHz,+10dBu)
 41
0.85
 11
192.47471821551599
 21
764.43156424999984
 31
0.0
 73
     3
  0
LINE
  5
7C
  8
SPEC
  6
CONTINUOUS
 62
     7
 10
-42.50000000000005
 20
712.5
 30
0.0
 11
501.25
 21
712.5
 31
0.0
  0
LINE
  5
7D
  8
SPEC
  6
CONTINUOUS
 62
     7
 10
-42.50000000000005
 20
675.0
 30
0.0
 11
501.25
 21
675.0
 31
0.0
  0
TEXT
  5
7E
  8
SPEC
 62
     7
 10
-38.00000000000005
 20
717.43000799999982
 30
0.0
 40
9.5015562499999984
  1
プロパゲーション・ディレイ
 41
0.85
 11
-38.00000000000005
 21
726.93156424999984
 31
0.0
 73
     3
  0
TEXT
  5
7F
  8
SPEC
 62
     7
 10
192.47471821551599
 20
717.43000799999982
 30
0.0
 40
9.5015562499999984
  1
1.4msec フラット・セットアップ
 41
0.85
 11
192.47471821551599
 21
726.93156424999984
 31
0.0
 73
     3
  0
TEXT
  5
80
  8
SPEC
 62
     7
 10
-38.00000000000005
 20
698.68000799999982
 30
0.0
 40
9.5015562499999984
  1
電源
 41
0.85
 11
-38.00000000000005
 21
708.18156424999984
 31
0.0
 73
     3
  0
TEXT
  5
81
  8
SPEC
 62
     7
 10
192.47471821551599
 20
698.68000799999982
 30
0.0
 40
9.5015562499999984
  1
AC90～264V,50/60Hz
 41
0.85
 11
192.47471821551599
 21
708.18156424999984
 31
0.0
 73
     3
  0
TEXT
  5
82
  8
SPEC
 62
     7
 10
-38.00000000000005
 20
679.93000799999982
 30
0.0
 40
9.5015562499999984
  1
消費電力
 41
0.85
 11
-38.00000000000005
 21
689.43156424999984
 31
0.0
 73
     3
  0
TEXT
  5
83
  8
SPEC
 62
     7
 10
192.47471821551599
 20
679.93000799999982
 30
0.0
 40
9.5015562499999984
  1
30W
 41
0.85
 11
192.47471821551599
 21
689.43156424999984
 31
0.0
 73
     3
  0
LINE
  5
84
  8
SPEC
  6
CONTINUOUS
 62
     7
 10
-42.50000000000005
 20
768.75
 30
0.0
 11
501.25
 21
768.75
 31
0.0
  0
LINE
  5
85
  8
SPEC
  6
CONTINUOUS
 62
     7
 10
501.25
 20
1050.0
 30
0.0
 11
501.25
 21
656.25
 31
0.0
  0
LINE
  5
86
  8
SPEC
  6
CONTINUOUS
 62
     7
 10
182.5
 20
1050.0
 30
0.0
 11
182.5
 21
656.25
 31
0.0
  0
LINE
  5
87
  8
SPEC
  6
CONTINUOUS
 62
     7
 10
-42.50000000000005
 20
843.75
 30
0.0
 11
501.25
 21
843.75
 31
0.0
  0
TEXT
  5
88
  8
SPEC
 62
     7
 10
192.47471821551599
 20
848.68000799999982
 30
0.0
 40
9.5015562499999984
  1
Bessel,Butterworth,Linkwitz-Riley
 41
0.85
 11
192.47471821551599
 21
858.18156424999984
 31
0.0
 73
     3
  0
TEXT
  5
89
  8
SPEC
 62
     7
 10
60.999999999999943
 20
848.68000799999982
 30
0.0
 40
9.5015562499999984
  1
形式
 41
0.85
 11
60.999999999999943
 21
858.18156424999984
 31
0.0
 73
     3
  0
TEXT
  5
8A
  8
SPEC
 62
     7
 10
-38.00000000000005
 20
848.68000799999982
 30
0.0
 40
9.5015562499999984
  1
クロスオーバ
 41
0.85
 11
-38.00000000000005
 21
858.18156424999984
 31
0.0
 73
     3
  0
LINE
  5
8B
  8
SPEC
  6
CONTINUOUS
 62
     7
 10
-42.50000000000005
 20
806.25
 30
0.0
 11
501.25
 21
806.25
 31
0.0
  0
TEXT
  5
8C
  8
SPEC
 62
     7
 10
192.47471821551599
 20
829.93000799999982
 30
0.0
 40
9.5015562499999984
  1
21μsec
 41
0.85
 11
192.47471821551599
 21
839.43156424999984
 31
0.0
 73
     3
  0
TEXT
  5
8D
  8
SPEC
 62
     7
 10
60.999999999999943
 20
829.93000799999982
 30
0.0
 40
9.5015562499999984
  1
ディレイステップ
 41
0.85
 11
60.999999999999943
 21
839.43156424999984
 31
0.0
 73
     3
  0
LINE
  5
8E
  8
SPEC
  6
CONTINUOUS
 62
     7
 10
51.249999999999929
 20
825.0
 30
0.0
 11
501.25
 21
825.0
 31
0.0
  0
TEXT
  5
8F
  8
SPEC
 62
     7
 10
192.47471821551599
 20
811.18000799999982
 30
0.0
 40
9.5015562499999984
  1
635msec
 41
0.85
 11
192.47471821551599
 21
820.68156424999984
 31
0.0
 73
     3
  0
TEXT
  5
90
  8
SPEC
 62
     7
 10
60.999999999999943
 20
811.18000799999982
 30
0.0
 40
9.5015562499999984
  1
最大ディレイタイム
 41
0.85
 11
60.999999999999943
 21
820.68156424999984
 31
0.0
 73
     3
  0
TEXT
  5
91
  8
SPEC
 62
     7
 10
-38.00000000000005
 20
829.93000799999982
 30
0.0
 40
9.5015562499999984
  1
ディレイ
 41
0.85
 11
-38.00000000000005
 21
839.43156424999984
 31
0.0
 73
     3
  0
LINE
  5
92
  8
SPEC
  6
CONTINUOUS
 62
     7
 10
-42.50000000000005
 20
806.25
 30
0.0
 11
501.25
 21
806.25
 31
0.0
  0
LINE
  5
93
  8
SPEC
  6
CONTINUOUS
 62
     7
 10
-42.50000000000005
 20
787.5
 30
0.0
 11
501.25
 21
787.5
 31
0.0
  0
TEXT
  5
94
  8
SPEC
 62
     7
 10
-38.00000000000005
 20
773.68000799999982
 30
0.0
 40
9.5015562499999984
  1
周波数特性
 41
0.85
 11
-38.00000000000005
 21
783.18156424999984
 31
0.0
 73
     3
  0
LINE
  5
95
  8
SPEC
  6
CONTINUOUS
 62
     7
 10
-42.50000000000005
 20
768.75
 30
0.0
 11
501.25
 21
768.75
 31
0.0
  0
TEXT
  5
96
  8
SPEC
 62
     7
 10
-38.00000000000005
 20
736.18000799999982
 30
0.0
 40
9.5015562499999984
  1
ダイナミックレンジ
 41
0.85
 11
-38.00000000000005
 21
745.68156424999984
 31
0.0
 73
     3
  0
TEXT
  5
97
  8
SPEC
 62
     7
 10
192.47471821551599
 20
736.18000799999982
 30
0.0
 40
9.5015562499999984
  1
108dB以上(22Hz～22kHz,アンウェイト)
 41
0.85
 11
192.47471821551599
 21
745.68156424999984
 31
0.0
 73
     3
  0
TEXT
  5
98
  8
SPEC
 62
     7
 10
192.47471821551599
 20
773.68000799999982
 30
0.0
 40
9.5015562499999984
  1
20Hz～20kHz(±0.5dB)
 41
0.85
 11
192.47471821551599
 21
783.18156424999984
 31
0.0
 73
     3
  0
LINE
  5
99
  8
SPEC
  6
CONTINUOUS
 62
     7
 10
-42.50000000000005
 20
656.25
 30
0.0
 11
501.25
 21
656.25
 31
0.0
  0
TEXT
  5
9A
  8
SPEC
 62
     7
 10
-38.00000000000005
 20
661.18000799999982
 30
0.0
 40
9.5015562499999984
  1
寸法(W×H×D)/重量
 41
0.85
 11
-38.00000000000005
 21
670.68156424999984
 31
0.0
 73
     3
  0
TEXT
  5
9B
  8
SPEC
 62
     7
 10
192.47471821551599
 20
661.18000799999982
 30
0.0
 40
9.5015562499999984
  1
483×44×200mm(突起部含まず)/2.8kg
 41
0.85
 11
192.47471821551599
 21
670.68156424999984
 31
0.0
 73
     3
  0
TEXT
  5
9C
  8
DIMNSIONS
 62
     7
 10
269.99999999999989
 20
-140.16949444444441
 30
0.0
 40
13.57367621527778
  1
(単位：mm)
 41
0.85
 11
269.99999999999989
 21
-126.5958182291666
 31
0.0
 73
     3
  0
LINE
  5
9D
  8
DIMNSIONS
  6
CONTINUOUS
 62
     7
 10
0.0
 20
-10.0
 30
0.0
 11
0.0
 21
-49.708333333333371
 31
0.0
  0
LINE
  5
9E
  8
DIMNSIONS
  6
CONTINUOUS
 62
     7
 10
482.60000000000002
 20
-10.0
 30
0.0
 11
482.60000000000002
 21
-49.708333333333371
 31
0.0
  0
LINE
  5
9F
  8
DIMNSIONS
  6
CONTINUOUS
 62
     7
 10
0.0
 20
-39.708333333333371
 30
0.0
 11
482.60000000000002
 21
-39.708333333333371
 31
0.0
  0
LINE
  5
A0
  8
DIMNSIONS
  6
CONTINUOUS
 62
     7
 10
0.0
 20
-39.708333333333371
 30
0.0
 11
12.50311279296875
 21
-36.35813435758218
 31
0.0
  0
LINE
  5
A1
  8
DIMNSIONS
  6
CONTINUOUS
 62
     7
 10
0.0
 20
-39.708333333333371
 30
0.0
 11
12.50311279296875
 21
-43.058532309084562
 31
0.0
  0
LINE
  5
A2
  8
DIMNSIONS
  6
CONTINUOUS
 62
     7
 10
482.60000000000002
 20
-39.708333333333371
 30
0.0
 11
470.09688720703122
 21
-43.058532309084562
 31
0.0
  0
LINE
  5
A3
  8
DIMNSIONS
  6
CONTINUOUS
 62
     7
 10
482.60000000000002
 20
-39.708333333333371
 30
0.0
 11
470.09688720703122
 21
-36.35813435758218
 31
0.0
  0
TEXT
  5
A4
  8
DIMNSIONS
 62
     7
 10
234.0708333333333
 20
-34.738888888888887
 30
0.0
 40
13.57367621527778
  1
483
 41
0.85
 11
234.0708333333333
 21
-21.165212673611109
 31
0.0
 73
     3
  0
LINE
  5
A5
  8
DIMNSIONS
  6
CONTINUOUS
 62
     7
 10
24.300000000000011
 20
342.89999999999998
 30
0.0
 11
24.300000000000011
 21
370.0
 31
0.0
  0
LINE
  5
A6
  8
DIMNSIONS
  6
CONTINUOUS
 62
     7
 10
458.30000000000001
 20
342.89999999999998
 30
0.0
 11
458.30000000000001
 21
370.0
 31
0.0
  0
LINE
  5
A7
  8
DIMNSIONS
  6
CONTINUOUS
 62
     7
 10
24.300000000000011
 20
360.0
 30
0.0
 11
458.30000000000001
 21
360.0
 31
0.0
  0
LINE
  5
A8
  8
DIMNSIONS
  6
CONTINUOUS
 62
     7
 10
24.300000000000011
 20
360.0
 30
0.0
 11
36.803112792968761
 21
363.3501989757512
 31
0.0
  0
LINE
  5
A9
  8
DIMNSIONS
  6
CONTINUOUS
 62
     7
 10
24.300000000000011
 20
360.0
 30
0.0
 11
36.803112792968761
 21
356.6498010242488
 31
0.0
  0
LINE
  5
AA
  8
DIMNSIONS
  6
CONTINUOUS
 62
     7
 10
458.30000000000001
 20
360.0
 30
0.0
 11
445.79688720703132
 21
356.6498010242488
 31
0.0
  0
LINE
  5
AB
  8
DIMNSIONS
  6
CONTINUOUS
 62
     7
 10
458.30000000000001
 20
360.0
 30
0.0
 11
445.79688720703132
 21
363.35019897575131
 31
0.0
  0
TEXT
  5
AC
  8
DIMNSIONS
 62
     7
 10
228.0708333333333
 20
364.96944444444449
 30
0.0
 40
13.57367621527778
  1
434
 41
0.85
 11
228.0708333333333
 21
378.54312065972221
 31
0.0
 73
     3
  0
LINE
  5
AD
  8
DIMNSIONS
  6
CONTINUOUS
 62
     7
 10
-10.0
 20
44.0
 30
0.0
 11
-40.0
 21
44.0
 31
0.0
  0
LINE
  5
AE
  8
DIMNSIONS
  6
CONTINUOUS
 62
     7
 10
-10.0
 20
0.0
 30
0.0
 11
-40.0
 21
0.0
 31
0.0
  0
LINE
  5
AF
  8
DIMNSIONS
  6
CONTINUOUS
 62
     7
 10
-30.0
 20
44.0
 30
0.0
 11
-30.0
 21
0.0
 31
0.0
  0
LINE
  5
B0
  8
DIMNSIONS
  6
CONTINUOUS
 62
     7
 10
-30.0
 20
44.0
 30
0.0
 11
-26.649801024248799
 21
31.49688720703125
 31
0.0
  0
LINE
  5
B1
  8
DIMNSIONS
  6
CONTINUOUS
 62
     7
 10
-30.0
 20
44.0
 30
0.0
 11
-33.350198975751198
 21
31.49688720703125
 31
0.0
  0
LINE
  5
B2
  8
DIMNSIONS
  6
CONTINUOUS
 62
     7
 10
-30.0
 20
0.0
 30
0.0
 11
-33.350198975751198
 21
12.50311279296875
 31
0.0
  0
LINE
  5
B3
  8
DIMNSIONS
  6
CONTINUOUS
 62
     7
 10
-30.0
 20
0.0
 30
0.0
 11
-26.649801024248799
 21
12.50311279296875
 31
0.0
  0
TEXT
  5
B4
  8
DIMNSIONS
 62
     7
 10
-34.969444444444477
 20
13.180555555555539
 30
0.0
 40
13.57367621527778
  1
44
 50
90.0
 41
0.85
 11
-48.543120659722263
 21
13.180555555555539
 31
0.0
 73
     3
  0
LINE
  5
B5
  8
DIMNSIONS
  6
CONTINUOUS
 62
     7
 10
-10.0
 20
132.89999999999989
 30
0.0
 11
-25.0
 21
132.89999999999989
 31
0.0
  0
LINE
  5
B6
  8
DIMNSIONS
  6
CONTINUOUS
 62
     7
 10
-10.0
 20
130.0
 30
0.0
 11
-25.0
 21
130.0
 31
0.0
  0
LINE
  5
B7
  8
DIMNSIONS
  6
CONTINUOUS
 62
     7
 10
-15.0
 20
130.0
 30
0.0
 11
-15.0
 21
132.89999999999989
 31
0.0
  0
LINE
  5
B8
  8
DIMNSIONS
  6
CONTINUOUS
 62
     7
 10
-15.0
 20
132.89999999999989
 30
0.0
 11
-15.0
 21
156.71944444444441
 31
0.0
  0
LINE
  5
B9
  8
DIMNSIONS
  6
CONTINUOUS
 62
     7
 10
-15.0
 20
132.89999999999989
 30
0.0
 11
-18.350198975751201
 21
145.4031127929687
 31
0.0
  0
LINE
  5
BA
  8
DIMNSIONS
  6
CONTINUOUS
 62
     7
 10
-15.0
 20
132.89999999999989
 30
0.0
 11
-11.6498010242488
 21
145.4031127929687
 31
0.0
  0
LINE
  5
BB
  8
DIMNSIONS
  6
CONTINUOUS
 62
     7
 10
-15.0
 20
130.0
 30
0.0
 11
-15.0
 21
105.0
 31
0.0
  0
LINE
  5
BC
  8
DIMNSIONS
  6
CONTINUOUS
 62
     7
 10
-15.0
 20
130.0
 30
0.0
 11
-11.6498010242488
 21
117.49688720703119
 31
0.0
  0
LINE
  5
BD
  8
DIMNSIONS
  6
CONTINUOUS
 62
     7
 10
-15.0
 20
130.0
 30
0.0
 11
-18.350198975751201
 21
117.49688720703119
 31
0.0
  0
TEXT
  5
BE
  8
DIMNSIONS
 62
     7
 10
-19.969444444444491
 20
147.90000000000001
 30
0.0
 40
13.57367621527778
  1
3
 50
90.0
 41
0.85
 11
-33.54312065972227
 21
147.90000000000001
 31
0.0
 73
     3
  0
LINE
  5
BF
  8
DIMNSIONS
  6
CONTINUOUS
 62
     7
 10
168.65000000000001
 20
111.0
 30
0.0
 11
-50.0
 21
111.0
 31
0.0
  0
LINE
  5
C0
  8
DIMNSIONS
  6
CONTINUOUS
 62
     7
 10
-10.0
 20
130.0
 30
0.0
 11
-50.0
 21
130.0
 31
0.0
  0
LINE
  5
C1
  8
DIMNSIONS
  6
CONTINUOUS
 62
     7
 10
-40.0
 20
130.0
 30
0.0
 11
-40.0
 21
111.0
 31
0.0
  0
LINE
  5
C2
  8
DIMNSIONS
  6
CONTINUOUS
 62
     7
 10
-40.0
 20
111.0
 30
0.0
 11
-40.0
 21
80.861111111111057
 31
0.0
  0
LINE
  5
C3
  8
DIMNSIONS
  6
CONTINUOUS
 62
     7
 10
-40.0
 20
111.0
 30
0.0
 11
-36.649801024248802
 21
98.496887207031236
 31
0.0
  0
LINE
  5
C4
  8
DIMNSIONS
  6
CONTINUOUS
 62
     7
 10
-40.0
 20
111.0
 30
0.0
 11
-43.350198975751191
 21
98.496887207031236
 31
0.0
  0
LINE
  5
C5
  8
DIMNSIONS
  6
CONTINUOUS
 62
     7
 10
-40.0
 20
130.0
 30
0.0
 11
-40.0
 21
155.0
 31
0.0
  0
LINE
  5
C6
  8
DIMNSIONS
  6
CONTINUOUS
 62
     7
 10
-40.0
 20
130.0
 30
0.0
 11
-43.350198975751191
 21
142.50311279296869
 31
0.0
  0
LINE
  5
C7
  8
DIMNSIONS
  6
CONTINUOUS
 62
     7
 10
-40.0
 20
130.0
 30
0.0
 11
-36.649801024248802
 21
142.50311279296869
 31
0.0
  0
TEXT
  5
C8
  8
DIMNSIONS
 62
     7
 10
-44.969444444444477
 20
80.861111111111057
 30
0.0
 40
13.57367621527778
  1
19
 50
90.0
 41
0.85
 11
-58.543120659722263
 21
80.861111111111057
 31
0.0
 73
     3
  0
LINE
  5
C9
  8
DIMNSIONS
  6
CONTINUOUS
 62
     7
 10
22.800000000003362
 20
157.40000000000001
 30
0.0
 11
22.800000000003362
 21
395.0
 31
0.0
  0
LINE
  5
CA
  8
DIMNSIONS
  6
CONTINUOUS
 62
     7
 10
459.7999999999999
 20
157.40000000000001
 30
0.0
 11
459.7999999999999
 21
395.0
 31
0.0
  0
LINE
  5
CB
  8
DIMNSIONS
  6
CONTINUOUS
 62
     7
 10
22.800000000003362
 20
385.0
 30
0.0
 11
459.7999999999999
 21
385.0
 31
0.0
  0
LINE
  5
CC
  8
DIMNSIONS
  6
CONTINUOUS
 62
     7
 10
22.800000000003362
 20
385.0
 30
0.0
 11
35.303112792972122
 21
388.3501989757512
 31
0.0
  0
LINE
  5
CD
  8
DIMNSIONS
  6
CONTINUOUS
 62
     7
 10
22.800000000003362
 20
385.0
 30
0.0
 11
35.303112792972122
 21
381.6498010242488
 31
0.0
  0
LINE
  5
CE
  8
DIMNSIONS
  6
CONTINUOUS
 62
     7
 10
459.7999999999999
 20
385.0
 30
0.0
 11
447.29688720703109
 21
381.6498010242488
 31
0.0
  0
LINE
  5
CF
  8
DIMNSIONS
  6
CONTINUOUS
 62
     7
 10
459.7999999999999
 20
385.0
 30
0.0
 11
447.29688720703109
 21
388.3501989757512
 31
0.0
  0
TEXT
  5
D0
  8
DIMNSIONS
 62
     7
 10
228.070833333335
 20
389.96944444444449
 30
0.0
 40
13.57367621527778
  1
437
 41
0.85
 11
228.070833333335
 21
403.54312065972209
 31
0.0
 73
     3
  0
LINE
  5
D1
  8
DIMNSIONS
  6
CONTINUOUS
 62
     7
 10
-10.0
 20
130.0
 30
0.0
 11
-50.0
 21
130.0
 31
0.0
  0
LINE
  5
D2
  8
DIMNSIONS
  6
CONTINUOUS
 62
     7
 10
14.30000000000001
 20
330.40000000000009
 30
0.0
 11
-50.0
 21
330.40000000000009
 31
0.0
  0
LINE
  5
D3
  8
DIMNSIONS
  6
CONTINUOUS
 62
     7
 10
-40.0
 20
130.0
 30
0.0
 11
-40.0
 21
330.40000000000009
 31
0.0
  0
LINE
  5
D4
  8
DIMNSIONS
  6
CONTINUOUS
 62
     7
 10
-40.0
 20
130.0
 30
0.0
 11
-43.350198975751191
 21
142.50311279296869
 31
0.0
  0
LINE
  5
D5
  8
DIMNSIONS
  6
CONTINUOUS
 62
     7
 10
-40.0
 20
130.0
 30
0.0
 11
-36.649801024248802
 21
142.50311279296869
 31
0.0
  0
LINE
  5
D6
  8
DIMNSIONS
  6
CONTINUOUS
 62
     7
 10
-40.0
 20
330.40000000000009
 30
0.0
 11
-36.649801024248802
 21
317.89688720703123
 31
0.0
  0
LINE
  5
D7
  8
DIMNSIONS
  6
CONTINUOUS
 62
     7
 10
-40.0
 20
330.40000000000009
 30
0.0
 11
-43.350198975751191
 21
317.89688720703123
 31
0.0
  0
TEXT
  5
D8
  8
DIMNSIONS
 62
     7
 10
-44.969444444444477
 20
216.9708333333333
 30
0.0
 40
13.57367621527778
  1
200
 50
90.0
 41
0.85
 11
-58.543120659722263
 21
216.9708333333333
 31
0.0
 73
     3
  0
LINE
  5
D9
  8
DIMNSIONS
  6
CONTINUOUS
 62
     7
 10
36.801679839710452
 20
334.39999999999998
 30
0.0
 11
-50.0
 21
334.39999999999998
 31
0.0
  0
LINE
  5
DA
  8
DIMNSIONS
  6
CONTINUOUS
 62
     7
 10
14.30000000000001
 20
330.40000000000009
 30
0.0
 11
-50.0
 21
330.40000000000009
 31
0.0
  0
LINE
  5
DB
  8
DIMNSIONS
  6
CONTINUOUS
 62
     7
 10
-40.0
 20
330.40000000000009
 30
0.0
 11
-40.0
 21
334.39999999999998
 31
0.0
  0
LINE
  5
DC
  8
DIMNSIONS
  6
CONTINUOUS
 62
     7
 10
-40.0
 20
334.39999999999998
 30
0.0
 11
-40.0
 21
358.81944444444451
 31
0.0
  0
LINE
  5
DD
  8
DIMNSIONS
  6
CONTINUOUS
 62
     7
 10
-40.0
 20
334.39999999999998
 30
0.0
 11
-43.350198975751191
 21
346.90311279296873
 31
0.0
  0
LINE
  5
DE
  8
DIMNSIONS
  6
CONTINUOUS
 62
     7
 10
-40.0
 20
334.39999999999998
 30
0.0
 11
-36.649801024248802
 21
346.90311279296873
 31
0.0
  0
LINE
  5
DF
  8
DIMNSIONS
  6
CONTINUOUS
 62
     7
 10
-40.0
 20
330.40000000000009
 30
0.0
 11
-40.0
 21
305.40000000000009
 31
0.0
  0
LINE
  5
E0
  8
DIMNSIONS
  6
CONTINUOUS
 62
     7
 10
-40.0
 20
330.40000000000009
 30
0.0
 11
-36.649801024248802
 21
317.89688720703123
 31
0.0
  0
LINE
  5
E1
  8
DIMNSIONS
  6
CONTINUOUS
 62
     7
 10
-40.0
 20
330.40000000000009
 30
0.0
 11
-43.350198975751191
 21
317.89688720703123
 31
0.0
  0
TEXT
  5
E2
  8
DIMNSIONS
 62
     7
 10
-44.969444444444477
 20
350.0
 30
0.0
 40
13.57367621527778
  1
4
 50
90.0
 41
0.85
 11
-58.543120659722263
 21
350.0
 31
0.0
 73
     3
  0
TEXT
  5
E3
  8
DATA
 62
     7
 10
619.99999999999989
 20
-140.98054999999999
 30
0.0
 40
12.21630859375
  1
FDS-336T
 41
0.85
 11
619.99999999999989
 21
-128.76424140624999
 31
0.0
 73
     3
  0
TEXT
  5
E4
  8
DATA
 62
     7
 10
619.99999999999989
 20
-114.09555
 30
0.0
 40
12.21630859375
  1
BSS
 41
0.85
 11
619.99999999999989
 21
-101.87924140625
 31
0.0
 73
     3
  0
TEXT
  5
E5
  8
DATA
 62
     7
 10
-30.0
 20
-178.8099999999998
 30
0.0
 40
8.1442057291666661
  1
仕様および外観は予告なく変更されることがありますので、ご了承ください。
 41
0.85
 11
-30.0
 21
-170.66579427083309
 31
0.0
 73
     3
  0
POLYLINE
  5
E6
  8
DATA
  6
CONTINUOUS
 62
     7
 66
     1
 10
0.0
 20
0.0
 30
0.0
 70
     1
  0
VERTEX
  5
98B
  8
DATA
  6
CONTINUOUS
 62
     7
 10
0.0
 20
44.0
 30
0.0
  0
VERTEX
  5
98C
  8
DATA
  6
CONTINUOUS
 62
     7
 10
482.60000000000002
 20
44.0
 30
0.0
  0
VERTEX
  5
98D
  8
DATA
  6
CONTINUOUS
 62
     7
 10
482.60000000000002
 20
0.0
 30
0.0
  0
VERTEX
  5
98E
  8
DATA
  6
CONTINUOUS
 62
     7
 10
0.0
 20
0.0
 30
0.0
  0
SEQEND
  5
98F
  8
DATA
  6
CONTINUOUS
 62
     7
  0
POLYLINE
  5
EC
  8
DATA
  6
CONTINUOUS
 62
     7
 66
     1
 10
0.0
 20
0.0
 30
0.0
 70
     1
  0
VERTEX
  5
990
  8
DATA
  6
CONTINUOUS
 62
     7
 10
24.300000000000011
 20
330.40000000000009
 30
0.0
  0
VERTEX
  5
991
  8
DATA
  6
CONTINUOUS
 62
     7
 10
458.30000000000001
 20
330.40000000000009
 30
0.0
  0
VERTEX
  5
992
  8
DATA
  6
CONTINUOUS
 62
     7
 10
458.30000000000001
 20
135.40000000000001
 30
0.0
  0
VERTEX
  5
993
  8
DATA
  6
CONTINUOUS
 62
     7
 10
24.300000000000011
 20
135.40000000000001
 30
0.0
  0
SEQEND
  5
994
  8
DATA
  6
CONTINUOUS
 62
     7
  0
POLYLINE
  5
F2
  8
DATA
  6
CONTINUOUS
 62
     7
 66
     1
 10
0.0
 20
0.0
 30
0.0
 70
     1
  0
VERTEX
  5
995
  8
DATA
  6
CONTINUOUS
 62
     7
 10
0.0
 20
474.0
 30
0.0
  0
VERTEX
  5
996
  8
DATA
  6
CONTINUOUS
 62
     7
 10
483.0
 20
474.0
 30
0.0
  0
VERTEX
  5
997
  8
DATA
  6
CONTINUOUS
 62
     7
 10
483.0
 20
430.0
 30
0.0
  0
VERTEX
  5
998
  8
DATA
  6
CONTINUOUS
 62
     7
 10
0.0
 20
430.0
 30
0.0
  0
SEQEND
  5
999
  8
DATA
  6
CONTINUOUS
 62
     7
  0
LINE
  5
F8
  8
DATA
  6
CONTINUOUS
 62
     7
 10
6.849999999999965
 20
41.25
 30
0.0
 11
10.14999999999997
 21
41.25
 31
0.0
  0
LINE
  5
F9
  8
DATA
  6
CONTINUOUS
 62
     7
 10
6.849999999999965
 20
34.149999999999977
 30
0.0
 11
10.14999999999997
 21
34.149999999999977
 31
0.0
  0
ARC
  5
FA
  8
DATA
  6
CONTINUOUS
 62
     7
 10
6.8499999999999091
 20
37.699999999999989
 30
0.0
 40
3.5500000000000109
 50
90.0
 51
270.0
  0
ARC
  5
FB
  8
DATA
  6
CONTINUOUS
 62
     7
 10
10.14999999999997
 20
37.699999999999989
 30
0.0
 40
3.5500000000000109
 50
270.0
 51
90.0
  0
LINE
  5
FC
  8
DATA
  6
CONTINUOUS
 62
     7
 10
6.849999999999965
 20
9.8500000000000227
 30
0.0
 11
10.14999999999997
 21
9.8500000000000227
 31
0.0
  0
LINE
  5
FD
  8
DATA
  6
CONTINUOUS
 62
     7
 10
6.849999999999965
 20
2.75
 30
0.0
 11
10.14999999999997
 21
2.75
 31
0.0
  0
ARC
  5
FE
  8
DATA
  6
CONTINUOUS
 62
     7
 10
6.8499999999999091
 20
6.3000000000000114
 30
0.0
 40
3.5500000000000109
 50
90.0
 51
270.0
  0
ARC
  5
FF
  8
DATA
  6
CONTINUOUS
 62
     7
 10
10.14999999999997
 20
6.3000000000000114
 30
0.0
 40
3.5500000000000109
 50
270.0
 51
90.0
  0
ARC
  5
100
  8
DATA
  6
CONTINUOUS
 62
     7
 10
37.5
 20
14.5
 30
0.0
 40
3.0
 50
90.0
 51
270.0
  0
ARC
  5
101
  8
DATA
  6
CONTINUOUS
 62
     7
 10
44.5
 20
14.5
 30
0.0
 40
3.0
 50
270.0
 51
90.0
  0
LINE
  5
102
  8
DATA
  6
CONTINUOUS
 62
     7
 10
37.5
 20
17.5
 30
0.0
 11
44.5
 21
17.5
 31
0.0
  0
LINE
  5
103
  8
DATA
  6
CONTINUOUS
 62
     7
 10
37.5
 20
11.5
 30
0.0
 11
44.5
 21
11.5
 31
0.0
  0
CIRCLE
  5
104
  8
DATA
  6
CONTINUOUS
 62
     7
 10
70.0
 20
22.0
 30
0.0
 40
14.5
  0
LINE
  5
105
  8
DATA
  6
CONTINUOUS
 62
     7
 10
475.75
 20
41.25
 30
0.0
 11
472.44999999999999
 21
41.25
 31
0.0
  0
LINE
  5
106
  8
DATA
  6
CONTINUOUS
 62
     7
 10
475.75
 20
34.149999999999977
 30
0.0
 11
472.44999999999999
 21
34.149999999999977
 31
0.0
  0
ARC
  5
107
  8
DATA
  6
CONTINUOUS
 62
     7
 10
475.75
 20
37.699999999999989
 30
0.0
 40
3.5500000000000109
 50
270.0
 51
90.0
  0
ARC
  5
108
  8
DATA
  6
CONTINUOUS
 62
     7
 10
472.44999999999999
 20
37.699999999999989
 30
0.0
 40
3.5500000000000109
 50
90.0
 51
270.0
  0
LINE
  5
109
  8
DATA
  6
CONTINUOUS
 62
     7
 10
475.75
 20
9.8500000000000227
 30
0.0
 11
472.44999999999999
 21
9.8500000000000227
 31
0.0
  0
LINE
  5
10A
  8
DATA
  6
CONTINUOUS
 62
     7
 10
475.75
 20
2.75
 30
0.0
 11
472.44999999999999
 21
2.75
 31
0.0
  0
ARC
  5
10B
  8
DATA
  6
CONTINUOUS
 62
     7
 10
475.75
 20
6.3000000000000114
 30
0.0
 40
3.5500000000000109
 50
270.0
 51
90.0
  0
ARC
  5
10C
  8
DATA
  6
CONTINUOUS
 62
     7
 10
472.44999999999999
 20
6.3000000000000114
 30
0.0
 40
3.5500000000000109
 50
90.0
 51
270.0
  0
CIRCLE
  5
10D
  8
DATA
  6
CONTINUOUS
 62
     7
 10
70.0
 20
22.0
 30
0.0
 40
13.999999999999989
  0
ARC
  5
10E
  8
DATA
  6
CONTINUOUS
 62
     7
 10
70.0
 20
22.0
 30
0.0
 40
13.64999999999999
 50
160.75123292751749
 51
203.76150040046619
  0
ARC
  5
10F
  8
DATA
  6
CONTINUOUS
 62
     7
 10
70.0
 20
22.0
 30
0.0
 40
13.649999999999981
 50
248.51236860283041
 51
291.48763139716959
  0
ARC
  5
110
  8
DATA
  6
CONTINUOUS
 62
     7
 10
70.0
 20
22.0
 30
0.0
 40
13.64999999999997
 50
336.23849959953378
 51
19.24876707248302
  0
ARC
  5
111
  8
DATA
  6
CONTINUOUS
 62
     7
 10
70.0
 20
22.0
 30
0.0
 40
13.649999999999981
 50
68.512368602830421
 51
111.48763139716959
  0
LINE
  5
112
  8
DATA
  6
CONTINUOUS
 62
     7
 10
65.0
 20
26.5
 30
0.0
 11
65.0
 21
34.701279463109593
 31
0.0
  0
LINE
  5
113
  8
DATA
  6
CONTINUOUS
 62
     7
 10
75.0
 20
26.5
 30
0.0
 11
75.0
 21
34.701279463109593
 31
0.0
  0
LINE
  5
114
  8
DATA
  6
CONTINUOUS
 62
     7
 10
75.0
 20
26.5
 30
0.0
 11
82.886911965245247
 21
26.5
 31
0.0
  0
LINE
  5
115
  8
DATA
  6
CONTINUOUS
 62
     7
 10
75.0
 20
16.5
 30
0.0
 11
82.492897982453442
 21
16.5
 31
0.0
  0
LINE
  5
116
  8
DATA
  6
CONTINUOUS
 62
     7
 10
75.0
 20
16.5
 30
0.0
 11
75.0
 21
9.2987205368904142
 31
0.0
  0
LINE
  5
117
  8
DATA
  6
CONTINUOUS
 62
     7
 10
65.0
 20
16.5
 30
0.0
 11
65.0
 21
9.2987205368904142
 31
0.0
  0
LINE
  5
118
  8
DATA
  6
CONTINUOUS
 62
     7
 10
65.0
 20
16.5
 30
0.0
 11
57.507102017546572
 21
16.5
 31
0.0
  0
LINE
  5
119
  8
DATA
  6
CONTINUOUS
 62
     7
 10
65.0
 20
26.5
 30
0.0
 11
57.113088034754753
 21
26.5
 31
0.0
  0
POLYLINE
  5
11A
  8
DATA
  6
CONTINUOUS
 62
     7
 66
     1
 10
0.0
 20
0.0
 30
0.0
 70
     1
  0
VERTEX
  5
99A
  8
DATA
  6
CONTINUOUS
 62
     7
 10
100.0
 20
30.0
 30
0.0
  0
VERTEX
  5
99B
  8
DATA
  6
CONTINUOUS
 62
     7
 10
160.0
 20
30.0
 30
0.0
  0
VERTEX
  5
99C
  8
DATA
  6
CONTINUOUS
 62
     7
 10
160.0
 20
14.0
 30
0.0
  0
VERTEX
  5
99D
  8
DATA
  6
CONTINUOUS
 62
     7
 10
100.0
 20
14.0
 30
0.0
  0
SEQEND
  5
99E
  8
DATA
  6
CONTINUOUS
 62
     7
  0
LINE
  5
120
  8
DATA
  6
CONTINUOUS
 62
     7
 10
88.0
 20
33.0
 30
0.0
 11
88.0
 21
11.0
 31
0.0
  0
LINE
  5
121
  8
DATA
  6
CONTINUOUS
 62
     7
 10
90.0
 20
9.0
 30
0.0
 11
170.0
 21
9.0
 31
0.0
  0
LINE
  5
122
  8
DATA
  6
CONTINUOUS
 62
     7
 10
172.0
 20
11.0
 30
0.0
 11
172.0
 21
33.0
 31
0.0
  0
LINE
  5
123
  8
DATA
  6
CONTINUOUS
 62
     7
 10
90.0
 20
35.0
 30
0.0
 11
170.0
 21
35.0
 31
0.0
  0
ARC
  5
124
  8
DATA
  6
CONTINUOUS
 62
     7
 10
170.0
 20
33.0
 30
0.0
 40
2.000000000000028
 50
359.99999999999841
 51
89.999999999999133
  0
ARC
  5
125
  8
DATA
  6
CONTINUOUS
 62
     7
 10
90.0
 20
33.0
 30
0.0
 40
2.0
 50
90.0
 51
180.0
  0
ARC
  5
126
  8
DATA
  6
CONTINUOUS
 62
     7
 10
170.0
 20
11.0
 30
0.0
 40
2.0
 50
270.0000000000008
 51
0.0000000000015916
  0
ARC
  5
127
  8
DATA
  6
CONTINUOUS
 62
     7
 10
90.0
 20
11.0
 30
0.0
 40
2.0
 50
180.0
 51
270.0
  0
CIRCLE
  5
128
  8
DATA
  6
CONTINUOUS
 62
     7
 10
191.0
 20
22.0
 30
0.0
 40
15.00000000000002
  0
ARC
  5
129
  8
DATA
  6
CONTINUOUS
 62
     7
 10
191.0
 20
22.0
 30
0.0
 40
12.80000000000001
 50
89.99999999999973
 51
105.0000000000007
  0
ARC
  5
12A
  8
DATA
  6
CONTINUOUS
 62
     7
 10
191.0
 20
22.0
 30
0.0
 40
12.800000000000001
 50
119.9999999999996
 51
135.00000000000011
  0
ARC
  5
12B
  8
DATA
  6
CONTINUOUS
 62
     7
 10
191.0
 20
22.0
 30
0.0
 40
12.79999999999999
 50
149.99999999999949
 51
165.00000000000051
  0
ARC
  5
12C
  8
DATA
  6
CONTINUOUS
 62
     7
 10
191.0
 20
22.0
 30
0.0
 40
12.80000000000001
 50
180.0
 51
195.00000000000051
  0
ARC
  5
12D
  8
DATA
  6
CONTINUOUS
 62
     7
 10
191.0
 20
22.0
 30
0.0
 40
12.80000000000002
 50
209.99999999999841
 51
224.99999999999281
  0
ARC
  5
12E
  8
DATA
  6
CONTINUOUS
 62
     7
 10
191.0
 20
22.0
 30
0.0
 40
12.80000000000002
 50
240.0000000000004
 51
255.00000000000031
  0
ARC
  5
12F
  8
DATA
  6
CONTINUOUS
 62
     7
 10
191.0
 20
22.0
 30
0.0
 40
12.80000000000001
 50
270.0
 51
285.0000000000008
  0
ARC
  5
130
  8
DATA
  6
CONTINUOUS
 62
     7
 10
191.0
 20
22.0
 30
0.0
 40
12.79999999999999
 50
299.99999999999937
 51
315.0000000000004
  0
ARC
  5
131
  8
DATA
  6
CONTINUOUS
 62
     7
 10
191.0
 20
22.0
 30
0.0
 40
12.80000000000002
 50
329.9999999999996
 51
345.00000000000011
  0
ARC
  5
132
  8
DATA
  6
CONTINUOUS
 62
     7
 10
191.0
 20
22.0
 30
0.0
 40
12.80000000000001
 50
0.0
 51
15.00000000000051
  0
ARC
  5
133
  8
DATA
  6
CONTINUOUS
 62
     7
 10
191.0
 20
22.0
 30
0.0
 40
12.79999999999999
 50
29.99999999999844
 51
45.000000000000632
  0
ARC
  5
134
  8
DATA
  6
CONTINUOUS
 62
     7
 10
191.0
 20
22.0
 30
0.0
 40
12.80000000000002
 50
59.999999999999858
 51
75.000000000000668
  0
CIRCLE
  5
135
  8
DATA
  6
CONTINUOUS
 62
     7
 10
191.0
 20
22.0
 30
0.0
 40
12.349999999999991
  0
ARC
  5
136
  8
DATA
  6
CONTINUOUS
 62
     7
 10
193.16924410082569
 20
38.477044800351692
 30
0.0
 40
4.2692245704296434
 50
239.46184944532649
 51
285.53815055467459
  0
ARC
  5
137
  8
DATA
  6
CONTINUOUS
 62
     7
 10
184.64009809814871
 20
37.354161426811693
 30
0.0
 40
4.2692245704296061
 50
269.46184944532661
 51
315.53815055467498
  0
ARC
  5
138
  8
DATA
  6
CONTINUOUS
 62
     7
 10
177.81508267401401
 20
32.117142898500447
 30
0.0
 40
4.2692245704296434
 50
299.46184944532598
 51
345.5381505546743
  0
ARC
  5
139
  8
DATA
  6
CONTINUOUS
 62
     7
 10
174.52295519964829
 20
24.169244100825662
 30
0.0
 40
4.2692245704296141
 50
329.46184944532718
 51
15.538150554674759
  0
ARC
  5
13A
  8
DATA
  6
CONTINUOUS
 62
     7
 10
175.64583857318831
 20
15.64009809814865
 30
0.0
 40
4.2692245704296621
 50
359.461849445327
 51
45.538150554674921
  0
ARC
  5
13B
  8
DATA
  6
CONTINUOUS
 62
     7
 10
180.88285710149961
 20
8.8150826740139792
 30
0.0
 40
4.2692245704296221
 50
29.461849445327012
 51
75.538150554675042
  0
ARC
  5
13C
  8
DATA
  6
CONTINUOUS
 62
     7
 10
188.83075589917439
 20
5.5229551996483206
 30
0.0
 40
4.2692245704296434
 50
59.461849445326528
 51
105.5381505546747
  0
ARC
  5
13D
  8
DATA
  6
CONTINUOUS
 62
     7
 10
197.3599019018512
 20
6.6458385731882572
 30
0.0
 40
4.2692245704296621
 50
89.461849445327005
 51
135.5381505546749
  0
ARC
  5
13E
  8
DATA
  6
CONTINUOUS
 62
     7
 10
204.18491732598599
 20
11.88285710149955
 30
0.0
 40
4.2692245704296079
 50
119.46184944532671
 51
165.5381505546749
  0
ARC
  5
13F
  8
DATA
  6
CONTINUOUS
 62
     7
 10
207.47704480035171
 20
19.830755899174331
 30
0.0
 40
4.2692245704296434
 50
149.46184944532649
 51
195.53815055467459
  0
ARC
  5
140
  8
DATA
  6
CONTINUOUS
 62
     7
 10
206.35416142681169
 20
28.359901901851291
 30
0.0
 40
4.2692245704296621
 50
179.461849445327
 51
225.5381505546749
  0
ARC
  5
141
  8
DATA
  6
CONTINUOUS
 62
     7
 10
201.11714289850039
 20
35.184917325986021
 30
0.0
 40
4.2692245704296221
 50
209.46184944532689
 51
255.53815055467541
  0
ARC
  5
142
  8
DATA
  6
CONTINUOUS
 62
     7
 10
211.5
 20
12.5
 30
0.0
 40
3.0
 50
90.0
 51
270.0
  0
ARC
  5
143
  8
DATA
  6
CONTINUOUS
 62
     7
 10
218.5
 20
12.5
 30
0.0
 40
3.0
 50
270.0
 51
90.0
  0
LINE
  5
144
  8
DATA
  6
CONTINUOUS
 62
     7
 10
211.5
 20
15.5
 30
0.0
 11
218.5
 21
15.5
 31
0.0
  0
LINE
  5
145
  8
DATA
  6
CONTINUOUS
 62
     7
 10
211.5
 20
9.5
 30
0.0
 11
218.5
 21
9.5
 31
0.0
  0
ARC
  5
146
  8
DATA
  6
CONTINUOUS
 62
     7
 10
228.0
 20
12.5
 30
0.0
 40
3.0
 50
90.0
 51
270.0
  0
ARC
  5
147
  8
DATA
  6
CONTINUOUS
 62
     7
 10
230.0
 20
12.5
 30
0.0
 40
3.0
 50
270.0
 51
90.0
  0
LINE
  5
148
  8
DATA
  6
CONTINUOUS
 62
     7
 10
228.0
 20
15.5
 30
0.0
 11
230.0
 21
15.5
 31
0.0
  0
LINE
  5
149
  8
DATA
  6
CONTINUOUS
 62
     7
 10
228.0
 20
9.5
 30
0.0
 11
230.0
 21
9.5
 31
0.0
  0
ARC
  5
14A
  8
DATA
  6
CONTINUOUS
 62
     7
 10
239.0
 20
12.5
 30
0.0
 40
3.0
 50
90.0
 51
270.0
  0
ARC
  5
14B
  8
DATA
  6
CONTINUOUS
 62
     7
 10
241.0
 20
12.5
 30
0.0
 40
3.0
 50
270.0
 51
90.0
  0
LINE
  5
14C
  8
DATA
  6
CONTINUOUS
 62
     7
 10
239.0
 20
15.5
 30
0.0
 11
241.0
 21
15.5
 31
0.0
  0
LINE
  5
14D
  8
DATA
  6
CONTINUOUS
 62
     7
 10
239.0
 20
9.5
 30
0.0
 11
241.0
 21
9.5
 31
0.0
  0
ARC
  5
14E
  8
DATA
  6
CONTINUOUS
 62
     7
 10
250.0
 20
12.5
 30
0.0
 40
3.0
 50
90.0
 51
270.0
  0
ARC
  5
14F
  8
DATA
  6
CONTINUOUS
 62
     7
 10
252.0
 20
12.5
 30
0.0
 40
3.0
 50
270.0
 51
90.0
  0
LINE
  5
150
  8
DATA
  6
CONTINUOUS
 62
     7
 10
250.0
 20
15.5
 30
0.0
 11
252.0
 21
15.5
 31
0.0
  0
LINE
  5
151
  8
DATA
  6
CONTINUOUS
 62
     7
 10
250.0
 20
9.5
 30
0.0
 11
252.0
 21
9.5
 31
0.0
  0
CIRCLE
  5
152
  8
DATA
  6
CONTINUOUS
 62
     7
 10
270.0
 20
12.0
 30
0.0
 40
3.5000000000000151
  0
POLYLINE
  5
153
  8
DATA
  6
CONTINUOUS
 62
     7
 66
     1
 10
0.0
 20
0.0
 30
0.0
 70
     1
  0
VERTEX
  5
99F
  8
DATA
  6
CONTINUOUS
 62
     7
 10
227.5
 20
22.0
 30
0.0
  0
VERTEX
  5
9A0
  8
DATA
  6
CONTINUOUS
 62
     7
 10
230.5
 20
22.0
 30
0.0
  0
VERTEX
  5
9A1
  8
DATA
  6
CONTINUOUS
 62
     7
 10
230.5
 20
20.0
 30
0.0
  0
VERTEX
  5
9A2
  8
DATA
  6
CONTINUOUS
 62
     7
 10
227.5
 20
20.0
 30
0.0
  0
SEQEND
  5
9A3
  8
DATA
  6
CONTINUOUS
 62
     7
  0
POLYLINE
  5
159
  8
DATA
  6
CONTINUOUS
 62
     7
 66
     1
 10
0.0
 20
0.0
 30
0.0
 70
     1
  0
VERTEX
  5
9A4
  8
DATA
  6
CONTINUOUS
 62
     7
 10
227.5
 20
24.5
 30
0.0
  0
VERTEX
  5
9A5
  8
DATA
  6
CONTINUOUS
 62
     7
 10
230.5
 20
24.5
 30
0.0
  0
VERTEX
  5
9A6
  8
DATA
  6
CONTINUOUS
 62
     7
 10
230.5
 20
22.5
 30
0.0
  0
VERTEX
  5
9A7
  8
DATA
  6
CONTINUOUS
 62
     7
 10
227.5
 20
22.5
 30
0.0
  0
SEQEND
  5
9A8
  8
DATA
  6
CONTINUOUS
 62
     7
  0
POLYLINE
  5
15F
  8
DATA
  6
CONTINUOUS
 62
     7
 66
     1
 10
0.0
 20
0.0
 30
0.0
 70
     1
  0
VERTEX
  5
9A9
  8
DATA
  6
CONTINUOUS
 62
     7
 10
227.5
 20
27.0
 30
0.0
  0
VERTEX
  5
9AA
  8
DATA
  6
CONTINUOUS
 62
     7
 10
230.5
 20
27.0
 30
0.0
  0
VERTEX
  5
9AB
  8
DATA
  6
CONTINUOUS
 62
     7
 10
230.5
 20
25.0
 30
0.0
  0
VERTEX
  5
9AC
  8
DATA
  6
CONTINUOUS
 62
     7
 10
227.5
 20
25.0
 30
0.0
  0
SEQEND
  5
9AD
  8
DATA
  6
CONTINUOUS
 62
     7
  0
POLYLINE
  5
165
  8
DATA
  6
CONTINUOUS
 62
     7
 66
     1
 10
0.0
 20
0.0
 30
0.0
 70
     1
  0
VERTEX
  5
9AE
  8
DATA
  6
CONTINUOUS
 62
     7
 10
227.5
 20
29.5
 30
0.0
  0
VERTEX
  5
9AF
  8
DATA
  6
CONTINUOUS
 62
     7
 10
230.5
 20
29.5
 30
0.0
  0
VERTEX
  5
9B0
  8
DATA
  6
CONTINUOUS
 62
     7
 10
230.5
 20
27.5
 30
0.0
  0
VERTEX
  5
9B1
  8
DATA
  6
CONTINUOUS
 62
     7
 10
227.5
 20
27.5
 30
0.0
  0
SEQEND
  5
9B2
  8
DATA
  6
CONTINUOUS
 62
     7
  0
POLYLINE
  5
16B
  8
DATA
  6
CONTINUOUS
 62
     7
 66
     1
 10
0.0
 20
0.0
 30
0.0
 70
     1
  0
VERTEX
  5
9B3
  8
DATA
  6
CONTINUOUS
 62
     7
 10
227.5
 20
32.0
 30
0.0
  0
VERTEX
  5
9B4
  8
DATA
  6
CONTINUOUS
 62
     7
 10
230.5
 20
32.0
 30
0.0
  0
VERTEX
  5
9B5
  8
DATA
  6
CONTINUOUS
 62
     7
 10
230.5
 20
30.0
 30
0.0
  0
VERTEX
  5
9B6
  8
DATA
  6
CONTINUOUS
 62
     7
 10
227.5
 20
30.0
 30
0.0
  0
SEQEND
  5
9B7
  8
DATA
  6
CONTINUOUS
 62
     7
  0
POLYLINE
  5
171
  8
DATA
  6
CONTINUOUS
 62
     7
 66
     1
 10
0.0
 20
0.0
 30
0.0
 70
     1
  0
VERTEX
  5
9B8
  8
DATA
  6
CONTINUOUS
 62
     7
 10
227.5
 20
34.5
 30
0.0
  0
VERTEX
  5
9B9
  8
DATA
  6
CONTINUOUS
 62
     7
 10
230.5
 20
34.5
 30
0.0
  0
VERTEX
  5
9BA
  8
DATA
  6
CONTINUOUS
 62
     7
 10
230.5
 20
32.5
 30
0.0
  0
VERTEX
  5
9BB
  8
DATA
  6
CONTINUOUS
 62
     7
 10
227.5
 20
32.5
 30
0.0
  0
SEQEND
  5
9BC
  8
DATA
  6
CONTINUOUS
 62
     7
  0
POLYLINE
  5
177
  8
DATA
  6
CONTINUOUS
 62
     7
 66
     1
 10
0.0
 20
0.0
 30
0.0
 70
     1
  0
VERTEX
  5
9BD
  8
DATA
  6
CONTINUOUS
 62
     7
 10
227.5
 20
37.0
 30
0.0
  0
VERTEX
  5
9BE
  8
DATA
  6
CONTINUOUS
 62
     7
 10
230.5
 20
37.0
 30
0.0
  0
VERTEX
  5
9BF
  8
DATA
  6
CONTINUOUS
 62
     7
 10
230.5
 20
35.0
 30
0.0
  0
VERTEX
  5
9C0
  8
DATA
  6
CONTINUOUS
 62
     7
 10
227.5
 20
35.0
 30
0.0
  0
SEQEND
  5
9C1
  8
DATA
  6
CONTINUOUS
 62
     7
  0
POLYLINE
  5
17D
  8
DATA
  6
CONTINUOUS
 62
     7
 66
     1
 10
0.0
 20
0.0
 30
0.0
 70
     1
  0
VERTEX
  5
9C2
  8
DATA
  6
CONTINUOUS
 62
     7
 10
268.5
 20
22.0
 30
0.0
  0
VERTEX
  5
9C3
  8
DATA
  6
CONTINUOUS
 62
     7
 10
271.5
 20
22.0
 30
0.0
  0
VERTEX
  5
9C4
  8
DATA
  6
CONTINUOUS
 62
     7
 10
271.5
 20
20.0
 30
0.0
  0
VERTEX
  5
9C5
  8
DATA
  6
CONTINUOUS
 62
     7
 10
268.5
 20
20.0
 30
0.0
  0
SEQEND
  5
9C6
  8
DATA
  6
CONTINUOUS
 62
     7
  0
POLYLINE
  5
183
  8
DATA
  6
CONTINUOUS
 62
     7
 66
     1
 10
0.0
 20
0.0
 30
0.0
 70
     1
  0
VERTEX
  5
9C7
  8
DATA
  6
CONTINUOUS
 62
     7
 10
268.5
 20
24.5
 30
0.0
  0
VERTEX
  5
9C8
  8
DATA
  6
CONTINUOUS
 62
     7
 10
271.5
 20
24.5
 30
0.0
  0
VERTEX
  5
9C9
  8
DATA
  6
CONTINUOUS
 62
     7
 10
271.5
 20
22.5
 30
0.0
  0
VERTEX
  5
9CA
  8
DATA
  6
CONTINUOUS
 62
     7
 10
268.5
 20
22.5
 30
0.0
  0
SEQEND
  5
9CB
  8
DATA
  6
CONTINUOUS
 62
     7
  0
POLYLINE
  5
189
  8
DATA
  6
CONTINUOUS
 62
     7
 66
     1
 10
0.0
 20
0.0
 30
0.0
 70
     1
  0
VERTEX
  5
9CC
  8
DATA
  6
CONTINUOUS
 62
     7
 10
268.5
 20
27.0
 30
0.0
  0
VERTEX
  5
9CD
  8
DATA
  6
CONTINUOUS
 62
     7
 10
271.5
 20
27.0
 30
0.0
  0
VERTEX
  5
9CE
  8
DATA
  6
CONTINUOUS
 62
     7
 10
271.5
 20
25.0
 30
0.0
  0
VERTEX
  5
9CF
  8
DATA
  6
CONTINUOUS
 62
     7
 10
268.5
 20
25.0
 30
0.0
  0
SEQEND
  5
9D0
  8
DATA
  6
CONTINUOUS
 62
     7
  0
POLYLINE
  5
18F
  8
DATA
  6
CONTINUOUS
 62
     7
 66
     1
 10
0.0
 20
0.0
 30
0.0
 70
     1
  0
VERTEX
  5
9D1
  8
DATA
  6
CONTINUOUS
 62
     7
 10
268.5
 20
29.5
 30
0.0
  0
VERTEX
  5
9D2
  8
DATA
  6
CONTINUOUS
 62
     7
 10
271.5
 20
29.5
 30
0.0
  0
VERTEX
  5
9D3
  8
DATA
  6
CONTINUOUS
 62
     7
 10
271.5
 20
27.5
 30
0.0
  0
VERTEX
  5
9D4
  8
DATA
  6
CONTINUOUS
 62
     7
 10
268.5
 20
27.5
 30
0.0
  0
SEQEND
  5
9D5
  8
DATA
  6
CONTINUOUS
 62
     7
  0
POLYLINE
  5
195
  8
DATA
  6
CONTINUOUS
 62
     7
 66
     1
 10
0.0
 20
0.0
 30
0.0
 70
     1
  0
VERTEX
  5
9D6
  8
DATA
  6
CONTINUOUS
 62
     7
 10
268.5
 20
32.0
 30
0.0
  0
VERTEX
  5
9D7
  8
DATA
  6
CONTINUOUS
 62
     7
 10
271.5
 20
32.0
 30
0.0
  0
VERTEX
  5
9D8
  8
DATA
  6
CONTINUOUS
 62
     7
 10
271.5
 20
30.0
 30
0.0
  0
VERTEX
  5
9D9
  8
DATA
  6
CONTINUOUS
 62
     7
 10
268.5
 20
30.0
 30
0.0
  0
SEQEND
  5
9DA
  8
DATA
  6
CONTINUOUS
 62
     7
  0
POLYLINE
  5
19B
  8
DATA
  6
CONTINUOUS
 62
     7
 66
     1
 10
0.0
 20
0.0
 30
0.0
 70
     1
  0
VERTEX
  5
9DB
  8
DATA
  6
CONTINUOUS
 62
     7
 10
268.5
 20
34.5
 30
0.0
  0
VERTEX
  5
9DC
  8
DATA
  6
CONTINUOUS
 62
     7
 10
271.5
 20
34.5
 30
0.0
  0
VERTEX
  5
9DD
  8
DATA
  6
CONTINUOUS
 62
     7
 10
271.5
 20
32.5
 30
0.0
  0
VERTEX
  5
9DE
  8
DATA
  6
CONTINUOUS
 62
     7
 10
268.5
 20
32.5
 30
0.0
  0
SEQEND
  5
9DF
  8
DATA
  6
CONTINUOUS
 62
     7
  0
POLYLINE
  5
1A1
  8
DATA
  6
CONTINUOUS
 62
     7
 66
     1
 10
0.0
 20
0.0
 30
0.0
 70
     1
  0
VERTEX
  5
9E0
  8
DATA
  6
CONTINUOUS
 62
     7
 10
268.5
 20
37.0
 30
0.0
  0
VERTEX
  5
9E1
  8
DATA
  6
CONTINUOUS
 62
     7
 10
271.5
 20
37.0
 30
0.0
  0
VERTEX
  5
9E2
  8
DATA
  6
CONTINUOUS
 62
     7
 10
271.5
 20
35.0
 30
0.0
  0
VERTEX
  5
9E3
  8
DATA
  6
CONTINUOUS
 62
     7
 10
268.5
 20
35.0
 30
0.0
  0
SEQEND
  5
9E4
  8
DATA
  6
CONTINUOUS
 62
     7
  0
POLYLINE
  5
1A7
  8
DATA
  6
CONTINUOUS
 62
     7
 66
     1
 10
0.0
 20
0.0
 30
0.0
 70
     1
  0
VERTEX
  5
9E5
  8
DATA
  6
CONTINUOUS
 62
     7
 10
227.40000000000001
 20
37.100000000000023
 30
0.0
  0
VERTEX
  5
9E6
  8
DATA
  6
CONTINUOUS
 62
     7
 10
230.59999999999999
 20
37.100000000000023
 30
0.0
  0
VERTEX
  5
9E7
  8
DATA
  6
CONTINUOUS
 62
     7
 10
230.59999999999999
 20
19.900000000000031
 30
0.0
  0
VERTEX
  5
9E8
  8
DATA
  6
CONTINUOUS
 62
     7
 10
227.40000000000001
 20
19.900000000000031
 30
0.0
  0
SEQEND
  5
9E9
  8
DATA
  6
CONTINUOUS
 62
     7
  0
POLYLINE
  5
1AD
  8
DATA
  6
CONTINUOUS
 62
     7
 66
     1
 10
0.0
 20
0.0
 30
0.0
 70
     1
  0
VERTEX
  5
9EA
  8
DATA
  6
CONTINUOUS
 62
     7
 10
238.5
 20
22.0
 30
0.0
  0
VERTEX
  5
9EB
  8
DATA
  6
CONTINUOUS
 62
     7
 10
241.5
 20
22.0
 30
0.0
  0
VERTEX
  5
9EC
  8
DATA
  6
CONTINUOUS
 62
     7
 10
241.5
 20
20.0
 30
0.0
  0
VERTEX
  5
9ED
  8
DATA
  6
CONTINUOUS
 62
     7
 10
238.5
 20
20.0
 30
0.0
  0
SEQEND
  5
9EE
  8
DATA
  6
CONTINUOUS
 62
     7
  0
POLYLINE
  5
1B3
  8
DATA
  6
CONTINUOUS
 62
     7
 66
     1
 10
0.0
 20
0.0
 30
0.0
 70
     1
  0
VERTEX
  5
9EF
  8
DATA
  6
CONTINUOUS
 62
     7
 10
238.5
 20
24.5
 30
0.0
  0
VERTEX
  5
9F0
  8
DATA
  6
CONTINUOUS
 62
     7
 10
241.5
 20
24.5
 30
0.0
  0
VERTEX
  5
9F1
  8
DATA
  6
CONTINUOUS
 62
     7
 10
241.5
 20
22.5
 30
0.0
  0
VERTEX
  5
9F2
  8
DATA
  6
CONTINUOUS
 62
     7
 10
238.5
 20
22.5
 30
0.0
  0
SEQEND
  5
9F3
  8
DATA
  6
CONTINUOUS
 62
     7
  0
POLYLINE
  5
1B9
  8
DATA
  6
CONTINUOUS
 62
     7
 66
     1
 10
0.0
 20
0.0
 30
0.0
 70
     1
  0
VERTEX
  5
9F4
  8
DATA
  6
CONTINUOUS
 62
     7
 10
238.5
 20
27.0
 30
0.0
  0
VERTEX
  5
9F5
  8
DATA
  6
CONTINUOUS
 62
     7
 10
241.5
 20
27.0
 30
0.0
  0
VERTEX
  5
9F6
  8
DATA
  6
CONTINUOUS
 62
     7
 10
241.5
 20
25.0
 30
0.0
  0
VERTEX
  5
9F7
  8
DATA
  6
CONTINUOUS
 62
     7
 10
238.5
 20
25.0
 30
0.0
  0
SEQEND
  5
9F8
  8
DATA
  6
CONTINUOUS
 62
     7
  0
POLYLINE
  5
1BF
  8
DATA
  6
CONTINUOUS
 62
     7
 66
     1
 10
0.0
 20
0.0
 30
0.0
 70
     1
  0
VERTEX
  5
9F9
  8
DATA
  6
CONTINUOUS
 62
     7
 10
238.5
 20
29.5
 30
0.0
  0
VERTEX
  5
9FA
  8
DATA
  6
CONTINUOUS
 62
     7
 10
241.5
 20
29.5
 30
0.0
  0
VERTEX
  5
9FB
  8
DATA
  6
CONTINUOUS
 62
     7
 10
241.5
 20
27.5
 30
0.0
  0
VERTEX
  5
9FC
  8
DATA
  6
CONTINUOUS
 62
     7
 10
238.5
 20
27.5
 30
0.0
  0
SEQEND
  5
9FD
  8
DATA
  6
CONTINUOUS
 62
     7
  0
POLYLINE
  5
1C5
  8
DATA
  6
CONTINUOUS
 62
     7
 66
     1
 10
0.0
 20
0.0
 30
0.0
 70
     1
  0
VERTEX
  5
9FE
  8
DATA
  6
CONTINUOUS
 62
     7
 10
238.5
 20
32.0
 30
0.0
  0
VERTEX
  5
9FF
  8
DATA
  6
CONTINUOUS
 62
     7
 10
241.5
 20
32.0
 30
0.0
  0
VERTEX
  5
A00
  8
DATA
  6
CONTINUOUS
 62
     7
 10
241.5
 20
30.0
 30
0.0
  0
VERTEX
  5
A01
  8
DATA
  6
CONTINUOUS
 62
     7
 10
238.5
 20
30.0
 30
0.0
  0
SEQEND
  5
A02
  8
DATA
  6
CONTINUOUS
 62
     7
  0
POLYLINE
  5
1CB
  8
DATA
  6
CONTINUOUS
 62
     7
 66
     1
 10
0.0
 20
0.0
 30
0.0
 70
     1
  0
VERTEX
  5
A03
  8
DATA
  6
CONTINUOUS
 62
     7
 10
238.5
 20
34.5
 30
0.0
  0
VERTEX
  5
A04
  8
DATA
  6
CONTINUOUS
 62
     7
 10
241.5
 20
34.5
 30
0.0
  0
VERTEX
  5
A05
  8
DATA
  6
CONTINUOUS
 62
     7
 10
241.5
 20
32.5
 30
0.0
  0
VERTEX
  5
A06
  8
DATA
  6
CONTINUOUS
 62
     7
 10
238.5
 20
32.5
 30
0.0
  0
SEQEND
  5
A07
  8
DATA
  6
CONTINUOUS
 62
     7
  0
POLYLINE
  5
1D1
  8
DATA
  6
CONTINUOUS
 62
     7
 66
     1
 10
0.0
 20
0.0
 30
0.0
 70
     1
  0
VERTEX
  5
A08
  8
DATA
  6
CONTINUOUS
 62
     7
 10
238.5
 20
37.0
 30
0.0
  0
VERTEX
  5
A09
  8
DATA
  6
CONTINUOUS
 62
     7
 10
241.5
 20
37.0
 30
0.0
  0
VERTEX
  5
A0A
  8
DATA
  6
CONTINUOUS
 62
     7
 10
241.5
 20
35.0
 30
0.0
  0
VERTEX
  5
A0B
  8
DATA
  6
CONTINUOUS
 62
     7
 10
238.5
 20
35.0
 30
0.0
  0
SEQEND
  5
A0C
  8
DATA
  6
CONTINUOUS
 62
     7
  0
POLYLINE
  5
1D7
  8
DATA
  6
CONTINUOUS
 62
     7
 66
     1
 10
0.0
 20
0.0
 30
0.0
 70
     1
  0
VERTEX
  5
A0D
  8
DATA
  6
CONTINUOUS
 62
     7
 10
238.40000000000001
 20
37.100000000000023
 30
0.0
  0
VERTEX
  5
A0E
  8
DATA
  6
CONTINUOUS
 62
     7
 10
241.59999999999999
 20
37.100000000000023
 30
0.0
  0
VERTEX
  5
A0F
  8
DATA
  6
CONTINUOUS
 62
     7
 10
241.59999999999999
 20
19.900000000000031
 30
0.0
  0
VERTEX
  5
A10
  8
DATA
  6
CONTINUOUS
 62
     7
 10
238.40000000000001
 20
19.900000000000031
 30
0.0
  0
SEQEND
  5
A11
  8
DATA
  6
CONTINUOUS
 62
     7
  0
ARC
  5
1DD
  8
DATA
  6
CONTINUOUS
 62
     7
 10
282.0
 20
24.0
 30
0.0
 40
5.0000000000000258
 50
112.4999999999993
 51
127.4999999999996
  0
ARC
  5
1DE
  8
DATA
  6
CONTINUOUS
 62
     7
 10
282.0
 20
24.0
 30
0.0
 40
5.0000000000000462
 50
142.49999999999861
 51
157.49999999999849
  0
ARC
  5
1DF
  8
DATA
  6
CONTINUOUS
 62
     7
 10
282.0
 20
24.0
 30
0.0
 40
5.0000000000000222
 50
172.4999999999992
 51
187.4999999999994
  0
ARC
  5
1E0
  8
DATA
  6
CONTINUOUS
 62
     7
 10
282.0
 20
24.0
 30
0.0
 40
5.0000000000000124
 50
202.4999999999994
 51
217.49999999999909
  0
ARC
  5
1E1
  8
DATA
  6
CONTINUOUS
 62
     7
 10
282.0
 20
24.0
 30
0.0
 40
5.0000000000000311
 50
232.49999999999909
 51
247.4999999999992
  0
ARC
  5
1E2
  8
DATA
  6
CONTINUOUS
 62
     7
 10
282.0
 20
24.0
 30
0.0
 40
4.9999999999999778
 50
262.4999999999992
 51
277.50000000000011
  0
ARC
  5
1E3
  8
DATA
  6
CONTINUOUS
 62
     7
 10
282.0
 20
24.0
 30
0.0
 40
5.0000000000000009
 50
292.5000000000004
 51
307.49999999999949
  0
ARC
  5
1E4
  8
DATA
  6
CONTINUOUS
 62
     7
 10
282.0
 20
24.0
 30
0.0
 40
5.0000000000000089
 50
322.50000000000068
 51
337.50000000000063
  0
ARC
  5
1E5
  8
DATA
  6
CONTINUOUS
 62
     7
 10
282.0
 20
24.0
 30
0.0
 40
5.0000000000000204
 50
352.50000000000051
 51
7.4999999999994893
  0
ARC
  5
1E6
  8
DATA
  6
CONTINUOUS
 62
     7
 10
282.0
 20
24.0
 30
0.0
 40
5.0000000000000258
 50
22.499999999999361
 51
37.5
  0
ARC
  5
1E7
  8
DATA
  6
CONTINUOUS
 62
     7
 10
282.0
 20
24.0
 30
0.0
 40
5.000000000000024
 50
52.500000000000263
 51
67.500000000000341
  0
ARC
  5
1E8
  8
DATA
  6
CONTINUOUS
 62
     7
 10
282.0
 20
24.0
 30
0.0
 40
5.0000000000000284
 50
82.499999999999915
 51
97.500000000000142
  0
ARC
  5
1E9
  8
DATA
  6
CONTINUOUS
 62
     7
 10
282.0
 20
24.0
 30
0.0
 40
4.050000000000014
 50
93.539026459004859
 51
86.460973540995127
  0
ARC
  5
1EA
  8
DATA
  6
CONTINUOUS
 62
     7
 10
282.0
 20
24.0
 30
0.0
 40
4.7500000000000009
 50
93.016961309816026
 51
86.983038690184003
  0
ARC
  5
1EB
  8
DATA
  6
CONTINUOUS
 62
     7
 10
283.5221945532553
 20
29.68090741175331
 30
0.0
 40
1.1313081265050611
 50
219.76848405798731
 51
290.23151594201317
  0
ARC
  5
1EC
  8
DATA
  6
CONTINUOUS
 62
     7
 10
280.47780544674481
 20
29.68090741175331
 30
0.0
 40
1.131308126505046
 50
249.76848405798751
 51
320.23151594201221
  0
ARC
  5
1ED
  8
DATA
  6
CONTINUOUS
 62
     7
 10
277.84128714150199
 20
28.15871285849812
 30
0.0
 40
1.131308126505056
 50
279.76848405798808
 51
350.23151594201488
  0
ARC
  5
1EE
  8
DATA
  6
CONTINUOUS
 62
     7
 10
276.31909258824669
 20
25.522194553255311
 30
0.0
 40
1.13130812650504
 50
309.76848405798819
 51
20.231515942015729
  0
ARC
  5
1EF
  8
DATA
  6
CONTINUOUS
 62
     7
 10
276.31909258824669
 20
22.47780544674481
 30
0.0
 40
1.131308126505099
 50
339.76848405798847
 51
50.231515942013047
  0
ARC
  5
1F0
  8
DATA
  6
CONTINUOUS
 62
     7
 10
277.84128714150199
 20
19.84128714150205
 30
0.0
 40
1.131308126505066
 50
9.7684840579909462
 51
80.231515942014752
  0
ARC
  5
1F1
  8
DATA
  6
CONTINUOUS
 62
     7
 10
280.4778054467447
 20
18.319092588246811
 30
0.0
 40
1.1313081265050611
 50
39.768484057987301
 51
110.2315159420132
  0
ARC
  5
1F2
  8
DATA
  6
CONTINUOUS
 62
     7
 10
283.52219455325519
 20
18.319092588246811
 30
0.0
 40
1.131308126505099
 50
69.768484057988459
 51
140.23151594201411
  0
ARC
  5
1F3
  8
DATA
  6
CONTINUOUS
 62
     7
 10
286.15871285849801
 20
19.84128714150205
 30
0.0
 40
1.131308126505046
 50
99.768484057985305
 51
170.23151594201471
  0
ARC
  5
1F4
  8
DATA
  6
CONTINUOUS
 62
     7
 10
287.68090741175331
 20
22.47780544674481
 30
0.0
 40
1.13130812650504
 50
129.7684840579883
 51
200.2315159420157
  0
ARC
  5
1F5
  8
DATA
  6
CONTINUOUS
 62
     7
 10
287.68090741175331
 20
25.52219455325525
 30
0.0
 40
1.131308126505099
 50
159.76848405798839
 51
230.231515942013
  0
ARC
  5
1F6
  8
DATA
  6
CONTINUOUS
 62
     7
 10
286.15871285849801
 20
28.15871285849801
 30
0.0
 40
1.131308126505046
 50
189.76848405798521
 51
260.23151594201471
  0
POLYLINE
  5
1F7
  8
DATA
  6
CONTINUOUS
 62
     7
 66
     1
 10
0.0
 20
0.0
 30
0.0
 70
     1
  0
VERTEX
  5
A12
  8
DATA
  6
CONTINUOUS
 62
     7
 10
281.75
 20
28.993746088859549
 30
0.0
  0
VERTEX
  5
A13
  8
DATA
  6
CONTINUOUS
 62
     7
 10
282.25
 20
28.993746088859549
 30
0.0
  0
VERTEX
  5
A14
  8
DATA
  6
CONTINUOUS
 62
     7
 10
282.25
 20
24.0
 30
0.0
  0
VERTEX
  5
A15
  8
DATA
  6
CONTINUOUS
 62
     7
 10
281.75
 20
24.0
 30
0.0
  0
SEQEND
  5
A16
  8
DATA
  6
CONTINUOUS
 62
     7
  0
LINE
  5
1FD
  8
DATA
  6
CONTINUOUS
 62
     7
 10
258.0
 20
15.0
 30
0.0
 11
258.0
 21
29.0
 31
0.0
  0
LINE
  5
1FE
  8
DATA
  6
CONTINUOUS
 62
     7
 10
282.0
 20
15.0
 30
0.0
 11
282.0
 21
19.0
 31
0.0
  0
LINE
  5
1FF
  8
DATA
  6
CONTINUOUS
 62
     7
 10
282.0
 20
28.993746088859549
 30
0.0
 11
282.0
 21
29.0
 31
0.0
  0
ARC
  5
200
  8
DATA
  6
CONTINUOUS
 62
     7
 10
270.0
 20
29.0
 30
0.0
 40
12.000000000000011
 50
10.399008057474401
 51
180.0
  0
ARC
  5
201
  8
DATA
  6
CONTINUOUS
 62
     7
 10
270.0
 20
15.0
 30
0.0
 40
12.0
 50
180.0
 51
0.0
  0
CIRCLE
  5
202
  8
DATA
  6
CONTINUOUS
 62
     7
 10
277.02071111972663
 20
28.17811946296252
 30
0.0
 40
0.3999999999999827
  0
CIRCLE
  5
203
  8
DATA
  6
CONTINUOUS
 62
     7
 10
275.59874960542061
 20
22.871286845164949
 30
0.0
 40
0.4000000000000197
  0
CIRCLE
  5
204
  8
DATA
  6
CONTINUOUS
 62
     7
 10
278.75
 20
18.370834875401162
 30
0.0
 40
0.3999999999999681
  0
CIRCLE
  5
205
  8
DATA
  6
CONTINUOUS
 62
     7
 10
286.97928888027337
 20
28.17811946296252
 30
0.0
 40
0.3999999999999827
  0
CIRCLE
  5
206
  8
DATA
  6
CONTINUOUS
 62
     7
 10
288.40125039457928
 20
22.871286845164949
 30
0.0
 40
0.4000000000000197
  0
CIRCLE
  5
207
  8
DATA
  6
CONTINUOUS
 62
     7
 10
285.25
 20
18.370834875401162
 30
0.0
 40
0.3999999999999681
  0
LINE
  5
208
  8
DATA
  6
CONTINUOUS
 62
     7
 10
281.0
 20
31.166025403784431
 30
0.0
 11
283.0
 21
31.166025403784431
 31
0.0
  0
LINE
  5
209
  8
DATA
  6
CONTINUOUS
 62
     7
 10
283.0
 20
31.166025403784431
 30
0.0
 11
282.0
 21
29.433974596215592
 31
0.0
  0
LINE
  5
20A
  8
DATA
  6
CONTINUOUS
 62
     7
 10
281.0
 20
31.166025403784431
 30
0.0
 11
282.0
 21
29.433974596215592
 31
0.0
  0
LINE
  5
20B
  8
DATA
  6
CONTINUOUS
 62
     7
 10
281.5
 20
36.5
 30
0.0
 11
282.5
 21
36.5
 31
0.0
  0
LINE
  5
20C
  8
DATA
  6
CONTINUOUS
 62
     7
 10
281.5
 20
34.5
 30
0.0
 11
282.5
 21
34.5
 31
0.0
  0
ARC
  5
20D
  8
DATA
  6
CONTINUOUS
 62
     7
 10
281.5
 20
35.5
 30
0.0
 40
1.0
 50
90.0
 51
270.0
  0
ARC
  5
20E
  8
DATA
  6
CONTINUOUS
 62
     7
 10
282.5
 20
35.5
 30
0.0
 40
1.0
 50
270.0
 51
90.0
  0
TEXT
  5
20F
  8
DATA
 62
     7
 10
279.58658854166669
 20
32.000331439394017
 30
0.0
 40
1.923828125
  1
push
 41
0.85
 11
279.58658854166669
 21
33.924159564394017
 31
0.0
 73
     3
  0
TEXT
  5
210
  8
DATA
 62
     7
 10
263.02301136363639
 20
35.113080018939513
 30
0.0
 40
1.923828125
  1
OVER
 41
0.85
 11
263.02301136363639
 21
37.036908143939513
 31
0.0
 73
     3
  0
TEXT
  5
211
  8
DATA
 62
     7
 10
261.77301136363639
 20
32.613080018939513
 30
0.0
 40
1.923828125
  1
LIMIT
 41
0.85
 11
261.77301136363639
 21
34.536908143939513
 31
0.0
 73
     3
  0
TEXT
  5
212
  8
DATA
 62
     7
 10
263.02301136363639
 20
30.11308001893951
 30
0.0
 40
1.923828125
  1
-3dB
 41
0.85
 11
263.02301136363639
 21
32.036908143939513
 31
0.0
 73
     3
  0
TEXT
  5
213
  8
DATA
 62
     7
 10
263.02301136363639
 20
27.61308001893951
 30
0.0
 40
1.923828125
  1
-6dB
 41
0.85
 11
263.02301136363639
 21
29.53690814393951
 31
0.0
 73
     3
  0
TEXT
  5
214
  8
DATA
 62
     7
 10
261.77301136363639
 20
25.11308001893951
 30
0.0
 40
1.923828125
  1
-12dB
 41
0.85
 11
261.77301136363639
 21
27.03690814393951
 31
0.0
 73
     3
  0
TEXT
  5
215
  8
DATA
 62
     7
 10
261.77301136363639
 20
22.61308001893951
 30
0.0
 40
1.923828125
  1
-20dB
 41
0.85
 11
261.77301136363639
 21
24.53690814393951
 31
0.0
 73
     3
  0
TEXT
  5
216
  8
DATA
 62
     7
 10
264.27301136363639
 20
20.11308001893951
 30
0.0
 40
1.923828125
  1
SIG
 41
0.85
 11
264.27301136363639
 21
22.03690814393951
 31
0.0
 73
     3
  0
TEXT
  5
217
  8
DATA
 62
     7
 10
286.04847832929522
 20
16.90314867424296
 30
0.0
 40
1.923828125
  1
+6
 41
0.85
 11
286.04847832929522
 21
18.82697679924296
 31
0.0
 73
     3
  0
TEXT
  5
218
  8
DATA
 62
     7
 10
279.0
 20
14.19999999999999
 30
0.0
 40
3.84765625
  1
dB
 41
0.85
 11
279.0
 21
18.047656249999989
 31
0.0
 73
     3
  0
TEXT
  5
219
  8
DATA
 62
     7
 10
265.0
 20
4.1641016151376666
 30
0.0
 40
3.84765625
  1
MUTE
 41
0.85
 11
265.0
 21
8.0117578651376675
 31
0.0
 73
     3
  0
TEXT
  5
21A
  8
DATA
 62
     7
 10
268.75
 20
10.19999999999999
 30
0.0
 40
3.84765625
  1
1
 41
0.85
 11
268.75
 21
14.04765624999999
 31
0.0
 73
     3
  0
TEXT
  5
21B
  8
DATA
 62
     7
 10
275.75
 20
16.877817234848969
 30
0.0
 40
1.923828125
  1
-6
 41
0.85
 11
275.75
 21
18.801645359848969
 31
0.0
 73
     3
  0
CIRCLE
  5
21C
  8
DATA
  6
CONTINUOUS
 62
     7
 10
302.0
 20
12.0
 30
0.0
 40
3.5000000000000151
  0
POLYLINE
  5
21D
  8
DATA
  6
CONTINUOUS
 62
     7
 66
     1
 10
0.0
 20
0.0
 30
0.0
 70
     1
  0
VERTEX
  5
A17
  8
DATA
  6
CONTINUOUS
 62
     7
 10
300.5
 20
22.0
 30
0.0
  0
VERTEX
  5
A18
  8
DATA
  6
CONTINUOUS
 62
     7
 10
303.5
 20
22.0
 30
0.0
  0
VERTEX
  5
A19
  8
DATA
  6
CONTINUOUS
 62
     7
 10
303.5
 20
20.0
 30
0.0
  0
VERTEX
  5
A1A
  8
DATA
  6
CONTINUOUS
 62
     7
 10
300.5
 20
20.0
 30
0.0
  0
SEQEND
  5
A1B
  8
DATA
  6
CONTINUOUS
 62
     7
  0
POLYLINE
  5
223
  8
DATA
  6
CONTINUOUS
 62
     7
 66
     1
 10
0.0
 20
0.0
 30
0.0
 70
     1
  0
VERTEX
  5
A1C
  8
DATA
  6
CONTINUOUS
 62
     7
 10
300.5
 20
24.5
 30
0.0
  0
VERTEX
  5
A1D
  8
DATA
  6
CONTINUOUS
 62
     7
 10
303.5
 20
24.5
 30
0.0
  0
VERTEX
  5
A1E
  8
DATA
  6
CONTINUOUS
 62
     7
 10
303.5
 20
22.5
 30
0.0
  0
VERTEX
  5
A1F
  8
DATA
  6
CONTINUOUS
 62
     7
 10
300.5
 20
22.5
 30
0.0
  0
SEQEND
  5
A20
  8
DATA
  6
CONTINUOUS
 62
     7
  0
POLYLINE
  5
229
  8
DATA
  6
CONTINUOUS
 62
     7
 66
     1
 10
0.0
 20
0.0
 30
0.0
 70
     1
  0
VERTEX
  5
A21
  8
DATA
  6
CONTINUOUS
 62
     7
 10
300.5
 20
27.0
 30
0.0
  0
VERTEX
  5
A22
  8
DATA
  6
CONTINUOUS
 62
     7
 10
303.5
 20
27.0
 30
0.0
  0
VERTEX
  5
A23
  8
DATA
  6
CONTINUOUS
 62
     7
 10
303.5
 20
25.0
 30
0.0
  0
VERTEX
  5
A24
  8
DATA
  6
CONTINUOUS
 62
     7
 10
300.5
 20
25.0
 30
0.0
  0
SEQEND
  5
A25
  8
DATA
  6
CONTINUOUS
 62
     7
  0
POLYLINE
  5
22F
  8
DATA
  6
CONTINUOUS
 62
     7
 66
     1
 10
0.0
 20
0.0
 30
0.0
 70
     1
  0
VERTEX
  5
A26
  8
DATA
  6
CONTINUOUS
 62
     7
 10
300.5
 20
29.5
 30
0.0
  0
VERTEX
  5
A27
  8
DATA
  6
CONTINUOUS
 62
     7
 10
303.5
 20
29.5
 30
0.0
  0
VERTEX
  5
A28
  8
DATA
  6
CONTINUOUS
 62
     7
 10
303.5
 20
27.5
 30
0.0
  0
VERTEX
  5
A29
  8
DATA
  6
CONTINUOUS
 62
     7
 10
300.5
 20
27.5
 30
0.0
  0
SEQEND
  5
A2A
  8
DATA
  6
CONTINUOUS
 62
     7
  0
POLYLINE
  5
235
  8
DATA
  6
CONTINUOUS
 62
     7
 66
     1
 10
0.0
 20
0.0
 30
0.0
 70
     1
  0
VERTEX
  5
A2B
  8
DATA
  6
CONTINUOUS
 62
     7
 10
300.5
 20
32.0
 30
0.0
  0
VERTEX
  5
A2C
  8
DATA
  6
CONTINUOUS
 62
     7
 10
303.5
 20
32.0
 30
0.0
  0
VERTEX
  5
A2D
  8
DATA
  6
CONTINUOUS
 62
     7
 10
303.5
 20
30.0
 30
0.0
  0
VERTEX
  5
A2E
  8
DATA
  6
CONTINUOUS
 62
     7
 10
300.5
 20
30.0
 30
0.0
  0
SEQEND
  5
A2F
  8
DATA
  6
CONTINUOUS
 62
     7
  0
POLYLINE
  5
23B
  8
DATA
  6
CONTINUOUS
 62
     7
 66
     1
 10
0.0
 20
0.0
 30
0.0
 70
     1
  0
VERTEX
  5
A30
  8
DATA
  6
CONTINUOUS
 62
     7
 10
300.5
 20
34.5
 30
0.0
  0
VERTEX
  5
A31
  8
DATA
  6
CONTINUOUS
 62
     7
 10
303.5
 20
34.5
 30
0.0
  0
VERTEX
  5
A32
  8
DATA
  6
CONTINUOUS
 62
     7
 10
303.5
 20
32.5
 30
0.0
  0
VERTEX
  5
A33
  8
DATA
  6
CONTINUOUS
 62
     7
 10
300.5
 20
32.5
 30
0.0
  0
SEQEND
  5
A34
  8
DATA
  6
CONTINUOUS
 62
     7
  0
POLYLINE
  5
241
  8
DATA
  6
CONTINUOUS
 62
     7
 66
     1
 10
0.0
 20
0.0
 30
0.0
 70
     1
  0
VERTEX
  5
A35
  8
DATA
  6
CONTINUOUS
 62
     7
 10
300.5
 20
37.0
 30
0.0
  0
VERTEX
  5
A36
  8
DATA
  6
CONTINUOUS
 62
     7
 10
303.5
 20
37.0
 30
0.0
  0
VERTEX
  5
A37
  8
DATA
  6
CONTINUOUS
 62
     7
 10
303.5
 20
35.0
 30
0.0
  0
VERTEX
  5
A38
  8
DATA
  6
CONTINUOUS
 62
     7
 10
300.5
 20
35.0
 30
0.0
  0
SEQEND
  5
A39
  8
DATA
  6
CONTINUOUS
 62
     7
  0
ARC
  5
247
  8
DATA
  6
CONTINUOUS
 62
     7
 10
314.0
 20
24.0
 30
0.0
 40
5.0000000000000258
 50
112.4999999999993
 51
127.4999999999997
  0
ARC
  5
248
  8
DATA
  6
CONTINUOUS
 62
     7
 10
314.0
 20
24.0
 30
0.0
 40
5.0000000000000462
 50
142.49999999999861
 51
157.49999999999849
  0
ARC
  5
249
  8
DATA
  6
CONTINUOUS
 62
     7
 10
314.0
 20
24.0
 30
0.0
 40
5.0000000000000222
 50
172.4999999999992
 51
187.4999999999994
  0
ARC
  5
24A
  8
DATA
  6
CONTINUOUS
 62
     7
 10
314.0
 20
24.0
 30
0.0
 40
5.0000000000000124
 50
202.4999999999994
 51
217.4999999999992
  0
ARC
  5
24B
  8
DATA
  6
CONTINUOUS
 62
     7
 10
314.0
 20
24.0
 30
0.0
 40
5.0000000000000311
 50
232.49999999999909
 51
247.49999999999909
  0
ARC
  5
24C
  8
DATA
  6
CONTINUOUS
 62
     7
 10
314.0
 20
24.0
 30
0.0
 40
4.9999999999999778
 50
262.4999999999992
 51
277.49999999999989
  0
ARC
  5
24D
  8
DATA
  6
CONTINUOUS
 62
     7
 10
314.0
 20
24.0
 30
0.0
 40
5.0000000000000009
 50
292.5000000000004
 51
307.49999999999949
  0
ARC
  5
24E
  8
DATA
  6
CONTINUOUS
 62
     7
 10
314.0
 20
24.0
 30
0.0
 40
5.0000000000000089
 50
322.50000000000068
 51
337.50000000000063
  0
ARC
  5
24F
  8
DATA
  6
CONTINUOUS
 62
     7
 10
314.0
 20
24.0
 30
0.0
 40
5.0000000000000204
 50
352.50000000000051
 51
7.4999999999994893
  0
ARC
  5
250
  8
DATA
  6
CONTINUOUS
 62
     7
 10
314.0
 20
24.0
 30
0.0
 40
5.0000000000000258
 50
22.499999999999361
 51
37.5
  0
ARC
  5
251
  8
DATA
  6
CONTINUOUS
 62
     7
 10
314.0
 20
24.0
 30
0.0
 40
5.000000000000024
 50
52.500000000000263
 51
67.500000000000483
  0
ARC
  5
252
  8
DATA
  6
CONTINUOUS
 62
     7
 10
314.0
 20
24.0
 30
0.0
 40
5.0000000000000284
 50
82.499999999999915
 51
97.500000000000142
  0
ARC
  5
253
  8
DATA
  6
CONTINUOUS
 62
     7
 10
314.0
 20
24.0
 30
0.0
 40
4.050000000000014
 50
93.539026459004859
 51
86.460973540995127
  0
ARC
  5
254
  8
DATA
  6
CONTINUOUS
 62
     7
 10
314.0
 20
24.0
 30
0.0
 40
4.7500000000000009
 50
93.016961309816026
 51
86.983038690184003
  0
ARC
  5
255
  8
DATA
  6
CONTINUOUS
 62
     7
 10
315.5221945532553
 20
29.68090741175331
 30
0.0
 40
1.1313081265050611
 50
219.76848405798731
 51
290.23151594201352
  0
ARC
  5
256
  8
DATA
  6
CONTINUOUS
 62
     7
 10
312.4778054467447
 20
29.68090741175331
 30
0.0
 40
1.131308126505046
 50
249.76848405798751
 51
320.23151594201221
  0
ARC
  5
257
  8
DATA
  6
CONTINUOUS
 62
     7
 10
309.84128714150199
 20
28.15871285849812
 30
0.0
 40
1.131308126505056
 50
279.76848405798808
 51
350.23151594201482
  0
ARC
  5
258
  8
DATA
  6
CONTINUOUS
 62
     7
 10
308.3190925882468
 20
25.522194553255311
 30
0.0
 40
1.13130812650504
 50
309.76848405798819
 51
20.231515942015729
  0
ARC
  5
259
  8
DATA
  6
CONTINUOUS
 62
     7
 10
308.31909258824669
 20
22.47780544674481
 30
0.0
 40
1.131308126505099
 50
339.76848405798847
 51
50.23151594201272
  0
ARC
  5
25A
  8
DATA
  6
CONTINUOUS
 62
     7
 10
309.84128714150199
 20
19.84128714150205
 30
0.0
 40
1.131308126505066
 50
9.7684840579909462
 51
80.231515942014752
  0
ARC
  5
25B
  8
DATA
  6
CONTINUOUS
 62
     7
 10
312.4778054467447
 20
18.319092588246811
 30
0.0
 40
1.1313081265050611
 50
39.768484057987301
 51
110.2315159420135
  0
ARC
  5
25C
  8
DATA
  6
CONTINUOUS
 62
     7
 10
315.5221945532553
 20
18.319092588246811
 30
0.0
 40
1.131308126505099
 50
69.768484057988459
 51
140.23151594201431
  0
ARC
  5
25D
  8
DATA
  6
CONTINUOUS
 62
     7
 10
318.15871285849801
 20
19.84128714150205
 30
0.0
 40
1.131308126505046
 50
99.768484057985305
 51
170.23151594201471
  0
ARC
  5
25E
  8
DATA
  6
CONTINUOUS
 62
     7
 10
319.68090741175331
 20
22.47780544674481
 30
0.0
 40
1.13130812650504
 50
129.7684840579883
 51
200.2315159420157
  0
ARC
  5
25F
  8
DATA
  6
CONTINUOUS
 62
     7
 10
319.68090741175331
 20
25.52219455325525
 30
0.0
 40
1.131308126505099
 50
159.76848405798839
 51
230.23151594201289
  0
ARC
  5
260
  8
DATA
  6
CONTINUOUS
 62
     7
 10
318.15871285849801
 20
28.15871285849801
 30
0.0
 40
1.131308126505046
 50
189.76848405798521
 51
260.23151594201471
  0
POLYLINE
  5
261
  8
DATA
  6
CONTINUOUS
 62
     7
 66
     1
 10
0.0
 20
0.0
 30
0.0
 70
     1
  0
VERTEX
  5
A3A
  8
DATA
  6
CONTINUOUS
 62
     7
 10
313.75
 20
28.993746088859549
 30
0.0
  0
VERTEX
  5
A3B
  8
DATA
  6
CONTINUOUS
 62
     7
 10
314.25
 20
28.993746088859549
 30
0.0
  0
VERTEX
  5
A3C
  8
DATA
  6
CONTINUOUS
 62
     7
 10
314.25
 20
24.0
 30
0.0
  0
VERTEX
  5
A3D
  8
DATA
  6
CONTINUOUS
 62
     7
 10
313.75
 20
24.0
 30
0.0
  0
SEQEND
  5
A3E
  8
DATA
  6
CONTINUOUS
 62
     7
  0
LINE
  5
267
  8
DATA
  6
CONTINUOUS
 62
     7
 10
290.0
 20
15.0
 30
0.0
 11
290.0
 21
29.0
 31
0.0
  0
LINE
  5
268
  8
DATA
  6
CONTINUOUS
 62
     7
 10
314.0
 20
15.0
 30
0.0
 11
314.0
 21
19.0
 31
0.0
  0
LINE
  5
269
  8
DATA
  6
CONTINUOUS
 62
     7
 10
314.0
 20
28.993746088859549
 30
0.0
 11
314.0
 21
29.0
 31
0.0
  0
ARC
  5
26A
  8
DATA
  6
CONTINUOUS
 62
     7
 10
302.0
 20
29.0
 30
0.0
 40
12.000000000000011
 50
10.399008057474401
 51
180.0
  0
ARC
  5
26B
  8
DATA
  6
CONTINUOUS
 62
     7
 10
302.0
 20
15.0
 30
0.0
 40
12.0
 50
180.0
 51
0.0
  0
CIRCLE
  5
26C
  8
DATA
  6
CONTINUOUS
 62
     7
 10
309.02071111972663
 20
28.17811946296252
 30
0.0
 40
0.3999999999999827
  0
CIRCLE
  5
26D
  8
DATA
  6
CONTINUOUS
 62
     7
 10
307.59874960542061
 20
22.871286845164949
 30
0.0
 40
0.4000000000000197
  0
CIRCLE
  5
26E
  8
DATA
  6
CONTINUOUS
 62
     7
 10
310.75
 20
18.370834875401162
 30
0.0
 40
0.3999999999999681
  0
CIRCLE
  5
26F
  8
DATA
  6
CONTINUOUS
 62
     7
 10
318.97928888027337
 20
28.17811946296252
 30
0.0
 40
0.3999999999999827
  0
CIRCLE
  5
270
  8
DATA
  6
CONTINUOUS
 62
     7
 10
320.40125039457939
 20
22.871286845164949
 30
0.0
 40
0.4000000000000197
  0
CIRCLE
  5
271
  8
DATA
  6
CONTINUOUS
 62
     7
 10
317.25
 20
18.370834875401162
 30
0.0
 40
0.3999999999999681
  0
LINE
  5
272
  8
DATA
  6
CONTINUOUS
 62
     7
 10
313.0
 20
31.166025403784431
 30
0.0
 11
315.0
 21
31.166025403784431
 31
0.0
  0
LINE
  5
273
  8
DATA
  6
CONTINUOUS
 62
     7
 10
315.0
 20
31.166025403784431
 30
0.0
 11
314.0
 21
29.433974596215592
 31
0.0
  0
LINE
  5
274
  8
DATA
  6
CONTINUOUS
 62
     7
 10
313.0
 20
31.166025403784431
 30
0.0
 11
314.0
 21
29.433974596215592
 31
0.0
  0
LINE
  5
275
  8
DATA
  6
CONTINUOUS
 62
     7
 10
313.5
 20
36.5
 30
0.0
 11
314.5
 21
36.5
 31
0.0
  0
LINE
  5
276
  8
DATA
  6
CONTINUOUS
 62
     7
 10
313.5
 20
34.5
 30
0.0
 11
314.5
 21
34.5
 31
0.0
  0
ARC
  5
277
  8
DATA
  6
CONTINUOUS
 62
     7
 10
313.5
 20
35.5
 30
0.0
 40
1.0
 50
90.0
 51
270.0
  0
ARC
  5
278
  8
DATA
  6
CONTINUOUS
 62
     7
 10
314.5
 20
35.5
 30
0.0
 40
1.0
 50
270.0
 51
90.0
  0
TEXT
  5
279
  8
DATA
 62
     7
 10
311.58658854166669
 20
32.000331439394017
 30
0.0
 40
1.923828125
  1
push
 41
0.85
 11
311.58658854166669
 21
33.924159564394017
 31
0.0
 73
     3
  0
TEXT
  5
27A
  8
DATA
 62
     7
 10
295.02301136363639
 20
35.113080018939513
 30
0.0
 40
1.923828125
  1
OVER
 41
0.85
 11
295.02301136363639
 21
37.036908143939513
 31
0.0
 73
     3
  0
TEXT
  5
27B
  8
DATA
 62
     7
 10
293.77301136363639
 20
32.613080018939513
 30
0.0
 40
1.923828125
  1
LIMIT
 41
0.85
 11
293.77301136363639
 21
34.536908143939513
 31
0.0
 73
     3
  0
TEXT
  5
27C
  8
DATA
 62
     7
 10
295.02301136363639
 20
30.11308001893951
 30
0.0
 40
1.923828125
  1
-3dB
 41
0.85
 11
295.02301136363639
 21
32.036908143939513
 31
0.0
 73
     3
  0
TEXT
  5
27D
  8
DATA
 62
     7
 10
295.02301136363639
 20
27.61308001893951
 30
0.0
 40
1.923828125
  1
-6dB
 41
0.85
 11
295.02301136363639
 21
29.53690814393951
 31
0.0
 73
     3
  0
TEXT
  5
27E
  8
DATA
 62
     7
 10
293.77301136363639
 20
25.11308001893951
 30
0.0
 40
1.923828125
  1
-12dB
 41
0.85
 11
293.77301136363639
 21
27.03690814393951
 31
0.0
 73
     3
  0
TEXT
  5
27F
  8
DATA
 62
     7
 10
293.77301136363639
 20
22.61308001893951
 30
0.0
 40
1.923828125
  1
-20dB
 41
0.85
 11
293.77301136363639
 21
24.53690814393951
 31
0.0
 73
     3
  0
TEXT
  5
280
  8
DATA
 62
     7
 10
296.27301136363639
 20
20.11308001893951
 30
0.0
 40
1.923828125
  1
SIG
 41
0.85
 11
296.27301136363639
 21
22.03690814393951
 31
0.0
 73
     3
  0
TEXT
  5
281
  8
DATA
 62
     7
 10
318.04847832929522
 20
16.90314867424296
 30
0.0
 40
1.923828125
  1
+6
 41
0.85
 11
318.04847832929522
 21
18.82697679924296
 31
0.0
 73
     3
  0
TEXT
  5
282
  8
DATA
 62
     7
 10
311.0
 20
14.19999999999999
 30
0.0
 40
3.84765625
  1
dB
 41
0.85
 11
311.0
 21
18.047656249999989
 31
0.0
 73
     3
  0
TEXT
  5
283
  8
DATA
 62
     7
 10
297.0
 20
4.1641016151376666
 30
0.0
 40
3.84765625
  1
MUTE
 41
0.85
 11
297.0
 21
8.0117578651376675
 31
0.0
 73
     3
  0
TEXT
  5
284
  8
DATA
 62
     7
 10
300.75
 20
10.19999999999999
 30
0.0
 40
3.84765625
  1
2
 41
0.85
 11
300.75
 21
14.04765624999999
 31
0.0
 73
     3
  0
TEXT
  5
285
  8
DATA
 62
     7
 10
307.75
 20
16.877817234848969
 30
0.0
 40
1.923828125
  1
-6
 41
0.85
 11
307.75
 21
18.801645359848969
 31
0.0
 73
     3
  0
CIRCLE
  5
286
  8
DATA
  6
CONTINUOUS
 62
     7
 10
334.0
 20
12.0
 30
0.0
 40
3.5000000000000151
  0
POLYLINE
  5
287
  8
DATA
  6
CONTINUOUS
 62
     7
 66
     1
 10
0.0
 20
0.0
 30
0.0
 70
     1
  0
VERTEX
  5
A3F
  8
DATA
  6
CONTINUOUS
 62
     7
 10
332.5
 20
22.0
 30
0.0
  0
VERTEX
  5
A40
  8
DATA
  6
CONTINUOUS
 62
     7
 10
335.5
 20
22.0
 30
0.0
  0
VERTEX
  5
A41
  8
DATA
  6
CONTINUOUS
 62
     7
 10
335.5
 20
20.0
 30
0.0
  0
VERTEX
  5
A42
  8
DATA
  6
CONTINUOUS
 62
     7
 10
332.5
 20
20.0
 30
0.0
  0
SEQEND
  5
A43
  8
DATA
  6
CONTINUOUS
 62
     7
  0
POLYLINE
  5
28D
  8
DATA
  6
CONTINUOUS
 62
     7
 66
     1
 10
0.0
 20
0.0
 30
0.0
 70
     1
  0
VERTEX
  5
A44
  8
DATA
  6
CONTINUOUS
 62
     7
 10
332.5
 20
24.5
 30
0.0
  0
VERTEX
  5
A45
  8
DATA
  6
CONTINUOUS
 62
     7
 10
335.5
 20
24.5
 30
0.0
  0
VERTEX
  5
A46
  8
DATA
  6
CONTINUOUS
 62
     7
 10
335.5
 20
22.5
 30
0.0
  0
VERTEX
  5
A47
  8
DATA
  6
CONTINUOUS
 62
     7
 10
332.5
 20
22.5
 30
0.0
  0
SEQEND
  5
A48
  8
DATA
  6
CONTINUOUS
 62
     7
  0
POLYLINE
  5
293
  8
DATA
  6
CONTINUOUS
 62
     7
 66
     1
 10
0.0
 20
0.0
 30
0.0
 70
     1
  0
VERTEX
  5
A49
  8
DATA
  6
CONTINUOUS
 62
     7
 10
332.5
 20
27.0
 30
0.0
  0
VERTEX
  5
A4A
  8
DATA
  6
CONTINUOUS
 62
     7
 10
335.5
 20
27.0
 30
0.0
  0
VERTEX
  5
A4B
  8
DATA
  6
CONTINUOUS
 62
     7
 10
335.5
 20
25.0
 30
0.0
  0
VERTEX
  5
A4C
  8
DATA
  6
CONTINUOUS
 62
     7
 10
332.5
 20
25.0
 30
0.0
  0
SEQEND
  5
A4D
  8
DATA
  6
CONTINUOUS
 62
     7
  0
POLYLINE
  5
299
  8
DATA
  6
CONTINUOUS
 62
     7
 66
     1
 10
0.0
 20
0.0
 30
0.0
 70
     1
  0
VERTEX
  5
A4E
  8
DATA
  6
CONTINUOUS
 62
     7
 10
332.5
 20
29.5
 30
0.0
  0
VERTEX
  5
A4F
  8
DATA
  6
CONTINUOUS
 62
     7
 10
335.5
 20
29.5
 30
0.0
  0
VERTEX
  5
A50
  8
DATA
  6
CONTINUOUS
 62
     7
 10
335.5
 20
27.5
 30
0.0
  0
VERTEX
  5
A51
  8
DATA
  6
CONTINUOUS
 62
     7
 10
332.5
 20
27.5
 30
0.0
  0
SEQEND
  5
A52
  8
DATA
  6
CONTINUOUS
 62
     7
  0
POLYLINE
  5
29F
  8
DATA
  6
CONTINUOUS
 62
     7
 66
     1
 10
0.0
 20
0.0
 30
0.0
 70
     1
  0
VERTEX
  5
A53
  8
DATA
  6
CONTINUOUS
 62
     7
 10
332.5
 20
32.0
 30
0.0
  0
VERTEX
  5
A54
  8
DATA
  6
CONTINUOUS
 62
     7
 10
335.5
 20
32.0
 30
0.0
  0
VERTEX
  5
A55
  8
DATA
  6
CONTINUOUS
 62
     7
 10
335.5
 20
30.0
 30
0.0
  0
VERTEX
  5
A56
  8
DATA
  6
CONTINUOUS
 62
     7
 10
332.5
 20
30.0
 30
0.0
  0
SEQEND
  5
A57
  8
DATA
  6
CONTINUOUS
 62
     7
  0
POLYLINE
  5
2A5
  8
DATA
  6
CONTINUOUS
 62
     7
 66
     1
 10
0.0
 20
0.0
 30
0.0
 70
     1
  0
VERTEX
  5
A58
  8
DATA
  6
CONTINUOUS
 62
     7
 10
332.5
 20
34.5
 30
0.0
  0
VERTEX
  5
A59
  8
DATA
  6
CONTINUOUS
 62
     7
 10
335.5
 20
34.5
 30
0.0
  0
VERTEX
  5
A5A
  8
DATA
  6
CONTINUOUS
 62
     7
 10
335.5
 20
32.5
 30
0.0
  0
VERTEX
  5
A5B
  8
DATA
  6
CONTINUOUS
 62
     7
 10
332.5
 20
32.5
 30
0.0
  0
SEQEND
  5
A5C
  8
DATA
  6
CONTINUOUS
 62
     7
  0
POLYLINE
  5
2AB
  8
DATA
  6
CONTINUOUS
 62
     7
 66
     1
 10
0.0
 20
0.0
 30
0.0
 70
     1
  0
VERTEX
  5
A5D
  8
DATA
  6
CONTINUOUS
 62
     7
 10
332.5
 20
37.0
 30
0.0
  0
VERTEX
  5
A5E
  8
DATA
  6
CONTINUOUS
 62
     7
 10
335.5
 20
37.0
 30
0.0
  0
VERTEX
  5
A5F
  8
DATA
  6
CONTINUOUS
 62
     7
 10
335.5
 20
35.0
 30
0.0
  0
VERTEX
  5
A60
  8
DATA
  6
CONTINUOUS
 62
     7
 10
332.5
 20
35.0
 30
0.0
  0
SEQEND
  5
A61
  8
DATA
  6
CONTINUOUS
 62
     7
  0
ARC
  5
2B1
  8
DATA
  6
CONTINUOUS
 62
     7
 10
346.0
 20
24.0
 30
0.0
 40
5.0000000000000258
 50
112.4999999999993
 51
127.4999999999997
  0
ARC
  5
2B2
  8
DATA
  6
CONTINUOUS
 62
     7
 10
346.0
 20
24.0
 30
0.0
 40
5.0000000000000462
 50
142.49999999999861
 51
157.49999999999849
  0
ARC
  5
2B3
  8
DATA
  6
CONTINUOUS
 62
     7
 10
346.0
 20
24.0
 30
0.0
 40
5.0000000000000222
 50
172.4999999999992
 51
187.4999999999994
  0
ARC
  5
2B4
  8
DATA
  6
CONTINUOUS
 62
     7
 10
346.0
 20
24.0
 30
0.0
 40
5.0000000000000124
 50
202.4999999999994
 51
217.4999999999992
  0
ARC
  5
2B5
  8
DATA
  6
CONTINUOUS
 62
     7
 10
346.0
 20
24.0
 30
0.0
 40
5.0000000000000311
 50
232.49999999999909
 51
247.49999999999901
  0
ARC
  5
2B6
  8
DATA
  6
CONTINUOUS
 62
     7
 10
346.0
 20
24.0
 30
0.0
 40
4.9999999999999778
 50
262.4999999999992
 51
277.49999999999989
  0
ARC
  5
2B7
  8
DATA
  6
CONTINUOUS
 62
     7
 10
346.0
 20
24.0
 30
0.0
 40
5.0000000000000009
 50
292.5000000000004
 51
307.49999999999937
  0
ARC
  5
2B8
  8
DATA
  6
CONTINUOUS
 62
     7
 10
346.0
 20
24.0
 30
0.0
 40
5.0000000000000089
 50
322.50000000000068
 51
337.50000000000063
  0
ARC
  5
2B9
  8
DATA
  6
CONTINUOUS
 62
     7
 10
346.0
 20
24.0
 30
0.0
 40
5.0000000000000204
 50
352.50000000000051
 51
7.4999999999994893
  0
ARC
  5
2BA
  8
DATA
  6
CONTINUOUS
 62
     7
 10
346.0
 20
24.0
 30
0.0
 40
5.0000000000000258
 50
22.499999999999361
 51
37.499999999999957
  0
ARC
  5
2BB
  8
DATA
  6
CONTINUOUS
 62
     7
 10
346.0
 20
24.0
 30
0.0
 40
5.000000000000024
 50
52.500000000000263
 51
67.500000000000554
  0
ARC
  5
2BC
  8
DATA
  6
CONTINUOUS
 62
     7
 10
346.0
 20
24.0
 30
0.0
 40
5.0000000000000284
 50
82.499999999999915
 51
97.500000000000142
  0
ARC
  5
2BD
  8
DATA
  6
CONTINUOUS
 62
     7
 10
346.0
 20
24.0
 30
0.0
 40
4.050000000000014
 50
93.539026459004859
 51
86.460973540995127
  0
ARC
  5
2BE
  8
DATA
  6
CONTINUOUS
 62
     7
 10
346.0
 20
24.0
 30
0.0
 40
4.7500000000000009
 50
93.016961309816026
 51
86.983038690184003
  0
ARC
  5
2BF
  8
DATA
  6
CONTINUOUS
 62
     7
 10
347.5221945532553
 20
29.68090741175331
 30
0.0
 40
1.1313081265050611
 50
219.76848405798731
 51
290.23151594201403
  0
ARC
  5
2C0
  8
DATA
  6
CONTINUOUS
 62
     7
 10
344.47780544674481
 20
29.68090741175331
 30
0.0
 40
1.131308126505046
 50
249.76848405798751
 51
320.23151594201198
  0
ARC
  5
2C1
  8
DATA
  6
CONTINUOUS
 62
     7
 10
341.84128714150199
 20
28.15871285849812
 30
0.0
 40
1.131308126505056
 50
279.76848405798808
 51
350.23151594201482
  0
ARC
  5
2C2
  8
DATA
  6
CONTINUOUS
 62
     7
 10
340.31909258824669
 20
25.522194553255311
 30
0.0
 40
1.13130812650504
 50
309.76848405798819
 51
20.231515942015729
  0
ARC
  5
2C3
  8
DATA
  6
CONTINUOUS
 62
     7
 10
340.31909258824669
 20
22.47780544674481
 30
0.0
 40
1.131308126505099
 50
339.76848405798847
 51
50.23151594201272
  0
ARC
  5
2C4
  8
DATA
  6
CONTINUOUS
 62
     7
 10
341.84128714150199
 20
19.84128714150205
 30
0.0
 40
1.131308126505066
 50
9.7684840579909462
 51
80.231515942013857
  0
ARC
  5
2C5
  8
DATA
  6
CONTINUOUS
 62
     7
 10
344.4778054467447
 20
18.319092588246811
 30
0.0
 40
1.1313081265050611
 50
39.768484057987301
 51
110.2315159420141
  0
ARC
  5
2C6
  8
DATA
  6
CONTINUOUS
 62
     7
 10
347.5221945532553
 20
18.319092588246811
 30
0.0
 40
1.131308126505099
 50
69.768484057988459
 51
140.23151594201431
  0
ARC
  5
2C7
  8
DATA
  6
CONTINUOUS
 62
     7
 10
350.15871285849801
 20
19.84128714150205
 30
0.0
 40
1.131308126505046
 50
99.768484057985305
 51
170.23151594201471
  0
ARC
  5
2C8
  8
DATA
  6
CONTINUOUS
 62
     7
 10
351.6809074117532
 20
22.47780544674481
 30
0.0
 40
1.13130812650504
 50
129.7684840579883
 51
200.2315159420157
  0
ARC
  5
2C9
  8
DATA
  6
CONTINUOUS
 62
     7
 10
351.6809074117532
 20
25.52219455325525
 30
0.0
 40
1.131308126505099
 50
159.76848405798839
 51
230.23151594201289
  0
ARC
  5
2CA
  8
DATA
  6
CONTINUOUS
 62
     7
 10
350.15871285849801
 20
28.15871285849801
 30
0.0
 40
1.131308126505046
 50
189.76848405798521
 51
260.23151594201471
  0
POLYLINE
  5
2CB
  8
DATA
  6
CONTINUOUS
 62
     7
 66
     1
 10
0.0
 20
0.0
 30
0.0
 70
     1
  0
VERTEX
  5
A62
  8
DATA
  6
CONTINUOUS
 62
     7
 10
345.75
 20
28.993746088859549
 30
0.0
  0
VERTEX
  5
A63
  8
DATA
  6
CONTINUOUS
 62
     7
 10
346.25
 20
28.993746088859549
 30
0.0
  0
VERTEX
  5
A64
  8
DATA
  6
CONTINUOUS
 62
     7
 10
346.25
 20
24.0
 30
0.0
  0
VERTEX
  5
A65
  8
DATA
  6
CONTINUOUS
 62
     7
 10
345.75
 20
24.0
 30
0.0
  0
SEQEND
  5
A66
  8
DATA
  6
CONTINUOUS
 62
     7
  0
LINE
  5
2D1
  8
DATA
  6
CONTINUOUS
 62
     7
 10
322.0
 20
15.0
 30
0.0
 11
322.0
 21
29.0
 31
0.0
  0
LINE
  5
2D2
  8
DATA
  6
CONTINUOUS
 62
     7
 10
346.0
 20
15.0
 30
0.0
 11
346.0
 21
19.0
 31
0.0
  0
LINE
  5
2D3
  8
DATA
  6
CONTINUOUS
 62
     7
 10
346.0
 20
28.993746088859549
 30
0.0
 11
346.0
 21
29.0
 31
0.0
  0
ARC
  5
2D4
  8
DATA
  6
CONTINUOUS
 62
     7
 10
334.0
 20
29.0
 30
0.0
 40
12.000000000000011
 50
10.399008057474401
 51
180.0
  0
ARC
  5
2D5
  8
DATA
  6
CONTINUOUS
 62
     7
 10
334.0
 20
15.0
 30
0.0
 40
12.0
 50
180.0
 51
0.0
  0
CIRCLE
  5
2D6
  8
DATA
  6
CONTINUOUS
 62
     7
 10
341.02071111972663
 20
28.17811946296252
 30
0.0
 40
0.3999999999999827
  0
CIRCLE
  5
2D7
  8
DATA
  6
CONTINUOUS
 62
     7
 10
339.59874960542061
 20
22.871286845164949
 30
0.0
 40
0.4000000000000197
  0
CIRCLE
  5
2D8
  8
DATA
  6
CONTINUOUS
 62
     7
 10
342.75
 20
18.370834875401162
 30
0.0
 40
0.3999999999999681
  0
CIRCLE
  5
2D9
  8
DATA
  6
CONTINUOUS
 62
     7
 10
350.97928888027337
 20
28.17811946296252
 30
0.0
 40
0.3999999999999827
  0
CIRCLE
  5
2DA
  8
DATA
  6
CONTINUOUS
 62
     7
 10
352.40125039457928
 20
22.871286845164949
 30
0.0
 40
0.4000000000000197
  0
CIRCLE
  5
2DB
  8
DATA
  6
CONTINUOUS
 62
     7
 10
349.25
 20
18.370834875401162
 30
0.0
 40
0.3999999999999681
  0
LINE
  5
2DC
  8
DATA
  6
CONTINUOUS
 62
     7
 10
345.0
 20
31.166025403784431
 30
0.0
 11
347.0
 21
31.166025403784431
 31
0.0
  0
LINE
  5
2DD
  8
DATA
  6
CONTINUOUS
 62
     7
 10
347.0
 20
31.166025403784431
 30
0.0
 11
346.0
 21
29.433974596215592
 31
0.0
  0
LINE
  5
2DE
  8
DATA
  6
CONTINUOUS
 62
     7
 10
345.0
 20
31.166025403784431
 30
0.0
 11
346.0
 21
29.433974596215592
 31
0.0
  0
LINE
  5
2DF
  8
DATA
  6
CONTINUOUS
 62
     7
 10
345.5
 20
36.5
 30
0.0
 11
346.5
 21
36.5
 31
0.0
  0
LINE
  5
2E0
  8
DATA
  6
CONTINUOUS
 62
     7
 10
345.5
 20
34.5
 30
0.0
 11
346.5
 21
34.5
 31
0.0
  0
ARC
  5
2E1
  8
DATA
  6
CONTINUOUS
 62
     7
 10
345.5
 20
35.5
 30
0.0
 40
1.0
 50
90.0
 51
270.0
  0
ARC
  5
2E2
  8
DATA
  6
CONTINUOUS
 62
     7
 10
346.5
 20
35.5
 30
0.0
 40
1.0
 50
270.0
 51
90.0
  0
TEXT
  5
2E3
  8
DATA
 62
     7
 10
343.58658854166669
 20
32.000331439394017
 30
0.0
 40
1.923828125
  1
push
 41
0.85
 11
343.58658854166669
 21
33.924159564394017
 31
0.0
 73
     3
  0
TEXT
  5
2E4
  8
DATA
 62
     7
 10
327.02301136363639
 20
35.113080018939513
 30
0.0
 40
1.923828125
  1
OVER
 41
0.85
 11
327.02301136363639
 21
37.036908143939513
 31
0.0
 73
     3
  0
TEXT
  5
2E5
  8
DATA
 62
     7
 10
325.77301136363639
 20
32.613080018939513
 30
0.0
 40
1.923828125
  1
LIMIT
 41
0.85
 11
325.77301136363639
 21
34.536908143939513
 31
0.0
 73
     3
  0
TEXT
  5
2E6
  8
DATA
 62
     7
 10
327.02301136363639
 20
30.11308001893951
 30
0.0
 40
1.923828125
  1
-3dB
 41
0.85
 11
327.02301136363639
 21
32.036908143939513
 31
0.0
 73
     3
  0
TEXT
  5
2E7
  8
DATA
 62
     7
 10
327.02301136363639
 20
27.61308001893951
 30
0.0
 40
1.923828125
  1
-6dB
 41
0.85
 11
327.02301136363639
 21
29.53690814393951
 31
0.0
 73
     3
  0
TEXT
  5
2E8
  8
DATA
 62
     7
 10
325.77301136363639
 20
25.11308001893951
 30
0.0
 40
1.923828125
  1
-12dB
 41
0.85
 11
325.77301136363639
 21
27.03690814393951
 31
0.0
 73
     3
  0
TEXT
  5
2E9
  8
DATA
 62
     7
 10
325.77301136363639
 20
22.61308001893951
 30
0.0
 40
1.923828125
  1
-20dB
 41
0.85
 11
325.77301136363639
 21
24.53690814393951
 31
0.0
 73
     3
  0
TEXT
  5
2EA
  8
DATA
 62
     7
 10
328.27301136363639
 20
20.11308001893951
 30
0.0
 40
1.923828125
  1
SIG
 41
0.85
 11
328.27301136363639
 21
22.03690814393951
 31
0.0
 73
     3
  0
TEXT
  5
2EB
  8
DATA
 62
     7
 10
350.04847832929522
 20
16.90314867424296
 30
0.0
 40
1.923828125
  1
+6
 41
0.85
 11
350.04847832929522
 21
18.82697679924296
 31
0.0
 73
     3
  0
TEXT
  5
2EC
  8
DATA
 62
     7
 10
343.0
 20
14.19999999999999
 30
0.0
 40
3.84765625
  1
dB
 41
0.85
 11
343.0
 21
18.047656249999989
 31
0.0
 73
     3
  0
TEXT
  5
2ED
  8
DATA
 62
     7
 10
329.0
 20
4.1641016151376666
 30
0.0
 40
3.84765625
  1
MUTE
 41
0.85
 11
329.0
 21
8.0117578651376675
 31
0.0
 73
     3
  0
TEXT
  5
2EE
  8
DATA
 62
     7
 10
332.75
 20
10.19999999999999
 30
0.0
 40
3.84765625
  1
3
 41
0.85
 11
332.75
 21
14.04765624999999
 31
0.0
 73
     3
  0
TEXT
  5
2EF
  8
DATA
 62
     7
 10
339.75
 20
16.877817234848969
 30
0.0
 40
1.923828125
  1
-6
 41
0.85
 11
339.75
 21
18.801645359848969
 31
0.0
 73
     3
  0
CIRCLE
  5
2F0
  8
DATA
  6
CONTINUOUS
 62
     7
 10
366.0
 20
12.0
 30
0.0
 40
3.5000000000000151
  0
POLYLINE
  5
2F1
  8
DATA
  6
CONTINUOUS
 62
     7
 66
     1
 10
0.0
 20
0.0
 30
0.0
 70
     1
  0
VERTEX
  5
A67
  8
DATA
  6
CONTINUOUS
 62
     7
 10
364.5
 20
22.0
 30
0.0
  0
VERTEX
  5
A68
  8
DATA
  6
CONTINUOUS
 62
     7
 10
367.5
 20
22.0
 30
0.0
  0
VERTEX
  5
A69
  8
DATA
  6
CONTINUOUS
 62
     7
 10
367.5
 20
20.0
 30
0.0
  0
VERTEX
  5
A6A
  8
DATA
  6
CONTINUOUS
 62
     7
 10
364.5
 20
20.0
 30
0.0
  0
SEQEND
  5
A6B
  8
DATA
  6
CONTINUOUS
 62
     7
  0
POLYLINE
  5
2F7
  8
DATA
  6
CONTINUOUS
 62
     7
 66
     1
 10
0.0
 20
0.0
 30
0.0
 70
     1
  0
VERTEX
  5
A6C
  8
DATA
  6
CONTINUOUS
 62
     7
 10
364.5
 20
24.5
 30
0.0
  0
VERTEX
  5
A6D
  8
DATA
  6
CONTINUOUS
 62
     7
 10
367.5
 20
24.5
 30
0.0
  0
VERTEX
  5
A6E
  8
DATA
  6
CONTINUOUS
 62
     7
 10
367.5
 20
22.5
 30
0.0
  0
VERTEX
  5
A6F
  8
DATA
  6
CONTINUOUS
 62
     7
 10
364.5
 20
22.5
 30
0.0
  0
SEQEND
  5
A70
  8
DATA
  6
CONTINUOUS
 62
     7
  0
POLYLINE
  5
2FD
  8
DATA
  6
CONTINUOUS
 62
     7
 66
     1
 10
0.0
 20
0.0
 30
0.0
 70
     1
  0
VERTEX
  5
A71
  8
DATA
  6
CONTINUOUS
 62
     7
 10
364.5
 20
27.0
 30
0.0
  0
VERTEX
  5
A72
  8
DATA
  6
CONTINUOUS
 62
     7
 10
367.5
 20
27.0
 30
0.0
  0
VERTEX
  5
A73
  8
DATA
  6
CONTINUOUS
 62
     7
 10
367.5
 20
25.0
 30
0.0
  0
VERTEX
  5
A74
  8
DATA
  6
CONTINUOUS
 62
     7
 10
364.5
 20
25.0
 30
0.0
  0
SEQEND
  5
A75
  8
DATA
  6
CONTINUOUS
 62
     7
  0
POLYLINE
  5
303
  8
DATA
  6
CONTINUOUS
 62
     7
 66
     1
 10
0.0
 20
0.0
 30
0.0
 70
     1
  0
VERTEX
  5
A76
  8
DATA
  6
CONTINUOUS
 62
     7
 10
364.5
 20
29.5
 30
0.0
  0
VERTEX
  5
A77
  8
DATA
  6
CONTINUOUS
 62
     7
 10
367.5
 20
29.5
 30
0.0
  0
VERTEX
  5
A78
  8
DATA
  6
CONTINUOUS
 62
     7
 10
367.5
 20
27.5
 30
0.0
  0
VERTEX
  5
A79
  8
DATA
  6
CONTINUOUS
 62
     7
 10
364.5
 20
27.5
 30
0.0
  0
SEQEND
  5
A7A
  8
DATA
  6
CONTINUOUS
 62
     7
  0
POLYLINE
  5
309
  8
DATA
  6
CONTINUOUS
 62
     7
 66
     1
 10
0.0
 20
0.0
 30
0.0
 70
     1
  0
VERTEX
  5
A7B
  8
DATA
  6
CONTINUOUS
 62
     7
 10
364.5
 20
32.0
 30
0.0
  0
VERTEX
  5
A7C
  8
DATA
  6
CONTINUOUS
 62
     7
 10
367.5
 20
32.0
 30
0.0
  0
VERTEX
  5
A7D
  8
DATA
  6
CONTINUOUS
 62
     7
 10
367.5
 20
30.0
 30
0.0
  0
VERTEX
  5
A7E
  8
DATA
  6
CONTINUOUS
 62
     7
 10
364.5
 20
30.0
 30
0.0
  0
SEQEND
  5
A7F
  8
DATA
  6
CONTINUOUS
 62
     7
  0
POLYLINE
  5
30F
  8
DATA
  6
CONTINUOUS
 62
     7
 66
     1
 10
0.0
 20
0.0
 30
0.0
 70
     1
  0
VERTEX
  5
A80
  8
DATA
  6
CONTINUOUS
 62
     7
 10
364.5
 20
34.5
 30
0.0
  0
VERTEX
  5
A81
  8
DATA
  6
CONTINUOUS
 62
     7
 10
367.5
 20
34.5
 30
0.0
  0
VERTEX
  5
A82
  8
DATA
  6
CONTINUOUS
 62
     7
 10
367.5
 20
32.5
 30
0.0
  0
VERTEX
  5
A83
  8
DATA
  6
CONTINUOUS
 62
     7
 10
364.5
 20
32.5
 30
0.0
  0
SEQEND
  5
A84
  8
DATA
  6
CONTINUOUS
 62
     7
  0
POLYLINE
  5
315
  8
DATA
  6
CONTINUOUS
 62
     7
 66
     1
 10
0.0
 20
0.0
 30
0.0
 70
     1
  0
VERTEX
  5
A85
  8
DATA
  6
CONTINUOUS
 62
     7
 10
364.5
 20
37.0
 30
0.0
  0
VERTEX
  5
A86
  8
DATA
  6
CONTINUOUS
 62
     7
 10
367.5
 20
37.0
 30
0.0
  0
VERTEX
  5
A87
  8
DATA
  6
CONTINUOUS
 62
     7
 10
367.5
 20
35.0
 30
0.0
  0
VERTEX
  5
A88
  8
DATA
  6
CONTINUOUS
 62
     7
 10
364.5
 20
35.0
 30
0.0
  0
SEQEND
  5
A89
  8
DATA
  6
CONTINUOUS
 62
     7
  0
ARC
  5
31B
  8
DATA
  6
CONTINUOUS
 62
     7
 10
378.0
 20
24.0
 30
0.0
 40
5.0000000000000258
 50
112.4999999999993
 51
127.4999999999997
  0
ARC
  5
31C
  8
DATA
  6
CONTINUOUS
 62
     7
 10
378.0
 20
24.0
 30
0.0
 40
5.0000000000000462
 50
142.49999999999861
 51
157.49999999999849
  0
ARC
  5
31D
  8
DATA
  6
CONTINUOUS
 62
     7
 10
378.0
 20
24.0
 30
0.0
 40
5.0000000000000222
 50
172.4999999999992
 51
187.4999999999994
  0
ARC
  5
31E
  8
DATA
  6
CONTINUOUS
 62
     7
 10
378.0
 20
24.0
 30
0.0
 40
5.0000000000000124
 50
202.4999999999994
 51
217.4999999999992
  0
ARC
  5
31F
  8
DATA
  6
CONTINUOUS
 62
     7
 10
378.0
 20
24.0
 30
0.0
 40
5.0000000000000311
 50
232.49999999999909
 51
247.49999999999901
  0
ARC
  5
320
  8
DATA
  6
CONTINUOUS
 62
     7
 10
378.0
 20
24.0
 30
0.0
 40
4.9999999999999778
 50
262.4999999999992
 51
277.50000000000011
  0
ARC
  5
321
  8
DATA
  6
CONTINUOUS
 62
     7
 10
378.0
 20
24.0
 30
0.0
 40
5.0000000000000009
 50
292.5000000000004
 51
307.49999999999937
  0
ARC
  5
322
  8
DATA
  6
CONTINUOUS
 62
     7
 10
378.0
 20
24.0
 30
0.0
 40
5.0000000000000089
 50
322.50000000000068
 51
337.50000000000063
  0
ARC
  5
323
  8
DATA
  6
CONTINUOUS
 62
     7
 10
378.0
 20
24.0
 30
0.0
 40
5.0000000000000204
 50
352.50000000000051
 51
7.4999999999994893
  0
ARC
  5
324
  8
DATA
  6
CONTINUOUS
 62
     7
 10
378.0
 20
24.0
 30
0.0
 40
5.0000000000000258
 50
22.499999999999361
 51
37.499999999999943
  0
ARC
  5
325
  8
DATA
  6
CONTINUOUS
 62
     7
 10
378.0
 20
24.0
 30
0.0
 40
5.000000000000024
 50
52.500000000000263
 51
67.500000000000554
  0
ARC
  5
326
  8
DATA
  6
CONTINUOUS
 62
     7
 10
378.0
 20
24.0
 30
0.0
 40
5.0000000000000284
 50
82.499999999999915
 51
97.500000000000142
  0
ARC
  5
327
  8
DATA
  6
CONTINUOUS
 62
     7
 10
378.0
 20
24.0
 30
0.0
 40
4.050000000000014
 50
93.539026459004859
 51
86.460973540995127
  0
ARC
  5
328
  8
DATA
  6
CONTINUOUS
 62
     7
 10
378.0
 20
24.0
 30
0.0
 40
4.7500000000000009
 50
93.016961309816026
 51
86.983038690184003
  0
ARC
  5
329
  8
DATA
  6
CONTINUOUS
 62
     7
 10
379.5221945532553
 20
29.68090741175331
 30
0.0
 40
1.1313081265050611
 50
219.76848405798731
 51
290.2315159420138
  0
ARC
  5
32A
  8
DATA
  6
CONTINUOUS
 62
     7
 10
376.47780544674492
 20
29.68090741175331
 30
0.0
 40
1.131308126505046
 50
249.76848405798751
 51
320.23151594201198
  0
ARC
  5
32B
  8
DATA
  6
CONTINUOUS
 62
     7
 10
373.84128714150199
 20
28.15871285849812
 30
0.0
 40
1.131308126505056
 50
279.76848405798808
 51
350.23151594201482
  0
ARC
  5
32C
  8
DATA
  6
CONTINUOUS
 62
     7
 10
372.31909258824692
 20
25.522194553255311
 30
0.0
 40
1.13130812650504
 50
309.76848405798819
 51
20.231515942015729
  0
ARC
  5
32D
  8
DATA
  6
CONTINUOUS
 62
     7
 10
372.31909258824658
 20
22.47780544674481
 30
0.0
 40
1.131308126505099
 50
339.76848405798847
 51
50.23151594201272
  0
ARC
  5
32E
  8
DATA
  6
CONTINUOUS
 62
     7
 10
373.84128714150199
 20
19.84128714150205
 30
0.0
 40
1.131308126505066
 50
9.7684840579909462
 51
80.231515942013971
  0
ARC
  5
32F
  8
DATA
  6
CONTINUOUS
 62
     7
 10
376.4778054467447
 20
18.319092588246811
 30
0.0
 40
1.1313081265050611
 50
39.768484057987301
 51
110.2315159420139
  0
ARC
  5
330
  8
DATA
  6
CONTINUOUS
 62
     7
 10
379.52219455325519
 20
18.319092588246811
 30
0.0
 40
1.131308126505099
 50
69.768484057988459
 51
140.2315159420142
  0
ARC
  5
331
  8
DATA
  6
CONTINUOUS
 62
     7
 10
382.15871285849801
 20
19.84128714150205
 30
0.0
 40
1.131308126505046
 50
99.768484057985305
 51
170.23151594201471
  0
ARC
  5
332
  8
DATA
  6
CONTINUOUS
 62
     7
 10
383.68090741175331
 20
22.47780544674481
 30
0.0
 40
1.13130812650504
 50
129.7684840579883
 51
200.2315159420157
  0
ARC
  5
333
  8
DATA
  6
CONTINUOUS
 62
     7
 10
383.68090741175331
 20
25.52219455325525
 30
0.0
 40
1.131308126505099
 50
159.76848405798839
 51
230.23151594201269
  0
ARC
  5
334
  8
DATA
  6
CONTINUOUS
 62
     7
 10
382.15871285849801
 20
28.15871285849801
 30
0.0
 40
1.131308126505046
 50
189.76848405798521
 51
260.23151594201471
  0
POLYLINE
  5
335
  8
DATA
  6
CONTINUOUS
 62
     7
 66
     1
 10
0.0
 20
0.0
 30
0.0
 70
     1
  0
VERTEX
  5
A8A
  8
DATA
  6
CONTINUOUS
 62
     7
 10
377.75
 20
28.993746088859549
 30
0.0
  0
VERTEX
  5
A8B
  8
DATA
  6
CONTINUOUS
 62
     7
 10
378.25
 20
28.993746088859549
 30
0.0
  0
VERTEX
  5
A8C
  8
DATA
  6
CONTINUOUS
 62
     7
 10
378.25
 20
24.0
 30
0.0
  0
VERTEX
  5
A8D
  8
DATA
  6
CONTINUOUS
 62
     7
 10
377.75
 20
24.0
 30
0.0
  0
SEQEND
  5
A8E
  8
DATA
  6
CONTINUOUS
 62
     7
  0
LINE
  5
33B
  8
DATA
  6
CONTINUOUS
 62
     7
 10
354.0
 20
15.0
 30
0.0
 11
354.0
 21
29.0
 31
0.0
  0
LINE
  5
33C
  8
DATA
  6
CONTINUOUS
 62
     7
 10
378.0
 20
15.0
 30
0.0
 11
378.0
 21
19.0
 31
0.0
  0
LINE
  5
33D
  8
DATA
  6
CONTINUOUS
 62
     7
 10
378.0
 20
28.993746088859549
 30
0.0
 11
378.0
 21
29.0
 31
0.0
  0
ARC
  5
33E
  8
DATA
  6
CONTINUOUS
 62
     7
 10
366.0
 20
29.0
 30
0.0
 40
12.000000000000011
 50
10.399008057474401
 51
180.0
  0
ARC
  5
33F
  8
DATA
  6
CONTINUOUS
 62
     7
 10
366.0
 20
15.0
 30
0.0
 40
12.0
 50
180.0
 51
0.0
  0
CIRCLE
  5
340
  8
DATA
  6
CONTINUOUS
 62
     7
 10
373.02071111972663
 20
28.17811946296252
 30
0.0
 40
0.3999999999999827
  0
CIRCLE
  5
341
  8
DATA
  6
CONTINUOUS
 62
     7
 10
371.59874960542078
 20
22.871286845164949
 30
0.0
 40
0.4000000000000197
  0
CIRCLE
  5
342
  8
DATA
  6
CONTINUOUS
 62
     7
 10
374.75
 20
18.370834875401162
 30
0.0
 40
0.3999999999999681
  0
CIRCLE
  5
343
  8
DATA
  6
CONTINUOUS
 62
     7
 10
382.97928888027337
 20
28.17811946296252
 30
0.0
 40
0.3999999999999827
  0
CIRCLE
  5
344
  8
DATA
  6
CONTINUOUS
 62
     7
 10
384.40125039457939
 20
22.871286845164949
 30
0.0
 40
0.4000000000000197
  0
CIRCLE
  5
345
  8
DATA
  6
CONTINUOUS
 62
     7
 10
381.25
 20
18.370834875401162
 30
0.0
 40
0.3999999999999681
  0
LINE
  5
346
  8
DATA
  6
CONTINUOUS
 62
     7
 10
377.0
 20
31.166025403784431
 30
0.0
 11
379.0
 21
31.166025403784431
 31
0.0
  0
LINE
  5
347
  8
DATA
  6
CONTINUOUS
 62
     7
 10
379.0
 20
31.166025403784431
 30
0.0
 11
378.0
 21
29.433974596215592
 31
0.0
  0
LINE
  5
348
  8
DATA
  6
CONTINUOUS
 62
     7
 10
377.0
 20
31.166025403784431
 30
0.0
 11
378.0
 21
29.433974596215592
 31
0.0
  0
LINE
  5
349
  8
DATA
  6
CONTINUOUS
 62
     7
 10
377.5
 20
36.5
 30
0.0
 11
378.5
 21
36.5
 31
0.0
  0
LINE
  5
34A
  8
DATA
  6
CONTINUOUS
 62
     7
 10
377.5
 20
34.5
 30
0.0
 11
378.5
 21
34.5
 31
0.0
  0
ARC
  5
34B
  8
DATA
  6
CONTINUOUS
 62
     7
 10
377.5
 20
35.5
 30
0.0
 40
1.0
 50
90.0
 51
270.0
  0
ARC
  5
34C
  8
DATA
  6
CONTINUOUS
 62
     7
 10
378.5
 20
35.5
 30
0.0
 40
1.0
 50
270.0
 51
90.0
  0
TEXT
  5
34D
  8
DATA
 62
     7
 10
375.58658854166657
 20
32.000331439394017
 30
0.0
 40
1.923828125
  1
push
 41
0.85
 11
375.58658854166657
 21
33.924159564394017
 31
0.0
 73
     3
  0
TEXT
  5
34E
  8
DATA
 62
     7
 10
359.02301136363639
 20
35.113080018939513
 30
0.0
 40
1.923828125
  1
OVER
 41
0.85
 11
359.02301136363639
 21
37.036908143939513
 31
0.0
 73
     3
  0
TEXT
  5
34F
  8
DATA
 62
     7
 10
357.77301136363639
 20
32.613080018939513
 30
0.0
 40
1.923828125
  1
LIMIT
 41
0.85
 11
357.77301136363639
 21
34.536908143939513
 31
0.0
 73
     3
  0
TEXT
  5
350
  8
DATA
 62
     7
 10
359.02301136363639
 20
30.11308001893951
 30
0.0
 40
1.923828125
  1
-3dB
 41
0.85
 11
359.02301136363639
 21
32.036908143939513
 31
0.0
 73
     3
  0
TEXT
  5
351
  8
DATA
 62
     7
 10
359.02301136363639
 20
27.61308001893951
 30
0.0
 40
1.923828125
  1
-6dB
 41
0.85
 11
359.02301136363639
 21
29.53690814393951
 31
0.0
 73
     3
  0
TEXT
  5
352
  8
DATA
 62
     7
 10
357.77301136363639
 20
25.11308001893951
 30
0.0
 40
1.923828125
  1
-12dB
 41
0.85
 11
357.77301136363639
 21
27.03690814393951
 31
0.0
 73
     3
  0
TEXT
  5
353
  8
DATA
 62
     7
 10
357.77301136363639
 20
22.61308001893951
 30
0.0
 40
1.923828125
  1
-20dB
 41
0.85
 11
357.77301136363639
 21
24.53690814393951
 31
0.0
 73
     3
  0
TEXT
  5
354
  8
DATA
 62
     7
 10
360.27301136363639
 20
20.11308001893951
 30
0.0
 40
1.923828125
  1
SIG
 41
0.85
 11
360.27301136363639
 21
22.03690814393951
 31
0.0
 73
     3
  0
TEXT
  5
355
  8
DATA
 62
     7
 10
382.04847832929522
 20
16.90314867424296
 30
0.0
 40
1.923828125
  1
+6
 41
0.85
 11
382.04847832929522
 21
18.82697679924296
 31
0.0
 73
     3
  0
TEXT
  5
356
  8
DATA
 62
     7
 10
375.0
 20
14.19999999999999
 30
0.0
 40
3.84765625
  1
dB
 41
0.85
 11
375.0
 21
18.047656249999989
 31
0.0
 73
     3
  0
TEXT
  5
357
  8
DATA
 62
     7
 10
361.0
 20
4.1641016151376666
 30
0.0
 40
3.84765625
  1
MUTE
 41
0.85
 11
361.0
 21
8.0117578651376675
 31
0.0
 73
     3
  0
TEXT
  5
358
  8
DATA
 62
     7
 10
364.75
 20
10.19999999999999
 30
0.0
 40
3.84765625
  1
4
 41
0.85
 11
364.75
 21
14.04765624999999
 31
0.0
 73
     3
  0
TEXT
  5
359
  8
DATA
 62
     7
 10
371.75
 20
16.877817234848969
 30
0.0
 40
1.923828125
  1
-6
 41
0.85
 11
371.75
 21
18.801645359848969
 31
0.0
 73
     3
  0
CIRCLE
  5
35A
  8
DATA
  6
CONTINUOUS
 62
     7
 10
398.0
 20
12.0
 30
0.0
 40
3.5000000000000151
  0
POLYLINE
  5
35B
  8
DATA
  6
CONTINUOUS
 62
     7
 66
     1
 10
0.0
 20
0.0
 30
0.0
 70
     1
  0
VERTEX
  5
A8F
  8
DATA
  6
CONTINUOUS
 62
     7
 10
396.5
 20
22.0
 30
0.0
  0
VERTEX
  5
A90
  8
DATA
  6
CONTINUOUS
 62
     7
 10
399.5
 20
22.0
 30
0.0
  0
VERTEX
  5
A91
  8
DATA
  6
CONTINUOUS
 62
     7
 10
399.5
 20
20.0
 30
0.0
  0
VERTEX
  5
A92
  8
DATA
  6
CONTINUOUS
 62
     7
 10
396.5
 20
20.0
 30
0.0
  0
SEQEND
  5
A93
  8
DATA
  6
CONTINUOUS
 62
     7
  0
POLYLINE
  5
361
  8
DATA
  6
CONTINUOUS
 62
     7
 66
     1
 10
0.0
 20
0.0
 30
0.0
 70
     1
  0
VERTEX
  5
A94
  8
DATA
  6
CONTINUOUS
 62
     7
 10
396.5
 20
24.5
 30
0.0
  0
VERTEX
  5
A95
  8
DATA
  6
CONTINUOUS
 62
     7
 10
399.5
 20
24.5
 30
0.0
  0
VERTEX
  5
A96
  8
DATA
  6
CONTINUOUS
 62
     7
 10
399.5
 20
22.5
 30
0.0
  0
VERTEX
  5
A97
  8
DATA
  6
CONTINUOUS
 62
     7
 10
396.5
 20
22.5
 30
0.0
  0
SEQEND
  5
A98
  8
DATA
  6
CONTINUOUS
 62
     7
  0
POLYLINE
  5
367
  8
DATA
  6
CONTINUOUS
 62
     7
 66
     1
 10
0.0
 20
0.0
 30
0.0
 70
     1
  0
VERTEX
  5
A99
  8
DATA
  6
CONTINUOUS
 62
     7
 10
396.5
 20
27.0
 30
0.0
  0
VERTEX
  5
A9A
  8
DATA
  6
CONTINUOUS
 62
     7
 10
399.5
 20
27.0
 30
0.0
  0
VERTEX
  5
A9B
  8
DATA
  6
CONTINUOUS
 62
     7
 10
399.5
 20
25.0
 30
0.0
  0
VERTEX
  5
A9C
  8
DATA
  6
CONTINUOUS
 62
     7
 10
396.5
 20
25.0
 30
0.0
  0
SEQEND
  5
A9D
  8
DATA
  6
CONTINUOUS
 62
     7
  0
POLYLINE
  5
36D
  8
DATA
  6
CONTINUOUS
 62
     7
 66
     1
 10
0.0
 20
0.0
 30
0.0
 70
     1
  0
VERTEX
  5
A9E
  8
DATA
  6
CONTINUOUS
 62
     7
 10
396.5
 20
29.5
 30
0.0
  0
VERTEX
  5
A9F
  8
DATA
  6
CONTINUOUS
 62
     7
 10
399.5
 20
29.5
 30
0.0
  0
VERTEX
  5
AA0
  8
DATA
  6
CONTINUOUS
 62
     7
 10
399.5
 20
27.5
 30
0.0
  0
VERTEX
  5
AA1
  8
DATA
  6
CONTINUOUS
 62
     7
 10
396.5
 20
27.5
 30
0.0
  0
SEQEND
  5
AA2
  8
DATA
  6
CONTINUOUS
 62
     7
  0
POLYLINE
  5
373
  8
DATA
  6
CONTINUOUS
 62
     7
 66
     1
 10
0.0
 20
0.0
 30
0.0
 70
     1
  0
VERTEX
  5
AA3
  8
DATA
  6
CONTINUOUS
 62
     7
 10
396.5
 20
32.0
 30
0.0
  0
VERTEX
  5
AA4
  8
DATA
  6
CONTINUOUS
 62
     7
 10
399.5
 20
32.0
 30
0.0
  0
VERTEX
  5
AA5
  8
DATA
  6
CONTINUOUS
 62
     7
 10
399.5
 20
30.0
 30
0.0
  0
VERTEX
  5
AA6
  8
DATA
  6
CONTINUOUS
 62
     7
 10
396.5
 20
30.0
 30
0.0
  0
SEQEND
  5
AA7
  8
DATA
  6
CONTINUOUS
 62
     7
  0
POLYLINE
  5
379
  8
DATA
  6
CONTINUOUS
 62
     7
 66
     1
 10
0.0
 20
0.0
 30
0.0
 70
     1
  0
VERTEX
  5
AA8
  8
DATA
  6
CONTINUOUS
 62
     7
 10
396.5
 20
34.5
 30
0.0
  0
VERTEX
  5
AA9
  8
DATA
  6
CONTINUOUS
 62
     7
 10
399.5
 20
34.5
 30
0.0
  0
VERTEX
  5
AAA
  8
DATA
  6
CONTINUOUS
 62
     7
 10
399.5
 20
32.5
 30
0.0
  0
VERTEX
  5
AAB
  8
DATA
  6
CONTINUOUS
 62
     7
 10
396.5
 20
32.5
 30
0.0
  0
SEQEND
  5
AAC
  8
DATA
  6
CONTINUOUS
 62
     7
  0
POLYLINE
  5
37F
  8
DATA
  6
CONTINUOUS
 62
     7
 66
     1
 10
0.0
 20
0.0
 30
0.0
 70
     1
  0
VERTEX
  5
AAD
  8
DATA
  6
CONTINUOUS
 62
     7
 10
396.5
 20
37.0
 30
0.0
  0
VERTEX
  5
AAE
  8
DATA
  6
CONTINUOUS
 62
     7
 10
399.5
 20
37.0
 30
0.0
  0
VERTEX
  5
AAF
  8
DATA
  6
CONTINUOUS
 62
     7
 10
399.5
 20
35.0
 30
0.0
  0
VERTEX
  5
AB0
  8
DATA
  6
CONTINUOUS
 62
     7
 10
396.5
 20
35.0
 30
0.0
  0
SEQEND
  5
AB1
  8
DATA
  6
CONTINUOUS
 62
     7
  0
ARC
  5
385
  8
DATA
  6
CONTINUOUS
 62
     7
 10
410.0
 20
24.0
 30
0.0
 40
5.0000000000000258
 50
112.4999999999993
 51
127.4999999999997
  0
ARC
  5
386
  8
DATA
  6
CONTINUOUS
 62
     7
 10
410.0
 20
24.0
 30
0.0
 40
5.0000000000000462
 50
142.49999999999861
 51
157.49999999999849
  0
ARC
  5
387
  8
DATA
  6
CONTINUOUS
 62
     7
 10
410.0
 20
24.0
 30
0.0
 40
5.0000000000000222
 50
172.4999999999992
 51
187.4999999999994
  0
ARC
  5
388
  8
DATA
  6
CONTINUOUS
 62
     7
 10
410.0
 20
24.0
 30
0.0
 40
5.0000000000000124
 50
202.4999999999994
 51
217.4999999999992
  0
ARC
  5
389
  8
DATA
  6
CONTINUOUS
 62
     7
 10
410.0
 20
24.0
 30
0.0
 40
5.0000000000000311
 50
232.49999999999909
 51
247.49999999999909
  0
ARC
  5
38A
  8
DATA
  6
CONTINUOUS
 62
     7
 10
410.0
 20
24.0
 30
0.0
 40
4.9999999999999778
 50
262.4999999999992
 51
277.49999999999989
  0
ARC
  5
38B
  8
DATA
  6
CONTINUOUS
 62
     7
 10
410.0
 20
24.0
 30
0.0
 40
5.0000000000000009
 50
292.5000000000004
 51
307.49999999999949
  0
ARC
  5
38C
  8
DATA
  6
CONTINUOUS
 62
     7
 10
410.0
 20
24.0
 30
0.0
 40
5.0000000000000089
 50
322.50000000000068
 51
337.50000000000063
  0
ARC
  5
38D
  8
DATA
  6
CONTINUOUS
 62
     7
 10
410.0
 20
24.0
 30
0.0
 40
5.0000000000000204
 50
352.50000000000051
 51
7.4999999999994893
  0
ARC
  5
38E
  8
DATA
  6
CONTINUOUS
 62
     7
 10
410.0
 20
24.0
 30
0.0
 40
5.0000000000000258
 50
22.499999999999361
 51
37.5
  0
ARC
  5
38F
  8
DATA
  6
CONTINUOUS
 62
     7
 10
410.0
 20
24.0
 30
0.0
 40
5.000000000000024
 50
52.500000000000263
 51
67.500000000000483
  0
ARC
  5
390
  8
DATA
  6
CONTINUOUS
 62
     7
 10
410.0
 20
24.0
 30
0.0
 40
5.0000000000000284
 50
82.499999999999915
 51
97.500000000000142
  0
ARC
  5
391
  8
DATA
  6
CONTINUOUS
 62
     7
 10
410.0
 20
24.0
 30
0.0
 40
4.050000000000014
 50
93.539026459004859
 51
86.460973540995127
  0
ARC
  5
392
  8
DATA
  6
CONTINUOUS
 62
     7
 10
410.0
 20
24.0
 30
0.0
 40
4.7500000000000009
 50
93.016961309816026
 51
86.983038690184003
  0
ARC
  5
393
  8
DATA
  6
CONTINUOUS
 62
     7
 10
411.52219455325519
 20
29.68090741175331
 30
0.0
 40
1.1313081265050611
 50
219.76848405798731
 51
290.23151594201352
  0
ARC
  5
394
  8
DATA
  6
CONTINUOUS
 62
     7
 10
408.47780544674481
 20
29.68090741175331
 30
0.0
 40
1.131308126505046
 50
249.76848405798751
 51
320.23151594201221
  0
ARC
  5
395
  8
DATA
  6
CONTINUOUS
 62
     7
 10
405.84128714150188
 20
28.15871285849812
 30
0.0
 40
1.131308126505056
 50
279.76848405798808
 51
350.23151594201482
  0
ARC
  5
396
  8
DATA
  6
CONTINUOUS
 62
     7
 10
404.3190925882468
 20
25.522194553255311
 30
0.0
 40
1.13130812650504
 50
309.76848405798819
 51
20.231515942015729
  0
ARC
  5
397
  8
DATA
  6
CONTINUOUS
 62
     7
 10
404.31909258824658
 20
22.47780544674481
 30
0.0
 40
1.131308126505099
 50
339.76848405798847
 51
50.23151594201272
  0
ARC
  5
398
  8
DATA
  6
CONTINUOUS
 62
     7
 10
405.84128714150188
 20
19.84128714150205
 30
0.0
 40
1.131308126505066
 50
9.7684840579909462
 51
80.231515942014752
  0
ARC
  5
399
  8
DATA
  6
CONTINUOUS
 62
     7
 10
408.4778054467447
 20
18.319092588246811
 30
0.0
 40
1.1313081265050611
 50
39.768484057987301
 51
110.2315159420135
  0
ARC
  5
39A
  8
DATA
  6
CONTINUOUS
 62
     7
 10
411.52219455325519
 20
18.319092588246811
 30
0.0
 40
1.131308126505099
 50
69.768484057988459
 51
140.23151594201431
  0
ARC
  5
39B
  8
DATA
  6
CONTINUOUS
 62
     7
 10
414.15871285849801
 20
19.84128714150205
 30
0.0
 40
1.131308126505046
 50
99.768484057985305
 51
170.23151594201471
  0
ARC
  5
39C
  8
DATA
  6
CONTINUOUS
 62
     7
 10
415.6809074117532
 20
22.47780544674481
 30
0.0
 40
1.13130812650504
 50
129.7684840579883
 51
200.2315159420157
  0
ARC
  5
39D
  8
DATA
  6
CONTINUOUS
 62
     7
 10
415.6809074117532
 20
25.52219455325525
 30
0.0
 40
1.131308126505099
 50
159.76848405798839
 51
230.23151594201289
  0
ARC
  5
39E
  8
DATA
  6
CONTINUOUS
 62
     7
 10
414.15871285849801
 20
28.15871285849801
 30
0.0
 40
1.131308126505046
 50
189.76848405798521
 51
260.23151594201471
  0
POLYLINE
  5
39F
  8
DATA
  6
CONTINUOUS
 62
     7
 66
     1
 10
0.0
 20
0.0
 30
0.0
 70
     1
  0
VERTEX
  5
AB2
  8
DATA
  6
CONTINUOUS
 62
     7
 10
409.75
 20
28.993746088859549
 30
0.0
  0
VERTEX
  5
AB3
  8
DATA
  6
CONTINUOUS
 62
     7
 10
410.25
 20
28.993746088859549
 30
0.0
  0
VERTEX
  5
AB4
  8
DATA
  6
CONTINUOUS
 62
     7
 10
410.25
 20
24.0
 30
0.0
  0
VERTEX
  5
AB5
  8
DATA
  6
CONTINUOUS
 62
     7
 10
409.75
 20
24.0
 30
0.0
  0
SEQEND
  5
AB6
  8
DATA
  6
CONTINUOUS
 62
     7
  0
LINE
  5
3A5
  8
DATA
  6
CONTINUOUS
 62
     7
 10
386.0
 20
15.0
 30
0.0
 11
386.0
 21
29.0
 31
0.0
  0
LINE
  5
3A6
  8
DATA
  6
CONTINUOUS
 62
     7
 10
410.0
 20
15.0
 30
0.0
 11
410.0
 21
19.0
 31
0.0
  0
LINE
  5
3A7
  8
DATA
  6
CONTINUOUS
 62
     7
 10
410.0
 20
28.993746088859549
 30
0.0
 11
410.0
 21
29.0
 31
0.0
  0
ARC
  5
3A8
  8
DATA
  6
CONTINUOUS
 62
     7
 10
398.0
 20
29.0
 30
0.0
 40
12.000000000000011
 50
10.399008057474401
 51
180.0
  0
ARC
  5
3A9
  8
DATA
  6
CONTINUOUS
 62
     7
 10
398.0
 20
15.0
 30
0.0
 40
12.0
 50
180.0
 51
0.0
  0
CIRCLE
  5
3AA
  8
DATA
  6
CONTINUOUS
 62
     7
 10
405.02071111972651
 20
28.17811946296252
 30
0.0
 40
0.3999999999999827
  0
CIRCLE
  5
3AB
  8
DATA
  6
CONTINUOUS
 62
     7
 10
403.59874960542072
 20
22.871286845164949
 30
0.0
 40
0.4000000000000197
  0
CIRCLE
  5
3AC
  8
DATA
  6
CONTINUOUS
 62
     7
 10
406.74999999999989
 20
18.370834875401162
 30
0.0
 40
0.3999999999999681
  0
CIRCLE
  5
3AD
  8
DATA
  6
CONTINUOUS
 62
     7
 10
414.97928888027337
 20
28.17811946296252
 30
0.0
 40
0.3999999999999827
  0
CIRCLE
  5
3AE
  8
DATA
  6
CONTINUOUS
 62
     7
 10
416.40125039457939
 20
22.871286845164949
 30
0.0
 40
0.4000000000000197
  0
CIRCLE
  5
3AF
  8
DATA
  6
CONTINUOUS
 62
     7
 10
413.25
 20
18.370834875401162
 30
0.0
 40
0.3999999999999681
  0
LINE
  5
3B0
  8
DATA
  6
CONTINUOUS
 62
     7
 10
409.0
 20
31.166025403784431
 30
0.0
 11
411.0
 21
31.166025403784431
 31
0.0
  0
LINE
  5
3B1
  8
DATA
  6
CONTINUOUS
 62
     7
 10
411.0
 20
31.166025403784431
 30
0.0
 11
410.0
 21
29.433974596215592
 31
0.0
  0
LINE
  5
3B2
  8
DATA
  6
CONTINUOUS
 62
     7
 10
409.0
 20
31.166025403784431
 30
0.0
 11
410.0
 21
29.433974596215592
 31
0.0
  0
LINE
  5
3B3
  8
DATA
  6
CONTINUOUS
 62
     7
 10
409.49999999999989
 20
36.5
 30
0.0
 11
410.5
 21
36.5
 31
0.0
  0
LINE
  5
3B4
  8
DATA
  6
CONTINUOUS
 62
     7
 10
409.49999999999989
 20
34.5
 30
0.0
 11
410.5
 21
34.5
 31
0.0
  0
ARC
  5
3B5
  8
DATA
  6
CONTINUOUS
 62
     7
 10
409.49999999999989
 20
35.5
 30
0.0
 40
1.0
 50
90.0
 51
270.0
  0
ARC
  5
3B6
  8
DATA
  6
CONTINUOUS
 62
     7
 10
410.5
 20
35.5
 30
0.0
 40
1.0
 50
270.0
 51
90.0
  0
TEXT
  5
3B7
  8
DATA
 62
     7
 10
407.58658854166657
 20
32.000331439394017
 30
0.0
 40
1.923828125
  1
push
 41
0.85
 11
407.58658854166657
 21
33.924159564394017
 31
0.0
 73
     3
  0
TEXT
  5
3B8
  8
DATA
 62
     7
 10
391.02301136363639
 20
35.113080018939513
 30
0.0
 40
1.923828125
  1
OVER
 41
0.85
 11
391.02301136363639
 21
37.036908143939513
 31
0.0
 73
     3
  0
TEXT
  5
3B9
  8
DATA
 62
     7
 10
389.77301136363639
 20
32.613080018939513
 30
0.0
 40
1.923828125
  1
LIMIT
 41
0.85
 11
389.77301136363639
 21
34.536908143939513
 31
0.0
 73
     3
  0
TEXT
  5
3BA
  8
DATA
 62
     7
 10
391.02301136363639
 20
30.11308001893951
 30
0.0
 40
1.923828125
  1
-3dB
 41
0.85
 11
391.02301136363639
 21
32.036908143939513
 31
0.0
 73
     3
  0
TEXT
  5
3BB
  8
DATA
 62
     7
 10
391.02301136363639
 20
27.61308001893951
 30
0.0
 40
1.923828125
  1
-6dB
 41
0.85
 11
391.02301136363639
 21
29.53690814393951
 31
0.0
 73
     3
  0
TEXT
  5
3BC
  8
DATA
 62
     7
 10
389.77301136363639
 20
25.11308001893951
 30
0.0
 40
1.923828125
  1
-12dB
 41
0.85
 11
389.77301136363639
 21
27.03690814393951
 31
0.0
 73
     3
  0
TEXT
  5
3BD
  8
DATA
 62
     7
 10
389.77301136363639
 20
22.61308001893951
 30
0.0
 40
1.923828125
  1
-20dB
 41
0.85
 11
389.77301136363639
 21
24.53690814393951
 31
0.0
 73
     3
  0
TEXT
  5
3BE
  8
DATA
 62
     7
 10
392.27301136363639
 20
20.11308001893951
 30
0.0
 40
1.923828125
  1
SIG
 41
0.85
 11
392.27301136363639
 21
22.03690814393951
 31
0.0
 73
     3
  0
TEXT
  5
3BF
  8
DATA
 62
     7
 10
414.04847832929522
 20
16.90314867424296
 30
0.0
 40
1.923828125
  1
+6
 41
0.85
 11
414.04847832929522
 21
18.82697679924296
 31
0.0
 73
     3
  0
TEXT
  5
3C0
  8
DATA
 62
     7
 10
407.0
 20
14.19999999999999
 30
0.0
 40
3.84765625
  1
dB
 41
0.85
 11
407.0
 21
18.047656249999989
 31
0.0
 73
     3
  0
TEXT
  5
3C1
  8
DATA
 62
     7
 10
393.0
 20
4.1641016151376666
 30
0.0
 40
3.84765625
  1
MUTE
 41
0.85
 11
393.0
 21
8.0117578651376675
 31
0.0
 73
     3
  0
TEXT
  5
3C2
  8
DATA
 62
     7
 10
396.75
 20
10.19999999999999
 30
0.0
 40
3.84765625
  1
5
 41
0.85
 11
396.75
 21
14.04765624999999
 31
0.0
 73
     3
  0
TEXT
  5
3C3
  8
DATA
 62
     7
 10
403.74999999999989
 20
16.877817234848969
 30
0.0
 40
1.923828125
  1
-6
 41
0.85
 11
403.74999999999989
 21
18.801645359848969
 31
0.0
 73
     3
  0
CIRCLE
  5
3C4
  8
DATA
  6
CONTINUOUS
 62
     7
 10
430.0
 20
12.0
 30
0.0
 40
3.5000000000000151
  0
POLYLINE
  5
3C5
  8
DATA
  6
CONTINUOUS
 62
     7
 66
     1
 10
0.0
 20
0.0
 30
0.0
 70
     1
  0
VERTEX
  5
AB7
  8
DATA
  6
CONTINUOUS
 62
     7
 10
428.5
 20
22.0
 30
0.0
  0
VERTEX
  5
AB8
  8
DATA
  6
CONTINUOUS
 62
     7
 10
431.5
 20
22.0
 30
0.0
  0
VERTEX
  5
AB9
  8
DATA
  6
CONTINUOUS
 62
     7
 10
431.5
 20
20.0
 30
0.0
  0
VERTEX
  5
ABA
  8
DATA
  6
CONTINUOUS
 62
     7
 10
428.5
 20
20.0
 30
0.0
  0
SEQEND
  5
ABB
  8
DATA
  6
CONTINUOUS
 62
     7
  0
POLYLINE
  5
3CB
  8
DATA
  6
CONTINUOUS
 62
     7
 66
     1
 10
0.0
 20
0.0
 30
0.0
 70
     1
  0
VERTEX
  5
ABC
  8
DATA
  6
CONTINUOUS
 62
     7
 10
428.5
 20
24.5
 30
0.0
  0
VERTEX
  5
ABD
  8
DATA
  6
CONTINUOUS
 62
     7
 10
431.5
 20
24.5
 30
0.0
  0
VERTEX
  5
ABE
  8
DATA
  6
CONTINUOUS
 62
     7
 10
431.5
 20
22.5
 30
0.0
  0
VERTEX
  5
ABF
  8
DATA
  6
CONTINUOUS
 62
     7
 10
428.5
 20
22.5
 30
0.0
  0
SEQEND
  5
AC0
  8
DATA
  6
CONTINUOUS
 62
     7
  0
POLYLINE
  5
3D1
  8
DATA
  6
CONTINUOUS
 62
     7
 66
     1
 10
0.0
 20
0.0
 30
0.0
 70
     1
  0
VERTEX
  5
AC1
  8
DATA
  6
CONTINUOUS
 62
     7
 10
428.5
 20
27.0
 30
0.0
  0
VERTEX
  5
AC2
  8
DATA
  6
CONTINUOUS
 62
     7
 10
431.5
 20
27.0
 30
0.0
  0
VERTEX
  5
AC3
  8
DATA
  6
CONTINUOUS
 62
     7
 10
431.5
 20
25.0
 30
0.0
  0
VERTEX
  5
AC4
  8
DATA
  6
CONTINUOUS
 62
     7
 10
428.5
 20
25.0
 30
0.0
  0
SEQEND
  5
AC5
  8
DATA
  6
CONTINUOUS
 62
     7
  0
POLYLINE
  5
3D7
  8
DATA
  6
CONTINUOUS
 62
     7
 66
     1
 10
0.0
 20
0.0
 30
0.0
 70
     1
  0
VERTEX
  5
AC6
  8
DATA
  6
CONTINUOUS
 62
     7
 10
428.5
 20
29.5
 30
0.0
  0
VERTEX
  5
AC7
  8
DATA
  6
CONTINUOUS
 62
     7
 10
431.5
 20
29.5
 30
0.0
  0
VERTEX
  5
AC8
  8
DATA
  6
CONTINUOUS
 62
     7
 10
431.5
 20
27.5
 30
0.0
  0
VERTEX
  5
AC9
  8
DATA
  6
CONTINUOUS
 62
     7
 10
428.5
 20
27.5
 30
0.0
  0
SEQEND
  5
ACA
  8
DATA
  6
CONTINUOUS
 62
     7
  0
POLYLINE
  5
3DD
  8
DATA
  6
CONTINUOUS
 62
     7
 66
     1
 10
0.0
 20
0.0
 30
0.0
 70
     1
  0
VERTEX
  5
ACB
  8
DATA
  6
CONTINUOUS
 62
     7
 10
428.5
 20
32.0
 30
0.0
  0
VERTEX
  5
ACC
  8
DATA
  6
CONTINUOUS
 62
     7
 10
431.5
 20
32.0
 30
0.0
  0
VERTEX
  5
ACD
  8
DATA
  6
CONTINUOUS
 62
     7
 10
431.5
 20
30.0
 30
0.0
  0
VERTEX
  5
ACE
  8
DATA
  6
CONTINUOUS
 62
     7
 10
428.5
 20
30.0
 30
0.0
  0
SEQEND
  5
ACF
  8
DATA
  6
CONTINUOUS
 62
     7
  0
POLYLINE
  5
3E3
  8
DATA
  6
CONTINUOUS
 62
     7
 66
     1
 10
0.0
 20
0.0
 30
0.0
 70
     1
  0
VERTEX
  5
AD0
  8
DATA
  6
CONTINUOUS
 62
     7
 10
428.5
 20
34.5
 30
0.0
  0
VERTEX
  5
AD1
  8
DATA
  6
CONTINUOUS
 62
     7
 10
431.5
 20
34.5
 30
0.0
  0
VERTEX
  5
AD2
  8
DATA
  6
CONTINUOUS
 62
     7
 10
431.5
 20
32.5
 30
0.0
  0
VERTEX
  5
AD3
  8
DATA
  6
CONTINUOUS
 62
     7
 10
428.5
 20
32.5
 30
0.0
  0
SEQEND
  5
AD4
  8
DATA
  6
CONTINUOUS
 62
     7
  0
POLYLINE
  5
3E9
  8
DATA
  6
CONTINUOUS
 62
     7
 66
     1
 10
0.0
 20
0.0
 30
0.0
 70
     1
  0
VERTEX
  5
AD5
  8
DATA
  6
CONTINUOUS
 62
     7
 10
428.5
 20
37.0
 30
0.0
  0
VERTEX
  5
AD6
  8
DATA
  6
CONTINUOUS
 62
     7
 10
431.5
 20
37.0
 30
0.0
  0
VERTEX
  5
AD7
  8
DATA
  6
CONTINUOUS
 62
     7
 10
431.5
 20
35.0
 30
0.0
  0
VERTEX
  5
AD8
  8
DATA
  6
CONTINUOUS
 62
     7
 10
428.5
 20
35.0
 30
0.0
  0
SEQEND
  5
AD9
  8
DATA
  6
CONTINUOUS
 62
     7
  0
ARC
  5
3EF
  8
DATA
  6
CONTINUOUS
 62
     7
 10
442.0
 20
24.0
 30
0.0
 40
5.0000000000000258
 50
112.4999999999993
 51
127.4999999999996
  0
ARC
  5
3F0
  8
DATA
  6
CONTINUOUS
 62
     7
 10
442.0
 20
24.0
 30
0.0
 40
5.0000000000000462
 50
142.49999999999861
 51
157.49999999999849
  0
ARC
  5
3F1
  8
DATA
  6
CONTINUOUS
 62
     7
 10
442.0
 20
24.0
 30
0.0
 40
5.0000000000000222
 50
172.4999999999992
 51
187.4999999999994
  0
ARC
  5
3F2
  8
DATA
  6
CONTINUOUS
 62
     7
 10
442.0
 20
24.0
 30
0.0
 40
5.0000000000000124
 50
202.4999999999994
 51
217.49999999999909
  0
ARC
  5
3F3
  8
DATA
  6
CONTINUOUS
 62
     7
 10
442.0
 20
24.0
 30
0.0
 40
5.0000000000000311
 50
232.49999999999909
 51
247.4999999999992
  0
ARC
  5
3F4
  8
DATA
  6
CONTINUOUS
 62
     7
 10
442.0
 20
24.0
 30
0.0
 40
4.9999999999999778
 50
262.4999999999992
 51
277.50000000000011
  0
ARC
  5
3F5
  8
DATA
  6
CONTINUOUS
 62
     7
 10
442.0
 20
24.0
 30
0.0
 40
5.0000000000000009
 50
292.5000000000004
 51
307.49999999999949
  0
ARC
  5
3F6
  8
DATA
  6
CONTINUOUS
 62
     7
 10
442.0
 20
24.0
 30
0.0
 40
5.0000000000000089
 50
322.50000000000068
 51
337.50000000000063
  0
ARC
  5
3F7
  8
DATA
  6
CONTINUOUS
 62
     7
 10
442.0
 20
24.0
 30
0.0
 40
5.0000000000000204
 50
352.50000000000051
 51
7.4999999999994893
  0
ARC
  5
3F8
  8
DATA
  6
CONTINUOUS
 62
     7
 10
442.0
 20
24.0
 30
0.0
 40
5.0000000000000258
 50
22.499999999999361
 51
37.5
  0
ARC
  5
3F9
  8
DATA
  6
CONTINUOUS
 62
     7
 10
442.0
 20
24.0
 30
0.0
 40
5.000000000000024
 50
52.500000000000263
 51
67.500000000000341
  0
ARC
  5
3FA
  8
DATA
  6
CONTINUOUS
 62
     7
 10
442.0
 20
24.0
 30
0.0
 40
5.0000000000000284
 50
82.499999999999915
 51
97.500000000000142
  0
ARC
  5
3FB
  8
DATA
  6
CONTINUOUS
 62
     7
 10
442.0
 20
24.0
 30
0.0
 40
4.050000000000014
 50
93.539026459004859
 51
86.460973540995127
  0
ARC
  5
3FC
  8
DATA
  6
CONTINUOUS
 62
     7
 10
442.0
 20
24.0
 30
0.0
 40
4.7500000000000009
 50
93.016961309816026
 51
86.983038690184003
  0
ARC
  5
3FD
  8
DATA
  6
CONTINUOUS
 62
     7
 10
443.5221945532553
 20
29.68090741175331
 30
0.0
 40
1.1313081265050611
 50
219.76848405798731
 51
290.23151594201317
  0
ARC
  5
3FE
  8
DATA
  6
CONTINUOUS
 62
     7
 10
440.47780544674481
 20
29.68090741175331
 30
0.0
 40
1.131308126505046
 50
249.76848405798751
 51
320.23151594201221
  0
ARC
  5
3FF
  8
DATA
  6
CONTINUOUS
 62
     7
 10
437.84128714150199
 20
28.15871285849812
 30
0.0
 40
1.131308126505056
 50
279.76848405798808
 51
350.23151594201488
  0
ARC
  5
400
  8
DATA
  6
CONTINUOUS
 62
     7
 10
436.3190925882468
 20
25.522194553255311
 30
0.0
 40
1.13130812650504
 50
309.76848405798819
 51
20.231515942015729
  0
ARC
  5
401
  8
DATA
  6
CONTINUOUS
 62
     7
 10
436.31909258824658
 20
22.47780544674481
 30
0.0
 40
1.131308126505099
 50
339.76848405798847
 51
50.231515942013047
  0
ARC
  5
402
  8
DATA
  6
CONTINUOUS
 62
     7
 10
437.84128714150199
 20
19.84128714150205
 30
0.0
 40
1.131308126505066
 50
9.7684840579909462
 51
80.231515942014752
  0
ARC
  5
403
  8
DATA
  6
CONTINUOUS
 62
     7
 10
440.47780544674458
 20
18.319092588246811
 30
0.0
 40
1.1313081265050611
 50
39.768484057987301
 51
110.2315159420132
  0
ARC
  5
404
  8
DATA
  6
CONTINUOUS
 62
     7
 10
443.5221945532553
 20
18.319092588246811
 30
0.0
 40
1.131308126505099
 50
69.768484057988459
 51
140.23151594201411
  0
ARC
  5
405
  8
DATA
  6
CONTINUOUS
 62
     7
 10
446.15871285849789
 20
19.84128714150205
 30
0.0
 40
1.131308126505046
 50
99.768484057985305
 51
170.23151594201471
  0
ARC
  5
406
  8
DATA
  6
CONTINUOUS
 62
     7
 10
447.6809074117532
 20
22.47780544674481
 30
0.0
 40
1.13130812650504
 50
129.7684840579883
 51
200.2315159420157
  0
ARC
  5
407
  8
DATA
  6
CONTINUOUS
 62
     7
 10
447.6809074117532
 20
25.52219455325525
 30
0.0
 40
1.131308126505099
 50
159.76848405798839
 51
230.231515942013
  0
ARC
  5
408
  8
DATA
  6
CONTINUOUS
 62
     7
 10
446.15871285849789
 20
28.15871285849801
 30
0.0
 40
1.131308126505046
 50
189.76848405798521
 51
260.23151594201471
  0
POLYLINE
  5
409
  8
DATA
  6
CONTINUOUS
 62
     7
 66
     1
 10
0.0
 20
0.0
 30
0.0
 70
     1
  0
VERTEX
  5
ADA
  8
DATA
  6
CONTINUOUS
 62
     7
 10
441.75
 20
28.993746088859549
 30
0.0
  0
VERTEX
  5
ADB
  8
DATA
  6
CONTINUOUS
 62
     7
 10
442.25
 20
28.993746088859549
 30
0.0
  0
VERTEX
  5
ADC
  8
DATA
  6
CONTINUOUS
 62
     7
 10
442.25
 20
24.0
 30
0.0
  0
VERTEX
  5
ADD
  8
DATA
  6
CONTINUOUS
 62
     7
 10
441.75
 20
24.0
 30
0.0
  0
SEQEND
  5
ADE
  8
DATA
  6
CONTINUOUS
 62
     7
  0
LINE
  5
40F
  8
DATA
  6
CONTINUOUS
 62
     7
 10
418.0
 20
15.0
 30
0.0
 11
418.0
 21
29.0
 31
0.0
  0
LINE
  5
410
  8
DATA
  6
CONTINUOUS
 62
     7
 10
442.0
 20
15.0
 30
0.0
 11
442.0
 21
19.0
 31
0.0
  0
LINE
  5
411
  8
DATA
  6
CONTINUOUS
 62
     7
 10
442.0
 20
28.993746088859549
 30
0.0
 11
442.0
 21
29.0
 31
0.0
  0
ARC
  5
412
  8
DATA
  6
CONTINUOUS
 62
     7
 10
430.0
 20
29.0
 30
0.0
 40
12.000000000000011
 50
10.399008057474401
 51
180.0
  0
ARC
  5
413
  8
DATA
  6
CONTINUOUS
 62
     7
 10
430.0
 20
15.0
 30
0.0
 40
12.0
 50
180.0
 51
0.0
  0
CIRCLE
  5
414
  8
DATA
  6
CONTINUOUS
 62
     7
 10
437.02071111972663
 20
28.17811946296252
 30
0.0
 40
0.3999999999999827
  0
CIRCLE
  5
415
  8
DATA
  6
CONTINUOUS
 62
     7
 10
435.59874960542078
 20
22.871286845164949
 30
0.0
 40
0.4000000000000197
  0
CIRCLE
  5
416
  8
DATA
  6
CONTINUOUS
 62
     7
 10
438.75
 20
18.370834875401162
 30
0.0
 40
0.3999999999999681
  0
CIRCLE
  5
417
  8
DATA
  6
CONTINUOUS
 62
     7
 10
446.97928888027332
 20
28.17811946296252
 30
0.0
 40
0.3999999999999827
  0
CIRCLE
  5
418
  8
DATA
  6
CONTINUOUS
 62
     7
 10
448.40125039457939
 20
22.871286845164949
 30
0.0
 40
0.4000000000000197
  0
CIRCLE
  5
419
  8
DATA
  6
CONTINUOUS
 62
     7
 10
445.24999999999989
 20
18.370834875401162
 30
0.0
 40
0.3999999999999681
  0
LINE
  5
41A
  8
DATA
  6
CONTINUOUS
 62
     7
 10
441.0
 20
31.166025403784431
 30
0.0
 11
443.0
 21
31.166025403784431
 31
0.0
  0
LINE
  5
41B
  8
DATA
  6
CONTINUOUS
 62
     7
 10
443.0
 20
31.166025403784431
 30
0.0
 11
442.0
 21
29.433974596215592
 31
0.0
  0
LINE
  5
41C
  8
DATA
  6
CONTINUOUS
 62
     7
 10
441.0
 20
31.166025403784431
 30
0.0
 11
442.0
 21
29.433974596215592
 31
0.0
  0
LINE
  5
41D
  8
DATA
  6
CONTINUOUS
 62
     7
 10
441.5
 20
36.5
 30
0.0
 11
442.49999999999989
 21
36.5
 31
0.0
  0
LINE
  5
41E
  8
DATA
  6
CONTINUOUS
 62
     7
 10
441.5
 20
34.5
 30
0.0
 11
442.49999999999989
 21
34.5
 31
0.0
  0
ARC
  5
41F
  8
DATA
  6
CONTINUOUS
 62
     7
 10
441.5
 20
35.5
 30
0.0
 40
1.0
 50
90.0
 51
270.0
  0
ARC
  5
420
  8
DATA
  6
CONTINUOUS
 62
     7
 10
442.49999999999989
 20
35.5
 30
0.0
 40
1.0
 50
270.0
 51
90.0
  0
TEXT
  5
421
  8
DATA
 62
     7
 10
439.58658854166657
 20
32.000331439394017
 30
0.0
 40
1.923828125
  1
push
 41
0.85
 11
439.58658854166657
 21
33.924159564394017
 31
0.0
 73
     3
  0
TEXT
  5
422
  8
DATA
 62
     7
 10
423.02301136363639
 20
35.113080018939513
 30
0.0
 40
1.923828125
  1
OVER
 41
0.85
 11
423.02301136363639
 21
37.036908143939513
 31
0.0
 73
     3
  0
TEXT
  5
423
  8
DATA
 62
     7
 10
421.77301136363627
 20
32.613080018939513
 30
0.0
 40
1.923828125
  1
LIMIT
 41
0.85
 11
421.77301136363627
 21
34.536908143939513
 31
0.0
 73
     3
  0
TEXT
  5
424
  8
DATA
 62
     7
 10
423.02301136363639
 20
30.11308001893951
 30
0.0
 40
1.923828125
  1
-3dB
 41
0.85
 11
423.02301136363639
 21
32.036908143939513
 31
0.0
 73
     3
  0
TEXT
  5
425
  8
DATA
 62
     7
 10
423.02301136363639
 20
27.61308001893951
 30
0.0
 40
1.923828125
  1
-6dB
 41
0.85
 11
423.02301136363639
 21
29.53690814393951
 31
0.0
 73
     3
  0
TEXT
  5
426
  8
DATA
 62
     7
 10
421.77301136363627
 20
25.11308001893951
 30
0.0
 40
1.923828125
  1
-12dB
 41
0.85
 11
421.77301136363627
 21
27.03690814393951
 31
0.0
 73
     3
  0
TEXT
  5
427
  8
DATA
 62
     7
 10
421.77301136363627
 20
22.61308001893951
 30
0.0
 40
1.923828125
  1
-20dB
 41
0.85
 11
421.77301136363627
 21
24.53690814393951
 31
0.0
 73
     3
  0
TEXT
  5
428
  8
DATA
 62
     7
 10
424.27301136363639
 20
20.11308001893951
 30
0.0
 40
1.923828125
  1
SIG
 41
0.85
 11
424.27301136363639
 21
22.03690814393951
 31
0.0
 73
     3
  0
TEXT
  5
429
  8
DATA
 62
     7
 10
446.04847832929522
 20
16.90314867424296
 30
0.0
 40
1.923828125
  1
+6
 41
0.85
 11
446.04847832929522
 21
18.82697679924296
 31
0.0
 73
     3
  0
TEXT
  5
42A
  8
DATA
 62
     7
 10
439.0
 20
14.19999999999999
 30
0.0
 40
3.84765625
  1
dB
 41
0.85
 11
439.0
 21
18.047656249999989
 31
0.0
 73
     3
  0
TEXT
  5
42B
  8
DATA
 62
     7
 10
425.0
 20
4.1641016151376666
 30
0.0
 40
3.84765625
  1
MUTE
 41
0.85
 11
425.0
 21
8.0117578651376675
 31
0.0
 73
     3
  0
TEXT
  5
42C
  8
DATA
 62
     7
 10
428.75
 20
10.19999999999999
 30
0.0
 40
3.84765625
  1
6
 41
0.85
 11
428.75
 21
14.04765624999999
 31
0.0
 73
     3
  0
TEXT
  5
42D
  8
DATA
 62
     7
 10
435.74999999999989
 20
16.877817234848969
 30
0.0
 40
1.923828125
  1
-6
 41
0.85
 11
435.74999999999989
 21
18.801645359848969
 31
0.0
 73
     3
  0
TEXT
  5
42E
  8
DATA
 62
     7
 10
227.875
 20
38.600000000000023
 30
0.0
 40
1.923828125
  1
INPUT LEVEL
 41
0.85
 11
227.875
 21
40.523828125000023
 31
0.0
 73
     3
  0
TEXT
  5
42F
  8
DATA
 62
     7
 10
232.1993371212121
 20
35.100000000000023
 30
0.0
 40
1.923828125
  1
CLIP
 41
0.85
 11
232.1993371212121
 21
37.023828125000023
 31
0.0
 73
     3
  0
TEXT
  5
430
  8
DATA
 62
     7
 10
232.8243371212121
 20
32.600000000000023
 30
0.0
 40
1.923828125
  1
+12
 41
0.85
 11
232.8243371212121
 21
34.523828125000023
 31
0.0
 73
     3
  0
TEXT
  5
431
  8
DATA
 62
     7
 10
233.4493371212121
 20
30.100000000000019
 30
0.0
 40
1.923828125
  1
+6
 41
0.85
 11
233.4493371212121
 21
32.023828125000023
 31
0.0
 73
     3
  0
TEXT
  5
432
  8
DATA
 62
     7
 10
233.4493371212121
 20
27.600000000000019
 30
0.0
 40
1.923828125
  1
+3
 41
0.85
 11
233.4493371212121
 21
29.523828125000019
 31
0.0
 73
     3
  0
TEXT
  5
433
  8
DATA
 62
     7
 10
232.1993371212121
 20
25.100000000000019
 30
0.0
 40
1.923828125
  1
0dBu
 41
0.85
 11
232.1993371212121
 21
27.023828125000019
 31
0.0
 73
     3
  0
TEXT
  5
434
  8
DATA
 62
     7
 10
233.4493371212121
 20
22.600000000000019
 30
0.0
 40
1.923828125
  1
-3
 41
0.85
 11
233.4493371212121
 21
24.523828125000019
 31
0.0
 73
     3
  0
TEXT
  5
435
  8
DATA
 62
     7
 10
232.8243371212121
 20
20.100000000000019
 30
0.0
 40
1.923828125
  1
SIG
 41
0.85
 11
232.8243371212121
 21
22.023828125000019
 31
0.0
 73
     3
  0
TEXT
  5
436
  8
DATA
 62
     7
 10
210.0
 20
11.06
 30
0.0
 40
3.078125
  1
UTILS
 41
0.85
 11
210.0
 21
14.138125
 31
0.0
 73
     3
  0
TEXT
  5
437
  8
DATA
 62
     7
 10
228.0
 20
11.06
 30
0.0
 40
3.078125
  1
A
 41
0.85
 11
228.0
 21
14.138125
 31
0.0
 73
     3
  0
TEXT
  5
438
  8
DATA
 62
     7
 10
239.0
 20
11.06
 30
0.0
 40
3.078125
  1
B
 41
0.85
 11
239.0
 21
14.138125
 31
0.0
 73
     3
  0
TEXT
  5
439
  8
DATA
 62
     7
 10
248.0
 20
11.06
 30
0.0
 40
3.078125
  1
SUM
 41
0.85
 11
248.0
 21
14.138125
 31
0.0
 73
     3
  0
TEXT
  5
43A
  8
DATA
 62
     7
 10
230.25384706439399
 20
3.6467826704542849
 30
0.0
 40
2.693359375
  1
INPUT
 41
0.85
 11
230.25384706439399
 21
6.3401420454542849
 31
0.0
 73
     3
  0
TEXT
  5
43B
  8
DATA
 62
     7
 10
240.229521780303
 20
3.6467826704542849
 30
0.0
 40
2.693359375
  1
SELECT
 41
0.85
 11
240.229521780303
 21
6.3401420454542849
 31
0.0
 73
     3
  0
LINE
  5
43C
  8
DATA
  6
CONTINUOUS
 62
     7
 10
228.02817234848479
 20
4.9067826704542759
 30
0.0
 11
230.02817234848479
 21
4.9067826704542759
 31
0.0
  0
LINE
  5
43D
  8
DATA
  6
CONTINUOUS
 62
     7
 10
251.02817234848479
 20
4.9067826704542759
 30
0.0
 11
253.02817234848479
 21
4.9067826704542759
 31
0.0
  0
TEXT
  5
43E
  8
DATA
 62
     7
 10
35.75
 20
13.24
 30
0.0
 40
2.693359375
  1
RECALL
 41
0.85
 11
35.75
 21
15.933359375000011
 31
0.0
 73
     3
  0
TEXT
  5
43F
  8
DATA
 62
     7
 10
36.625
 20
28.240000000000009
 30
0.0
 40
2.693359375
  1
STORE
 41
0.85
 11
36.625
 21
30.933359375000009
 31
0.0
 73
     3
  0
TEXT
  5
440
  8
DATA
 62
     7
 10
36.0
 20
34.560000000000002
 30
0.0
 40
3.078125
  1
ENTER
 41
0.85
 11
36.0
 21
37.638125000000002
 31
0.0
 73
     3
  0
LINE
  5
441
  8
DATA
  6
CONTINUOUS
 62
     7
 10
25.100000000000019
 20
132.89999999999989
 30
0.0
 11
0.0
 21
132.89999999999989
 31
0.0
  0
LINE
  5
442
  8
DATA
  6
CONTINUOUS
 62
     7
 10
457.5
 20
132.89999999999989
 30
0.0
 11
482.60000000000002
 21
132.89999999999989
 31
0.0
  0
LINE
  5
443
  8
DATA
  6
CONTINUOUS
 62
     7
 10
0.0
 20
130.0
 30
0.0
 11
482.60000000000002
 21
130.0
 31
0.0
  0
LINE
  5
444
  8
DATA
  6
CONTINUOUS
 62
     7
 10
0.0
 20
131.69999999999999
 30
0.0
 11
482.60000000000002
 21
131.69999999999999
 31
0.0
  0
LINE
  5
445
  8
DATA
  6
CONTINUOUS
 62
     7
 10
25.100000000000019
 20
132.89999999999989
 30
0.0
 11
25.100000000000019
 21
135.40000000000001
 31
0.0
  0
LINE
  5
446
  8
DATA
  6
CONTINUOUS
 62
     7
 10
26.300000000000011
 20
135.40000000000001
 30
0.0
 11
26.300000000000011
 21
131.59999999999991
 31
0.0
  0
LINE
  5
447
  8
DATA
  6
CONTINUOUS
 62
     7
 10
457.5
 20
132.89999999999989
 30
0.0
 11
457.5
 21
135.40000000000001
 31
0.0
  0
LINE
  5
448
  8
DATA
  6
CONTINUOUS
 62
     7
 10
456.30000000000001
 20
135.40000000000001
 30
0.0
 11
456.30000000000001
 21
131.69999999999999
 31
0.0
  0
CIRCLE
  5
449
  8
DATA
  6
CONTINUOUS
 62
     7
 10
244.5
 20
141.39999999999989
 30
0.0
 40
3.5000000000000071
  0
LINE
  5
44A
  8
DATA
  6
CONTINUOUS
 62
     7
 10
240.50999999999999
 20
135.40000000000001
 30
0.0
 11
239.5
 21
145.5
 31
0.0
  0
LINE
  5
44B
  8
DATA
  6
CONTINUOUS
 62
     7
 10
248.49000000000001
 20
135.40000000000001
 30
0.0
 11
249.5
 21
145.5
 31
0.0
  0
LINE
  5
44C
  8
DATA
  6
CONTINUOUS
 62
     7
 10
239.5
 20
145.5
 30
0.0
 11
249.5
 21
145.5
 31
0.0
  0
POLYLINE
  5
44D
  8
DATA
  6
CONTINUOUS
 62
     7
 66
     1
 10
0.0
 20
0.0
 30
0.0
  0
VERTEX
  5
ADF
  8
DATA
  6
CONTINUOUS
 62
     7
 10
245.0
 20
141.89999999999989
 30
0.0
  0
VERTEX
  5
AE0
  8
DATA
  6
CONTINUOUS
 62
     7
 10
245.0
 20
143.39999999999989
 30
0.0
  0
VERTEX
  5
AE1
  8
DATA
  6
CONTINUOUS
 62
     7
 10
244.0
 20
143.39999999999989
 30
0.0
  0
VERTEX
  5
AE2
  8
DATA
  6
CONTINUOUS
 62
     7
 10
244.0
 20
141.89999999999989
 30
0.0
  0
SEQEND
  5
AE3
  8
DATA
  6
CONTINUOUS
 62
     7
  0
POLYLINE
  5
453
  8
DATA
  6
CONTINUOUS
 62
     7
 66
     1
 10
0.0
 20
0.0
 30
0.0
  0
VERTEX
  5
AE4
  8
DATA
  6
CONTINUOUS
 62
     7
 10
245.0
 20
140.89999999999989
 30
0.0
  0
VERTEX
  5
AE5
  8
DATA
  6
CONTINUOUS
 62
     7
 10
245.0
 20
139.40000000000001
 30
0.0
  0
VERTEX
  5
AE6
  8
DATA
  6
CONTINUOUS
 62
     7
 10
244.0
 20
139.40000000000001
 30
0.0
  0
VERTEX
  5
AE7
  8
DATA
  6
CONTINUOUS
 62
     7
 10
244.0
 20
140.89999999999989
 30
0.0
  0
SEQEND
  5
AE8
  8
DATA
  6
CONTINUOUS
 62
     7
  0
POLYLINE
  5
459
  8
DATA
  6
CONTINUOUS
 62
     7
 66
     1
 10
0.0
 20
0.0
 30
0.0
  0
VERTEX
  5
AE9
  8
DATA
  6
CONTINUOUS
 62
     7
 10
245.0
 20
140.89999999999989
 30
0.0
  0
VERTEX
  5
AEA
  8
DATA
  6
CONTINUOUS
 62
     7
 10
246.5
 20
140.89999999999989
 30
0.0
  0
VERTEX
  5
AEB
  8
DATA
  6
CONTINUOUS
 62
     7
 10
246.5
 20
141.89999999999989
 30
0.0
  0
VERTEX
  5
AEC
  8
DATA
  6
CONTINUOUS
 62
     7
 10
245.0
 20
141.89999999999989
 30
0.0
  0
SEQEND
  5
AED
  8
DATA
  6
CONTINUOUS
 62
     7
  0
POLYLINE
  5
45F
  8
DATA
  6
CONTINUOUS
 62
     7
 66
     1
 10
0.0
 20
0.0
 30
0.0
  0
VERTEX
  5
AEE
  8
DATA
  6
CONTINUOUS
 62
     7
 10
244.0
 20
140.89999999999989
 30
0.0
  0
VERTEX
  5
AEF
  8
DATA
  6
CONTINUOUS
 62
     7
 10
242.5
 20
140.89999999999989
 30
0.0
  0
VERTEX
  5
AF0
  8
DATA
  6
CONTINUOUS
 62
     7
 10
242.5
 20
141.89999999999989
 30
0.0
  0
VERTEX
  5
AF1
  8
DATA
  6
CONTINUOUS
 62
     7
 10
244.0
 20
141.89999999999989
 30
0.0
  0
SEQEND
  5
AF2
  8
DATA
  6
CONTINUOUS
 62
     7
  0
LINE
  5
465
  8
DATA
  6
CONTINUOUS
 62
     7
 10
75.010000000000147
 20
135.40000000000001
 30
0.0
 11
74.0
 21
145.5
 31
0.0
  0
LINE
  5
466
  8
DATA
  6
CONTINUOUS
 62
     7
 10
74.0
 20
145.5
 30
0.0
 11
84.0
 21
145.5
 31
0.0
  0
LINE
  5
467
  8
DATA
  6
CONTINUOUS
 62
     7
 10
82.989999999999853
 20
135.40000000000001
 30
0.0
 11
84.0
 21
145.5
 31
0.0
  0
LINE
  5
468
  8
DATA
  6
CONTINUOUS
 62
     7
 10
408.60000000000002
 20
145.5
 30
0.0
 11
398.60000000000002
 21
145.5
 31
0.0
  0
LINE
  5
469
  8
DATA
  6
CONTINUOUS
 62
     7
 10
407.58999999999992
 20
135.40000000000001
 30
0.0
 11
408.60000000000002
 21
145.5
 31
0.0
  0
LINE
  5
46A
  8
DATA
  6
CONTINUOUS
 62
     7
 10
398.60000000000002
 20
145.5
 30
0.0
 11
399.61000000000001
 21
135.40000000000001
 31
0.0
  0
ARC
  5
46B
  8
DATA
  6
CONTINUOUS
 62
     7
 10
37.5
 20
29.5
 30
0.0
 40
3.0
 50
90.0
 51
270.0
  0
ARC
  5
46C
  8
DATA
  6
CONTINUOUS
 62
     7
 10
44.5
 20
29.5
 30
0.0
 40
3.0
 50
270.0
 51
90.0
  0
LINE
  5
46D
  8
DATA
  6
CONTINUOUS
 62
     7
 10
37.5
 20
32.5
 30
0.0
 11
44.5
 21
32.5
 31
0.0
  0
LINE
  5
46E
  8
DATA
  6
CONTINUOUS
 62
     7
 10
37.5
 20
26.5
 30
0.0
 11
44.5
 21
26.5
 31
0.0
  0
LINE
  5
46F
  8
DATA
  6
CONTINUOUS
 62
     7
 10
56.0
 20
130.0
 30
0.0
 11
56.350000000000527
 21
127.0
 31
0.0
  0
LINE
  5
470
  8
DATA
  6
CONTINUOUS
 62
     7
 10
65.0
 20
127.0
 30
0.0
 11
65.0
 21
130.0
 31
0.0
  0
LINE
  5
471
  8
DATA
  6
CONTINUOUS
 62
     7
 10
74.999999999999872
 20
127.0
 30
0.0
 11
74.999999999999872
 21
130.0
 31
0.0
  0
LINE
  5
472
  8
DATA
  6
CONTINUOUS
 62
     7
 10
65.0
 20
127.0
 30
0.0
 11
74.999999999999872
 21
127.0
 31
0.0
  0
LINE
  5
473
  8
DATA
  6
CONTINUOUS
 62
     7
 10
84.0
 20
130.0
 30
0.0
 11
83.649999999999451
 21
127.0
 31
0.0
  0
ARC
  5
474
  8
DATA
  6
CONTINUOUS
 62
     7
 10
70.0
 20
34.338750000007508
 30
0.0
 40
93.661249999992478
 50
81.619984548951976
 51
86.93987489935283
  0
ARC
  5
475
  8
DATA
  6
CONTINUOUS
 62
     7
 10
70.0
 20
34.338750000007508
 30
0.0
 40
93.661249999992549
 50
93.060125100647127
 51
98.380015451048067
  0
LINE
  5
476
  8
DATA
  6
CONTINUOUS
 62
     7
 10
178.65000000000001
 20
111.0
 30
0.0
 11
203.34999999999999
 21
111.0
 31
0.0
  0
LINE
  5
477
  8
DATA
  6
CONTINUOUS
 62
     7
 10
178.65000000000001
 20
112.5
 30
0.0
 11
203.34999999999999
 21
112.5
 31
0.0
  0
CIRCLE
  5
478
  8
DATA
  6
CONTINUOUS
 62
     7
 10
191.0
 20
22.0
 30
0.0
 40
14.0
  0
LINE
  5
479
  8
DATA
  6
CONTINUOUS
 62
     7
 10
177.0
 20
130.0
 30
0.0
 11
178.65000000000001
 21
112.5
 31
0.0
  0
LINE
  5
47A
  8
DATA
  6
CONTINUOUS
 62
     7
 10
205.0
 20
130.0
 30
0.0
 11
203.34999999999999
 21
112.5
 31
0.0
  0
LINE
  5
47B
  8
DATA
  6
CONTINUOUS
 62
     7
 10
194.31
 20
112.5
 30
0.0
 11
194.31
 21
128.0
 31
0.0
  0
LINE
  5
47C
  8
DATA
  6
CONTINUOUS
 62
     7
 10
191.0
 20
112.5
 30
0.0
 11
191.0
 21
128.0
 31
0.0
  0
LINE
  5
47D
  8
DATA
  6
CONTINUOUS
 62
     7
 10
200.05000000000001
 20
112.5
 30
0.0
 11
200.5890822137853
 21
127.9372948142709
 31
0.0
  0
LINE
  5
47E
  8
DATA
  6
CONTINUOUS
 62
     7
 10
197.40000000000001
 20
112.5
 30
0.0
 11
197.94273836562439
 21
128.04199330437839
 31
0.0
  0
LINE
  5
47F
  8
DATA
  6
CONTINUOUS
 62
     7
 10
187.69
 20
112.5
 30
0.0
 11
187.1472616343755
 21
128.04199330437831
 31
0.0
  0
LINE
  5
480
  8
DATA
  6
CONTINUOUS
 62
     7
 10
184.59999999999999
 20
112.5
 30
0.0
 11
184.06091778621459
 21
127.9372948142708
 31
0.0
  0
LINE
  5
481
  8
DATA
  6
CONTINUOUS
 62
     7
 10
178.65000000000001
 20
111.0
 30
0.0
 11
178.65000000000001
 21
112.5
 31
0.0
  0
LINE
  5
482
  8
DATA
  6
CONTINUOUS
 62
     7
 10
203.34999999999999
 20
111.0
 30
0.0
 11
203.34999999999999
 21
112.5
 31
0.0
  0
ARC
  5
483
  8
DATA
  6
CONTINUOUS
 62
     7
 10
192.655
 20
127.0667279567367
 30
0.0
 40
1.9000057122905269
 50
29.419112047523448
 51
150.5808879524765
  0
ARC
  5
484
  8
DATA
  6
CONTINUOUS
 62
     7
 10
199.2516183334817
 20
127.6284026470512
 30
0.0
 40
1.37267039091197
 50
13.00464866603509
 51
162.4640772536078
  0
ARC
  5
485
  8
DATA
  6
CONTINUOUS
 62
     7
 10
185.62693041821859
 20
127.3163365616211
 30
0.0
 40
1.684631922744519
 50
25.515224557433569
 51
158.3705914079371
  0
LINE
  5
486
  8
DATA
  6
CONTINUOUS
 62
     7
 10
181.9490332008121
 20
112.5
 30
0.0
 11
184.59999999999999
 21
112.5
 31
0.0
  0
LINE
  5
487
  8
DATA
  6
CONTINUOUS
 62
     7
 10
181.94999999999999
 20
112.5
 30
0.0
 11
181.41091778621461
 21
127.9372948142708
 31
0.0
  0
LINE
  5
488
  8
DATA
  6
CONTINUOUS
 62
     7
 10
179.91
 20
112.5
 30
0.0
 11
179.3709177862147
 21
127.9372948142708
 31
0.0
  0
ARC
  5
489
  8
DATA
  6
CONTINUOUS
 62
     7
 10
180.3909177862146
 20
127.98
 30
0.0
 40
1.020893595282184
 50
357.60255028028268
 51
182.3974497197172
  0
LINE
  5
48A
  8
DATA
  6
CONTINUOUS
 62
     7
 10
36.5
 20
127.0
 30
0.0
 11
45.499999999999993
 21
127.0
 31
0.0
  0
LINE
  5
48B
  8
DATA
  6
CONTINUOUS
 62
     7
 10
34.5
 20
130.0
 30
0.0
 11
34.5
 21
128.0
 31
0.0
  0
ARC
  5
48C
  8
DATA
  6
CONTINUOUS
 62
     7
 10
36.300000000000011
 20
129.09999999999999
 30
0.0
 40
2.1095023109729198
 50
211.42956561483891
 51
275.4403320310052
  0
ARC
  5
48D
  8
DATA
  6
CONTINUOUS
 62
     7
 10
45.699999999999989
 20
129.09999999999999
 30
0.0
 40
2.1095023109729198
 50
264.55966796899492
 51
328.57043438516098
  0
LINE
  5
48E
  8
DATA
  6
CONTINUOUS
 62
     7
 10
47.5
 20
128.0
 30
0.0
 11
47.5
 21
130.0
 31
0.0
  0
LINE
  5
48F
  8
DATA
  6
CONTINUOUS
 62
     7
 10
210.5
 20
127.0
 30
0.0
 11
219.5
 21
127.0
 31
0.0
  0
LINE
  5
490
  8
DATA
  6
CONTINUOUS
 62
     7
 10
208.5
 20
130.0
 30
0.0
 11
208.5
 21
128.0
 31
0.0
  0
ARC
  5
491
  8
DATA
  6
CONTINUOUS
 62
     7
 10
210.30000000000001
 20
129.09999999999999
 30
0.0
 40
2.1095023109729198
 50
211.42956561483891
 51
275.4403320310052
  0
ARC
  5
492
  8
DATA
  6
CONTINUOUS
 62
     7
 10
219.69999999999999
 20
129.09999999999999
 30
0.0
 40
2.1095023109729198
 50
264.55966796899492
 51
328.57043438516098
  0
LINE
  5
493
  8
DATA
  6
CONTINUOUS
 62
     7
 10
221.5
 20
128.0
 30
0.0
 11
221.5
 21
130.0
 31
0.0
  0
LINE
  5
494
  8
DATA
  6
CONTINUOUS
 62
     7
 10
228.0
 20
127.0
 30
0.0
 11
230.0
 21
127.0
 31
0.0
  0
LINE
  5
495
  8
DATA
  6
CONTINUOUS
 62
     7
 10
226.0
 20
130.0
 30
0.0
 11
226.0
 21
128.0
 31
0.0
  0
ARC
  5
496
  8
DATA
  6
CONTINUOUS
 62
     7
 10
227.80000000000001
 20
129.09999999999999
 30
0.0
 40
2.1095023109729198
 50
211.42956561483891
 51
275.4403320310052
  0
ARC
  5
497
  8
DATA
  6
CONTINUOUS
 62
     7
 10
230.19999999999999
 20
129.09999999999999
 30
0.0
 40
2.1095023109729198
 50
264.55966796899492
 51
328.57043438516098
  0
LINE
  5
498
  8
DATA
  6
CONTINUOUS
 62
     7
 10
232.0
 20
128.0
 30
0.0
 11
232.0
 21
130.0
 31
0.0
  0
LINE
  5
499
  8
DATA
  6
CONTINUOUS
 62
     7
 10
239.0
 20
127.0
 30
0.0
 11
241.0
 21
127.0
 31
0.0
  0
LINE
  5
49A
  8
DATA
  6
CONTINUOUS
 62
     7
 10
237.0
 20
130.0
 30
0.0
 11
237.0
 21
128.0
 31
0.0
  0
ARC
  5
49B
  8
DATA
  6
CONTINUOUS
 62
     7
 10
238.80000000000001
 20
129.09999999999999
 30
0.0
 40
2.1095023109729198
 50
211.42956561483891
 51
275.4403320310052
  0
ARC
  5
49C
  8
DATA
  6
CONTINUOUS
 62
     7
 10
241.19999999999999
 20
129.09999999999999
 30
0.0
 40
2.1095023109729198
 50
264.55966796899492
 51
328.57043438516098
  0
LINE
  5
49D
  8
DATA
  6
CONTINUOUS
 62
     7
 10
243.0
 20
128.0
 30
0.0
 11
243.0
 21
130.0
 31
0.0
  0
LINE
  5
49E
  8
DATA
  6
CONTINUOUS
 62
     7
 10
250.0
 20
127.0
 30
0.0
 11
252.0
 21
127.0
 31
0.0
  0
LINE
  5
49F
  8
DATA
  6
CONTINUOUS
 62
     7
 10
248.0
 20
130.0
 30
0.0
 11
248.0
 21
128.0
 31
0.0
  0
ARC
  5
4A0
  8
DATA
  6
CONTINUOUS
 62
     7
 10
249.80000000000001
 20
129.09999999999999
 30
0.0
 40
2.1095023109729198
 50
211.42956561483891
 51
275.4403320310052
  0
ARC
  5
4A1
  8
DATA
  6
CONTINUOUS
 62
     7
 10
252.19999999999999
 20
129.09999999999999
 30
0.0
 40
2.1095023109729198
 50
264.55966796899492
 51
328.57043438516098
  0
LINE
  5
4A2
  8
DATA
  6
CONTINUOUS
 62
     7
 10
254.0
 20
128.0
 30
0.0
 11
254.0
 21
130.0
 31
0.0
  0
LINE
  5
4A3
  8
DATA
  6
CONTINUOUS
 62
     7
 10
277.94999999999999
 20
116.0
 30
0.0
 11
277.74999999999989
 21
128.5
 31
0.0
  0
LINE
  5
4A4
  8
DATA
  6
CONTINUOUS
 62
     7
 10
286.05000000000013
 20
116.0
 30
0.0
 11
286.25000000000011
 21
128.5
 31
0.0
  0
LINE
  5
4A5
  8
DATA
  6
CONTINUOUS
 62
     7
 10
277.94999999999999
 20
115.0
 30
0.0
 11
286.05000000000013
 21
115.0
 31
0.0
  0
LINE
  5
4A6
  8
DATA
  6
CONTINUOUS
 62
     7
 10
277.94999999999999
 20
116.0
 30
0.0
 11
286.05000000000013
 21
116.0
 31
0.0
  0
LINE
  5
4A7
  8
DATA
  6
CONTINUOUS
 62
     7
 10
281.34736903889973
 20
116.0
 30
0.0
 11
281.24736903889982
 21
128.5
 31
0.0
  0
LINE
  5
4A8
  8
DATA
  6
CONTINUOUS
 62
     7
 10
282.65263096110021
 20
116.0
 30
0.0
 11
282.75263096110018
 21
128.5
 31
0.0
  0
LINE
  5
4A9
  8
DATA
  6
CONTINUOUS
 62
     7
 10
277.94999999999999
 20
116.0
 30
0.0
 11
277.04277569313081
 21
130.0
 31
0.0
  0
LINE
  5
4AA
  8
DATA
  6
CONTINUOUS
 62
     7
 10
286.05000000000013
 20
116.0
 30
0.0
 11
286.95722430686902
 21
130.0
 31
0.0
  0
LINE
  5
4AB
  8
DATA
  6
CONTINUOUS
 62
     7
 10
280.08658283817448
 20
116.0
 30
0.0
 11
279.98658283817463
 21
128.5
 31
0.0
  0
LINE
  5
4AC
  8
DATA
  6
CONTINUOUS
 62
     7
 10
283.91341716182552
 20
116.0
 30
0.0
 11
284.01341716182537
 21
128.5
 31
0.0
  0
ARC
  5
4AD
  8
DATA
  6
CONTINUOUS
 62
     7
 10
280.61697593853722
 20
128.3526045390152
 30
0.0
 40
0.6473954609847326
 50
13.16020049880515
 51
166.8397995011949
  0
ARC
  5
4AE
  8
DATA
  6
CONTINUOUS
 62
     7
 10
283.38302406146289
 20
128.3526045390152
 30
0.0
 40
0.6473954609847326
 50
13.16020049880515
 51
166.8397995011949
  0
LINE
  5
4AF
  8
DATA
  6
CONTINUOUS
 62
     7
 10
278.95619285495638
 20
116.0
 30
0.0
 11
278.7561928549564
 21
128.5
 31
0.0
  0
ARC
  5
4B0
  8
DATA
  6
CONTINUOUS
 62
     7
 10
278.25309642747823
 20
128.49689398465861
 30
0.0
 40
0.5031060153413686
 50
0.3537280319379601
 51
179.646271968062
  0
LINE
  5
4B1
  8
DATA
  6
CONTINUOUS
 62
     7
 10
285.04380714504362
 20
116.0
 30
0.0
 11
285.2438071450436
 21
128.5
 31
0.0
  0
ARC
  5
4B2
  8
DATA
  6
CONTINUOUS
 62
     7
 10
285.74690357252177
 20
128.49689398465861
 30
0.0
 40
0.5031060153413544
 50
0.35372803193797
 51
179.646271968062
  0
LINE
  5
4B3
  8
DATA
  6
CONTINUOUS
 62
     7
 10
277.94999999999999
 20
115.0
 30
0.0
 11
277.94999999999999
 21
116.0
 31
0.0
  0
LINE
  5
4B4
  8
DATA
  6
CONTINUOUS
 62
     7
 10
286.05000000000013
 20
115.0
 30
0.0
 11
286.05000000000013
 21
116.0
 31
0.0
  0
LINE
  5
4B5
  8
DATA
  6
CONTINUOUS
 62
     7
 10
281.75
 20
115.0
 30
0.0
 11
281.75
 21
130.0
 31
0.0
  0
LINE
  5
4B6
  8
DATA
  6
CONTINUOUS
 62
     7
 10
282.25
 20
115.0
 30
0.0
 11
282.25
 21
130.0
 31
0.0
  0
LINE
  5
4B7
  8
DATA
  6
CONTINUOUS
 62
     7
 10
309.94999999999987
 20
116.0
 30
0.0
 11
309.75
 21
128.5
 31
0.0
  0
LINE
  5
4B8
  8
DATA
  6
CONTINUOUS
 62
     7
 10
318.05000000000013
 20
116.0
 30
0.0
 11
318.25
 21
128.5
 31
0.0
  0
LINE
  5
4B9
  8
DATA
  6
CONTINUOUS
 62
     7
 10
309.94999999999987
 20
115.0
 30
0.0
 11
318.05000000000013
 21
115.0
 31
0.0
  0
LINE
  5
4BA
  8
DATA
  6
CONTINUOUS
 62
     7
 10
309.94999999999987
 20
116.0
 30
0.0
 11
318.05000000000013
 21
116.0
 31
0.0
  0
LINE
  5
4BB
  8
DATA
  6
CONTINUOUS
 62
     7
 10
313.34736903889979
 20
116.0
 30
0.0
 11
313.24736903889982
 21
128.5
 31
0.0
  0
LINE
  5
4BC
  8
DATA
  6
CONTINUOUS
 62
     7
 10
314.65263096110021
 20
116.0
 30
0.0
 11
314.75263096110029
 21
128.5
 31
0.0
  0
LINE
  5
4BD
  8
DATA
  6
CONTINUOUS
 62
     7
 10
309.94999999999987
 20
116.0
 30
0.0
 11
309.04277569313092
 21
130.0
 31
0.0
  0
LINE
  5
4BE
  8
DATA
  6
CONTINUOUS
 62
     7
 10
318.05000000000013
 20
116.0
 30
0.0
 11
318.95722430686902
 21
130.0
 31
0.0
  0
LINE
  5
4BF
  8
DATA
  6
CONTINUOUS
 62
     7
 10
312.08658283817459
 20
116.0
 30
0.0
 11
311.98658283817463
 21
128.5
 31
0.0
  0
LINE
  5
4C0
  8
DATA
  6
CONTINUOUS
 62
     7
 10
315.91341716182552
 20
116.0
 30
0.0
 11
316.01341716182537
 21
128.5
 31
0.0
  0
ARC
  5
4C1
  8
DATA
  6
CONTINUOUS
 62
     7
 10
312.61697593853722
 20
128.3526045390152
 30
0.0
 40
0.6473954609847326
 50
13.16020049880515
 51
166.8397995011949
  0
ARC
  5
4C2
  8
DATA
  6
CONTINUOUS
 62
     7
 10
315.38302406146278
 20
128.3526045390152
 30
0.0
 40
0.6473954609847326
 50
13.16020049880515
 51
166.8397995011949
  0
LINE
  5
4C3
  8
DATA
  6
CONTINUOUS
 62
     7
 10
310.95619285495638
 20
116.0
 30
0.0
 11
310.75619285495628
 21
128.5
 31
0.0
  0
ARC
  5
4C4
  8
DATA
  6
CONTINUOUS
 62
     7
 10
310.25309642747823
 20
128.49689398465861
 30
0.0
 40
0.5031060153413686
 50
0.3537280319379601
 51
179.646271968062
  0
LINE
  5
4C5
  8
DATA
  6
CONTINUOUS
 62
     7
 10
317.04380714504362
 20
116.0
 30
0.0
 11
317.24380714504372
 21
128.5
 31
0.0
  0
ARC
  5
4C6
  8
DATA
  6
CONTINUOUS
 62
     7
 10
317.74690357252177
 20
128.49689398465861
 30
0.0
 40
0.5031060153413544
 50
0.35372803193797
 51
179.646271968062
  0
LINE
  5
4C7
  8
DATA
  6
CONTINUOUS
 62
     7
 10
309.94999999999987
 20
115.0
 30
0.0
 11
309.94999999999987
 21
116.0
 31
0.0
  0
LINE
  5
4C8
  8
DATA
  6
CONTINUOUS
 62
     7
 10
318.05000000000013
 20
115.0
 30
0.0
 11
318.05000000000013
 21
116.0
 31
0.0
  0
LINE
  5
4C9
  8
DATA
  6
CONTINUOUS
 62
     7
 10
313.75
 20
115.0
 30
0.0
 11
313.75
 21
130.0
 31
0.0
  0
LINE
  5
4CA
  8
DATA
  6
CONTINUOUS
 62
     7
 10
314.25
 20
115.0
 30
0.0
 11
314.25
 21
130.0
 31
0.0
  0
LINE
  5
4CB
  8
DATA
  6
CONTINUOUS
 62
     7
 10
341.94999999999987
 20
116.0
 30
0.0
 11
341.74999999999989
 21
128.5
 31
0.0
  0
LINE
  5
4CC
  8
DATA
  6
CONTINUOUS
 62
     7
 10
350.05000000000013
 20
116.0
 30
0.0
 11
350.25000000000011
 21
128.5
 31
0.0
  0
LINE
  5
4CD
  8
DATA
  6
CONTINUOUS
 62
     7
 10
341.94999999999987
 20
115.0
 30
0.0
 11
350.05000000000013
 21
115.0
 31
0.0
  0
LINE
  5
4CE
  8
DATA
  6
CONTINUOUS
 62
     7
 10
341.94999999999987
 20
116.0
 30
0.0
 11
350.05000000000013
 21
116.0
 31
0.0
  0
LINE
  5
4CF
  8
DATA
  6
CONTINUOUS
 62
     7
 10
345.34736903889979
 20
116.0
 30
0.0
 11
345.24736903889982
 21
128.5
 31
0.0
  0
LINE
  5
4D0
  8
DATA
  6
CONTINUOUS
 62
     7
 10
346.65263096110021
 20
116.0
 30
0.0
 11
346.75263096110018
 21
128.5
 31
0.0
  0
LINE
  5
4D1
  8
DATA
  6
CONTINUOUS
 62
     7
 10
341.94999999999987
 20
116.0
 30
0.0
 11
341.04277569313092
 21
130.0
 31
0.0
  0
LINE
  5
4D2
  8
DATA
  6
CONTINUOUS
 62
     7
 10
350.05000000000013
 20
116.0
 30
0.0
 11
350.95722430686902
 21
130.0
 31
0.0
  0
LINE
  5
4D3
  8
DATA
  6
CONTINUOUS
 62
     7
 10
344.08658283817459
 20
116.0
 30
0.0
 11
343.98658283817463
 21
128.5
 31
0.0
  0
LINE
  5
4D4
  8
DATA
  6
CONTINUOUS
 62
     7
 10
347.91341716182541
 20
116.0
 30
0.0
 11
348.01341716182537
 21
128.5
 31
0.0
  0
ARC
  5
4D5
  8
DATA
  6
CONTINUOUS
 62
     7
 10
344.61697593853722
 20
128.3526045390152
 30
0.0
 40
0.6473954609847326
 50
13.16020049880515
 51
166.8397995011949
  0
ARC
  5
4D6
  8
DATA
  6
CONTINUOUS
 62
     7
 10
347.38302406146278
 20
128.3526045390152
 30
0.0
 40
0.6473954609847326
 50
13.16020049880515
 51
166.8397995011949
  0
LINE
  5
4D7
  8
DATA
  6
CONTINUOUS
 62
     7
 10
342.95619285495638
 20
116.0
 30
0.0
 11
342.75619285495628
 21
128.5
 31
0.0
  0
ARC
  5
4D8
  8
DATA
  6
CONTINUOUS
 62
     7
 10
342.25309642747823
 20
128.49689398465861
 30
0.0
 40
0.5031060153413686
 50
0.3537280319379601
 51
179.646271968062
  0
LINE
  5
4D9
  8
DATA
  6
CONTINUOUS
 62
     7
 10
349.04380714504362
 20
116.0
 30
0.0
 11
349.24380714504372
 21
128.5
 31
0.0
  0
ARC
  5
4DA
  8
DATA
  6
CONTINUOUS
 62
     7
 10
349.74690357252177
 20
128.49689398465861
 30
0.0
 40
0.5031060153413544
 50
0.35372803193797
 51
179.646271968062
  0
LINE
  5
4DB
  8
DATA
  6
CONTINUOUS
 62
     7
 10
341.94999999999987
 20
115.0
 30
0.0
 11
341.94999999999987
 21
116.0
 31
0.0
  0
LINE
  5
4DC
  8
DATA
  6
CONTINUOUS
 62
     7
 10
350.05000000000013
 20
115.0
 30
0.0
 11
350.05000000000013
 21
116.0
 31
0.0
  0
LINE
  5
4DD
  8
DATA
  6
CONTINUOUS
 62
     7
 10
345.75
 20
115.0
 30
0.0
 11
345.75
 21
130.0
 31
0.0
  0
LINE
  5
4DE
  8
DATA
  6
CONTINUOUS
 62
     7
 10
346.25
 20
115.0
 30
0.0
 11
346.25
 21
130.0
 31
0.0
  0
LINE
  5
4DF
  8
DATA
  6
CONTINUOUS
 62
     7
 10
373.94999999999999
 20
116.0
 30
0.0
 11
373.75
 21
128.5
 31
0.0
  0
LINE
  5
4E0
  8
DATA
  6
CONTINUOUS
 62
     7
 10
382.05000000000013
 20
116.0
 30
0.0
 11
382.25000000000011
 21
128.5
 31
0.0
  0
LINE
  5
4E1
  8
DATA
  6
CONTINUOUS
 62
     7
 10
373.94999999999999
 20
115.0
 30
0.0
 11
382.05000000000013
 21
115.0
 31
0.0
  0
LINE
  5
4E2
  8
DATA
  6
CONTINUOUS
 62
     7
 10
373.94999999999999
 20
116.0
 30
0.0
 11
382.05000000000013
 21
116.0
 31
0.0
  0
LINE
  5
4E3
  8
DATA
  6
CONTINUOUS
 62
     7
 10
377.34736903889973
 20
116.0
 30
0.0
 11
377.24736903889982
 21
128.5
 31
0.0
  0
LINE
  5
4E4
  8
DATA
  6
CONTINUOUS
 62
     7
 10
378.65263096110021
 20
116.0
 30
0.0
 11
378.75263096110018
 21
128.5
 31
0.0
  0
LINE
  5
4E5
  8
DATA
  6
CONTINUOUS
 62
     7
 10
373.94999999999999
 20
116.0
 30
0.0
 11
373.04277569313092
 21
130.0
 31
0.0
  0
LINE
  5
4E6
  8
DATA
  6
CONTINUOUS
 62
     7
 10
382.05000000000013
 20
116.0
 30
0.0
 11
382.95722430686902
 21
130.0
 31
0.0
  0
LINE
  5
4E7
  8
DATA
  6
CONTINUOUS
 62
     7
 10
376.08658283817459
 20
116.0
 30
0.0
 11
375.98658283817463
 21
128.5
 31
0.0
  0
LINE
  5
4E8
  8
DATA
  6
CONTINUOUS
 62
     7
 10
379.91341716182552
 20
116.0
 30
0.0
 11
380.01341716182537
 21
128.5
 31
0.0
  0
ARC
  5
4E9
  8
DATA
  6
CONTINUOUS
 62
     7
 10
376.61697593853722
 20
128.3526045390152
 30
0.0
 40
0.6473954609847326
 50
13.16020049880515
 51
166.8397995011949
  0
ARC
  5
4EA
  8
DATA
  6
CONTINUOUS
 62
     7
 10
379.38302406146278
 20
128.3526045390152
 30
0.0
 40
0.6473954609847326
 50
13.16020049880515
 51
166.8397995011949
  0
LINE
  5
4EB
  8
DATA
  6
CONTINUOUS
 62
     7
 10
374.95619285495638
 20
116.0
 30
0.0
 11
374.7561928549564
 21
128.5
 31
0.0
  0
ARC
  5
4EC
  8
DATA
  6
CONTINUOUS
 62
     7
 10
374.25309642747823
 20
128.49689398465861
 30
0.0
 40
0.5031060153413686
 50
0.3537280319379601
 51
179.646271968062
  0
LINE
  5
4ED
  8
DATA
  6
CONTINUOUS
 62
     7
 10
381.04380714504362
 20
116.0
 30
0.0
 11
381.24380714504372
 21
128.5
 31
0.0
  0
ARC
  5
4EE
  8
DATA
  6
CONTINUOUS
 62
     7
 10
381.74690357252172
 20
128.49689398465861
 30
0.0
 40
0.5031060153413544
 50
0.35372803193797
 51
179.646271968062
  0
LINE
  5
4EF
  8
DATA
  6
CONTINUOUS
 62
     7
 10
373.94999999999999
 20
115.0
 30
0.0
 11
373.94999999999999
 21
116.0
 31
0.0
  0
LINE
  5
4F0
  8
DATA
  6
CONTINUOUS
 62
     7
 10
382.05000000000013
 20
115.0
 30
0.0
 11
382.05000000000013
 21
116.0
 31
0.0
  0
LINE
  5
4F1
  8
DATA
  6
CONTINUOUS
 62
     7
 10
377.75
 20
115.0
 30
0.0
 11
377.75
 21
130.0
 31
0.0
  0
LINE
  5
4F2
  8
DATA
  6
CONTINUOUS
 62
     7
 10
378.25
 20
115.0
 30
0.0
 11
378.25
 21
130.0
 31
0.0
  0
LINE
  5
4F3
  8
DATA
  6
CONTINUOUS
 62
     7
 10
405.94999999999982
 20
116.0
 30
0.0
 11
405.75
 21
128.5
 31
0.0
  0
LINE
  5
4F4
  8
DATA
  6
CONTINUOUS
 62
     7
 10
414.05000000000013
 20
116.0
 30
0.0
 11
414.25
 21
128.5
 31
0.0
  0
LINE
  5
4F5
  8
DATA
  6
CONTINUOUS
 62
     7
 10
405.94999999999982
 20
115.0
 30
0.0
 11
414.05000000000013
 21
115.0
 31
0.0
  0
LINE
  5
4F6
  8
DATA
  6
CONTINUOUS
 62
     7
 10
405.94999999999982
 20
116.0
 30
0.0
 11
414.05000000000013
 21
116.0
 31
0.0
  0
LINE
  5
4F7
  8
DATA
  6
CONTINUOUS
 62
     7
 10
409.34736903889961
 20
116.0
 30
0.0
 11
409.24736903889971
 21
128.5
 31
0.0
  0
LINE
  5
4F8
  8
DATA
  6
CONTINUOUS
 62
     7
 10
410.65263096110021
 20
116.0
 30
0.0
 11
410.75263096110018
 21
128.5
 31
0.0
  0
LINE
  5
4F9
  8
DATA
  6
CONTINUOUS
 62
     7
 10
405.94999999999982
 20
116.0
 30
0.0
 11
405.04277569313081
 21
130.0
 31
0.0
  0
LINE
  5
4FA
  8
DATA
  6
CONTINUOUS
 62
     7
 10
414.05000000000013
 20
116.0
 30
0.0
 11
414.95722430686902
 21
130.0
 31
0.0
  0
LINE
  5
4FB
  8
DATA
  6
CONTINUOUS
 62
     7
 10
408.08658283817448
 20
116.0
 30
0.0
 11
407.98658283817463
 21
128.5
 31
0.0
  0
LINE
  5
4FC
  8
DATA
  6
CONTINUOUS
 62
     7
 10
411.91341716182541
 20
116.0
 30
0.0
 11
412.01341716182537
 21
128.5
 31
0.0
  0
ARC
  5
4FD
  8
DATA
  6
CONTINUOUS
 62
     7
 10
408.61697593853722
 20
128.3526045390152
 30
0.0
 40
0.6473954609847326
 50
13.16020049880515
 51
166.8397995011949
  0
ARC
  5
4FE
  8
DATA
  6
CONTINUOUS
 62
     7
 10
411.38302406146272
 20
128.3526045390152
 30
0.0
 40
0.6473954609847326
 50
13.16020049880515
 51
166.8397995011949
  0
LINE
  5
4FF
  8
DATA
  6
CONTINUOUS
 62
     7
 10
406.95619285495633
 20
116.0
 30
0.0
 11
406.75619285495628
 21
128.5
 31
0.0
  0
ARC
  5
500
  8
DATA
  6
CONTINUOUS
 62
     7
 10
406.25309642747811
 20
128.49689398465861
 30
0.0
 40
0.5031060153413686
 50
0.3537280319379601
 51
179.646271968062
  0
LINE
  5
501
  8
DATA
  6
CONTINUOUS
 62
     7
 10
413.04380714504362
 20
116.0
 30
0.0
 11
413.2438071450436
 21
128.5
 31
0.0
  0
ARC
  5
502
  8
DATA
  6
CONTINUOUS
 62
     7
 10
413.7469035725216
 20
128.49689398465861
 30
0.0
 40
0.5031060153413544
 50
0.35372803193797
 51
179.646271968062
  0
LINE
  5
503
  8
DATA
  6
CONTINUOUS
 62
     7
 10
405.94999999999982
 20
115.0
 30
0.0
 11
405.94999999999982
 21
116.0
 31
0.0
  0
LINE
  5
504
  8
DATA
  6
CONTINUOUS
 62
     7
 10
414.05000000000013
 20
115.0
 30
0.0
 11
414.05000000000013
 21
116.0
 31
0.0
  0
LINE
  5
505
  8
DATA
  6
CONTINUOUS
 62
     7
 10
409.75
 20
115.0
 30
0.0
 11
409.75
 21
130.0
 31
0.0
  0
LINE
  5
506
  8
DATA
  6
CONTINUOUS
 62
     7
 10
410.25
 20
115.0
 30
0.0
 11
410.25
 21
130.0
 31
0.0
  0
LINE
  5
507
  8
DATA
  6
CONTINUOUS
 62
     7
 10
437.94999999999987
 20
116.0
 30
0.0
 11
437.75
 21
128.5
 31
0.0
  0
LINE
  5
508
  8
DATA
  6
CONTINUOUS
 62
     7
 10
446.05000000000001
 20
116.0
 30
0.0
 11
446.25
 21
128.5
 31
0.0
  0
LINE
  5
509
  8
DATA
  6
CONTINUOUS
 62
     7
 10
437.94999999999987
 20
115.0
 30
0.0
 11
446.05000000000001
 21
115.0
 31
0.0
  0
LINE
  5
50A
  8
DATA
  6
CONTINUOUS
 62
     7
 10
437.94999999999987
 20
116.0
 30
0.0
 11
446.05000000000001
 21
116.0
 31
0.0
  0
LINE
  5
50B
  8
DATA
  6
CONTINUOUS
 62
     7
 10
441.34736903889961
 20
116.0
 30
0.0
 11
441.24736903889971
 21
128.5
 31
0.0
  0
LINE
  5
50C
  8
DATA
  6
CONTINUOUS
 62
     7
 10
442.65263096110021
 20
116.0
 30
0.0
 11
442.75263096110018
 21
128.5
 31
0.0
  0
LINE
  5
50D
  8
DATA
  6
CONTINUOUS
 62
     7
 10
437.94999999999987
 20
116.0
 30
0.0
 11
437.04277569313092
 21
130.0
 31
0.0
  0
LINE
  5
50E
  8
DATA
  6
CONTINUOUS
 62
     7
 10
446.05000000000001
 20
116.0
 30
0.0
 11
446.95722430686891
 21
130.0
 31
0.0
  0
LINE
  5
50F
  8
DATA
  6
CONTINUOUS
 62
     7
 10
440.08658283817448
 20
116.0
 30
0.0
 11
439.98658283817451
 21
128.5
 31
0.0
  0
LINE
  5
510
  8
DATA
  6
CONTINUOUS
 62
     7
 10
443.91341716182541
 20
116.0
 30
0.0
 11
444.01341716182537
 21
128.5
 31
0.0
  0
ARC
  5
511
  8
DATA
  6
CONTINUOUS
 62
     7
 10
440.61697593853722
 20
128.3526045390152
 30
0.0
 40
0.6473954609847326
 50
13.16020049880515
 51
166.8397995011949
  0
ARC
  5
512
  8
DATA
  6
CONTINUOUS
 62
     7
 10
443.38302406146278
 20
128.3526045390152
 30
0.0
 40
0.6473954609847326
 50
13.16020049880515
 51
166.8397995011949
  0
LINE
  5
513
  8
DATA
  6
CONTINUOUS
 62
     7
 10
438.95619285495633
 20
116.0
 30
0.0
 11
438.75619285495628
 21
128.5
 31
0.0
  0
ARC
  5
514
  8
DATA
  6
CONTINUOUS
 62
     7
 10
438.25309642747811
 20
128.49689398465861
 30
0.0
 40
0.5031060153413686
 50
0.3537280319379601
 51
179.646271968062
  0
LINE
  5
515
  8
DATA
  6
CONTINUOUS
 62
     7
 10
445.0438071450435
 20
116.0
 30
0.0
 11
445.2438071450436
 21
128.5
 31
0.0
  0
ARC
  5
516
  8
DATA
  6
CONTINUOUS
 62
     7
 10
445.74690357252172
 20
128.49689398465861
 30
0.0
 40
0.5031060153413544
 50
0.35372803193797
 51
179.646271968062
  0
LINE
  5
517
  8
DATA
  6
CONTINUOUS
 62
     7
 10
437.94999999999987
 20
115.0
 30
0.0
 11
437.94999999999987
 21
116.0
 31
0.0
  0
LINE
  5
518
  8
DATA
  6
CONTINUOUS
 62
     7
 10
446.05000000000001
 20
115.0
 30
0.0
 11
446.05000000000001
 21
116.0
 31
0.0
  0
LINE
  5
519
  8
DATA
  6
CONTINUOUS
 62
     7
 10
441.75
 20
115.0
 30
0.0
 11
441.75
 21
130.0
 31
0.0
  0
LINE
  5
51A
  8
DATA
  6
CONTINUOUS
 62
     7
 10
442.25
 20
115.0
 30
0.0
 11
442.25
 21
130.0
 31
0.0
  0
LINE
  5
51B
  8
DATA
  6
CONTINUOUS
 62
     7
 10
266.5
 20
130.0
 30
0.0
 11
266.5
 21
128.0
 31
0.0
  0
LINE
  5
51C
  8
DATA
  6
CONTINUOUS
 62
     7
 10
273.5
 20
130.0
 30
0.0
 11
273.5
 21
128.0
 31
0.0
  0
ARC
  5
51D
  8
DATA
  6
CONTINUOUS
 62
     7
 10
270.0
 20
133.625
 30
0.0
 40
6.6250000000000151
 50
238.10920819815411
 51
301.89079180184581
  0
LINE
  5
51E
  8
DATA
  6
CONTINUOUS
 62
     7
 10
298.5
 20
130.0
 30
0.0
 11
298.5
 21
128.0
 31
0.0
  0
LINE
  5
51F
  8
DATA
  6
CONTINUOUS
 62
     7
 10
305.5
 20
130.0
 30
0.0
 11
305.5
 21
128.0
 31
0.0
  0
ARC
  5
520
  8
DATA
  6
CONTINUOUS
 62
     7
 10
302.0
 20
133.625
 30
0.0
 40
6.6250000000000151
 50
238.10920819815411
 51
301.89079180184581
  0
LINE
  5
521
  8
DATA
  6
CONTINUOUS
 62
     7
 10
330.5
 20
130.0
 30
0.0
 11
330.5
 21
128.0
 31
0.0
  0
LINE
  5
522
  8
DATA
  6
CONTINUOUS
 62
     7
 10
337.5
 20
130.0
 30
0.0
 11
337.5
 21
128.0
 31
0.0
  0
ARC
  5
523
  8
DATA
  6
CONTINUOUS
 62
     7
 10
334.0
 20
133.625
 30
0.0
 40
6.6250000000000151
 50
238.10920819815411
 51
301.89079180184581
  0
LINE
  5
524
  8
DATA
  6
CONTINUOUS
 62
     7
 10
362.5
 20
130.0
 30
0.0
 11
362.5
 21
128.0
 31
0.0
  0
LINE
  5
525
  8
DATA
  6
CONTINUOUS
 62
     7
 10
369.5
 20
130.0
 30
0.0
 11
369.5
 21
128.0
 31
0.0
  0
ARC
  5
526
  8
DATA
  6
CONTINUOUS
 62
     7
 10
366.0
 20
133.625
 30
0.0
 40
6.6250000000000151
 50
238.10920819815411
 51
301.89079180184581
  0
LINE
  5
527
  8
DATA
  6
CONTINUOUS
 62
     7
 10
394.5
 20
130.0
 30
0.0
 11
394.5
 21
128.0
 31
0.0
  0
LINE
  5
528
  8
DATA
  6
CONTINUOUS
 62
     7
 10
401.49999999999989
 20
130.0
 30
0.0
 11
401.49999999999989
 21
128.0
 31
0.0
  0
ARC
  5
529
  8
DATA
  6
CONTINUOUS
 62
     7
 10
398.0
 20
133.625
 30
0.0
 40
6.6250000000000151
 50
238.10920819815411
 51
301.89079180184581
  0
LINE
  5
52A
  8
DATA
  6
CONTINUOUS
 62
     7
 10
426.49999999999989
 20
130.0
 30
0.0
 11
426.49999999999989
 21
128.0
 31
0.0
  0
LINE
  5
52B
  8
DATA
  6
CONTINUOUS
 62
     7
 10
433.49999999999989
 20
130.0
 30
0.0
 11
433.49999999999989
 21
128.0
 31
0.0
  0
ARC
  5
52C
  8
DATA
  6
CONTINUOUS
 62
     7
 10
430.0
 20
133.625
 30
0.0
 40
6.6250000000000151
 50
238.10920819815411
 51
301.89079180184581
  0
LINE
  5
52D
  8
DATA
  6
CONTINUOUS
 62
     7
 10
482.60000000000002
 20
130.0
 30
0.0
 11
482.60000000000002
 21
132.89999999999989
 31
0.0
  0
LINE
  5
52E
  8
DATA
  6
CONTINUOUS
 62
     7
 10
0.0
 20
130.0
 30
0.0
 11
0.0
 21
132.89999999999989
 31
0.0
  0
ARC
  5
52F
  8
DATA
  6
CONTINUOUS
 62
     7
 10
26.857500000000019
 20
147.40000000000001
 30
0.0
 40
4.057499999999985
 50
129.07330987625701
 51
230.9266901237429
  0
ARC
  5
530
  8
DATA
  6
CONTINUOUS
 62
     7
 10
455.74250000000001
 20
147.40000000000001
 30
0.0
 40
4.0575000000000276
 50
309.07330987625647
 51
50.92669012374337
  0
LINE
  5
531
  8
DATA
  6
CONTINUOUS
 62
     7
 10
555.70000000000005
 20
44.0
 30
0.0
 11
555.70000000000005
 21
0.0
 31
0.0
  0
LINE
  5
532
  8
DATA
  6
CONTINUOUS
 62
     7
 10
556.89999999999986
 20
44.0
 30
0.0
 11
556.89999999999986
 21
0.0
 31
0.0
  0
LINE
  5
533
  8
DATA
  6
CONTINUOUS
 62
     7
 10
561.8509898126639
 20
32.0
 30
0.0
 11
749.70098981266392
 21
32.00000275041981
 31
0.0
  0
LINE
  5
534
  8
DATA
  6
CONTINUOUS
 62
     7
 10
754.4000000000002
 20
43.0
 30
0.0
 11
559.40000000000009
 21
43.0
 31
0.0
  0
LINE
  5
535
  8
DATA
  6
CONTINUOUS
 62
     7
 10
554.0
 20
44.0
 30
0.0
 11
554.0
 21
0.0
 31
0.0
  0
LINE
  5
536
  8
DATA
  6
CONTINUOUS
 62
     7
 10
559.40048044585819
 20
34.45098981266387
 30
0.0
 11
559.40006363343025
 21
43.000159112941667
 31
0.0
  0
ARC
  5
537
  8
DATA
  6
CONTINUOUS
 62
     7
 10
561.89999999999986
 20
34.5
 30
0.0
 40
2.5000000000000009
 50
181.12330271407589
 51
268.87669728592471
  0
LINE
  5
538
  8
DATA
  6
CONTINUOUS
 62
     7
 10
554.0
 20
44.0
 30
0.0
 11
556.89999999999986
 21
44.0
 31
0.0
  0
LINE
  5
539
  8
DATA
  6
CONTINUOUS
 62
     7
 10
556.89999999999986
 20
41.0
 30
0.0
 11
559.40019093067019
 21
41.0
 31
0.0
  0
LINE
  5
53A
  8
DATA
  6
CONTINUOUS
 62
     7
 10
554.0
 20
0.0
 30
0.0
 11
556.89999999999986
 21
0.0
 31
0.0
  0
LINE
  5
53B
  8
DATA
  6
CONTINUOUS
 62
     7
 10
556.89999999999986
 20
0.5
 30
0.0
 11
753.4000000000002
 21
0.5
 31
0.0
  0
LINE
  5
53C
  8
DATA
  6
CONTINUOUS
 62
     7
 10
753.4000000000002
 20
0.5
 30
0.0
 11
753.4000000000002
 21
34.350000000000023
 31
0.0
  0
LINE
  5
53D
  8
DATA
  6
CONTINUOUS
 62
     7
 10
754.4000000000002
 20
43.0
 30
0.0
 11
754.4000000000002
 21
37.5
 31
0.0
  0
LINE
  5
53E
  8
DATA
  6
CONTINUOUS
 62
     7
 10
753.4000000000002
 20
43.0
 30
0.0
 11
753.4000000000002
 21
36.5
 31
0.0
  0
ARC
  5
53F
  8
DATA
  6
CONTINUOUS
 62
     7
 10
749.04406254713876
 20
36.310295707920723
 30
0.0
 40
4.3600663769800949
 50
278.66570371053609
 51
2.493697724882622
  0
CIRCLE
  5
540
  8
DATA
  6
CONTINUOUS
 62
     7
 10
571.39999999999986
 20
36.0
 30
0.0
 40
3.1499999999999999
  0
POLYLINE
  5
541
  8
DATA
  6
CONTINUOUS
 62
     7
 66
     1
 10
0.0
 20
0.0
 30
0.0
  0
VERTEX
  5
AF3
  8
DATA
  6
CONTINUOUS
 62
     7
 10
570.89999999999986
 20
35.5
 30
0.0
  0
VERTEX
  5
AF4
  8
DATA
  6
CONTINUOUS
 62
     7
 10
570.89999999999986
 20
34.0
 30
0.0
  0
VERTEX
  5
AF5
  8
DATA
  6
CONTINUOUS
 62
     7
 10
571.89999999999998
 20
34.0
 30
0.0
  0
VERTEX
  5
AF6
  8
DATA
  6
CONTINUOUS
 62
     7
 10
571.89999999999998
 20
35.5
 30
0.0
  0
SEQEND
  5
AF7
  8
DATA
  6
CONTINUOUS
 62
     7
  0
POLYLINE
  5
547
  8
DATA
  6
CONTINUOUS
 62
     7
 66
     1
 10
0.0
 20
0.0
 30
0.0
  0
VERTEX
  5
AF8
  8
DATA
  6
CONTINUOUS
 62
     7
 10
570.89999999999986
 20
36.5
 30
0.0
  0
VERTEX
  5
AF9
  8
DATA
  6
CONTINUOUS
 62
     7
 10
570.89999999999986
 20
38.0
 30
0.0
  0
VERTEX
  5
AFA
  8
DATA
  6
CONTINUOUS
 62
     7
 10
571.89999999999998
 20
38.0
 30
0.0
  0
VERTEX
  5
AFB
  8
DATA
  6
CONTINUOUS
 62
     7
 10
571.89999999999998
 20
36.5
 30
0.0
  0
SEQEND
  5
AFC
  8
DATA
  6
CONTINUOUS
 62
     7
  0
POLYLINE
  5
54D
  8
DATA
  6
CONTINUOUS
 62
     7
 66
     1
 10
0.0
 20
0.0
 30
0.0
  0
VERTEX
  5
AFD
  8
DATA
  6
CONTINUOUS
 62
     7
 10
571.89999999999998
 20
35.5
 30
0.0
  0
VERTEX
  5
AFE
  8
DATA
  6
CONTINUOUS
 62
     7
 10
573.39999999999986
 20
35.5
 30
0.0
  0
VERTEX
  5
AFF
  8
DATA
  6
CONTINUOUS
 62
     7
 10
573.39999999999986
 20
36.5
 30
0.0
  0
VERTEX
  5
B00
  8
DATA
  6
CONTINUOUS
 62
     7
 10
571.89999999999998
 20
36.5
 30
0.0
  0
SEQEND
  5
B01
  8
DATA
  6
CONTINUOUS
 62
     7
  0
POLYLINE
  5
553
  8
DATA
  6
CONTINUOUS
 62
     7
 66
     1
 10
0.0
 20
0.0
 30
0.0
  0
VERTEX
  5
B02
  8
DATA
  6
CONTINUOUS
 62
     7
 10
570.89999999999986
 20
35.5
 30
0.0
  0
VERTEX
  5
B03
  8
DATA
  6
CONTINUOUS
 62
     7
 10
569.39999999999986
 20
35.5
 30
0.0
  0
VERTEX
  5
B04
  8
DATA
  6
CONTINUOUS
 62
     7
 10
569.39999999999986
 20
36.5
 30
0.0
  0
VERTEX
  5
B05
  8
DATA
  6
CONTINUOUS
 62
     7
 10
570.89999999999986
 20
36.5
 30
0.0
  0
SEQEND
  5
B06
  8
DATA
  6
CONTINUOUS
 62
     7
  0
CIRCLE
  5
559
  8
DATA
  6
CONTINUOUS
 62
     7
 10
571.39999999999986
 20
11.0
 30
0.0
 40
3.1499999999999999
  0
POLYLINE
  5
55A
  8
DATA
  6
CONTINUOUS
 62
     7
 66
     1
 10
0.0
 20
0.0
 30
0.0
  0
VERTEX
  5
B07
  8
DATA
  6
CONTINUOUS
 62
     7
 10
570.89999999999986
 20
10.5
 30
0.0
  0
VERTEX
  5
B08
  8
DATA
  6
CONTINUOUS
 62
     7
 10
570.89999999999986
 20
9.0
 30
0.0
  0
VERTEX
  5
B09
  8
DATA
  6
CONTINUOUS
 62
     7
 10
571.89999999999998
 20
9.0
 30
0.0
  0
VERTEX
  5
B0A
  8
DATA
  6
CONTINUOUS
 62
     7
 10
571.89999999999998
 20
10.5
 30
0.0
  0
SEQEND
  5
B0B
  8
DATA
  6
CONTINUOUS
 62
     7
  0
POLYLINE
  5
560
  8
DATA
  6
CONTINUOUS
 62
     7
 66
     1
 10
0.0
 20
0.0
 30
0.0
  0
VERTEX
  5
B0C
  8
DATA
  6
CONTINUOUS
 62
     7
 10
570.89999999999986
 20
11.5
 30
0.0
  0
VERTEX
  5
B0D
  8
DATA
  6
CONTINUOUS
 62
     7
 10
570.89999999999986
 20
13.0
 30
0.0
  0
VERTEX
  5
B0E
  8
DATA
  6
CONTINUOUS
 62
     7
 10
571.89999999999998
 20
13.0
 30
0.0
  0
VERTEX
  5
B0F
  8
DATA
  6
CONTINUOUS
 62
     7
 10
571.89999999999998
 20
11.5
 30
0.0
  0
SEQEND
  5
B10
  8
DATA
  6
CONTINUOUS
 62
     7
  0
POLYLINE
  5
566
  8
DATA
  6
CONTINUOUS
 62
     7
 66
     1
 10
0.0
 20
0.0
 30
0.0
  0
VERTEX
  5
B11
  8
DATA
  6
CONTINUOUS
 62
     7
 10
571.89999999999998
 20
10.5
 30
0.0
  0
VERTEX
  5
B12
  8
DATA
  6
CONTINUOUS
 62
     7
 10
573.39999999999986
 20
10.5
 30
0.0
  0
VERTEX
  5
B13
  8
DATA
  6
CONTINUOUS
 62
     7
 10
573.39999999999986
 20
11.5
 30
0.0
  0
VERTEX
  5
B14
  8
DATA
  6
CONTINUOUS
 62
     7
 10
571.89999999999998
 20
11.5
 30
0.0
  0
SEQEND
  5
B15
  8
DATA
  6
CONTINUOUS
 62
     7
  0
POLYLINE
  5
56C
  8
DATA
  6
CONTINUOUS
 62
     7
 66
     1
 10
0.0
 20
0.0
 30
0.0
  0
VERTEX
  5
B16
  8
DATA
  6
CONTINUOUS
 62
     7
 10
570.89999999999986
 20
10.5
 30
0.0
  0
VERTEX
  5
B17
  8
DATA
  6
CONTINUOUS
 62
     7
 10
569.39999999999986
 20
10.5
 30
0.0
  0
VERTEX
  5
B18
  8
DATA
  6
CONTINUOUS
 62
     7
 10
569.39999999999986
 20
11.5
 30
0.0
  0
VERTEX
  5
B19
  8
DATA
  6
CONTINUOUS
 62
     7
 10
570.89999999999986
 20
11.5
 30
0.0
  0
SEQEND
  5
B1A
  8
DATA
  6
CONTINUOUS
 62
     7
  0
LINE
  5
572
  8
DATA
  6
CONTINUOUS
 62
     7
 10
754.4000000000002
 20
40.64999999999997
 30
0.0
 11
754.4000000000002
 21
34.349999999999973
 31
0.0
  0
ARC
  5
573
  8
DATA
  6
CONTINUOUS
 62
     7
 10
751.84249999999975
 20
37.5
 30
0.0
 40
4.057499999999985
 50
309.07330987625693
 51
50.926690123742972
  0
LINE
  5
574
  8
DATA
  6
CONTINUOUS
 62
     7
 10
753.4000000000002
 20
25.0
 30
0.0
 11
753.4000000000002
 21
19.0
 31
0.0
  0
LINE
  5
575
  8
DATA
  6
CONTINUOUS
 62
     7
 10
753.9000000000002
 20
25.0
 30
0.0
 11
753.9000000000002
 21
19.0
 31
0.0
  0
LINE
  5
576
  8
DATA
  6
CONTINUOUS
 62
     7
 10
753.4000000000002
 20
25.0
 30
0.0
 11
753.9000000000002
 21
25.0
 31
0.0
  0
LINE
  5
577
  8
DATA
  6
CONTINUOUS
 62
     7
 10
753.4000000000002
 20
19.0
 30
0.0
 11
753.9000000000002
 21
19.0
 31
0.0
  0
ARC
  5
578
  8
DATA
  6
CONTINUOUS
 62
     7
 10
753.9000000000002
 20
23.5
 30
0.0
 40
1.5
 50
0.0
 51
90.0
  0
LINE
  5
579
  8
DATA
  6
CONTINUOUS
 62
     7
 10
755.4000000000002
 20
23.5
 30
0.0
 11
755.4000000000002
 21
20.5
 31
0.0
  0
ARC
  5
57A
  8
DATA
  6
CONTINUOUS
 62
     7
 10
753.9000000000002
 20
20.5
 30
0.0
 40
1.5
 50
270.0
 51
0.0
  0
POLYLINE
  5
57B
  8
DATA
  6
CONTINUOUS
 62
     7
 66
     1
 10
0.0
 20
0.0
 30
0.0
 70
     1
  0
VERTEX
  5
B1B
  8
DATA
  6
CONTINUOUS
 62
     7
 10
753.4000000000002
 20
18.5
 30
0.0
  0
VERTEX
  5
B1C
  8
DATA
  6
CONTINUOUS
 62
     7
 10
755.20000000000005
 20
18.5
 30
0.0
  0
VERTEX
  5
B1D
  8
DATA
  6
CONTINUOUS
 62
     7
 10
755.20000000000005
 20
7.5
 30
0.0
  0
VERTEX
  5
B1E
  8
DATA
  6
CONTINUOUS
 62
     7
 10
753.4000000000002
 20
7.5
 30
0.0
  0
SEQEND
  5
B1F
  8
DATA
  6
CONTINUOUS
 62
     7
  0
POLYLINE
  5
581
  8
DATA
  6
CONTINUOUS
 62
     7
 66
     1
 10
0.0
 20
0.0
 30
0.0
  0
VERTEX
  5
B20
  8
DATA
  6
CONTINUOUS
 62
     7
 10
755.20000000000005
 20
10.5
 30
0.0
  0
VERTEX
  5
B21
  8
DATA
  6
CONTINUOUS
 62
     7
 10
757.9000000000002
 20
10.5
 30
0.0
  0
VERTEX
  5
B22
  8
DATA
  6
CONTINUOUS
 62
     7
 10
757.9000000000002
 20
15.5
 30
0.0
  0
VERTEX
  5
B23
  8
DATA
  6
CONTINUOUS
 62
     7
 10
755.20000000000005
 20
15.5
 30
0.0
  0
SEQEND
  5
B24
  8
DATA
  6
CONTINUOUS
 62
     7
  0
POLYLINE
  5
587
  8
DATA
  6
CONTINUOUS
 62
     7
 66
     1
 10
0.0
 20
0.0
 30
0.0
  0
VERTEX
  5
B25
  8
DATA
  6
CONTINUOUS
 62
     7
 10
755.20000000000005
 20
18.0
 30
0.0
  0
VERTEX
  5
B26
  8
DATA
  6
CONTINUOUS
 62
     7
 10
758.4000000000002
 20
18.0
 30
0.0
  0
VERTEX
  5
B27
  8
DATA
  6
CONTINUOUS
 62
     7
 10
758.4000000000002
 20
8.0
 30
0.0
  0
VERTEX
  5
B28
  8
DATA
  6
CONTINUOUS
 62
     7
 10
755.20000000000005
 20
8.0
 30
0.0
  0
SEQEND
  5
B29
  8
DATA
  6
CONTINUOUS
 62
     7
  0
LINE
  5
58D
  8
DATA
  6
CONTINUOUS
 62
     7
 10
755.10000000000002
 20
19.60000000000127
 30
0.0
 11
755.10000000000002
 21
18.5
 31
0.0
  0
POLYLINE
  5
58E
  8
DATA
  6
CONTINUOUS
 62
     7
 66
     1
 10
0.0
 20
0.0
 30
0.0
  0
VERTEX
  5
B2A
  8
DATA
  6
CONTINUOUS
 62
     7
 10
753.9000000000002
 20
30.0
 30
0.0
  0
VERTEX
  5
B2B
  8
DATA
  6
CONTINUOUS
 62
     7
 10
753.4000000000002
 20
30.0
 30
0.0
  0
VERTEX
  5
B2C
  8
DATA
  6
CONTINUOUS
 62
     7
 10
753.4000000000002
 20
18.5
 30
0.0
  0
SEQEND
  5
B2D
  8
DATA
  6
CONTINUOUS
 62
     7
  0
LINE
  5
593
  8
DATA
  6
CONTINUOUS
 62
     7
 10
755.10000000000002
 20
28.10000000000128
 30
0.0
 11
755.10000000000002
 21
24.39999999999873
 31
0.0
  0
POLYLINE
  5
594
  8
DATA
  6
CONTINUOUS
 62
     7
 66
     1
 10
0.0
 20
0.0
 30
0.0
 70
     1
  0
VERTEX
  5
B2E
  8
DATA
  6
CONTINUOUS
 62
     7
 10
753.4000000000002
 20
32.5
 30
0.0
  0
VERTEX
  5
B2F
  8
DATA
  6
CONTINUOUS
 62
     7
 10
753.9000000000002
 20
32.5
 30
0.0
  0
VERTEX
  5
B30
  8
DATA
  6
CONTINUOUS
 62
     7
 10
753.9000000000002
 20
27.5
 30
0.0
  0
VERTEX
  5
B31
  8
DATA
  6
CONTINUOUS
 62
     7
 10
753.4000000000002
 20
27.5
 30
0.0
  0
SEQEND
  5
B32
  8
DATA
  6
CONTINUOUS
 62
     7
  0
LINE
  5
59A
  8
DATA
  6
CONTINUOUS
 62
     7
 10
755.4000000000002
 20
29.0
 30
0.0
 11
755.4000000000002
 21
31.0
 31
0.0
  0
ARC
  5
59B
  8
DATA
  6
CONTINUOUS
 62
     7
 10
753.9000000000002
 20
31.0
 30
0.0
 40
1.5
 50
0.0
 51
90.0
  0
ARC
  5
59C
  8
DATA
  6
CONTINUOUS
 62
     7
 10
753.9000000000002
 20
29.0
 30
0.0
 40
1.5
 50
270.0
 51
0.0
  0
LINE
  5
59D
  8
DATA
  6
CONTINUOUS
 62
     7
 10
758.4000000000002
 20
31.0
 30
0.0
 11
755.4000000000002
 21
31.0
 31
0.0
  0
LINE
  5
59E
  8
DATA
  6
CONTINUOUS
 62
     7
 10
757.9000000000002
 20
31.5
 30
0.0
 11
755.3142135623732
 21
31.5
 31
0.0
  0
LINE
  5
59F
  8
DATA
  6
CONTINUOUS
 62
     7
 10
757.9000000000002
 20
36.0
 30
0.0
 11
757.9000000000002
 21
31.5
 31
0.0
  0
LINE
  5
5A0
  8
DATA
  6
CONTINUOUS
 62
     7
 10
757.9000000000002
 20
36.0
 30
0.0
 11
758.4000000000002
 21
36.0
 31
0.0
  0
LINE
  5
5A1
  8
DATA
  6
CONTINUOUS
 62
     7
 10
758.4000000000002
 20
36.0
 30
0.0
 11
758.4000000000002
 21
31.0
 31
0.0
  0
LINE
  5
5A2
  8
DATA
  6
CONTINUOUS
 62
     7
 10
24.300000000000011
 20
431.0
 30
0.0
 11
24.300000000000011
 21
442.0
 31
0.0
  0
LINE
  5
5A3
  8
DATA
  6
CONTINUOUS
 62
     7
 10
458.30000000000001
 20
431.0
 30
0.0
 11
458.30000000000001
 21
442.0
 31
0.0
  0
LINE
  5
5A4
  8
DATA
  6
CONTINUOUS
 62
     7
 10
25.300000000000011
 20
436.5
 30
0.0
 11
25.300000000000011
 21
473.5
 31
0.0
  0
LINE
  5
5A5
  8
DATA
  6
CONTINUOUS
 62
     7
 10
25.300000000000011
 20
436.5
 30
0.0
 11
457.30000000000001
 21
436.5
 31
0.0
  0
LINE
  5
5A6
  8
DATA
  6
CONTINUOUS
 62
     7
 10
457.30000000000001
 20
436.5
 30
0.0
 11
457.30000000000001
 21
473.5
 31
0.0
  0
LINE
  5
5A7
  8
DATA
  6
CONTINUOUS
 62
     7
 10
754.4000000000002
 20
34.350000000000023
 30
0.0
 11
752.93859968897993
 21
34.350000000000023
 31
0.0
  0
CIRCLE
  5
5A8
  8
DATA
  6
CONTINUOUS
 62
     7
 10
123.3
 20
436.5
 30
0.0
 40
3.149999999999991
  0
POLYLINE
  5
5A9
  8
DATA
  6
CONTINUOUS
 62
     7
 66
     1
 10
0.0
 20
0.0
 30
0.0
  0
VERTEX
  5
B33
  8
DATA
  6
CONTINUOUS
 62
     7
 10
123.8
 20
437.0
 30
0.0
  0
VERTEX
  5
B34
  8
DATA
  6
CONTINUOUS
 62
     7
 10
123.8
 20
438.49999999999989
 30
0.0
  0
VERTEX
  5
B35
  8
DATA
  6
CONTINUOUS
 62
     7
 10
122.8
 20
438.49999999999989
 30
0.0
  0
VERTEX
  5
B36
  8
DATA
  6
CONTINUOUS
 62
     7
 10
122.8
 20
437.0
 30
0.0
  0
SEQEND
  5
B37
  8
DATA
  6
CONTINUOUS
 62
     7
  0
POLYLINE
  5
5AF
  8
DATA
  6
CONTINUOUS
 62
     7
 66
     1
 10
0.0
 20
0.0
 30
0.0
  0
VERTEX
  5
B38
  8
DATA
  6
CONTINUOUS
 62
     7
 10
123.8
 20
436.0
 30
0.0
  0
VERTEX
  5
B39
  8
DATA
  6
CONTINUOUS
 62
     7
 10
123.8
 20
434.49999999999989
 30
0.0
  0
VERTEX
  5
B3A
  8
DATA
  6
CONTINUOUS
 62
     7
 10
122.8
 20
434.49999999999989
 30
0.0
  0
VERTEX
  5
B3B
  8
DATA
  6
CONTINUOUS
 62
     7
 10
122.8
 20
436.0
 30
0.0
  0
SEQEND
  5
B3C
  8
DATA
  6
CONTINUOUS
 62
     7
  0
CIRCLE
  5
5B5
  8
DATA
  6
CONTINUOUS
 62
     7
 10
123.3
 20
436.5
 30
0.0
 40
3.149999999999991
  0
POLYLINE
  5
5B6
  8
DATA
  6
CONTINUOUS
 62
     7
 66
     1
 10
0.0
 20
0.0
 30
0.0
  0
VERTEX
  5
B3D
  8
DATA
  6
CONTINUOUS
 62
     7
 10
123.8
 20
436.0
 30
0.0
  0
VERTEX
  5
B3E
  8
DATA
  6
CONTINUOUS
 62
     7
 10
125.3
 20
436.0
 30
0.0
  0
VERTEX
  5
B3F
  8
DATA
  6
CONTINUOUS
 62
     7
 10
125.3
 20
437.0
 30
0.0
  0
VERTEX
  5
B40
  8
DATA
  6
CONTINUOUS
 62
     7
 10
123.8
 20
437.0
 30
0.0
  0
SEQEND
  5
B41
  8
DATA
  6
CONTINUOUS
 62
     7
  0
POLYLINE
  5
5BC
  8
DATA
  6
CONTINUOUS
 62
     7
 66
     1
 10
0.0
 20
0.0
 30
0.0
  0
VERTEX
  5
B42
  8
DATA
  6
CONTINUOUS
 62
     7
 10
122.8
 20
436.0
 30
0.0
  0
VERTEX
  5
B43
  8
DATA
  6
CONTINUOUS
 62
     7
 10
121.3
 20
436.0
 30
0.0
  0
VERTEX
  5
B44
  8
DATA
  6
CONTINUOUS
 62
     7
 10
121.3
 20
437.0
 30
0.0
  0
VERTEX
  5
B45
  8
DATA
  6
CONTINUOUS
 62
     7
 10
122.8
 20
437.0
 30
0.0
  0
SEQEND
  5
B46
  8
DATA
  6
CONTINUOUS
 62
     7
  0
CIRCLE
  5
5C2
  8
DATA
  6
CONTINUOUS
 62
     7
 10
359.30000000000001
 20
436.5
 30
0.0
 40
3.149999999999991
  0
POLYLINE
  5
5C3
  8
DATA
  6
CONTINUOUS
 62
     7
 66
     1
 10
0.0
 20
0.0
 30
0.0
  0
VERTEX
  5
B47
  8
DATA
  6
CONTINUOUS
 62
     7
 10
359.80000000000001
 20
437.0
 30
0.0
  0
VERTEX
  5
B48
  8
DATA
  6
CONTINUOUS
 62
     7
 10
359.80000000000001
 20
438.49999999999989
 30
0.0
  0
VERTEX
  5
B49
  8
DATA
  6
CONTINUOUS
 62
     7
 10
358.80000000000001
 20
438.49999999999989
 30
0.0
  0
VERTEX
  5
B4A
  8
DATA
  6
CONTINUOUS
 62
     7
 10
358.80000000000001
 20
437.0
 30
0.0
  0
SEQEND
  5
B4B
  8
DATA
  6
CONTINUOUS
 62
     7
  0
POLYLINE
  5
5C9
  8
DATA
  6
CONTINUOUS
 62
     7
 66
     1
 10
0.0
 20
0.0
 30
0.0
  0
VERTEX
  5
B4C
  8
DATA
  6
CONTINUOUS
 62
     7
 10
359.80000000000001
 20
436.0
 30
0.0
  0
VERTEX
  5
B4D
  8
DATA
  6
CONTINUOUS
 62
     7
 10
359.80000000000001
 20
434.49999999999989
 30
0.0
  0
VERTEX
  5
B4E
  8
DATA
  6
CONTINUOUS
 62
     7
 10
358.80000000000001
 20
434.49999999999989
 30
0.0
  0
VERTEX
  5
B4F
  8
DATA
  6
CONTINUOUS
 62
     7
 10
358.80000000000001
 20
436.0
 30
0.0
  0
SEQEND
  5
B50
  8
DATA
  6
CONTINUOUS
 62
     7
  0
CIRCLE
  5
5CF
  8
DATA
  6
CONTINUOUS
 62
     7
 10
359.30000000000001
 20
436.5
 30
0.0
 40
3.149999999999991
  0
POLYLINE
  5
5D0
  8
DATA
  6
CONTINUOUS
 62
     7
 66
     1
 10
0.0
 20
0.0
 30
0.0
  0
VERTEX
  5
B51
  8
DATA
  6
CONTINUOUS
 62
     7
 10
359.80000000000001
 20
436.0
 30
0.0
  0
VERTEX
  5
B52
  8
DATA
  6
CONTINUOUS
 62
     7
 10
361.30000000000001
 20
436.0
 30
0.0
  0
VERTEX
  5
B53
  8
DATA
  6
CONTINUOUS
 62
     7
 10
361.30000000000001
 20
437.0
 30
0.0
  0
VERTEX
  5
B54
  8
DATA
  6
CONTINUOUS
 62
     7
 10
359.80000000000001
 20
437.0
 30
0.0
  0
SEQEND
  5
B55
  8
DATA
  6
CONTINUOUS
 62
     7
  0
POLYLINE
  5
5D6
  8
DATA
  6
CONTINUOUS
 62
     7
 66
     1
 10
0.0
 20
0.0
 30
0.0
  0
VERTEX
  5
B56
  8
DATA
  6
CONTINUOUS
 62
     7
 10
358.80000000000001
 20
436.0
 30
0.0
  0
VERTEX
  5
B57
  8
DATA
  6
CONTINUOUS
 62
     7
 10
357.30000000000001
 20
436.0
 30
0.0
  0
VERTEX
  5
B58
  8
DATA
  6
CONTINUOUS
 62
     7
 10
357.30000000000001
 20
437.0
 30
0.0
  0
VERTEX
  5
B59
  8
DATA
  6
CONTINUOUS
 62
     7
 10
358.80000000000001
 20
437.0
 30
0.0
  0
SEQEND
  5
B5A
  8
DATA
  6
CONTINUOUS
 62
     7
  0
ARC
  5
5DC
  8
DATA
  6
CONTINUOUS
 62
     7
 10
51.800000000000011
 20
454.0
 30
0.0
 40
10.69999999999999
 50
283.51175535949187
 51
256.48824464050813
  0
CIRCLE
  5
5DD
  8
DATA
  6
CONTINUOUS
 62
     7
 10
51.800000000000011
 20
454.0
 30
0.0
 40
7.9999999999999947
  0
CIRCLE
  5
5DE
  8
DATA
  6
CONTINUOUS
 62
     7
 10
55.800000000000011
 20
454.0
 30
0.0
 40
1.249999999999988
  0
CIRCLE
  5
5DF
  8
DATA
  6
CONTINUOUS
 62
     7
 10
47.800000000000011
 20
454.0
 30
0.0
 40
1.249999999999988
  0
CIRCLE
  5
5E0
  8
DATA
  6
CONTINUOUS
 62
     7
 10
51.800000000000011
 20
458.0
 30
0.0
 40
1.249999999999988
  0
LINE
  5
5E1
  8
DATA
  6
CONTINUOUS
 62
     7
 10
54.300000000000011
 20
444.5759615875146
 30
0.0
 11
54.300000000000011
 21
442.71132486540529
 31
0.0
  0
LINE
  5
5E2
  8
DATA
  6
CONTINUOUS
 62
     7
 10
49.300000000000011
 20
444.5759615875146
 30
0.0
 11
49.300000000000011
 21
442.71132486540512
 31
0.0
  0
ARC
  5
5E3
  8
DATA
  6
CONTINUOUS
 62
     7
 10
49.678728675972927
 20
439.8556624327025
 30
0.0
 40
2.880667169173269
 50
97.554693985849994
 51
262.44530601414999
  0
ARC
  5
5E4
  8
DATA
  6
CONTINUOUS
 62
     7
 10
53.921271324027089
 20
439.8556624327025
 30
0.0
 40
2.8806671691733809
 50
277.55469398584972
 51
82.44530601415029
  0
LINE
  5
5E5
  8
DATA
  6
CONTINUOUS
 62
     7
 10
49.300000000000011
 20
437.0
 30
0.0
 11
54.300000000000011
 21
437.0
 31
0.0
  0
CIRCLE
  5
5E6
  8
DATA
  6
CONTINUOUS
 62
     7
 10
41.800000000000011
 20
464.0
 30
0.0
 40
2.49999999999998
  0
POLYLINE
  5
5E7
  8
DATA
  6
CONTINUOUS
 62
     7
 66
     1
 10
0.0
 20
0.0
 30
0.0
  0
VERTEX
  5
B5B
  8
DATA
  6
CONTINUOUS
 62
     7
 10
42.300000000000011
 20
463.49999999999989
 30
0.0
  0
VERTEX
  5
B5C
  8
DATA
  6
CONTINUOUS
 62
     7
 10
43.299999999999997
 20
463.49999999999989
 30
0.0
  0
VERTEX
  5
B5D
  8
DATA
  6
CONTINUOUS
 62
     7
 10
43.299999999999997
 20
464.5
 30
0.0
  0
VERTEX
  5
B5E
  8
DATA
  6
CONTINUOUS
 62
     7
 10
42.300000000000011
 20
464.5
 30
0.0
  0
SEQEND
  5
B5F
  8
DATA
  6
CONTINUOUS
 62
     7
  0
POLYLINE
  5
5ED
  8
DATA
  6
CONTINUOUS
 62
     7
 66
     1
 10
0.0
 20
0.0
 30
0.0
  0
VERTEX
  5
B60
  8
DATA
  6
CONTINUOUS
 62
     7
 10
41.300000000000011
 20
463.49999999999989
 30
0.0
  0
VERTEX
  5
B61
  8
DATA
  6
CONTINUOUS
 62
     7
 10
40.300000000000011
 20
463.49999999999989
 30
0.0
  0
VERTEX
  5
B62
  8
DATA
  6
CONTINUOUS
 62
     7
 10
40.300000000000011
 20
464.5
 30
0.0
  0
VERTEX
  5
B63
  8
DATA
  6
CONTINUOUS
 62
     7
 10
41.300000000000011
 20
464.5
 30
0.0
  0
SEQEND
  5
B64
  8
DATA
  6
CONTINUOUS
 62
     7
  0
CIRCLE
  5
5F3
  8
DATA
  6
CONTINUOUS
 62
     7
 10
41.800000000000011
 20
464.0
 30
0.0
 40
2.499999999999988
  0
POLYLINE
  5
5F4
  8
DATA
  6
CONTINUOUS
 62
     7
 66
     1
 10
0.0
 20
0.0
 30
0.0
  0
VERTEX
  5
B65
  8
DATA
  6
CONTINUOUS
 62
     7
 10
42.300000000000011
 20
464.5
 30
0.0
  0
VERTEX
  5
B66
  8
DATA
  6
CONTINUOUS
 62
     7
 10
42.300000000000011
 20
465.5
 30
0.0
  0
VERTEX
  5
B67
  8
DATA
  6
CONTINUOUS
 62
     7
 10
41.300000000000011
 20
465.5
 30
0.0
  0
VERTEX
  5
B68
  8
DATA
  6
CONTINUOUS
 62
     7
 10
41.300000000000011
 20
464.5
 30
0.0
  0
SEQEND
  5
B69
  8
DATA
  6
CONTINUOUS
 62
     7
  0
POLYLINE
  5
5FA
  8
DATA
  6
CONTINUOUS
 62
     7
 66
     1
 10
0.0
 20
0.0
 30
0.0
  0
VERTEX
  5
B6A
  8
DATA
  6
CONTINUOUS
 62
     7
 10
42.300000000000011
 20
463.49999999999989
 30
0.0
  0
VERTEX
  5
B6B
  8
DATA
  6
CONTINUOUS
 62
     7
 10
42.300000000000011
 20
462.5
 30
0.0
  0
VERTEX
  5
B6C
  8
DATA
  6
CONTINUOUS
 62
     7
 10
41.300000000000011
 20
462.5
 30
0.0
  0
VERTEX
  5
B6D
  8
DATA
  6
CONTINUOUS
 62
     7
 10
41.300000000000011
 20
463.49999999999989
 30
0.0
  0
SEQEND
  5
B6E
  8
DATA
  6
CONTINUOUS
 62
     7
  0
CIRCLE
  5
600
  8
DATA
  6
CONTINUOUS
 62
     7
 10
61.800000000000011
 20
444.0
 30
0.0
 40
2.49999999999998
  0
POLYLINE
  5
601
  8
DATA
  6
CONTINUOUS
 62
     7
 66
     1
 10
0.0
 20
0.0
 30
0.0
  0
VERTEX
  5
B6F
  8
DATA
  6
CONTINUOUS
 62
     7
 10
61.300000000000011
 20
444.5
 30
0.0
  0
VERTEX
  5
B70
  8
DATA
  6
CONTINUOUS
 62
     7
 10
60.300000000000011
 20
444.5
 30
0.0
  0
VERTEX
  5
B71
  8
DATA
  6
CONTINUOUS
 62
     7
 10
60.300000000000011
 20
443.5
 30
0.0
  0
VERTEX
  5
B72
  8
DATA
  6
CONTINUOUS
 62
     7
 10
61.300000000000011
 20
443.5
 30
0.0
  0
SEQEND
  5
B73
  8
DATA
  6
CONTINUOUS
 62
     7
  0
POLYLINE
  5
607
  8
DATA
  6
CONTINUOUS
 62
     7
 66
     1
 10
0.0
 20
0.0
 30
0.0
  0
VERTEX
  5
B74
  8
DATA
  6
CONTINUOUS
 62
     7
 10
62.300000000000011
 20
444.5
 30
0.0
  0
VERTEX
  5
B75
  8
DATA
  6
CONTINUOUS
 62
     7
 10
63.300000000000011
 20
444.5
 30
0.0
  0
VERTEX
  5
B76
  8
DATA
  6
CONTINUOUS
 62
     7
 10
63.300000000000011
 20
443.5
 30
0.0
  0
VERTEX
  5
B77
  8
DATA
  6
CONTINUOUS
 62
     7
 10
62.300000000000011
 20
443.5
 30
0.0
  0
SEQEND
  5
B78
  8
DATA
  6
CONTINUOUS
 62
     7
  0
CIRCLE
  5
60D
  8
DATA
  6
CONTINUOUS
 62
     7
 10
61.800000000000011
 20
444.0
 30
0.0
 40
2.499999999999988
  0
POLYLINE
  5
60E
  8
DATA
  6
CONTINUOUS
 62
     7
 66
     1
 10
0.0
 20
0.0
 30
0.0
  0
VERTEX
  5
B79
  8
DATA
  6
CONTINUOUS
 62
     7
 10
61.300000000000011
 20
443.5
 30
0.0
  0
VERTEX
  5
B7A
  8
DATA
  6
CONTINUOUS
 62
     7
 10
61.300000000000011
 20
442.49999999999989
 30
0.0
  0
VERTEX
  5
B7B
  8
DATA
  6
CONTINUOUS
 62
     7
 10
62.300000000000011
 20
442.49999999999989
 30
0.0
  0
VERTEX
  5
B7C
  8
DATA
  6
CONTINUOUS
 62
     7
 10
62.300000000000011
 20
443.5
 30
0.0
  0
SEQEND
  5
B7D
  8
DATA
  6
CONTINUOUS
 62
     7
  0
POLYLINE
  5
614
  8
DATA
  6
CONTINUOUS
 62
     7
 66
     1
 10
0.0
 20
0.0
 30
0.0
  0
VERTEX
  5
B7E
  8
DATA
  6
CONTINUOUS
 62
     7
 10
61.300000000000011
 20
444.5
 30
0.0
  0
VERTEX
  5
B7F
  8
DATA
  6
CONTINUOUS
 62
     7
 10
61.300000000000011
 20
445.5
 30
0.0
  0
VERTEX
  5
B80
  8
DATA
  6
CONTINUOUS
 62
     7
 10
62.300000000000011
 20
445.5
 30
0.0
  0
VERTEX
  5
B81
  8
DATA
  6
CONTINUOUS
 62
     7
 10
62.300000000000011
 20
444.5
 30
0.0
  0
SEQEND
  5
B82
  8
DATA
  6
CONTINUOUS
 62
     7
  0
ARC
  5
61A
  8
DATA
  6
CONTINUOUS
 62
     7
 10
77.800000000000026
 20
454.0
 30
0.0
 40
10.69999999999998
 50
283.51175535949187
 51
256.48824464050813
  0
CIRCLE
  5
61B
  8
DATA
  6
CONTINUOUS
 62
     7
 10
77.800000000000026
 20
454.0
 30
0.0
 40
7.9999999999999947
  0
CIRCLE
  5
61C
  8
DATA
  6
CONTINUOUS
 62
     7
 10
81.800000000000026
 20
454.0
 30
0.0
 40
1.249999999999988
  0
CIRCLE
  5
61D
  8
DATA
  6
CONTINUOUS
 62
     7
 10
73.800000000000026
 20
454.0
 30
0.0
 40
1.249999999999988
  0
CIRCLE
  5
61E
  8
DATA
  6
CONTINUOUS
 62
     7
 10
77.800000000000026
 20
458.0
 30
0.0
 40
1.249999999999988
  0
LINE
  5
61F
  8
DATA
  6
CONTINUOUS
 62
     7
 10
80.300000000000026
 20
444.5759615875146
 30
0.0
 11
80.300000000000026
 21
442.71132486540529
 31
0.0
  0
LINE
  5
620
  8
DATA
  6
CONTINUOUS
 62
     7
 10
75.300000000000026
 20
444.5759615875146
 30
0.0
 11
75.300000000000026
 21
442.71132486540512
 31
0.0
  0
ARC
  5
621
  8
DATA
  6
CONTINUOUS
 62
     7
 10
75.678728675972934
 20
439.8556624327025
 30
0.0
 40
2.880667169173269
 50
97.554693985849994
 51
262.44530601414999
  0
ARC
  5
622
  8
DATA
  6
CONTINUOUS
 62
     7
 10
79.921271324027089
 20
439.8556624327025
 30
0.0
 40
2.8806671691733809
 50
277.55469398584972
 51
82.44530601415029
  0
LINE
  5
623
  8
DATA
  6
CONTINUOUS
 62
     7
 10
75.300000000000026
 20
437.0
 30
0.0
 11
80.300000000000026
 21
437.0
 31
0.0
  0
CIRCLE
  5
624
  8
DATA
  6
CONTINUOUS
 62
     7
 10
123.3
 20
464.0
 30
0.0
 40
2.49999999999998
  0
POLYLINE
  5
625
  8
DATA
  6
CONTINUOUS
 62
     7
 66
     1
 10
0.0
 20
0.0
 30
0.0
  0
VERTEX
  5
B83
  8
DATA
  6
CONTINUOUS
 62
     7
 10
123.8
 20
463.49999999999989
 30
0.0
  0
VERTEX
  5
B84
  8
DATA
  6
CONTINUOUS
 62
     7
 10
124.8
 20
463.49999999999989
 30
0.0
  0
VERTEX
  5
B85
  8
DATA
  6
CONTINUOUS
 62
     7
 10
124.8
 20
464.5
 30
0.0
  0
VERTEX
  5
B86
  8
DATA
  6
CONTINUOUS
 62
     7
 10
123.8
 20
464.5
 30
0.0
  0
SEQEND
  5
B87
  8
DATA
  6
CONTINUOUS
 62
     7
  0
POLYLINE
  5
62B
  8
DATA
  6
CONTINUOUS
 62
     7
 66
     1
 10
0.0
 20
0.0
 30
0.0
  0
VERTEX
  5
B88
  8
DATA
  6
CONTINUOUS
 62
     7
 10
122.8
 20
463.49999999999989
 30
0.0
  0
VERTEX
  5
B89
  8
DATA
  6
CONTINUOUS
 62
     7
 10
121.8
 20
463.49999999999989
 30
0.0
  0
VERTEX
  5
B8A
  8
DATA
  6
CONTINUOUS
 62
     7
 10
121.8
 20
464.5
 30
0.0
  0
VERTEX
  5
B8B
  8
DATA
  6
CONTINUOUS
 62
     7
 10
122.8
 20
464.5
 30
0.0
  0
SEQEND
  5
B8C
  8
DATA
  6
CONTINUOUS
 62
     7
  0
CIRCLE
  5
631
  8
DATA
  6
CONTINUOUS
 62
     7
 10
123.3
 20
464.0
 30
0.0
 40
2.499999999999988
  0
POLYLINE
  5
632
  8
DATA
  6
CONTINUOUS
 62
     7
 66
     1
 10
0.0
 20
0.0
 30
0.0
  0
VERTEX
  5
B8D
  8
DATA
  6
CONTINUOUS
 62
     7
 10
123.8
 20
464.5
 30
0.0
  0
VERTEX
  5
B8E
  8
DATA
  6
CONTINUOUS
 62
     7
 10
123.8
 20
465.5
 30
0.0
  0
VERTEX
  5
B8F
  8
DATA
  6
CONTINUOUS
 62
     7
 10
122.8
 20
465.5
 30
0.0
  0
VERTEX
  5
B90
  8
DATA
  6
CONTINUOUS
 62
     7
 10
122.8
 20
464.5
 30
0.0
  0
SEQEND
  5
B91
  8
DATA
  6
CONTINUOUS
 62
     7
  0
POLYLINE
  5
638
  8
DATA
  6
CONTINUOUS
 62
     7
 66
     1
 10
0.0
 20
0.0
 30
0.0
  0
VERTEX
  5
B92
  8
DATA
  6
CONTINUOUS
 62
     7
 10
123.8
 20
463.49999999999989
 30
0.0
  0
VERTEX
  5
B93
  8
DATA
  6
CONTINUOUS
 62
     7
 10
123.8
 20
462.5
 30
0.0
  0
VERTEX
  5
B94
  8
DATA
  6
CONTINUOUS
 62
     7
 10
122.8
 20
462.5
 30
0.0
  0
VERTEX
  5
B95
  8
DATA
  6
CONTINUOUS
 62
     7
 10
122.8
 20
463.49999999999989
 30
0.0
  0
SEQEND
  5
B96
  8
DATA
  6
CONTINUOUS
 62
     7
  0
CIRCLE
  5
63E
  8
DATA
  6
CONTINUOUS
 62
     7
 10
143.30000000000001
 20
444.0
 30
0.0
 40
2.49999999999998
  0
POLYLINE
  5
63F
  8
DATA
  6
CONTINUOUS
 62
     7
 66
     1
 10
0.0
 20
0.0
 30
0.0
  0
VERTEX
  5
B97
  8
DATA
  6
CONTINUOUS
 62
     7
 10
142.80000000000001
 20
444.5
 30
0.0
  0
VERTEX
  5
B98
  8
DATA
  6
CONTINUOUS
 62
     7
 10
141.80000000000001
 20
444.5
 30
0.0
  0
VERTEX
  5
B99
  8
DATA
  6
CONTINUOUS
 62
     7
 10
141.80000000000001
 20
443.5
 30
0.0
  0
VERTEX
  5
B9A
  8
DATA
  6
CONTINUOUS
 62
     7
 10
142.80000000000001
 20
443.5
 30
0.0
  0
SEQEND
  5
B9B
  8
DATA
  6
CONTINUOUS
 62
     7
  0
POLYLINE
  5
645
  8
DATA
  6
CONTINUOUS
 62
     7
 66
     1
 10
0.0
 20
0.0
 30
0.0
  0
VERTEX
  5
B9C
  8
DATA
  6
CONTINUOUS
 62
     7
 10
143.80000000000001
 20
444.5
 30
0.0
  0
VERTEX
  5
B9D
  8
DATA
  6
CONTINUOUS
 62
     7
 10
144.80000000000001
 20
444.5
 30
0.0
  0
VERTEX
  5
B9E
  8
DATA
  6
CONTINUOUS
 62
     7
 10
144.80000000000001
 20
443.5
 30
0.0
  0
VERTEX
  5
B9F
  8
DATA
  6
CONTINUOUS
 62
     7
 10
143.80000000000001
 20
443.5
 30
0.0
  0
SEQEND
  5
BA0
  8
DATA
  6
CONTINUOUS
 62
     7
  0
CIRCLE
  5
64B
  8
DATA
  6
CONTINUOUS
 62
     7
 10
143.30000000000001
 20
444.0
 30
0.0
 40
2.499999999999988
  0
POLYLINE
  5
64C
  8
DATA
  6
CONTINUOUS
 62
     7
 66
     1
 10
0.0
 20
0.0
 30
0.0
  0
VERTEX
  5
BA1
  8
DATA
  6
CONTINUOUS
 62
     7
 10
142.80000000000001
 20
443.5
 30
0.0
  0
VERTEX
  5
BA2
  8
DATA
  6
CONTINUOUS
 62
     7
 10
142.80000000000001
 20
442.49999999999989
 30
0.0
  0
VERTEX
  5
BA3
  8
DATA
  6
CONTINUOUS
 62
     7
 10
143.80000000000001
 20
442.49999999999989
 30
0.0
  0
VERTEX
  5
BA4
  8
DATA
  6
CONTINUOUS
 62
     7
 10
143.80000000000001
 20
443.5
 30
0.0
  0
SEQEND
  5
BA5
  8
DATA
  6
CONTINUOUS
 62
     7
  0
POLYLINE
  5
652
  8
DATA
  6
CONTINUOUS
 62
     7
 66
     1
 10
0.0
 20
0.0
 30
0.0
  0
VERTEX
  5
BA6
  8
DATA
  6
CONTINUOUS
 62
     7
 10
142.80000000000001
 20
444.5
 30
0.0
  0
VERTEX
  5
BA7
  8
DATA
  6
CONTINUOUS
 62
     7
 10
142.80000000000001
 20
445.5
 30
0.0
  0
VERTEX
  5
BA8
  8
DATA
  6
CONTINUOUS
 62
     7
 10
143.80000000000001
 20
445.5
 30
0.0
  0
VERTEX
  5
BA9
  8
DATA
  6
CONTINUOUS
 62
     7
 10
143.80000000000001
 20
444.5
 30
0.0
  0
SEQEND
  5
BAA
  8
DATA
  6
CONTINUOUS
 62
     7
  0
CIRCLE
  5
658
  8
DATA
  6
CONTINUOUS
 62
     7
 10
133.30000000000001
 20
454.0
 30
0.0
 40
10.69999999999999
  0
CIRCLE
  5
659
  8
DATA
  6
CONTINUOUS
 62
     7
 10
77.800000000000026
 20
454.0
 30
0.0
 40
9.7500000000000036
  0
CIRCLE
  5
65A
  8
DATA
  6
CONTINUOUS
 62
     7
 10
51.800000000000011
 20
454.0
 30
0.0
 40
9.7500000000000249
  0
CIRCLE
  5
65B
  8
DATA
  6
CONTINUOUS
 62
     7
 10
133.30000000000001
 20
454.0
 30
0.0
 40
8.0999999999999943
  0
CIRCLE
  5
65C
  8
DATA
  6
CONTINUOUS
 62
     7
 10
137.30000000000001
 20
454.0
 30
0.0
 40
1.199999999999994
  0
CIRCLE
  5
65D
  8
DATA
  6
CONTINUOUS
 62
     7
 10
129.30000000000001
 20
454.0
 30
0.0
 40
1.199999999999994
  0
CIRCLE
  5
65E
  8
DATA
  6
CONTINUOUS
 62
     7
 10
133.30000000000001
 20
458.0
 30
0.0
 40
1.199999999999994
  0
CIRCLE
  5
65F
  8
DATA
  6
CONTINUOUS
 62
     7
 10
146.30000000000001
 20
464.0
 30
0.0
 40
2.49999999999998
  0
POLYLINE
  5
660
  8
DATA
  6
CONTINUOUS
 62
     7
 66
     1
 10
0.0
 20
0.0
 30
0.0
  0
VERTEX
  5
BAB
  8
DATA
  6
CONTINUOUS
 62
     7
 10
146.80000000000001
 20
463.49999999999989
 30
0.0
  0
VERTEX
  5
BAC
  8
DATA
  6
CONTINUOUS
 62
     7
 10
147.80000000000001
 20
463.49999999999989
 30
0.0
  0
VERTEX
  5
BAD
  8
DATA
  6
CONTINUOUS
 62
     7
 10
147.80000000000001
 20
464.5
 30
0.0
  0
VERTEX
  5
BAE
  8
DATA
  6
CONTINUOUS
 62
     7
 10
146.80000000000001
 20
464.5
 30
0.0
  0
SEQEND
  5
BAF
  8
DATA
  6
CONTINUOUS
 62
     7
  0
POLYLINE
  5
666
  8
DATA
  6
CONTINUOUS
 62
     7
 66
     1
 10
0.0
 20
0.0
 30
0.0
  0
VERTEX
  5
BB0
  8
DATA
  6
CONTINUOUS
 62
     7
 10
145.80000000000001
 20
463.49999999999989
 30
0.0
  0
VERTEX
  5
BB1
  8
DATA
  6
CONTINUOUS
 62
     7
 10
144.80000000000001
 20
463.49999999999989
 30
0.0
  0
VERTEX
  5
BB2
  8
DATA
  6
CONTINUOUS
 62
     7
 10
144.80000000000001
 20
464.5
 30
0.0
  0
VERTEX
  5
BB3
  8
DATA
  6
CONTINUOUS
 62
     7
 10
145.80000000000001
 20
464.5
 30
0.0
  0
SEQEND
  5
BB4
  8
DATA
  6
CONTINUOUS
 62
     7
  0
CIRCLE
  5
66C
  8
DATA
  6
CONTINUOUS
 62
     7
 10
146.30000000000001
 20
464.0
 30
0.0
 40
2.499999999999988
  0
POLYLINE
  5
66D
  8
DATA
  6
CONTINUOUS
 62
     7
 66
     1
 10
0.0
 20
0.0
 30
0.0
  0
VERTEX
  5
BB5
  8
DATA
  6
CONTINUOUS
 62
     7
 10
146.80000000000001
 20
464.5
 30
0.0
  0
VERTEX
  5
BB6
  8
DATA
  6
CONTINUOUS
 62
     7
 10
146.80000000000001
 20
465.5
 30
0.0
  0
VERTEX
  5
BB7
  8
DATA
  6
CONTINUOUS
 62
     7
 10
145.80000000000001
 20
465.5
 30
0.0
  0
VERTEX
  5
BB8
  8
DATA
  6
CONTINUOUS
 62
     7
 10
145.80000000000001
 20
464.5
 30
0.0
  0
SEQEND
  5
BB9
  8
DATA
  6
CONTINUOUS
 62
     7
  0
POLYLINE
  5
673
  8
DATA
  6
CONTINUOUS
 62
     7
 66
     1
 10
0.0
 20
0.0
 30
0.0
  0
VERTEX
  5
BBA
  8
DATA
  6
CONTINUOUS
 62
     7
 10
146.80000000000001
 20
463.49999999999989
 30
0.0
  0
VERTEX
  5
BBB
  8
DATA
  6
CONTINUOUS
 62
     7
 10
146.80000000000001
 20
462.5
 30
0.0
  0
VERTEX
  5
BBC
  8
DATA
  6
CONTINUOUS
 62
     7
 10
145.80000000000001
 20
462.5
 30
0.0
  0
VERTEX
  5
BBD
  8
DATA
  6
CONTINUOUS
 62
     7
 10
145.80000000000001
 20
463.49999999999989
 30
0.0
  0
SEQEND
  5
BBE
  8
DATA
  6
CONTINUOUS
 62
     7
  0
CIRCLE
  5
679
  8
DATA
  6
CONTINUOUS
 62
     7
 10
166.30000000000001
 20
444.0
 30
0.0
 40
2.49999999999998
  0
POLYLINE
  5
67A
  8
DATA
  6
CONTINUOUS
 62
     7
 66
     1
 10
0.0
 20
0.0
 30
0.0
  0
VERTEX
  5
BBF
  8
DATA
  6
CONTINUOUS
 62
     7
 10
165.80000000000001
 20
444.5
 30
0.0
  0
VERTEX
  5
BC0
  8
DATA
  6
CONTINUOUS
 62
     7
 10
164.80000000000001
 20
444.5
 30
0.0
  0
VERTEX
  5
BC1
  8
DATA
  6
CONTINUOUS
 62
     7
 10
164.80000000000001
 20
443.5
 30
0.0
  0
VERTEX
  5
BC2
  8
DATA
  6
CONTINUOUS
 62
     7
 10
165.80000000000001
 20
443.5
 30
0.0
  0
SEQEND
  5
BC3
  8
DATA
  6
CONTINUOUS
 62
     7
  0
POLYLINE
  5
680
  8
DATA
  6
CONTINUOUS
 62
     7
 66
     1
 10
0.0
 20
0.0
 30
0.0
  0
VERTEX
  5
BC4
  8
DATA
  6
CONTINUOUS
 62
     7
 10
166.80000000000001
 20
444.5
 30
0.0
  0
VERTEX
  5
BC5
  8
DATA
  6
CONTINUOUS
 62
     7
 10
167.80000000000001
 20
444.5
 30
0.0
  0
VERTEX
  5
BC6
  8
DATA
  6
CONTINUOUS
 62
     7
 10
167.80000000000001
 20
443.5
 30
0.0
  0
VERTEX
  5
BC7
  8
DATA
  6
CONTINUOUS
 62
     7
 10
166.80000000000001
 20
443.5
 30
0.0
  0
SEQEND
  5
BC8
  8
DATA
  6
CONTINUOUS
 62
     7
  0
CIRCLE
  5
686
  8
DATA
  6
CONTINUOUS
 62
     7
 10
166.30000000000001
 20
444.0
 30
0.0
 40
2.499999999999988
  0
POLYLINE
  5
687
  8
DATA
  6
CONTINUOUS
 62
     7
 66
     1
 10
0.0
 20
0.0
 30
0.0
  0
VERTEX
  5
BC9
  8
DATA
  6
CONTINUOUS
 62
     7
 10
165.80000000000001
 20
443.5
 30
0.0
  0
VERTEX
  5
BCA
  8
DATA
  6
CONTINUOUS
 62
     7
 10
165.80000000000001
 20
442.49999999999989
 30
0.0
  0
VERTEX
  5
BCB
  8
DATA
  6
CONTINUOUS
 62
     7
 10
166.80000000000001
 20
442.49999999999989
 30
0.0
  0
VERTEX
  5
BCC
  8
DATA
  6
CONTINUOUS
 62
     7
 10
166.80000000000001
 20
443.5
 30
0.0
  0
SEQEND
  5
BCD
  8
DATA
  6
CONTINUOUS
 62
     7
  0
POLYLINE
  5
68D
  8
DATA
  6
CONTINUOUS
 62
     7
 66
     1
 10
0.0
 20
0.0
 30
0.0
  0
VERTEX
  5
BCE
  8
DATA
  6
CONTINUOUS
 62
     7
 10
165.80000000000001
 20
444.5
 30
0.0
  0
VERTEX
  5
BCF
  8
DATA
  6
CONTINUOUS
 62
     7
 10
165.80000000000001
 20
445.5
 30
0.0
  0
VERTEX
  5
BD0
  8
DATA
  6
CONTINUOUS
 62
     7
 10
166.80000000000001
 20
445.5
 30
0.0
  0
VERTEX
  5
BD1
  8
DATA
  6
CONTINUOUS
 62
     7
 10
166.80000000000001
 20
444.5
 30
0.0
  0
SEQEND
  5
BD2
  8
DATA
  6
CONTINUOUS
 62
     7
  0
CIRCLE
  5
693
  8
DATA
  6
CONTINUOUS
 62
     7
 10
156.30000000000001
 20
454.0
 30
0.0
 40
10.69999999999999
  0
CIRCLE
  5
694
  8
DATA
  6
CONTINUOUS
 62
     7
 10
156.30000000000001
 20
454.0
 30
0.0
 40
8.0999999999999943
  0
CIRCLE
  5
695
  8
DATA
  6
CONTINUOUS
 62
     7
 10
160.30000000000001
 20
454.0
 30
0.0
 40
1.199999999999994
  0
CIRCLE
  5
696
  8
DATA
  6
CONTINUOUS
 62
     7
 10
152.30000000000001
 20
454.0
 30
0.0
 40
1.199999999999994
  0
CIRCLE
  5
697
  8
DATA
  6
CONTINUOUS
 62
     7
 10
156.30000000000001
 20
458.0
 30
0.0
 40
1.199999999999994
  0
CIRCLE
  5
698
  8
DATA
  6
CONTINUOUS
 62
     7
 10
169.30000000000001
 20
464.0
 30
0.0
 40
2.49999999999998
  0
POLYLINE
  5
699
  8
DATA
  6
CONTINUOUS
 62
     7
 66
     1
 10
0.0
 20
0.0
 30
0.0
  0
VERTEX
  5
BD3
  8
DATA
  6
CONTINUOUS
 62
     7
 10
169.80000000000001
 20
463.49999999999989
 30
0.0
  0
VERTEX
  5
BD4
  8
DATA
  6
CONTINUOUS
 62
     7
 10
170.80000000000001
 20
463.49999999999989
 30
0.0
  0
VERTEX
  5
BD5
  8
DATA
  6
CONTINUOUS
 62
     7
 10
170.80000000000001
 20
464.5
 30
0.0
  0
VERTEX
  5
BD6
  8
DATA
  6
CONTINUOUS
 62
     7
 10
169.80000000000001
 20
464.5
 30
0.0
  0
SEQEND
  5
BD7
  8
DATA
  6
CONTINUOUS
 62
     7
  0
POLYLINE
  5
69F
  8
DATA
  6
CONTINUOUS
 62
     7
 66
     1
 10
0.0
 20
0.0
 30
0.0
  0
VERTEX
  5
BD8
  8
DATA
  6
CONTINUOUS
 62
     7
 10
168.80000000000001
 20
463.49999999999989
 30
0.0
  0
VERTEX
  5
BD9
  8
DATA
  6
CONTINUOUS
 62
     7
 10
167.80000000000001
 20
463.49999999999989
 30
0.0
  0
VERTEX
  5
BDA
  8
DATA
  6
CONTINUOUS
 62
     7
 10
167.80000000000001
 20
464.5
 30
0.0
  0
VERTEX
  5
BDB
  8
DATA
  6
CONTINUOUS
 62
     7
 10
168.80000000000001
 20
464.5
 30
0.0
  0
SEQEND
  5
BDC
  8
DATA
  6
CONTINUOUS
 62
     7
  0
CIRCLE
  5
6A5
  8
DATA
  6
CONTINUOUS
 62
     7
 10
169.30000000000001
 20
464.0
 30
0.0
 40
2.499999999999988
  0
POLYLINE
  5
6A6
  8
DATA
  6
CONTINUOUS
 62
     7
 66
     1
 10
0.0
 20
0.0
 30
0.0
  0
VERTEX
  5
BDD
  8
DATA
  6
CONTINUOUS
 62
     7
 10
169.80000000000001
 20
464.5
 30
0.0
  0
VERTEX
  5
BDE
  8
DATA
  6
CONTINUOUS
 62
     7
 10
169.80000000000001
 20
465.5
 30
0.0
  0
VERTEX
  5
BDF
  8
DATA
  6
CONTINUOUS
 62
     7
 10
168.80000000000001
 20
465.5
 30
0.0
  0
VERTEX
  5
BE0
  8
DATA
  6
CONTINUOUS
 62
     7
 10
168.80000000000001
 20
464.5
 30
0.0
  0
SEQEND
  5
BE1
  8
DATA
  6
CONTINUOUS
 62
     7
  0
POLYLINE
  5
6AC
  8
DATA
  6
CONTINUOUS
 62
     7
 66
     1
 10
0.0
 20
0.0
 30
0.0
  0
VERTEX
  5
BE2
  8
DATA
  6
CONTINUOUS
 62
     7
 10
169.80000000000001
 20
463.49999999999989
 30
0.0
  0
VERTEX
  5
BE3
  8
DATA
  6
CONTINUOUS
 62
     7
 10
169.80000000000001
 20
462.5
 30
0.0
  0
VERTEX
  5
BE4
  8
DATA
  6
CONTINUOUS
 62
     7
 10
168.80000000000001
 20
462.5
 30
0.0
  0
VERTEX
  5
BE5
  8
DATA
  6
CONTINUOUS
 62
     7
 10
168.80000000000001
 20
463.49999999999989
 30
0.0
  0
SEQEND
  5
BE6
  8
DATA
  6
CONTINUOUS
 62
     7
  0
CIRCLE
  5
6B2
  8
DATA
  6
CONTINUOUS
 62
     7
 10
189.30000000000001
 20
444.0
 30
0.0
 40
2.49999999999998
  0
POLYLINE
  5
6B3
  8
DATA
  6
CONTINUOUS
 62
     7
 66
     1
 10
0.0
 20
0.0
 30
0.0
  0
VERTEX
  5
BE7
  8
DATA
  6
CONTINUOUS
 62
     7
 10
188.80000000000001
 20
444.5
 30
0.0
  0
VERTEX
  5
BE8
  8
DATA
  6
CONTINUOUS
 62
     7
 10
187.80000000000001
 20
444.5
 30
0.0
  0
VERTEX
  5
BE9
  8
DATA
  6
CONTINUOUS
 62
     7
 10
187.80000000000001
 20
443.5
 30
0.0
  0
VERTEX
  5
BEA
  8
DATA
  6
CONTINUOUS
 62
     7
 10
188.80000000000001
 20
443.5
 30
0.0
  0
SEQEND
  5
BEB
  8
DATA
  6
CONTINUOUS
 62
     7
  0
POLYLINE
  5
6B9
  8
DATA
  6
CONTINUOUS
 62
     7
 66
     1
 10
0.0
 20
0.0
 30
0.0
  0
VERTEX
  5
BEC
  8
DATA
  6
CONTINUOUS
 62
     7
 10
189.80000000000001
 20
444.5
 30
0.0
  0
VERTEX
  5
BED
  8
DATA
  6
CONTINUOUS
 62
     7
 10
190.80000000000001
 20
444.5
 30
0.0
  0
VERTEX
  5
BEE
  8
DATA
  6
CONTINUOUS
 62
     7
 10
190.80000000000001
 20
443.5
 30
0.0
  0
VERTEX
  5
BEF
  8
DATA
  6
CONTINUOUS
 62
     7
 10
189.80000000000001
 20
443.5
 30
0.0
  0
SEQEND
  5
BF0
  8
DATA
  6
CONTINUOUS
 62
     7
  0
CIRCLE
  5
6BF
  8
DATA
  6
CONTINUOUS
 62
     7
 10
189.30000000000001
 20
444.0
 30
0.0
 40
2.499999999999988
  0
POLYLINE
  5
6C0
  8
DATA
  6
CONTINUOUS
 62
     7
 66
     1
 10
0.0
 20
0.0
 30
0.0
  0
VERTEX
  5
BF1
  8
DATA
  6
CONTINUOUS
 62
     7
 10
188.80000000000001
 20
443.5
 30
0.0
  0
VERTEX
  5
BF2
  8
DATA
  6
CONTINUOUS
 62
     7
 10
188.80000000000001
 20
442.49999999999989
 30
0.0
  0
VERTEX
  5
BF3
  8
DATA
  6
CONTINUOUS
 62
     7
 10
189.80000000000001
 20
442.49999999999989
 30
0.0
  0
VERTEX
  5
BF4
  8
DATA
  6
CONTINUOUS
 62
     7
 10
189.80000000000001
 20
443.5
 30
0.0
  0
SEQEND
  5
BF5
  8
DATA
  6
CONTINUOUS
 62
     7
  0
POLYLINE
  5
6C6
  8
DATA
  6
CONTINUOUS
 62
     7
 66
     1
 10
0.0
 20
0.0
 30
0.0
  0
VERTEX
  5
BF6
  8
DATA
  6
CONTINUOUS
 62
     7
 10
188.80000000000001
 20
444.5
 30
0.0
  0
VERTEX
  5
BF7
  8
DATA
  6
CONTINUOUS
 62
     7
 10
188.80000000000001
 20
445.5
 30
0.0
  0
VERTEX
  5
BF8
  8
DATA
  6
CONTINUOUS
 62
     7
 10
189.80000000000001
 20
445.5
 30
0.0
  0
VERTEX
  5
BF9
  8
DATA
  6
CONTINUOUS
 62
     7
 10
189.80000000000001
 20
444.5
 30
0.0
  0
SEQEND
  5
BFA
  8
DATA
  6
CONTINUOUS
 62
     7
  0
CIRCLE
  5
6CC
  8
DATA
  6
CONTINUOUS
 62
     7
 10
179.30000000000001
 20
454.0
 30
0.0
 40
10.69999999999999
  0
CIRCLE
  5
6CD
  8
DATA
  6
CONTINUOUS
 62
     7
 10
179.30000000000001
 20
454.0
 30
0.0
 40
8.0999999999999943
  0
CIRCLE
  5
6CE
  8
DATA
  6
CONTINUOUS
 62
     7
 10
183.30000000000001
 20
454.0
 30
0.0
 40
1.199999999999994
  0
CIRCLE
  5
6CF
  8
DATA
  6
CONTINUOUS
 62
     7
 10
175.30000000000001
 20
454.0
 30
0.0
 40
1.199999999999994
  0
CIRCLE
  5
6D0
  8
DATA
  6
CONTINUOUS
 62
     7
 10
179.30000000000001
 20
458.0
 30
0.0
 40
1.199999999999994
  0
CIRCLE
  5
6D1
  8
DATA
  6
CONTINUOUS
 62
     7
 10
192.30000000000001
 20
464.0
 30
0.0
 40
2.49999999999998
  0
POLYLINE
  5
6D2
  8
DATA
  6
CONTINUOUS
 62
     7
 66
     1
 10
0.0
 20
0.0
 30
0.0
  0
VERTEX
  5
BFB
  8
DATA
  6
CONTINUOUS
 62
     7
 10
192.80000000000001
 20
463.49999999999989
 30
0.0
  0
VERTEX
  5
BFC
  8
DATA
  6
CONTINUOUS
 62
     7
 10
193.80000000000001
 20
463.49999999999989
 30
0.0
  0
VERTEX
  5
BFD
  8
DATA
  6
CONTINUOUS
 62
     7
 10
193.80000000000001
 20
464.5
 30
0.0
  0
VERTEX
  5
BFE
  8
DATA
  6
CONTINUOUS
 62
     7
 10
192.80000000000001
 20
464.5
 30
0.0
  0
SEQEND
  5
BFF
  8
DATA
  6
CONTINUOUS
 62
     7
  0
POLYLINE
  5
6D8
  8
DATA
  6
CONTINUOUS
 62
     7
 66
     1
 10
0.0
 20
0.0
 30
0.0
  0
VERTEX
  5
C00
  8
DATA
  6
CONTINUOUS
 62
     7
 10
191.80000000000001
 20
463.49999999999989
 30
0.0
  0
VERTEX
  5
C01
  8
DATA
  6
CONTINUOUS
 62
     7
 10
190.80000000000001
 20
463.49999999999989
 30
0.0
  0
VERTEX
  5
C02
  8
DATA
  6
CONTINUOUS
 62
     7
 10
190.80000000000001
 20
464.5
 30
0.0
  0
VERTEX
  5
C03
  8
DATA
  6
CONTINUOUS
 62
     7
 10
191.80000000000001
 20
464.5
 30
0.0
  0
SEQEND
  5
C04
  8
DATA
  6
CONTINUOUS
 62
     7
  0
CIRCLE
  5
6DE
  8
DATA
  6
CONTINUOUS
 62
     7
 10
192.30000000000001
 20
464.0
 30
0.0
 40
2.499999999999988
  0
POLYLINE
  5
6DF
  8
DATA
  6
CONTINUOUS
 62
     7
 66
     1
 10
0.0
 20
0.0
 30
0.0
  0
VERTEX
  5
C05
  8
DATA
  6
CONTINUOUS
 62
     7
 10
192.80000000000001
 20
464.5
 30
0.0
  0
VERTEX
  5
C06
  8
DATA
  6
CONTINUOUS
 62
     7
 10
192.80000000000001
 20
465.5
 30
0.0
  0
VERTEX
  5
C07
  8
DATA
  6
CONTINUOUS
 62
     7
 10
191.80000000000001
 20
465.5
 30
0.0
  0
VERTEX
  5
C08
  8
DATA
  6
CONTINUOUS
 62
     7
 10
191.80000000000001
 20
464.5
 30
0.0
  0
SEQEND
  5
C09
  8
DATA
  6
CONTINUOUS
 62
     7
  0
POLYLINE
  5
6E5
  8
DATA
  6
CONTINUOUS
 62
     7
 66
     1
 10
0.0
 20
0.0
 30
0.0
  0
VERTEX
  5
C0A
  8
DATA
  6
CONTINUOUS
 62
     7
 10
192.80000000000001
 20
463.49999999999989
 30
0.0
  0
VERTEX
  5
C0B
  8
DATA
  6
CONTINUOUS
 62
     7
 10
192.80000000000001
 20
462.5
 30
0.0
  0
VERTEX
  5
C0C
  8
DATA
  6
CONTINUOUS
 62
     7
 10
191.80000000000001
 20
462.5
 30
0.0
  0
VERTEX
  5
C0D
  8
DATA
  6
CONTINUOUS
 62
     7
 10
191.80000000000001
 20
463.49999999999989
 30
0.0
  0
SEQEND
  5
C0E
  8
DATA
  6
CONTINUOUS
 62
     7
  0
CIRCLE
  5
6EB
  8
DATA
  6
CONTINUOUS
 62
     7
 10
212.30000000000001
 20
444.0
 30
0.0
 40
2.49999999999998
  0
POLYLINE
  5
6EC
  8
DATA
  6
CONTINUOUS
 62
     7
 66
     1
 10
0.0
 20
0.0
 30
0.0
  0
VERTEX
  5
C0F
  8
DATA
  6
CONTINUOUS
 62
     7
 10
211.80000000000001
 20
444.5
 30
0.0
  0
VERTEX
  5
C10
  8
DATA
  6
CONTINUOUS
 62
     7
 10
210.80000000000001
 20
444.5
 30
0.0
  0
VERTEX
  5
C11
  8
DATA
  6
CONTINUOUS
 62
     7
 10
210.80000000000001
 20
443.5
 30
0.0
  0
VERTEX
  5
C12
  8
DATA
  6
CONTINUOUS
 62
     7
 10
211.80000000000001
 20
443.5
 30
0.0
  0
SEQEND
  5
C13
  8
DATA
  6
CONTINUOUS
 62
     7
  0
POLYLINE
  5
6F2
  8
DATA
  6
CONTINUOUS
 62
     7
 66
     1
 10
0.0
 20
0.0
 30
0.0
  0
VERTEX
  5
C14
  8
DATA
  6
CONTINUOUS
 62
     7
 10
212.80000000000001
 20
444.5
 30
0.0
  0
VERTEX
  5
C15
  8
DATA
  6
CONTINUOUS
 62
     7
 10
213.80000000000001
 20
444.5
 30
0.0
  0
VERTEX
  5
C16
  8
DATA
  6
CONTINUOUS
 62
     7
 10
213.80000000000001
 20
443.5
 30
0.0
  0
VERTEX
  5
C17
  8
DATA
  6
CONTINUOUS
 62
     7
 10
212.80000000000001
 20
443.5
 30
0.0
  0
SEQEND
  5
C18
  8
DATA
  6
CONTINUOUS
 62
     7
  0
CIRCLE
  5
6F8
  8
DATA
  6
CONTINUOUS
 62
     7
 10
212.30000000000001
 20
444.0
 30
0.0
 40
2.499999999999988
  0
POLYLINE
  5
6F9
  8
DATA
  6
CONTINUOUS
 62
     7
 66
     1
 10
0.0
 20
0.0
 30
0.0
  0
VERTEX
  5
C19
  8
DATA
  6
CONTINUOUS
 62
     7
 10
211.80000000000001
 20
443.5
 30
0.0
  0
VERTEX
  5
C1A
  8
DATA
  6
CONTINUOUS
 62
     7
 10
211.80000000000001
 20
442.49999999999989
 30
0.0
  0
VERTEX
  5
C1B
  8
DATA
  6
CONTINUOUS
 62
     7
 10
212.80000000000001
 20
442.49999999999989
 30
0.0
  0
VERTEX
  5
C1C
  8
DATA
  6
CONTINUOUS
 62
     7
 10
212.80000000000001
 20
443.5
 30
0.0
  0
SEQEND
  5
C1D
  8
DATA
  6
CONTINUOUS
 62
     7
  0
POLYLINE
  5
6FF
  8
DATA
  6
CONTINUOUS
 62
     7
 66
     1
 10
0.0
 20
0.0
 30
0.0
  0
VERTEX
  5
C1E
  8
DATA
  6
CONTINUOUS
 62
     7
 10
211.80000000000001
 20
444.5
 30
0.0
  0
VERTEX
  5
C1F
  8
DATA
  6
CONTINUOUS
 62
     7
 10
211.80000000000001
 20
445.5
 30
0.0
  0
VERTEX
  5
C20
  8
DATA
  6
CONTINUOUS
 62
     7
 10
212.80000000000001
 20
445.5
 30
0.0
  0
VERTEX
  5
C21
  8
DATA
  6
CONTINUOUS
 62
     7
 10
212.80000000000001
 20
444.5
 30
0.0
  0
SEQEND
  5
C22
  8
DATA
  6
CONTINUOUS
 62
     7
  0
CIRCLE
  5
705
  8
DATA
  6
CONTINUOUS
 62
     7
 10
202.30000000000001
 20
454.0
 30
0.0
 40
10.69999999999999
  0
CIRCLE
  5
706
  8
DATA
  6
CONTINUOUS
 62
     7
 10
202.30000000000001
 20
454.0
 30
0.0
 40
8.0999999999999943
  0
CIRCLE
  5
707
  8
DATA
  6
CONTINUOUS
 62
     7
 10
206.30000000000001
 20
454.0
 30
0.0
 40
1.199999999999994
  0
CIRCLE
  5
708
  8
DATA
  6
CONTINUOUS
 62
     7
 10
198.30000000000001
 20
454.0
 30
0.0
 40
1.199999999999994
  0
CIRCLE
  5
709
  8
DATA
  6
CONTINUOUS
 62
     7
 10
202.30000000000001
 20
458.0
 30
0.0
 40
1.199999999999994
  0
CIRCLE
  5
70A
  8
DATA
  6
CONTINUOUS
 62
     7
 10
215.30000000000001
 20
464.0
 30
0.0
 40
2.49999999999998
  0
POLYLINE
  5
70B
  8
DATA
  6
CONTINUOUS
 62
     7
 66
     1
 10
0.0
 20
0.0
 30
0.0
  0
VERTEX
  5
C23
  8
DATA
  6
CONTINUOUS
 62
     7
 10
215.80000000000001
 20
463.49999999999989
 30
0.0
  0
VERTEX
  5
C24
  8
DATA
  6
CONTINUOUS
 62
     7
 10
216.80000000000001
 20
463.49999999999989
 30
0.0
  0
VERTEX
  5
C25
  8
DATA
  6
CONTINUOUS
 62
     7
 10
216.80000000000001
 20
464.5
 30
0.0
  0
VERTEX
  5
C26
  8
DATA
  6
CONTINUOUS
 62
     7
 10
215.80000000000001
 20
464.5
 30
0.0
  0
SEQEND
  5
C27
  8
DATA
  6
CONTINUOUS
 62
     7
  0
POLYLINE
  5
711
  8
DATA
  6
CONTINUOUS
 62
     7
 66
     1
 10
0.0
 20
0.0
 30
0.0
  0
VERTEX
  5
C28
  8
DATA
  6
CONTINUOUS
 62
     7
 10
214.80000000000001
 20
463.49999999999989
 30
0.0
  0
VERTEX
  5
C29
  8
DATA
  6
CONTINUOUS
 62
     7
 10
213.80000000000001
 20
463.49999999999989
 30
0.0
  0
VERTEX
  5
C2A
  8
DATA
  6
CONTINUOUS
 62
     7
 10
213.80000000000001
 20
464.5
 30
0.0
  0
VERTEX
  5
C2B
  8
DATA
  6
CONTINUOUS
 62
     7
 10
214.80000000000001
 20
464.5
 30
0.0
  0
SEQEND
  5
C2C
  8
DATA
  6
CONTINUOUS
 62
     7
  0
CIRCLE
  5
717
  8
DATA
  6
CONTINUOUS
 62
     7
 10
215.30000000000001
 20
464.0
 30
0.0
 40
2.499999999999988
  0
POLYLINE
  5
718
  8
DATA
  6
CONTINUOUS
 62
     7
 66
     1
 10
0.0
 20
0.0
 30
0.0
  0
VERTEX
  5
C2D
  8
DATA
  6
CONTINUOUS
 62
     7
 10
215.80000000000001
 20
464.5
 30
0.0
  0
VERTEX
  5
C2E
  8
DATA
  6
CONTINUOUS
 62
     7
 10
215.80000000000001
 20
465.5
 30
0.0
  0
VERTEX
  5
C2F
  8
DATA
  6
CONTINUOUS
 62
     7
 10
214.80000000000001
 20
465.5
 30
0.0
  0
VERTEX
  5
C30
  8
DATA
  6
CONTINUOUS
 62
     7
 10
214.80000000000001
 20
464.5
 30
0.0
  0
SEQEND
  5
C31
  8
DATA
  6
CONTINUOUS
 62
     7
  0
POLYLINE
  5
71E
  8
DATA
  6
CONTINUOUS
 62
     7
 66
     1
 10
0.0
 20
0.0
 30
0.0
  0
VERTEX
  5
C32
  8
DATA
  6
CONTINUOUS
 62
     7
 10
215.80000000000001
 20
463.49999999999989
 30
0.0
  0
VERTEX
  5
C33
  8
DATA
  6
CONTINUOUS
 62
     7
 10
215.80000000000001
 20
462.5
 30
0.0
  0
VERTEX
  5
C34
  8
DATA
  6
CONTINUOUS
 62
     7
 10
214.80000000000001
 20
462.5
 30
0.0
  0
VERTEX
  5
C35
  8
DATA
  6
CONTINUOUS
 62
     7
 10
214.80000000000001
 20
463.49999999999989
 30
0.0
  0
SEQEND
  5
C36
  8
DATA
  6
CONTINUOUS
 62
     7
  0
CIRCLE
  5
724
  8
DATA
  6
CONTINUOUS
 62
     7
 10
235.30000000000001
 20
444.0
 30
0.0
 40
2.49999999999998
  0
POLYLINE
  5
725
  8
DATA
  6
CONTINUOUS
 62
     7
 66
     1
 10
0.0
 20
0.0
 30
0.0
  0
VERTEX
  5
C37
  8
DATA
  6
CONTINUOUS
 62
     7
 10
234.80000000000001
 20
444.5
 30
0.0
  0
VERTEX
  5
C38
  8
DATA
  6
CONTINUOUS
 62
     7
 10
233.80000000000001
 20
444.5
 30
0.0
  0
VERTEX
  5
C39
  8
DATA
  6
CONTINUOUS
 62
     7
 10
233.80000000000001
 20
443.5
 30
0.0
  0
VERTEX
  5
C3A
  8
DATA
  6
CONTINUOUS
 62
     7
 10
234.80000000000001
 20
443.5
 30
0.0
  0
SEQEND
  5
C3B
  8
DATA
  6
CONTINUOUS
 62
     7
  0
POLYLINE
  5
72B
  8
DATA
  6
CONTINUOUS
 62
     7
 66
     1
 10
0.0
 20
0.0
 30
0.0
  0
VERTEX
  5
C3C
  8
DATA
  6
CONTINUOUS
 62
     7
 10
235.80000000000001
 20
444.5
 30
0.0
  0
VERTEX
  5
C3D
  8
DATA
  6
CONTINUOUS
 62
     7
 10
236.80000000000001
 20
444.5
 30
0.0
  0
VERTEX
  5
C3E
  8
DATA
  6
CONTINUOUS
 62
     7
 10
236.80000000000001
 20
443.5
 30
0.0
  0
VERTEX
  5
C3F
  8
DATA
  6
CONTINUOUS
 62
     7
 10
235.80000000000001
 20
443.5
 30
0.0
  0
SEQEND
  5
C40
  8
DATA
  6
CONTINUOUS
 62
     7
  0
CIRCLE
  5
731
  8
DATA
  6
CONTINUOUS
 62
     7
 10
235.30000000000001
 20
444.0
 30
0.0
 40
2.499999999999988
  0
POLYLINE
  5
732
  8
DATA
  6
CONTINUOUS
 62
     7
 66
     1
 10
0.0
 20
0.0
 30
0.0
  0
VERTEX
  5
C41
  8
DATA
  6
CONTINUOUS
 62
     7
 10
234.80000000000001
 20
443.5
 30
0.0
  0
VERTEX
  5
C42
  8
DATA
  6
CONTINUOUS
 62
     7
 10
234.80000000000001
 20
442.49999999999989
 30
0.0
  0
VERTEX
  5
C43
  8
DATA
  6
CONTINUOUS
 62
     7
 10
235.80000000000001
 20
442.49999999999989
 30
0.0
  0
VERTEX
  5
C44
  8
DATA
  6
CONTINUOUS
 62
     7
 10
235.80000000000001
 20
443.5
 30
0.0
  0
SEQEND
  5
C45
  8
DATA
  6
CONTINUOUS
 62
     7
  0
POLYLINE
  5
738
  8
DATA
  6
CONTINUOUS
 62
     7
 66
     1
 10
0.0
 20
0.0
 30
0.0
  0
VERTEX
  5
C46
  8
DATA
  6
CONTINUOUS
 62
     7
 10
234.80000000000001
 20
444.5
 30
0.0
  0
VERTEX
  5
C47
  8
DATA
  6
CONTINUOUS
 62
     7
 10
234.80000000000001
 20
445.5
 30
0.0
  0
VERTEX
  5
C48
  8
DATA
  6
CONTINUOUS
 62
     7
 10
235.80000000000001
 20
445.5
 30
0.0
  0
VERTEX
  5
C49
  8
DATA
  6
CONTINUOUS
 62
     7
 10
235.80000000000001
 20
444.5
 30
0.0
  0
SEQEND
  5
C4A
  8
DATA
  6
CONTINUOUS
 62
     7
  0
CIRCLE
  5
73E
  8
DATA
  6
CONTINUOUS
 62
     7
 10
225.30000000000001
 20
454.0
 30
0.0
 40
10.69999999999999
  0
CIRCLE
  5
73F
  8
DATA
  6
CONTINUOUS
 62
     7
 10
225.30000000000001
 20
454.0
 30
0.0
 40
8.0999999999999943
  0
CIRCLE
  5
740
  8
DATA
  6
CONTINUOUS
 62
     7
 10
229.30000000000001
 20
454.0
 30
0.0
 40
1.199999999999994
  0
CIRCLE
  5
741
  8
DATA
  6
CONTINUOUS
 62
     7
 10
221.30000000000001
 20
454.0
 30
0.0
 40
1.199999999999994
  0
CIRCLE
  5
742
  8
DATA
  6
CONTINUOUS
 62
     7
 10
225.30000000000001
 20
458.0
 30
0.0
 40
1.199999999999994
  0
CIRCLE
  5
743
  8
DATA
  6
CONTINUOUS
 62
     7
 10
238.30000000000001
 20
464.0
 30
0.0
 40
2.49999999999998
  0
POLYLINE
  5
744
  8
DATA
  6
CONTINUOUS
 62
     7
 66
     1
 10
0.0
 20
0.0
 30
0.0
  0
VERTEX
  5
C4B
  8
DATA
  6
CONTINUOUS
 62
     7
 10
238.80000000000001
 20
463.49999999999989
 30
0.0
  0
VERTEX
  5
C4C
  8
DATA
  6
CONTINUOUS
 62
     7
 10
239.80000000000001
 20
463.49999999999989
 30
0.0
  0
VERTEX
  5
C4D
  8
DATA
  6
CONTINUOUS
 62
     7
 10
239.80000000000001
 20
464.5
 30
0.0
  0
VERTEX
  5
C4E
  8
DATA
  6
CONTINUOUS
 62
     7
 10
238.80000000000001
 20
464.5
 30
0.0
  0
SEQEND
  5
C4F
  8
DATA
  6
CONTINUOUS
 62
     7
  0
POLYLINE
  5
74A
  8
DATA
  6
CONTINUOUS
 62
     7
 66
     1
 10
0.0
 20
0.0
 30
0.0
  0
VERTEX
  5
C50
  8
DATA
  6
CONTINUOUS
 62
     7
 10
237.80000000000001
 20
463.49999999999989
 30
0.0
  0
VERTEX
  5
C51
  8
DATA
  6
CONTINUOUS
 62
     7
 10
236.80000000000001
 20
463.49999999999989
 30
0.0
  0
VERTEX
  5
C52
  8
DATA
  6
CONTINUOUS
 62
     7
 10
236.80000000000001
 20
464.5
 30
0.0
  0
VERTEX
  5
C53
  8
DATA
  6
CONTINUOUS
 62
     7
 10
237.80000000000001
 20
464.5
 30
0.0
  0
SEQEND
  5
C54
  8
DATA
  6
CONTINUOUS
 62
     7
  0
CIRCLE
  5
750
  8
DATA
  6
CONTINUOUS
 62
     7
 10
238.30000000000001
 20
464.0
 30
0.0
 40
2.499999999999988
  0
POLYLINE
  5
751
  8
DATA
  6
CONTINUOUS
 62
     7
 66
     1
 10
0.0
 20
0.0
 30
0.0
  0
VERTEX
  5
C55
  8
DATA
  6
CONTINUOUS
 62
     7
 10
238.80000000000001
 20
464.5
 30
0.0
  0
VERTEX
  5
C56
  8
DATA
  6
CONTINUOUS
 62
     7
 10
238.80000000000001
 20
465.5
 30
0.0
  0
VERTEX
  5
C57
  8
DATA
  6
CONTINUOUS
 62
     7
 10
237.80000000000001
 20
465.5
 30
0.0
  0
VERTEX
  5
C58
  8
DATA
  6
CONTINUOUS
 62
     7
 10
237.80000000000001
 20
464.5
 30
0.0
  0
SEQEND
  5
C59
  8
DATA
  6
CONTINUOUS
 62
     7
  0
POLYLINE
  5
757
  8
DATA
  6
CONTINUOUS
 62
     7
 66
     1
 10
0.0
 20
0.0
 30
0.0
  0
VERTEX
  5
C5A
  8
DATA
  6
CONTINUOUS
 62
     7
 10
238.80000000000001
 20
463.49999999999989
 30
0.0
  0
VERTEX
  5
C5B
  8
DATA
  6
CONTINUOUS
 62
     7
 10
238.80000000000001
 20
462.5
 30
0.0
  0
VERTEX
  5
C5C
  8
DATA
  6
CONTINUOUS
 62
     7
 10
237.80000000000001
 20
462.5
 30
0.0
  0
VERTEX
  5
C5D
  8
DATA
  6
CONTINUOUS
 62
     7
 10
237.80000000000001
 20
463.49999999999989
 30
0.0
  0
SEQEND
  5
C5E
  8
DATA
  6
CONTINUOUS
 62
     7
  0
CIRCLE
  5
75D
  8
DATA
  6
CONTINUOUS
 62
     7
 10
258.30000000000001
 20
444.0
 30
0.0
 40
2.49999999999998
  0
POLYLINE
  5
75E
  8
DATA
  6
CONTINUOUS
 62
     7
 66
     1
 10
0.0
 20
0.0
 30
0.0
  0
VERTEX
  5
C5F
  8
DATA
  6
CONTINUOUS
 62
     7
 10
257.80000000000001
 20
444.5
 30
0.0
  0
VERTEX
  5
C60
  8
DATA
  6
CONTINUOUS
 62
     7
 10
256.80000000000001
 20
444.5
 30
0.0
  0
VERTEX
  5
C61
  8
DATA
  6
CONTINUOUS
 62
     7
 10
256.80000000000001
 20
443.5
 30
0.0
  0
VERTEX
  5
C62
  8
DATA
  6
CONTINUOUS
 62
     7
 10
257.80000000000001
 20
443.5
 30
0.0
  0
SEQEND
  5
C63
  8
DATA
  6
CONTINUOUS
 62
     7
  0
POLYLINE
  5
764
  8
DATA
  6
CONTINUOUS
 62
     7
 66
     1
 10
0.0
 20
0.0
 30
0.0
  0
VERTEX
  5
C64
  8
DATA
  6
CONTINUOUS
 62
     7
 10
258.80000000000001
 20
444.5
 30
0.0
  0
VERTEX
  5
C65
  8
DATA
  6
CONTINUOUS
 62
     7
 10
259.80000000000001
 20
444.5
 30
0.0
  0
VERTEX
  5
C66
  8
DATA
  6
CONTINUOUS
 62
     7
 10
259.80000000000001
 20
443.5
 30
0.0
  0
VERTEX
  5
C67
  8
DATA
  6
CONTINUOUS
 62
     7
 10
258.80000000000001
 20
443.5
 30
0.0
  0
SEQEND
  5
C68
  8
DATA
  6
CONTINUOUS
 62
     7
  0
CIRCLE
  5
76A
  8
DATA
  6
CONTINUOUS
 62
     7
 10
258.30000000000001
 20
444.0
 30
0.0
 40
2.499999999999988
  0
POLYLINE
  5
76B
  8
DATA
  6
CONTINUOUS
 62
     7
 66
     1
 10
0.0
 20
0.0
 30
0.0
  0
VERTEX
  5
C69
  8
DATA
  6
CONTINUOUS
 62
     7
 10
257.80000000000001
 20
443.5
 30
0.0
  0
VERTEX
  5
C6A
  8
DATA
  6
CONTINUOUS
 62
     7
 10
257.80000000000001
 20
442.49999999999989
 30
0.0
  0
VERTEX
  5
C6B
  8
DATA
  6
CONTINUOUS
 62
     7
 10
258.80000000000001
 20
442.49999999999989
 30
0.0
  0
VERTEX
  5
C6C
  8
DATA
  6
CONTINUOUS
 62
     7
 10
258.80000000000001
 20
443.5
 30
0.0
  0
SEQEND
  5
C6D
  8
DATA
  6
CONTINUOUS
 62
     7
  0
POLYLINE
  5
771
  8
DATA
  6
CONTINUOUS
 62
     7
 66
     1
 10
0.0
 20
0.0
 30
0.0
  0
VERTEX
  5
C6E
  8
DATA
  6
CONTINUOUS
 62
     7
 10
257.80000000000001
 20
444.5
 30
0.0
  0
VERTEX
  5
C6F
  8
DATA
  6
CONTINUOUS
 62
     7
 10
257.80000000000001
 20
445.5
 30
0.0
  0
VERTEX
  5
C70
  8
DATA
  6
CONTINUOUS
 62
     7
 10
258.80000000000001
 20
445.5
 30
0.0
  0
VERTEX
  5
C71
  8
DATA
  6
CONTINUOUS
 62
     7
 10
258.80000000000001
 20
444.5
 30
0.0
  0
SEQEND
  5
C72
  8
DATA
  6
CONTINUOUS
 62
     7
  0
CIRCLE
  5
777
  8
DATA
  6
CONTINUOUS
 62
     7
 10
248.30000000000001
 20
454.0
 30
0.0
 40
10.69999999999999
  0
CIRCLE
  5
778
  8
DATA
  6
CONTINUOUS
 62
     7
 10
248.30000000000001
 20
454.0
 30
0.0
 40
8.0999999999999943
  0
CIRCLE
  5
779
  8
DATA
  6
CONTINUOUS
 62
     7
 10
252.30000000000001
 20
454.0
 30
0.0
 40
1.199999999999994
  0
CIRCLE
  5
77A
  8
DATA
  6
CONTINUOUS
 62
     7
 10
244.30000000000001
 20
454.0
 30
0.0
 40
1.199999999999994
  0
CIRCLE
  5
77B
  8
DATA
  6
CONTINUOUS
 62
     7
 10
248.30000000000001
 20
458.0
 30
0.0
 40
1.199999999999994
  0
ARC
  5
77C
  8
DATA
  6
CONTINUOUS
 62
     7
 10
280.30000000000001
 20
457.5
 30
0.0
 40
5.75
 50
281.02891423394829
 51
258.97108576605171
  0
CIRCLE
  5
77D
  8
DATA
  6
CONTINUOUS
 62
     7
 10
280.30000000000001
 20
457.5
 30
0.0
 40
7.0
  0
CIRCLE
  5
77E
  8
DATA
  6
CONTINUOUS
 62
     7
 10
280.30000000000001
 20
457.5
 30
0.0
 40
8.0
  0
ARC
  5
77F
  8
DATA
  6
CONTINUOUS
 62
     7
 10
280.30000000000001
 20
461.39999999999992
 30
0.0
 40
0.8500000000000003
 50
306.03187907246928
 51
53.96812092753067
  0
ARC
  5
780
  8
DATA
  6
CONTINUOUS
 62
     7
 10
280.30000000000001
 20
461.39999999999992
 30
0.0
 40
0.8500000000000003
 50
126.03187907246929
 51
233.96812092753061
  0
LINE
  5
781
  8
DATA
  6
CONTINUOUS
 62
     7
 10
279.80000000000001
 20
462.89999999999992
 30
0.0
 11
280.80000000000001
 21
462.89999999999992
 31
0.0
  0
LINE
  5
782
  8
DATA
  6
CONTINUOUS
 62
     7
 10
280.80000000000001
 20
462.89999999999992
 30
0.0
 11
280.80000000000001
 21
462.08738635424339
 31
0.0
  0
LINE
  5
783
  8
DATA
  6
CONTINUOUS
 62
     7
 10
279.80000000000001
 20
462.89999999999992
 30
0.0
 11
279.80000000000001
 21
462.08738635424339
 31
0.0
  0
LINE
  5
784
  8
DATA
  6
CONTINUOUS
 62
     7
 10
279.80000000000001
 20
459.89999999999998
 30
0.0
 11
280.80000000000001
 21
459.89999999999998
 31
0.0
  0
LINE
  5
785
  8
DATA
  6
CONTINUOUS
 62
     7
 10
280.80000000000001
 20
459.89999999999998
 30
0.0
 11
280.80000000000001
 21
460.71261364575668
 31
0.0
  0
LINE
  5
786
  8
DATA
  6
CONTINUOUS
 62
     7
 10
279.80000000000001
 20
459.89999999999998
 30
0.0
 11
279.80000000000001
 21
460.71261364575668
 31
0.0
  0
ARC
  5
787
  8
DATA
  6
CONTINUOUS
 62
     7
 10
277.18873016277922
 20
460.11126983722079
 30
0.0
 40
0.8500000000000119
 50
321.03187907247047
 51
68.968120927529441
  0
ARC
  5
788
  8
DATA
  6
CONTINUOUS
 62
     7
 10
277.18873016277922
 20
460.11126983722079
 30
0.0
 40
0.8499999999999941
 50
141.03187907246891
 51
248.96812092753109
  0
LINE
  5
789
  8
DATA
  6
CONTINUOUS
 62
     7
 10
276.31753868198092
 20
461.4307490541031
 30
0.0
 11
277.28346450827001
 21
461.68956809920559
 31
0.0
  0
LINE
  5
78A
  8
DATA
  6
CONTINUOUS
 62
     7
 10
277.28346450827001
 20
461.68956809920559
 30
0.0
 11
277.493784396102
 21
460.90464359197438
 31
0.0
  0
LINE
  5
78B
  8
DATA
  6
CONTINUOUS
 62
     7
 10
276.31753868198092
 20
461.4307490541031
 30
0.0
 11
276.52785856981291
 21
460.64582454687189
 31
0.0
  0
LINE
  5
78C
  8
DATA
  6
CONTINUOUS
 62
     7
 10
277.09399581728837
 20
458.53297157523582
 30
0.0
 11
278.05992164357752
 21
458.79179062033847
 31
0.0
  0
LINE
  5
78D
  8
DATA
  6
CONTINUOUS
 62
     7
 10
278.05992164357752
 20
458.79179062033847
 30
0.0
 11
277.8496017557456
 21
459.57671512756968
 31
0.0
  0
LINE
  5
78E
  8
DATA
  6
CONTINUOUS
 62
     7
 10
277.09399581728837
 20
458.53297157523582
 30
0.0
 11
276.88367592945639
 21
459.3178960824672
 31
0.0
  0
ARC
  5
78F
  8
DATA
  6
CONTINUOUS
 62
     7
 10
275.89999999999998
 20
457.0
 30
0.0
 40
0.8499999999999987
 50
321.03187907246848
 51
68.968120927531174
  0
ARC
  5
790
  8
DATA
  6
CONTINUOUS
 62
     7
 10
275.89999999999998
 20
457.0
 30
0.0
 40
0.8500000000000008
 50
141.03187907246991
 51
248.96812092753021
  0
LINE
  5
791
  8
DATA
  6
CONTINUOUS
 62
     7
 10
275.02880851920168
 20
458.31947921688231
 30
0.0
 11
275.99473434549083
 21
458.5782982619848
 31
0.0
  0
LINE
  5
792
  8
DATA
  6
CONTINUOUS
 62
     7
 10
275.99473434549083
 20
458.5782982619848
 30
0.0
 11
276.20505423332281
 21
457.79337375475359
 31
0.0
  0
LINE
  5
793
  8
DATA
  6
CONTINUOUS
 62
     7
 10
275.02880851920168
 20
458.31947921688231
 30
0.0
 11
275.23912840703372
 21
457.53455470965099
 31
0.0
  0
LINE
  5
794
  8
DATA
  6
CONTINUOUS
 62
     7
 10
275.8052656545093
 20
455.42170173801509
 30
0.0
 11
276.77119148079828
 21
455.68052078311757
 31
0.0
  0
LINE
  5
795
  8
DATA
  6
CONTINUOUS
 62
     7
 10
276.77119148079828
 20
455.68052078311757
 30
0.0
 11
276.56087159296629
 21
456.46544529034878
 31
0.0
  0
LINE
  5
796
  8
DATA
  6
CONTINUOUS
 62
     7
 10
275.8052656545093
 20
455.42170173801509
 30
0.0
 11
275.59494576667731
 21
456.2066262452463
 31
0.0
  0
ARC
  5
797
  8
DATA
  6
CONTINUOUS
 62
     7
 10
283.41126983722091
 20
460.11126983722079
 30
0.0
 40
0.8500000000000149
 50
111.0318790724704
 51
218.9681209275297
  0
ARC
  5
798
  8
DATA
  6
CONTINUOUS
 62
     7
 10
283.41126983722091
 20
460.11126983722079
 30
0.0
 40
0.849999999999998
 50
291.03187907246888
 51
38.968120927531402
  0
LINE
  5
799
  8
DATA
  6
CONTINUOUS
 62
     7
 10
284.28246131801922
 20
461.4307490541031
 30
0.0
 11
283.31653549173012
 21
461.68956809920559
 31
0.0
  0
LINE
  5
79A
  8
DATA
  6
CONTINUOUS
 62
     7
 10
283.31653549173012
 20
461.68956809920559
 30
0.0
 11
283.10621560389802
 21
460.90464359197438
 31
0.0
  0
LINE
  5
79B
  8
DATA
  6
CONTINUOUS
 62
     7
 10
284.28246131801922
 20
461.4307490541031
 30
0.0
 11
284.07214143018712
 21
460.64582454687189
 31
0.0
  0
LINE
  5
79C
  8
DATA
  6
CONTINUOUS
 62
     7
 10
283.50600418271159
 20
458.53297157523582
 30
0.0
 11
282.5400783564225
 21
458.79179062033847
 31
0.0
  0
LINE
  5
79D
  8
DATA
  6
CONTINUOUS
 62
     7
 10
282.5400783564225
 20
458.79179062033847
 30
0.0
 11
282.75039824425448
 21
459.57671512756968
 31
0.0
  0
LINE
  5
79E
  8
DATA
  6
CONTINUOUS
 62
     7
 10
283.50600418271159
 20
458.53297157523582
 30
0.0
 11
283.71632407054358
 21
459.3178960824672
 31
0.0
  0
LINE
  5
79F
  8
DATA
  6
CONTINUOUS
 62
     7
 10
281.39999999999998
 20
453.0
 30
0.0
 11
281.39999999999998
 21
451.8561980899396
 31
0.0
  0
LINE
  5
7A0
  8
DATA
  6
CONTINUOUS
 62
     7
 10
281.39999999999998
 20
453.0
 30
0.0
 11
279.2000000000001
 21
453.0
 31
0.0
  0
LINE
  5
7A1
  8
DATA
  6
CONTINUOUS
 62
     7
 10
279.2000000000001
 20
453.0
 30
0.0
 11
279.2000000000001
 21
451.8561980899396
 31
0.0
  0
LINE
  5
7A2
  8
DATA
  6
CONTINUOUS
 62
     7
 10
284.79473434549078
 20
455.42170173801509
 30
0.0
 11
283.82880851920169
 21
455.68052078311757
 31
0.0
  0
LINE
  5
7A3
  8
DATA
  6
CONTINUOUS
 62
     7
 10
284.79473434549078
 20
455.42170173801509
 30
0.0
 11
285.00505423332282
 21
456.2066262452463
 31
0.0
  0
ARC
  5
7A4
  8
DATA
  6
CONTINUOUS
 62
     7
 10
284.7000000000001
 20
457.0
 30
0.0
 40
0.8499999999999914
 50
111.031879072469
 51
218.96812092753089
  0
ARC
  5
7A5
  8
DATA
  6
CONTINUOUS
 62
     7
 10
284.7000000000001
 20
457.0
 30
0.0
 40
0.8500000000000149
 50
291.03187907247042
 51
38.968120927529696
  0
LINE
  5
7A6
  8
DATA
  6
CONTINUOUS
 62
     7
 10
285.5711914807984
 20
458.31947921688231
 30
0.0
 11
284.60526565450931
 21
458.5782982619848
 31
0.0
  0
LINE
  5
7A7
  8
DATA
  6
CONTINUOUS
 62
     7
 10
284.60526565450931
 20
458.5782982619848
 30
0.0
 11
284.39494576667732
 21
457.79337375475359
 31
0.0
  0
LINE
  5
7A8
  8
DATA
  6
CONTINUOUS
 62
     7
 10
285.5711914807984
 20
458.31947921688231
 30
0.0
 11
285.3608715929663
 21
457.53455470965099
 31
0.0
  0
LINE
  5
7A9
  8
DATA
  6
CONTINUOUS
 62
     7
 10
283.82880851920169
 20
455.68052078311757
 30
0.0
 11
284.03912840703379
 21
456.46544529034878
 31
0.0
  0
ARC
  5
7AA
  8
DATA
  6
CONTINUOUS
 62
     7
 10
300.30000000000001
 20
457.5
 30
0.0
 40
5.75
 50
281.02891423394829
 51
258.97108576605171
  0
CIRCLE
  5
7AB
  8
DATA
  6
CONTINUOUS
 62
     7
 10
300.30000000000001
 20
457.5
 30
0.0
 40
7.0
  0
CIRCLE
  5
7AC
  8
DATA
  6
CONTINUOUS
 62
     7
 10
300.30000000000001
 20
457.5
 30
0.0
 40
8.0
  0
ARC
  5
7AD
  8
DATA
  6
CONTINUOUS
 62
     7
 10
300.30000000000001
 20
461.39999999999992
 30
0.0
 40
0.8500000000000003
 50
306.03187907246928
 51
53.96812092753067
  0
ARC
  5
7AE
  8
DATA
  6
CONTINUOUS
 62
     7
 10
300.30000000000001
 20
461.39999999999992
 30
0.0
 40
0.8500000000000003
 50
126.03187907246929
 51
233.96812092753061
  0
LINE
  5
7AF
  8
DATA
  6
CONTINUOUS
 62
     7
 10
299.80000000000001
 20
462.89999999999992
 30
0.0
 11
300.80000000000001
 21
462.89999999999992
 31
0.0
  0
LINE
  5
7B0
  8
DATA
  6
CONTINUOUS
 62
     7
 10
300.80000000000001
 20
462.89999999999992
 30
0.0
 11
300.80000000000001
 21
462.08738635424339
 31
0.0
  0
LINE
  5
7B1
  8
DATA
  6
CONTINUOUS
 62
     7
 10
299.80000000000001
 20
462.89999999999992
 30
0.0
 11
299.80000000000001
 21
462.08738635424339
 31
0.0
  0
LINE
  5
7B2
  8
DATA
  6
CONTINUOUS
 62
     7
 10
299.80000000000001
 20
459.89999999999998
 30
0.0
 11
300.80000000000001
 21
459.89999999999998
 31
0.0
  0
LINE
  5
7B3
  8
DATA
  6
CONTINUOUS
 62
     7
 10
300.80000000000001
 20
459.89999999999998
 30
0.0
 11
300.80000000000001
 21
460.71261364575668
 31
0.0
  0
LINE
  5
7B4
  8
DATA
  6
CONTINUOUS
 62
     7
 10
299.80000000000001
 20
459.89999999999998
 30
0.0
 11
299.80000000000001
 21
460.71261364575668
 31
0.0
  0
ARC
  5
7B5
  8
DATA
  6
CONTINUOUS
 62
     7
 10
297.18873016277922
 20
460.11126983722079
 30
0.0
 40
0.8500000000000119
 50
321.03187907247047
 51
68.968120927529441
  0
ARC
  5
7B6
  8
DATA
  6
CONTINUOUS
 62
     7
 10
297.18873016277922
 20
460.11126983722079
 30
0.0
 40
0.8499999999999941
 50
141.03187907246891
 51
248.96812092753109
  0
LINE
  5
7B7
  8
DATA
  6
CONTINUOUS
 62
     7
 10
296.31753868198092
 20
461.4307490541031
 30
0.0
 11
297.28346450827001
 21
461.68956809920559
 31
0.0
  0
LINE
  5
7B8
  8
DATA
  6
CONTINUOUS
 62
     7
 10
297.28346450827001
 20
461.68956809920559
 30
0.0
 11
297.493784396102
 21
460.90464359197438
 31
0.0
  0
LINE
  5
7B9
  8
DATA
  6
CONTINUOUS
 62
     7
 10
296.31753868198092
 20
461.4307490541031
 30
0.0
 11
296.52785856981291
 21
460.64582454687189
 31
0.0
  0
LINE
  5
7BA
  8
DATA
  6
CONTINUOUS
 62
     7
 10
297.09399581728837
 20
458.53297157523582
 30
0.0
 11
298.05992164357752
 21
458.79179062033847
 31
0.0
  0
LINE
  5
7BB
  8
DATA
  6
CONTINUOUS
 62
     7
 10
298.05992164357752
 20
458.79179062033847
 30
0.0
 11
297.84960175574548
 21
459.57671512756968
 31
0.0
  0
LINE
  5
7BC
  8
DATA
  6
CONTINUOUS
 62
     7
 10
297.09399581728837
 20
458.53297157523582
 30
0.0
 11
296.88367592945639
 21
459.3178960824672
 31
0.0
  0
ARC
  5
7BD
  8
DATA
  6
CONTINUOUS
 62
     7
 10
295.89999999999992
 20
457.0
 30
0.0
 40
0.8499999999999987
 50
321.03187907246848
 51
68.968120927531174
  0
ARC
  5
7BE
  8
DATA
  6
CONTINUOUS
 62
     7
 10
295.89999999999992
 20
457.0
 30
0.0
 40
0.8500000000000008
 50
141.03187907246991
 51
248.96812092753021
  0
LINE
  5
7BF
  8
DATA
  6
CONTINUOUS
 62
     7
 10
295.02880851920168
 20
458.31947921688231
 30
0.0
 11
295.99473434549083
 21
458.5782982619848
 31
0.0
  0
LINE
  5
7C0
  8
DATA
  6
CONTINUOUS
 62
     7
 10
295.99473434549083
 20
458.5782982619848
 30
0.0
 11
296.20505423332281
 21
457.79337375475359
 31
0.0
  0
LINE
  5
7C1
  8
DATA
  6
CONTINUOUS
 62
     7
 10
295.02880851920168
 20
458.31947921688231
 30
0.0
 11
295.23912840703372
 21
457.53455470965099
 31
0.0
  0
LINE
  5
7C2
  8
DATA
  6
CONTINUOUS
 62
     7
 10
295.80526565450918
 20
455.42170173801509
 30
0.0
 11
296.77119148079828
 21
455.68052078311757
 31
0.0
  0
LINE
  5
7C3
  8
DATA
  6
CONTINUOUS
 62
     7
 10
296.77119148079828
 20
455.68052078311757
 30
0.0
 11
296.56087159296618
 21
456.46544529034878
 31
0.0
  0
LINE
  5
7C4
  8
DATA
  6
CONTINUOUS
 62
     7
 10
295.80526565450918
 20
455.42170173801509
 30
0.0
 11
295.5949457666772
 21
456.2066262452463
 31
0.0
  0
ARC
  5
7C5
  8
DATA
  6
CONTINUOUS
 62
     7
 10
303.4112698372208
 20
460.11126983722079
 30
0.0
 40
0.8500000000000149
 50
111.0318790724704
 51
218.9681209275297
  0
ARC
  5
7C6
  8
DATA
  6
CONTINUOUS
 62
     7
 10
303.4112698372208
 20
460.11126983722079
 30
0.0
 40
0.849999999999998
 50
291.03187907246888
 51
38.968120927531402
  0
LINE
  5
7C7
  8
DATA
  6
CONTINUOUS
 62
     7
 10
304.2824613180191
 20
461.4307490541031
 30
0.0
 11
303.31653549173012
 21
461.68956809920559
 31
0.0
  0
LINE
  5
7C8
  8
DATA
  6
CONTINUOUS
 62
     7
 10
303.31653549173012
 20
461.68956809920559
 30
0.0
 11
303.10621560389802
 21
460.90464359197438
 31
0.0
  0
LINE
  5
7C9
  8
DATA
  6
CONTINUOUS
 62
     7
 10
304.2824613180191
 20
461.4307490541031
 30
0.0
 11
304.07214143018712
 21
460.64582454687189
 31
0.0
  0
LINE
  5
7CA
  8
DATA
  6
CONTINUOUS
 62
     7
 10
303.50600418271159
 20
458.53297157523582
 30
0.0
 11
302.5400783564225
 21
458.79179062033847
 31
0.0
  0
LINE
  5
7CB
  8
DATA
  6
CONTINUOUS
 62
     7
 10
302.5400783564225
 20
458.79179062033847
 30
0.0
 11
302.75039824425448
 21
459.57671512756968
 31
0.0
  0
LINE
  5
7CC
  8
DATA
  6
CONTINUOUS
 62
     7
 10
303.50600418271159
 20
458.53297157523582
 30
0.0
 11
303.71632407054358
 21
459.3178960824672
 31
0.0
  0
LINE
  5
7CD
  8
DATA
  6
CONTINUOUS
 62
     7
 10
301.39999999999998
 20
453.0
 30
0.0
 11
301.39999999999998
 21
451.8561980899396
 31
0.0
  0
LINE
  5
7CE
  8
DATA
  6
CONTINUOUS
 62
     7
 10
301.39999999999998
 20
453.0
 30
0.0
 11
299.2000000000001
 21
453.0
 31
0.0
  0
LINE
  5
7CF
  8
DATA
  6
CONTINUOUS
 62
     7
 10
299.2000000000001
 20
453.0
 30
0.0
 11
299.2000000000001
 21
451.8561980899396
 31
0.0
  0
LINE
  5
7D0
  8
DATA
  6
CONTINUOUS
 62
     7
 10
304.79473434549078
 20
455.42170173801509
 30
0.0
 11
303.82880851920169
 21
455.68052078311757
 31
0.0
  0
LINE
  5
7D1
  8
DATA
  6
CONTINUOUS
 62
     7
 10
304.79473434549078
 20
455.42170173801509
 30
0.0
 11
305.00505423332282
 21
456.2066262452463
 31
0.0
  0
ARC
  5
7D2
  8
DATA
  6
CONTINUOUS
 62
     7
 10
304.7000000000001
 20
457.0
 30
0.0
 40
0.8499999999999914
 50
111.031879072469
 51
218.96812092753089
  0
ARC
  5
7D3
  8
DATA
  6
CONTINUOUS
 62
     7
 10
304.7000000000001
 20
457.0
 30
0.0
 40
0.8500000000000149
 50
291.03187907247042
 51
38.968120927529696
  0
LINE
  5
7D4
  8
DATA
  6
CONTINUOUS
 62
     7
 10
305.5711914807984
 20
458.31947921688231
 30
0.0
 11
304.6052656545092
 21
458.5782982619848
 31
0.0
  0
LINE
  5
7D5
  8
DATA
  6
CONTINUOUS
 62
     7
 10
304.6052656545092
 20
458.5782982619848
 30
0.0
 11
304.39494576667732
 21
457.79337375475359
 31
0.0
  0
LINE
  5
7D6
  8
DATA
  6
CONTINUOUS
 62
     7
 10
305.5711914807984
 20
458.31947921688231
 30
0.0
 11
305.3608715929663
 21
457.53455470965099
 31
0.0
  0
LINE
  5
7D7
  8
DATA
  6
CONTINUOUS
 62
     7
 10
303.82880851920169
 20
455.68052078311757
 30
0.0
 11
304.03912840703379
 21
456.46544529034878
 31
0.0
  0
ARC
  5
7D8
  8
DATA
  6
CONTINUOUS
 62
     7
 10
320.30000000000001
 20
457.5
 30
0.0
 40
5.75
 50
281.02891423394829
 51
258.97108576605171
  0
CIRCLE
  5
7D9
  8
DATA
  6
CONTINUOUS
 62
     7
 10
320.30000000000001
 20
457.5
 30
0.0
 40
7.0
  0
CIRCLE
  5
7DA
  8
DATA
  6
CONTINUOUS
 62
     7
 10
320.30000000000001
 20
457.5
 30
0.0
 40
8.0
  0
ARC
  5
7DB
  8
DATA
  6
CONTINUOUS
 62
     7
 10
320.30000000000001
 20
461.39999999999992
 30
0.0
 40
0.8500000000000003
 50
306.03187907246928
 51
53.96812092753067
  0
ARC
  5
7DC
  8
DATA
  6
CONTINUOUS
 62
     7
 10
320.30000000000001
 20
461.39999999999992
 30
0.0
 40
0.8500000000000003
 50
126.03187907246929
 51
233.96812092753061
  0
LINE
  5
7DD
  8
DATA
  6
CONTINUOUS
 62
     7
 10
319.80000000000001
 20
462.89999999999992
 30
0.0
 11
320.80000000000001
 21
462.89999999999992
 31
0.0
  0
LINE
  5
7DE
  8
DATA
  6
CONTINUOUS
 62
     7
 10
320.80000000000001
 20
462.89999999999992
 30
0.0
 11
320.80000000000001
 21
462.08738635424339
 31
0.0
  0
LINE
  5
7DF
  8
DATA
  6
CONTINUOUS
 62
     7
 10
319.80000000000001
 20
462.89999999999992
 30
0.0
 11
319.80000000000001
 21
462.08738635424339
 31
0.0
  0
LINE
  5
7E0
  8
DATA
  6
CONTINUOUS
 62
     7
 10
319.80000000000001
 20
459.89999999999998
 30
0.0
 11
320.80000000000001
 21
459.89999999999998
 31
0.0
  0
LINE
  5
7E1
  8
DATA
  6
CONTINUOUS
 62
     7
 10
320.80000000000001
 20
459.89999999999998
 30
0.0
 11
320.80000000000001
 21
460.71261364575668
 31
0.0
  0
LINE
  5
7E2
  8
DATA
  6
CONTINUOUS
 62
     7
 10
319.80000000000001
 20
459.89999999999998
 30
0.0
 11
319.80000000000001
 21
460.71261364575668
 31
0.0
  0
ARC
  5
7E3
  8
DATA
  6
CONTINUOUS
 62
     7
 10
317.18873016277922
 20
460.11126983722079
 30
0.0
 40
0.8500000000000119
 50
321.03187907247047
 51
68.968120927529441
  0
ARC
  5
7E4
  8
DATA
  6
CONTINUOUS
 62
     7
 10
317.18873016277922
 20
460.11126983722079
 30
0.0
 40
0.8499999999999941
 50
141.03187907246891
 51
248.96812092753109
  0
LINE
  5
7E5
  8
DATA
  6
CONTINUOUS
 62
     7
 10
316.31753868198092
 20
461.4307490541031
 30
0.0
 11
317.28346450827001
 21
461.68956809920559
 31
0.0
  0
LINE
  5
7E6
  8
DATA
  6
CONTINUOUS
 62
     7
 10
317.28346450827001
 20
461.68956809920559
 30
0.0
 11
317.493784396102
 21
460.90464359197438
 31
0.0
  0
LINE
  5
7E7
  8
DATA
  6
CONTINUOUS
 62
     7
 10
316.31753868198092
 20
461.4307490541031
 30
0.0
 11
316.52785856981291
 21
460.64582454687189
 31
0.0
  0
LINE
  5
7E8
  8
DATA
  6
CONTINUOUS
 62
     7
 10
317.09399581728837
 20
458.53297157523582
 30
0.0
 11
318.05992164357752
 21
458.79179062033847
 31
0.0
  0
LINE
  5
7E9
  8
DATA
  6
CONTINUOUS
 62
     7
 10
318.05992164357752
 20
458.79179062033847
 30
0.0
 11
317.84960175574548
 21
459.57671512756968
 31
0.0
  0
LINE
  5
7EA
  8
DATA
  6
CONTINUOUS
 62
     7
 10
317.09399581728837
 20
458.53297157523582
 30
0.0
 11
316.88367592945639
 21
459.3178960824672
 31
0.0
  0
ARC
  5
7EB
  8
DATA
  6
CONTINUOUS
 62
     7
 10
315.89999999999998
 20
457.0
 30
0.0
 40
0.8499999999999987
 50
321.03187907246848
 51
68.968120927531174
  0
ARC
  5
7EC
  8
DATA
  6
CONTINUOUS
 62
     7
 10
315.89999999999998
 20
457.0
 30
0.0
 40
0.8500000000000008
 50
141.03187907246991
 51
248.96812092753021
  0
LINE
  5
7ED
  8
DATA
  6
CONTINUOUS
 62
     7
 10
315.02880851920168
 20
458.31947921688231
 30
0.0
 11
315.99473434549083
 21
458.5782982619848
 31
0.0
  0
LINE
  5
7EE
  8
DATA
  6
CONTINUOUS
 62
     7
 10
315.99473434549083
 20
458.5782982619848
 30
0.0
 11
316.20505423332281
 21
457.79337375475359
 31
0.0
  0
LINE
  5
7EF
  8
DATA
  6
CONTINUOUS
 62
     7
 10
315.02880851920168
 20
458.31947921688231
 30
0.0
 11
315.23912840703372
 21
457.53455470965099
 31
0.0
  0
LINE
  5
7F0
  8
DATA
  6
CONTINUOUS
 62
     7
 10
315.8052656545093
 20
455.42170173801509
 30
0.0
 11
316.77119148079828
 21
455.68052078311757
 31
0.0
  0
LINE
  5
7F1
  8
DATA
  6
CONTINUOUS
 62
     7
 10
316.77119148079828
 20
455.68052078311757
 30
0.0
 11
316.56087159296618
 21
456.46544529034878
 31
0.0
  0
LINE
  5
7F2
  8
DATA
  6
CONTINUOUS
 62
     7
 10
315.8052656545093
 20
455.42170173801509
 30
0.0
 11
315.59494576667731
 21
456.2066262452463
 31
0.0
  0
ARC
  5
7F3
  8
DATA
  6
CONTINUOUS
 62
     7
 10
323.41126983722091
 20
460.11126983722079
 30
0.0
 40
0.8500000000000149
 50
111.0318790724704
 51
218.9681209275297
  0
ARC
  5
7F4
  8
DATA
  6
CONTINUOUS
 62
     7
 10
323.41126983722091
 20
460.11126983722079
 30
0.0
 40
0.849999999999998
 50
291.03187907246888
 51
38.968120927531402
  0
LINE
  5
7F5
  8
DATA
  6
CONTINUOUS
 62
     7
 10
324.28246131801922
 20
461.4307490541031
 30
0.0
 11
323.31653549173001
 21
461.68956809920559
 31
0.0
  0
LINE
  5
7F6
  8
DATA
  6
CONTINUOUS
 62
     7
 10
323.31653549173001
 20
461.68956809920559
 30
0.0
 11
323.10621560389802
 21
460.90464359197438
 31
0.0
  0
LINE
  5
7F7
  8
DATA
  6
CONTINUOUS
 62
     7
 10
324.28246131801922
 20
461.4307490541031
 30
0.0
 11
324.07214143018712
 21
460.64582454687189
 31
0.0
  0
LINE
  5
7F8
  8
DATA
  6
CONTINUOUS
 62
     7
 10
323.50600418271171
 20
458.53297157523582
 30
0.0
 11
322.5400783564225
 21
458.79179062033847
 31
0.0
  0
LINE
  5
7F9
  8
DATA
  6
CONTINUOUS
 62
     7
 10
322.5400783564225
 20
458.79179062033847
 30
0.0
 11
322.75039824425448
 21
459.57671512756968
 31
0.0
  0
LINE
  5
7FA
  8
DATA
  6
CONTINUOUS
 62
     7
 10
323.50600418271171
 20
458.53297157523582
 30
0.0
 11
323.71632407054358
 21
459.3178960824672
 31
0.0
  0
LINE
  5
7FB
  8
DATA
  6
CONTINUOUS
 62
     7
 10
321.39999999999998
 20
453.0
 30
0.0
 11
321.39999999999998
 21
451.8561980899396
 31
0.0
  0
LINE
  5
7FC
  8
DATA
  6
CONTINUOUS
 62
     7
 10
321.39999999999998
 20
453.0
 30
0.0
 11
319.2000000000001
 21
453.0
 31
0.0
  0
LINE
  5
7FD
  8
DATA
  6
CONTINUOUS
 62
     7
 10
319.2000000000001
 20
453.0
 30
0.0
 11
319.2000000000001
 21
451.8561980899396
 31
0.0
  0
LINE
  5
7FE
  8
DATA
  6
CONTINUOUS
 62
     7
 10
324.79473434549078
 20
455.42170173801509
 30
0.0
 11
323.8288085192018
 21
455.68052078311757
 31
0.0
  0
LINE
  5
7FF
  8
DATA
  6
CONTINUOUS
 62
     7
 10
324.79473434549078
 20
455.42170173801509
 30
0.0
 11
325.00505423332282
 21
456.2066262452463
 31
0.0
  0
ARC
  5
800
  8
DATA
  6
CONTINUOUS
 62
     7
 10
324.7000000000001
 20
457.0
 30
0.0
 40
0.8499999999999914
 50
111.031879072469
 51
218.9681209275316
  0
ARC
  5
801
  8
DATA
  6
CONTINUOUS
 62
     7
 10
324.7000000000001
 20
457.0
 30
0.0
 40
0.8500000000000149
 50
291.03187907247042
 51
38.968120927529696
  0
LINE
  5
802
  8
DATA
  6
CONTINUOUS
 62
     7
 10
325.5711914807984
 20
458.31947921688231
 30
0.0
 11
324.60526565450931
 21
458.5782982619848
 31
0.0
  0
LINE
  5
803
  8
DATA
  6
CONTINUOUS
 62
     7
 10
324.60526565450931
 20
458.5782982619848
 30
0.0
 11
324.39494576667732
 21
457.79337375475359
 31
0.0
  0
LINE
  5
804
  8
DATA
  6
CONTINUOUS
 62
     7
 10
325.5711914807984
 20
458.31947921688231
 30
0.0
 11
325.3608715929663
 21
457.53455470965099
 31
0.0
  0
LINE
  5
805
  8
DATA
  6
CONTINUOUS
 62
     7
 10
323.8288085192018
 20
455.68052078311757
 30
0.0
 11
324.03912840703379
 21
456.46544529034878
 31
0.0
  0
POLYLINE
  5
806
  8
DATA
  6
CONTINUOUS
 62
     7
 66
     1
 10
0.0
 20
0.0
 30
0.0
 70
     1
  0
VERTEX
  5
C73
  8
DATA
  6
CONTINUOUS
 62
     7
 10
335.30000000000001
 20
458.1862639396133
 30
0.0
  0
VERTEX
  5
C74
  8
DATA
  6
CONTINUOUS
 62
     7
 10
337.73676690783918
 20
459.59313196980662
 30
0.0
  0
VERTEX
  5
C75
  8
DATA
  6
CONTINUOUS
 62
     7
 10
337.73676690783918
 20
462.40686803019321
 30
0.0
  0
VERTEX
  5
C76
  8
DATA
  6
CONTINUOUS
 62
     7
 10
335.30000000000001
 20
463.81373606038659
 30
0.0
  0
VERTEX
  5
C77
  8
DATA
  6
CONTINUOUS
 62
     7
 10
332.86323309216078
 20
462.40686803019321
 30
0.0
  0
VERTEX
  5
C78
  8
DATA
  6
CONTINUOUS
 62
     7
 10
332.86323309216078
 20
459.59313196980662
 30
0.0
  0
SEQEND
  5
C79
  8
DATA
  6
CONTINUOUS
 62
     7
  0
CIRCLE
  5
80E
  8
DATA
  6
CONTINUOUS
 62
     7
 10
335.30000000000001
 20
461.0
 30
0.0
 40
1.499999999999998
  0
POLYLINE
  5
80F
  8
DATA
  6
CONTINUOUS
 62
     7
 66
     1
 10
0.0
 20
0.0
 30
0.0
 70
     1
  0
VERTEX
  5
C7A
  8
DATA
  6
CONTINUOUS
 62
     7
 10
360.30000000000001
 20
458.1862639396133
 30
0.0
  0
VERTEX
  5
C7B
  8
DATA
  6
CONTINUOUS
 62
     7
 10
362.73676690783918
 20
459.59313196980662
 30
0.0
  0
VERTEX
  5
C7C
  8
DATA
  6
CONTINUOUS
 62
     7
 10
362.73676690783918
 20
462.40686803019321
 30
0.0
  0
VERTEX
  5
C7D
  8
DATA
  6
CONTINUOUS
 62
     7
 10
360.30000000000001
 20
463.81373606038659
 30
0.0
  0
VERTEX
  5
C7E
  8
DATA
  6
CONTINUOUS
 62
     7
 10
357.86323309216078
 20
462.40686803019321
 30
0.0
  0
VERTEX
  5
C7F
  8
DATA
  6
CONTINUOUS
 62
     7
 10
357.86323309216078
 20
459.59313196980662
 30
0.0
  0
SEQEND
  5
C80
  8
DATA
  6
CONTINUOUS
 62
     7
  0
CIRCLE
  5
817
  8
DATA
  6
CONTINUOUS
 62
     7
 10
360.30000000000001
 20
461.0
 30
0.0
 40
1.499999999999998
  0
ARC
  5
818
  8
DATA
  6
CONTINUOUS
 62
     7
 10
342.2947735340901
 20
458.7751065681756
 30
0.0
 40
2.3999999999999981
 50
179.99999999999989
 51
261.74056202012127
  0
ARC
  5
819
  8
DATA
  6
CONTINUOUS
 62
     7
 10
353.30522646590998
 20
458.7751065681756
 30
0.0
 40
2.399999999999995
 50
278.25943797987878
 51
0.0000000000001137
  0
LINE
  5
81A
  8
DATA
  6
CONTINUOUS
 62
     7
 10
341.94999999999999
 20
456.39999999999998
 30
0.0
 11
353.65000000000009
 21
456.39999999999998
 31
0.0
  0
LINE
  5
81B
  8
DATA
  6
CONTINUOUS
 62
     7
 10
340.71324766903462
 20
464.41348394223809
 30
0.0
 11
339.89477353409001
 21
458.7751065681756
 31
0.0
  0
ARC
  5
81C
  8
DATA
  6
CONTINUOUS
 62
     7
 10
342.1360270398182
 20
464.27159491208909
 30
0.0
 40
1.429836925947906
 50
87.435648395548938
 51
174.30491362457229
  0
ARC
  5
81D
  8
DATA
  6
CONTINUOUS
 62
     7
 10
353.46397296018171
 20
464.27159491208909
 30
0.0
 40
1.4298369259479109
 50
5.6950863754276932
 51
92.564351604451048
  0
LINE
  5
81E
  8
DATA
  6
CONTINUOUS
 62
     7
 10
342.19999999999999
 20
465.69999999999999
 30
0.0
 11
353.40000000000009
 21
465.69999999999999
 31
0.0
  0
LINE
  5
81F
  8
DATA
  6
CONTINUOUS
 62
     7
 10
354.88675233096541
 20
464.41348394223809
 30
0.0
 11
355.70522646591002
 21
458.7751065681756
 31
0.0
  0
CIRCLE
  5
820
  8
DATA
  6
CONTINUOUS
 62
     7
 10
347.80000000000001
 20
459.49999999999989
 30
0.0
 40
0.4999999999999992
  0
CIRCLE
  5
821
  8
DATA
  6
CONTINUOUS
 62
     7
 10
350.30000000000001
 20
459.49999999999989
 30
0.0
 40
0.4999999999999992
  0
CIRCLE
  5
822
  8
DATA
  6
CONTINUOUS
 62
     7
 10
352.80000000000001
 20
459.49999999999989
 30
0.0
 40
0.4999999999999992
  0
CIRCLE
  5
823
  8
DATA
  6
CONTINUOUS
 62
     7
 10
345.30000000000001
 20
459.49999999999989
 30
0.0
 40
0.4999999999999992
  0
CIRCLE
  5
824
  8
DATA
  6
CONTINUOUS
 62
     7
 10
342.80000000000001
 20
459.49999999999989
 30
0.0
 40
0.4999999999999992
  0
CIRCLE
  5
825
  8
DATA
  6
CONTINUOUS
 62
     7
 10
349.05000000000001
 20
462.5
 30
0.0
 40
0.4999999999999992
  0
CIRCLE
  5
826
  8
DATA
  6
CONTINUOUS
 62
     7
 10
351.55000000000001
 20
462.5
 30
0.0
 40
0.4999999999999992
  0
CIRCLE
  5
827
  8
DATA
  6
CONTINUOUS
 62
     7
 10
346.55000000000001
 20
462.5
 30
0.0
 40
0.4999999999999992
  0
CIRCLE
  5
828
  8
DATA
  6
CONTINUOUS
 62
     7
 10
344.05000000000001
 20
462.5
 30
0.0
 40
0.4999999999999992
  0
CIRCLE
  5
829
  8
DATA
  6
CONTINUOUS
 62
     7
 10
377.30000000000001
 20
461.0
 30
0.0
 40
6.4999999999999991
  0
POLYLINE
  5
82A
  8
DATA
  6
CONTINUOUS
 62
     7
 66
     1
 10
0.0
 20
0.0
 30
0.0
 70
     1
  0
VERTEX
  5
C81
  8
DATA
  6
CONTINUOUS
 62
     7
 10
376.80000000000001
 20
463.49999999999989
 30
0.0
  0
VERTEX
  5
C82
  8
DATA
  6
CONTINUOUS
 62
     7
 10
377.80000000000001
 20
463.49999999999989
 30
0.0
  0
VERTEX
  5
C83
  8
DATA
  6
CONTINUOUS
 62
     7
 10
377.80000000000001
 20
458.49999999999989
 30
0.0
  0
VERTEX
  5
C84
  8
DATA
  6
CONTINUOUS
 62
     7
 10
376.80000000000001
 20
458.49999999999989
 30
0.0
  0
SEQEND
  5
C85
  8
DATA
  6
CONTINUOUS
 62
     7
  0
CIRCLE
  5
830
  8
DATA
  6
CONTINUOUS
 62
     7
 10
377.30000000000001
 20
461.0
 30
0.0
 40
4.9999999999999991
  0
LINE
  5
831
  8
DATA
  6
CONTINUOUS
 62
     7
 10
406.30000000000001
 20
463.14999999999992
 30
0.0
 11
428.30000000000001
 21
463.14999999999992
 31
0.0
  0
LINE
  5
832
  8
DATA
  6
CONTINUOUS
 62
     7
 10
432.30000000000001
 20
459.14999999999992
 30
0.0
 11
432.30000000000001
 21
445.64999999999998
 31
0.0
  0
LINE
  5
833
  8
DATA
  6
CONTINUOUS
 62
     7
 10
402.30000000000001
 20
459.14999999999992
 30
0.0
 11
402.30000000000001
 21
445.64999999999998
 31
0.0
  0
LINE
  5
834
  8
DATA
  6
CONTINUOUS
 62
     7
 10
406.30000000000001
 20
441.64999999999998
 30
0.0
 11
428.30000000000001
 21
441.64999999999998
 31
0.0
  0
ARC
  5
835
  8
DATA
  6
CONTINUOUS
 62
     7
 10
406.30000000000001
 20
459.14999999999992
 30
0.0
 40
4.0
 50
90.0
 51
180.0
  0
ARC
  5
836
  8
DATA
  6
CONTINUOUS
 62
     7
 10
428.30000000000001
 20
459.14999999999992
 30
0.0
 40
4.0
 50
0.0
 51
90.0
  0
ARC
  5
837
  8
DATA
  6
CONTINUOUS
 62
     7
 10
428.30000000000001
 20
445.64999999999998
 30
0.0
 40
4.0
 50
270.0
 51
0.0
  0
ARC
  5
838
  8
DATA
  6
CONTINUOUS
 62
     7
 10
406.30000000000001
 20
445.64999999999998
 30
0.0
 40
4.0
 50
180.0
 51
270.0
  0
LINE
  5
839
  8
DATA
  6
CONTINUOUS
 62
     7
 10
429.39999999999992
 20
445.89999999999992
 30
0.0
 11
429.39999999999992
 21
455.45121951219483
 31
0.0
  0
LINE
  5
83A
  8
DATA
  6
CONTINUOUS
 62
     7
 10
424.39999999999992
 20
460.5
 30
0.0
 11
410.2000000000001
 21
460.5
 31
0.0
  0
LINE
  5
83B
  8
DATA
  6
CONTINUOUS
 62
     7
 10
405.19999999999987
 20
455.45121951219483
 30
0.0
 11
405.19999999999987
 21
446.25121951219489
 31
0.0
  0
LINE
  5
83C
  8
DATA
  6
CONTINUOUS
 62
     7
 10
407.19999999999999
 20
444.30000000000001
 30
0.0
 11
427.39999999999998
 21
444.30000000000001
 31
0.0
  0
ARC
  5
83D
  8
DATA
  6
CONTINUOUS
 62
     7
 10
427.61951219512201
 20
446.07560975609772
 30
0.0
 40
1.789127052435374
 50
262.95248888554579
 51
354.36712762263448
  0
ARC
  5
83E
  8
DATA
  6
CONTINUOUS
 62
     7
 10
406.98048780487801
 20
446.07560975609772
 30
0.0
 40
1.7891270524353831
 50
185.6328723773656
 51
277.0475111144541
  0
LINE
  5
83F
  8
DATA
  6
CONTINUOUS
 62
     7
 10
410.2000000000001
 20
460.5
 30
0.0
 11
405.19999999999987
 21
455.45121951219483
 31
0.0
  0
LINE
  5
840
  8
DATA
  6
CONTINUOUS
 62
     7
 10
424.39999999999992
 20
460.5
 30
0.0
 11
429.39999999999992
 21
455.45121951219483
 31
0.0
  0
POLYLINE
  5
841
  8
DATA
  6
CONTINUOUS
 62
     7
 66
     1
 10
0.0
 20
0.0
 30
0.0
 70
     1
  0
VERTEX
  5
C86
  8
DATA
  6
CONTINUOUS
 62
     7
 10
416.30000000000001
 20
456.0
 30
0.0
  0
VERTEX
  5
C87
  8
DATA
  6
CONTINUOUS
 62
     7
 10
418.2999999999999
 20
456.0
 30
0.0
  0
VERTEX
  5
C88
  8
DATA
  6
CONTINUOUS
 62
     7
 10
418.2999999999999
 20
452.0
 30
0.0
  0
VERTEX
  5
C89
  8
DATA
  6
CONTINUOUS
 62
     7
 10
416.30000000000001
 20
452.0
 30
0.0
  0
SEQEND
  5
C8A
  8
DATA
  6
CONTINUOUS
 62
     7
  0
POLYLINE
  5
847
  8
DATA
  6
CONTINUOUS
 62
     7
 66
     1
 10
0.0
 20
0.0
 30
0.0
 70
     1
  0
VERTEX
  5
C8B
  8
DATA
  6
CONTINUOUS
 62
     7
 10
423.30000000000001
 20
452.0
 30
0.0
  0
VERTEX
  5
C8C
  8
DATA
  6
CONTINUOUS
 62
     7
 10
425.30000000000001
 20
452.0
 30
0.0
  0
VERTEX
  5
C8D
  8
DATA
  6
CONTINUOUS
 62
     7
 10
425.30000000000001
 20
448.0
 30
0.0
  0
VERTEX
  5
C8E
  8
DATA
  6
CONTINUOUS
 62
     7
 10
423.30000000000001
 20
448.0
 30
0.0
  0
SEQEND
  5
C8F
  8
DATA
  6
CONTINUOUS
 62
     7
  0
POLYLINE
  5
84D
  8
DATA
  6
CONTINUOUS
 62
     7
 66
     1
 10
0.0
 20
0.0
 30
0.0
 70
     1
  0
VERTEX
  5
C90
  8
DATA
  6
CONTINUOUS
 62
     7
 10
409.2999999999999
 20
452.0
 30
0.0
  0
VERTEX
  5
C91
  8
DATA
  6
CONTINUOUS
 62
     7
 10
411.30000000000001
 20
452.0
 30
0.0
  0
VERTEX
  5
C92
  8
DATA
  6
CONTINUOUS
 62
     7
 10
411.30000000000001
 20
448.0
 30
0.0
  0
VERTEX
  5
C93
  8
DATA
  6
CONTINUOUS
 62
     7
 10
409.2999999999999
 20
448.0
 30
0.0
  0
SEQEND
  5
C94
  8
DATA
  6
CONTINUOUS
 62
     7
  0
CIRCLE
  5
853
  8
DATA
  6
CONTINUOUS
 62
     7
 10
397.30000000000001
 20
452.39999999999998
 30
0.0
 40
2.999999999999996
  0
POLYLINE
  5
854
  8
DATA
  6
CONTINUOUS
 62
     7
 66
     1
 10
0.0
 20
0.0
 30
0.0
  0
VERTEX
  5
C95
  8
DATA
  6
CONTINUOUS
 62
     7
 10
397.80000000000001
 20
452.89999999999992
 30
0.0
  0
VERTEX
  5
C96
  8
DATA
  6
CONTINUOUS
 62
     7
 10
397.80000000000001
 20
453.89999999999992
 30
0.0
  0
VERTEX
  5
C97
  8
DATA
  6
CONTINUOUS
 62
     7
 10
396.80000000000001
 20
453.89999999999992
 30
0.0
  0
VERTEX
  5
C98
  8
DATA
  6
CONTINUOUS
 62
     7
 10
396.80000000000001
 20
452.89999999999992
 30
0.0
  0
SEQEND
  5
C99
  8
DATA
  6
CONTINUOUS
 62
     7
  0
POLYLINE
  5
85A
  8
DATA
  6
CONTINUOUS
 62
     7
 66
     1
 10
0.0
 20
0.0
 30
0.0
  0
VERTEX
  5
C9A
  8
DATA
  6
CONTINUOUS
 62
     7
 10
397.80000000000001
 20
451.89999999999998
 30
0.0
  0
VERTEX
  5
C9B
  8
DATA
  6
CONTINUOUS
 62
     7
 10
397.80000000000001
 20
450.89999999999992
 30
0.0
  0
VERTEX
  5
C9C
  8
DATA
  6
CONTINUOUS
 62
     7
 10
396.80000000000001
 20
450.89999999999992
 30
0.0
  0
VERTEX
  5
C9D
  8
DATA
  6
CONTINUOUS
 62
     7
 10
396.80000000000001
 20
451.89999999999998
 30
0.0
  0
SEQEND
  5
C9E
  8
DATA
  6
CONTINUOUS
 62
     7
  0
CIRCLE
  5
860
  8
DATA
  6
CONTINUOUS
 62
     7
 10
397.30000000000001
 20
452.39999999999998
 30
0.0
 40
2.999999999999996
  0
POLYLINE
  5
861
  8
DATA
  6
CONTINUOUS
 62
     7
 66
     1
 10
0.0
 20
0.0
 30
0.0
  0
VERTEX
  5
C9F
  8
DATA
  6
CONTINUOUS
 62
     7
 10
397.80000000000001
 20
451.89999999999998
 30
0.0
  0
VERTEX
  5
CA0
  8
DATA
  6
CONTINUOUS
 62
     7
 10
398.80000000000001
 20
451.89999999999998
 30
0.0
  0
VERTEX
  5
CA1
  8
DATA
  6
CONTINUOUS
 62
     7
 10
398.80000000000001
 20
452.89999999999992
 30
0.0
  0
VERTEX
  5
CA2
  8
DATA
  6
CONTINUOUS
 62
     7
 10
397.80000000000001
 20
452.89999999999992
 30
0.0
  0
SEQEND
  5
CA3
  8
DATA
  6
CONTINUOUS
 62
     7
  0
POLYLINE
  5
867
  8
DATA
  6
CONTINUOUS
 62
     7
 66
     1
 10
0.0
 20
0.0
 30
0.0
  0
VERTEX
  5
CA4
  8
DATA
  6
CONTINUOUS
 62
     7
 10
396.80000000000001
 20
451.89999999999998
 30
0.0
  0
VERTEX
  5
CA5
  8
DATA
  6
CONTINUOUS
 62
     7
 10
395.80000000000001
 20
451.89999999999998
 30
0.0
  0
VERTEX
  5
CA6
  8
DATA
  6
CONTINUOUS
 62
     7
 10
395.80000000000001
 20
452.89999999999992
 30
0.0
  0
VERTEX
  5
CA7
  8
DATA
  6
CONTINUOUS
 62
     7
 10
396.80000000000001
 20
452.89999999999992
 30
0.0
  0
SEQEND
  5
CA8
  8
DATA
  6
CONTINUOUS
 62
     7
  0
CIRCLE
  5
86D
  8
DATA
  6
CONTINUOUS
 62
     7
 10
437.30000000000001
 20
452.39999999999998
 30
0.0
 40
2.9999999999999929
  0
POLYLINE
  5
86E
  8
DATA
  6
CONTINUOUS
 62
     7
 66
     1
 10
0.0
 20
0.0
 30
0.0
  0
VERTEX
  5
CA9
  8
DATA
  6
CONTINUOUS
 62
     7
 10
437.80000000000001
 20
452.89999999999992
 30
0.0
  0
VERTEX
  5
CAA
  8
DATA
  6
CONTINUOUS
 62
     7
 10
437.80000000000001
 20
453.89999999999992
 30
0.0
  0
VERTEX
  5
CAB
  8
DATA
  6
CONTINUOUS
 62
     7
 10
436.80000000000001
 20
453.89999999999992
 30
0.0
  0
VERTEX
  5
CAC
  8
DATA
  6
CONTINUOUS
 62
     7
 10
436.80000000000001
 20
452.89999999999992
 30
0.0
  0
SEQEND
  5
CAD
  8
DATA
  6
CONTINUOUS
 62
     7
  0
POLYLINE
  5
874
  8
DATA
  6
CONTINUOUS
 62
     7
 66
     1
 10
0.0
 20
0.0
 30
0.0
  0
VERTEX
  5
CAE
  8
DATA
  6
CONTINUOUS
 62
     7
 10
437.80000000000001
 20
451.89999999999998
 30
0.0
  0
VERTEX
  5
CAF
  8
DATA
  6
CONTINUOUS
 62
     7
 10
437.80000000000001
 20
450.89999999999992
 30
0.0
  0
VERTEX
  5
CB0
  8
DATA
  6
CONTINUOUS
 62
     7
 10
436.80000000000001
 20
450.89999999999992
 30
0.0
  0
VERTEX
  5
CB1
  8
DATA
  6
CONTINUOUS
 62
     7
 10
436.80000000000001
 20
451.89999999999998
 30
0.0
  0
SEQEND
  5
CB2
  8
DATA
  6
CONTINUOUS
 62
     7
  0
CIRCLE
  5
87A
  8
DATA
  6
CONTINUOUS
 62
     7
 10
437.30000000000001
 20
452.39999999999998
 30
0.0
 40
3.0
  0
POLYLINE
  5
87B
  8
DATA
  6
CONTINUOUS
 62
     7
 66
     1
 10
0.0
 20
0.0
 30
0.0
  0
VERTEX
  5
CB3
  8
DATA
  6
CONTINUOUS
 62
     7
 10
437.80000000000001
 20
451.89999999999998
 30
0.0
  0
VERTEX
  5
CB4
  8
DATA
  6
CONTINUOUS
 62
     7
 10
438.7999999999999
 20
451.89999999999998
 30
0.0
  0
VERTEX
  5
CB5
  8
DATA
  6
CONTINUOUS
 62
     7
 10
438.7999999999999
 20
452.89999999999992
 30
0.0
  0
VERTEX
  5
CB6
  8
DATA
  6
CONTINUOUS
 62
     7
 10
437.80000000000001
 20
452.89999999999992
 30
0.0
  0
SEQEND
  5
CB7
  8
DATA
  6
CONTINUOUS
 62
     7
  0
POLYLINE
  5
881
  8
DATA
  6
CONTINUOUS
 62
     7
 66
     1
 10
0.0
 20
0.0
 30
0.0
  0
VERTEX
  5
CB8
  8
DATA
  6
CONTINUOUS
 62
     7
 10
436.80000000000001
 20
451.89999999999998
 30
0.0
  0
VERTEX
  5
CB9
  8
DATA
  6
CONTINUOUS
 62
     7
 10
435.80000000000001
 20
451.89999999999998
 30
0.0
  0
VERTEX
  5
CBA
  8
DATA
  6
CONTINUOUS
 62
     7
 10
435.80000000000001
 20
452.89999999999992
 30
0.0
  0
VERTEX
  5
CBB
  8
DATA
  6
CONTINUOUS
 62
     7
 10
436.80000000000001
 20
452.89999999999992
 30
0.0
  0
SEQEND
  5
CBC
  8
DATA
  6
CONTINUOUS
 62
     7
  0
ARC
  5
887
  8
DATA
  6
CONTINUOUS
 62
     7
 10
123.3
 20
436.5
 30
0.0
 40
4.0
 50
0.0
 51
180.0
  0
ARC
  5
888
  8
DATA
  6
CONTINUOUS
 62
     7
 10
359.30000000000001
 20
436.5
 30
0.0
 40
4.0
 50
0.0
 51
180.0
  0
LINE
  5
889
  8
DATA
  6
CONTINUOUS
 62
     7
 10
754.4000000000002
 20
37.5
 30
0.0
 11
753.4000000000002
 21
37.5
 31
0.0
  0
LINE
  5
88A
  8
DATA
  6
CONTINUOUS
 62
     7
 10
120.15000000000001
 20
330.39999999999998
 30
0.0
 11
126.45
 21
330.39999999999998
 31
0.0
  0
ARC
  5
88B
  8
DATA
  6
CONTINUOUS
 62
     7
 10
123.3
 20
327.84250000000009
 30
0.0
 40
4.0574999999998909
 50
39.07330987625604
 51
140.92669012374461
  0
LINE
  5
88C
  8
DATA
  6
CONTINUOUS
 62
     7
 10
356.15000000000009
 20
330.39999999999998
 30
0.0
 11
362.44999999999999
 21
330.39999999999998
 31
0.0
  0
ARC
  5
88D
  8
DATA
  6
CONTINUOUS
 62
     7
 10
359.30000000000001
 20
327.84250000000009
 30
0.0
 40
4.057499999999977
 50
39.073309876256602
 51
140.92669012374341
  0
LINE
  5
88E
  8
DATA
  6
CONTINUOUS
 62
     7
 10
46.801679839710459
 20
334.39999999999998
 30
0.0
 11
46.801679839710459
 21
333.89999999999998
 31
0.0
  0
LINE
  5
88F
  8
DATA
  6
CONTINUOUS
 62
     7
 10
56.801938493199032
 20
334.39999999999998
 30
0.0
 11
56.801938493199032
 21
333.89999999999998
 31
0.0
  0
LINE
  5
890
  8
DATA
  6
CONTINUOUS
 62
     7
 10
46.801679839710459
 20
334.39999999999998
 30
0.0
 11
56.801938493199032
 21
334.39999999999998
 31
0.0
  0
LINE
  5
891
  8
DATA
  6
CONTINUOUS
 62
     7
 10
46.801679839710459
 20
333.89999999999998
 30
0.0
 11
56.801938493199032
 21
333.89999999999998
 31
0.0
  0
LINE
  5
892
  8
DATA
  6
CONTINUOUS
 62
     7
 10
54.300000000000011
 20
333.89999999999998
 30
0.0
 11
54.300000000000011
 21
330.39999999999998
 31
0.0
  0
LINE
  5
893
  8
DATA
  6
CONTINUOUS
 62
     7
 10
49.300000000000011
 20
333.89999999999998
 30
0.0
 11
49.300000000000011
 21
330.39999999999998
 31
0.0
  0
LINE
  5
894
  8
DATA
  6
CONTINUOUS
 62
     7
 10
72.801679839710459
 20
334.39999999999998
 30
0.0
 11
72.801679839710459
 21
333.89999999999998
 31
0.0
  0
LINE
  5
895
  8
DATA
  6
CONTINUOUS
 62
     7
 10
82.801938493199017
 20
334.39999999999998
 30
0.0
 11
82.801938493199017
 21
333.89999999999998
 31
0.0
  0
LINE
  5
896
  8
DATA
  6
CONTINUOUS
 62
     7
 10
72.801679839710459
 20
334.39999999999998
 30
0.0
 11
82.801938493199017
 21
334.39999999999998
 31
0.0
  0
LINE
  5
897
  8
DATA
  6
CONTINUOUS
 62
     7
 10
72.801679839710459
 20
333.89999999999998
 30
0.0
 11
82.801938493199017
 21
333.89999999999998
 31
0.0
  0
LINE
  5
898
  8
DATA
  6
CONTINUOUS
 62
     7
 10
80.300000000000026
 20
333.89999999999998
 30
0.0
 11
80.300000000000026
 21
330.39999999999998
 31
0.0
  0
LINE
  5
899
  8
DATA
  6
CONTINUOUS
 62
     7
 10
75.300000000000026
 20
333.89999999999998
 30
0.0
 11
75.300000000000026
 21
330.39999999999998
 31
0.0
  0
LINE
  5
89A
  8
DATA
  6
CONTINUOUS
 62
     7
 10
332.86323309216078
 20
333.89999999999998
 30
0.0
 11
332.86323309216078
 21
330.39999999999998
 31
0.0
  0
LINE
  5
89B
  8
DATA
  6
CONTINUOUS
 62
     7
 10
337.73676690783918
 20
333.89999999999998
 30
0.0
 11
337.73676690783918
 21
330.39999999999998
 31
0.0
  0
LINE
  5
89C
  8
DATA
  6
CONTINUOUS
 62
     7
 10
339.89477353409001
 20
334.39999999999998
 30
0.0
 11
339.89477353409001
 21
330.39999999999998
 31
0.0
  0
LINE
  5
89D
  8
DATA
  6
CONTINUOUS
 62
     7
 10
355.70522646591002
 20
334.39999999999998
 30
0.0
 11
355.70522646591002
 21
330.39999999999998
 31
0.0
  0
LINE
  5
89E
  8
DATA
  6
CONTINUOUS
 62
     7
 10
357.86323309216078
 20
333.89999999999998
 30
0.0
 11
357.86323309216078
 21
331.63710236421917
 31
0.0
  0
LINE
  5
89F
  8
DATA
  6
CONTINUOUS
 62
     7
 10
362.73676690783918
 20
333.89999999999998
 30
0.0
 11
362.73676690783918
 21
330.39999999999998
 31
0.0
  0
LINE
  5
8A0
  8
DATA
  6
CONTINUOUS
 62
     7
 10
332.86323309216078
 20
333.89999999999998
 30
0.0
 11
337.73676690783918
 21
333.89999999999998
 31
0.0
  0
LINE
  5
8A1
  8
DATA
  6
CONTINUOUS
 62
     7
 10
339.89477353409001
 20
334.39999999999998
 30
0.0
 11
355.70522646591002
 21
334.39999999999998
 31
0.0
  0
LINE
  5
8A2
  8
DATA
  6
CONTINUOUS
 62
     7
 10
357.86323309216078
 20
333.89999999999998
 30
0.0
 11
362.73676690783918
 21
333.89999999999998
 31
0.0
  0
LINE
  5
8A3
  8
DATA
  6
CONTINUOUS
 62
     7
 10
370.80000000000001
 20
331.39999999999998
 30
0.0
 11
370.80000000000001
 21
330.39999999999998
 31
0.0
  0
LINE
  5
8A4
  8
DATA
  6
CONTINUOUS
 62
     7
 10
383.80000000000001
 20
331.39999999999998
 30
0.0
 11
383.80000000000001
 21
330.39999999999998
 31
0.0
  0
LINE
  5
8A5
  8
DATA
  6
CONTINUOUS
 62
     7
 10
370.80000000000001
 20
331.39999999999998
 30
0.0
 11
383.80000000000001
 21
331.39999999999998
 31
0.0
  0
LINE
  5
8A6
  8
DATA
  6
CONTINUOUS
 62
     7
 10
24.300000000000011
 20
442.0
 30
0.0
 11
25.300000000000011
 21
442.0
 31
0.0
  0
LINE
  5
8A7
  8
DATA
  6
CONTINUOUS
 62
     7
 10
458.30000000000001
 20
442.0
 30
0.0
 11
457.30000000000001
 21
442.0
 31
0.0
  0
LINE
  5
8A8
  8
DATA
  6
CONTINUOUS
 62
     7
 10
458.30000000000001
 20
431.0
 30
0.0
 11
24.300000000000011
 21
431.0
 31
0.0
  0
LINE
  5
8A9
  8
DATA
  6
CONTINUOUS
 62
     7
 10
25.300000000000011
 20
473.5
 30
0.0
 11
457.30000000000001
 21
473.5
 31
0.0
  0
CIRCLE
  5
8AA
  8
DATA
  6
CONTINUOUS
 62
     7
 10
67.800000000000011
 20
464.0
 30
0.0
 40
2.49999999999998
  0
POLYLINE
  5
8AB
  8
DATA
  6
CONTINUOUS
 62
     7
 66
     1
 10
0.0
 20
0.0
 30
0.0
  0
VERTEX
  5
CBD
  8
DATA
  6
CONTINUOUS
 62
     7
 10
68.300000000000011
 20
463.49999999999989
 30
0.0
  0
VERTEX
  5
CBE
  8
DATA
  6
CONTINUOUS
 62
     7
 10
69.300000000000011
 20
463.49999999999989
 30
0.0
  0
VERTEX
  5
CBF
  8
DATA
  6
CONTINUOUS
 62
     7
 10
69.300000000000011
 20
464.5
 30
0.0
  0
VERTEX
  5
CC0
  8
DATA
  6
CONTINUOUS
 62
     7
 10
68.300000000000011
 20
464.5
 30
0.0
  0
SEQEND
  5
CC1
  8
DATA
  6
CONTINUOUS
 62
     7
  0
POLYLINE
  5
8B1
  8
DATA
  6
CONTINUOUS
 62
     7
 66
     1
 10
0.0
 20
0.0
 30
0.0
  0
VERTEX
  5
CC2
  8
DATA
  6
CONTINUOUS
 62
     7
 10
67.300000000000011
 20
463.49999999999989
 30
0.0
  0
VERTEX
  5
CC3
  8
DATA
  6
CONTINUOUS
 62
     7
 10
66.300000000000011
 20
463.49999999999989
 30
0.0
  0
VERTEX
  5
CC4
  8
DATA
  6
CONTINUOUS
 62
     7
 10
66.300000000000011
 20
464.5
 30
0.0
  0
VERTEX
  5
CC5
  8
DATA
  6
CONTINUOUS
 62
     7
 10
67.300000000000011
 20
464.5
 30
0.0
  0
SEQEND
  5
CC6
  8
DATA
  6
CONTINUOUS
 62
     7
  0
CIRCLE
  5
8B7
  8
DATA
  6
CONTINUOUS
 62
     7
 10
67.800000000000011
 20
464.0
 30
0.0
 40
2.499999999999988
  0
POLYLINE
  5
8B8
  8
DATA
  6
CONTINUOUS
 62
     7
 66
     1
 10
0.0
 20
0.0
 30
0.0
  0
VERTEX
  5
CC7
  8
DATA
  6
CONTINUOUS
 62
     7
 10
68.300000000000011
 20
464.5
 30
0.0
  0
VERTEX
  5
CC8
  8
DATA
  6
CONTINUOUS
 62
     7
 10
68.300000000000011
 20
465.5
 30
0.0
  0
VERTEX
  5
CC9
  8
DATA
  6
CONTINUOUS
 62
     7
 10
67.300000000000011
 20
465.5
 30
0.0
  0
VERTEX
  5
CCA
  8
DATA
  6
CONTINUOUS
 62
     7
 10
67.300000000000011
 20
464.5
 30
0.0
  0
SEQEND
  5
CCB
  8
DATA
  6
CONTINUOUS
 62
     7
  0
POLYLINE
  5
8BE
  8
DATA
  6
CONTINUOUS
 62
     7
 66
     1
 10
0.0
 20
0.0
 30
0.0
  0
VERTEX
  5
CCC
  8
DATA
  6
CONTINUOUS
 62
     7
 10
68.300000000000011
 20
463.49999999999989
 30
0.0
  0
VERTEX
  5
CCD
  8
DATA
  6
CONTINUOUS
 62
     7
 10
68.300000000000011
 20
462.5
 30
0.0
  0
VERTEX
  5
CCE
  8
DATA
  6
CONTINUOUS
 62
     7
 10
67.300000000000011
 20
462.5
 30
0.0
  0
VERTEX
  5
CCF
  8
DATA
  6
CONTINUOUS
 62
     7
 10
67.300000000000011
 20
463.49999999999989
 30
0.0
  0
SEQEND
  5
CD0
  8
DATA
  6
CONTINUOUS
 62
     7
  0
CIRCLE
  5
8C4
  8
DATA
  6
CONTINUOUS
 62
     7
 10
87.800000000000026
 20
444.0
 30
0.0
 40
2.49999999999998
  0
POLYLINE
  5
8C5
  8
DATA
  6
CONTINUOUS
 62
     7
 66
     1
 10
0.0
 20
0.0
 30
0.0
  0
VERTEX
  5
CD1
  8
DATA
  6
CONTINUOUS
 62
     7
 10
87.300000000000026
 20
444.5
 30
0.0
  0
VERTEX
  5
CD2
  8
DATA
  6
CONTINUOUS
 62
     7
 10
86.300000000000026
 20
444.5
 30
0.0
  0
VERTEX
  5
CD3
  8
DATA
  6
CONTINUOUS
 62
     7
 10
86.300000000000026
 20
443.5
 30
0.0
  0
VERTEX
  5
CD4
  8
DATA
  6
CONTINUOUS
 62
     7
 10
87.300000000000026
 20
443.5
 30
0.0
  0
SEQEND
  5
CD5
  8
DATA
  6
CONTINUOUS
 62
     7
  0
POLYLINE
  5
8CB
  8
DATA
  6
CONTINUOUS
 62
     7
 66
     1
 10
0.0
 20
0.0
 30
0.0
  0
VERTEX
  5
CD6
  8
DATA
  6
CONTINUOUS
 62
     7
 10
88.300000000000026
 20
444.5
 30
0.0
  0
VERTEX
  5
CD7
  8
DATA
  6
CONTINUOUS
 62
     7
 10
89.300000000000026
 20
444.5
 30
0.0
  0
VERTEX
  5
CD8
  8
DATA
  6
CONTINUOUS
 62
     7
 10
89.300000000000026
 20
443.5
 30
0.0
  0
VERTEX
  5
CD9
  8
DATA
  6
CONTINUOUS
 62
     7
 10
88.300000000000026
 20
443.5
 30
0.0
  0
SEQEND
  5
CDA
  8
DATA
  6
CONTINUOUS
 62
     7
  0
CIRCLE
  5
8D1
  8
DATA
  6
CONTINUOUS
 62
     7
 10
87.800000000000026
 20
444.0
 30
0.0
 40
2.499999999999988
  0
POLYLINE
  5
8D2
  8
DATA
  6
CONTINUOUS
 62
     7
 66
     1
 10
0.0
 20
0.0
 30
0.0
  0
VERTEX
  5
CDB
  8
DATA
  6
CONTINUOUS
 62
     7
 10
87.300000000000026
 20
443.5
 30
0.0
  0
VERTEX
  5
CDC
  8
DATA
  6
CONTINUOUS
 62
     7
 10
87.300000000000026
 20
442.49999999999989
 30
0.0
  0
VERTEX
  5
CDD
  8
DATA
  6
CONTINUOUS
 62
     7
 10
88.300000000000026
 20
442.49999999999989
 30
0.0
  0
VERTEX
  5
CDE
  8
DATA
  6
CONTINUOUS
 62
     7
 10
88.300000000000026
 20
443.5
 30
0.0
  0
SEQEND
  5
CDF
  8
DATA
  6
CONTINUOUS
 62
     7
  0
POLYLINE
  5
8D8
  8
DATA
  6
CONTINUOUS
 62
     7
 66
     1
 10
0.0
 20
0.0
 30
0.0
  0
VERTEX
  5
CE0
  8
DATA
  6
CONTINUOUS
 62
     7
 10
87.300000000000026
 20
444.5
 30
0.0
  0
VERTEX
  5
CE1
  8
DATA
  6
CONTINUOUS
 62
     7
 10
87.300000000000026
 20
445.5
 30
0.0
  0
VERTEX
  5
CE2
  8
DATA
  6
CONTINUOUS
 62
     7
 10
88.300000000000026
 20
445.5
 30
0.0
  0
VERTEX
  5
CE3
  8
DATA
  6
CONTINUOUS
 62
     7
 10
88.300000000000026
 20
444.5
 30
0.0
  0
SEQEND
  5
CE4
  8
DATA
  6
CONTINUOUS
 62
     7
  0
LINE
  5
8DE
  8
DATA
  6
CONTINUOUS
 62
     7
 10
6.8500000000000227
 20
471.25
 30
0.0
 11
10.150000000000031
 21
471.25
 31
0.0
  0
LINE
  5
8DF
  8
DATA
  6
CONTINUOUS
 62
     7
 10
6.8500000000000227
 20
464.14999999999992
 30
0.0
 11
10.150000000000031
 21
464.14999999999992
 31
0.0
  0
ARC
  5
8E0
  8
DATA
  6
CONTINUOUS
 62
     7
 10
6.849999999999965
 20
467.69999999999987
 30
0.0
 40
3.5500000000000109
 50
90.0
 51
270.0
  0
ARC
  5
8E1
  8
DATA
  6
CONTINUOUS
 62
     7
 10
10.150000000000031
 20
467.69999999999987
 30
0.0
 40
3.5500000000000109
 50
270.0
 51
90.0
  0
LINE
  5
8E2
  8
DATA
  6
CONTINUOUS
 62
     7
 10
6.8500000000000227
 20
439.85000000000002
 30
0.0
 11
10.150000000000031
 21
439.85000000000002
 31
0.0
  0
LINE
  5
8E3
  8
DATA
  6
CONTINUOUS
 62
     7
 10
6.8500000000000227
 20
432.74999999999989
 30
0.0
 11
10.150000000000031
 21
432.74999999999989
 31
0.0
  0
ARC
  5
8E4
  8
DATA
  6
CONTINUOUS
 62
     7
 10
6.849999999999965
 20
436.30000000000001
 30
0.0
 40
3.5500000000000109
 50
90.0
 51
270.0
  0
ARC
  5
8E5
  8
DATA
  6
CONTINUOUS
 62
     7
 10
10.150000000000031
 20
436.30000000000001
 30
0.0
 40
3.5500000000000109
 50
270.0
 51
90.0
  0
LINE
  5
8E6
  8
DATA
  6
CONTINUOUS
 62
     7
 10
476.14999999999992
 20
471.25
 30
0.0
 11
472.85000000000002
 21
471.25
 31
0.0
  0
LINE
  5
8E7
  8
DATA
  6
CONTINUOUS
 62
     7
 10
476.14999999999992
 20
464.14999999999992
 30
0.0
 11
472.85000000000002
 21
464.14999999999992
 31
0.0
  0
ARC
  5
8E8
  8
DATA
  6
CONTINUOUS
 62
     7
 10
476.14999999999992
 20
467.69999999999987
 30
0.0
 40
3.5500000000000109
 50
270.0
 51
90.0
  0
ARC
  5
8E9
  8
DATA
  6
CONTINUOUS
 62
     7
 10
472.85000000000002
 20
467.69999999999987
 30
0.0
 40
3.5500000000000109
 50
90.0
 51
270.0
  0
LINE
  5
8EA
  8
DATA
  6
CONTINUOUS
 62
     7
 10
476.14999999999992
 20
439.85000000000002
 30
0.0
 11
472.85000000000002
 21
439.85000000000002
 31
0.0
  0
LINE
  5
8EB
  8
DATA
  6
CONTINUOUS
 62
     7
 10
476.14999999999992
 20
432.74999999999989
 30
0.0
 11
472.85000000000002
 21
432.74999999999989
 31
0.0
  0
ARC
  5
8EC
  8
DATA
  6
CONTINUOUS
 62
     7
 10
476.14999999999992
 20
436.30000000000001
 30
0.0
 40
3.5500000000000109
 50
270.0
 51
90.0
  0
ARC
  5
8ED
  8
DATA
  6
CONTINUOUS
 62
     7
 10
472.85000000000002
 20
436.30000000000001
 30
0.0
 40
3.5500000000000109
 50
90.0
 51
270.0
  0
TEXT
  5
8EE
  8
DATA
 62
     7
 10
70.400331439393923
 20
440.01165719696968
 30
0.0
 40
2.693359375
  1
INPUTS
 50
180.0
 41
0.85
 11
70.400331439393923
 21
437.31829782196968
 31
0.0
 73
     3
  0
LINE
  5
8EF
  8
DATA
  6
CONTINUOUS
 62
     7
 10
65.0
 20
458.0
 30
0.0
 11
64.800000000000011
 21
458.0
 31
0.0
  0
LINE
  5
8F0
  8
DATA
  6
CONTINUOUS
 62
     7
 10
91.291666666666686
 20
438.49999999999989
 30
0.0
 11
82.463007484233486
 21
438.49999999999989
 31
0.0
  0
LINE
  5
8F1
  8
DATA
  6
CONTINUOUS
 62
     7
 10
92.299999999999997
 20
439.50833333333333
 30
0.0
 11
92.299999999999997
 21
469.9916666666665
 31
0.0
  0
LINE
  5
8F2
  8
DATA
  6
CONTINUOUS
 62
     7
 10
91.291666666666686
 20
471.0
 30
0.0
 11
32.808333333333337
 21
471.0
 31
0.0
  0
ARC
  5
8F3
  8
DATA
  6
CONTINUOUS
 62
     7
 10
91.270833333333314
 20
469.97083333333319
 30
0.0
 40
1.0293775087671271
 50
1.159675208483864
 51
88.840324791514377
  0
ARC
  5
8F4
  8
DATA
  6
CONTINUOUS
 62
     7
 10
91.270833333333314
 20
439.5291666666667
 30
0.0
 40
1.0293775087670991
 50
271.15967520848568
 51
358.84032479151631
  0
LINE
  5
8F5
  8
DATA
  6
CONTINUOUS
 62
     7
 10
31.800000000000011
 20
439.50833333333333
 30
0.0
 11
31.800000000000011
 21
469.9916666666665
 31
0.0
  0
ARC
  5
8F6
  8
DATA
  6
CONTINUOUS
 62
     7
 10
32.829166666666723
 20
469.97083333333319
 30
0.0
 40
1.0293775087671031
 50
91.159675208485694
 51
178.84032479151611
  0
ARC
  5
8F7
  8
DATA
  6
CONTINUOUS
 62
     7
 10
32.829166666666723
 20
439.5291666666667
 30
0.0
 40
1.0293775087671271
 50
181.15967520848361
 51
268.84032479151432
  0
LINE
  5
8F8
  8
DATA
  6
CONTINUOUS
 62
     7
 10
32.808333333333337
 20
438.49999999999989
 30
0.0
 11
47.136992515760987
 21
438.49999999999989
 31
0.0
  0
LINE
  5
8F9
  8
DATA
  6
CONTINUOUS
 62
     7
 10
56.463007484233522
 20
438.49999999999989
 30
0.0
 11
59.0
 21
438.49999999999989
 31
0.0
  0
LINE
  5
8FA
  8
DATA
  6
CONTINUOUS
 62
     7
 10
71.0
 20
438.49999999999989
 30
0.0
 11
73.13699251576098
 21
438.49999999999989
 31
0.0
  0
TEXT
  5
8FB
  8
DATA
 62
     7
 10
78.800662878788003
 20
469.00999999999999
 30
0.0
 40
2.693359375
  1
B
 50
180.0
 41
0.85
 11
78.800662878788003
 21
466.31664062499999
 31
0.0
 73
     3
  0
TEXT
  5
8FC
  8
DATA
 62
     7
 10
52.75
 20
469.00999999999999
 30
0.0
 40
2.693359375
  1
A
 50
180.0
 41
0.85
 11
52.75
 21
466.31664062499999
 31
0.0
 73
     3
  0
TEXT
  5
8FD
  8
DATA
 62
     7
 10
211.40033143939399
 20
440.01165719696968
 30
0.0
 40
2.693359375
  1
FLOATING BALANCED OUTPUTS
 50
180.0
 41
0.85
 11
211.40033143939399
 21
437.31829782196968
 31
0.0
 73
     3
  0
LINE
  5
8FE
  8
DATA
  6
CONTINUOUS
 62
     7
 10
119.8
 20
439.50833333333333
 30
0.0
 11
119.8
 21
469.9916666666665
 31
0.0
  0
ARC
  5
8FF
  8
DATA
  6
CONTINUOUS
 62
     7
 10
120.82916666666669
 20
469.97083333333319
 30
0.0
 40
1.0293775087671031
 50
91.159675208485694
 51
178.840324791516
  0
ARC
  5
900
  8
DATA
  6
CONTINUOUS
 62
     7
 10
120.82916666666669
 20
439.5291666666667
 30
0.0
 40
1.0293775087671271
 50
181.15967520848361
 51
221.62825121159781
  0
LINE
  5
901
  8
DATA
  6
CONTINUOUS
 62
     7
 10
262.80000000000001
 20
439.50833333333333
 30
0.0
 11
262.80000000000001
 21
469.9916666666665
 31
0.0
  0
ARC
  5
902
  8
DATA
  6
CONTINUOUS
 62
     7
 10
261.7708333333332
 20
469.97083333333319
 30
0.0
 40
1.0293775087671271
 50
1.159675208483864
 51
88.840324791514377
  0
ARC
  5
903
  8
DATA
  6
CONTINUOUS
 62
     7
 10
261.7708333333332
 20
439.5291666666667
 30
0.0
 40
1.0293775087670991
 50
271.15967520848568
 51
358.84032479151631
  0
LINE
  5
904
  8
DATA
  6
CONTINUOUS
 62
     7
 10
120.80833333333329
 20
471.0
 30
0.0
 11
261.79166666666669
 21
471.0
 31
0.0
  0
LINE
  5
905
  8
DATA
  6
CONTINUOUS
 62
     7
 10
261.79166666666669
 20
438.49999999999989
 30
0.0
 11
213.30000000000001
 21
438.49999999999989
 31
0.0
  0
LINE
  5
906
  8
DATA
  6
CONTINUOUS
 62
     7
 10
126.7641016151378
 20
438.49999999999989
 30
0.0
 11
165.30000000000001
 21
438.49999999999989
 31
0.0
  0
TEXT
  5
907
  8
DATA
 62
     7
 10
134.17500000000001
 20
469.00999999999999
 30
0.0
 40
2.693359375
  1
1
 50
180.0
 41
0.85
 11
134.17500000000001
 21
466.31664062499999
 31
0.0
 73
     3
  0
TEXT
  5
908
  8
DATA
 62
     7
 10
157.17500000000001
 20
469.00999999999999
 30
0.0
 40
2.693359375
  1
2
 50
180.0
 41
0.85
 11
157.17500000000001
 21
466.31664062499999
 31
0.0
 73
     3
  0
TEXT
  5
909
  8
DATA
 62
     7
 10
180.17500000000001
 20
469.00999999999999
 30
0.0
 40
2.693359375
  1
3
 50
180.0
 41
0.85
 11
180.17500000000001
 21
466.31664062499999
 31
0.0
 73
     3
  0
TEXT
  5
90A
  8
DATA
 62
     7
 10
203.17500000000001
 20
469.00999999999999
 30
0.0
 40
2.693359375
  1
4
 50
180.0
 41
0.85
 11
203.17500000000001
 21
466.31664062499999
 31
0.0
 73
     3
  0
TEXT
  5
90B
  8
DATA
 62
     7
 10
226.17500000000001
 20
469.00999999999999
 30
0.0
 40
2.693359375
  1
5
 50
180.0
 41
0.85
 11
226.17500000000001
 21
466.31664062499999
 31
0.0
 73
     3
  0
TEXT
  5
90C
  8
DATA
 62
     7
 10
249.17500000000001
 20
469.00999999999999
 30
0.0
 40
2.693359375
  1
6
 50
180.0
 41
0.85
 11
249.17500000000001
 21
466.31664062499999
 31
0.0
 73
     3
  0
TEXT
  5
90D
  8
DATA
 62
     7
 10
286.42500000000001
 20
469.00999999999999
 30
0.0
 40
2.693359375
  1
MIDI IN
 50
180.0
 41
0.85
 11
286.42500000000001
 21
466.31664062499999
 31
0.0
 73
     3
  0
TEXT
  5
90E
  8
DATA
 62
     7
 10
307.42500000000001
 20
469.00999999999999
 30
0.0
 40
2.693359375
  1
MIDITHRU
 50
180.0
 41
0.85
 11
307.42500000000001
 21
466.31664062499999
 31
0.0
 73
     3
  0
TEXT
  5
90F
  8
DATA
 62
     7
 10
327.42500000000001
 20
469.00999999999999
 30
0.0
 40
2.693359375
  1
MIDI OUT
 50
180.0
 41
0.85
 11
327.42500000000001
 21
466.31664062499999
 31
0.0
 73
     3
  0
TEXT
  5
910
  8
DATA
 62
     7
 10
352.4797277716886
 20
453.3882849302035
 30
0.0
 40
2.693359375
  1
RS232
 50
180.0
 41
0.85
 11
352.4797277716886
 21
450.69492555520361
 31
0.0
 73
     3
  0
LINE
  5
911
  8
DATA
  6
CONTINUOUS
 62
     7
 10
269.30000000000001
 20
447.00833333333333
 30
0.0
 11
269.30000000000001
 21
469.9916666666665
 31
0.0
  0
ARC
  5
912
  8
DATA
  6
CONTINUOUS
 62
     7
 10
270.32916666666671
 20
469.97083333333319
 30
0.0
 40
1.0293775087671031
 50
91.159675208485694
 51
178.840324791516
  0
ARC
  5
913
  8
DATA
  6
CONTINUOUS
 62
     7
 10
270.32916666666671
 20
447.0291666666667
 30
0.0
 40
1.0293775087671271
 50
181.15967520848361
 51
268.84032479151432
  0
TEXT
  5
914
  8
DATA
 62
     7
 10
322.05000000000001
 20
447.00999999999999
 30
0.0
 40
2.693359375
  1
CONTOROLLER INTERFACES
 50
180.0
 41
0.85
 11
322.05000000000001
 21
444.31664062499988
 31
0.0
 73
     3
  0
LINE
  5
915
  8
DATA
  6
CONTINUOUS
 62
     7
 10
270.30833333333328
 20
471.0
 30
0.0
 11
364.2583333333319
 21
471.0
 31
0.0
  0
LINE
  5
916
  8
DATA
  6
CONTINUOUS
 62
     7
 10
323.30000000000001
 20
446.0
 30
0.0
 11
364.25833333333321
 21
446.0
 31
0.0
  0
LINE
  5
917
  8
DATA
  6
CONTINUOUS
 62
     7
 10
365.30833333333328
 20
447.00833333333333
 30
0.0
 11
365.30833333333328
 21
469.9916666666665
 31
0.0
  0
ARC
  5
918
  8
DATA
  6
CONTINUOUS
 62
     7
 10
364.27916666666658
 20
469.97083333333319
 30
0.0
 40
1.0293775087671271
 50
1.159675208483864
 51
88.840324791514306
  0
ARC
  5
919
  8
DATA
  6
CONTINUOUS
 62
     7
 10
364.27916666666658
 20
447.0291666666667
 30
0.0
 40
1.0293775087670991
 50
271.15967520848568
 51
358.84032479151631
  0
LINE
  5
91A
  8
DATA
  6
CONTINUOUS
 62
     7
 10
270.30833333333328
 20
446.0
 30
0.0
 11
282.30000000000001
 21
446.0
 31
0.0
  0
TEXT
  5
91B
  8
DATA
 62
     7
 10
389.05000000000001
 20
453.00999999999999
 30
0.0
 40
2.693359375
  1
T1A-250V FUSE
 50
180.0
 41
0.85
 11
389.05000000000001
 21
450.31664062499999
 31
0.0
 73
     3
  0
ARC
  5
91C
  8
DATA
  6
CONTINUOUS
 62
     7
 10
26.857499999999959
 20
438.0
 30
0.0
 40
4.0574999999999486
 50
129.07330987625639
 51
230.92669012374361
  0
ARC
  5
91D
  8
DATA
  6
CONTINUOUS
 62
     7
 10
27.85749999999997
 20
466.0
 30
0.0
 40
4.057499999999969
 50
129.07330987625619
 51
230.92669012374381
  0
ARC
  5
91E
  8
DATA
  6
CONTINUOUS
 62
     7
 10
455.74250000000001
 20
438.0
 30
0.0
 40
4.057499999999993
 50
309.07330987625659
 51
50.92669012374337
  0
ARC
  5
91F
  8
DATA
  6
CONTINUOUS
 62
     7
 10
454.74250000000001
 20
466.0
 30
0.0
 40
4.0575000000000037
 50
309.07330987625681
 51
50.926690123743199
  0
LINE
  5
920
  8
DATA
  6
CONTINUOUS
 62
     7
 10
556.89999999999986
 20
42.0
 30
0.0
 11
559.40011239591615
 21
42.0
 31
0.0
  0
LINE
  5
921
  8
DATA
  6
CONTINUOUS
 62
     7
 10
540.0
 20
28.050000000000072
 30
0.0
 11
552.5
 21
28.25000000000006
 31
0.0
  0
LINE
  5
922
  8
DATA
  6
CONTINUOUS
 62
     7
 10
540.0
 20
19.949999999999921
 30
0.0
 11
552.5
 21
19.74999999999995
 31
0.0
  0
LINE
  5
923
  8
DATA
  6
CONTINUOUS
 62
     7
 10
539.0
 20
28.050000000000072
 30
0.0
 11
539.0
 21
19.949999999999921
 31
0.0
  0
LINE
  5
924
  8
DATA
  6
CONTINUOUS
 62
     7
 10
540.0
 20
28.050000000000072
 30
0.0
 11
540.0
 21
19.949999999999921
 31
0.0
  0
LINE
  5
925
  8
DATA
  6
CONTINUOUS
 62
     7
 10
540.0
 20
24.652630961100272
 30
0.0
 11
552.5
 21
24.752630961100241
 31
0.0
  0
LINE
  5
926
  8
DATA
  6
CONTINUOUS
 62
     7
 10
540.0
 20
23.347369038899728
 30
0.0
 11
552.5
 21
23.247369038899699
 31
0.0
  0
LINE
  5
927
  8
DATA
  6
CONTINUOUS
 62
     7
 10
540.0
 20
28.050000000000072
 30
0.0
 11
554.0
 21
28.957224306869069
 31
0.0
  0
LINE
  5
928
  8
DATA
  6
CONTINUOUS
 62
     7
 10
540.0
 20
19.949999999999921
 30
0.0
 11
554.0
 21
19.04277569313092
 31
0.0
  0
LINE
  5
929
  8
DATA
  6
CONTINUOUS
 62
     7
 10
540.0
 20
25.913417161825411
 30
0.0
 11
552.5
 21
26.01341716182537
 31
0.0
  0
LINE
  5
92A
  8
DATA
  6
CONTINUOUS
 62
     7
 10
540.0
 20
22.086582838174529
 30
0.0
 11
552.5
 21
21.98658283817457
 31
0.0
  0
ARC
  5
92B
  8
DATA
  6
CONTINUOUS
 62
     7
 10
552.35260453901515
 20
25.383024061462841
 30
0.0
 40
0.6473954609847602
 50
283.16020049880461
 51
76.839799501195387
  0
ARC
  5
92C
  8
DATA
  6
CONTINUOUS
 62
     7
 10
552.35260453901515
 20
22.61697593853718
 30
0.0
 40
0.6473954609847602
 50
283.16020049880461
 51
76.839799501195387
  0
LINE
  5
92D
  8
DATA
  6
CONTINUOUS
 62
     7
 10
540.0
 20
27.043807145043608
 30
0.0
 11
552.5
 21
27.243807145043611
 31
0.0
  0
ARC
  5
92E
  8
DATA
  6
CONTINUOUS
 62
     7
 10
552.49689398465864
 20
27.74690357252183
 30
0.0
 40
0.5031060153413544
 50
270.35372803193798
 51
89.646271968062024
  0
LINE
  5
92F
  8
DATA
  6
CONTINUOUS
 62
     7
 10
540.0
 20
20.956192854956381
 30
0.0
 11
552.5
 21
20.756192854956399
 31
0.0
  0
ARC
  5
930
  8
DATA
  6
CONTINUOUS
 62
     7
 10
552.49689398465864
 20
20.25309642747817
 30
0.0
 40
0.5031060153413544
 50
270.35372803193798
 51
89.646271968062024
  0
LINE
  5
931
  8
DATA
  6
CONTINUOUS
 62
     7
 10
539.0
 20
28.050000000000072
 30
0.0
 11
540.0
 21
28.050000000000072
 31
0.0
  0
LINE
  5
932
  8
DATA
  6
CONTINUOUS
 62
     7
 10
539.0
 20
19.949999999999921
 30
0.0
 11
540.0
 21
19.949999999999921
 31
0.0
  0
LINE
  5
933
  8
DATA
  6
CONTINUOUS
 62
     7
 10
535.0
 20
34.350000000000023
 30
0.0
 11
535.0
 21
9.6499999999999755
 31
0.0
  0
LINE
  5
934
  8
DATA
  6
CONTINUOUS
 62
     7
 10
536.5
 20
34.350000000000023
 30
0.0
 11
536.5
 21
9.6499999999999755
 31
0.0
  0
LINE
  5
935
  8
DATA
  6
CONTINUOUS
 62
     7
 10
554.0
 20
36.0
 30
0.0
 11
536.5
 21
34.350000000000023
 31
0.0
  0
LINE
  5
936
  8
DATA
  6
CONTINUOUS
 62
     7
 10
554.0
 20
8.0
 30
0.0
 11
536.5
 21
9.6499999999999755
 31
0.0
  0
LINE
  5
937
  8
DATA
  6
CONTINUOUS
 62
     7
 10
536.5
 20
18.690000000000001
 30
0.0
 11
552.0
 21
18.690000000000001
 31
0.0
  0
LINE
  5
938
  8
DATA
  6
CONTINUOUS
 62
     7
 10
536.5
 20
22.0
 30
0.0
 11
539.0
 21
22.0
 31
0.0
  0
LINE
  5
939
  8
DATA
  6
CONTINUOUS
 62
     7
 10
536.5
 20
12.94999999999999
 30
0.0
 11
551.01588641876367
 21
12.4430940764019
 31
0.0
  0
LINE
  5
93A
  8
DATA
  6
CONTINUOUS
 62
     7
 10
536.5
 20
15.600000000000019
 30
0.0
 11
551.754151884424
 21
15.0673132782519
 31
0.0
  0
LINE
  5
93B
  8
DATA
  6
CONTINUOUS
 62
     7
 10
536.5
 20
25.309999999999999
 30
0.0
 11
539.0
 21
25.397301923729401
 31
0.0
  0
LINE
  5
93C
  8
DATA
  6
CONTINUOUS
 62
     7
 10
536.5
 20
28.399999999999981
 30
0.0
 11
551.93729481427079
 21
28.939082213785358
 31
0.0
  0
LINE
  5
93D
  8
DATA
  6
CONTINUOUS
 62
     7
 10
535.0
 20
34.350000000000023
 30
0.0
 11
536.5
 21
34.350000000000023
 31
0.0
  0
LINE
  5
93E
  8
DATA
  6
CONTINUOUS
 62
     7
 10
535.0
 20
9.6499999999999755
 30
0.0
 11
536.5
 21
9.6499999999999755
 31
0.0
  0
ARC
  5
93F
  8
DATA
  6
CONTINUOUS
 62
     7
 10
551.06672795673671
 20
20.34499999999997
 30
0.0
 40
1.9000057122905269
 50
299.41911204752353
 51
320.55206296808052
  0
ARC
  5
940
  8
DATA
  6
CONTINUOUS
 62
     7
 10
551.06672795673671
 20
20.34499999999997
 30
0.0
 40
1.900005712290544
 50
59.999741758390492
 51
60.580887952476552
  0
ARC
  5
941
  8
DATA
  6
CONTINUOUS
 62
     7
 10
551.31633656162114
 20
27.373069581781351
 30
0.0
 40
1.6846319227445139
 50
60.362437648942851
 51
68.370591407937113
  0
LINE
  5
942
  8
DATA
  6
CONTINUOUS
 62
     7
 10
536.5
 20
31.050966799187851
 30
0.0
 11
536.5
 21
28.399999999999981
 31
0.0
  0
LINE
  5
943
  8
DATA
  6
CONTINUOUS
 62
     7
 10
536.5
 20
31.050000000000011
 30
0.0
 11
551.93729481427079
 21
31.589082213785328
 31
0.0
  0
LINE
  5
944
  8
DATA
  6
CONTINUOUS
 62
     7
 10
536.5
 20
33.090000000000032
 30
0.0
 11
551.93729481427079
 21
33.629082213785303
 31
0.0
  0
ARC
  5
945
  8
DATA
  6
CONTINUOUS
 62
     7
 10
551.98000000000002
 20
32.609082213785321
 30
0.0
 40
1.020893595282155
 50
267.60255028028263
 51
92.397449719717343
  0
INSERT
  5
946
  8
DATA
 62
     7
  2
*U0
 10
370.0
 20
450.0
 30
0.0
  0
ENDSEC
  0
EOF
