  0
SECTION
  2
HEADER
  9
$ACADVER
  1
AC1009
  9
$INSBASE
 10
0.0
 20
0.0
 30
0.0
  9
$EXTMIN
 10
-80.027463724868767
 20
-226.8870479174243
 30
-0.0015258207003583
  9
$EXTMAX
 10
820.02746791582013
 20
1110.040753785041
 30
0.0000000349246037
  9
$LIMMIN
 10
0.0
 20
0.0
  9
$LIMMAX
 10
0.0
 20
0.0
  9
$ORTHOMODE
 70
     0
  9
$REGENMODE
 70
     1
  9
$FILLMODE
 70
     1
  9
$QTEXTMODE
 70
     0
  9
$MIRRTEXT
 70
     1
  9
$DRAGMODE
 70
     2
  9
$LTSCALE
 40
25.399999999999999
  9
$OSMODE
 70
   167
  9
$ATTMODE
 70
     1
  9
$TEXTSIZE
 40
0.0
  9
$TRACEWID
 40
1.0
  9
$TEXTSTYLE
  7
STANDARD
  9
$CLAYER
  8
DATA
  9
$CELTYPE
  6
CONTINUOUS
  9
$CECOLOR
 62
   256
  9
$DIMSCALE
 40
1.0
  9
$DIMASZ
 40
0.18
  9
$DIMEXO
 40
0.0625
  9
$DIMDLI
 40
0.38
  9
$DIMRND
 40
0.0
  9
$DIMDLE
 40
0.0
  9
$DIMEXE
 40
0.18
  9
$DIMTP
 40
0.0
  9
$DIMTM
 40
0.0
  9
$DIMTXT
 40
0.18
  9
$DIMCEN
 40
0.09
  9
$DIMTSZ
 40
0.0
  9
$DIMTOL
 70
     0
  9
$DIMLIM
 70
     0
  9
$DIMTIH
 70
     1
  9
$DIMTOH
 70
     1
  9
$DIMSE1
 70
     0
  9
$DIMSE2
 70
     0
  9
$DIMTAD
 70
     0
  9
$DIMZIN
 70
     0
  9
$DIMBLK
  1

  9
$DIMASO
 70
     1
  9
$DIMSHO
 70
     1
  9
$DIMPOST
  1

  9
$DIMAPOST
  1

  9
$DIMALT
 70
     0
  9
$DIMALTD
 70
     2
  9
$DIMALTF
 40
25.399999999999999
  9
$DIMLFAC
 40
1.0
  9
$DIMTOFL
 70
     0
  9
$DIMTVP
 40
0.0
  9
$DIMTIX
 70
     0
  9
$DIMSOXD
 70
     0
  9
$DIMSAH
 70
     0
  9
$DIMBLK1
  1

  9
$DIMBLK2
  1

  9
$DIMSTYLE
  2
STANDARD
  9
$DIMCLRD
 70
     0
  9
$DIMCLRE
 70
     0
  9
$DIMCLRT
 70
     0
  9
$DIMTFAC
 40
1.0
  9
$DIMGAP
 40
0.09
  9
$LUNITS
 70
     2
  9
$LUPREC
 70
     4
  9
$SKETCHINC
 40
0.1
  9
$FILLETRAD
 40
0.0
  9
$AUNITS
 70
     0
  9
$AUPREC
 70
     0
  9
$MENU
  1
acad
  9
$ELEVATION
 40
0.0
  9
$PELEVATION
 40
0.0
  9
$THICKNESS
 40
0.0
  9
$LIMCHECK
 70
     0
  9
$BLIPMODE
 70
     0
  9
$CHAMFERA
 40
0.0
  9
$CHAMFERB
 40
0.0
  9
$SKPOLY
 70
     0
  9
$TDCREATE
 40
2452979.7749074078
  9
$TDUPDATE
 40
2452979.8072305331
  9
$TDINDWG
 40
0.0002747106
  9
$TDUSRTIMER
 40
0.0002745255
  9
$USRTIMER
 70
     1
  9
$ANGBASE
 50
0.0
  9
$ANGDIR
 70
     0
  9
$PDMODE
 70
     1
  9
$PDSIZE
 40
-2.0
  9
$PLINEWID
 40
0.0
  9
$COORDS
 70
     2
  9
$SPLFRAME
 70
     0
  9
$SPLINETYPE
 70
     6
  9
$SPLINESEGS
 70
     8
  9
$ATTDIA
 70
     0
  9
$ATTREQ
 70
     1
  9
$HANDLING
 70
     1
  9
$HANDSEED
  5
BFD
  9
$SURFTAB1
 70
     6
  9
$SURFTAB2
 70
     6
  9
$SURFTYPE
 70
     6
  9
$SURFU
 70
     6
  9
$SURFV
 70
     6
  9
$UCSNAME
  2

  9
$UCSORG
 10
0.0
 20
0.0
 30
0.0
  9
$UCSXDIR
 10
1.0
 20
0.0
 30
0.0
  9
$UCSYDIR
 10
0.0
 20
1.0
 30
0.0
  9
$PUCSNAME
  2

  9
$PUCSORG
 10
0.0
 20
0.0
 30
0.0
  9
$PUCSXDIR
 10
1.0
 20
0.0
 30
0.0
  9
$PUCSYDIR
 10
0.0
 20
1.0
 30
0.0
  9
$USERI1
 70
     0
  9
$USERI2
 70
     0
  9
$USERI3
 70
     0
  9
$USERI4
 70
     0
  9
$USERI5
 70
     0
  9
$USERR1
 40
0.0
  9
$USERR2
 40
0.0
  9
$USERR3
 40
0.0
  9
$USERR4
 40
0.0
  9
$USERR5
 40
0.0
  9
$WORLDVIEW
 70
     1
  9
$SHADEDGE
 70
     3
  9
$SHADEDIF
 70
    70
  9
$TILEMODE
 70
     1
  9
$MAXACTVP
 70
    16
  9
$PLIMCHECK
 70
     0
  9
$PEXTMIN
 10
1.0000000000000000E+020
 20
1.0000000000000000E+020
 30
1.0000000000000000E+020
  9
$PEXTMAX
 10
-1.0000000000000000E+020
 20
-1.0000000000000000E+020
 30
-1.0000000000000000E+020
  9
$PLIMMIN
 10
0.0
 20
0.0
  9
$PLIMMAX
 10
12.0
 20
9.0
  9
$UNITMODE
 70
     0
  9
$VISRETAIN
 70
     0
  9
$PLINEGEN
 70
     1
  9
$PSLTSCALE
 70
     0
  0
ENDSEC
  0
SECTION
  2
TABLES
  0
TABLE
  2
VPORT
 70
     2
  0
VPORT
  2
*ACTIVE
 70
     0
 10
0.0
 20
0.0
 11
1.0
 21
1.0
 12
370.00000209547579
 22
441.5768529338086
 13
0.0
 23
0.0
 14
1.0
 24
1.0
 15
0.0
 25
0.0
 16
0.0
 26
0.0
 36
1.0
 17
0.0
 27
0.0
 37
0.0
 40
1347.58061287141
 41
1.603723404255319
 42
50.0
 43
0.0
 44
0.0
 50
0.0
 51
0.0
 71
     0
 72
   100
 73
     1
 74
     1
 75
     0
 76
     0
 77
     0
 78
     0
  0
ENDTAB
  0
TABLE
  2
LTYPE
 70
    11
  0
LTYPE
  2
CONTINUOUS
 70
     0
  3
Solid line
 72
    65
 73
     0
 40
0.0
  0
LTYPE
  2
STYLE_01
 70
     0
  3

 72
    65
 73
     2
 40
0.4166412353515625
 49
0.208282470703125
 49
-0.2083587646484375
  0
LTYPE
  2
STYLE_02
 70
     0
  3

 72
    65
 73
     2
 40
0.694427490234375
 49
0.4860687255859375
 49
-0.2083587646484375
  0
LTYPE
  2
STYLE_03
 70
     0
  3

 72
    65
 73
     2
 40
1.25
 49
1.0416412353515621
 49
-0.2083587646484375
  0
LTYPE
  2
STYLE_04
 70
     0
  3

 72
    65
 73
     2
 40
1.5277099609375
 49
1.319427490234375
 49
-0.208282470703125
  0
LTYPE
  2
STYLE_05
 70
     0
  3

 72
    65
 73
     2
 40
0.208282470703125
 49
0.069427490234375
 49
-0.13885498046875
  0
LTYPE
  2
STYLE_06
 70
     0
  3

 72
    65
 73
     4
 40
1.0416412353515621
 49
0.625
 49
-0.208282470703125
 49
0.069427490234375
 49
-0.1389312744140625
  0
LTYPE
  2
STYLE_07
 70
     0
  3

 72
    65
 73
     6
 40
1.875
 49
0.625
 49
-0.208282470703125
 49
0.625
 49
-0.2083587646484375
 49
0.069427490234375
 49
-0.1389312744140625
  0
LTYPE
  2
STYLE_08
 70
     0
  3

 72
    65
 73
     6
 40
1.25
 49
0.625
 49
-0.208282470703125
 49
0.069427490234375
 49
-0.1389312744140625
 49
0.069427490234375
 49
-0.1389312744140625
  0
LTYPE
  2
STYLE_09
 70
     0
  3

 72
    65
 73
     4
 40
5.0
 49
3.75
 49
-0.2777862548828125
 49
0.694427490234375
 49
-0.2777862548828125
  0
LTYPE
  2
STYLE_10
 70
     0
  3

 72
    65
 73
     6
 40
5.9375
 49
3.75
 49
-0.2777862548828125
 49
0.694427490234375
 49
-0.2777862548828125
 49
0.625
 49
-0.3125
  0
ENDTAB
  0
TABLE
  2
LAYER
 70
     6
  0
LAYER
  2
0
 70
     0
 62
     7
  6
CONTINUOUS
  0
LAYER
  2
DATA
 70
     0
 62
     7
  6
CONTINUOUS
  0
LAYER
  2
DEFPOINTS
 70
     0
 62
     7
  6
CONTINUOUS
  0
LAYER
  2
HIBINO-BASE
 70
     0
 62
     7
  6
CONTINUOUS
  0
LAYER
  2
SPEC
 70
     0
 62
     7
  6
CONTINUOUS
  0
LAYER
  2
DIMNSIONS
 70
     0
 62
     7
  6
CONTINUOUS
  0
ENDTAB
  0
TABLE
  2
STYLE
 70
     2
  0
STYLE
  2
STANDARD
 70
     0
 40
0.0
 41
1.0
 50
0.0
 71
     0
 42
0.0
  3
txt
  4
BIGFONT.SHX
  0
ENDTAB
  0
TABLE
  2
VIEW
 70
     0
  0
ENDTAB
  0
TABLE
  2
UCS
 70
     0
  0
ENDTAB
  0
TABLE
  2
APPID
 70
     1
  0
APPID
  2
ACAD
 70
     0
  0
ENDTAB
  0
TABLE
  2
DIMSTYLE
 70
     1
  0
DIMSTYLE
  2
STANDARD
 70
     0
  3

  4

  5

  6

  7

 40
1.0
 41
0.18
 42
0.0625
 43
0.38
 44
0.18
 45
0.0
 46
0.0
 47
0.0
 48
0.0
140
0.18
141
0.09
142
0.0
143
25.399999999999999
144
1.0
145
0.0
146
1.0
147
0.09
 71
     0
 72
     0
 73
     1
 74
     1
 75
     0
 76
     0
 77
     0
 78
     0
170
     0
171
     2
172
     0
173
     0
174
     0
175
     0
176
     0
177
     0
178
     0
  0
ENDTAB
  0
ENDSEC
  0
SECTION
  2
BLOCKS
  0
BLOCK
  8
0
  2
$MODEL_SPACE
 70
     0
 10
0.0
 20
0.0
 30
0.0
  3
$MODEL_SPACE
  1

  0
ENDBLK
  5
925
  8
0
  0
BLOCK
 67
     1
  8
0
  2
$PAPER_SPACE
 70
     0
 10
0.0
 20
0.0
 30
0.0
  3
$PAPER_SPACE
  1

  0
ENDBLK
  5
921
 67
     1
  8
0
  0
ENDSEC
  0
SECTION
  2
ENTITIES
  0
LINE
  5
2D
  8
HIBINO-BASE
 62
     7
 10
-80.0
 20
1110.0
 30
0.0
 11
820.0
 21
1110.0
 31
0.0
  0
LINE
  5
2E
  8
HIBINO-BASE
 62
     7
 10
820.0
 20
-190.0
 30
0.0
 11
-80.0
 21
-190.0
 31
0.0
  0
LINE
  5
2F
  8
HIBINO-BASE
 62
     7
 10
-80.0
 20
-190.0
 30
0.0
 11
-80.0
 21
1110.0
 31
0.0
  0
TEXT
  5
30
  8
HIBINO-BASE
 62
     7
 10
-44.079999999999977
 20
-220.6399199999999
 30
0.0
 40
18.71292
  1
Hibino Corporation
 41
0.8
 11
-44.079999999999977
 21
-201.92699999999991
 31
0.0
 73
     3
  0
LINE
  5
31
  8
HIBINO-BASE
 62
     7
 10
820.0
 20
1110.0
 30
0.0
 11
820.0
 21
-190.0
 31
0.0
  0
LINE
  5
32
  8
HIBINO-BASE
 62
     7
 10
370.0
 20
-77.499999999999872
 30
0.0
 11
820.0
 21
-77.499999999999872
 31
0.0
  0
LINE
  5
33
  8
HIBINO-BASE
 62
     7
 10
370.0
 20
-190.0
 30
0.0
 11
370.0
 21
-77.499999999999872
 31
0.0
  0
TEXT
  5
34
  8
HIBINO-BASE
 62
     7
 10
374.5
 20
-89.408466666666598
 30
0.0
 40
8.466666666666665
  1
NOTE
 41
0.8
 11
374.5
 21
-80.941799999999915
 31
0.0
 73
     3
  0
LINE
  5
35
  8
HIBINO-BASE
 62
     7
 10
545.0
 20
-190.0
 30
0.0
 11
545.0
 21
-77.499999999999872
 31
0.0
  0
TEXT
  5
36
  8
HIBINO-BASE
 62
     7
 10
549.5
 20
-89.408466666666598
 30
0.0
 40
8.466666666666665
  1
TITLE
 41
0.8
 11
549.5
 21
-80.941799999999915
 31
0.0
 73
     3
  0
TEXT
  5
37
  8
HIBINO-BASE
 62
     7
 10
620.34194999999977
 20
-220.6399199999999
 30
0.0
 40
18.71292
  1
ヒビノ株式会社
 41
0.8
 11
620.34194999999977
 21
-201.92699999999991
 31
0.0
 73
     3
  0
LINE
  5
38
  8
HIBINO-BASE
 62
     7
 10
370.0
 20
-139.9999999999998
 30
0.0
 11
820.0
 21
-139.9999999999998
 31
0.0
  0
TEXT
  5
39
  8
HIBINO-BASE
 62
     7
 10
612.0
 20
-151.62686666666659
 30
0.0
 40
8.466666666666665
  1
DRAWN
 41
0.8
 11
612.0
 21
-143.16019999999989
 31
0.0
 73
     3
  0
TEXT
  5
3A
  8
HIBINO-BASE
 62
     7
 10
487.0
 20
-151.62686666666659
 30
0.0
 40
8.466666666666665
  1
DATE
 41
0.8
 11
487.0
 21
-143.16019999999989
 31
0.0
 73
     3
  0
TEXT
  5
3B
  8
HIBINO-BASE
 62
     7
 10
375.5
 20
-152.46227999999991
 30
0.0
 40
8.4666799999999984
  1
図面サイズ
 41
0.8
 11
375.5
 21
-143.9956
 31
0.0
 73
     3
  0
TEXT
  5
3C
  8
HIBINO-BASE
 62
     7
 10
437.0
 20
-151.62686666666659
 30
0.0
 40
8.466666666666665
  1
SCALE
 41
0.8
 11
437.0
 21
-143.16019999999989
 31
0.0
 73
     3
  0
TEXT
  5
3D
  8
HIBINO-BASE
 62
     7
 10
549.5
 20
-151.62686666666659
 30
0.0
 40
8.466666666666665
  1
DESIGN
 41
0.8
 11
549.5
 21
-143.16019999999989
 31
0.0
 73
     3
  0
TEXT
  5
3E
  8
HIBINO-BASE
 62
     7
 10
737.0
 20
-151.62686666666659
 30
0.0
 40
8.466666666666665
  1
DRAWING NO.
 41
0.8
 11
737.0
 21
-143.16019999999989
 31
0.0
 73
     3
  0
TEXT
  5
3F
  8
HIBINO-BASE
 62
     7
 10
674.49999999999989
 20
-151.62686666666659
 30
0.0
 40
8.466666666666665
  1
CHECK
 41
0.8
 11
674.49999999999989
 21
-143.16019999999989
 31
0.0
 73
     3
  0
LINE
  5
40
  8
HIBINO-BASE
 62
     7
 10
441.875
 20
-183.75
 30
0.0
 11
460.625
 21
-164.9999999999998
 31
0.0
  0
TEXT
  5
41
  8
HIBINO-BASE
 62
     7
 10
438.75
 20
-169.90971666666661
 30
0.0
 40
8.466666666666665
  1
1
 41
0.8
 11
438.75
 21
-161.44304999999989
 31
0.0
 73
     3
  0
LINE
  5
42
  8
HIBINO-BASE
 62
     7
 10
432.5
 20
-190.0
 30
0.0
 11
432.5
 21
-139.9999999999998
 31
0.0
  0
LINE
  5
43
  8
HIBINO-BASE
 62
     7
 10
482.5
 20
-190.0
 30
0.0
 11
482.5
 21
-139.9999999999998
 31
0.0
  0
LINE
  5
44
  8
HIBINO-BASE
 62
     7
 10
607.49999999999989
 20
-139.9999999999998
 30
0.0
 11
607.49999999999989
 21
-190.0
 31
0.0
  0
LINE
  5
45
  8
HIBINO-BASE
 62
     7
 10
732.5
 20
-139.9999999999998
 30
0.0
 11
732.5
 21
-190.0
 31
0.0
  0
LINE
  5
46
  8
HIBINO-BASE
 62
     7
 10
669.99999999999989
 20
-190.0
 30
0.0
 11
669.99999999999989
 21
-139.9999999999998
 31
0.0
  0
TEXT
  5
47
  8
HIBINO-BASE
 62
     7
 10
486.78269999999992
 20
-175.04676666666671
 30
0.0
 40
8.466666666666665
  1
'03.12.
 41
0.8
 11
486.78269999999992
 21
-166.58009999999999
 31
0.0
 73
     3
  0
TEXT
  5
48
  8
HIBINO-BASE
 62
     7
 10
457.5
 20
-179.28471666666661
 30
0.0
 40
8.466666666666665
  1
5
 41
0.8
 11
457.5
 21
-170.81804999999989
 31
0.0
 73
     3
  0
TEXT
  5
49
  8
HIBINO-BASE
 62
     7
 10
389.41666666666657
 20
-178.84999999999991
 30
0.0
 40
16.93333333333333
  1
A4
 41
0.8
 11
389.41666666666657
 21
-161.9166666666666
 31
0.0
 73
     3
  0
TEXT
  5
4A
  8
HIBINO-BASE
 62
     7
 10
615.02905005517312
 20
-175.04676666666651
 30
0.0
 40
8.466666666666665
  1
N.Sasaki
 41
0.8
 11
615.02905005517312
 21
-166.58009999999979
 31
0.0
 73
     3
  0
TEXT
  5
4B
  8
SPEC
 62
     7
 10
-36.25
 20
1067.9188499999991
 30
0.0
 40
12.699999999999999
  1
仕様
 41
0.8
 11
-36.25
 21
1080.6188499999989
 31
0.0
 73
     3
  0
LINE
  5
4C
  8
SPEC
 62
     7
 10
-42.50000000000005
 20
1060.0
 30
0.0
 11
575.0
 21
1060.0
 31
0.0
  0
LINE
  5
4D
  8
SPEC
 62
     7
 10
51.337525066844982
 20
1041.25
 30
0.0
 11
574.99999999999977
 21
1041.25
 31
0.0
  0
LINE
  5
4E
  8
SPEC
 62
     7
 10
-42.50000000000005
 20
947.49999999999989
 30
0.0
 11
575.0
 21
947.49999999999989
 31
0.0
  0
LINE
  5
4F
  8
SPEC
 62
     7
 10
52.733958333333248
 20
985.0
 30
0.0
 11
574.99999999999977
 21
985.0
 31
0.0
  0
LINE
  5
50
  8
SPEC
 62
     7
 10
52.733958333333248
 20
1003.75
 30
0.0
 11
574.99999999999977
 21
1003.75
 31
0.0
  0
LINE
  5
51
  8
SPEC
 62
     7
 10
51.249999999999929
 20
928.74999999999989
 30
0.0
 11
575.0
 21
928.74999999999989
 31
0.0
  0
LINE
  5
52
  8
SPEC
 62
     7
 10
49.749283667621739
 20
891.24999999999989
 30
0.0
 11
575.0
 21
891.24999999999989
 31
0.0
  0
LINE
  5
53
  8
SPEC
 62
     7
 10
51.249999999999929
 20
910.0
 30
0.0
 11
575.0
 21
910.0
 31
0.0
  0
LINE
  5
54
  8
SPEC
 62
     7
 10
51.249999999999929
 20
872.49999999999989
 30
0.0
 11
575.0
 21
872.49999999999989
 31
0.0
  0
LINE
  5
55
  8
SPEC
 62
     7
 10
-42.50000000000005
 20
835.0
 30
0.0
 11
575.0
 21
835.0
 31
0.0
  0
LINE
  5
56
  8
SPEC
 62
     7
 10
51.337525066844982
 20
1022.5
 30
0.0
 11
574.99999999999977
 21
1022.5
 31
0.0
  0
TEXT
  5
57
  8
SPEC
 62
     7
 10
192.47471821551599
 20
1046.92084
 30
0.0
 40
9.8777599999999985
  1
3
 41
0.8
 11
192.47471821551599
 21
1056.7986000000001
 31
0.0
 73
     3
  0
LINE
  5
58
  8
SPEC
 62
     7
 10
-42.50000000000005
 20
610.0
 30
0.0
 11
575.0
 21
610.0
 31
0.0
  0
LINE
  5
59
  8
SPEC
 62
     7
 10
-42.50000000000005
 20
572.5
 30
0.0
 11
575.0
 21
572.5
 31
0.0
  0
LINE
  5
5A
  8
SPEC
 62
     7
 10
-42.5
 20
1060.0
 30
0.0
 11
-42.50000000000005
 21
535.0
 31
0.0
  0
TEXT
  5
5B
  8
SPEC
 62
     7
 10
192.47471821551599
 20
859.42083999999988
 30
0.0
 40
9.8777599999999985
  1
+20dBu(600Ω)
 41
0.8
 11
192.47471821551599
 21
869.29859999999985
 31
0.0
 73
     3
  0
TEXT
  5
5C
  8
SPEC
 62
     7
 10
192.47471821551599
 20
878.17083999999988
 30
0.0
 40
9.8777599999999985
  1
50Ω以下
 41
0.8
 11
192.47471821551599
 21
888.04859999999985
 31
0.0
 73
     3
  0
TEXT
  5
5D
  8
SPEC
 62
     7
 10
60.999999999999943
 20
971.92083999999988
 30
0.0
 40
9.8777599999999985
  1
最大レベル
 41
0.8
 11
60.999999999999943
 21
981.79859999999985
 31
0.0
 73
     3
  0
TEXT
  5
5E
  8
SPEC
 62
     7
 10
-38.00000000000005
 20
1046.92084
 30
0.0
 40
9.8777599999999985
  1
入力
 41
0.8
 11
-38.00000000000005
 21
1056.7986000000001
 31
0.0
 73
     3
  0
TEXT
  5
5F
  8
SPEC
 62
     7
 10
-38.00000000000005
 20
709.42083999999988
 30
0.0
 40
9.8777599999999985
  1
A/D-D/A変換
 41
0.8
 11
-38.00000000000005
 21
719.29859999999985
 31
0.0
 73
     3
  0
TEXT
  5
60
  8
SPEC
 62
     7
 10
60.999999999999943
 20
915.67083999999988
 30
0.0
 40
9.8777599999999985
  1
形式
 41
0.8
 11
60.999999999999943
 21
925.54859999999985
 31
0.0
 73
     3
  0
TEXT
  5
61
  8
SPEC
 62
     7
 10
60.999999999999943
 20
896.92083999999988
 30
0.0
 40
9.8777599999999985
  1
端子
 41
0.8
 11
60.999999999999943
 21
906.79859999999985
 31
0.0
 73
     3
  0
TEXT
  5
62
  8
SPEC
 62
     7
 10
60.999999999999943
 20
990.67083999999988
 30
0.0
 40
9.8777599999999985
  1
インピーダンス
 41
0.8
 11
60.999999999999943
 21
1000.5486
 31
0.0
 73
     3
  0
TEXT
  5
63
  8
SPEC
 62
     7
 10
-38.00000000000005
 20
934.42083999999988
 30
0.0
 40
9.8777599999999985
  1
出力
 41
0.8
 11
-38.00000000000005
 21
944.29859999999985
 31
0.0
 73
     3
  0
TEXT
  5
64
  8
SPEC
 62
     7
 10
60.999999999999943
 20
1028.17084
 30
0.0
 40
9.8777599999999985
  1
形式
 41
0.8
 11
60.999999999999943
 21
1038.0486000000001
 31
0.0
 73
     3
  0
TEXT
  5
65
  8
SPEC
 62
     7
 10
60.999999999999943
 20
1009.42084
 30
0.0
 40
9.8777599999999985
  1
端子
 41
0.8
 11
60.999999999999943
 21
1019.2986
 31
0.0
 73
     3
  0
TEXT
  5
66
  8
SPEC
 62
     7
 10
60.999999999999943
 20
878.17083999999988
 30
0.0
 40
9.8777599999999985
  1
インピーダンス
 41
0.8
 11
60.999999999999943
 21
888.04859999999985
 31
0.0
 73
     3
  0
TEXT
  5
67
  8
SPEC
 62
     7
 10
60.999999999999943
 20
859.42083999999988
 30
0.0
 40
9.8777599999999985
  1
最大レベル
 41
0.8
 11
60.999999999999943
 21
869.29859999999985
 31
0.0
 73
     3
  0
TEXT
  5
68
  8
SPEC
 62
     7
 10
192.47471821551599
 20
971.92083999999988
 30
0.0
 40
9.8777599999999985
  1
+20dBu
 41
0.8
 11
192.47471821551599
 21
981.79859999999985
 31
0.0
 73
     3
  0
TEXT
  5
69
  8
SPEC
 62
     7
 10
192.47471821551599
 20
915.67083999999988
 30
0.0
 40
9.8777599999999985
  1
バランス
 41
0.8
 11
192.47471821551599
 21
925.54859999999985
 31
0.0
 73
     3
  0
TEXT
  5
6A
  8
SPEC
 62
     7
 10
192.47471821551599
 20
896.92083999999988
 30
0.0
 40
9.8777599999999985
  1
XLR3ピンオス(2-HOT)
 41
0.8
 11
192.47471821551599
 21
906.79859999999985
 31
0.0
 73
     3
  0
TEXT
  5
6B
  8
SPEC
 62
     7
 10
192.47471821551599
 20
709.42083999999988
 30
0.0
 40
9.8777599999999985
  1
24bit、96kHz
 41
0.8
 11
192.47471821551599
 21
719.29859999999985
 31
0.0
 73
     3
  0
TEXT
  5
6C
  8
SPEC
 62
     7
 10
192.47471821551599
 20
990.67083999999988
 30
0.0
 40
9.8777599999999985
  1
10kΩ
 41
0.8
 11
192.47471821551599
 21
1000.5486
 31
0.0
 73
     3
  0
TEXT
  5
6D
  8
SPEC
 62
     7
 10
192.47471821551599
 20
934.42083999999988
 30
0.0
 40
9.8777599999999985
  1
6
 41
0.8
 11
192.47471821551599
 21
944.29859999999985
 31
0.0
 73
     3
  0
TEXT
  5
6E
  8
SPEC
 62
     7
 10
192.47471821551599
 20
1009.42084
 30
0.0
 40
9.8777599999999985
  1
XLR3ピンメス(2-HOT)
 41
0.8
 11
192.47471821551599
 21
1019.2986
 31
0.0
 73
     3
  0
TEXT
  5
6F
  8
SPEC
 62
     7
 10
192.47471821551599
 20
1028.17084
 30
0.0
 40
9.8777599999999985
  1
バランス(アナログ/AのみAES/EBU)
 41
0.8
 11
192.47471821551599
 21
1038.0486000000001
 31
0.0
 73
     3
  0
TEXT
  5
70
  8
SPEC
 62
     7
 10
60.999999999999943
 20
1046.92084
 30
0.0
 40
9.8777599999999985
  1
チャンネル数
 41
0.8
 11
60.999999999999943
 21
1056.7986000000001
 31
0.0
 73
     3
  0
TEXT
  5
71
  8
SPEC
 62
     7
 10
60.999999999999943
 20
934.42083999999988
 30
0.0
 40
9.8777599999999985
  1
チャンネル数
 41
0.8
 11
60.999999999999943
 21
944.29859999999985
 31
0.0
 73
     3
  0
LINE
  5
72
  8
SPEC
 62
     7
 10
51.249999999999929
 20
1060.0
 30
0.0
 11
51.249999999999929
 21
722.5
 31
0.0
  0
LINE
  5
73
  8
SPEC
 62
     7
 10
-42.50000000000005
 20
628.75
 30
0.0
 11
575.0
 21
628.75
 31
0.0
  0
TEXT
  5
74
  8
SPEC
 62
     7
 10
-38.00000000000005
 20
634.42083999999988
 30
0.0
 40
9.8777599999999985
  1
THD
 41
0.8
 11
-38.00000000000005
 21
644.29859999999985
 31
0.0
 73
     3
  0
TEXT
  5
75
  8
SPEC
 62
     7
 10
192.47471821551599
 20
634.42083999999988
 30
0.0
 40
9.8777599999999985
  1
0.005%%%以下(20Hz～20kHz,+10dBu)
 41
0.8
 11
192.47471821551599
 21
644.29859999999985
 31
0.0
 73
     3
  0
LINE
  5
76
  8
SPEC
 62
     7
 10
-42.50000000000005
 20
591.25
 30
0.0
 11
575.0
 21
591.25
 31
0.0
  0
LINE
  5
77
  8
SPEC
 62
     7
 10
-42.50000000000005
 20
553.75
 30
0.0
 11
575.0
 21
553.75
 31
0.0
  0
TEXT
  5
78
  8
SPEC
 62
     7
 10
-38.00000000000005
 20
596.92083999999977
 30
0.0
 40
9.8777599999999985
  1
プロパゲーション・ディレイ
 41
0.8
 11
-38.00000000000005
 21
606.79859999999985
 31
0.0
 73
     3
  0
TEXT
  5
79
  8
SPEC
 62
     7
 10
192.47471821551599
 20
596.92083999999977
 30
0.0
 40
9.8777599999999985
  1
0.68msec フラット・セットアップ(デジタル入力時)
 41
0.8
 11
192.47471821551599
 21
606.79859999999985
 31
0.0
 73
     3
  0
TEXT
  5
7A
  8
SPEC
 62
     7
 10
-38.00000000000005
 20
578.17083999999977
 30
0.0
 40
9.8777599999999985
  1
電源
 41
0.8
 11
-38.00000000000005
 21
588.04859999999985
 31
0.0
 73
     3
  0
TEXT
  5
7B
  8
SPEC
 62
     7
 10
192.47471821551599
 20
578.17083999999977
 30
0.0
 40
9.8777599999999985
  1
AC90～264V,50/60Hz
 41
0.8
 11
192.47471821551599
 21
588.04859999999985
 31
0.0
 73
     3
  0
TEXT
  5
7C
  8
SPEC
 62
     7
 10
-38.00000000000005
 20
559.42083999999977
 30
0.0
 40
9.8777599999999985
  1
消費電力
 41
0.8
 11
-38.00000000000005
 21
569.29859999999985
 31
0.0
 73
     3
  0
TEXT
  5
7D
  8
SPEC
 62
     7
 10
192.47471821551599
 20
559.42083999999977
 30
0.0
 40
9.8777599999999985
  1
30W
 41
0.8
 11
192.47471821551599
 21
569.29859999999985
 31
0.0
 73
     3
  0
LINE
  5
7E
  8
SPEC
 62
     7
 10
-42.50000000000005
 20
647.5
 30
0.0
 11
575.0
 21
647.5
 31
0.0
  0
LINE
  5
7F
  8
SPEC
 62
     7
 10
575.0
 20
1060.0
 30
0.0
 11
575.0
 21
535.0
 31
0.0
  0
LINE
  5
80
  8
SPEC
 62
     7
 10
182.5
 20
1060.0
 30
0.0
 11
182.5
 21
535.0
 31
0.0
  0
LINE
  5
81
  8
SPEC
 62
     7
 10
51.237494030563468
 20
966.24999999999989
 30
0.0
 11
574.99999999999977
 21
966.24999999999989
 31
0.0
  0
TEXT
  5
82
  8
SPEC
 62
     7
 10
60.999999999999943
 20
953.17083999999988
 30
0.0
 40
9.8777599999999985
  1
サンプルレート
 41
0.8
 11
60.999999999999943
 21
963.04859999999985
 31
0.0
 73
     3
  0
TEXT
  5
83
  8
SPEC
 62
     7
 10
192.47471821551599
 20
953.17083999999988
 30
0.0
 40
9.8777599999999985
  1
44.1,48,88.2,96kHzに対応
 41
0.8
 11
192.47471821551599
 21
963.04859999999985
 31
0.0
 73
     3
  0
LINE
  5
84
  8
SPEC
 62
     7
 10
51.249999999999929
 20
853.74999999999989
 30
0.0
 11
575.0
 21
853.74999999999989
 31
0.0
  0
TEXT
  5
85
  8
SPEC
 62
     7
 10
192.47471821551599
 20
840.67083999999988
 30
0.0
 40
9.8777599999999985
  1
±21dB,0.1dBステップ
 41
0.8
 11
192.47471821551599
 21
850.54859999999985
 31
0.0
 73
     3
  0
TEXT
  5
86
  8
SPEC
 62
     7
 10
60.999999999999943
 20
840.67083999999988
 30
0.0
 40
9.8777599999999985
  1
ゲイン
 41
0.8
 11
60.999999999999943
 21
850.54859999999985
 31
0.0
 73
     3
  0
LINE
  5
87
  8
SPEC
 62
     7
 10
-42.50000000000005
 20
797.5
 30
0.0
 11
575.0
 21
797.5
 31
0.0
  0
TEXT
  5
88
  8
SPEC
 62
     7
 10
192.47471821551599
 20
821.92083999999988
 30
0.0
 40
9.8777599999999985
  1
6,12,18,24,48dB/oct
 41
0.8
 11
192.47471821551599
 21
831.79859999999985
 31
0.0
 73
     3
  0
TEXT
  5
89
  8
SPEC
 62
     7
 10
60.999999999999943
 20
821.92083999999988
 30
0.0
 40
9.8777599999999985
  1
スロープ
 41
0.8
 11
60.999999999999943
 21
831.79859999999985
 31
0.0
 73
     3
  0
LINE
  5
8A
  8
SPEC
 62
     7
 10
51.249999999999929
 20
816.24999999999989
 30
0.0
 11
575.0
 21
816.24999999999989
 31
0.0
  0
TEXT
  5
8B
  8
SPEC
 62
     7
 10
192.47471821551599
 20
803.17083999999988
 30
0.0
 40
9.8777599999999985
  1
Bessel,Butterworth,Linkwitz-Riley,NTM
 41
0.8
 11
192.47471821551599
 21
813.04859999999985
 31
0.0
 73
     3
  0
TEXT
  5
8C
  8
SPEC
 62
     7
 10
60.999999999999943
 20
803.17083999999988
 30
0.0
 40
9.8777599999999985
  1
形式
 41
0.8
 11
60.999999999999943
 21
813.04859999999985
 31
0.0
 73
     3
  0
TEXT
  5
8D
  8
SPEC
 62
     7
 10
-38.00000000000005
 20
821.92083999999988
 30
0.0
 40
9.8777599999999985
  1
クロスオーバ
 41
0.8
 11
-38.00000000000005
 21
831.79859999999985
 31
0.0
 73
     3
  0
LINE
  5
8E
  8
SPEC
 62
     7
 10
-42.50000000000005
 20
760.0
 30
0.0
 11
575.0
 21
760.0
 31
0.0
  0
TEXT
  5
8F
  8
SPEC
 62
     7
 10
192.47471821551599
 20
784.42083999999988
 30
0.0
 40
9.8777599999999985
  1
11μsec(最小)
 41
0.8
 11
192.47471821551599
 21
794.29859999999985
 31
0.0
 73
     3
  0
TEXT
  5
90
  8
SPEC
 62
     7
 10
60.999999999999943
 20
784.42083999999988
 30
0.0
 40
9.8777599999999985
  1
ディレイステップ
 41
0.8
 11
60.999999999999943
 21
794.29859999999985
 31
0.0
 73
     3
  0
LINE
  5
91
  8
SPEC
 62
     7
 10
51.249999999999929
 20
778.75
 30
0.0
 11
575.0
 21
778.75
 31
0.0
  0
TEXT
  5
92
  8
SPEC
 62
     7
 10
192.47471821551599
 20
765.67083999999988
 30
0.0
 40
9.8777599999999985
  1
2.6sec
 41
0.8
 11
192.47471821551599
 21
775.54859999999985
 31
0.0
 73
     3
  0
TEXT
  5
93
  8
SPEC
 62
     7
 10
60.999999999999943
 20
765.67083999999988
 30
0.0
 40
9.8777599999999985
  1
最大ディレイタイム
 41
0.8
 11
60.999999999999943
 21
775.54859999999985
 31
0.0
 73
     3
  0
TEXT
  5
94
  8
SPEC
 62
     7
 10
-38.00000000000005
 20
784.42083999999988
 30
0.0
 40
9.8777599999999985
  1
ディレイ
 41
0.8
 11
-38.00000000000005
 21
794.29859999999985
 31
0.0
 73
     3
  0
LINE
  5
95
  8
SPEC
 62
     7
 10
-42.50000000000005
 20
722.5
 30
0.0
 11
575.0
 21
722.5
 31
0.0
  0
TEXT
  5
96
  8
SPEC
 62
     7
 10
192.47471821551599
 20
746.92083999999988
 30
0.0
 40
9.8777599999999985
  1
0.05～3oct,0.05ステップ
 41
0.8
 11
192.47471821551599
 21
756.79859999999985
 31
0.0
 73
     3
  0
TEXT
  5
97
  8
SPEC
 62
     7
 10
60.999999999999943
 20
746.92083999999988
 30
0.0
 40
9.8777599999999985
  1
Q(bandwidth)
 41
0.8
 11
60.999999999999943
 21
756.79859999999985
 31
0.0
 73
     3
  0
LINE
  5
98
  8
SPEC
 62
     7
 10
51.249999999999929
 20
741.25
 30
0.0
 11
575.0
 21
741.25
 31
0.0
  0
TEXT
  5
99
  8
SPEC
 62
     7
 10
192.47471821551599
 20
728.17083999999988
 30
0.0
 40
9.8777599999999985
  1
15Hz～20kHz
 41
0.8
 11
192.47471821551599
 21
738.04859999999985
 31
0.0
 73
     3
  0
TEXT
  5
9A
  8
SPEC
 62
     7
 10
60.999999999999943
 20
728.17083999999988
 30
0.0
 40
9.8777599999999985
  1
周波数
 41
0.8
 11
60.999999999999943
 21
738.04859999999985
 31
0.0
 73
     3
  0
TEXT
  5
9B
  8
SPEC
 62
     7
 10
-38.00000000000005
 20
746.92083999999988
 30
0.0
 40
9.8777599999999985
  1
EQ
 41
0.8
 11
-38.00000000000005
 21
756.79859999999985
 31
0.0
 73
     3
  0
LINE
  5
9C
  8
SPEC
 62
     7
 10
-42.50000000000005
 20
703.75
 30
0.0
 11
575.0
 21
703.75
 31
0.0
  0
TEXT
  5
9D
  8
SPEC
 62
     7
 10
-38.00000000000005
 20
671.92083999999988
 30
0.0
 40
9.8777599999999985
  1
周波数特性
 41
0.8
 11
-38.00000000000005
 21
681.79859999999985
 31
0.0
 73
     3
  0
TEXT
  5
9E
  8
SPEC
 62
     7
 10
-38.00000000000005
 20
690.67083999999988
 30
0.0
 40
9.8777599999999985
  1
サンプリング周波数
 41
0.8
 11
-38.00000000000005
 21
700.54859999999985
 31
0.0
 73
     3
  0
TEXT
  5
9F
  8
SPEC
 62
     7
 10
192.47471821551599
 20
690.67083999999988
 30
0.0
 40
9.8777599999999985
  1
96kHz
 41
0.8
 11
192.47471821551599
 21
700.54859999999985
 31
0.0
 73
     3
  0
LINE
  5
A0
  8
SPEC
 62
     7
 10
-42.50000000000005
 20
685.0
 30
0.0
 11
575.0
 21
685.0
 31
0.0
  0
TEXT
  5
A1
  8
SPEC
 62
     7
 10
-38.00000000000005
 20
615.67083999999988
 30
0.0
 40
9.8777599999999985
  1
ダイナミックレンジ
 41
0.8
 11
-38.00000000000005
 21
625.54859999999985
 31
0.0
 73
     3
  0
TEXT
  5
A2
  8
SPEC
 62
     7
 10
192.47471821551599
 20
615.67083999999988
 30
0.0
 40
9.8777599999999985
  1
112dB以上(22Hz～22kHz,アンウェイト)
 41
0.8
 11
192.47471821551599
 21
625.54859999999985
 31
0.0
 73
     3
  0
TEXT
  5
A3
  8
SPEC
 62
     7
 10
192.47471821551599
 20
671.92083999999988
 30
0.0
 40
9.8777599999999985
  1
15Hz～20kHz(±0.25dB)
 41
0.8
 11
192.47471821551599
 21
681.79859999999985
 31
0.0
 73
     3
  0
TEXT
  5
A4
  8
SPEC
 62
     7
 10
192.47471821551599
 20
653.17083999999988
 30
0.0
 40
9.8777599999999985
  1
15Hz～40kHz(±3dB)
 41
0.8
 11
192.47471821551599
 21
663.04859999999985
 31
0.0
 73
     3
  0
LINE
  5
A5
  8
SPEC
 62
     7
 10
-42.50000000000005
 20
535.0
 30
0.0
 11
575.0
 21
535.0
 31
0.0
  0
TEXT
  5
A6
  8
SPEC
 62
     7
 10
-38.00000000000005
 20
540.67084
 30
0.0
 40
9.8777599999999985
  1
寸法(W×H×D)/重量
 41
0.8
 11
-38.00000000000005
 21
550.54859999999985
 31
0.0
 73
     3
  0
TEXT
  5
A7
  8
SPEC
 62
     7
 10
192.47471821551599
 20
540.67084
 30
0.0
 40
9.8777599999999985
  1
483×44×281mm(突起部含まず)/3.8kg
 41
0.8
 11
192.47471821551599
 21
550.54859999999985
 31
0.0
 73
     3
  0
TEXT
  5
A8
  8
DIMNSIONS
 62
     7
 10
269.99999999999989
 20
-129.1111611111111
 30
0.0
 40
14.111111111111111
  1
(単位：mm)
 41
0.8
 11
269.99999999999989
 21
-115.00005
 31
0.0
 73
     3
  0
LINE
  5
A9
  8
DIMNSIONS
 62
     7
 10
-10.0
 20
44.0
 30
0.0
 11
-40.0
 21
44.0
 31
0.0
  0
LINE
  5
AA
  8
DIMNSIONS
 62
     7
 10
-10.0
 20
0.0
 30
0.0
 11
-40.0
 21
0.0
 31
0.0
  0
LINE
  5
AB
  8
DIMNSIONS
 62
     7
 10
-30.0
 20
44.0
 30
0.0
 11
-30.0
 21
0.0
 31
0.0
  0
LINE
  5
AC
  8
DIMNSIONS
 62
     7
 10
-30.0
 20
44.0
 30
0.0
 11
-26.649801024248799
 21
31.49688720703125
 31
0.0
  0
LINE
  5
AD
  8
DIMNSIONS
 62
     7
 10
-30.0
 20
44.0
 30
0.0
 11
-33.350198975751198
 21
31.49688720703125
 31
0.0
  0
LINE
  5
AE
  8
DIMNSIONS
 62
     7
 10
-30.0
 20
0.0
 30
0.0
 11
-33.350198975751198
 21
12.50311279296875
 31
0.0
  0
LINE
  5
AF
  8
DIMNSIONS
 62
     7
 10
-30.0
 20
0.0
 30
0.0
 11
-26.649801024248799
 21
12.50311279296875
 31
0.0
  0
TEXT
  5
B0
  8
DIMNSIONS
 62
     7
 10
-36.027777777777793
 20
13.180555555555539
 30
0.0
 40
14.111111111111111
  1
44
 50
90.0
 41
0.8
 11
-50.1388888888889
 21
13.180555555555539
 31
0.0
 73
     3
  0
LINE
  5
B1
  8
DIMNSIONS
 62
     7
 10
24.300000000000011
 20
391.7000000000001
 30
0.0
 11
24.300000000000011
 21
420.0
 31
0.0
  0
LINE
  5
B2
  8
DIMNSIONS
 62
     7
 10
458.30000000000001
 20
391.7000000000001
 30
0.0
 11
458.30000000000001
 21
420.0
 31
0.0
  0
LINE
  5
B3
  8
DIMNSIONS
 62
     7
 10
24.300000000000011
 20
410.0
 30
0.0
 11
458.30000000000001
 21
410.0
 31
0.0
  0
LINE
  5
B4
  8
DIMNSIONS
 62
     7
 10
24.300000000000011
 20
410.0
 30
0.0
 11
36.803112792968761
 21
413.3501989757512
 31
0.0
  0
LINE
  5
B5
  8
DIMNSIONS
 62
     7
 10
24.300000000000011
 20
410.0
 30
0.0
 11
36.803112792968761
 21
406.64980102424869
 31
0.0
  0
LINE
  5
B6
  8
DIMNSIONS
 62
     7
 10
458.30000000000001
 20
410.0
 30
0.0
 11
445.79688720703132
 21
406.64980102424869
 31
0.0
  0
LINE
  5
B7
  8
DIMNSIONS
 62
     7
 10
458.30000000000001
 20
410.0
 30
0.0
 11
445.79688720703132
 21
413.3501989757512
 31
0.0
  0
TEXT
  5
B8
  8
DIMNSIONS
 62
     7
 10
228.0708333333333
 20
416.02777777777771
 30
0.0
 40
14.111111111111111
  1
434
 41
0.8
 11
228.0708333333333
 21
430.1388888888888
 31
0.0
 73
     3
  0
LINE
  5
B9
  8
DIMNSIONS
 62
     7
 10
0.0
 20
-10.0
 30
0.0
 11
0.0
 21
-50.0
 31
0.0
  0
LINE
  5
BA
  8
DIMNSIONS
 62
     7
 10
482.60000000000002
 20
-10.0
 30
0.0
 11
482.60000000000002
 21
-50.0
 31
0.0
  0
LINE
  5
BB
  8
DIMNSIONS
 62
     7
 10
0.0
 20
-40.0
 30
0.0
 11
482.60000000000002
 21
-40.0
 31
0.0
  0
LINE
  5
BC
  8
DIMNSIONS
 62
     7
 10
0.0
 20
-40.0
 30
0.0
 11
12.50311279296875
 21
-36.649801024248802
 31
0.0
  0
LINE
  5
BD
  8
DIMNSIONS
 62
     7
 10
0.0
 20
-40.0
 30
0.0
 11
12.50311279296875
 21
-43.350198975751191
 31
0.0
  0
LINE
  5
BE
  8
DIMNSIONS
 62
     7
 10
482.60000000000002
 20
-40.0
 30
0.0
 11
470.09688720703122
 21
-43.350198975751191
 31
0.0
  0
LINE
  5
BF
  8
DIMNSIONS
 62
     7
 10
482.60000000000002
 20
-40.0
 30
0.0
 11
470.09688720703122
 21
-36.649801024248802
 31
0.0
  0
TEXT
  5
C0
  8
DIMNSIONS
 62
     7
 10
228.0708333333333
 20
-33.9722222222222
 30
0.0
 40
14.111111111111111
  1
483
 41
0.8
 11
228.0708333333333
 21
-19.861111111111079
 31
0.0
 73
     3
  0
LINE
  5
C1
  8
DIMNSIONS
 62
     7
 10
-10.0
 20
104.59999999999999
 30
0.0
 11
-25.0
 21
104.59999999999999
 31
0.0
  0
LINE
  5
C2
  8
DIMNSIONS
 62
     7
 10
-10.0
 20
100.0
 30
0.0
 11
-25.0
 21
100.0
 31
0.0
  0
LINE
  5
C3
  8
DIMNSIONS
 62
     7
 10
-15.0
 20
100.0
 30
0.0
 11
-15.0
 21
104.59999999999999
 31
0.0
  0
LINE
  5
C4
  8
DIMNSIONS
 62
     7
 10
-15.0
 20
104.59999999999999
 30
0.0
 11
-15.0
 21
128.41944444444451
 31
0.0
  0
LINE
  5
C5
  8
DIMNSIONS
 62
     7
 10
-15.0
 20
104.59999999999999
 30
0.0
 11
-18.350198975751201
 21
117.1031127929687
 31
0.0
  0
LINE
  5
C6
  8
DIMNSIONS
 62
     7
 10
-15.0
 20
104.59999999999999
 30
0.0
 11
-11.6498010242488
 21
117.1031127929687
 31
0.0
  0
LINE
  5
C7
  8
DIMNSIONS
 62
     7
 10
-15.0
 20
100.0
 30
0.0
 11
-15.0
 21
75.0
 31
0.0
  0
LINE
  5
C8
  8
DIMNSIONS
 62
     7
 10
-15.0
 20
100.0
 30
0.0
 11
-11.6498010242488
 21
87.496887207031236
 31
0.0
  0
LINE
  5
C9
  8
DIMNSIONS
 62
     7
 10
-15.0
 20
100.0
 30
0.0
 11
-18.350198975751201
 21
87.496887207031236
 31
0.0
  0
TEXT
  5
CA
  8
DIMNSIONS
 62
     7
 10
-21.0277777777778
 20
119.60000000000009
 30
0.0
 40
14.111111111111111
  1
5
 50
90.0
 41
0.8
 11
-35.138888888888907
 21
119.60000000000009
 31
0.0
 73
     3
  0
LINE
  5
CB
  8
DIMNSIONS
 62
     7
 10
-10.0
 20
100.0
 30
0.0
 11
-50.0
 21
100.0
 31
0.0
  0
LINE
  5
CC
  8
DIMNSIONS
 62
     7
 10
14.30000000000001
 20
380.60000000000002
 30
0.0
 11
-50.0
 21
380.60000000000002
 31
0.0
  0
LINE
  5
CD
  8
DIMNSIONS
 62
     7
 10
-40.0
 20
100.0
 30
0.0
 11
-40.0
 21
380.60000000000002
 31
0.0
  0
LINE
  5
CE
  8
DIMNSIONS
 62
     7
 10
-40.0
 20
100.0
 30
0.0
 11
-43.350198975751191
 21
112.50311279296869
 31
0.0
  0
LINE
  5
CF
  8
DIMNSIONS
 62
     7
 10
-40.0
 20
100.0
 30
0.0
 11
-36.649801024248802
 21
112.50311279296869
 31
0.0
  0
LINE
  5
D0
  8
DIMNSIONS
 62
     7
 10
-40.0
 20
380.60000000000002
 30
0.0
 11
-36.649801024248802
 21
368.09688720703127
 31
0.0
  0
LINE
  5
D1
  8
DIMNSIONS
 62
     7
 10
-40.0
 20
380.60000000000002
 30
0.0
 11
-43.350198975751191
 21
368.09688720703127
 31
0.0
  0
TEXT
  5
D2
  8
DIMNSIONS
 62
     7
 10
-46.027777777777779
 20
227.0708333333333
 30
0.0
 40
14.111111111111111
  1
281
 50
90.0
 41
0.8
 11
-60.1388888888889
 21
227.0708333333333
 31
0.0
 73
     3
  0
LINE
  5
D3
  8
DIMNSIONS
 62
     7
 10
460.80000000000001
 20
127.90000000000001
 30
0.0
 11
460.80000000000001
 21
445.0
 31
0.0
  0
LINE
  5
D4
  8
DIMNSIONS
 62
     7
 10
21.800000000000011
 20
127.90000000000001
 30
0.0
 11
21.800000000000011
 21
445.0
 31
0.0
  0
LINE
  5
D5
  8
DIMNSIONS
 62
     7
 10
460.80000000000001
 20
435.0
 30
0.0
 11
21.800000000000011
 21
435.0
 31
0.0
  0
LINE
  5
D6
  8
DIMNSIONS
 62
     7
 10
460.80000000000001
 20
435.0
 30
0.0
 11
448.2968872070312
 21
431.64980102424869
 31
0.0
  0
LINE
  5
D7
  8
DIMNSIONS
 62
     7
 10
460.80000000000001
 20
435.0
 30
0.0
 11
448.2968872070312
 21
438.3501989757512
 31
0.0
  0
LINE
  5
D8
  8
DIMNSIONS
 62
     7
 10
21.800000000000011
 20
435.0
 30
0.0
 11
34.303112792968761
 21
438.3501989757512
 31
0.0
  0
LINE
  5
D9
  8
DIMNSIONS
 62
     7
 10
21.800000000000011
 20
435.0
 30
0.0
 11
34.303112792968761
 21
431.64980102424869
 31
0.0
  0
TEXT
  5
DA
  8
DIMNSIONS
 62
     7
 10
228.0708333333333
 20
441.02777777777771
 30
0.0
 40
14.111111111111111
  1
439
 41
0.8
 11
228.0708333333333
 21
455.1388888888888
 31
0.0
 73
     3
  0
LINE
  5
DB
  8
DIMNSIONS
 62
     7
 10
28.29806150679838
 20
384.60000000000002
 30
0.0
 11
-50.0
 21
384.60000000000002
 31
0.0
  0
LINE
  5
DC
  8
DIMNSIONS
 62
     7
 10
14.30000000000001
 20
380.60000000000002
 30
0.0
 11
-50.0
 21
380.60000000000002
 31
0.0
  0
LINE
  5
DD
  8
DIMNSIONS
 62
     7
 10
-40.0
 20
380.60000000000002
 30
0.0
 11
-40.0
 21
384.60000000000002
 31
0.0
  0
LINE
  5
DE
  8
DIMNSIONS
 62
     7
 10
-40.0
 20
384.60000000000002
 30
0.0
 11
-40.0
 21
408.81944444444451
 31
0.0
  0
LINE
  5
DF
  8
DIMNSIONS
 62
     7
 10
-40.0
 20
384.60000000000002
 30
0.0
 11
-43.350198975751191
 21
397.10311279296889
 31
0.0
  0
LINE
  5
E0
  8
DIMNSIONS
 62
     7
 10
-40.0
 20
384.60000000000002
 30
0.0
 11
-36.649801024248802
 21
397.10311279296889
 31
0.0
  0
LINE
  5
E1
  8
DIMNSIONS
 62
     7
 10
-40.0
 20
380.60000000000002
 30
0.0
 11
-40.0
 21
355.60000000000002
 31
0.0
  0
LINE
  5
E2
  8
DIMNSIONS
 62
     7
 10
-40.0
 20
380.60000000000002
 30
0.0
 11
-36.649801024248802
 21
368.09688720703127
 31
0.0
  0
LINE
  5
E3
  8
DIMNSIONS
 62
     7
 10
-40.0
 20
380.60000000000002
 30
0.0
 11
-43.350198975751191
 21
368.09688720703127
 31
0.0
  0
TEXT
  5
E4
  8
DIMNSIONS
 62
     7
 10
-46.027777777777779
 20
400.0
 30
0.0
 40
14.111111111111111
  1
4
 50
90.0
 41
0.8
 11
-60.1388888888889
 21
400.0
 31
0.0
 73
     3
  0
LINE
  5
E5
  8
DIMNSIONS
 62
     7
 10
-10.0
 20
100.0
 30
0.0
 11
-50.0
 21
100.0
 31
0.0
  0
LINE
  5
E6
  8
DIMNSIONS
 62
     7
 10
167.65000000000001
 20
81.5
 30
0.0
 11
-50.0
 21
81.5
 31
0.0
  0
LINE
  5
E7
  8
DIMNSIONS
 62
     7
 10
-40.0
 20
81.5
 30
0.0
 11
-40.0
 21
100.0
 31
0.0
  0
LINE
  5
E8
  8
DIMNSIONS
 62
     7
 10
-40.0
 20
100.0
 30
0.0
 11
-40.0
 21
125.0
 31
0.0
  0
LINE
  5
E9
  8
DIMNSIONS
 62
     7
 10
-40.0
 20
100.0
 30
0.0
 11
-43.350198975751191
 21
112.50311279296869
 31
0.0
  0
LINE
  5
EA
  8
DIMNSIONS
 62
     7
 10
-40.0
 20
100.0
 30
0.0
 11
-36.649801024248802
 21
112.50311279296869
 31
0.0
  0
LINE
  5
EB
  8
DIMNSIONS
 62
     7
 10
-40.0
 20
81.5
 30
0.0
 11
-40.0
 21
51.3611111111111
 31
0.0
  0
LINE
  5
EC
  8
DIMNSIONS
 62
     7
 10
-40.0
 20
81.5
 30
0.0
 11
-36.649801024248802
 21
68.99688720703125
 31
0.0
  0
LINE
  5
ED
  8
DIMNSIONS
 62
     7
 10
-40.0
 20
81.5
 30
0.0
 11
-43.350198975751191
 21
68.99688720703125
 31
0.0
  0
TEXT
  5
EE
  8
DIMNSIONS
 62
     7
 10
-46.027777777777779
 20
51.3611111111111
 30
0.0
 40
14.111111111111111
  1
19
 50
90.0
 41
0.8
 11
-60.1388888888889
 21
51.3611111111111
 31
0.0
 73
     3
  0
TEXT
  5
EF
  8
DATA
 62
     7
 10
619.99999999999989
 20
-129.3930499999999
 30
0.0
 40
12.699999999999999
  1
FDS-366T
 41
0.8
 11
619.99999999999989
 21
-116.6930499999999
 31
0.0
 73
     3
  0
TEXT
  5
F0
  8
DATA
 62
     7
 10
619.99999999999989
 20
-103.1430499999999
 30
0.0
 40
12.699999999999999
  1
BSS
 41
0.8
 11
619.99999999999989
 21
-90.443049999999957
 31
0.0
 73
     3
  0
TEXT
  5
F1
  8
DATA
 62
     7
 10
-30.0
 20
-168.1749999999999
 30
0.0
 40
8.466666666666665
  1
仕様および外観は予告なく変更されることがありますので、ご了承ください。
 41
0.8
 11
-30.0
 21
-159.7083333333332
 31
0.0
 73
     3
  0
POLYLINE
  5
F2
  8
DATA
 62
     7
 66
     1
 10
0.0
 20
0.0
 30
0.0
 70
     1
  0
VERTEX
  5
942
  8
DATA
 62
     7
 10
0.0
 20
44.0
 30
0.0
  0
VERTEX
  5
943
  8
DATA
 62
     7
 10
482.60000000000002
 20
44.0
 30
0.0
  0
VERTEX
  5
944
  8
DATA
 62
     7
 10
482.60000000000002
 20
0.0
 30
0.0
  0
VERTEX
  5
945
  8
DATA
 62
     7
 10
0.0
 20
0.0
 30
0.0
  0
SEQEND
  5
946
  8
DATA
 62
     7
  0
POLYLINE
  5
F8
  8
DATA
 62
     7
 66
     1
 10
0.0
 20
0.0
 30
0.0
 70
     1
  0
VERTEX
  5
947
  8
DATA
 62
     7
 10
24.300000000000011
 20
380.60000000000002
 30
0.0
  0
VERTEX
  5
948
  8
DATA
 62
     7
 10
458.30000000000001
 20
380.60000000000002
 30
0.0
  0
VERTEX
  5
949
  8
DATA
 62
     7
 10
458.30000000000001
 20
105.40000000000001
 30
0.0
  0
VERTEX
  5
94A
  8
DATA
 62
     7
 10
24.300000000000011
 20
105.40000000000001
 30
0.0
  0
SEQEND
  5
94B
  8
DATA
 62
     7
  0
POLYLINE
  5
FE
  8
DATA
 62
     7
 66
     1
 10
0.0
 20
0.0
 30
0.0
 70
     1
  0
VERTEX
  5
94C
  8
DATA
 62
     7
 10
0.0
 20
509.0
 30
0.0
  0
VERTEX
  5
94D
  8
DATA
 62
     7
 10
483.0
 20
509.0
 30
0.0
  0
VERTEX
  5
94E
  8
DATA
 62
     7
 10
483.0
 20
465.0
 30
0.0
  0
VERTEX
  5
94F
  8
DATA
 62
     7
 10
0.0
 20
465.0
 30
0.0
  0
SEQEND
  5
950
  8
DATA
 62
     7
  0
TEXT
  5
104
  8
DATA
 62
     7
 10
280.0
 20
4.0283913352271359
 30
0.0
 40
2.7999999999999998
  1
MUTE
 41
0.8
 11
280.0
 21
6.8283913352271366
 31
0.0
 73
     3
  0
TEXT
  5
105
  8
DATA
 62
     7
 10
255.625
 20
4.0283913352271359
 30
0.0
 40
2.7999999999999998
  1
PC CARD
 41
0.8
 11
255.625
 21
6.8283913352271366
 31
0.0
 73
     3
  0
TEXT
  5
106
  8
DATA
 62
     7
 10
37.091025403784442
 20
4.9499999999999993
 30
0.0
 40
2.7999999999999998
  1
RECALL
 41
0.8
 11
37.091025403784442
 21
7.75
 31
0.0
 73
     3
  0
TEXT
  5
107
  8
DATA
 62
     7
 10
37.966025403784442
 20
21.449999999999999
 30
0.0
 40
2.7999999999999998
  1
STORE
 41
0.8
 11
37.966025403784442
 21
24.25
 31
0.0
 73
     3
  0
TEXT
  5
108
  8
DATA
 62
     7
 10
37.341025403784442
 20
33.799999999999997
 30
0.0
 40
3.2000000000000002
  1
ENTER
 41
0.8
 11
37.341025403784442
 21
37.0
 31
0.0
 73
     3
  0
LINE
  5
109
  8
DATA
 62
     7
 10
26.100000000000019
 20
103.59999999999999
 30
0.0
 11
0.0
 21
103.59999999999999
 31
0.0
  0
LINE
  5
10A
  8
DATA
 62
     7
 10
0.0
 20
100.0
 30
0.0
 11
482.60000000000002
 21
100.0
 31
0.0
  0
LINE
  5
10B
  8
DATA
 62
     7
 10
0.0
 20
101.7
 30
0.0
 11
482.60000000000002
 21
101.7
 31
0.0
  0
LINE
  5
10C
  8
DATA
 62
     7
 10
25.100000000000019
 20
104.59999999999999
 30
0.0
 11
25.100000000000019
 21
105.40000000000001
 31
0.0
  0
LINE
  5
10D
  8
DATA
 62
     7
 10
28.0
 20
105.40000000000001
 30
0.0
 11
28.0
 21
101.59999999999999
 31
0.0
  0
LINE
  5
10E
  8
DATA
 62
     7
 10
177.65000000000001
 20
81.5
 30
0.0
 11
202.34999999999999
 21
81.5
 31
0.0
  0
LINE
  5
10F
  8
DATA
 62
     7
 10
177.65000000000001
 20
83.0
 30
0.0
 11
202.34999999999999
 21
83.0
 31
0.0
  0
LINE
  5
110
  8
DATA
 62
     7
 10
176.0471428571428
 20
100.0
 30
0.0
 11
177.65000000000001
 21
83.0
 31
0.0
  0
LINE
  5
111
  8
DATA
 62
     7
 10
203.9528571428572
 20
100.0
 30
0.0
 11
202.34999999999999
 21
83.0
 31
0.0
  0
LINE
  5
112
  8
DATA
 62
     7
 10
193.31
 20
83.0
 30
0.0
 11
193.31
 21
98.500000000000014
 31
0.0
  0
LINE
  5
113
  8
DATA
 62
     7
 10
190.0
 20
83.0
 30
0.0
 11
190.0
 21
98.500000000000014
 31
0.0
  0
LINE
  5
114
  8
DATA
 62
     7
 10
197.49908624052861
 20
81.447650754946267
 30
0.0
 11
197.50091431644819
 21
81.5
 31
0.0
  0
LINE
  5
115
  8
DATA
 62
     7
 10
199.05000000000001
 20
83.0
 30
0.0
 11
199.5890822137853
 21
98.437294814270885
 31
0.0
  0
LINE
  5
116
  8
DATA
 62
     7
 10
196.40000000000001
 20
83.0
 30
0.0
 11
196.94273836562451
 21
98.541993304378408
 31
0.0
  0
LINE
  5
117
  8
DATA
 62
     7
 10
186.69
 20
83.0
 30
0.0
 11
186.1472616343755
 21
98.541993304378366
 31
0.0
  0
LINE
  5
118
  8
DATA
 62
     7
 10
182.5009137594713
 20
81.44765075494621
 30
0.0
 11
182.4990856835517
 21
81.5
 31
0.0
  0
LINE
  5
119
  8
DATA
 62
     7
 10
183.59999999999999
 20
83.0
 30
0.0
 11
183.06091778621459
 21
98.437294814270842
 31
0.0
  0
LINE
  5
11A
  8
DATA
 62
     7
 10
177.65000000000001
 20
81.5
 30
0.0
 11
177.65000000000001
 21
83.0
 31
0.0
  0
LINE
  5
11B
  8
DATA
 62
     7
 10
202.34999999999999
 20
81.5
 30
0.0
 11
202.34999999999999
 21
83.0
 31
0.0
  0
ARC
  5
11C
  8
DATA
 62
     7
 10
191.655
 20
97.566727956736784
 30
0.0
 40
1.9000057122905269
 50
29.419112047523448
 51
150.5808879524765
  0
ARC
  5
11D
  8
DATA
 62
     7
 10
198.2516183334817
 20
98.128402647051246
 30
0.0
 40
1.37267039091197
 50
13.00464866603509
 51
162.4640772536078
  0
ARC
  5
11E
  8
DATA
 62
     7
 10
184.62693041821859
 20
97.816336561621142
 30
0.0
 40
1.684631922744519
 50
25.515224557433569
 51
158.3705914079371
  0
LINE
  5
11F
  8
DATA
 62
     7
 10
180.9490332008121
 20
83.0
 30
0.0
 11
183.59999999999999
 21
83.0
 31
0.0
  0
LINE
  5
120
  8
DATA
 62
     7
 10
180.94999999999999
 20
83.0
 30
0.0
 11
180.41091778621461
 21
98.437294814270842
 31
0.0
  0
LINE
  5
121
  8
DATA
 62
     7
 10
178.91
 20
83.0
 30
0.0
 11
178.3709177862147
 21
98.437294814270842
 31
0.0
  0
ARC
  5
122
  8
DATA
 62
     7
 10
179.3909177862146
 20
98.480000000000004
 30
0.0
 40
1.020893595282184
 50
357.60255028028268
 51
182.3974497197172
  0
LINE
  5
123
  8
DATA
 62
     7
 10
0.0
 20
100.0
 30
0.0
 11
0.0
 21
104.59999999999999
 31
0.0
  0
LINE
  5
124
  8
DATA
 62
     7
 10
520.70000000000005
 20
44.0
 30
0.0
 11
520.70000000000005
 21
0.0
 31
0.0
  0
LINE
  5
125
  8
DATA
 62
     7
 10
523.60000000000002
 20
44.0
 30
0.0
 11
523.60000000000002
 21
0.0
 31
0.0
  0
LINE
  5
126
  8
DATA
 62
     7
 10
526.90006364118767
 20
32.5
 30
0.0
 11
564.60000002574805
 21
32.5
 31
0.0
  0
LINE
  5
127
  8
DATA
 62
     7
 10
799.60000000000002
 20
43.5
 30
0.0
 11
524.40006364118767
 21
43.5
 31
0.0
  0
LINE
  5
128
  8
DATA
 62
     7
 10
519.0
 20
44.0
 30
0.0
 11
519.0
 21
0.0
 31
0.0
  0
LINE
  5
129
  8
DATA
 62
     7
 10
524.40006364118767
 20
35.0
 30
0.0
 11
524.40006364118767
 21
43.5
 31
0.0
  0
LINE
  5
12A
  8
DATA
 62
     7
 10
519.0
 20
44.0
 30
0.0
 11
523.60000000000002
 21
44.0
 31
0.0
  0
LINE
  5
12B
  8
DATA
 62
     7
 10
523.60000000000002
 20
41.0
 30
0.0
 11
524.40019093067008
 21
41.0
 31
0.0
  0
LINE
  5
12C
  8
DATA
 62
     7
 10
519.0
 20
0.0
 30
0.0
 11
523.60000000000002
 21
0.0
 31
0.0
  0
LINE
  5
12D
  8
DATA
 62
     7
 10
523.60000000000002
 20
0.5
 30
0.0
 11
798.59999999999968
 21
0.5
 31
0.0
  0
LINE
  5
12E
  8
DATA
 62
     7
 10
798.59999999999968
 20
0.5
 30
0.0
 11
798.59999999999968
 21
42.5
 31
0.0
  0
LINE
  5
12F
  8
DATA
 62
     7
 10
799.60000000000002
 20
43.5
 30
0.0
 11
799.60000000000002
 21
38.0
 31
0.0
  0
LINE
  5
130
  8
DATA
 62
     7
 10
797.59999999999991
 20
43.5
 30
0.0
 11
797.59999999999991
 21
35.00000039908651
 31
0.0
  0
LINE
  5
131
  8
DATA
 62
     7
 10
799.60000000000002
 20
41.14999999999997
 30
0.0
 11
799.60000000000002
 21
34.849999999999973
 31
0.0
  0
ARC
  5
132
  8
DATA
 62
     7
 10
797.04250000000002
 20
38.0
 30
0.0
 40
4.057499999999985
 50
309.07330987625693
 51
50.926690123742972
  0
LINE
  5
133
  8
DATA
 62
     7
 10
24.300000000000011
 20
466.0
 30
0.0
 11
24.300000000000011
 21
477.0
 31
0.0
  0
LINE
  5
134
  8
DATA
 62
     7
 10
458.30000000000001
 20
466.0
 30
0.0
 11
458.30000000000001
 21
477.0
 31
0.0
  0
LINE
  5
135
  8
DATA
 62
     7
 10
25.300000000000011
 20
471.49999999999989
 30
0.0
 11
25.300000000000011
 21
508.49999999999989
 31
0.0
  0
LINE
  5
136
  8
DATA
 62
     7
 10
25.300000000000011
 20
471.49999999999989
 30
0.0
 11
457.30000000000001
 21
471.49999999999989
 31
0.0
  0
LINE
  5
137
  8
DATA
 62
     7
 10
457.30000000000001
 20
471.49999999999989
 30
0.0
 11
457.30000000000001
 21
508.49999999999989
 31
0.0
  0
LINE
  5
138
  8
DATA
 62
     7
 10
799.60000000000002
 20
34.850000000000023
 30
0.0
 11
798.59999999999968
 21
34.850000000000023
 31
0.0
  0
CIRCLE
  5
139
  8
DATA
 62
     7
 10
123.3
 20
471.49999999999989
 30
0.0
 40
3.149999999999991
  0
POLYLINE
  5
13A
  8
DATA
 62
     7
 66
     1
 10
0.0
 20
0.0
 30
0.0
  0
VERTEX
  5
951
  8
DATA
 62
     7
 10
123.8
 20
472.0
 30
0.0
  0
VERTEX
  5
952
  8
DATA
 62
     7
 10
123.8
 20
473.5
 30
0.0
  0
VERTEX
  5
953
  8
DATA
 62
     7
 10
122.8
 20
473.5
 30
0.0
  0
VERTEX
  5
954
  8
DATA
 62
     7
 10
122.8
 20
472.0
 30
0.0
  0
SEQEND
  5
955
  8
DATA
 62
     7
  0
POLYLINE
  5
140
  8
DATA
 62
     7
 66
     1
 10
0.0
 20
0.0
 30
0.0
  0
VERTEX
  5
956
  8
DATA
 62
     7
 10
123.8
 20
471.0
 30
0.0
  0
VERTEX
  5
957
  8
DATA
 62
     7
 10
123.8
 20
469.5
 30
0.0
  0
VERTEX
  5
958
  8
DATA
 62
     7
 10
122.8
 20
469.5
 30
0.0
  0
VERTEX
  5
959
  8
DATA
 62
     7
 10
122.8
 20
471.0
 30
0.0
  0
SEQEND
  5
95A
  8
DATA
 62
     7
  0
CIRCLE
  5
146
  8
DATA
 62
     7
 10
123.3
 20
471.49999999999989
 30
0.0
 40
3.149999999999991
  0
POLYLINE
  5
147
  8
DATA
 62
     7
 66
     1
 10
0.0
 20
0.0
 30
0.0
  0
VERTEX
  5
95B
  8
DATA
 62
     7
 10
123.8
 20
471.0
 30
0.0
  0
VERTEX
  5
95C
  8
DATA
 62
     7
 10
125.3
 20
471.0
 30
0.0
  0
VERTEX
  5
95D
  8
DATA
 62
     7
 10
125.3
 20
472.0
 30
0.0
  0
VERTEX
  5
95E
  8
DATA
 62
     7
 10
123.8
 20
472.0
 30
0.0
  0
SEQEND
  5
95F
  8
DATA
 62
     7
  0
POLYLINE
  5
14D
  8
DATA
 62
     7
 66
     1
 10
0.0
 20
0.0
 30
0.0
  0
VERTEX
  5
960
  8
DATA
 62
     7
 10
122.8
 20
471.0
 30
0.0
  0
VERTEX
  5
961
  8
DATA
 62
     7
 10
121.3
 20
471.0
 30
0.0
  0
VERTEX
  5
962
  8
DATA
 62
     7
 10
121.3
 20
472.0
 30
0.0
  0
VERTEX
  5
963
  8
DATA
 62
     7
 10
122.8
 20
472.0
 30
0.0
  0
SEQEND
  5
964
  8
DATA
 62
     7
  0
CIRCLE
  5
153
  8
DATA
 62
     7
 10
359.30000000000001
 20
471.49999999999989
 30
0.0
 40
3.149999999999991
  0
POLYLINE
  5
154
  8
DATA
 62
     7
 66
     1
 10
0.0
 20
0.0
 30
0.0
  0
VERTEX
  5
965
  8
DATA
 62
     7
 10
359.80000000000001
 20
472.0
 30
0.0
  0
VERTEX
  5
966
  8
DATA
 62
     7
 10
359.80000000000001
 20
473.5
 30
0.0
  0
VERTEX
  5
967
  8
DATA
 62
     7
 10
358.80000000000001
 20
473.5
 30
0.0
  0
VERTEX
  5
968
  8
DATA
 62
     7
 10
358.80000000000001
 20
472.0
 30
0.0
  0
SEQEND
  5
969
  8
DATA
 62
     7
  0
POLYLINE
  5
15A
  8
DATA
 62
     7
 66
     1
 10
0.0
 20
0.0
 30
0.0
  0
VERTEX
  5
96A
  8
DATA
 62
     7
 10
359.80000000000001
 20
471.0
 30
0.0
  0
VERTEX
  5
96B
  8
DATA
 62
     7
 10
359.80000000000001
 20
469.5
 30
0.0
  0
VERTEX
  5
96C
  8
DATA
 62
     7
 10
358.80000000000001
 20
469.5
 30
0.0
  0
VERTEX
  5
96D
  8
DATA
 62
     7
 10
358.80000000000001
 20
471.0
 30
0.0
  0
SEQEND
  5
96E
  8
DATA
 62
     7
  0
CIRCLE
  5
160
  8
DATA
 62
     7
 10
359.30000000000001
 20
471.49999999999989
 30
0.0
 40
3.149999999999991
  0
POLYLINE
  5
161
  8
DATA
 62
     7
 66
     1
 10
0.0
 20
0.0
 30
0.0
  0
VERTEX
  5
96F
  8
DATA
 62
     7
 10
359.80000000000001
 20
471.0
 30
0.0
  0
VERTEX
  5
970
  8
DATA
 62
     7
 10
361.30000000000001
 20
471.0
 30
0.0
  0
VERTEX
  5
971
  8
DATA
 62
     7
 10
361.30000000000001
 20
472.0
 30
0.0
  0
VERTEX
  5
972
  8
DATA
 62
     7
 10
359.80000000000001
 20
472.0
 30
0.0
  0
SEQEND
  5
973
  8
DATA
 62
     7
  0
POLYLINE
  5
167
  8
DATA
 62
     7
 66
     1
 10
0.0
 20
0.0
 30
0.0
  0
VERTEX
  5
974
  8
DATA
 62
     7
 10
358.80000000000001
 20
471.0
 30
0.0
  0
VERTEX
  5
975
  8
DATA
 62
     7
 10
357.30000000000001
 20
471.0
 30
0.0
  0
VERTEX
  5
976
  8
DATA
 62
     7
 10
357.30000000000001
 20
472.0
 30
0.0
  0
VERTEX
  5
977
  8
DATA
 62
     7
 10
358.80000000000001
 20
472.0
 30
0.0
  0
SEQEND
  5
978
  8
DATA
 62
     7
  0
ARC
  5
16D
  8
DATA
 62
     7
 10
43.299999999999997
 20
489.0
 30
0.0
 40
10.69999999999999
 50
283.51175535949187
 51
256.48824464050813
  0
CIRCLE
  5
16E
  8
DATA
 62
     7
 10
43.299999999999997
 20
489.0
 30
0.0
 40
7.9999999999999947
  0
CIRCLE
  5
16F
  8
DATA
 62
     7
 10
47.300000000000011
 20
489.0
 30
0.0
 40
1.2499999999999909
  0
CIRCLE
  5
170
  8
DATA
 62
     7
 10
39.300000000000011
 20
489.0
 30
0.0
 40
1.2499999999999909
  0
CIRCLE
  5
171
  8
DATA
 62
     7
 10
43.299999999999997
 20
493.0
 30
0.0
 40
1.2499999999999909
  0
LINE
  5
172
  8
DATA
 62
     7
 10
45.799999999999997
 20
479.5759615875146
 30
0.0
 11
45.799999999999997
 21
477.71132486540517
 31
0.0
  0
LINE
  5
173
  8
DATA
 62
     7
 10
40.799999999999997
 20
479.5759615875146
 30
0.0
 11
40.799999999999997
 21
477.71132486540512
 31
0.0
  0
ARC
  5
174
  8
DATA
 62
     7
 10
41.17872867597292
 20
474.8556624327025
 30
0.0
 40
2.880667169173269
 50
97.554693985849994
 51
262.44530601414999
  0
ARC
  5
175
  8
DATA
 62
     7
 10
45.421271324027089
 20
474.8556624327025
 30
0.0
 40
2.8806671691733809
 50
277.55469398584972
 51
82.44530601415029
  0
LINE
  5
176
  8
DATA
 62
     7
 10
40.799999999999997
 20
472.0
 30
0.0
 11
45.799999999999997
 21
472.0
 31
0.0
  0
CIRCLE
  5
177
  8
DATA
 62
     7
 10
33.300000000000011
 20
499.0
 30
0.0
 40
2.49999999999998
  0
POLYLINE
  5
178
  8
DATA
 62
     7
 66
     1
 10
0.0
 20
0.0
 30
0.0
  0
VERTEX
  5
979
  8
DATA
 62
     7
 10
33.800000000000011
 20
498.5
 30
0.0
  0
VERTEX
  5
97A
  8
DATA
 62
     7
 10
34.800000000000011
 20
498.5
 30
0.0
  0
VERTEX
  5
97B
  8
DATA
 62
     7
 10
34.800000000000011
 20
499.5
 30
0.0
  0
VERTEX
  5
97C
  8
DATA
 62
     7
 10
33.800000000000011
 20
499.5
 30
0.0
  0
SEQEND
  5
97D
  8
DATA
 62
     7
  0
POLYLINE
  5
17E
  8
DATA
 62
     7
 66
     1
 10
0.0
 20
0.0
 30
0.0
  0
VERTEX
  5
97E
  8
DATA
 62
     7
 10
32.800000000000011
 20
498.5
 30
0.0
  0
VERTEX
  5
97F
  8
DATA
 62
     7
 10
31.800000000000011
 20
498.5
 30
0.0
  0
VERTEX
  5
980
  8
DATA
 62
     7
 10
31.800000000000011
 20
499.5
 30
0.0
  0
VERTEX
  5
981
  8
DATA
 62
     7
 10
32.800000000000011
 20
499.5
 30
0.0
  0
SEQEND
  5
982
  8
DATA
 62
     7
  0
CIRCLE
  5
184
  8
DATA
 62
     7
 10
33.300000000000011
 20
499.0
 30
0.0
 40
2.499999999999988
  0
POLYLINE
  5
185
  8
DATA
 62
     7
 66
     1
 10
0.0
 20
0.0
 30
0.0
  0
VERTEX
  5
983
  8
DATA
 62
     7
 10
33.800000000000011
 20
499.5
 30
0.0
  0
VERTEX
  5
984
  8
DATA
 62
     7
 10
33.800000000000011
 20
500.49999999999989
 30
0.0
  0
VERTEX
  5
985
  8
DATA
 62
     7
 10
32.800000000000011
 20
500.49999999999989
 30
0.0
  0
VERTEX
  5
986
  8
DATA
 62
     7
 10
32.800000000000011
 20
499.5
 30
0.0
  0
SEQEND
  5
987
  8
DATA
 62
     7
  0
POLYLINE
  5
18B
  8
DATA
 62
     7
 66
     1
 10
0.0
 20
0.0
 30
0.0
  0
VERTEX
  5
988
  8
DATA
 62
     7
 10
33.800000000000011
 20
498.5
 30
0.0
  0
VERTEX
  5
989
  8
DATA
 62
     7
 10
33.800000000000011
 20
497.5
 30
0.0
  0
VERTEX
  5
98A
  8
DATA
 62
     7
 10
32.800000000000011
 20
497.5
 30
0.0
  0
VERTEX
  5
98B
  8
DATA
 62
     7
 10
32.800000000000011
 20
498.5
 30
0.0
  0
SEQEND
  5
98C
  8
DATA
 62
     7
  0
CIRCLE
  5
191
  8
DATA
 62
     7
 10
53.300000000000011
 20
479.0
 30
0.0
 40
2.49999999999998
  0
POLYLINE
  5
192
  8
DATA
 62
     7
 66
     1
 10
0.0
 20
0.0
 30
0.0
  0
VERTEX
  5
98D
  8
DATA
 62
     7
 10
52.800000000000011
 20
479.49999999999989
 30
0.0
  0
VERTEX
  5
98E
  8
DATA
 62
     7
 10
51.800000000000011
 20
479.49999999999989
 30
0.0
  0
VERTEX
  5
98F
  8
DATA
 62
     7
 10
51.800000000000011
 20
478.5
 30
0.0
  0
VERTEX
  5
990
  8
DATA
 62
     7
 10
52.800000000000011
 20
478.5
 30
0.0
  0
SEQEND
  5
991
  8
DATA
 62
     7
  0
POLYLINE
  5
198
  8
DATA
 62
     7
 66
     1
 10
0.0
 20
0.0
 30
0.0
  0
VERTEX
  5
992
  8
DATA
 62
     7
 10
53.800000000000011
 20
479.49999999999989
 30
0.0
  0
VERTEX
  5
993
  8
DATA
 62
     7
 10
54.800000000000011
 20
479.49999999999989
 30
0.0
  0
VERTEX
  5
994
  8
DATA
 62
     7
 10
54.800000000000011
 20
478.5
 30
0.0
  0
VERTEX
  5
995
  8
DATA
 62
     7
 10
53.800000000000011
 20
478.5
 30
0.0
  0
SEQEND
  5
996
  8
DATA
 62
     7
  0
CIRCLE
  5
19E
  8
DATA
 62
     7
 10
53.300000000000011
 20
479.0
 30
0.0
 40
2.499999999999988
  0
POLYLINE
  5
19F
  8
DATA
 62
     7
 66
     1
 10
0.0
 20
0.0
 30
0.0
  0
VERTEX
  5
997
  8
DATA
 62
     7
 10
52.800000000000011
 20
478.5
 30
0.0
  0
VERTEX
  5
998
  8
DATA
 62
     7
 10
52.800000000000011
 20
477.5
 30
0.0
  0
VERTEX
  5
999
  8
DATA
 62
     7
 10
53.800000000000011
 20
477.5
 30
0.0
  0
VERTEX
  5
99A
  8
DATA
 62
     7
 10
53.800000000000011
 20
478.5
 30
0.0
  0
SEQEND
  5
99B
  8
DATA
 62
     7
  0
POLYLINE
  5
1A5
  8
DATA
 62
     7
 66
     1
 10
0.0
 20
0.0
 30
0.0
  0
VERTEX
  5
99C
  8
DATA
 62
     7
 10
52.800000000000011
 20
479.49999999999989
 30
0.0
  0
VERTEX
  5
99D
  8
DATA
 62
     7
 10
52.800000000000011
 20
480.49999999999989
 30
0.0
  0
VERTEX
  5
99E
  8
DATA
 62
     7
 10
53.800000000000011
 20
480.49999999999989
 30
0.0
  0
VERTEX
  5
99F
  8
DATA
 62
     7
 10
53.800000000000011
 20
479.49999999999989
 30
0.0
  0
SEQEND
  5
9A0
  8
DATA
 62
     7
  0
ARC
  5
1AB
  8
DATA
 62
     7
 10
66.300000000000011
 20
489.0
 30
0.0
 40
10.69999999999998
 50
283.51175535949187
 51
256.48824464050813
  0
CIRCLE
  5
1AC
  8
DATA
 62
     7
 10
66.300000000000011
 20
489.0
 30
0.0
 40
7.9999999999999947
  0
CIRCLE
  5
1AD
  8
DATA
 62
     7
 10
70.300000000000011
 20
489.0
 30
0.0
 40
1.2499999999999909
  0
CIRCLE
  5
1AE
  8
DATA
 62
     7
 10
62.300000000000011
 20
489.0
 30
0.0
 40
1.2499999999999909
  0
CIRCLE
  5
1AF
  8
DATA
 62
     7
 10
66.300000000000011
 20
493.0
 30
0.0
 40
1.2499999999999909
  0
LINE
  5
1B0
  8
DATA
 62
     7
 10
68.800000000000011
 20
479.5759615875146
 30
0.0
 11
68.800000000000011
 21
477.71132486540517
 31
0.0
  0
LINE
  5
1B1
  8
DATA
 62
     7
 10
63.800000000000011
 20
479.5759615875146
 30
0.0
 11
63.800000000000011
 21
477.71132486540512
 31
0.0
  0
ARC
  5
1B2
  8
DATA
 62
     7
 10
64.178728675972934
 20
474.8556624327025
 30
0.0
 40
2.880667169173269
 50
97.554693985849994
 51
262.44530601414999
  0
ARC
  5
1B3
  8
DATA
 62
     7
 10
68.421271324027074
 20
474.8556624327025
 30
0.0
 40
2.8806671691733809
 50
277.55469398584972
 51
82.44530601415029
  0
LINE
  5
1B4
  8
DATA
 62
     7
 10
63.800000000000011
 20
472.0
 30
0.0
 11
68.800000000000011
 21
472.0
 31
0.0
  0
CIRCLE
  5
1B5
  8
DATA
 62
     7
 10
102.3
 20
499.0
 30
0.0
 40
2.49999999999998
  0
POLYLINE
  5
1B6
  8
DATA
 62
     7
 66
     1
 10
0.0
 20
0.0
 30
0.0
  0
VERTEX
  5
9A1
  8
DATA
 62
     7
 10
102.8
 20
498.5
 30
0.0
  0
VERTEX
  5
9A2
  8
DATA
 62
     7
 10
103.8
 20
498.5
 30
0.0
  0
VERTEX
  5
9A3
  8
DATA
 62
     7
 10
103.8
 20
499.5
 30
0.0
  0
VERTEX
  5
9A4
  8
DATA
 62
     7
 10
102.8
 20
499.5
 30
0.0
  0
SEQEND
  5
9A5
  8
DATA
 62
     7
  0
POLYLINE
  5
1BC
  8
DATA
 62
     7
 66
     1
 10
0.0
 20
0.0
 30
0.0
  0
VERTEX
  5
9A6
  8
DATA
 62
     7
 10
101.8
 20
498.5
 30
0.0
  0
VERTEX
  5
9A7
  8
DATA
 62
     7
 10
100.8
 20
498.5
 30
0.0
  0
VERTEX
  5
9A8
  8
DATA
 62
     7
 10
100.8
 20
499.5
 30
0.0
  0
VERTEX
  5
9A9
  8
DATA
 62
     7
 10
101.8
 20
499.5
 30
0.0
  0
SEQEND
  5
9AA
  8
DATA
 62
     7
  0
CIRCLE
  5
1C2
  8
DATA
 62
     7
 10
102.3
 20
499.0
 30
0.0
 40
2.499999999999988
  0
POLYLINE
  5
1C3
  8
DATA
 62
     7
 66
     1
 10
0.0
 20
0.0
 30
0.0
  0
VERTEX
  5
9AB
  8
DATA
 62
     7
 10
102.8
 20
499.5
 30
0.0
  0
VERTEX
  5
9AC
  8
DATA
 62
     7
 10
102.8
 20
500.49999999999989
 30
0.0
  0
VERTEX
  5
9AD
  8
DATA
 62
     7
 10
101.8
 20
500.49999999999989
 30
0.0
  0
VERTEX
  5
9AE
  8
DATA
 62
     7
 10
101.8
 20
499.5
 30
0.0
  0
SEQEND
  5
9AF
  8
DATA
 62
     7
  0
POLYLINE
  5
1C9
  8
DATA
 62
     7
 66
     1
 10
0.0
 20
0.0
 30
0.0
  0
VERTEX
  5
9B0
  8
DATA
 62
     7
 10
102.8
 20
498.5
 30
0.0
  0
VERTEX
  5
9B1
  8
DATA
 62
     7
 10
102.8
 20
497.5
 30
0.0
  0
VERTEX
  5
9B2
  8
DATA
 62
     7
 10
101.8
 20
497.5
 30
0.0
  0
VERTEX
  5
9B3
  8
DATA
 62
     7
 10
101.8
 20
498.5
 30
0.0
  0
SEQEND
  5
9B4
  8
DATA
 62
     7
  0
CIRCLE
  5
1CF
  8
DATA
 62
     7
 10
122.3
 20
479.0
 30
0.0
 40
2.49999999999998
  0
POLYLINE
  5
1D0
  8
DATA
 62
     7
 66
     1
 10
0.0
 20
0.0
 30
0.0
  0
VERTEX
  5
9B5
  8
DATA
 62
     7
 10
121.8
 20
479.49999999999989
 30
0.0
  0
VERTEX
  5
9B6
  8
DATA
 62
     7
 10
120.8
 20
479.49999999999989
 30
0.0
  0
VERTEX
  5
9B7
  8
DATA
 62
     7
 10
120.8
 20
478.5
 30
0.0
  0
VERTEX
  5
9B8
  8
DATA
 62
     7
 10
121.8
 20
478.5
 30
0.0
  0
SEQEND
  5
9B9
  8
DATA
 62
     7
  0
POLYLINE
  5
1D6
  8
DATA
 62
     7
 66
     1
 10
0.0
 20
0.0
 30
0.0
  0
VERTEX
  5
9BA
  8
DATA
 62
     7
 10
122.8
 20
479.49999999999989
 30
0.0
  0
VERTEX
  5
9BB
  8
DATA
 62
     7
 10
123.8
 20
479.49999999999989
 30
0.0
  0
VERTEX
  5
9BC
  8
DATA
 62
     7
 10
123.8
 20
478.5
 30
0.0
  0
VERTEX
  5
9BD
  8
DATA
 62
     7
 10
122.8
 20
478.5
 30
0.0
  0
SEQEND
  5
9BE
  8
DATA
 62
     7
  0
CIRCLE
  5
1DC
  8
DATA
 62
     7
 10
122.3
 20
479.0
 30
0.0
 40
2.499999999999988
  0
POLYLINE
  5
1DD
  8
DATA
 62
     7
 66
     1
 10
0.0
 20
0.0
 30
0.0
  0
VERTEX
  5
9BF
  8
DATA
 62
     7
 10
121.8
 20
478.5
 30
0.0
  0
VERTEX
  5
9C0
  8
DATA
 62
     7
 10
121.8
 20
477.5
 30
0.0
  0
VERTEX
  5
9C1
  8
DATA
 62
     7
 10
122.8
 20
477.5
 30
0.0
  0
VERTEX
  5
9C2
  8
DATA
 62
     7
 10
122.8
 20
478.5
 30
0.0
  0
SEQEND
  5
9C3
  8
DATA
 62
     7
  0
POLYLINE
  5
1E3
  8
DATA
 62
     7
 66
     1
 10
0.0
 20
0.0
 30
0.0
  0
VERTEX
  5
9C4
  8
DATA
 62
     7
 10
121.8
 20
479.49999999999989
 30
0.0
  0
VERTEX
  5
9C5
  8
DATA
 62
     7
 10
121.8
 20
480.49999999999989
 30
0.0
  0
VERTEX
  5
9C6
  8
DATA
 62
     7
 10
122.8
 20
480.49999999999989
 30
0.0
  0
VERTEX
  5
9C7
  8
DATA
 62
     7
 10
122.8
 20
479.49999999999989
 30
0.0
  0
SEQEND
  5
9C8
  8
DATA
 62
     7
  0
CIRCLE
  5
1E9
  8
DATA
 62
     7
 10
112.3
 20
489.0
 30
0.0
 40
10.69999999999999
  0
CIRCLE
  5
1EA
  8
DATA
 62
     7
 10
66.300000000000011
 20
489.0
 30
0.0
 40
9.7500000000000036
  0
CIRCLE
  5
1EB
  8
DATA
 62
     7
 10
43.299999999999997
 20
489.0
 30
0.0
 40
9.7500000000000249
  0
CIRCLE
  5
1EC
  8
DATA
 62
     7
 10
112.3
 20
489.0
 30
0.0
 40
8.0999999999999943
  0
CIRCLE
  5
1ED
  8
DATA
 62
     7
 10
116.3
 20
489.0
 30
0.0
 40
1.199999999999992
  0
CIRCLE
  5
1EE
  8
DATA
 62
     7
 10
108.3
 20
489.0
 30
0.0
 40
1.2000000000000159
  0
CIRCLE
  5
1EF
  8
DATA
 62
     7
 10
112.3
 20
493.0
 30
0.0
 40
1.2000000000000159
  0
CIRCLE
  5
1F0
  8
DATA
 62
     7
 10
145.30000000000001
 20
479.0
 30
0.0
 40
2.49999999999998
  0
POLYLINE
  5
1F1
  8
DATA
 62
     7
 66
     1
 10
0.0
 20
0.0
 30
0.0
  0
VERTEX
  5
9C9
  8
DATA
 62
     7
 10
144.80000000000001
 20
479.49999999999989
 30
0.0
  0
VERTEX
  5
9CA
  8
DATA
 62
     7
 10
143.80000000000001
 20
479.49999999999989
 30
0.0
  0
VERTEX
  5
9CB
  8
DATA
 62
     7
 10
143.80000000000001
 20
478.5
 30
0.0
  0
VERTEX
  5
9CC
  8
DATA
 62
     7
 10
144.80000000000001
 20
478.5
 30
0.0
  0
SEQEND
  5
9CD
  8
DATA
 62
     7
  0
POLYLINE
  5
1F7
  8
DATA
 62
     7
 66
     1
 10
0.0
 20
0.0
 30
0.0
  0
VERTEX
  5
9CE
  8
DATA
 62
     7
 10
145.80000000000001
 20
479.49999999999989
 30
0.0
  0
VERTEX
  5
9CF
  8
DATA
 62
     7
 10
146.80000000000001
 20
479.49999999999989
 30
0.0
  0
VERTEX
  5
9D0
  8
DATA
 62
     7
 10
146.80000000000001
 20
478.5
 30
0.0
  0
VERTEX
  5
9D1
  8
DATA
 62
     7
 10
145.80000000000001
 20
478.5
 30
0.0
  0
SEQEND
  5
9D2
  8
DATA
 62
     7
  0
CIRCLE
  5
1FD
  8
DATA
 62
     7
 10
145.30000000000001
 20
479.0
 30
0.0
 40
2.499999999999988
  0
POLYLINE
  5
1FE
  8
DATA
 62
     7
 66
     1
 10
0.0
 20
0.0
 30
0.0
  0
VERTEX
  5
9D3
  8
DATA
 62
     7
 10
144.80000000000001
 20
478.5
 30
0.0
  0
VERTEX
  5
9D4
  8
DATA
 62
     7
 10
144.80000000000001
 20
477.5
 30
0.0
  0
VERTEX
  5
9D5
  8
DATA
 62
     7
 10
145.80000000000001
 20
477.5
 30
0.0
  0
VERTEX
  5
9D6
  8
DATA
 62
     7
 10
145.80000000000001
 20
478.5
 30
0.0
  0
SEQEND
  5
9D7
  8
DATA
 62
     7
  0
POLYLINE
  5
204
  8
DATA
 62
     7
 66
     1
 10
0.0
 20
0.0
 30
0.0
  0
VERTEX
  5
9D8
  8
DATA
 62
     7
 10
144.80000000000001
 20
479.49999999999989
 30
0.0
  0
VERTEX
  5
9D9
  8
DATA
 62
     7
 10
144.80000000000001
 20
480.49999999999989
 30
0.0
  0
VERTEX
  5
9DA
  8
DATA
 62
     7
 10
145.80000000000001
 20
480.49999999999989
 30
0.0
  0
VERTEX
  5
9DB
  8
DATA
 62
     7
 10
145.80000000000001
 20
479.49999999999989
 30
0.0
  0
SEQEND
  5
9DC
  8
DATA
 62
     7
  0
CIRCLE
  5
20A
  8
DATA
 62
     7
 10
135.30000000000001
 20
489.0
 30
0.0
 40
10.69999999999999
  0
CIRCLE
  5
20B
  8
DATA
 62
     7
 10
135.30000000000001
 20
489.0
 30
0.0
 40
8.0999999999999943
  0
CIRCLE
  5
20C
  8
DATA
 62
     7
 10
139.30000000000001
 20
489.0
 30
0.0
 40
1.199999999999992
  0
CIRCLE
  5
20D
  8
DATA
 62
     7
 10
131.30000000000001
 20
489.0
 30
0.0
 40
1.199999999999992
  0
CIRCLE
  5
20E
  8
DATA
 62
     7
 10
135.30000000000001
 20
493.0
 30
0.0
 40
1.199999999999992
  0
CIRCLE
  5
20F
  8
DATA
 62
     7
 10
148.30000000000001
 20
499.0
 30
0.0
 40
2.49999999999998
  0
POLYLINE
  5
210
  8
DATA
 62
     7
 66
     1
 10
0.0
 20
0.0
 30
0.0
  0
VERTEX
  5
9DD
  8
DATA
 62
     7
 10
148.80000000000001
 20
498.5
 30
0.0
  0
VERTEX
  5
9DE
  8
DATA
 62
     7
 10
149.80000000000001
 20
498.5
 30
0.0
  0
VERTEX
  5
9DF
  8
DATA
 62
     7
 10
149.80000000000001
 20
499.5
 30
0.0
  0
VERTEX
  5
9E0
  8
DATA
 62
     7
 10
148.80000000000001
 20
499.5
 30
0.0
  0
SEQEND
  5
9E1
  8
DATA
 62
     7
  0
POLYLINE
  5
216
  8
DATA
 62
     7
 66
     1
 10
0.0
 20
0.0
 30
0.0
  0
VERTEX
  5
9E2
  8
DATA
 62
     7
 10
147.80000000000001
 20
498.5
 30
0.0
  0
VERTEX
  5
9E3
  8
DATA
 62
     7
 10
146.80000000000001
 20
498.5
 30
0.0
  0
VERTEX
  5
9E4
  8
DATA
 62
     7
 10
146.80000000000001
 20
499.5
 30
0.0
  0
VERTEX
  5
9E5
  8
DATA
 62
     7
 10
147.80000000000001
 20
499.5
 30
0.0
  0
SEQEND
  5
9E6
  8
DATA
 62
     7
  0
CIRCLE
  5
21C
  8
DATA
 62
     7
 10
148.30000000000001
 20
499.0
 30
0.0
 40
2.499999999999988
  0
POLYLINE
  5
21D
  8
DATA
 62
     7
 66
     1
 10
0.0
 20
0.0
 30
0.0
  0
VERTEX
  5
9E7
  8
DATA
 62
     7
 10
148.80000000000001
 20
499.5
 30
0.0
  0
VERTEX
  5
9E8
  8
DATA
 62
     7
 10
148.80000000000001
 20
500.49999999999989
 30
0.0
  0
VERTEX
  5
9E9
  8
DATA
 62
     7
 10
147.80000000000001
 20
500.49999999999989
 30
0.0
  0
VERTEX
  5
9EA
  8
DATA
 62
     7
 10
147.80000000000001
 20
499.5
 30
0.0
  0
SEQEND
  5
9EB
  8
DATA
 62
     7
  0
POLYLINE
  5
223
  8
DATA
 62
     7
 66
     1
 10
0.0
 20
0.0
 30
0.0
  0
VERTEX
  5
9EC
  8
DATA
 62
     7
 10
148.80000000000001
 20
498.5
 30
0.0
  0
VERTEX
  5
9ED
  8
DATA
 62
     7
 10
148.80000000000001
 20
497.5
 30
0.0
  0
VERTEX
  5
9EE
  8
DATA
 62
     7
 10
147.80000000000001
 20
497.5
 30
0.0
  0
VERTEX
  5
9EF
  8
DATA
 62
     7
 10
147.80000000000001
 20
498.5
 30
0.0
  0
SEQEND
  5
9F0
  8
DATA
 62
     7
  0
CIRCLE
  5
229
  8
DATA
 62
     7
 10
168.30000000000001
 20
479.0
 30
0.0
 40
2.49999999999998
  0
POLYLINE
  5
22A
  8
DATA
 62
     7
 66
     1
 10
0.0
 20
0.0
 30
0.0
  0
VERTEX
  5
9F1
  8
DATA
 62
     7
 10
167.80000000000001
 20
479.49999999999989
 30
0.0
  0
VERTEX
  5
9F2
  8
DATA
 62
     7
 10
166.80000000000001
 20
479.49999999999989
 30
0.0
  0
VERTEX
  5
9F3
  8
DATA
 62
     7
 10
166.80000000000001
 20
478.5
 30
0.0
  0
VERTEX
  5
9F4
  8
DATA
 62
     7
 10
167.80000000000001
 20
478.5
 30
0.0
  0
SEQEND
  5
9F5
  8
DATA
 62
     7
  0
POLYLINE
  5
230
  8
DATA
 62
     7
 66
     1
 10
0.0
 20
0.0
 30
0.0
  0
VERTEX
  5
9F6
  8
DATA
 62
     7
 10
168.80000000000001
 20
479.49999999999989
 30
0.0
  0
VERTEX
  5
9F7
  8
DATA
 62
     7
 10
169.80000000000001
 20
479.49999999999989
 30
0.0
  0
VERTEX
  5
9F8
  8
DATA
 62
     7
 10
169.80000000000001
 20
478.5
 30
0.0
  0
VERTEX
  5
9F9
  8
DATA
 62
     7
 10
168.80000000000001
 20
478.5
 30
0.0
  0
SEQEND
  5
9FA
  8
DATA
 62
     7
  0
CIRCLE
  5
236
  8
DATA
 62
     7
 10
168.30000000000001
 20
479.0
 30
0.0
 40
2.499999999999988
  0
POLYLINE
  5
237
  8
DATA
 62
     7
 66
     1
 10
0.0
 20
0.0
 30
0.0
  0
VERTEX
  5
9FB
  8
DATA
 62
     7
 10
167.80000000000001
 20
478.5
 30
0.0
  0
VERTEX
  5
9FC
  8
DATA
 62
     7
 10
167.80000000000001
 20
477.5
 30
0.0
  0
VERTEX
  5
9FD
  8
DATA
 62
     7
 10
168.80000000000001
 20
477.5
 30
0.0
  0
VERTEX
  5
9FE
  8
DATA
 62
     7
 10
168.80000000000001
 20
478.5
 30
0.0
  0
SEQEND
  5
9FF
  8
DATA
 62
     7
  0
POLYLINE
  5
23D
  8
DATA
 62
     7
 66
     1
 10
0.0
 20
0.0
 30
0.0
  0
VERTEX
  5
A00
  8
DATA
 62
     7
 10
167.80000000000001
 20
479.49999999999989
 30
0.0
  0
VERTEX
  5
A01
  8
DATA
 62
     7
 10
167.80000000000001
 20
480.49999999999989
 30
0.0
  0
VERTEX
  5
A02
  8
DATA
 62
     7
 10
168.80000000000001
 20
480.49999999999989
 30
0.0
  0
VERTEX
  5
A03
  8
DATA
 62
     7
 10
168.80000000000001
 20
479.49999999999989
 30
0.0
  0
SEQEND
  5
A04
  8
DATA
 62
     7
  0
CIRCLE
  5
243
  8
DATA
 62
     7
 10
158.30000000000001
 20
489.0
 30
0.0
 40
10.69999999999999
  0
CIRCLE
  5
244
  8
DATA
 62
     7
 10
158.30000000000001
 20
489.0
 30
0.0
 40
8.0999999999999943
  0
CIRCLE
  5
245
  8
DATA
 62
     7
 10
162.30000000000001
 20
489.0
 30
0.0
 40
1.199999999999992
  0
CIRCLE
  5
246
  8
DATA
 62
     7
 10
154.30000000000001
 20
489.0
 30
0.0
 40
1.199999999999992
  0
CIRCLE
  5
247
  8
DATA
 62
     7
 10
158.30000000000001
 20
493.0
 30
0.0
 40
1.199999999999992
  0
CIRCLE
  5
248
  8
DATA
 62
     7
 10
171.30000000000001
 20
499.0
 30
0.0
 40
2.49999999999998
  0
POLYLINE
  5
249
  8
DATA
 62
     7
 66
     1
 10
0.0
 20
0.0
 30
0.0
  0
VERTEX
  5
A05
  8
DATA
 62
     7
 10
171.80000000000001
 20
498.5
 30
0.0
  0
VERTEX
  5
A06
  8
DATA
 62
     7
 10
172.80000000000001
 20
498.5
 30
0.0
  0
VERTEX
  5
A07
  8
DATA
 62
     7
 10
172.80000000000001
 20
499.5
 30
0.0
  0
VERTEX
  5
A08
  8
DATA
 62
     7
 10
171.80000000000001
 20
499.5
 30
0.0
  0
SEQEND
  5
A09
  8
DATA
 62
     7
  0
POLYLINE
  5
24F
  8
DATA
 62
     7
 66
     1
 10
0.0
 20
0.0
 30
0.0
  0
VERTEX
  5
A0A
  8
DATA
 62
     7
 10
170.80000000000001
 20
498.5
 30
0.0
  0
VERTEX
  5
A0B
  8
DATA
 62
     7
 10
169.80000000000001
 20
498.5
 30
0.0
  0
VERTEX
  5
A0C
  8
DATA
 62
     7
 10
169.80000000000001
 20
499.5
 30
0.0
  0
VERTEX
  5
A0D
  8
DATA
 62
     7
 10
170.80000000000001
 20
499.5
 30
0.0
  0
SEQEND
  5
A0E
  8
DATA
 62
     7
  0
CIRCLE
  5
255
  8
DATA
 62
     7
 10
171.30000000000001
 20
499.0
 30
0.0
 40
2.499999999999988
  0
POLYLINE
  5
256
  8
DATA
 62
     7
 66
     1
 10
0.0
 20
0.0
 30
0.0
  0
VERTEX
  5
A0F
  8
DATA
 62
     7
 10
171.80000000000001
 20
499.5
 30
0.0
  0
VERTEX
  5
A10
  8
DATA
 62
     7
 10
171.80000000000001
 20
500.49999999999989
 30
0.0
  0
VERTEX
  5
A11
  8
DATA
 62
     7
 10
170.80000000000001
 20
500.49999999999989
 30
0.0
  0
VERTEX
  5
A12
  8
DATA
 62
     7
 10
170.80000000000001
 20
499.5
 30
0.0
  0
SEQEND
  5
A13
  8
DATA
 62
     7
  0
POLYLINE
  5
25C
  8
DATA
 62
     7
 66
     1
 10
0.0
 20
0.0
 30
0.0
  0
VERTEX
  5
A14
  8
DATA
 62
     7
 10
171.80000000000001
 20
498.5
 30
0.0
  0
VERTEX
  5
A15
  8
DATA
 62
     7
 10
171.80000000000001
 20
497.5
 30
0.0
  0
VERTEX
  5
A16
  8
DATA
 62
     7
 10
170.80000000000001
 20
497.5
 30
0.0
  0
VERTEX
  5
A17
  8
DATA
 62
     7
 10
170.80000000000001
 20
498.5
 30
0.0
  0
SEQEND
  5
A18
  8
DATA
 62
     7
  0
CIRCLE
  5
262
  8
DATA
 62
     7
 10
191.30000000000001
 20
479.0
 30
0.0
 40
2.49999999999998
  0
POLYLINE
  5
263
  8
DATA
 62
     7
 66
     1
 10
0.0
 20
0.0
 30
0.0
  0
VERTEX
  5
A19
  8
DATA
 62
     7
 10
190.80000000000001
 20
479.49999999999989
 30
0.0
  0
VERTEX
  5
A1A
  8
DATA
 62
     7
 10
189.80000000000001
 20
479.49999999999989
 30
0.0
  0
VERTEX
  5
A1B
  8
DATA
 62
     7
 10
189.80000000000001
 20
478.5
 30
0.0
  0
VERTEX
  5
A1C
  8
DATA
 62
     7
 10
190.80000000000001
 20
478.5
 30
0.0
  0
SEQEND
  5
A1D
  8
DATA
 62
     7
  0
POLYLINE
  5
269
  8
DATA
 62
     7
 66
     1
 10
0.0
 20
0.0
 30
0.0
  0
VERTEX
  5
A1E
  8
DATA
 62
     7
 10
191.80000000000001
 20
479.49999999999989
 30
0.0
  0
VERTEX
  5
A1F
  8
DATA
 62
     7
 10
192.80000000000001
 20
479.49999999999989
 30
0.0
  0
VERTEX
  5
A20
  8
DATA
 62
     7
 10
192.80000000000001
 20
478.5
 30
0.0
  0
VERTEX
  5
A21
  8
DATA
 62
     7
 10
191.80000000000001
 20
478.5
 30
0.0
  0
SEQEND
  5
A22
  8
DATA
 62
     7
  0
CIRCLE
  5
26F
  8
DATA
 62
     7
 10
191.30000000000001
 20
479.0
 30
0.0
 40
2.499999999999988
  0
POLYLINE
  5
270
  8
DATA
 62
     7
 66
     1
 10
0.0
 20
0.0
 30
0.0
  0
VERTEX
  5
A23
  8
DATA
 62
     7
 10
190.80000000000001
 20
478.5
 30
0.0
  0
VERTEX
  5
A24
  8
DATA
 62
     7
 10
190.80000000000001
 20
477.5
 30
0.0
  0
VERTEX
  5
A25
  8
DATA
 62
     7
 10
191.80000000000001
 20
477.5
 30
0.0
  0
VERTEX
  5
A26
  8
DATA
 62
     7
 10
191.80000000000001
 20
478.5
 30
0.0
  0
SEQEND
  5
A27
  8
DATA
 62
     7
  0
POLYLINE
  5
276
  8
DATA
 62
     7
 66
     1
 10
0.0
 20
0.0
 30
0.0
  0
VERTEX
  5
A28
  8
DATA
 62
     7
 10
190.80000000000001
 20
479.49999999999989
 30
0.0
  0
VERTEX
  5
A29
  8
DATA
 62
     7
 10
190.80000000000001
 20
480.49999999999989
 30
0.0
  0
VERTEX
  5
A2A
  8
DATA
 62
     7
 10
191.80000000000001
 20
480.49999999999989
 30
0.0
  0
VERTEX
  5
A2B
  8
DATA
 62
     7
 10
191.80000000000001
 20
479.49999999999989
 30
0.0
  0
SEQEND
  5
A2C
  8
DATA
 62
     7
  0
CIRCLE
  5
27C
  8
DATA
 62
     7
 10
181.30000000000001
 20
489.0
 30
0.0
 40
10.69999999999999
  0
CIRCLE
  5
27D
  8
DATA
 62
     7
 10
181.30000000000001
 20
489.0
 30
0.0
 40
8.0999999999999943
  0
CIRCLE
  5
27E
  8
DATA
 62
     7
 10
185.30000000000001
 20
489.0
 30
0.0
 40
1.199999999999992
  0
CIRCLE
  5
27F
  8
DATA
 62
     7
 10
177.30000000000001
 20
489.0
 30
0.0
 40
1.199999999999992
  0
CIRCLE
  5
280
  8
DATA
 62
     7
 10
181.30000000000001
 20
493.0
 30
0.0
 40
1.199999999999992
  0
CIRCLE
  5
281
  8
DATA
 62
     7
 10
194.30000000000001
 20
499.0
 30
0.0
 40
2.49999999999998
  0
POLYLINE
  5
282
  8
DATA
 62
     7
 66
     1
 10
0.0
 20
0.0
 30
0.0
  0
VERTEX
  5
A2D
  8
DATA
 62
     7
 10
194.80000000000001
 20
498.5
 30
0.0
  0
VERTEX
  5
A2E
  8
DATA
 62
     7
 10
195.80000000000001
 20
498.5
 30
0.0
  0
VERTEX
  5
A2F
  8
DATA
 62
     7
 10
195.80000000000001
 20
499.5
 30
0.0
  0
VERTEX
  5
A30
  8
DATA
 62
     7
 10
194.80000000000001
 20
499.5
 30
0.0
  0
SEQEND
  5
A31
  8
DATA
 62
     7
  0
POLYLINE
  5
288
  8
DATA
 62
     7
 66
     1
 10
0.0
 20
0.0
 30
0.0
  0
VERTEX
  5
A32
  8
DATA
 62
     7
 10
193.80000000000001
 20
498.5
 30
0.0
  0
VERTEX
  5
A33
  8
DATA
 62
     7
 10
192.80000000000001
 20
498.5
 30
0.0
  0
VERTEX
  5
A34
  8
DATA
 62
     7
 10
192.80000000000001
 20
499.5
 30
0.0
  0
VERTEX
  5
A35
  8
DATA
 62
     7
 10
193.80000000000001
 20
499.5
 30
0.0
  0
SEQEND
  5
A36
  8
DATA
 62
     7
  0
CIRCLE
  5
28E
  8
DATA
 62
     7
 10
194.30000000000001
 20
499.0
 30
0.0
 40
2.499999999999988
  0
POLYLINE
  5
28F
  8
DATA
 62
     7
 66
     1
 10
0.0
 20
0.0
 30
0.0
  0
VERTEX
  5
A37
  8
DATA
 62
     7
 10
194.80000000000001
 20
499.5
 30
0.0
  0
VERTEX
  5
A38
  8
DATA
 62
     7
 10
194.80000000000001
 20
500.49999999999989
 30
0.0
  0
VERTEX
  5
A39
  8
DATA
 62
     7
 10
193.80000000000001
 20
500.49999999999989
 30
0.0
  0
VERTEX
  5
A3A
  8
DATA
 62
     7
 10
193.80000000000001
 20
499.5
 30
0.0
  0
SEQEND
  5
A3B
  8
DATA
 62
     7
  0
POLYLINE
  5
295
  8
DATA
 62
     7
 66
     1
 10
0.0
 20
0.0
 30
0.0
  0
VERTEX
  5
A3C
  8
DATA
 62
     7
 10
194.80000000000001
 20
498.5
 30
0.0
  0
VERTEX
  5
A3D
  8
DATA
 62
     7
 10
194.80000000000001
 20
497.5
 30
0.0
  0
VERTEX
  5
A3E
  8
DATA
 62
     7
 10
193.80000000000001
 20
497.5
 30
0.0
  0
VERTEX
  5
A3F
  8
DATA
 62
     7
 10
193.80000000000001
 20
498.5
 30
0.0
  0
SEQEND
  5
A40
  8
DATA
 62
     7
  0
CIRCLE
  5
29B
  8
DATA
 62
     7
 10
214.30000000000001
 20
479.0
 30
0.0
 40
2.49999999999998
  0
POLYLINE
  5
29C
  8
DATA
 62
     7
 66
     1
 10
0.0
 20
0.0
 30
0.0
  0
VERTEX
  5
A41
  8
DATA
 62
     7
 10
213.80000000000001
 20
479.49999999999989
 30
0.0
  0
VERTEX
  5
A42
  8
DATA
 62
     7
 10
212.80000000000001
 20
479.49999999999989
 30
0.0
  0
VERTEX
  5
A43
  8
DATA
 62
     7
 10
212.80000000000001
 20
478.5
 30
0.0
  0
VERTEX
  5
A44
  8
DATA
 62
     7
 10
213.80000000000001
 20
478.5
 30
0.0
  0
SEQEND
  5
A45
  8
DATA
 62
     7
  0
POLYLINE
  5
2A2
  8
DATA
 62
     7
 66
     1
 10
0.0
 20
0.0
 30
0.0
  0
VERTEX
  5
A46
  8
DATA
 62
     7
 10
214.80000000000001
 20
479.49999999999989
 30
0.0
  0
VERTEX
  5
A47
  8
DATA
 62
     7
 10
215.80000000000001
 20
479.49999999999989
 30
0.0
  0
VERTEX
  5
A48
  8
DATA
 62
     7
 10
215.80000000000001
 20
478.5
 30
0.0
  0
VERTEX
  5
A49
  8
DATA
 62
     7
 10
214.80000000000001
 20
478.5
 30
0.0
  0
SEQEND
  5
A4A
  8
DATA
 62
     7
  0
CIRCLE
  5
2A8
  8
DATA
 62
     7
 10
214.30000000000001
 20
479.0
 30
0.0
 40
2.499999999999988
  0
POLYLINE
  5
2A9
  8
DATA
 62
     7
 66
     1
 10
0.0
 20
0.0
 30
0.0
  0
VERTEX
  5
A4B
  8
DATA
 62
     7
 10
213.80000000000001
 20
478.5
 30
0.0
  0
VERTEX
  5
A4C
  8
DATA
 62
     7
 10
213.80000000000001
 20
477.5
 30
0.0
  0
VERTEX
  5
A4D
  8
DATA
 62
     7
 10
214.80000000000001
 20
477.5
 30
0.0
  0
VERTEX
  5
A4E
  8
DATA
 62
     7
 10
214.80000000000001
 20
478.5
 30
0.0
  0
SEQEND
  5
A4F
  8
DATA
 62
     7
  0
POLYLINE
  5
2AF
  8
DATA
 62
     7
 66
     1
 10
0.0
 20
0.0
 30
0.0
  0
VERTEX
  5
A50
  8
DATA
 62
     7
 10
213.80000000000001
 20
479.49999999999989
 30
0.0
  0
VERTEX
  5
A51
  8
DATA
 62
     7
 10
213.80000000000001
 20
480.49999999999989
 30
0.0
  0
VERTEX
  5
A52
  8
DATA
 62
     7
 10
214.80000000000001
 20
480.49999999999989
 30
0.0
  0
VERTEX
  5
A53
  8
DATA
 62
     7
 10
214.80000000000001
 20
479.49999999999989
 30
0.0
  0
SEQEND
  5
A54
  8
DATA
 62
     7
  0
CIRCLE
  5
2B5
  8
DATA
 62
     7
 10
204.30000000000001
 20
489.0
 30
0.0
 40
10.69999999999999
  0
CIRCLE
  5
2B6
  8
DATA
 62
     7
 10
204.30000000000001
 20
489.0
 30
0.0
 40
8.0999999999999943
  0
CIRCLE
  5
2B7
  8
DATA
 62
     7
 10
208.30000000000001
 20
489.0
 30
0.0
 40
1.199999999999992
  0
CIRCLE
  5
2B8
  8
DATA
 62
     7
 10
200.30000000000001
 20
489.0
 30
0.0
 40
1.199999999999992
  0
CIRCLE
  5
2B9
  8
DATA
 62
     7
 10
204.30000000000001
 20
493.0
 30
0.0
 40
1.199999999999992
  0
CIRCLE
  5
2BA
  8
DATA
 62
     7
 10
217.30000000000001
 20
499.0
 30
0.0
 40
2.49999999999998
  0
POLYLINE
  5
2BB
  8
DATA
 62
     7
 66
     1
 10
0.0
 20
0.0
 30
0.0
  0
VERTEX
  5
A55
  8
DATA
 62
     7
 10
217.80000000000001
 20
498.5
 30
0.0
  0
VERTEX
  5
A56
  8
DATA
 62
     7
 10
218.80000000000001
 20
498.5
 30
0.0
  0
VERTEX
  5
A57
  8
DATA
 62
     7
 10
218.80000000000001
 20
499.5
 30
0.0
  0
VERTEX
  5
A58
  8
DATA
 62
     7
 10
217.80000000000001
 20
499.5
 30
0.0
  0
SEQEND
  5
A59
  8
DATA
 62
     7
  0
POLYLINE
  5
2C1
  8
DATA
 62
     7
 66
     1
 10
0.0
 20
0.0
 30
0.0
  0
VERTEX
  5
A5A
  8
DATA
 62
     7
 10
216.80000000000001
 20
498.5
 30
0.0
  0
VERTEX
  5
A5B
  8
DATA
 62
     7
 10
215.80000000000001
 20
498.5
 30
0.0
  0
VERTEX
  5
A5C
  8
DATA
 62
     7
 10
215.80000000000001
 20
499.5
 30
0.0
  0
VERTEX
  5
A5D
  8
DATA
 62
     7
 10
216.80000000000001
 20
499.5
 30
0.0
  0
SEQEND
  5
A5E
  8
DATA
 62
     7
  0
CIRCLE
  5
2C7
  8
DATA
 62
     7
 10
217.30000000000001
 20
499.0
 30
0.0
 40
2.499999999999988
  0
POLYLINE
  5
2C8
  8
DATA
 62
     7
 66
     1
 10
0.0
 20
0.0
 30
0.0
  0
VERTEX
  5
A5F
  8
DATA
 62
     7
 10
217.80000000000001
 20
499.5
 30
0.0
  0
VERTEX
  5
A60
  8
DATA
 62
     7
 10
217.80000000000001
 20
500.49999999999989
 30
0.0
  0
VERTEX
  5
A61
  8
DATA
 62
     7
 10
216.80000000000001
 20
500.49999999999989
 30
0.0
  0
VERTEX
  5
A62
  8
DATA
 62
     7
 10
216.80000000000001
 20
499.5
 30
0.0
  0
SEQEND
  5
A63
  8
DATA
 62
     7
  0
POLYLINE
  5
2CE
  8
DATA
 62
     7
 66
     1
 10
0.0
 20
0.0
 30
0.0
  0
VERTEX
  5
A64
  8
DATA
 62
     7
 10
217.80000000000001
 20
498.5
 30
0.0
  0
VERTEX
  5
A65
  8
DATA
 62
     7
 10
217.80000000000001
 20
497.5
 30
0.0
  0
VERTEX
  5
A66
  8
DATA
 62
     7
 10
216.80000000000001
 20
497.5
 30
0.0
  0
VERTEX
  5
A67
  8
DATA
 62
     7
 10
216.80000000000001
 20
498.5
 30
0.0
  0
SEQEND
  5
A68
  8
DATA
 62
     7
  0
CIRCLE
  5
2D4
  8
DATA
 62
     7
 10
237.30000000000001
 20
479.0
 30
0.0
 40
2.49999999999998
  0
POLYLINE
  5
2D5
  8
DATA
 62
     7
 66
     1
 10
0.0
 20
0.0
 30
0.0
  0
VERTEX
  5
A69
  8
DATA
 62
     7
 10
236.80000000000001
 20
479.49999999999989
 30
0.0
  0
VERTEX
  5
A6A
  8
DATA
 62
     7
 10
235.80000000000001
 20
479.49999999999989
 30
0.0
  0
VERTEX
  5
A6B
  8
DATA
 62
     7
 10
235.80000000000001
 20
478.5
 30
0.0
  0
VERTEX
  5
A6C
  8
DATA
 62
     7
 10
236.80000000000001
 20
478.5
 30
0.0
  0
SEQEND
  5
A6D
  8
DATA
 62
     7
  0
POLYLINE
  5
2DB
  8
DATA
 62
     7
 66
     1
 10
0.0
 20
0.0
 30
0.0
  0
VERTEX
  5
A6E
  8
DATA
 62
     7
 10
237.80000000000001
 20
479.49999999999989
 30
0.0
  0
VERTEX
  5
A6F
  8
DATA
 62
     7
 10
238.80000000000001
 20
479.49999999999989
 30
0.0
  0
VERTEX
  5
A70
  8
DATA
 62
     7
 10
238.80000000000001
 20
478.5
 30
0.0
  0
VERTEX
  5
A71
  8
DATA
 62
     7
 10
237.80000000000001
 20
478.5
 30
0.0
  0
SEQEND
  5
A72
  8
DATA
 62
     7
  0
CIRCLE
  5
2E1
  8
DATA
 62
     7
 10
237.30000000000001
 20
479.0
 30
0.0
 40
2.499999999999988
  0
POLYLINE
  5
2E2
  8
DATA
 62
     7
 66
     1
 10
0.0
 20
0.0
 30
0.0
  0
VERTEX
  5
A73
  8
DATA
 62
     7
 10
236.80000000000001
 20
478.5
 30
0.0
  0
VERTEX
  5
A74
  8
DATA
 62
     7
 10
236.80000000000001
 20
477.5
 30
0.0
  0
VERTEX
  5
A75
  8
DATA
 62
     7
 10
237.80000000000001
 20
477.5
 30
0.0
  0
VERTEX
  5
A76
  8
DATA
 62
     7
 10
237.80000000000001
 20
478.5
 30
0.0
  0
SEQEND
  5
A77
  8
DATA
 62
     7
  0
POLYLINE
  5
2E8
  8
DATA
 62
     7
 66
     1
 10
0.0
 20
0.0
 30
0.0
  0
VERTEX
  5
A78
  8
DATA
 62
     7
 10
236.80000000000001
 20
479.49999999999989
 30
0.0
  0
VERTEX
  5
A79
  8
DATA
 62
     7
 10
236.80000000000001
 20
480.49999999999989
 30
0.0
  0
VERTEX
  5
A7A
  8
DATA
 62
     7
 10
237.80000000000001
 20
480.49999999999989
 30
0.0
  0
VERTEX
  5
A7B
  8
DATA
 62
     7
 10
237.80000000000001
 20
479.49999999999989
 30
0.0
  0
SEQEND
  5
A7C
  8
DATA
 62
     7
  0
CIRCLE
  5
2EE
  8
DATA
 62
     7
 10
227.30000000000001
 20
489.0
 30
0.0
 40
10.69999999999999
  0
CIRCLE
  5
2EF
  8
DATA
 62
     7
 10
227.30000000000001
 20
489.0
 30
0.0
 40
8.0999999999999943
  0
CIRCLE
  5
2F0
  8
DATA
 62
     7
 10
231.30000000000001
 20
489.0
 30
0.0
 40
1.199999999999992
  0
CIRCLE
  5
2F1
  8
DATA
 62
     7
 10
223.30000000000001
 20
489.0
 30
0.0
 40
1.199999999999992
  0
CIRCLE
  5
2F2
  8
DATA
 62
     7
 10
227.30000000000001
 20
493.0
 30
0.0
 40
1.199999999999992
  0
ARC
  5
2F3
  8
DATA
 62
     7
 10
250.30000000000001
 20
492.49999999999989
 30
0.0
 40
5.75
 50
281.02891423394829
 51
258.97108576605171
  0
CIRCLE
  5
2F4
  8
DATA
 62
     7
 10
250.30000000000001
 20
492.49999999999989
 30
0.0
 40
7.0
  0
CIRCLE
  5
2F5
  8
DATA
 62
     7
 10
250.30000000000001
 20
492.49999999999989
 30
0.0
 40
8.0
  0
ARC
  5
2F6
  8
DATA
 62
     7
 10
250.30000000000001
 20
496.39999999999992
 30
0.0
 40
0.8500000000000003
 50
306.03187907246928
 51
53.96812092753067
  0
ARC
  5
2F7
  8
DATA
 62
     7
 10
250.30000000000001
 20
496.39999999999992
 30
0.0
 40
0.8500000000000003
 50
126.03187907246929
 51
233.96812092753061
  0
LINE
  5
2F8
  8
DATA
 62
     7
 10
249.80000000000001
 20
497.89999999999998
 30
0.0
 11
250.80000000000001
 21
497.89999999999998
 31
0.0
  0
LINE
  5
2F9
  8
DATA
 62
     7
 10
250.80000000000001
 20
497.89999999999998
 30
0.0
 11
250.80000000000001
 21
497.08738635424339
 31
0.0
  0
LINE
  5
2FA
  8
DATA
 62
     7
 10
249.80000000000001
 20
497.89999999999998
 30
0.0
 11
249.80000000000001
 21
497.08738635424339
 31
0.0
  0
LINE
  5
2FB
  8
DATA
 62
     7
 10
249.80000000000001
 20
494.89999999999992
 30
0.0
 11
250.80000000000001
 21
494.89999999999992
 31
0.0
  0
LINE
  5
2FC
  8
DATA
 62
     7
 10
250.80000000000001
 20
494.89999999999992
 30
0.0
 11
250.80000000000001
 21
495.71261364575668
 31
0.0
  0
LINE
  5
2FD
  8
DATA
 62
     7
 10
249.80000000000001
 20
494.89999999999992
 30
0.0
 11
249.80000000000001
 21
495.71261364575668
 31
0.0
  0
ARC
  5
2FE
  8
DATA
 62
     7
 10
247.18873016277919
 20
495.11126983722079
 30
0.0
 40
0.8500000000000163
 50
321.03187907247008
 51
68.96812092752954
  0
ARC
  5
2FF
  8
DATA
 62
     7
 10
247.18873016277919
 20
495.11126983722079
 30
0.0
 40
0.8499999999999941
 50
141.03187907246891
 51
248.968120927531
  0
LINE
  5
300
  8
DATA
 62
     7
 10
246.31753868198089
 20
496.4307490541031
 30
0.0
 11
247.28346450826999
 21
496.68956809920559
 31
0.0
  0
LINE
  5
301
  8
DATA
 62
     7
 10
247.28346450826999
 20
496.68956809920559
 30
0.0
 11
247.493784396102
 21
495.90464359197438
 31
0.0
  0
LINE
  5
302
  8
DATA
 62
     7
 10
246.31753868198089
 20
496.4307490541031
 30
0.0
 11
246.52785856981291
 21
495.64582454687189
 31
0.0
  0
LINE
  5
303
  8
DATA
 62
     7
 10
247.0939958172884
 20
493.53297157523588
 30
0.0
 11
248.0599216435775
 21
493.79179062033847
 31
0.0
  0
LINE
  5
304
  8
DATA
 62
     7
 10
248.0599216435775
 20
493.79179062033847
 30
0.0
 11
247.84960175574551
 21
494.57671512756968
 31
0.0
  0
LINE
  5
305
  8
DATA
 62
     7
 10
247.0939958172884
 20
493.53297157523588
 30
0.0
 11
246.8836759294565
 21
494.31789608246709
 31
0.0
  0
ARC
  5
306
  8
DATA
 62
     7
 10
245.90000000000001
 20
492.0
 30
0.0
 40
0.8499999999999987
 50
321.03187907246848
 51
68.968120927531174
  0
ARC
  5
307
  8
DATA
 62
     7
 10
245.90000000000001
 20
492.0
 30
0.0
 40
0.8500000000000008
 50
141.03187907246991
 51
248.96812092753029
  0
LINE
  5
308
  8
DATA
 62
     7
 10
245.0288085192017
 20
493.31947921688231
 30
0.0
 11
245.9947343454908
 21
493.5782982619848
 31
0.0
  0
LINE
  5
309
  8
DATA
 62
     7
 10
245.9947343454908
 20
493.5782982619848
 30
0.0
 11
246.2050542333229
 21
492.79337375475359
 31
0.0
  0
LINE
  5
30A
  8
DATA
 62
     7
 10
245.0288085192017
 20
493.31947921688231
 30
0.0
 11
245.23912840703369
 21
492.5345547096511
 31
0.0
  0
LINE
  5
30B
  8
DATA
 62
     7
 10
245.80526565450921
 20
490.4217017380152
 30
0.0
 11
246.77119148079831
 21
490.68052078311757
 31
0.0
  0
LINE
  5
30C
  8
DATA
 62
     7
 10
246.77119148079831
 20
490.68052078311757
 30
0.0
 11
246.56087159296629
 21
491.4654452903489
 31
0.0
  0
LINE
  5
30D
  8
DATA
 62
     7
 10
245.80526565450921
 20
490.4217017380152
 30
0.0
 11
245.59494576667731
 21
491.2066262452463
 31
0.0
  0
ARC
  5
30E
  8
DATA
 62
     7
 10
253.4112698372208
 20
495.11126983722079
 30
0.0
 40
0.8500000000000081
 50
111.0318790724706
 51
218.9681209275295
  0
ARC
  5
30F
  8
DATA
 62
     7
 10
253.4112698372208
 20
495.11126983722079
 30
0.0
 40
0.849999999999998
 50
291.03187907246888
 51
38.968120927531118
  0
LINE
  5
310
  8
DATA
 62
     7
 10
254.28246131801919
 20
496.4307490541031
 30
0.0
 11
253.31653549173009
 21
496.68956809920559
 31
0.0
  0
LINE
  5
311
  8
DATA
 62
     7
 10
253.31653549173009
 20
496.68956809920559
 30
0.0
 11
253.10621560389811
 21
495.90464359197438
 31
0.0
  0
LINE
  5
312
  8
DATA
 62
     7
 10
254.28246131801919
 20
496.4307490541031
 30
0.0
 11
254.07214143018709
 21
495.64582454687189
 31
0.0
  0
LINE
  5
313
  8
DATA
 62
     7
 10
253.50600418271159
 20
493.53297157523588
 30
0.0
 11
252.5400783564225
 21
493.79179062033847
 31
0.0
  0
LINE
  5
314
  8
DATA
 62
     7
 10
252.5400783564225
 20
493.79179062033847
 30
0.0
 11
252.7503982442544
 21
494.57671512756968
 31
0.0
  0
LINE
  5
315
  8
DATA
 62
     7
 10
253.50600418271159
 20
493.53297157523588
 30
0.0
 11
253.71632407054361
 21
494.31789608246709
 31
0.0
  0
LINE
  5
316
  8
DATA
 62
     7
 10
251.40000000000001
 20
488.0
 30
0.0
 11
251.40000000000001
 21
486.8561980899396
 31
0.0
  0
LINE
  5
317
  8
DATA
 62
     7
 10
251.40000000000001
 20
488.0
 30
0.0
 11
249.19999999999999
 21
488.0
 31
0.0
  0
LINE
  5
318
  8
DATA
 62
     7
 10
249.19999999999999
 20
488.0
 30
0.0
 11
249.19999999999999
 21
486.8561980899396
 31
0.0
  0
LINE
  5
319
  8
DATA
 62
     7
 10
254.79473434549081
 20
490.4217017380152
 30
0.0
 11
253.82880851920169
 21
490.68052078311757
 31
0.0
  0
LINE
  5
31A
  8
DATA
 62
     7
 10
254.79473434549081
 20
490.4217017380152
 30
0.0
 11
255.0050542333228
 21
491.2066262452463
 31
0.0
  0
ARC
  5
31B
  8
DATA
 62
     7
 10
254.69999999999999
 20
492.0
 30
0.0
 40
0.8499999999999914
 50
111.031879072469
 51
218.9681209275312
  0
ARC
  5
31C
  8
DATA
 62
     7
 10
254.69999999999999
 20
492.0
 30
0.0
 40
0.8500000000000149
 50
291.03187907247042
 51
38.968120927529903
  0
LINE
  5
31D
  8
DATA
 62
     7
 10
255.5711914807984
 20
493.31947921688231
 30
0.0
 11
254.60526565450931
 21
493.5782982619848
 31
0.0
  0
LINE
  5
31E
  8
DATA
 62
     7
 10
254.60526565450931
 20
493.5782982619848
 30
0.0
 11
254.3949457666773
 21
492.79337375475359
 31
0.0
  0
LINE
  5
31F
  8
DATA
 62
     7
 10
255.5711914807984
 20
493.31947921688231
 30
0.0
 11
255.36087159296639
 21
492.5345547096511
 31
0.0
  0
LINE
  5
320
  8
DATA
 62
     7
 10
253.82880851920169
 20
490.68052078311757
 30
0.0
 11
254.0391284070337
 21
491.4654452903489
 31
0.0
  0
ARC
  5
321
  8
DATA
 62
     7
 10
278.30000000000001
 20
492.49999999999989
 30
0.0
 40
5.75
 50
281.02891423394829
 51
258.97108576605171
  0
CIRCLE
  5
322
  8
DATA
 62
     7
 10
278.30000000000001
 20
492.49999999999989
 30
0.0
 40
7.0
  0
CIRCLE
  5
323
  8
DATA
 62
     7
 10
278.30000000000001
 20
492.49999999999989
 30
0.0
 40
8.0
  0
ARC
  5
324
  8
DATA
 62
     7
 10
278.30000000000001
 20
496.39999999999992
 30
0.0
 40
0.8500000000000003
 50
306.03187907246928
 51
53.96812092753067
  0
ARC
  5
325
  8
DATA
 62
     7
 10
278.30000000000001
 20
496.39999999999992
 30
0.0
 40
0.8500000000000003
 50
126.03187907246929
 51
233.96812092753061
  0
LINE
  5
326
  8
DATA
 62
     7
 10
277.80000000000001
 20
497.89999999999998
 30
0.0
 11
278.80000000000001
 21
497.89999999999998
 31
0.0
  0
LINE
  5
327
  8
DATA
 62
     7
 10
278.80000000000001
 20
497.89999999999998
 30
0.0
 11
278.80000000000001
 21
497.08738635424339
 31
0.0
  0
LINE
  5
328
  8
DATA
 62
     7
 10
277.80000000000001
 20
497.89999999999998
 30
0.0
 11
277.80000000000001
 21
497.08738635424339
 31
0.0
  0
LINE
  5
329
  8
DATA
 62
     7
 10
277.80000000000001
 20
494.89999999999992
 30
0.0
 11
278.80000000000001
 21
494.89999999999992
 31
0.0
  0
LINE
  5
32A
  8
DATA
 62
     7
 10
278.80000000000001
 20
494.89999999999992
 30
0.0
 11
278.80000000000001
 21
495.71261364575668
 31
0.0
  0
LINE
  5
32B
  8
DATA
 62
     7
 10
277.80000000000001
 20
494.89999999999992
 30
0.0
 11
277.80000000000001
 21
495.71261364575668
 31
0.0
  0
ARC
  5
32C
  8
DATA
 62
     7
 10
275.18873016277922
 20
495.11126983722079
 30
0.0
 40
0.8500000000000163
 50
321.03187907247008
 51
68.96812092752954
  0
ARC
  5
32D
  8
DATA
 62
     7
 10
275.18873016277922
 20
495.11126983722079
 30
0.0
 40
0.8499999999999941
 50
141.03187907246891
 51
248.968120927531
  0
LINE
  5
32E
  8
DATA
 62
     7
 10
274.31753868198081
 20
496.4307490541031
 30
0.0
 11
275.28346450827001
 21
496.68956809920559
 31
0.0
  0
LINE
  5
32F
  8
DATA
 62
     7
 10
275.28346450827001
 20
496.68956809920559
 30
0.0
 11
275.493784396102
 21
495.90464359197438
 31
0.0
  0
LINE
  5
330
  8
DATA
 62
     7
 10
274.31753868198081
 20
496.4307490541031
 30
0.0
 11
274.52785856981291
 21
495.64582454687189
 31
0.0
  0
LINE
  5
331
  8
DATA
 62
     7
 10
275.09399581728837
 20
493.53297157523588
 30
0.0
 11
276.05992164357752
 21
493.79179062033847
 31
0.0
  0
LINE
  5
332
  8
DATA
 62
     7
 10
276.05992164357752
 20
493.79179062033847
 30
0.0
 11
275.84960175574548
 21
494.57671512756968
 31
0.0
  0
LINE
  5
333
  8
DATA
 62
     7
 10
275.09399581728837
 20
493.53297157523588
 30
0.0
 11
274.88367592945639
 21
494.31789608246709
 31
0.0
  0
ARC
  5
334
  8
DATA
 62
     7
 10
273.89999999999998
 20
492.0
 30
0.0
 40
0.8499999999999987
 50
321.03187907246848
 51
68.968120927531174
  0
ARC
  5
335
  8
DATA
 62
     7
 10
273.89999999999998
 20
492.0
 30
0.0
 40
0.8500000000000008
 50
141.03187907246991
 51
248.96812092753029
  0
LINE
  5
336
  8
DATA
 62
     7
 10
273.02880851920168
 20
493.31947921688231
 30
0.0
 11
273.99473434549083
 21
493.5782982619848
 31
0.0
  0
LINE
  5
337
  8
DATA
 62
     7
 10
273.99473434549083
 20
493.5782982619848
 30
0.0
 11
274.20505423332281
 21
492.79337375475359
 31
0.0
  0
LINE
  5
338
  8
DATA
 62
     7
 10
273.02880851920168
 20
493.31947921688231
 30
0.0
 11
273.23912840703372
 21
492.5345547096511
 31
0.0
  0
LINE
  5
339
  8
DATA
 62
     7
 10
273.8052656545093
 20
490.4217017380152
 30
0.0
 11
274.77119148079828
 21
490.68052078311757
 31
0.0
  0
LINE
  5
33A
  8
DATA
 62
     7
 10
274.77119148079828
 20
490.68052078311757
 30
0.0
 11
274.56087159296629
 21
491.4654452903489
 31
0.0
  0
LINE
  5
33B
  8
DATA
 62
     7
 10
273.8052656545093
 20
490.4217017380152
 30
0.0
 11
273.59494576667731
 21
491.2066262452463
 31
0.0
  0
ARC
  5
33C
  8
DATA
 62
     7
 10
281.41126983722091
 20
495.11126983722079
 30
0.0
 40
0.8500000000000081
 50
111.0318790724706
 51
218.9681209275295
  0
ARC
  5
33D
  8
DATA
 62
     7
 10
281.41126983722091
 20
495.11126983722079
 30
0.0
 40
0.849999999999998
 50
291.03187907246888
 51
38.968120927531118
  0
LINE
  5
33E
  8
DATA
 62
     7
 10
282.28246131801922
 20
496.4307490541031
 30
0.0
 11
281.31653549173001
 21
496.68956809920559
 31
0.0
  0
LINE
  5
33F
  8
DATA
 62
     7
 10
281.31653549173001
 20
496.68956809920559
 30
0.0
 11
281.10621560389802
 21
495.90464359197438
 31
0.0
  0
LINE
  5
340
  8
DATA
 62
     7
 10
282.28246131801922
 20
496.4307490541031
 30
0.0
 11
282.07214143018712
 21
495.64582454687189
 31
0.0
  0
LINE
  5
341
  8
DATA
 62
     7
 10
281.50600418271159
 20
493.53297157523588
 30
0.0
 11
280.5400783564225
 21
493.79179062033847
 31
0.0
  0
LINE
  5
342
  8
DATA
 62
     7
 10
280.5400783564225
 20
493.79179062033847
 30
0.0
 11
280.75039824425448
 21
494.57671512756968
 31
0.0
  0
LINE
  5
343
  8
DATA
 62
     7
 10
281.50600418271159
 20
493.53297157523588
 30
0.0
 11
281.71632407054358
 21
494.31789608246709
 31
0.0
  0
LINE
  5
344
  8
DATA
 62
     7
 10
279.39999999999998
 20
488.0
 30
0.0
 11
279.39999999999998
 21
486.8561980899396
 31
0.0
  0
LINE
  5
345
  8
DATA
 62
     7
 10
279.39999999999998
 20
488.0
 30
0.0
 11
277.2000000000001
 21
488.0
 31
0.0
  0
LINE
  5
346
  8
DATA
 62
     7
 10
277.2000000000001
 20
488.0
 30
0.0
 11
277.2000000000001
 21
486.8561980899396
 31
0.0
  0
LINE
  5
347
  8
DATA
 62
     7
 10
282.79473434549078
 20
490.4217017380152
 30
0.0
 11
281.82880851920169
 21
490.68052078311757
 31
0.0
  0
LINE
  5
348
  8
DATA
 62
     7
 10
282.79473434549078
 20
490.4217017380152
 30
0.0
 11
283.00505423332282
 21
491.2066262452463
 31
0.0
  0
ARC
  5
349
  8
DATA
 62
     7
 10
282.7000000000001
 20
492.0
 30
0.0
 40
0.8499999999999914
 50
111.031879072469
 51
218.9681209275312
  0
ARC
  5
34A
  8
DATA
 62
     7
 10
282.7000000000001
 20
492.0
 30
0.0
 40
0.8500000000000149
 50
291.03187907247042
 51
38.968120927529903
  0
LINE
  5
34B
  8
DATA
 62
     7
 10
283.5711914807984
 20
493.31947921688231
 30
0.0
 11
282.60526565450931
 21
493.5782982619848
 31
0.0
  0
LINE
  5
34C
  8
DATA
 62
     7
 10
282.60526565450931
 20
493.5782982619848
 30
0.0
 11
282.39494576667732
 21
492.79337375475359
 31
0.0
  0
LINE
  5
34D
  8
DATA
 62
     7
 10
283.5711914807984
 20
493.31947921688231
 30
0.0
 11
283.3608715929663
 21
492.5345547096511
 31
0.0
  0
LINE
  5
34E
  8
DATA
 62
     7
 10
281.82880851920169
 20
490.68052078311757
 30
0.0
 11
282.03912840703379
 21
491.4654452903489
 31
0.0
  0
POLYLINE
  5
34F
  8
DATA
 62
     7
 66
     1
 10
0.0
 20
0.0
 30
0.0
 70
     1
  0
VERTEX
  5
A7D
  8
DATA
 62
     7
 10
293.30000000000001
 20
493.18626393961341
 30
0.0
  0
VERTEX
  5
A7E
  8
DATA
 62
     7
 10
295.73676690783918
 20
494.59313196980662
 30
0.0
  0
VERTEX
  5
A7F
  8
DATA
 62
     7
 10
295.73676690783918
 20
497.40686803019321
 30
0.0
  0
VERTEX
  5
A80
  8
DATA
 62
     7
 10
293.30000000000001
 20
498.81373606038659
 30
0.0
  0
VERTEX
  5
A81
  8
DATA
 62
     7
 10
290.86323309216078
 20
497.40686803019321
 30
0.0
  0
VERTEX
  5
A82
  8
DATA
 62
     7
 10
290.86323309216078
 20
494.59313196980662
 30
0.0
  0
SEQEND
  5
A83
  8
DATA
 62
     7
  0
CIRCLE
  5
357
  8
DATA
 62
     7
 10
293.30000000000001
 20
496.0
 30
0.0
 40
1.5
  0
POLYLINE
  5
358
  8
DATA
 62
     7
 66
     1
 10
0.0
 20
0.0
 30
0.0
 70
     1
  0
VERTEX
  5
A84
  8
DATA
 62
     7
 10
318.30000000000001
 20
493.18626393961341
 30
0.0
  0
VERTEX
  5
A85
  8
DATA
 62
     7
 10
320.73676690783918
 20
494.59313196980662
 30
0.0
  0
VERTEX
  5
A86
  8
DATA
 62
     7
 10
320.73676690783918
 20
497.40686803019321
 30
0.0
  0
VERTEX
  5
A87
  8
DATA
 62
     7
 10
318.30000000000001
 20
498.81373606038659
 30
0.0
  0
VERTEX
  5
A88
  8
DATA
 62
     7
 10
315.86323309216078
 20
497.40686803019321
 30
0.0
  0
VERTEX
  5
A89
  8
DATA
 62
     7
 10
315.86323309216078
 20
494.59313196980662
 30
0.0
  0
SEQEND
  5
A8A
  8
DATA
 62
     7
  0
CIRCLE
  5
360
  8
DATA
 62
     7
 10
318.30000000000001
 20
496.0
 30
0.0
 40
1.5
  0
ARC
  5
361
  8
DATA
 62
     7
 10
300.2947735340901
 20
493.7751065681756
 30
0.0
 40
2.399999999999991
 50
179.99999999999989
 51
261.74056202012127
  0
ARC
  5
362
  8
DATA
 62
     7
 10
311.30522646590998
 20
493.7751065681756
 30
0.0
 40
2.399999999999995
 50
278.2594379798789
 51
0.0000000000001137
  0
LINE
  5
363
  8
DATA
 62
     7
 10
299.9500000000001
 20
491.39999999999992
 30
0.0
 11
311.65000000000009
 21
491.39999999999992
 31
0.0
  0
LINE
  5
364
  8
DATA
 62
     7
 10
298.71324766903462
 20
499.41348394223809
 30
0.0
 11
297.89477353409001
 21
493.7751065681756
 31
0.0
  0
ARC
  5
365
  8
DATA
 62
     7
 10
300.1360270398182
 20
499.27159491208897
 30
0.0
 40
1.429836925947904
 50
87.435648395548512
 51
174.30491362457241
  0
ARC
  5
366
  8
DATA
 62
     7
 10
311.46397296018171
 20
499.27159491208897
 30
0.0
 40
1.42983692594791
 50
5.695086375427552
 51
92.564351604451204
  0
LINE
  5
367
  8
DATA
 62
     7
 10
300.2000000000001
 20
500.69999999999987
 30
0.0
 11
311.39999999999998
 21
500.69999999999987
 31
0.0
  0
LINE
  5
368
  8
DATA
 62
     7
 10
312.88675233096541
 20
499.41348394223809
 30
0.0
 11
313.70522646591002
 21
493.7751065681756
 31
0.0
  0
CIRCLE
  5
369
  8
DATA
 62
     7
 10
305.80000000000001
 20
494.5
 30
0.0
 40
0.6500000000000031
  0
CIRCLE
  5
36A
  8
DATA
 62
     7
 10
308.30000000000001
 20
494.5
 30
0.0
 40
0.6500000000000031
  0
CIRCLE
  5
36B
  8
DATA
 62
     7
 10
310.80000000000001
 20
494.5
 30
0.0
 40
0.6500000000000031
  0
CIRCLE
  5
36C
  8
DATA
 62
     7
 10
303.30000000000001
 20
494.5
 30
0.0
 40
0.6500000000000064
  0
CIRCLE
  5
36D
  8
DATA
 62
     7
 10
300.80000000000001
 20
494.5
 30
0.0
 40
0.6500000000000064
  0
CIRCLE
  5
36E
  8
DATA
 62
     7
 10
307.05000000000001
 20
497.5
 30
0.0
 40
0.6500000000000031
  0
CIRCLE
  5
36F
  8
DATA
 62
     7
 10
309.55000000000001
 20
497.5
 30
0.0
 40
0.6500000000000031
  0
CIRCLE
  5
370
  8
DATA
 62
     7
 10
304.55000000000001
 20
497.5
 30
0.0
 40
0.6500000000000064
  0
CIRCLE
  5
371
  8
DATA
 62
     7
 10
302.05000000000001
 20
497.5
 30
0.0
 40
0.6500000000000064
  0
CIRCLE
  5
372
  8
DATA
 62
     7
 10
377.30000000000001
 20
496.0
 30
0.0
 40
6.4999999999999991
  0
POLYLINE
  5
373
  8
DATA
 62
     7
 66
     1
 10
0.0
 20
0.0
 30
0.0
 70
     1
  0
VERTEX
  5
A8B
  8
DATA
 62
     7
 10
376.80000000000001
 20
498.5
 30
0.0
  0
VERTEX
  5
A8C
  8
DATA
 62
     7
 10
377.80000000000001
 20
498.5
 30
0.0
  0
VERTEX
  5
A8D
  8
DATA
 62
     7
 10
377.80000000000001
 20
493.5
 30
0.0
  0
VERTEX
  5
A8E
  8
DATA
 62
     7
 10
376.80000000000001
 20
493.5
 30
0.0
  0
SEQEND
  5
A8F
  8
DATA
 62
     7
  0
CIRCLE
  5
379
  8
DATA
 62
     7
 10
377.30000000000001
 20
496.0
 30
0.0
 40
5.0
  0
ARC
  5
37A
  8
DATA
 62
     7
 10
123.3
 20
471.49999999999989
 30
0.0
 40
4.0
 50
0.0
 51
180.0
  0
ARC
  5
37B
  8
DATA
 62
     7
 10
359.30000000000001
 20
471.49999999999989
 30
0.0
 40
4.0
 50
0.0
 51
180.0
  0
LINE
  5
37C
  8
DATA
 62
     7
 10
24.300000000000011
 20
477.0
 30
0.0
 11
25.300000000000011
 21
477.0
 31
0.0
  0
LINE
  5
37D
  8
DATA
 62
     7
 10
458.30000000000001
 20
477.0
 30
0.0
 11
457.30000000000001
 21
477.0
 31
0.0
  0
LINE
  5
37E
  8
DATA
 62
     7
 10
458.30000000000001
 20
466.0
 30
0.0
 11
24.300000000000011
 21
466.0
 31
0.0
  0
LINE
  5
37F
  8
DATA
 62
     7
 10
25.300000000000011
 20
508.49999999999989
 30
0.0
 11
457.30000000000001
 21
508.49999999999989
 31
0.0
  0
CIRCLE
  5
380
  8
DATA
 62
     7
 10
56.300000000000011
 20
499.0
 30
0.0
 40
2.49999999999998
  0
POLYLINE
  5
381
  8
DATA
 62
     7
 66
     1
 10
0.0
 20
0.0
 30
0.0
  0
VERTEX
  5
A90
  8
DATA
 62
     7
 10
56.800000000000011
 20
498.5
 30
0.0
  0
VERTEX
  5
A91
  8
DATA
 62
     7
 10
57.800000000000011
 20
498.5
 30
0.0
  0
VERTEX
  5
A92
  8
DATA
 62
     7
 10
57.800000000000011
 20
499.5
 30
0.0
  0
VERTEX
  5
A93
  8
DATA
 62
     7
 10
56.800000000000011
 20
499.5
 30
0.0
  0
SEQEND
  5
A94
  8
DATA
 62
     7
  0
POLYLINE
  5
387
  8
DATA
 62
     7
 66
     1
 10
0.0
 20
0.0
 30
0.0
  0
VERTEX
  5
A95
  8
DATA
 62
     7
 10
55.800000000000011
 20
498.5
 30
0.0
  0
VERTEX
  5
A96
  8
DATA
 62
     7
 10
54.800000000000011
 20
498.5
 30
0.0
  0
VERTEX
  5
A97
  8
DATA
 62
     7
 10
54.800000000000011
 20
499.5
 30
0.0
  0
VERTEX
  5
A98
  8
DATA
 62
     7
 10
55.800000000000011
 20
499.5
 30
0.0
  0
SEQEND
  5
A99
  8
DATA
 62
     7
  0
CIRCLE
  5
38D
  8
DATA
 62
     7
 10
56.300000000000011
 20
499.0
 30
0.0
 40
2.499999999999988
  0
POLYLINE
  5
38E
  8
DATA
 62
     7
 66
     1
 10
0.0
 20
0.0
 30
0.0
  0
VERTEX
  5
A9A
  8
DATA
 62
     7
 10
56.800000000000011
 20
499.5
 30
0.0
  0
VERTEX
  5
A9B
  8
DATA
 62
     7
 10
56.800000000000011
 20
500.49999999999989
 30
0.0
  0
VERTEX
  5
A9C
  8
DATA
 62
     7
 10
55.800000000000011
 20
500.49999999999989
 30
0.0
  0
VERTEX
  5
A9D
  8
DATA
 62
     7
 10
55.800000000000011
 20
499.5
 30
0.0
  0
SEQEND
  5
A9E
  8
DATA
 62
     7
  0
POLYLINE
  5
394
  8
DATA
 62
     7
 66
     1
 10
0.0
 20
0.0
 30
0.0
  0
VERTEX
  5
A9F
  8
DATA
 62
     7
 10
56.800000000000011
 20
498.5
 30
0.0
  0
VERTEX
  5
AA0
  8
DATA
 62
     7
 10
56.800000000000011
 20
497.5
 30
0.0
  0
VERTEX
  5
AA1
  8
DATA
 62
     7
 10
55.800000000000011
 20
497.5
 30
0.0
  0
VERTEX
  5
AA2
  8
DATA
 62
     7
 10
55.800000000000011
 20
498.5
 30
0.0
  0
SEQEND
  5
AA3
  8
DATA
 62
     7
  0
CIRCLE
  5
39A
  8
DATA
 62
     7
 10
76.300000000000026
 20
479.0
 30
0.0
 40
2.49999999999998
  0
POLYLINE
  5
39B
  8
DATA
 62
     7
 66
     1
 10
0.0
 20
0.0
 30
0.0
  0
VERTEX
  5
AA4
  8
DATA
 62
     7
 10
75.800000000000026
 20
479.49999999999989
 30
0.0
  0
VERTEX
  5
AA5
  8
DATA
 62
     7
 10
74.800000000000026
 20
479.49999999999989
 30
0.0
  0
VERTEX
  5
AA6
  8
DATA
 62
     7
 10
74.800000000000026
 20
478.5
 30
0.0
  0
VERTEX
  5
AA7
  8
DATA
 62
     7
 10
75.800000000000026
 20
478.5
 30
0.0
  0
SEQEND
  5
AA8
  8
DATA
 62
     7
  0
POLYLINE
  5
3A1
  8
DATA
 62
     7
 66
     1
 10
0.0
 20
0.0
 30
0.0
  0
VERTEX
  5
AA9
  8
DATA
 62
     7
 10
76.800000000000026
 20
479.49999999999989
 30
0.0
  0
VERTEX
  5
AAA
  8
DATA
 62
     7
 10
77.800000000000026
 20
479.49999999999989
 30
0.0
  0
VERTEX
  5
AAB
  8
DATA
 62
     7
 10
77.800000000000026
 20
478.5
 30
0.0
  0
VERTEX
  5
AAC
  8
DATA
 62
     7
 10
76.800000000000026
 20
478.5
 30
0.0
  0
SEQEND
  5
AAD
  8
DATA
 62
     7
  0
CIRCLE
  5
3A7
  8
DATA
 62
     7
 10
76.300000000000026
 20
479.0
 30
0.0
 40
2.499999999999988
  0
POLYLINE
  5
3A8
  8
DATA
 62
     7
 66
     1
 10
0.0
 20
0.0
 30
0.0
  0
VERTEX
  5
AAE
  8
DATA
 62
     7
 10
75.800000000000026
 20
478.5
 30
0.0
  0
VERTEX
  5
AAF
  8
DATA
 62
     7
 10
75.800000000000026
 20
477.5
 30
0.0
  0
VERTEX
  5
AB0
  8
DATA
 62
     7
 10
76.800000000000026
 20
477.5
 30
0.0
  0
VERTEX
  5
AB1
  8
DATA
 62
     7
 10
76.800000000000026
 20
478.5
 30
0.0
  0
SEQEND
  5
AB2
  8
DATA
 62
     7
  0
POLYLINE
  5
3AE
  8
DATA
 62
     7
 66
     1
 10
0.0
 20
0.0
 30
0.0
  0
VERTEX
  5
AB3
  8
DATA
 62
     7
 10
75.800000000000026
 20
479.49999999999989
 30
0.0
  0
VERTEX
  5
AB4
  8
DATA
 62
     7
 10
75.800000000000026
 20
480.49999999999989
 30
0.0
  0
VERTEX
  5
AB5
  8
DATA
 62
     7
 10
76.800000000000026
 20
480.49999999999989
 30
0.0
  0
VERTEX
  5
AB6
  8
DATA
 62
     7
 10
76.800000000000026
 20
479.49999999999989
 30
0.0
  0
SEQEND
  5
AB7
  8
DATA
 62
     7
  0
TEXT
  5
3B4
  8
DATA
 62
     7
 10
60.400331439393931
 20
474.8016571969697
 30
0.0
 40
2.7999999999999998
  1
INPUTS
 50
180.0
 41
0.8
 11
60.400331439393931
 21
472.00165719696957
 31
0.0
 73
     3
  0
LINE
  5
3B5
  8
DATA
 62
     7
 10
56.5
 20
493.0
 30
0.0
 11
56.300000000000011
 21
493.0
 31
0.0
  0
LINE
  5
3B6
  8
DATA
 62
     7
 10
36.300000000000011
 20
473.5
 30
0.0
 11
38.636992515763609
 21
473.5
 31
0.0
  0
LINE
  5
3B7
  8
DATA
 62
     7
 10
47.963007484233522
 20
473.5
 30
0.0
 11
49.464329591213811
 21
473.5
 31
0.0
  0
TEXT
  5
3B8
  8
DATA
 62
     7
 10
67.300662878787975
 20
504.6192571524258
 30
0.0
 40
2.7999999999999998
  1
B
 50
180.0
 41
0.8
 11
67.300662878787975
 21
501.81925715242591
 31
0.0
 73
     3
  0
TEXT
  5
3B9
  8
DATA
 62
     7
 10
48.625
 20
504.6192571524258
 30
0.0
 40
2.7999999999999998
  1
A/AES
 50
180.0
 41
0.8
 11
48.625
 21
501.81925715242591
 31
0.0
 73
     3
  0
TEXT
  5
3BA
  8
DATA
 62
     7
 10
191.40033143939391
 20
474.8016571969697
 30
0.0
 40
2.7999999999999998
  1
FLOATING BALANCED OUTPUTS
 50
180.0
 41
0.8
 11
191.40033143939391
 21
472.00165719696957
 31
0.0
 73
     3
  0
LINE
  5
3BB
  8
DATA
 62
     7
 10
126.7641016151378
 20
473.5
 30
0.0
 11
147.30000000000001
 21
473.5
 31
0.0
  0
TEXT
  5
3BC
  8
DATA
 62
     7
 10
113.175
 20
504.6192571524258
 30
0.0
 40
2.7999999999999998
  1
1
 50
180.0
 41
0.8
 11
113.175
 21
501.81925715242591
 31
0.0
 73
     3
  0
TEXT
  5
3BD
  8
DATA
 62
     7
 10
136.17500000000001
 20
504.6192571524258
 30
0.0
 40
2.7999999999999998
  1
2
 50
180.0
 41
0.8
 11
136.17500000000001
 21
501.81925715242591
 31
0.0
 73
     3
  0
TEXT
  5
3BE
  8
DATA
 62
     7
 10
159.17500000000001
 20
504.6192571524258
 30
0.0
 40
2.7999999999999998
  1
3
 50
180.0
 41
0.8
 11
159.17500000000001
 21
501.81925715242591
 31
0.0
 73
     3
  0
TEXT
  5
3BF
  8
DATA
 62
     7
 10
182.17500000000001
 20
504.6192571524258
 30
0.0
 40
2.7999999999999998
  1
4
 50
180.0
 41
0.8
 11
182.17500000000001
 21
501.81925715242591
 31
0.0
 73
     3
  0
TEXT
  5
3C0
  8
DATA
 62
     7
 10
205.17500000000001
 20
504.6192571524258
 30
0.0
 40
2.7999999999999998
  1
5
 50
180.0
 41
0.8
 11
205.17500000000001
 21
501.81925715242591
 31
0.0
 73
     3
  0
TEXT
  5
3C1
  8
DATA
 62
     7
 10
228.17500000000001
 20
504.6192571524258
 30
0.0
 40
2.7999999999999998
  1
6
 50
180.0
 41
0.8
 11
228.17500000000001
 21
501.81925715242591
 31
0.0
 73
     3
  0
TEXT
  5
3C2
  8
DATA
 62
     7
 10
256.42500000000001
 20
504.6192571524258
 30
0.0
 40
2.7999999999999998
  1
MIDI IN
 50
180.0
 41
0.8
 11
256.42500000000001
 21
501.81925715242591
 31
0.0
 73
     3
  0
TEXT
  5
3C3
  8
DATA
 62
     7
 10
285.42500000000001
 20
504.6192571524258
 30
0.0
 40
2.7999999999999998
  1
MIDI OUT
 50
180.0
 41
0.8
 11
285.42500000000001
 21
501.81925715242591
 31
0.0
 73
     3
  0
TEXT
  5
3C4
  8
DATA
 62
     7
 10
318.02313054946637
 20
504.6192571524258
 30
0.0
 40
2.7999999999999998
  1
PROGRAM SELECT
 50
180.0
 41
0.8
 11
318.02313054946637
 21
501.81925715242591
 31
0.0
 73
     3
  0
TEXT
  5
3C5
  8
DATA
 62
     7
 10
389.05000000000001
 20
487.80000000000001
 30
0.0
 40
2.7999999999999998
  1
T1A-250V FUSE
 50
180.0
 41
0.8
 11
389.05000000000001
 21
485.0
 31
0.0
 73
     3
  0
ARC
  5
3C6
  8
DATA
 62
     7
 10
27.85749999999997
 20
487.0
 30
0.0
 40
4.0574999999999708
 50
129.0733098762561
 51
230.9266901237439
  0
ARC
  5
3C7
  8
DATA
 62
     7
 10
454.74250000000001
 20
487.0
 30
0.0
 40
4.057500000000001
 50
309.07330987625693
 51
50.926690123743199
  0
LINE
  5
3C8
  8
DATA
 62
     7
 10
523.60000000000002
 20
42.0
 30
0.0
 11
524.40011239591615
 21
42.0
 31
0.0
  0
LINE
  5
3C9
  8
DATA
 62
     7
 10
6.849999999999965
 20
10.05000000000001
 30
0.0
 11
10.14999999999997
 21
10.05000000000001
 31
0.0
  0
LINE
  5
3CA
  8
DATA
 62
     7
 10
6.849999999999965
 20
2.9499999999999882
 30
0.0
 11
10.14999999999997
 21
2.9499999999999882
 31
0.0
  0
ARC
  5
3CB
  8
DATA
 62
     7
 10
6.8499999999999091
 20
6.5
 30
0.0
 40
3.5500000000000109
 50
90.0
 51
270.0
  0
ARC
  5
3CC
  8
DATA
 62
     7
 10
10.14999999999997
 20
6.5
 30
0.0
 40
3.5500000000000109
 50
270.0
 51
90.0
  0
LINE
  5
3CD
  8
DATA
 62
     7
 10
6.849999999999965
 20
41.050000000000011
 30
0.0
 11
10.14999999999997
 21
41.050000000000011
 31
0.0
  0
LINE
  5
3CE
  8
DATA
 62
     7
 10
6.849999999999965
 20
33.949999999999989
 30
0.0
 11
10.14999999999997
 21
33.949999999999989
 31
0.0
  0
ARC
  5
3CF
  8
DATA
 62
     7
 10
6.8499999999999091
 20
37.5
 30
0.0
 40
3.5500000000000109
 50
90.0
 51
270.0
  0
ARC
  5
3D0
  8
DATA
 62
     7
 10
10.14999999999997
 20
37.5
 30
0.0
 40
3.5500000000000109
 50
270.0
 51
90.0
  0
LINE
  5
3D1
  8
DATA
 62
     7
 10
475.75
 20
10.05000000000001
 30
0.0
 11
472.44999999999999
 21
10.05000000000001
 31
0.0
  0
LINE
  5
3D2
  8
DATA
 62
     7
 10
475.75
 20
2.9499999999999882
 30
0.0
 11
472.44999999999999
 21
2.9499999999999882
 31
0.0
  0
ARC
  5
3D3
  8
DATA
 62
     7
 10
475.75
 20
6.5
 30
0.0
 40
3.5500000000000109
 50
270.0
 51
90.0
  0
ARC
  5
3D4
  8
DATA
 62
     7
 10
472.44999999999999
 20
6.5
 30
0.0
 40
3.5500000000000109
 50
90.0
 51
270.0
  0
LINE
  5
3D5
  8
DATA
 62
     7
 10
475.75
 20
41.050000000000011
 30
0.0
 11
472.44999999999999
 21
41.050000000000011
 31
0.0
  0
LINE
  5
3D6
  8
DATA
 62
     7
 10
475.75
 20
33.949999999999989
 30
0.0
 11
472.44999999999999
 21
33.949999999999989
 31
0.0
  0
ARC
  5
3D7
  8
DATA
 62
     7
 10
475.75
 20
37.5
 30
0.0
 40
3.5500000000000109
 50
270.0
 51
90.0
  0
ARC
  5
3D8
  8
DATA
 62
     7
 10
472.44999999999999
 20
37.5
 30
0.0
 40
3.5500000000000109
 50
90.0
 51
270.0
  0
LINE
  5
3D9
  8
DATA
 62
     7
 10
476.14999999999992
 20
475.05000000000001
 30
0.0
 11
472.85000000000002
 21
475.05000000000001
 31
0.0
  0
LINE
  5
3DA
  8
DATA
 62
     7
 10
476.14999999999992
 20
467.94999999999987
 30
0.0
 11
472.85000000000002
 21
467.94999999999987
 31
0.0
  0
ARC
  5
3DB
  8
DATA
 62
     7
 10
476.14999999999992
 20
471.49999999999989
 30
0.0
 40
3.5500000000000109
 50
270.0
 51
90.0
  0
ARC
  5
3DC
  8
DATA
 62
     7
 10
472.85000000000002
 20
471.49999999999989
 30
0.0
 40
3.5500000000000109
 50
90.0
 51
270.0
  0
LINE
  5
3DD
  8
DATA
 62
     7
 10
476.14999999999992
 20
506.05000000000001
 30
0.0
 11
472.85000000000002
 21
506.05000000000001
 31
0.0
  0
LINE
  5
3DE
  8
DATA
 62
     7
 10
476.14999999999992
 20
498.94999999999987
 30
0.0
 11
472.85000000000002
 21
498.94999999999987
 31
0.0
  0
ARC
  5
3DF
  8
DATA
 62
     7
 10
476.14999999999992
 20
502.5
 30
0.0
 40
3.5500000000000109
 50
270.0
 51
90.0
  0
ARC
  5
3E0
  8
DATA
 62
     7
 10
472.85000000000002
 20
502.5
 30
0.0
 40
3.5500000000000109
 50
90.0
 51
270.0
  0
LINE
  5
3E1
  8
DATA
 62
     7
 10
6.8500000000000227
 20
475.05000000000001
 30
0.0
 11
10.150000000000031
 21
475.05000000000001
 31
0.0
  0
LINE
  5
3E2
  8
DATA
 62
     7
 10
6.8500000000000227
 20
467.94999999999987
 30
0.0
 11
10.150000000000031
 21
467.94999999999987
 31
0.0
  0
ARC
  5
3E3
  8
DATA
 62
     7
 10
6.849999999999965
 20
471.49999999999989
 30
0.0
 40
3.5500000000000109
 50
90.0
 51
270.0
  0
ARC
  5
3E4
  8
DATA
 62
     7
 10
10.150000000000031
 20
471.49999999999989
 30
0.0
 40
3.5500000000000109
 50
270.0
 51
90.0
  0
LINE
  5
3E5
  8
DATA
 62
     7
 10
6.8500000000000227
 20
506.05000000000001
 30
0.0
 11
10.150000000000031
 21
506.05000000000001
 31
0.0
  0
LINE
  5
3E6
  8
DATA
 62
     7
 10
6.8500000000000227
 20
498.94999999999987
 30
0.0
 11
10.150000000000031
 21
498.94999999999987
 31
0.0
  0
ARC
  5
3E7
  8
DATA
 62
     7
 10
6.849999999999965
 20
502.5
 30
0.0
 40
3.5500000000000109
 50
90.0
 51
270.0
  0
ARC
  5
3E8
  8
DATA
 62
     7
 10
10.150000000000031
 20
502.5
 30
0.0
 40
3.5500000000000109
 50
270.0
 51
90.0
  0
ARC
  5
3E9
  8
DATA
 62
     7
 10
38.5
 20
12.0
 30
0.0
 40
3.0
 50
90.0
 51
270.0
  0
ARC
  5
3EA
  8
DATA
 62
     7
 10
45.499999999999993
 20
12.0
 30
0.0
 40
3.0
 50
270.0
 51
90.0
  0
LINE
  5
3EB
  8
DATA
 62
     7
 10
38.5
 20
15.0
 30
0.0
 11
45.499999999999993
 21
15.0
 31
0.0
  0
LINE
  5
3EC
  8
DATA
 62
     7
 10
38.5
 20
9.0
 30
0.0
 11
45.499999999999993
 21
9.0
 31
0.0
  0
ARC
  5
3ED
  8
DATA
 62
     7
 10
38.5
 20
29.0
 30
0.0
 40
3.0
 50
90.0
 51
270.0
  0
ARC
  5
3EE
  8
DATA
 62
     7
 10
45.499999999999993
 20
29.0
 30
0.0
 40
3.0
 50
270.0
 51
90.0
  0
LINE
  5
3EF
  8
DATA
 62
     7
 10
38.5
 20
32.0
 30
0.0
 11
45.499999999999993
 21
32.0
 31
0.0
  0
LINE
  5
3F0
  8
DATA
 62
     7
 10
38.5
 20
26.0
 30
0.0
 11
45.499999999999993
 21
26.0
 31
0.0
  0
CIRCLE
  5
3F1
  8
DATA
 62
     7
 10
70.0
 20
22.0
 30
0.0
 40
14.5
  0
CIRCLE
  5
3F2
  8
DATA
 62
     7
 10
70.0
 20
22.0
 30
0.0
 40
13.999999999999989
  0
ARC
  5
3F3
  8
DATA
 62
     7
 10
70.0
 20
22.0
 30
0.0
 40
13.64999999999999
 50
160.75123292751749
 51
203.76150040046619
  0
ARC
  5
3F4
  8
DATA
 62
     7
 10
70.0
 20
22.0
 30
0.0
 40
13.649999999999981
 50
248.51236860283041
 51
291.48763139716959
  0
ARC
  5
3F5
  8
DATA
 62
     7
 10
70.0
 20
22.0
 30
0.0
 40
13.64999999999997
 50
336.23849959953378
 51
19.24876707248302
  0
ARC
  5
3F6
  8
DATA
 62
     7
 10
70.0
 20
22.0
 30
0.0
 40
13.649999999999981
 50
68.512368602830421
 51
111.48763139716959
  0
LINE
  5
3F7
  8
DATA
 62
     7
 10
65.0
 20
26.5
 30
0.0
 11
65.0
 21
34.701279463109593
 31
0.0
  0
LINE
  5
3F8
  8
DATA
 62
     7
 10
75.0
 20
26.5
 30
0.0
 11
75.0
 21
34.701279463109593
 31
0.0
  0
LINE
  5
3F9
  8
DATA
 62
     7
 10
75.0
 20
26.5
 30
0.0
 11
82.886911965245247
 21
26.5
 31
0.0
  0
LINE
  5
3FA
  8
DATA
 62
     7
 10
75.0
 20
16.5
 30
0.0
 11
82.492897982453442
 21
16.5
 31
0.0
  0
LINE
  5
3FB
  8
DATA
 62
     7
 10
75.0
 20
16.5
 30
0.0
 11
75.0
 21
9.2987205368904142
 31
0.0
  0
LINE
  5
3FC
  8
DATA
 62
     7
 10
65.0
 20
16.5
 30
0.0
 11
65.0
 21
9.2987205368904142
 31
0.0
  0
LINE
  5
3FD
  8
DATA
 62
     7
 10
65.0
 20
16.5
 30
0.0
 11
57.507102017546572
 21
16.5
 31
0.0
  0
LINE
  5
3FE
  8
DATA
 62
     7
 10
65.0
 20
26.5
 30
0.0
 11
57.113088034754753
 21
26.5
 31
0.0
  0
LINE
  5
3FF
  8
DATA
 62
     7
 10
99.750000000000014
 20
34.5
 30
0.0
 11
160.25
 21
34.5
 31
0.0
  0
LINE
  5
400
  8
DATA
 62
     7
 10
99.25
 20
34.0
 30
0.0
 11
99.25
 21
9.5
 31
0.0
  0
LINE
  5
401
  8
DATA
 62
     7
 10
99.750000000000014
 20
9.0
 30
0.0
 11
160.25
 21
9.0
 31
0.0
  0
LINE
  5
402
  8
DATA
 62
     7
 10
160.75
 20
9.5
 30
0.0
 11
160.75
 21
34.0
 31
0.0
  0
ARC
  5
403
  8
DATA
 62
     7
 10
99.750000000000014
 20
34.0
 30
0.0
 40
0.5
 50
90.0
 51
180.0
  0
ARC
  5
404
  8
DATA
 62
     7
 10
99.750000000000014
 20
9.5
 30
0.0
 40
0.5
 50
180.0
 51
270.0
  0
ARC
  5
405
  8
DATA
 62
     7
 10
160.25
 20
34.0
 30
0.0
 40
0.5
 50
0.0
 51
90.0
  0
ARC
  5
406
  8
DATA
 62
     7
 10
160.25
 20
9.5
 30
0.0
 40
0.5
 50
270.0
 51
0.0
  0
CIRCLE
  5
407
  8
DATA
 62
     7
 10
190.0
 20
22.0
 30
0.0
 40
15.00000000000002
  0
ARC
  5
408
  8
DATA
 62
     7
 10
190.0
 20
22.0
 30
0.0
 40
12.80000000000001
 50
89.99999999999973
 51
105.0000000000007
  0
ARC
  5
409
  8
DATA
 62
     7
 10
190.0
 20
22.0
 30
0.0
 40
12.800000000000001
 50
119.9999999999996
 51
135.00000000000011
  0
ARC
  5
40A
  8
DATA
 62
     7
 10
190.0
 20
22.0
 30
0.0
 40
12.79999999999999
 50
149.99999999999949
 51
165.00000000000051
  0
ARC
  5
40B
  8
DATA
 62
     7
 10
190.0
 20
22.0
 30
0.0
 40
12.80000000000001
 50
180.0
 51
195.00000000000051
  0
ARC
  5
40C
  8
DATA
 62
     7
 10
190.0
 20
22.0
 30
0.0
 40
12.80000000000002
 50
209.99999999999841
 51
224.99999999999281
  0
ARC
  5
40D
  8
DATA
 62
     7
 10
190.0
 20
22.0
 30
0.0
 40
12.80000000000002
 50
240.0000000000004
 51
255.00000000000031
  0
ARC
  5
40E
  8
DATA
 62
     7
 10
190.0
 20
22.0
 30
0.0
 40
12.80000000000001
 50
270.0
 51
285.0000000000008
  0
ARC
  5
40F
  8
DATA
 62
     7
 10
190.0
 20
22.0
 30
0.0
 40
12.79999999999999
 50
299.99999999999937
 51
315.0000000000004
  0
ARC
  5
410
  8
DATA
 62
     7
 10
190.0
 20
22.0
 30
0.0
 40
12.80000000000002
 50
329.9999999999996
 51
345.00000000000011
  0
ARC
  5
411
  8
DATA
 62
     7
 10
190.0
 20
22.0
 30
0.0
 40
12.80000000000001
 50
0.0
 51
15.00000000000051
  0
ARC
  5
412
  8
DATA
 62
     7
 10
190.0
 20
22.0
 30
0.0
 40
12.79999999999999
 50
29.99999999999844
 51
45.000000000000632
  0
ARC
  5
413
  8
DATA
 62
     7
 10
190.0
 20
22.0
 30
0.0
 40
12.80000000000002
 50
59.999999999999858
 51
75.000000000000668
  0
CIRCLE
  5
414
  8
DATA
 62
     7
 10
190.0
 20
22.0
 30
0.0
 40
12.349999999999991
  0
ARC
  5
415
  8
DATA
 62
     7
 10
192.16924410082569
 20
38.477044800351692
 30
0.0
 40
4.2692245704296434
 50
239.46184944532649
 51
285.53815055467459
  0
ARC
  5
416
  8
DATA
 62
     7
 10
183.64009809814871
 20
37.354161426811693
 30
0.0
 40
4.2692245704296061
 50
269.46184944532661
 51
315.53815055467498
  0
ARC
  5
417
  8
DATA
 62
     7
 10
176.81508267401401
 20
32.117142898500447
 30
0.0
 40
4.2692245704296434
 50
299.46184944532598
 51
345.5381505546743
  0
ARC
  5
418
  8
DATA
 62
     7
 10
173.52295519964829
 20
24.169244100825662
 30
0.0
 40
4.2692245704296141
 50
329.46184944532718
 51
15.538150554674759
  0
ARC
  5
419
  8
DATA
 62
     7
 10
174.64583857318831
 20
15.64009809814865
 30
0.0
 40
4.2692245704296621
 50
359.461849445327
 51
45.538150554674921
  0
ARC
  5
41A
  8
DATA
 62
     7
 10
179.88285710149961
 20
8.8150826740139792
 30
0.0
 40
4.2692245704296221
 50
29.461849445327012
 51
75.538150554675042
  0
ARC
  5
41B
  8
DATA
 62
     7
 10
187.83075589917439
 20
5.5229551996483206
 30
0.0
 40
4.2692245704296434
 50
59.461849445326528
 51
105.5381505546747
  0
ARC
  5
41C
  8
DATA
 62
     7
 10
196.3599019018512
 20
6.6458385731882572
 30
0.0
 40
4.2692245704296621
 50
89.461849445327005
 51
135.5381505546749
  0
ARC
  5
41D
  8
DATA
 62
     7
 10
203.18491732598599
 20
11.88285710149955
 30
0.0
 40
4.2692245704296079
 50
119.46184944532671
 51
165.5381505546749
  0
ARC
  5
41E
  8
DATA
 62
     7
 10
206.47704480035171
 20
19.830755899174331
 30
0.0
 40
4.2692245704296434
 50
149.46184944532649
 51
195.53815055467459
  0
ARC
  5
41F
  8
DATA
 62
     7
 10
205.35416142681169
 20
28.359901901851291
 30
0.0
 40
4.2692245704296621
 50
179.461849445327
 51
225.5381505546749
  0
ARC
  5
420
  8
DATA
 62
     7
 10
200.11714289850039
 20
35.184917325986021
 30
0.0
 40
4.2692245704296221
 50
209.46184944532689
 51
255.53815055467541
  0
CIRCLE
  5
421
  8
DATA
 62
     7
 10
190.0
 20
22.0
 30
0.0
 40
14.0
  0
CIRCLE
  5
422
  8
DATA
 62
     7
 10
212.0
 20
29.0
 30
0.0
 40
2.9999999999999889
  0
CIRCLE
  5
423
  8
DATA
 62
     7
 10
224.5
 20
29.0
 30
0.0
 40
2.9999999999999889
  0
CIRCLE
  5
424
  8
DATA
 62
     7
 10
237.0
 20
29.0
 30
0.0
 40
2.9999999999999889
  0
CIRCLE
  5
425
  8
DATA
 62
     7
 10
249.5
 20
29.0
 30
0.0
 40
2.9999999999999889
  0
CIRCLE
  5
426
  8
DATA
 62
     7
 10
269.0
 20
29.0
 30
0.0
 40
2.9999999999999889
  0
POLYLINE
  5
427
  8
DATA
 62
     7
 66
     1
 10
0.0
 20
0.0
 30
0.0
 70
     1
  0
VERTEX
  5
AB8
  8
DATA
 62
     7
 10
211.5
 20
13.5
 30
0.0
  0
VERTEX
  5
AB9
  8
DATA
 62
     7
 10
267.5
 20
13.5
 30
0.0
  0
VERTEX
  5
ABA
  8
DATA
 62
     7
 10
267.5
 20
8.0
 30
0.0
  0
VERTEX
  5
ABB
  8
DATA
 62
     7
 10
211.5
 20
8.0
 30
0.0
  0
SEQEND
  5
ABC
  8
DATA
 62
     7
  0
TEXT
  5
42D
  8
DATA
 62
     7
 10
208.0
 20
15.949999999999999
 30
0.0
 40
2.7999999999999998
  1
UTILS
 41
0.8
 11
208.0
 21
18.75
 31
0.0
 73
     3
  0
TEXT
  5
42E
  8
DATA
 62
     7
 10
223.625
 20
15.949999999999999
 30
0.0
 40
2.7999999999999998
  1
A
 41
0.8
 11
223.625
 21
18.75
 31
0.0
 73
     3
  0
TEXT
  5
42F
  8
DATA
 62
     7
 10
236.125
 20
15.949999999999999
 30
0.0
 40
2.7999999999999998
  1
B
 41
0.8
 11
236.125
 21
18.75
 31
0.0
 73
     3
  0
TEXT
  5
430
  8
DATA
 62
     7
 10
248.625
 20
15.949999999999999
 30
0.0
 40
2.7999999999999998
  1
C
 41
0.8
 11
248.625
 21
18.75
 31
0.0
 73
     3
  0
TEXT
  5
431
  8
DATA
 62
     7
 10
266.375
 20
15.949999999999999
 30
0.0
 40
2.7999999999999998
  1
SUM
 41
0.8
 11
266.375
 21
18.75
 31
0.0
 73
     3
  0
CIRCLE
  5
432
  8
DATA
 62
     7
 10
283.5
 20
12.0
 30
0.0
 40
2.999999999999976
  0
ARC
  5
433
  8
DATA
 62
     7
 10
297.0
 20
13.0
 30
0.0
 40
5.0000000000000258
 50
112.4999999999993
 51
127.4999999999996
  0
ARC
  5
434
  8
DATA
 62
     7
 10
297.0
 20
13.0
 30
0.0
 40
5.0000000000000462
 50
142.49999999999861
 51
157.49999999999849
  0
ARC
  5
435
  8
DATA
 62
     7
 10
297.0
 20
13.0
 30
0.0
 40
5.0000000000000222
 50
172.4999999999992
 51
187.4999999999994
  0
ARC
  5
436
  8
DATA
 62
     7
 10
297.0
 20
13.0
 30
0.0
 40
5.0000000000000124
 50
202.4999999999994
 51
217.49999999999909
  0
ARC
  5
437
  8
DATA
 62
     7
 10
297.0
 20
13.0
 30
0.0
 40
5.0000000000000311
 50
232.49999999999909
 51
247.4999999999992
  0
ARC
  5
438
  8
DATA
 62
     7
 10
297.0
 20
13.0
 30
0.0
 40
4.9999999999999778
 50
262.4999999999992
 51
277.50000000000011
  0
ARC
  5
439
  8
DATA
 62
     7
 10
297.0
 20
13.0
 30
0.0
 40
5.0000000000000009
 50
292.5000000000004
 51
307.49999999999949
  0
ARC
  5
43A
  8
DATA
 62
     7
 10
297.0
 20
13.0
 30
0.0
 40
5.0000000000000089
 50
322.50000000000068
 51
337.50000000000063
  0
ARC
  5
43B
  8
DATA
 62
     7
 10
297.0
 20
13.0
 30
0.0
 40
5.0000000000000204
 50
352.50000000000051
 51
7.4999999999994893
  0
ARC
  5
43C
  8
DATA
 62
     7
 10
297.0
 20
13.0
 30
0.0
 40
5.0000000000000258
 50
22.499999999999361
 51
37.5
  0
ARC
  5
43D
  8
DATA
 62
     7
 10
297.0
 20
13.0
 30
0.0
 40
5.000000000000024
 50
52.500000000000263
 51
67.500000000000341
  0
ARC
  5
43E
  8
DATA
 62
     7
 10
297.0
 20
13.0
 30
0.0
 40
5.0000000000000284
 50
82.499999999999915
 51
97.500000000000142
  0
ARC
  5
43F
  8
DATA
 62
     7
 10
297.0
 20
13.0
 30
0.0
 40
4.050000000000014
 50
93.539026459004859
 51
86.460973540995127
  0
ARC
  5
440
  8
DATA
 62
     7
 10
297.0
 20
13.0
 30
0.0
 40
4.7500000000000009
 50
93.016961309816026
 51
86.983038690184003
  0
ARC
  5
441
  8
DATA
 62
     7
 10
298.5221945532553
 20
18.68090741175331
 30
0.0
 40
1.1313081265050611
 50
219.76848405798731
 51
290.23151594201317
  0
ARC
  5
442
  8
DATA
 62
     7
 10
295.47780544674481
 20
18.68090741175331
 30
0.0
 40
1.131308126505046
 50
249.76848405798751
 51
320.23151594201221
  0
ARC
  5
443
  8
DATA
 62
     7
 10
292.84128714150199
 20
17.15871285849812
 30
0.0
 40
1.131308126505056
 50
279.76848405798808
 51
350.23151594201488
  0
ARC
  5
444
  8
DATA
 62
     7
 10
291.31909258824669
 20
14.5221945532553
 30
0.0
 40
1.13130812650504
 50
309.76848405798819
 51
20.231515942015729
  0
ARC
  5
445
  8
DATA
 62
     7
 10
291.31909258824669
 20
11.47780544674481
 30
0.0
 40
1.131308126505099
 50
339.76848405798847
 51
50.231515942013047
  0
ARC
  5
446
  8
DATA
 62
     7
 10
292.84128714150199
 20
8.8412871415020504
 30
0.0
 40
1.131308126505066
 50
9.7684840579909462
 51
80.231515942014752
  0
ARC
  5
447
  8
DATA
 62
     7
 10
295.4778054467447
 20
7.3190925882468028
 30
0.0
 40
1.1313081265050611
 50
39.768484057987301
 51
110.2315159420132
  0
ARC
  5
448
  8
DATA
 62
     7
 10
298.52219455325519
 20
7.3190925882468028
 30
0.0
 40
1.131308126505099
 50
69.768484057988459
 51
140.23151594201411
  0
ARC
  5
449
  8
DATA
 62
     7
 10
301.15871285849801
 20
8.8412871415020504
 30
0.0
 40
1.131308126505046
 50
99.768484057985305
 51
170.23151594201471
  0
ARC
  5
44A
  8
DATA
 62
     7
 10
302.68090741175331
 20
11.47780544674481
 30
0.0
 40
1.13130812650504
 50
129.7684840579883
 51
200.2315159420157
  0
ARC
  5
44B
  8
DATA
 62
     7
 10
302.68090741175331
 20
14.52219455325525
 30
0.0
 40
1.131308126505099
 50
159.76848405798839
 51
230.231515942013
  0
ARC
  5
44C
  8
DATA
 62
     7
 10
301.15871285849801
 20
17.158712858497999
 30
0.0
 40
1.131308126505046
 50
189.76848405798521
 51
260.23151594201471
  0
POLYLINE
  5
44D
  8
DATA
 62
     7
 66
     1
 10
0.0
 20
0.0
 30
0.0
 70
     1
  0
VERTEX
  5
ABD
  8
DATA
 62
     7
 10
296.75
 20
17.993746088859549
 30
0.0
  0
VERTEX
  5
ABE
  8
DATA
 62
     7
 10
297.25
 20
17.993746088859549
 30
0.0
  0
VERTEX
  5
ABF
  8
DATA
 62
     7
 10
297.25
 20
13.0
 30
0.0
  0
VERTEX
  5
AC0
  8
DATA
 62
     7
 10
296.75
 20
13.0
 30
0.0
  0
SEQEND
  5
AC1
  8
DATA
 62
     7
  0
LINE
  5
453
  8
DATA
 62
     7
 10
297.0
 20
17.993746088859549
 30
0.0
 11
297.0
 21
18.0
 31
0.0
  0
CIRCLE
  5
454
  8
DATA
 62
     7
 10
292.02071111972663
 20
17.17811946296251
 30
0.0
 40
0.3999999999999827
  0
CIRCLE
  5
455
  8
DATA
 62
     7
 10
290.59874960542061
 20
11.87128684516494
 30
0.0
 40
0.4000000000000197
  0
CIRCLE
  5
456
  8
DATA
 62
     7
 10
293.75
 20
7.3708348754011581
 30
0.0
 40
0.3999999999999681
  0
CIRCLE
  5
457
  8
DATA
 62
     7
 10
301.97928888027337
 20
17.17811946296251
 30
0.0
 40
0.3999999999999827
  0
CIRCLE
  5
458
  8
DATA
 62
     7
 10
303.40125039457928
 20
11.87128684516494
 30
0.0
 40
0.4000000000000197
  0
CIRCLE
  5
459
  8
DATA
 62
     7
 10
300.25
 20
7.3708348754011581
 30
0.0
 40
0.3999999999999681
  0
LINE
  5
45A
  8
DATA
 62
     7
 10
296.0
 20
20.166025403784431
 30
0.0
 11
298.0
 21
20.166025403784431
 31
0.0
  0
LINE
  5
45B
  8
DATA
 62
     7
 10
298.0
 20
20.166025403784431
 30
0.0
 11
297.0
 21
18.433974596215592
 31
0.0
  0
LINE
  5
45C
  8
DATA
 62
     7
 10
296.0
 20
20.166025403784431
 30
0.0
 11
297.0
 21
18.433974596215592
 31
0.0
  0
TEXT
  5
45D
  8
DATA
 62
     7
 10
301.04847832929522
 20
6.0531486742429488
 30
0.0
 40
2.0
  1
+6
 41
0.8
 11
301.04847832929522
 21
8.0531486742429497
 31
0.0
 73
     3
  0
TEXT
  5
45E
  8
DATA
 62
     7
 10
295.0
 20
4.0283913352271359
 30
0.0
 40
2.7999999999999998
  1
dB
 41
0.8
 11
295.0
 21
6.8283913352271366
 31
0.0
 73
     3
  0
TEXT
  5
45F
  8
DATA
 62
     7
 10
290.75
 20
6.0278172348489534
 30
0.0
 40
2.0
  1
-6
 41
0.8
 11
290.75
 21
8.0278172348489534
 31
0.0
 73
     3
  0
CIRCLE
  5
460
  8
DATA
 62
     7
 10
297.0
 20
29.0
 30
0.0
 40
2.999999999999992
  0
TEXT
  5
461
  8
DATA
 62
     7
 10
283.5
 20
32.5
 30
0.0
 40
2.0
  1
OVER
 41
0.8
 11
283.5
 21
34.5
 31
0.0
 73
     3
  0
TEXT
  5
462
  8
DATA
 62
     7
 10
283.5
 20
30.0
 30
0.0
 40
2.0
  1
LIMIT
 41
0.8
 11
283.5
 21
32.0
 31
0.0
 73
     3
  0
TEXT
  5
463
  8
DATA
 62
     7
 10
283.5
 20
27.5
 30
0.0
 40
2.0
  1
-3dB
 41
0.8
 11
283.5
 21
29.5
 31
0.0
 73
     3
  0
TEXT
  5
464
  8
DATA
 62
     7
 10
283.5
 20
25.0
 30
0.0
 40
2.0
  1
-6dB
 41
0.8
 11
283.5
 21
27.0
 31
0.0
 73
     3
  0
TEXT
  5
465
  8
DATA
 62
     7
 10
283.5
 20
22.5
 30
0.0
 40
2.0
  1
-12dB
 41
0.8
 11
283.5
 21
24.5
 31
0.0
 73
     3
  0
TEXT
  5
466
  8
DATA
 62
     7
 10
283.5
 20
20.0
 30
0.0
 40
2.0
  1
-20dB
 41
0.8
 11
283.5
 21
22.0
 31
0.0
 73
     3
  0
TEXT
  5
467
  8
DATA
 62
     7
 10
283.5
 20
17.5
 30
0.0
 40
2.0
  1
SIG
 41
0.8
 11
283.5
 21
19.5
 31
0.0
 73
     3
  0
LINE
  5
468
  8
DATA
 62
     7
 10
204.96662954709561
 20
21.0
 30
0.0
 11
273.5
 21
21.0
 31
0.0
  0
LINE
  5
469
  8
DATA
 62
     7
 10
197.48331477354759
 20
35.0
 30
0.0
 11
438.49999999999989
 21
35.0
 31
0.0
  0
TEXT
  5
46A
  8
DATA
 62
     7
 10
257.66880356707918
 20
32.017160716460467
 30
0.0
 40
2.0
  1
CLIP
 41
0.8
 11
257.66880356707918
 21
34.017160716460467
 31
0.0
 73
     3
  0
TEXT
  5
46B
  8
DATA
 62
     7
 10
257.66880356707918
 20
29.51716071646047
 30
0.0
 40
2.0
  1
-3dB
 41
0.8
 11
257.66880356707918
 21
31.51716071646047
 31
0.0
 73
     3
  0
TEXT
  5
46C
  8
DATA
 62
     7
 10
257.66880356707918
 20
27.01716071646047
 30
0.0
 40
2.0
  1
-6dB
 41
0.8
 11
257.66880356707918
 21
29.01716071646047
 31
0.0
 73
     3
  0
TEXT
  5
46D
  8
DATA
 62
     7
 10
257.66880356707918
 20
24.51716071646047
 30
0.0
 40
2.0
  1
-12dB
 41
0.8
 11
257.66880356707918
 21
26.51716071646047
 31
0.0
 73
     3
  0
TEXT
  5
46E
  8
DATA
 62
     7
 10
257.66880356707918
 20
22.01716071646047
 30
0.0
 40
2.0
  1
SIG
 41
0.8
 11
257.66880356707918
 21
24.01716071646047
 31
0.0
 73
     3
  0
LINE
  5
46F
  8
DATA
 62
     7
 10
280.75
 20
16.0
 30
0.0
 11
292.99999999999989
 21
16.0
 31
0.0
  0
LINE
  5
470
  8
DATA
 62
     7
 10
301.0
 20
16.0
 30
0.0
 11
321.5
 21
16.0
 31
0.0
  0
LINE
  5
471
  8
DATA
 62
     7
 10
329.50000000000011
 20
16.0
 30
0.0
 11
350.0
 21
16.0
 31
0.0
  0
LINE
  5
472
  8
DATA
 62
     7
 10
358.0
 20
16.0
 30
0.0
 11
378.5
 21
16.0
 31
0.0
  0
LINE
  5
473
  8
DATA
 62
     7
 10
386.5
 20
16.0
 30
0.0
 11
407.0
 21
16.0
 31
0.0
  0
LINE
  5
474
  8
DATA
 62
     7
 10
415.0
 20
16.0
 30
0.0
 11
435.5
 21
16.0
 31
0.0
  0
ARC
  5
475
  8
DATA
 62
     7
 10
283.25
 20
27.5
 30
0.0
 40
11.71804164525796
 50
213.6900675259798
 51
258.92979742206057
  0
TEXT
  5
476
  8
DATA
 62
     7
 10
289.75
 20
1.5
 30
0.0
 40
4.0
  1
1
 41
0.8
 11
289.75
 21
5.5
 31
0.0
 73
     3
  0
TEXT
  5
477
  8
DATA
 62
     7
 10
308.5
 20
4.0283913352271359
 30
0.0
 40
2.7999999999999998
  1
MUTE
 41
0.8
 11
308.5
 21
6.8283913352271366
 31
0.0
 73
     3
  0
CIRCLE
  5
478
  8
DATA
 62
     7
 10
312.0
 20
12.0
 30
0.0
 40
2.999999999999976
  0
ARC
  5
479
  8
DATA
 62
     7
 10
325.5
 20
13.0
 30
0.0
 40
5.0000000000000258
 50
112.4999999999993
 51
127.4999999999997
  0
ARC
  5
47A
  8
DATA
 62
     7
 10
325.5
 20
13.0
 30
0.0
 40
5.0000000000000462
 50
142.49999999999861
 51
157.49999999999849
  0
ARC
  5
47B
  8
DATA
 62
     7
 10
325.5
 20
13.0
 30
0.0
 40
5.0000000000000222
 50
172.4999999999992
 51
187.4999999999994
  0
ARC
  5
47C
  8
DATA
 62
     7
 10
325.5
 20
13.0
 30
0.0
 40
5.0000000000000124
 50
202.4999999999994
 51
217.4999999999992
  0
ARC
  5
47D
  8
DATA
 62
     7
 10
325.5
 20
13.0
 30
0.0
 40
5.0000000000000311
 50
232.49999999999909
 51
247.49999999999909
  0
ARC
  5
47E
  8
DATA
 62
     7
 10
325.5
 20
13.0
 30
0.0
 40
4.9999999999999778
 50
262.4999999999992
 51
277.49999999999989
  0
ARC
  5
47F
  8
DATA
 62
     7
 10
325.5
 20
13.0
 30
0.0
 40
5.0000000000000009
 50
292.5000000000004
 51
307.49999999999949
  0
ARC
  5
480
  8
DATA
 62
     7
 10
325.5
 20
13.0
 30
0.0
 40
5.0000000000000089
 50
322.50000000000068
 51
337.50000000000063
  0
ARC
  5
481
  8
DATA
 62
     7
 10
325.5
 20
13.0
 30
0.0
 40
5.0000000000000204
 50
352.50000000000051
 51
7.4999999999994893
  0
ARC
  5
482
  8
DATA
 62
     7
 10
325.5
 20
13.0
 30
0.0
 40
5.0000000000000258
 50
22.499999999999361
 51
37.5
  0
ARC
  5
483
  8
DATA
 62
     7
 10
325.5
 20
13.0
 30
0.0
 40
5.000000000000024
 50
52.500000000000263
 51
67.500000000000483
  0
ARC
  5
484
  8
DATA
 62
     7
 10
325.5
 20
13.0
 30
0.0
 40
5.0000000000000284
 50
82.499999999999915
 51
97.500000000000142
  0
ARC
  5
485
  8
DATA
 62
     7
 10
325.5
 20
13.0
 30
0.0
 40
4.050000000000014
 50
93.539026459004859
 51
86.460973540995127
  0
ARC
  5
486
  8
DATA
 62
     7
 10
325.5
 20
13.0
 30
0.0
 40
4.7500000000000009
 50
93.016961309816026
 51
86.983038690184003
  0
ARC
  5
487
  8
DATA
 62
     7
 10
327.0221945532553
 20
18.68090741175331
 30
0.0
 40
1.1313081265050611
 50
219.76848405798731
 51
290.23151594201352
  0
ARC
  5
488
  8
DATA
 62
     7
 10
323.97780544674481
 20
18.68090741175331
 30
0.0
 40
1.131308126505046
 50
249.76848405798751
 51
320.23151594201221
  0
ARC
  5
489
  8
DATA
 62
     7
 10
321.34128714150199
 20
17.15871285849812
 30
0.0
 40
1.131308126505056
 50
279.76848405798808
 51
350.23151594201482
  0
ARC
  5
48A
  8
DATA
 62
     7
 10
319.81909258824669
 20
14.5221945532553
 30
0.0
 40
1.13130812650504
 50
309.76848405798819
 51
20.231515942015729
  0
ARC
  5
48B
  8
DATA
 62
     7
 10
319.81909258824669
 20
11.47780544674481
 30
0.0
 40
1.131308126505099
 50
339.76848405798847
 51
50.23151594201272
  0
ARC
  5
48C
  8
DATA
 62
     7
 10
321.34128714150199
 20
8.8412871415020504
 30
0.0
 40
1.131308126505066
 50
9.7684840579909462
 51
80.231515942014752
  0
ARC
  5
48D
  8
DATA
 62
     7
 10
323.9778054467447
 20
7.3190925882468028
 30
0.0
 40
1.1313081265050611
 50
39.768484057987301
 51
110.2315159420135
  0
ARC
  5
48E
  8
DATA
 62
     7
 10
327.02219455325519
 20
7.3190925882468028
 30
0.0
 40
1.131308126505099
 50
69.768484057988459
 51
140.23151594201431
  0
ARC
  5
48F
  8
DATA
 62
     7
 10
329.65871285849801
 20
8.8412871415020504
 30
0.0
 40
1.131308126505046
 50
99.768484057985305
 51
170.23151594201471
  0
ARC
  5
490
  8
DATA
 62
     7
 10
331.18090741175331
 20
11.47780544674481
 30
0.0
 40
1.13130812650504
 50
129.7684840579883
 51
200.2315159420157
  0
ARC
  5
491
  8
DATA
 62
     7
 10
331.18090741175331
 20
14.52219455325525
 30
0.0
 40
1.131308126505099
 50
159.76848405798839
 51
230.23151594201289
  0
ARC
  5
492
  8
DATA
 62
     7
 10
329.65871285849801
 20
17.158712858497999
 30
0.0
 40
1.131308126505046
 50
189.76848405798521
 51
260.23151594201471
  0
POLYLINE
  5
493
  8
DATA
 62
     7
 66
     1
 10
0.0
 20
0.0
 30
0.0
 70
     1
  0
VERTEX
  5
AC2
  8
DATA
 62
     7
 10
325.25
 20
17.993746088859549
 30
0.0
  0
VERTEX
  5
AC3
  8
DATA
 62
     7
 10
325.75
 20
17.993746088859549
 30
0.0
  0
VERTEX
  5
AC4
  8
DATA
 62
     7
 10
325.75
 20
13.0
 30
0.0
  0
VERTEX
  5
AC5
  8
DATA
 62
     7
 10
325.25
 20
13.0
 30
0.0
  0
SEQEND
  5
AC6
  8
DATA
 62
     7
  0
LINE
  5
499
  8
DATA
 62
     7
 10
325.5
 20
17.993746088859549
 30
0.0
 11
325.5
 21
18.0
 31
0.0
  0
CIRCLE
  5
49A
  8
DATA
 62
     7
 10
320.52071111972663
 20
17.17811946296251
 30
0.0
 40
0.3999999999999827
  0
CIRCLE
  5
49B
  8
DATA
 62
     7
 10
319.09874960542061
 20
11.87128684516494
 30
0.0
 40
0.4000000000000197
  0
CIRCLE
  5
49C
  8
DATA
 62
     7
 10
322.25
 20
7.3708348754011581
 30
0.0
 40
0.3999999999999681
  0
CIRCLE
  5
49D
  8
DATA
 62
     7
 10
330.47928888027337
 20
17.17811946296251
 30
0.0
 40
0.3999999999999827
  0
CIRCLE
  5
49E
  8
DATA
 62
     7
 10
331.90125039457928
 20
11.87128684516494
 30
0.0
 40
0.4000000000000197
  0
CIRCLE
  5
49F
  8
DATA
 62
     7
 10
328.75
 20
7.3708348754011581
 30
0.0
 40
0.3999999999999681
  0
LINE
  5
4A0
  8
DATA
 62
     7
 10
324.5
 20
20.166025403784431
 30
0.0
 11
326.5
 21
20.166025403784431
 31
0.0
  0
LINE
  5
4A1
  8
DATA
 62
     7
 10
326.5
 20
20.166025403784431
 30
0.0
 11
325.5
 21
18.433974596215592
 31
0.0
  0
LINE
  5
4A2
  8
DATA
 62
     7
 10
324.5
 20
20.166025403784431
 30
0.0
 11
325.5
 21
18.433974596215592
 31
0.0
  0
TEXT
  5
4A3
  8
DATA
 62
     7
 10
329.54847832929522
 20
6.0531486742429488
 30
0.0
 40
2.0
  1
+6
 41
0.8
 11
329.54847832929522
 21
8.0531486742429497
 31
0.0
 73
     3
  0
TEXT
  5
4A4
  8
DATA
 62
     7
 10
323.5
 20
4.0283913352271359
 30
0.0
 40
2.7999999999999998
  1
dB
 41
0.8
 11
323.5
 21
6.8283913352271366
 31
0.0
 73
     3
  0
TEXT
  5
4A5
  8
DATA
 62
     7
 10
319.25
 20
6.0278172348489534
 30
0.0
 40
2.0
  1
-6
 41
0.8
 11
319.25
 21
8.0278172348489534
 31
0.0
 73
     3
  0
CIRCLE
  5
4A6
  8
DATA
 62
     7
 10
325.5
 20
29.0
 30
0.0
 40
2.999999999999992
  0
TEXT
  5
4A7
  8
DATA
 62
     7
 10
312.0
 20
32.5
 30
0.0
 40
2.0
  1
OVER
 41
0.8
 11
312.0
 21
34.5
 31
0.0
 73
     3
  0
TEXT
  5
4A8
  8
DATA
 62
     7
 10
312.0
 20
30.0
 30
0.0
 40
2.0
  1
LIMIT
 41
0.8
 11
312.0
 21
32.0
 31
0.0
 73
     3
  0
TEXT
  5
4A9
  8
DATA
 62
     7
 10
312.0
 20
27.5
 30
0.0
 40
2.0
  1
-3dB
 41
0.8
 11
312.0
 21
29.5
 31
0.0
 73
     3
  0
TEXT
  5
4AA
  8
DATA
 62
     7
 10
312.0
 20
25.0
 30
0.0
 40
2.0
  1
-6dB
 41
0.8
 11
312.0
 21
27.0
 31
0.0
 73
     3
  0
TEXT
  5
4AB
  8
DATA
 62
     7
 10
312.0
 20
22.5
 30
0.0
 40
2.0
  1
-12dB
 41
0.8
 11
312.0
 21
24.5
 31
0.0
 73
     3
  0
TEXT
  5
4AC
  8
DATA
 62
     7
 10
312.0
 20
20.0
 30
0.0
 40
2.0
  1
-20dB
 41
0.8
 11
312.0
 21
22.0
 31
0.0
 73
     3
  0
TEXT
  5
4AD
  8
DATA
 62
     7
 10
312.0
 20
17.5
 30
0.0
 40
2.0
  1
SIG
 41
0.8
 11
312.0
 21
19.5
 31
0.0
 73
     3
  0
TEXT
  5
4AE
  8
DATA
 62
     7
 10
318.25
 20
1.5
 30
0.0
 40
4.0
  1
2
 41
0.8
 11
318.25
 21
5.5
 31
0.0
 73
     3
  0
TEXT
  5
4AF
  8
DATA
 62
     7
 10
337.0
 20
4.0283913352271359
 30
0.0
 40
2.7999999999999998
  1
MUTE
 41
0.8
 11
337.0
 21
6.8283913352271366
 31
0.0
 73
     3
  0
CIRCLE
  5
4B0
  8
DATA
 62
     7
 10
340.5
 20
12.0
 30
0.0
 40
2.999999999999976
  0
ARC
  5
4B1
  8
DATA
 62
     7
 10
354.0
 20
13.0
 30
0.0
 40
5.0000000000000258
 50
112.4999999999993
 51
127.4999999999997
  0
ARC
  5
4B2
  8
DATA
 62
     7
 10
354.0
 20
13.0
 30
0.0
 40
5.0000000000000462
 50
142.49999999999861
 51
157.49999999999849
  0
ARC
  5
4B3
  8
DATA
 62
     7
 10
354.0
 20
13.0
 30
0.0
 40
5.0000000000000222
 50
172.4999999999992
 51
187.4999999999994
  0
ARC
  5
4B4
  8
DATA
 62
     7
 10
354.0
 20
13.0
 30
0.0
 40
5.0000000000000124
 50
202.4999999999994
 51
217.4999999999992
  0
ARC
  5
4B5
  8
DATA
 62
     7
 10
354.0
 20
13.0
 30
0.0
 40
5.0000000000000311
 50
232.49999999999909
 51
247.49999999999889
  0
ARC
  5
4B6
  8
DATA
 62
     7
 10
354.0
 20
13.0
 30
0.0
 40
4.9999999999999778
 50
262.4999999999992
 51
277.50000000000023
  0
ARC
  5
4B7
  8
DATA
 62
     7
 10
354.0
 20
13.0
 30
0.0
 40
5.0000000000000009
 50
292.5000000000004
 51
307.49999999999937
  0
ARC
  5
4B8
  8
DATA
 62
     7
 10
354.0
 20
13.0
 30
0.0
 40
5.0000000000000089
 50
322.50000000000068
 51
337.50000000000063
  0
ARC
  5
4B9
  8
DATA
 62
     7
 10
354.0
 20
13.0
 30
0.0
 40
5.0000000000000204
 50
352.50000000000051
 51
7.4999999999994893
  0
ARC
  5
4BA
  8
DATA
 62
     7
 10
354.0
 20
13.0
 30
0.0
 40
5.0000000000000258
 50
22.499999999999361
 51
37.499999999999943
  0
ARC
  5
4BB
  8
DATA
 62
     7
 10
354.0
 20
13.0
 30
0.0
 40
5.000000000000024
 50
52.500000000000263
 51
67.500000000000583
  0
ARC
  5
4BC
  8
DATA
 62
     7
 10
354.0
 20
13.0
 30
0.0
 40
5.0000000000000284
 50
82.499999999999915
 51
97.500000000000142
  0
ARC
  5
4BD
  8
DATA
 62
     7
 10
354.0
 20
13.0
 30
0.0
 40
4.050000000000014
 50
93.539026459004859
 51
86.460973540995127
  0
ARC
  5
4BE
  8
DATA
 62
     7
 10
354.0
 20
13.0
 30
0.0
 40
4.7500000000000009
 50
93.016961309816026
 51
86.983038690184003
  0
ARC
  5
4BF
  8
DATA
 62
     7
 10
355.5221945532553
 20
18.68090741175331
 30
0.0
 40
1.1313081265050611
 50
219.76848405798731
 51
290.23151594201403
  0
ARC
  5
4C0
  8
DATA
 62
     7
 10
352.4778054467447
 20
18.68090741175331
 30
0.0
 40
1.131308126505046
 50
249.76848405798751
 51
320.23151594201198
  0
ARC
  5
4C1
  8
DATA
 62
     7
 10
349.84128714150199
 20
17.15871285849812
 30
0.0
 40
1.131308126505056
 50
279.76848405798808
 51
350.23151594201482
  0
ARC
  5
4C2
  8
DATA
 62
     7
 10
348.3190925882468
 20
14.5221945532553
 30
0.0
 40
1.13130812650504
 50
309.76848405798819
 51
20.231515942015729
  0
ARC
  5
4C3
  8
DATA
 62
     7
 10
348.31909258824669
 20
11.47780544674481
 30
0.0
 40
1.131308126505099
 50
339.76848405798847
 51
50.23151594201272
  0
ARC
  5
4C4
  8
DATA
 62
     7
 10
349.84128714150199
 20
8.8412871415020504
 30
0.0
 40
1.131308126505066
 50
9.7684840579909462
 51
80.231515942013473
  0
ARC
  5
4C5
  8
DATA
 62
     7
 10
352.4778054467447
 20
7.3190925882468028
 30
0.0
 40
1.1313081265050611
 50
39.768484057987301
 51
110.2315159420141
  0
ARC
  5
4C6
  8
DATA
 62
     7
 10
355.5221945532553
 20
7.3190925882468028
 30
0.0
 40
1.131308126505099
 50
69.768484057988459
 51
140.2315159420142
  0
ARC
  5
4C7
  8
DATA
 62
     7
 10
358.15871285849801
 20
8.8412871415020504
 30
0.0
 40
1.131308126505046
 50
99.768484057985305
 51
170.23151594201471
  0
ARC
  5
4C8
  8
DATA
 62
     7
 10
359.6809074117532
 20
11.47780544674481
 30
0.0
 40
1.13130812650504
 50
129.7684840579883
 51
200.2315159420157
  0
ARC
  5
4C9
  8
DATA
 62
     7
 10
359.6809074117532
 20
14.52219455325525
 30
0.0
 40
1.131308126505099
 50
159.76848405798839
 51
230.23151594201269
  0
ARC
  5
4CA
  8
DATA
 62
     7
 10
358.15871285849801
 20
17.158712858497999
 30
0.0
 40
1.131308126505046
 50
189.76848405798521
 51
260.23151594201471
  0
POLYLINE
  5
4CB
  8
DATA
 62
     7
 66
     1
 10
0.0
 20
0.0
 30
0.0
 70
     1
  0
VERTEX
  5
AC7
  8
DATA
 62
     7
 10
353.75
 20
17.993746088859549
 30
0.0
  0
VERTEX
  5
AC8
  8
DATA
 62
     7
 10
354.25
 20
17.993746088859549
 30
0.0
  0
VERTEX
  5
AC9
  8
DATA
 62
     7
 10
354.25
 20
13.0
 30
0.0
  0
VERTEX
  5
ACA
  8
DATA
 62
     7
 10
353.75
 20
13.0
 30
0.0
  0
SEQEND
  5
ACB
  8
DATA
 62
     7
  0
LINE
  5
4D1
  8
DATA
 62
     7
 10
354.0
 20
17.993746088859549
 30
0.0
 11
354.0
 21
18.0
 31
0.0
  0
CIRCLE
  5
4D2
  8
DATA
 62
     7
 10
349.02071111972663
 20
17.17811946296251
 30
0.0
 40
0.3999999999999827
  0
CIRCLE
  5
4D3
  8
DATA
 62
     7
 10
347.59874960542061
 20
11.87128684516494
 30
0.0
 40
0.4000000000000197
  0
CIRCLE
  5
4D4
  8
DATA
 62
     7
 10
350.75
 20
7.3708348754011581
 30
0.0
 40
0.3999999999999681
  0
CIRCLE
  5
4D5
  8
DATA
 62
     7
 10
358.97928888027337
 20
17.17811946296251
 30
0.0
 40
0.3999999999999827
  0
CIRCLE
  5
4D6
  8
DATA
 62
     7
 10
360.40125039457939
 20
11.87128684516494
 30
0.0
 40
0.4000000000000197
  0
CIRCLE
  5
4D7
  8
DATA
 62
     7
 10
357.25
 20
7.3708348754011581
 30
0.0
 40
0.3999999999999681
  0
LINE
  5
4D8
  8
DATA
 62
     7
 10
353.0
 20
20.166025403784431
 30
0.0
 11
355.0
 21
20.166025403784431
 31
0.0
  0
LINE
  5
4D9
  8
DATA
 62
     7
 10
355.0
 20
20.166025403784431
 30
0.0
 11
354.0
 21
18.433974596215592
 31
0.0
  0
LINE
  5
4DA
  8
DATA
 62
     7
 10
353.0
 20
20.166025403784431
 30
0.0
 11
354.0
 21
18.433974596215592
 31
0.0
  0
TEXT
  5
4DB
  8
DATA
 62
     7
 10
358.04847832929522
 20
6.0531486742429488
 30
0.0
 40
2.0
  1
+6
 41
0.8
 11
358.04847832929522
 21
8.0531486742429497
 31
0.0
 73
     3
  0
TEXT
  5
4DC
  8
DATA
 62
     7
 10
352.0
 20
4.0283913352271359
 30
0.0
 40
2.7999999999999998
  1
dB
 41
0.8
 11
352.0
 21
6.8283913352271366
 31
0.0
 73
     3
  0
TEXT
  5
4DD
  8
DATA
 62
     7
 10
347.75
 20
6.0278172348489534
 30
0.0
 40
2.0
  1
-6
 41
0.8
 11
347.75
 21
8.0278172348489534
 31
0.0
 73
     3
  0
CIRCLE
  5
4DE
  8
DATA
 62
     7
 10
354.0
 20
29.0
 30
0.0
 40
2.999999999999992
  0
TEXT
  5
4DF
  8
DATA
 62
     7
 10
340.5
 20
32.5
 30
0.0
 40
2.0
  1
OVER
 41
0.8
 11
340.5
 21
34.5
 31
0.0
 73
     3
  0
TEXT
  5
4E0
  8
DATA
 62
     7
 10
340.5
 20
30.0
 30
0.0
 40
2.0
  1
LIMIT
 41
0.8
 11
340.5
 21
32.0
 31
0.0
 73
     3
  0
TEXT
  5
4E1
  8
DATA
 62
     7
 10
340.5
 20
27.5
 30
0.0
 40
2.0
  1
-3dB
 41
0.8
 11
340.5
 21
29.5
 31
0.0
 73
     3
  0
TEXT
  5
4E2
  8
DATA
 62
     7
 10
340.5
 20
25.0
 30
0.0
 40
2.0
  1
-6dB
 41
0.8
 11
340.5
 21
27.0
 31
0.0
 73
     3
  0
TEXT
  5
4E3
  8
DATA
 62
     7
 10
340.5
 20
22.5
 30
0.0
 40
2.0
  1
-12dB
 41
0.8
 11
340.5
 21
24.5
 31
0.0
 73
     3
  0
TEXT
  5
4E4
  8
DATA
 62
     7
 10
340.5
 20
20.0
 30
0.0
 40
2.0
  1
-20dB
 41
0.8
 11
340.5
 21
22.0
 31
0.0
 73
     3
  0
TEXT
  5
4E5
  8
DATA
 62
     7
 10
340.5
 20
17.5
 30
0.0
 40
2.0
  1
SIG
 41
0.8
 11
340.5
 21
19.5
 31
0.0
 73
     3
  0
TEXT
  5
4E6
  8
DATA
 62
     7
 10
346.75
 20
1.5
 30
0.0
 40
4.0
  1
3
 41
0.8
 11
346.75
 21
5.5
 31
0.0
 73
     3
  0
TEXT
  5
4E7
  8
DATA
 62
     7
 10
365.5
 20
4.0283913352271359
 30
0.0
 40
2.7999999999999998
  1
MUTE
 41
0.8
 11
365.5
 21
6.8283913352271366
 31
0.0
 73
     3
  0
CIRCLE
  5
4E8
  8
DATA
 62
     7
 10
369.0
 20
12.0
 30
0.0
 40
2.999999999999976
  0
ARC
  5
4E9
  8
DATA
 62
     7
 10
382.5
 20
13.0
 30
0.0
 40
5.0000000000000258
 50
112.4999999999993
 51
127.4999999999997
  0
ARC
  5
4EA
  8
DATA
 62
     7
 10
382.5
 20
13.0
 30
0.0
 40
5.0000000000000462
 50
142.49999999999861
 51
157.49999999999849
  0
ARC
  5
4EB
  8
DATA
 62
     7
 10
382.5
 20
13.0
 30
0.0
 40
5.0000000000000222
 50
172.4999999999992
 51
187.4999999999994
  0
ARC
  5
4EC
  8
DATA
 62
     7
 10
382.5
 20
13.0
 30
0.0
 40
5.0000000000000124
 50
202.4999999999994
 51
217.4999999999992
  0
ARC
  5
4ED
  8
DATA
 62
     7
 10
382.5
 20
13.0
 30
0.0
 40
5.0000000000000311
 50
232.49999999999909
 51
247.49999999999889
  0
ARC
  5
4EE
  8
DATA
 62
     7
 10
382.5
 20
13.0
 30
0.0
 40
4.9999999999999778
 50
262.4999999999992
 51
277.50000000000023
  0
ARC
  5
4EF
  8
DATA
 62
     7
 10
382.5
 20
13.0
 30
0.0
 40
5.0000000000000009
 50
292.5000000000004
 51
307.49999999999937
  0
ARC
  5
4F0
  8
DATA
 62
     7
 10
382.5
 20
13.0
 30
0.0
 40
5.0000000000000089
 50
322.50000000000068
 51
337.50000000000063
  0
ARC
  5
4F1
  8
DATA
 62
     7
 10
382.5
 20
13.0
 30
0.0
 40
5.0000000000000204
 50
352.50000000000051
 51
7.4999999999994893
  0
ARC
  5
4F2
  8
DATA
 62
     7
 10
382.5
 20
13.0
 30
0.0
 40
5.0000000000000258
 50
22.499999999999361
 51
37.499999999999957
  0
ARC
  5
4F3
  8
DATA
 62
     7
 10
382.5
 20
13.0
 30
0.0
 40
5.000000000000024
 50
52.500000000000263
 51
67.500000000000583
  0
ARC
  5
4F4
  8
DATA
 62
     7
 10
382.5
 20
13.0
 30
0.0
 40
5.0000000000000284
 50
82.499999999999915
 51
97.500000000000142
  0
ARC
  5
4F5
  8
DATA
 62
     7
 10
382.5
 20
13.0
 30
0.0
 40
4.050000000000014
 50
93.539026459004859
 51
86.460973540995127
  0
ARC
  5
4F6
  8
DATA
 62
     7
 10
382.5
 20
13.0
 30
0.0
 40
4.7500000000000009
 50
93.016961309816026
 51
86.983038690184003
  0
ARC
  5
4F7
  8
DATA
 62
     7
 10
384.0221945532553
 20
18.68090741175331
 30
0.0
 40
1.1313081265050611
 50
219.76848405798731
 51
290.23151594201403
  0
ARC
  5
4F8
  8
DATA
 62
     7
 10
380.97780544674492
 20
18.68090741175331
 30
0.0
 40
1.131308126505046
 50
249.76848405798751
 51
320.23151594201198
  0
ARC
  5
4F9
  8
DATA
 62
     7
 10
378.34128714150199
 20
17.15871285849812
 30
0.0
 40
1.131308126505056
 50
279.76848405798808
 51
350.23151594201482
  0
ARC
  5
4FA
  8
DATA
 62
     7
 10
376.81909258824692
 20
14.5221945532553
 30
0.0
 40
1.13130812650504
 50
309.76848405798819
 51
20.231515942015729
  0
ARC
  5
4FB
  8
DATA
 62
     7
 10
376.81909258824658
 20
11.47780544674481
 30
0.0
 40
1.131308126505099
 50
339.76848405798847
 51
50.231515942012663
  0
ARC
  5
4FC
  8
DATA
 62
     7
 10
378.34128714150199
 20
8.8412871415020504
 30
0.0
 40
1.131308126505066
 50
9.7684840579909462
 51
80.231515942013473
  0
ARC
  5
4FD
  8
DATA
 62
     7
 10
380.9778054467447
 20
7.3190925882468028
 30
0.0
 40
1.1313081265050611
 50
39.768484057987301
 51
110.2315159420141
  0
ARC
  5
4FE
  8
DATA
 62
     7
 10
384.02219455325519
 20
7.3190925882468028
 30
0.0
 40
1.131308126505099
 50
69.768484057988459
 51
140.2315159420142
  0
ARC
  5
4FF
  8
DATA
 62
     7
 10
386.65871285849801
 20
8.8412871415020504
 30
0.0
 40
1.131308126505046
 50
99.768484057985305
 51
170.23151594201471
  0
ARC
  5
500
  8
DATA
 62
     7
 10
388.18090741175331
 20
11.47780544674481
 30
0.0
 40
1.13130812650504
 50
129.7684840579883
 51
200.2315159420157
  0
ARC
  5
501
  8
DATA
 62
     7
 10
388.18090741175331
 20
14.52219455325525
 30
0.0
 40
1.131308126505099
 50
159.76848405798839
 51
230.23151594201289
  0
ARC
  5
502
  8
DATA
 62
     7
 10
386.65871285849801
 20
17.158712858497999
 30
0.0
 40
1.131308126505046
 50
189.76848405798521
 51
260.23151594201471
  0
POLYLINE
  5
503
  8
DATA
 62
     7
 66
     1
 10
0.0
 20
0.0
 30
0.0
 70
     1
  0
VERTEX
  5
ACC
  8
DATA
 62
     7
 10
382.25
 20
17.993746088859549
 30
0.0
  0
VERTEX
  5
ACD
  8
DATA
 62
     7
 10
382.75
 20
17.993746088859549
 30
0.0
  0
VERTEX
  5
ACE
  8
DATA
 62
     7
 10
382.75
 20
13.0
 30
0.0
  0
VERTEX
  5
ACF
  8
DATA
 62
     7
 10
382.25
 20
13.0
 30
0.0
  0
SEQEND
  5
AD0
  8
DATA
 62
     7
  0
LINE
  5
509
  8
DATA
 62
     7
 10
382.5
 20
17.993746088859549
 30
0.0
 11
382.5
 21
18.0
 31
0.0
  0
CIRCLE
  5
50A
  8
DATA
 62
     7
 10
377.52071111972663
 20
17.17811946296251
 30
0.0
 40
0.3999999999999827
  0
CIRCLE
  5
50B
  8
DATA
 62
     7
 10
376.09874960542078
 20
11.87128684516494
 30
0.0
 40
0.4000000000000197
  0
CIRCLE
  5
50C
  8
DATA
 62
     7
 10
379.25
 20
7.3708348754011581
 30
0.0
 40
0.3999999999999681
  0
CIRCLE
  5
50D
  8
DATA
 62
     7
 10
387.47928888027337
 20
17.17811946296251
 30
0.0
 40
0.3999999999999827
  0
CIRCLE
  5
50E
  8
DATA
 62
     7
 10
388.90125039457939
 20
11.87128684516494
 30
0.0
 40
0.4000000000000197
  0
CIRCLE
  5
50F
  8
DATA
 62
     7
 10
385.75
 20
7.3708348754011581
 30
0.0
 40
0.3999999999999681
  0
LINE
  5
510
  8
DATA
 62
     7
 10
381.5
 20
20.166025403784431
 30
0.0
 11
383.5
 21
20.166025403784431
 31
0.0
  0
LINE
  5
511
  8
DATA
 62
     7
 10
383.5
 20
20.166025403784431
 30
0.0
 11
382.5
 21
18.433974596215592
 31
0.0
  0
LINE
  5
512
  8
DATA
 62
     7
 10
381.5
 20
20.166025403784431
 30
0.0
 11
382.5
 21
18.433974596215592
 31
0.0
  0
TEXT
  5
513
  8
DATA
 62
     7
 10
386.54847832929522
 20
6.0531486742429488
 30
0.0
 40
2.0
  1
+6
 41
0.8
 11
386.54847832929522
 21
8.0531486742429497
 31
0.0
 73
     3
  0
TEXT
  5
514
  8
DATA
 62
     7
 10
380.5
 20
4.0283913352271359
 30
0.0
 40
2.7999999999999998
  1
dB
 41
0.8
 11
380.5
 21
6.8283913352271366
 31
0.0
 73
     3
  0
TEXT
  5
515
  8
DATA
 62
     7
 10
376.25
 20
6.0278172348489534
 30
0.0
 40
2.0
  1
-6
 41
0.8
 11
376.25
 21
8.0278172348489534
 31
0.0
 73
     3
  0
CIRCLE
  5
516
  8
DATA
 62
     7
 10
382.5
 20
29.0
 30
0.0
 40
2.999999999999992
  0
TEXT
  5
517
  8
DATA
 62
     7
 10
369.0
 20
32.5
 30
0.0
 40
2.0
  1
OVER
 41
0.8
 11
369.0
 21
34.5
 31
0.0
 73
     3
  0
TEXT
  5
518
  8
DATA
 62
     7
 10
369.0
 20
30.0
 30
0.0
 40
2.0
  1
LIMIT
 41
0.8
 11
369.0
 21
32.0
 31
0.0
 73
     3
  0
TEXT
  5
519
  8
DATA
 62
     7
 10
369.0
 20
27.5
 30
0.0
 40
2.0
  1
-3dB
 41
0.8
 11
369.0
 21
29.5
 31
0.0
 73
     3
  0
TEXT
  5
51A
  8
DATA
 62
     7
 10
369.0
 20
25.0
 30
0.0
 40
2.0
  1
-6dB
 41
0.8
 11
369.0
 21
27.0
 31
0.0
 73
     3
  0
TEXT
  5
51B
  8
DATA
 62
     7
 10
369.0
 20
22.5
 30
0.0
 40
2.0
  1
-12dB
 41
0.8
 11
369.0
 21
24.5
 31
0.0
 73
     3
  0
TEXT
  5
51C
  8
DATA
 62
     7
 10
369.0
 20
20.0
 30
0.0
 40
2.0
  1
-20dB
 41
0.8
 11
369.0
 21
22.0
 31
0.0
 73
     3
  0
TEXT
  5
51D
  8
DATA
 62
     7
 10
369.0
 20
17.5
 30
0.0
 40
2.0
  1
SIG
 41
0.8
 11
369.0
 21
19.5
 31
0.0
 73
     3
  0
TEXT
  5
51E
  8
DATA
 62
     7
 10
375.25
 20
1.5
 30
0.0
 40
4.0
  1
4
 41
0.8
 11
375.25
 21
5.5
 31
0.0
 73
     3
  0
TEXT
  5
51F
  8
DATA
 62
     7
 10
394.0
 20
4.0283913352271359
 30
0.0
 40
2.7999999999999998
  1
MUTE
 41
0.8
 11
394.0
 21
6.8283913352271366
 31
0.0
 73
     3
  0
CIRCLE
  5
520
  8
DATA
 62
     7
 10
397.5
 20
12.0
 30
0.0
 40
2.999999999999976
  0
ARC
  5
521
  8
DATA
 62
     7
 10
411.0
 20
13.0
 30
0.0
 40
5.0000000000000258
 50
112.4999999999993
 51
127.4999999999997
  0
ARC
  5
522
  8
DATA
 62
     7
 10
411.0
 20
13.0
 30
0.0
 40
5.0000000000000462
 50
142.49999999999861
 51
157.49999999999849
  0
ARC
  5
523
  8
DATA
 62
     7
 10
411.0
 20
13.0
 30
0.0
 40
5.0000000000000222
 50
172.4999999999992
 51
187.4999999999994
  0
ARC
  5
524
  8
DATA
 62
     7
 10
411.0
 20
13.0
 30
0.0
 40
5.0000000000000124
 50
202.4999999999994
 51
217.4999999999992
  0
ARC
  5
525
  8
DATA
 62
     7
 10
411.0
 20
13.0
 30
0.0
 40
5.0000000000000311
 50
232.49999999999909
 51
247.49999999999909
  0
ARC
  5
526
  8
DATA
 62
     7
 10
411.0
 20
13.0
 30
0.0
 40
4.9999999999999778
 50
262.4999999999992
 51
277.49999999999989
  0
ARC
  5
527
  8
DATA
 62
     7
 10
411.0
 20
13.0
 30
0.0
 40
5.0000000000000009
 50
292.5000000000004
 51
307.49999999999949
  0
ARC
  5
528
  8
DATA
 62
     7
 10
411.0
 20
13.0
 30
0.0
 40
5.0000000000000089
 50
322.50000000000068
 51
337.50000000000063
  0
ARC
  5
529
  8
DATA
 62
     7
 10
411.0
 20
13.0
 30
0.0
 40
5.0000000000000204
 50
352.50000000000051
 51
7.4999999999994893
  0
ARC
  5
52A
  8
DATA
 62
     7
 10
411.0
 20
13.0
 30
0.0
 40
5.0000000000000258
 50
22.499999999999361
 51
37.5
  0
ARC
  5
52B
  8
DATA
 62
     7
 10
411.0
 20
13.0
 30
0.0
 40
5.000000000000024
 50
52.500000000000263
 51
67.500000000000483
  0
ARC
  5
52C
  8
DATA
 62
     7
 10
411.0
 20
13.0
 30
0.0
 40
5.0000000000000284
 50
82.499999999999915
 51
97.500000000000142
  0
ARC
  5
52D
  8
DATA
 62
     7
 10
411.0
 20
13.0
 30
0.0
 40
4.050000000000014
 50
93.539026459004859
 51
86.460973540995127
  0
ARC
  5
52E
  8
DATA
 62
     7
 10
411.0
 20
13.0
 30
0.0
 40
4.7500000000000009
 50
93.016961309816026
 51
86.983038690184003
  0
ARC
  5
52F
  8
DATA
 62
     7
 10
412.5221945532553
 20
18.68090741175331
 30
0.0
 40
1.1313081265050611
 50
219.76848405798731
 51
290.23151594201352
  0
ARC
  5
530
  8
DATA
 62
     7
 10
409.47780544674492
 20
18.68090741175331
 30
0.0
 40
1.131308126505046
 50
249.76848405798751
 51
320.23151594201221
  0
ARC
  5
531
  8
DATA
 62
     7
 10
406.84128714150188
 20
17.15871285849812
 30
0.0
 40
1.131308126505056
 50
279.76848405798808
 51
350.23151594201482
  0
ARC
  5
532
  8
DATA
 62
     7
 10
405.3190925882468
 20
14.5221945532553
 30
0.0
 40
1.13130812650504
 50
309.76848405798819
 51
20.231515942015729
  0
ARC
  5
533
  8
DATA
 62
     7
 10
405.31909258824658
 20
11.47780544674481
 30
0.0
 40
1.131308126505099
 50
339.76848405798847
 51
50.23151594201272
  0
ARC
  5
534
  8
DATA
 62
     7
 10
406.84128714150188
 20
8.8412871415020504
 30
0.0
 40
1.131308126505066
 50
9.7684840579909462
 51
80.231515942014752
  0
ARC
  5
535
  8
DATA
 62
     7
 10
409.4778054467447
 20
7.3190925882468028
 30
0.0
 40
1.1313081265050611
 50
39.768484057987301
 51
110.2315159420135
  0
ARC
  5
536
  8
DATA
 62
     7
 10
412.52219455325519
 20
7.3190925882468028
 30
0.0
 40
1.131308126505099
 50
69.768484057988459
 51
140.23151594201431
  0
ARC
  5
537
  8
DATA
 62
     7
 10
415.15871285849801
 20
8.8412871415020504
 30
0.0
 40
1.131308126505046
 50
99.768484057985305
 51
170.23151594201471
  0
ARC
  5
538
  8
DATA
 62
     7
 10
416.6809074117532
 20
11.47780544674481
 30
0.0
 40
1.13130812650504
 50
129.7684840579883
 51
200.2315159420157
  0
ARC
  5
539
  8
DATA
 62
     7
 10
416.6809074117532
 20
14.52219455325525
 30
0.0
 40
1.131308126505099
 50
159.76848405798839
 51
230.23151594201289
  0
ARC
  5
53A
  8
DATA
 62
     7
 10
415.15871285849801
 20
17.158712858497999
 30
0.0
 40
1.131308126505046
 50
189.76848405798521
 51
260.23151594201471
  0
POLYLINE
  5
53B
  8
DATA
 62
     7
 66
     1
 10
0.0
 20
0.0
 30
0.0
 70
     1
  0
VERTEX
  5
AD1
  8
DATA
 62
     7
 10
410.74999999999989
 20
17.993746088859549
 30
0.0
  0
VERTEX
  5
AD2
  8
DATA
 62
     7
 10
411.24999999999989
 20
17.993746088859549
 30
0.0
  0
VERTEX
  5
AD3
  8
DATA
 62
     7
 10
411.24999999999989
 20
13.0
 30
0.0
  0
VERTEX
  5
AD4
  8
DATA
 62
     7
 10
410.74999999999989
 20
13.0
 30
0.0
  0
SEQEND
  5
AD5
  8
DATA
 62
     7
  0
LINE
  5
541
  8
DATA
 62
     7
 10
411.0
 20
17.993746088859549
 30
0.0
 11
411.0
 21
18.0
 31
0.0
  0
CIRCLE
  5
542
  8
DATA
 62
     7
 10
406.02071111972651
 20
17.17811946296251
 30
0.0
 40
0.3999999999999827
  0
CIRCLE
  5
543
  8
DATA
 62
     7
 10
404.59874960542072
 20
11.87128684516494
 30
0.0
 40
0.4000000000000197
  0
CIRCLE
  5
544
  8
DATA
 62
     7
 10
407.74999999999989
 20
7.3708348754011581
 30
0.0
 40
0.3999999999999681
  0
CIRCLE
  5
545
  8
DATA
 62
     7
 10
415.97928888027337
 20
17.17811946296251
 30
0.0
 40
0.3999999999999827
  0
CIRCLE
  5
546
  8
DATA
 62
     7
 10
417.40125039457928
 20
11.87128684516494
 30
0.0
 40
0.4000000000000197
  0
CIRCLE
  5
547
  8
DATA
 62
     7
 10
414.25
 20
7.3708348754011581
 30
0.0
 40
0.3999999999999681
  0
LINE
  5
548
  8
DATA
 62
     7
 10
410.0
 20
20.166025403784431
 30
0.0
 11
412.0
 21
20.166025403784431
 31
0.0
  0
LINE
  5
549
  8
DATA
 62
     7
 10
412.0
 20
20.166025403784431
 30
0.0
 11
411.0
 21
18.433974596215592
 31
0.0
  0
LINE
  5
54A
  8
DATA
 62
     7
 10
410.0
 20
20.166025403784431
 30
0.0
 11
411.0
 21
18.433974596215592
 31
0.0
  0
TEXT
  5
54B
  8
DATA
 62
     7
 10
415.04847832929511
 20
6.0531486742429488
 30
0.0
 40
2.0
  1
+6
 41
0.8
 11
415.04847832929511
 21
8.0531486742429497
 31
0.0
 73
     3
  0
TEXT
  5
54C
  8
DATA
 62
     7
 10
409.0
 20
4.0283913352271359
 30
0.0
 40
2.7999999999999998
  1
dB
 41
0.8
 11
409.0
 21
6.8283913352271366
 31
0.0
 73
     3
  0
TEXT
  5
54D
  8
DATA
 62
     7
 10
404.75
 20
6.0278172348489534
 30
0.0
 40
2.0
  1
-6
 41
0.8
 11
404.75
 21
8.0278172348489534
 31
0.0
 73
     3
  0
CIRCLE
  5
54E
  8
DATA
 62
     7
 10
411.0
 20
29.0
 30
0.0
 40
2.999999999999992
  0
TEXT
  5
54F
  8
DATA
 62
     7
 10
397.5
 20
32.5
 30
0.0
 40
2.0
  1
OVER
 41
0.8
 11
397.5
 21
34.5
 31
0.0
 73
     3
  0
TEXT
  5
550
  8
DATA
 62
     7
 10
397.5
 20
30.0
 30
0.0
 40
2.0
  1
LIMIT
 41
0.8
 11
397.5
 21
32.0
 31
0.0
 73
     3
  0
TEXT
  5
551
  8
DATA
 62
     7
 10
397.5
 20
27.5
 30
0.0
 40
2.0
  1
-3dB
 41
0.8
 11
397.5
 21
29.5
 31
0.0
 73
     3
  0
TEXT
  5
552
  8
DATA
 62
     7
 10
397.5
 20
25.0
 30
0.0
 40
2.0
  1
-6dB
 41
0.8
 11
397.5
 21
27.0
 31
0.0
 73
     3
  0
TEXT
  5
553
  8
DATA
 62
     7
 10
397.5
 20
22.5
 30
0.0
 40
2.0
  1
-12dB
 41
0.8
 11
397.5
 21
24.5
 31
0.0
 73
     3
  0
TEXT
  5
554
  8
DATA
 62
     7
 10
397.5
 20
20.0
 30
0.0
 40
2.0
  1
-20dB
 41
0.8
 11
397.5
 21
22.0
 31
0.0
 73
     3
  0
TEXT
  5
555
  8
DATA
 62
     7
 10
397.5
 20
17.5
 30
0.0
 40
2.0
  1
SIG
 41
0.8
 11
397.5
 21
19.5
 31
0.0
 73
     3
  0
TEXT
  5
556
  8
DATA
 62
     7
 10
403.74999999999989
 20
1.5
 30
0.0
 40
4.0
  1
5
 41
0.8
 11
403.74999999999989
 21
5.5
 31
0.0
 73
     3
  0
TEXT
  5
557
  8
DATA
 62
     7
 10
422.49999999999989
 20
4.0283913352271359
 30
0.0
 40
2.7999999999999998
  1
MUTE
 41
0.8
 11
422.49999999999989
 21
6.8283913352271366
 31
0.0
 73
     3
  0
CIRCLE
  5
558
  8
DATA
 62
     7
 10
426.0
 20
12.0
 30
0.0
 40
2.999999999999976
  0
ARC
  5
559
  8
DATA
 62
     7
 10
439.5
 20
13.0
 30
0.0
 40
5.0000000000000258
 50
112.4999999999993
 51
127.4999999999996
  0
ARC
  5
55A
  8
DATA
 62
     7
 10
439.5
 20
13.0
 30
0.0
 40
5.0000000000000462
 50
142.49999999999861
 51
157.49999999999849
  0
ARC
  5
55B
  8
DATA
 62
     7
 10
439.5
 20
13.0
 30
0.0
 40
5.0000000000000222
 50
172.4999999999992
 51
187.4999999999994
  0
ARC
  5
55C
  8
DATA
 62
     7
 10
439.5
 20
13.0
 30
0.0
 40
5.0000000000000124
 50
202.4999999999994
 51
217.49999999999909
  0
ARC
  5
55D
  8
DATA
 62
     7
 10
439.5
 20
13.0
 30
0.0
 40
5.0000000000000311
 50
232.49999999999909
 51
247.4999999999992
  0
ARC
  5
55E
  8
DATA
 62
     7
 10
439.5
 20
13.0
 30
0.0
 40
4.9999999999999778
 50
262.4999999999992
 51
277.50000000000011
  0
ARC
  5
55F
  8
DATA
 62
     7
 10
439.5
 20
13.0
 30
0.0
 40
5.0000000000000009
 50
292.5000000000004
 51
307.49999999999949
  0
ARC
  5
560
  8
DATA
 62
     7
 10
439.5
 20
13.0
 30
0.0
 40
5.0000000000000089
 50
322.50000000000068
 51
337.50000000000063
  0
ARC
  5
561
  8
DATA
 62
     7
 10
439.5
 20
13.0
 30
0.0
 40
5.0000000000000204
 50
352.50000000000051
 51
7.4999999999994893
  0
ARC
  5
562
  8
DATA
 62
     7
 10
439.5
 20
13.0
 30
0.0
 40
5.0000000000000258
 50
22.499999999999361
 51
37.5
  0
ARC
  5
563
  8
DATA
 62
     7
 10
439.5
 20
13.0
 30
0.0
 40
5.000000000000024
 50
52.500000000000263
 51
67.500000000000341
  0
ARC
  5
564
  8
DATA
 62
     7
 10
439.5
 20
13.0
 30
0.0
 40
5.0000000000000284
 50
82.499999999999915
 51
97.500000000000142
  0
ARC
  5
565
  8
DATA
 62
     7
 10
439.5
 20
13.0
 30
0.0
 40
4.050000000000014
 50
93.539026459004859
 51
86.460973540995127
  0
ARC
  5
566
  8
DATA
 62
     7
 10
439.5
 20
13.0
 30
0.0
 40
4.7500000000000009
 50
93.016961309816026
 51
86.983038690184003
  0
ARC
  5
567
  8
DATA
 62
     7
 10
441.0221945532553
 20
18.68090741175331
 30
0.0
 40
1.1313081265050611
 50
219.76848405798731
 51
290.23151594201317
  0
ARC
  5
568
  8
DATA
 62
     7
 10
437.97780544674492
 20
18.68090741175331
 30
0.0
 40
1.131308126505046
 50
249.76848405798751
 51
320.23151594201221
  0
ARC
  5
569
  8
DATA
 62
     7
 10
435.34128714150188
 20
17.15871285849812
 30
0.0
 40
1.131308126505056
 50
279.76848405798808
 51
350.23151594201488
  0
ARC
  5
56A
  8
DATA
 62
     7
 10
433.8190925882468
 20
14.5221945532553
 30
0.0
 40
1.13130812650504
 50
309.76848405798819
 51
20.231515942015729
  0
ARC
  5
56B
  8
DATA
 62
     7
 10
433.81909258824658
 20
11.47780544674481
 30
0.0
 40
1.131308126505099
 50
339.76848405798847
 51
50.231515942013047
  0
ARC
  5
56C
  8
DATA
 62
     7
 10
435.34128714150188
 20
8.8412871415020504
 30
0.0
 40
1.131308126505066
 50
9.7684840579909462
 51
80.231515942014752
  0
ARC
  5
56D
  8
DATA
 62
     7
 10
437.9778054467447
 20
7.3190925882468028
 30
0.0
 40
1.1313081265050611
 50
39.768484057987301
 51
110.2315159420132
  0
ARC
  5
56E
  8
DATA
 62
     7
 10
441.02219455325519
 20
7.3190925882468028
 30
0.0
 40
1.131308126505099
 50
69.768484057988459
 51
140.23151594201411
  0
ARC
  5
56F
  8
DATA
 62
     7
 10
443.65871285849801
 20
8.8412871415020504
 30
0.0
 40
1.131308126505046
 50
99.768484057985305
 51
170.23151594201471
  0
ARC
  5
570
  8
DATA
 62
     7
 10
445.1809074117532
 20
11.47780544674481
 30
0.0
 40
1.13130812650504
 50
129.7684840579883
 51
200.2315159420157
  0
ARC
  5
571
  8
DATA
 62
     7
 10
445.1809074117532
 20
14.52219455325525
 30
0.0
 40
1.131308126505099
 50
159.76848405798839
 51
230.231515942013
  0
ARC
  5
572
  8
DATA
 62
     7
 10
443.65871285849801
 20
17.158712858497999
 30
0.0
 40
1.131308126505046
 50
189.76848405798521
 51
260.23151594201471
  0
POLYLINE
  5
573
  8
DATA
 62
     7
 66
     1
 10
0.0
 20
0.0
 30
0.0
 70
     1
  0
VERTEX
  5
AD6
  8
DATA
 62
     7
 10
439.25
 20
17.993746088859549
 30
0.0
  0
VERTEX
  5
AD7
  8
DATA
 62
     7
 10
439.74999999999989
 20
17.993746088859549
 30
0.0
  0
VERTEX
  5
AD8
  8
DATA
 62
     7
 10
439.74999999999989
 20
13.0
 30
0.0
  0
VERTEX
  5
AD9
  8
DATA
 62
     7
 10
439.25
 20
13.0
 30
0.0
  0
SEQEND
  5
ADA
  8
DATA
 62
     7
  0
LINE
  5
579
  8
DATA
 62
     7
 10
439.5
 20
17.993746088859549
 30
0.0
 11
439.5
 21
18.0
 31
0.0
  0
CIRCLE
  5
57A
  8
DATA
 62
     7
 10
434.52071111972651
 20
17.17811946296251
 30
0.0
 40
0.3999999999999827
  0
CIRCLE
  5
57B
  8
DATA
 62
     7
 10
433.09874960542072
 20
11.87128684516494
 30
0.0
 40
0.4000000000000197
  0
CIRCLE
  5
57C
  8
DATA
 62
     7
 10
436.24999999999989
 20
7.3708348754011581
 30
0.0
 40
0.3999999999999681
  0
CIRCLE
  5
57D
  8
DATA
 62
     7
 10
444.47928888027337
 20
17.17811946296251
 30
0.0
 40
0.3999999999999827
  0
CIRCLE
  5
57E
  8
DATA
 62
     7
 10
445.90125039457928
 20
11.87128684516494
 30
0.0
 40
0.4000000000000197
  0
CIRCLE
  5
57F
  8
DATA
 62
     7
 10
442.75
 20
7.3708348754011581
 30
0.0
 40
0.3999999999999681
  0
LINE
  5
580
  8
DATA
 62
     7
 10
438.49999999999989
 20
20.166025403784431
 30
0.0
 11
440.5
 21
20.166025403784431
 31
0.0
  0
LINE
  5
581
  8
DATA
 62
     7
 10
440.5
 20
20.166025403784431
 30
0.0
 11
439.5
 21
18.433974596215592
 31
0.0
  0
LINE
  5
582
  8
DATA
 62
     7
 10
438.49999999999989
 20
20.166025403784431
 30
0.0
 11
439.5
 21
18.433974596215592
 31
0.0
  0
TEXT
  5
583
  8
DATA
 62
     7
 10
443.54847832929522
 20
6.0531486742429488
 30
0.0
 40
2.0
  1
+6
 41
0.8
 11
443.54847832929522
 21
8.0531486742429497
 31
0.0
 73
     3
  0
TEXT
  5
584
  8
DATA
 62
     7
 10
437.5
 20
4.0283913352271359
 30
0.0
 40
2.7999999999999998
  1
dB
 41
0.8
 11
437.5
 21
6.8283913352271366
 31
0.0
 73
     3
  0
TEXT
  5
585
  8
DATA
 62
     7
 10
433.25
 20
6.0278172348489534
 30
0.0
 40
2.0
  1
-6
 41
0.8
 11
433.25
 21
8.0278172348489534
 31
0.0
 73
     3
  0
CIRCLE
  5
586
  8
DATA
 62
     7
 10
439.5
 20
29.0
 30
0.0
 40
2.999999999999992
  0
TEXT
  5
587
  8
DATA
 62
     7
 10
426.0
 20
32.5
 30
0.0
 40
2.0
  1
OVER
 41
0.8
 11
426.0
 21
34.5
 31
0.0
 73
     3
  0
TEXT
  5
588
  8
DATA
 62
     7
 10
426.0
 20
30.0
 30
0.0
 40
2.0
  1
LIMIT
 41
0.8
 11
426.0
 21
32.0
 31
0.0
 73
     3
  0
TEXT
  5
589
  8
DATA
 62
     7
 10
426.0
 20
27.5
 30
0.0
 40
2.0
  1
-3dB
 41
0.8
 11
426.0
 21
29.5
 31
0.0
 73
     3
  0
TEXT
  5
58A
  8
DATA
 62
     7
 10
426.0
 20
25.0
 30
0.0
 40
2.0
  1
-6dB
 41
0.8
 11
426.0
 21
27.0
 31
0.0
 73
     3
  0
TEXT
  5
58B
  8
DATA
 62
     7
 10
426.0
 20
22.5
 30
0.0
 40
2.0
  1
-12dB
 41
0.8
 11
426.0
 21
24.5
 31
0.0
 73
     3
  0
TEXT
  5
58C
  8
DATA
 62
     7
 10
426.0
 20
20.0
 30
0.0
 40
2.0
  1
-20dB
 41
0.8
 11
426.0
 21
22.0
 31
0.0
 73
     3
  0
TEXT
  5
58D
  8
DATA
 62
     7
 10
426.0
 20
17.5
 30
0.0
 40
2.0
  1
SIG
 41
0.8
 11
426.0
 21
19.5
 31
0.0
 73
     3
  0
TEXT
  5
58E
  8
DATA
 62
     7
 10
432.24999999999989
 20
1.5
 30
0.0
 40
4.0
  1
6
 41
0.8
 11
432.24999999999989
 21
5.5
 31
0.0
 73
     3
  0
ARC
  5
58F
  8
DATA
 62
     7
 10
438.49999999999989
 20
25.5
 30
0.0
 40
9.4999999999999982
 50
295.26931077569509
 51
90.0
  0
LINE
  5
590
  8
DATA
 62
     7
 10
197.48331477354759
 20
35.0
 30
0.0
 11
76.422616289331728
 21
35.0
 31
0.0
  0
LINE
  5
591
  8
DATA
 62
     7
 10
75.291502622128192
 20
8.5
 30
0.0
 11
183.46165158468941
 21
8.5
 31
0.0
  0
LINE
  5
592
  8
DATA
 62
     7
 10
0.0
 20
104.59999999999999
 30
0.0
 11
25.100000000000019
 21
104.59999999999999
 31
0.0
  0
LINE
  5
593
  8
DATA
 62
     7
 10
26.100000000000019
 20
103.59999999999999
 30
0.0
 11
26.100000000000019
 21
105.40000000000001
 31
0.0
  0
LINE
  5
594
  8
DATA
 62
     7
 10
456.5
 20
103.59999999999999
 30
0.0
 11
482.60000000000002
 21
103.59999999999999
 31
0.0
  0
LINE
  5
595
  8
DATA
 62
     7
 10
457.5
 20
104.59999999999999
 30
0.0
 11
457.5
 21
105.40000000000001
 31
0.0
  0
LINE
  5
596
  8
DATA
 62
     7
 10
454.60000000000002
 20
105.40000000000001
 30
0.0
 11
454.60000000000002
 21
101.59999999999999
 31
0.0
  0
LINE
  5
597
  8
DATA
 62
     7
 10
482.60000000000002
 20
100.0
 30
0.0
 11
482.60000000000002
 21
104.59999999999999
 31
0.0
  0
LINE
  5
598
  8
DATA
 62
     7
 10
482.60000000000002
 20
104.59999999999999
 30
0.0
 11
457.5
 21
104.59999999999999
 31
0.0
  0
LINE
  5
599
  8
DATA
 62
     7
 10
456.5
 20
103.59999999999999
 30
0.0
 11
456.5
 21
105.40000000000001
 31
0.0
  0
LINE
  5
59A
  8
DATA
 62
     7
 10
522.59999999999991
 20
44.0
 30
0.0
 11
522.59999999999991
 21
0.0
 31
0.0
  0
LINE
  5
59B
  8
DATA
 62
     7
 10
798.59999999999968
 20
42.5
 30
0.0
 11
797.59999999999991
 21
42.5
 31
0.0
  0
CIRCLE
  5
59C
  8
DATA
 62
     7
 10
534.60000000000002
 20
11.5
 30
0.0
 40
3.1499999999999999
  0
POLYLINE
  5
59D
  8
DATA
 62
     7
 66
     1
 10
0.0
 20
0.0
 30
0.0
  0
VERTEX
  5
ADB
  8
DATA
 62
     7
 10
534.10000000000002
 20
11.0
 30
0.0
  0
VERTEX
  5
ADC
  8
DATA
 62
     7
 10
534.10000000000002
 20
9.5
 30
0.0
  0
VERTEX
  5
ADD
  8
DATA
 62
     7
 10
535.09999999999991
 20
9.5
 30
0.0
  0
VERTEX
  5
ADE
  8
DATA
 62
     7
 10
535.09999999999991
 20
11.0
 30
0.0
  0
SEQEND
  5
ADF
  8
DATA
 62
     7
  0
POLYLINE
  5
5A3
  8
DATA
 62
     7
 66
     1
 10
0.0
 20
0.0
 30
0.0
  0
VERTEX
  5
AE0
  8
DATA
 62
     7
 10
534.10000000000002
 20
12.0
 30
0.0
  0
VERTEX
  5
AE1
  8
DATA
 62
     7
 10
534.10000000000002
 20
13.5
 30
0.0
  0
VERTEX
  5
AE2
  8
DATA
 62
     7
 10
535.09999999999991
 20
13.5
 30
0.0
  0
VERTEX
  5
AE3
  8
DATA
 62
     7
 10
535.09999999999991
 20
12.0
 30
0.0
  0
SEQEND
  5
AE4
  8
DATA
 62
     7
  0
POLYLINE
  5
5A9
  8
DATA
 62
     7
 66
     1
 10
0.0
 20
0.0
 30
0.0
  0
VERTEX
  5
AE5
  8
DATA
 62
     7
 10
535.09999999999991
 20
11.0
 30
0.0
  0
VERTEX
  5
AE6
  8
DATA
 62
     7
 10
536.60000000000002
 20
11.0
 30
0.0
  0
VERTEX
  5
AE7
  8
DATA
 62
     7
 10
536.60000000000002
 20
12.0
 30
0.0
  0
VERTEX
  5
AE8
  8
DATA
 62
     7
 10
535.09999999999991
 20
12.0
 30
0.0
  0
SEQEND
  5
AE9
  8
DATA
 62
     7
  0
POLYLINE
  5
5AF
  8
DATA
 62
     7
 66
     1
 10
0.0
 20
0.0
 30
0.0
  0
VERTEX
  5
AEA
  8
DATA
 62
     7
 10
534.10000000000002
 20
11.0
 30
0.0
  0
VERTEX
  5
AEB
  8
DATA
 62
     7
 10
532.60000000000002
 20
11.0
 30
0.0
  0
VERTEX
  5
AEC
  8
DATA
 62
     7
 10
532.60000000000002
 20
12.0
 30
0.0
  0
VERTEX
  5
AED
  8
DATA
 62
     7
 10
534.10000000000002
 20
12.0
 30
0.0
  0
SEQEND
  5
AEE
  8
DATA
 62
     7
  0
CIRCLE
  5
5B5
  8
DATA
 62
     7
 10
534.60000000000002
 20
35.5
 30
0.0
 40
3.1499999999999999
  0
POLYLINE
  5
5B6
  8
DATA
 62
     7
 66
     1
 10
0.0
 20
0.0
 30
0.0
  0
VERTEX
  5
AEF
  8
DATA
 62
     7
 10
534.10000000000002
 20
35.0
 30
0.0
  0
VERTEX
  5
AF0
  8
DATA
 62
     7
 10
534.10000000000002
 20
33.5
 30
0.0
  0
VERTEX
  5
AF1
  8
DATA
 62
     7
 10
535.09999999999991
 20
33.5
 30
0.0
  0
VERTEX
  5
AF2
  8
DATA
 62
     7
 10
535.09999999999991
 20
35.0
 30
0.0
  0
SEQEND
  5
AF3
  8
DATA
 62
     7
  0
POLYLINE
  5
5BC
  8
DATA
 62
     7
 66
     1
 10
0.0
 20
0.0
 30
0.0
  0
VERTEX
  5
AF4
  8
DATA
 62
     7
 10
534.10000000000002
 20
36.0
 30
0.0
  0
VERTEX
  5
AF5
  8
DATA
 62
     7
 10
534.10000000000002
 20
37.5
 30
0.0
  0
VERTEX
  5
AF6
  8
DATA
 62
     7
 10
535.09999999999991
 20
37.5
 30
0.0
  0
VERTEX
  5
AF7
  8
DATA
 62
     7
 10
535.09999999999991
 20
36.0
 30
0.0
  0
SEQEND
  5
AF8
  8
DATA
 62
     7
  0
POLYLINE
  5
5C2
  8
DATA
 62
     7
 66
     1
 10
0.0
 20
0.0
 30
0.0
  0
VERTEX
  5
AF9
  8
DATA
 62
     7
 10
535.09999999999991
 20
35.0
 30
0.0
  0
VERTEX
  5
AFA
  8
DATA
 62
     7
 10
536.60000000000002
 20
35.0
 30
0.0
  0
VERTEX
  5
AFB
  8
DATA
 62
     7
 10
536.60000000000002
 20
36.0
 30
0.0
  0
VERTEX
  5
AFC
  8
DATA
 62
     7
 10
535.09999999999991
 20
36.0
 30
0.0
  0
SEQEND
  5
AFD
  8
DATA
 62
     7
  0
POLYLINE
  5
5C8
  8
DATA
 62
     7
 66
     1
 10
0.0
 20
0.0
 30
0.0
  0
VERTEX
  5
AFE
  8
DATA
 62
     7
 10
534.10000000000002
 20
35.0
 30
0.0
  0
VERTEX
  5
AFF
  8
DATA
 62
     7
 10
532.60000000000002
 20
35.0
 30
0.0
  0
VERTEX
  5
B00
  8
DATA
 62
     7
 10
532.60000000000002
 20
36.0
 30
0.0
  0
VERTEX
  5
B01
  8
DATA
 62
     7
 10
534.10000000000002
 20
36.0
 30
0.0
  0
SEQEND
  5
B02
  8
DATA
 62
     7
  0
LINE
  5
5CE
  8
DATA
 62
     7
 10
610.09999999999991
 20
40.0
 30
0.0
 11
610.10000005664756
 21
34.999841260396693
 31
0.0
  0
LINE
  5
5CF
  8
DATA
 62
     7
 10
567.10000000000002
 20
40.0
 30
0.0
 11
610.09999999999991
 21
40.0
 31
0.0
  0
LINE
  5
5D0
  8
DATA
 62
     7
 10
567.10000000000002
 20
40.0
 30
0.0
 11
567.10000000000002
 21
34.999841286144829
 31
0.0
  0
LINE
  5
5D1
  8
DATA
 62
     7
 10
612.60000008754355
 20
32.5
 30
0.0
 11
795.10000000000002
 21
32.5
 31
0.0
  0
ARC
  5
5D2
  8
DATA
 62
     7
 10
795.10000000000002
 20
35.00000039908651
 30
0.0
 40
2.5
 50
270.0
 51
0.0
  0
LINE
  5
5D3
  8
DATA
 62
     7
 10
588.75006363343027
 20
33.150159112941637
 30
0.0
 11
588.75006363343027
 21
5.1501591129416511
 31
0.0
  0
LINE
  5
5D4
  8
DATA
 62
     7
 10
592.45006363343009
 20
33.150159112941637
 30
0.0
 11
592.45006363343009
 21
5.1501591129416511
 31
0.0
  0
ARC
  5
5D5
  8
DATA
 62
     7
 10
590.60006363342995
 20
33.150159112941637
 30
0.0
 40
1.8499999999999941
 50
0.0
 51
180.0
  0
ARC
  5
5D6
  8
DATA
 62
     7
 10
590.60006363342995
 20
5.1501591129416511
 30
0.0
 40
1.8499999999999941
 50
180.0
 51
0.0
  0
LINE
  5
5D7
  8
DATA
 62
     7
 10
594.75006363343039
 20
33.150159112941637
 30
0.0
 11
594.75006363343039
 21
5.1501591129416511
 31
0.0
  0
LINE
  5
5D8
  8
DATA
 62
     7
 10
598.4500636334302
 20
33.150159112941637
 30
0.0
 11
598.4500636334302
 21
5.1501591129416511
 31
0.0
  0
ARC
  5
5D9
  8
DATA
 62
     7
 10
596.60006363342995
 20
33.150159112941637
 30
0.0
 40
1.8499999999999941
 50
0.0
 51
180.0
  0
ARC
  5
5DA
  8
DATA
 62
     7
 10
596.60006363342995
 20
5.1501591129416511
 30
0.0
 40
1.8499999999999941
 50
180.0
 51
0.0
  0
CIRCLE
  5
5DB
  8
DATA
 62
     7
 10
602.60006363342995
 20
4.5001591129416729
 30
0.0
 40
3.3499999999999721
  0
POLYLINE
  5
5DC
  8
DATA
 62
     7
 66
     1
 10
0.0
 20
0.0
 30
0.0
  0
VERTEX
  5
B03
  8
DATA
 62
     7
 10
603.09998427650271
 20
5.0002384698692603
 30
0.0
  0
VERTEX
  5
B04
  8
DATA
 62
     7
 10
603.09998427650271
 20
6.5002384698692603
 30
0.0
  0
VERTEX
  5
B05
  8
DATA
 62
     7
 10
602.09998427650271
 20
6.5002384698692603
 30
0.0
  0
VERTEX
  5
B06
  8
DATA
 62
     7
 10
602.09998427650271
 20
5.0002384698692603
 30
0.0
  0
SEQEND
  5
B07
  8
DATA
 62
     7
  0
POLYLINE
  5
5E2
  8
DATA
 62
     7
 66
     1
 10
0.0
 20
0.0
 30
0.0
  0
VERTEX
  5
B08
  8
DATA
 62
     7
 10
603.09998427650271
 20
4.0002384698692603
 30
0.0
  0
VERTEX
  5
B09
  8
DATA
 62
     7
 10
603.09998427650271
 20
2.5000797560140882
 30
0.0
  0
VERTEX
  5
B0A
  8
DATA
 62
     7
 10
602.09998427650271
 20
2.5000797560140882
 30
0.0
  0
VERTEX
  5
B0B
  8
DATA
 62
     7
 10
602.09998427650271
 20
4.0002384698692603
 30
0.0
  0
SEQEND
  5
B0C
  8
DATA
 62
     7
  0
POLYLINE
  5
5E8
  8
DATA
 62
     7
 66
     1
 10
0.0
 20
0.0
 30
0.0
  0
VERTEX
  5
B0D
  8
DATA
 62
     7
 10
603.09998427650271
 20
4.0002384698692603
 30
0.0
  0
VERTEX
  5
B0E
  8
DATA
 62
     7
 10
604.60014299035777
 20
4.0002384698692603
 30
0.0
  0
VERTEX
  5
B0F
  8
DATA
 62
     7
 10
604.60014299035777
 20
5.0002384698692603
 30
0.0
  0
VERTEX
  5
B10
  8
DATA
 62
     7
 10
603.09998427650271
 20
5.0002384698692603
 30
0.0
  0
SEQEND
  5
B11
  8
DATA
 62
     7
  0
POLYLINE
  5
5EE
  8
DATA
 62
     7
 66
     1
 10
0.0
 20
0.0
 30
0.0
  0
VERTEX
  5
B12
  8
DATA
 62
     7
 10
602.09998427650271
 20
4.0002384698692603
 30
0.0
  0
VERTEX
  5
B13
  8
DATA
 62
     7
 10
600.59998427650271
 20
4.0002384698692603
 30
0.0
  0
VERTEX
  5
B14
  8
DATA
 62
     7
 10
600.59998427650271
 20
5.0002384698692603
 30
0.0
  0
VERTEX
  5
B15
  8
DATA
 62
     7
 10
602.09998427650271
 20
5.0002384698692603
 30
0.0
  0
SEQEND
  5
B16
  8
DATA
 62
     7
  0
CIRCLE
  5
5F4
  8
DATA
 62
     7
 10
792.5999999999998
 20
22.0
 30
0.0
 40
3.1499999999999999
  0
POLYLINE
  5
5F5
  8
DATA
 62
     7
 66
     1
 10
0.0
 20
0.0
 30
0.0
  0
VERTEX
  5
B17
  8
DATA
 62
     7
 10
792.0999999999998
 20
21.5
 30
0.0
  0
VERTEX
  5
B18
  8
DATA
 62
     7
 10
792.0999999999998
 20
20.0
 30
0.0
  0
VERTEX
  5
B19
  8
DATA
 62
     7
 10
793.0999999999998
 20
20.0
 30
0.0
  0
VERTEX
  5
B1A
  8
DATA
 62
     7
 10
793.0999999999998
 20
21.5
 30
0.0
  0
SEQEND
  5
B1B
  8
DATA
 62
     7
  0
POLYLINE
  5
5FB
  8
DATA
 62
     7
 66
     1
 10
0.0
 20
0.0
 30
0.0
  0
VERTEX
  5
B1C
  8
DATA
 62
     7
 10
792.0999999999998
 20
22.5
 30
0.0
  0
VERTEX
  5
B1D
  8
DATA
 62
     7
 10
792.0999999999998
 20
24.0
 30
0.0
  0
VERTEX
  5
B1E
  8
DATA
 62
     7
 10
793.0999999999998
 20
24.0
 30
0.0
  0
VERTEX
  5
B1F
  8
DATA
 62
     7
 10
793.0999999999998
 20
22.5
 30
0.0
  0
SEQEND
  5
B20
  8
DATA
 62
     7
  0
POLYLINE
  5
601
  8
DATA
 62
     7
 66
     1
 10
0.0
 20
0.0
 30
0.0
  0
VERTEX
  5
B21
  8
DATA
 62
     7
 10
793.0999999999998
 20
21.5
 30
0.0
  0
VERTEX
  5
B22
  8
DATA
 62
     7
 10
794.59999999999968
 20
21.5
 30
0.0
  0
VERTEX
  5
B23
  8
DATA
 62
     7
 10
794.59999999999968
 20
22.5
 30
0.0
  0
VERTEX
  5
B24
  8
DATA
 62
     7
 10
793.0999999999998
 20
22.5
 30
0.0
  0
SEQEND
  5
B25
  8
DATA
 62
     7
  0
POLYLINE
  5
607
  8
DATA
 62
     7
 66
     1
 10
0.0
 20
0.0
 30
0.0
  0
VERTEX
  5
B26
  8
DATA
 62
     7
 10
792.0999999999998
 20
21.5
 30
0.0
  0
VERTEX
  5
B27
  8
DATA
 62
     7
 10
790.59999999999968
 20
21.5
 30
0.0
  0
VERTEX
  5
B28
  8
DATA
 62
     7
 10
790.59999999999968
 20
22.5
 30
0.0
  0
VERTEX
  5
B29
  8
DATA
 62
     7
 10
792.0999999999998
 20
22.5
 30
0.0
  0
SEQEND
  5
B2A
  8
DATA
 62
     7
  0
LINE
  5
60D
  8
DATA
 62
     7
 10
458.30000000000001
 20
118.75
 30
0.0
 11
458.30000000000001
 21
112.45
 31
0.0
  0
LINE
  5
60E
  8
DATA
 62
     7
 10
458.30000000000001
 20
156.94999999999999
 30
0.0
 11
458.49999999999989
 21
156.94999999999999
 31
0.0
  0
LINE
  5
60F
  8
DATA
 62
     7
 10
459.0
 20
156.44999999999999
 30
0.0
 11
459.0
 21
150.75
 31
0.0
  0
LINE
  5
610
  8
DATA
 62
     7
 10
458.30000000000001
 20
150.25
 30
0.0
 11
458.49999999999989
 21
150.25
 31
0.0
  0
ARC
  5
611
  8
DATA
 62
     7
 10
458.49999999999989
 20
156.44999999999999
 30
0.0
 40
0.5
 50
0.0
 51
90.0
  0
ARC
  5
612
  8
DATA
 62
     7
 10
458.49999999999989
 20
150.75
 30
0.0
 40
0.5
 50
270.0
 51
0.0
  0
CIRCLE
  5
613
  8
DATA
 62
     7
 10
572.59999999999991
 20
34.000159112941667
 30
0.0
 40
3.3500000000000241
  0
POLYLINE
  5
614
  8
DATA
 62
     7
 66
     1
 10
0.0
 20
0.0
 30
0.0
  0
VERTEX
  5
B2B
  8
DATA
 62
     7
 10
573.10000000000002
 20
34.500159112941681
 30
0.0
  0
VERTEX
  5
B2C
  8
DATA
 62
     7
 10
573.10000000000002
 20
36.000159112941681
 30
0.0
  0
VERTEX
  5
B2D
  8
DATA
 62
     7
 10
572.10000000000002
 20
36.000159112941681
 30
0.0
  0
VERTEX
  5
B2E
  8
DATA
 62
     7
 10
572.10000000000002
 20
34.500159112941681
 30
0.0
  0
SEQEND
  5
B2F
  8
DATA
 62
     7
  0
POLYLINE
  5
61A
  8
DATA
 62
     7
 66
     1
 10
0.0
 20
0.0
 30
0.0
  0
VERTEX
  5
B30
  8
DATA
 62
     7
 10
573.10000000000002
 20
33.500159112941681
 30
0.0
  0
VERTEX
  5
B31
  8
DATA
 62
     7
 10
573.10000000000002
 20
32.000000399086503
 30
0.0
  0
VERTEX
  5
B32
  8
DATA
 62
     7
 10
572.10000000000002
 20
32.000000399086503
 30
0.0
  0
VERTEX
  5
B33
  8
DATA
 62
     7
 10
572.10000000000002
 20
33.500159112941681
 30
0.0
  0
SEQEND
  5
B34
  8
DATA
 62
     7
  0
POLYLINE
  5
620
  8
DATA
 62
     7
 66
     1
 10
0.0
 20
0.0
 30
0.0
  0
VERTEX
  5
B35
  8
DATA
 62
     7
 10
573.10000000000002
 20
33.500159112941681
 30
0.0
  0
VERTEX
  5
B36
  8
DATA
 62
     7
 10
574.60015871385531
 20
33.500159112941681
 30
0.0
  0
VERTEX
  5
B37
  8
DATA
 62
     7
 10
574.60015871385531
 20
34.500159112941681
 30
0.0
  0
VERTEX
  5
B38
  8
DATA
 62
     7
 10
573.10000000000002
 20
34.500159112941681
 30
0.0
  0
SEQEND
  5
B39
  8
DATA
 62
     7
  0
POLYLINE
  5
626
  8
DATA
 62
     7
 66
     1
 10
0.0
 20
0.0
 30
0.0
  0
VERTEX
  5
B3A
  8
DATA
 62
     7
 10
572.10000000000002
 20
33.500159112941681
 30
0.0
  0
VERTEX
  5
B3B
  8
DATA
 62
     7
 10
570.60000000000002
 20
33.500159112941681
 30
0.0
  0
VERTEX
  5
B3C
  8
DATA
 62
     7
 10
570.60000000000002
 20
34.500159112941681
 30
0.0
  0
VERTEX
  5
B3D
  8
DATA
 62
     7
 10
572.10000000000002
 20
34.500159112941681
 30
0.0
  0
SEQEND
  5
B3E
  8
DATA
 62
     7
  0
LINE
  5
62C
  8
DATA
 62
     7
 10
600.75006363343027
 20
27.650159112941651
 30
0.0
 11
600.75006363343027
 21
10.650159112941649
 31
0.0
  0
LINE
  5
62D
  8
DATA
 62
     7
 10
604.45006363343009
 20
27.650159112941651
 30
0.0
 11
604.45006363343009
 21
10.650159112941649
 31
0.0
  0
ARC
  5
62E
  8
DATA
 62
     7
 10
602.60006363342995
 20
27.650159112941651
 30
0.0
 40
1.8499999999999941
 50
0.0
 51
180.0
  0
ARC
  5
62F
  8
DATA
 62
     7
 10
602.60006363342995
 20
10.650159112941649
 30
0.0
 40
1.8499999999999941
 50
180.0
 51
0.0
  0
LINE
  5
630
  8
DATA
 62
     7
 10
586.4500636334302
 20
33.150159112941637
 30
0.0
 11
586.4500636334302
 21
5.1501591129416511
 31
0.0
  0
LINE
  5
631
  8
DATA
 62
     7
 10
582.75006363343039
 20
33.150159112941637
 30
0.0
 11
582.75006363343039
 21
5.1501591129416511
 31
0.0
  0
ARC
  5
632
  8
DATA
 62
     7
 10
584.60006363342995
 20
33.150159112941637
 30
0.0
 40
1.8499999999999941
 50
0.0
 51
180.0
  0
ARC
  5
633
  8
DATA
 62
     7
 10
584.60006363342995
 20
5.1501591129416511
 30
0.0
 40
1.8499999999999941
 50
180.0
 51
0.0
  0
LINE
  5
634
  8
DATA
 62
     7
 10
580.4500636334302
 20
33.150159112941637
 30
0.0
 11
580.4500636334302
 21
5.1501591129416511
 31
0.0
  0
LINE
  5
635
  8
DATA
 62
     7
 10
576.75006363343027
 20
33.150159112941637
 30
0.0
 11
576.75006363343027
 21
5.1501591129416511
 31
0.0
  0
ARC
  5
636
  8
DATA
 62
     7
 10
578.60006363342995
 20
33.150159112941637
 30
0.0
 40
1.8499999999999941
 50
0.0
 51
180.0
  0
ARC
  5
637
  8
DATA
 62
     7
 10
578.60006363342995
 20
5.1501591129416511
 30
0.0
 40
1.8499999999999941
 50
180.0
 51
0.0
  0
LINE
  5
638
  8
DATA
 62
     7
 10
574.4500636334302
 20
27.650159112941651
 30
0.0
 11
574.4500636334302
 21
10.650159112941649
 31
0.0
  0
LINE
  5
639
  8
DATA
 62
     7
 10
570.75006363343027
 20
27.650159112941651
 30
0.0
 11
570.75006363343027
 21
10.650159112941649
 31
0.0
  0
ARC
  5
63A
  8
DATA
 62
     7
 10
572.60006363342995
 20
27.650159112941651
 30
0.0
 40
1.8499999999999941
 50
0.0
 51
180.0
  0
ARC
  5
63B
  8
DATA
 62
     7
 10
572.60006363342995
 20
10.650159112941649
 30
0.0
 40
1.8499999999999941
 50
180.0
 51
0.0
  0
ARC
  5
63C
  8
DATA
 62
     7
 10
26.857500000000019
 20
373.60000000000002
 30
0.0
 40
4.057499999999985
 50
129.07330987625701
 51
230.9266901237429
  0
ARC
  5
63D
  8
DATA
 62
     7
 10
455.74250000000001
 20
373.60000000000002
 30
0.0
 40
4.0575000000000276
 50
309.07330987625647
 51
50.926690123742851
  0
LINE
  5
63E
  8
DATA
 62
     7
 10
458.30000000000001
 20
376.75
 30
0.0
 11
458.30000000000001
 21
370.4500000000001
 31
0.0
  0
LINE
  5
63F
  8
DATA
 62
     7
 10
37.5
 20
97.0
 30
0.0
 11
46.5
 21
97.0
 31
0.0
  0
LINE
  5
640
  8
DATA
 62
     7
 10
35.5
 20
100.0
 30
0.0
 11
35.5
 21
98.0
 31
0.0
  0
ARC
  5
641
  8
DATA
 62
     7
 10
37.300000000000011
 20
99.100000000000037
 30
0.0
 40
2.1095023109729198
 50
211.42956561483891
 51
275.4403320310052
  0
ARC
  5
642
  8
DATA
 62
     7
 10
46.699999999999989
 20
99.100000000000037
 30
0.0
 40
2.1095023109729198
 50
264.55966796899492
 51
328.57043438516098
  0
LINE
  5
643
  8
DATA
 62
     7
 10
48.5
 20
98.0
 30
0.0
 11
48.5
 21
100.0
 31
0.0
  0
LINE
  5
644
  8
DATA
 62
     7
 10
56.0
 20
100.0
 30
0.0
 11
56.350000000000527
 21
97.0
 31
0.0
  0
LINE
  5
645
  8
DATA
 62
     7
 10
65.0
 20
97.0
 30
0.0
 11
65.0
 21
100.0
 31
0.0
  0
LINE
  5
646
  8
DATA
 62
     7
 10
74.999999999999872
 20
97.0
 30
0.0
 11
74.999999999999872
 21
100.0
 31
0.0
  0
LINE
  5
647
  8
DATA
 62
     7
 10
65.0
 20
97.0
 30
0.0
 11
74.999999999999872
 21
97.0
 31
0.0
  0
LINE
  5
648
  8
DATA
 62
     7
 10
84.0
 20
100.0
 30
0.0
 11
83.649999999999451
 21
97.0
 31
0.0
  0
ARC
  5
649
  8
DATA
 62
     7
 10
70.0
 20
4.338750000007507
 30
0.0
 40
93.661249999992478
 50
81.619984548951976
 51
86.93987489935283
  0
ARC
  5
64A
  8
DATA
 62
     7
 10
70.0
 20
4.338750000007507
 30
0.0
 40
93.661249999992549
 50
93.060125100647127
 51
98.380015451048067
  0
LINE
  5
64B
  8
DATA
 62
     7
 10
211.0
 20
97.0
 30
0.0
 11
213.0
 21
97.0
 31
0.0
  0
LINE
  5
64C
  8
DATA
 62
     7
 10
209.0
 20
100.0
 30
0.0
 11
209.0
 21
98.0
 31
0.0
  0
ARC
  5
64D
  8
DATA
 62
     7
 10
210.80000000000001
 20
99.100000000000037
 30
0.0
 40
2.1095023109729198
 50
211.42956561483891
 51
275.4403320310052
  0
ARC
  5
64E
  8
DATA
 62
     7
 10
213.19999999999999
 20
99.100000000000037
 30
0.0
 40
2.1095023109729198
 50
264.55966796899492
 51
328.57043438516098
  0
LINE
  5
64F
  8
DATA
 62
     7
 10
215.0
 20
98.0
 30
0.0
 11
215.0
 21
100.0
 31
0.0
  0
LINE
  5
650
  8
DATA
 62
     7
 10
223.5
 20
97.0
 30
0.0
 11
225.5
 21
97.0
 31
0.0
  0
LINE
  5
651
  8
DATA
 62
     7
 10
221.5
 20
100.0
 30
0.0
 11
221.5
 21
98.0
 31
0.0
  0
ARC
  5
652
  8
DATA
 62
     7
 10
223.30000000000001
 20
99.100000000000037
 30
0.0
 40
2.1095023109729198
 50
211.42956561483891
 51
275.4403320310052
  0
ARC
  5
653
  8
DATA
 62
     7
 10
225.69999999999999
 20
99.100000000000037
 30
0.0
 40
2.1095023109729198
 50
264.55966796899492
 51
328.57043438516098
  0
LINE
  5
654
  8
DATA
 62
     7
 10
227.5
 20
98.0
 30
0.0
 11
227.5
 21
100.0
 31
0.0
  0
LINE
  5
655
  8
DATA
 62
     7
 10
236.0
 20
97.0
 30
0.0
 11
238.0
 21
97.0
 31
0.0
  0
LINE
  5
656
  8
DATA
 62
     7
 10
234.0
 20
100.0
 30
0.0
 11
234.0
 21
98.0
 31
0.0
  0
ARC
  5
657
  8
DATA
 62
     7
 10
235.80000000000001
 20
99.100000000000037
 30
0.0
 40
2.1095023109729198
 50
211.42956561483891
 51
275.4403320310052
  0
ARC
  5
658
  8
DATA
 62
     7
 10
238.19999999999999
 20
99.100000000000037
 30
0.0
 40
2.1095023109729198
 50
264.55966796899492
 51
328.57043438516098
  0
LINE
  5
659
  8
DATA
 62
     7
 10
240.0
 20
98.0
 30
0.0
 11
240.0
 21
100.0
 31
0.0
  0
LINE
  5
65A
  8
DATA
 62
     7
 10
248.5
 20
97.0
 30
0.0
 11
250.5
 21
97.0
 31
0.0
  0
LINE
  5
65B
  8
DATA
 62
     7
 10
246.5
 20
100.0
 30
0.0
 11
246.5
 21
98.0
 31
0.0
  0
ARC
  5
65C
  8
DATA
 62
     7
 10
248.30000000000001
 20
99.100000000000037
 30
0.0
 40
2.1095023109729198
 50
211.42956561483891
 51
275.4403320310052
  0
ARC
  5
65D
  8
DATA
 62
     7
 10
250.69999999999999
 20
99.100000000000037
 30
0.0
 40
2.1095023109729198
 50
264.55966796899492
 51
328.57043438516098
  0
LINE
  5
65E
  8
DATA
 62
     7
 10
252.5
 20
98.0
 30
0.0
 11
252.5
 21
100.0
 31
0.0
  0
LINE
  5
65F
  8
DATA
 62
     7
 10
268.0
 20
97.0
 30
0.0
 11
270.0
 21
97.0
 31
0.0
  0
LINE
  5
660
  8
DATA
 62
     7
 10
266.0
 20
100.0
 30
0.0
 11
266.0
 21
98.0
 31
0.0
  0
ARC
  5
661
  8
DATA
 62
     7
 10
267.80000000000001
 20
99.100000000000037
 30
0.0
 40
2.1095023109729198
 50
211.42956561483891
 51
275.4403320310052
  0
ARC
  5
662
  8
DATA
 62
     7
 10
270.19999999999999
 20
99.100000000000037
 30
0.0
 40
2.1095023109729198
 50
264.55966796899492
 51
328.57043438516098
  0
LINE
  5
663
  8
DATA
 62
     7
 10
272.0
 20
98.0
 30
0.0
 11
272.0
 21
100.0
 31
0.0
  0
LINE
  5
664
  8
DATA
 62
     7
 10
296.0
 20
97.0
 30
0.0
 11
298.0
 21
97.0
 31
0.0
  0
LINE
  5
665
  8
DATA
 62
     7
 10
294.0
 20
100.0
 30
0.0
 11
294.0
 21
98.0
 31
0.0
  0
ARC
  5
666
  8
DATA
 62
     7
 10
295.80000000000001
 20
99.100000000000037
 30
0.0
 40
2.1095023109729198
 50
211.42956561483891
 51
275.4403320310052
  0
ARC
  5
667
  8
DATA
 62
     7
 10
298.19999999999999
 20
99.100000000000037
 30
0.0
 40
2.1095023109729198
 50
264.55966796899492
 51
328.57043438516098
  0
LINE
  5
668
  8
DATA
 62
     7
 10
300.0
 20
98.0
 30
0.0
 11
300.0
 21
100.0
 31
0.0
  0
LINE
  5
669
  8
DATA
 62
     7
 10
292.94999999999987
 20
86.0
 30
0.0
 11
292.74999999999989
 21
98.500000000000014
 31
0.0
  0
LINE
  5
66A
  8
DATA
 62
     7
 10
301.05000000000013
 20
86.0
 30
0.0
 11
301.25000000000011
 21
98.500000000000014
 31
0.0
  0
LINE
  5
66B
  8
DATA
 62
     7
 10
292.94999999999987
 20
85.0
 30
0.0
 11
301.05000000000013
 21
85.0
 31
0.0
  0
LINE
  5
66C
  8
DATA
 62
     7
 10
292.94999999999987
 20
86.0
 30
0.0
 11
301.05000000000013
 21
86.0
 31
0.0
  0
LINE
  5
66D
  8
DATA
 62
     7
 10
296.34736903889979
 20
86.0
 30
0.0
 11
296.25936903889971
 21
97.0
 31
0.0
  0
LINE
  5
66E
  8
DATA
 62
     7
 10
297.65263096110021
 20
86.0
 30
0.0
 11
297.74063096110018
 21
97.0
 31
0.0
  0
LINE
  5
66F
  8
DATA
 62
     7
 10
292.94999999999987
 20
86.0
 30
0.0
 11
292.04277569313092
 21
100.0
 31
0.0
  0
LINE
  5
670
  8
DATA
 62
     7
 10
301.05000000000013
 20
86.0
 30
0.0
 11
301.95722430686902
 21
100.0
 31
0.0
  0
LINE
  5
671
  8
DATA
 62
     7
 10
295.08658283817448
 20
86.0
 30
0.0
 11
294.99738964002648
 21
97.149149768513198
 31
0.0
  0
LINE
  5
672
  8
DATA
 62
     7
 10
298.91341716182552
 20
86.0
 30
0.0
 11
299.00261036007743
 21
97.149149781498949
 31
0.0
  0
LINE
  5
673
  8
DATA
 62
     7
 10
293.95619285495638
 20
86.0
 30
0.0
 11
293.75619285495628
 21
98.500000000000014
 31
0.0
  0
ARC
  5
674
  8
DATA
 62
     7
 10
293.25309642747823
 20
98.496893984658641
 30
0.0
 40
0.5031060153413686
 50
0.3537280319379601
 51
179.646271968062
  0
LINE
  5
675
  8
DATA
 62
     7
 10
300.04380714504362
 20
86.0
 30
0.0
 11
300.24380714504372
 21
98.500000000000014
 31
0.0
  0
ARC
  5
676
  8
DATA
 62
     7
 10
300.74690357252177
 20
98.496893984658641
 30
0.0
 40
0.5031060153413544
 50
0.35372803193797
 51
179.646271968062
  0
LINE
  5
677
  8
DATA
 62
     7
 10
292.94999999999987
 20
85.0
 30
0.0
 11
292.94999999999987
 21
86.0
 31
0.0
  0
LINE
  5
678
  8
DATA
 62
     7
 10
301.05000000000013
 20
85.0
 30
0.0
 11
301.05000000000013
 21
86.0
 31
0.0
  0
LINE
  5
679
  8
DATA
 62
     7
 10
296.75
 20
85.0
 30
0.0
 11
296.75
 21
97.0
 31
0.0
  0
LINE
  5
67A
  8
DATA
 62
     7
 10
297.25
 20
85.0
 30
0.0
 11
297.25
 21
97.0
 31
0.0
  0
LINE
  5
67B
  8
DATA
 62
     7
 10
282.5
 20
97.0
 30
0.0
 11
284.5
 21
97.0
 31
0.0
  0
LINE
  5
67C
  8
DATA
 62
     7
 10
280.5
 20
100.0
 30
0.0
 11
280.5
 21
98.0
 31
0.0
  0
ARC
  5
67D
  8
DATA
 62
     7
 10
282.30000000000001
 20
99.100000000000037
 30
0.0
 40
2.1095023109729198
 50
211.42956561483891
 51
275.4403320310052
  0
ARC
  5
67E
  8
DATA
 62
     7
 10
284.69999999999999
 20
99.100000000000037
 30
0.0
 40
2.1095023109729198
 50
264.55966796899492
 51
328.57043438516098
  0
LINE
  5
67F
  8
DATA
 62
     7
 10
286.5
 20
98.0
 30
0.0
 11
286.5
 21
100.0
 31
0.0
  0
LINE
  5
680
  8
DATA
 62
     7
 10
324.5
 20
97.0
 30
0.0
 11
326.5
 21
97.0
 31
0.0
  0
LINE
  5
681
  8
DATA
 62
     7
 10
322.5
 20
100.0
 30
0.0
 11
322.5
 21
98.0
 31
0.0
  0
ARC
  5
682
  8
DATA
 62
     7
 10
324.30000000000001
 20
99.100000000000037
 30
0.0
 40
2.1095023109729198
 50
211.42956561483891
 51
275.4403320310052
  0
ARC
  5
683
  8
DATA
 62
     7
 10
326.69999999999999
 20
99.100000000000037
 30
0.0
 40
2.1095023109729198
 50
264.55966796899492
 51
328.57043438516098
  0
LINE
  5
684
  8
DATA
 62
     7
 10
328.5
 20
98.0
 30
0.0
 11
328.5
 21
100.0
 31
0.0
  0
LINE
  5
685
  8
DATA
 62
     7
 10
321.44999999999987
 20
86.0
 30
0.0
 11
321.24999999999989
 21
98.500000000000014
 31
0.0
  0
LINE
  5
686
  8
DATA
 62
     7
 10
329.55000000000001
 20
86.0
 30
0.0
 11
329.75000000000011
 21
98.500000000000014
 31
0.0
  0
LINE
  5
687
  8
DATA
 62
     7
 10
321.44999999999987
 20
85.0
 30
0.0
 11
329.55000000000001
 21
85.0
 31
0.0
  0
LINE
  5
688
  8
DATA
 62
     7
 10
321.44999999999987
 20
86.0
 30
0.0
 11
329.55000000000001
 21
86.0
 31
0.0
  0
LINE
  5
689
  8
DATA
 62
     7
 10
324.84736903889979
 20
86.0
 30
0.0
 11
324.75936903889982
 21
97.0
 31
0.0
  0
LINE
  5
68A
  8
DATA
 62
     7
 10
326.15263096110021
 20
86.0
 30
0.0
 11
326.24063096110018
 21
97.0
 31
0.0
  0
LINE
  5
68B
  8
DATA
 62
     7
 10
321.44999999999987
 20
86.0
 30
0.0
 11
320.54277569313081
 21
100.0
 31
0.0
  0
LINE
  5
68C
  8
DATA
 62
     7
 10
329.55000000000001
 20
86.0
 30
0.0
 11
330.45722430686902
 21
100.0
 31
0.0
  0
LINE
  5
68D
  8
DATA
 62
     7
 10
323.58658283817448
 20
86.0
 30
0.0
 11
323.4973896400266
 21
97.149149768513198
 31
0.0
  0
LINE
  5
68E
  8
DATA
 62
     7
 10
327.41341716182552
 20
86.0
 30
0.0
 11
327.50261036007743
 21
97.149149781498949
 31
0.0
  0
LINE
  5
68F
  8
DATA
 62
     7
 10
322.45619285495638
 20
86.0
 30
0.0
 11
322.25619285495628
 21
98.500000000000014
 31
0.0
  0
ARC
  5
690
  8
DATA
 62
     7
 10
321.75309642747823
 20
98.496893984658641
 30
0.0
 40
0.5031060153413686
 50
0.3537280319379601
 51
179.646271968062
  0
LINE
  5
691
  8
DATA
 62
     7
 10
328.54380714504362
 20
86.0
 30
0.0
 11
328.7438071450436
 21
98.500000000000014
 31
0.0
  0
ARC
  5
692
  8
DATA
 62
     7
 10
329.24690357252177
 20
98.496893984658641
 30
0.0
 40
0.5031060153413544
 50
0.35372803193797
 51
179.646271968062
  0
LINE
  5
693
  8
DATA
 62
     7
 10
321.44999999999987
 20
85.0
 30
0.0
 11
321.44999999999987
 21
86.0
 31
0.0
  0
LINE
  5
694
  8
DATA
 62
     7
 10
329.55000000000001
 20
85.0
 30
0.0
 11
329.55000000000001
 21
86.0
 31
0.0
  0
LINE
  5
695
  8
DATA
 62
     7
 10
325.25
 20
85.0
 30
0.0
 11
325.25
 21
97.0
 31
0.0
  0
LINE
  5
696
  8
DATA
 62
     7
 10
325.75
 20
85.0
 30
0.0
 11
325.75
 21
97.0
 31
0.0
  0
LINE
  5
697
  8
DATA
 62
     7
 10
311.0
 20
97.0
 30
0.0
 11
313.0
 21
97.0
 31
0.0
  0
LINE
  5
698
  8
DATA
 62
     7
 10
309.0
 20
100.0
 30
0.0
 11
309.0
 21
98.0
 31
0.0
  0
ARC
  5
699
  8
DATA
 62
     7
 10
310.80000000000001
 20
99.100000000000037
 30
0.0
 40
2.1095023109729198
 50
211.42956561483891
 51
275.4403320310052
  0
ARC
  5
69A
  8
DATA
 62
     7
 10
313.19999999999999
 20
99.100000000000037
 30
0.0
 40
2.1095023109729198
 50
264.55966796899492
 51
328.57043438516098
  0
LINE
  5
69B
  8
DATA
 62
     7
 10
315.0
 20
98.0
 30
0.0
 11
315.0
 21
100.0
 31
0.0
  0
LINE
  5
69C
  8
DATA
 62
     7
 10
353.0
 20
97.0
 30
0.0
 11
355.0
 21
97.0
 31
0.0
  0
LINE
  5
69D
  8
DATA
 62
     7
 10
351.0
 20
100.0
 30
0.0
 11
351.0
 21
98.0
 31
0.0
  0
ARC
  5
69E
  8
DATA
 62
     7
 10
352.80000000000001
 20
99.100000000000037
 30
0.0
 40
2.1095023109729198
 50
211.42956561483891
 51
275.4403320310052
  0
ARC
  5
69F
  8
DATA
 62
     7
 10
355.19999999999999
 20
99.100000000000037
 30
0.0
 40
2.1095023109729198
 50
264.55966796899492
 51
328.57043438516098
  0
LINE
  5
6A0
  8
DATA
 62
     7
 10
357.0
 20
98.0
 30
0.0
 11
357.0
 21
100.0
 31
0.0
  0
LINE
  5
6A1
  8
DATA
 62
     7
 10
349.94999999999987
 20
86.0
 30
0.0
 11
349.75
 21
98.500000000000014
 31
0.0
  0
LINE
  5
6A2
  8
DATA
 62
     7
 10
358.05000000000013
 20
86.0
 30
0.0
 11
358.25
 21
98.500000000000014
 31
0.0
  0
LINE
  5
6A3
  8
DATA
 62
     7
 10
349.94999999999987
 20
85.0
 30
0.0
 11
358.05000000000013
 21
85.0
 31
0.0
  0
LINE
  5
6A4
  8
DATA
 62
     7
 10
349.94999999999987
 20
86.0
 30
0.0
 11
358.05000000000013
 21
86.0
 31
0.0
  0
LINE
  5
6A5
  8
DATA
 62
     7
 10
353.34736903889979
 20
86.0
 30
0.0
 11
353.25936903889982
 21
97.0
 31
0.0
  0
LINE
  5
6A6
  8
DATA
 62
     7
 10
354.65263096110021
 20
86.0
 30
0.0
 11
354.74063096110018
 21
97.0
 31
0.0
  0
LINE
  5
6A7
  8
DATA
 62
     7
 10
349.94999999999987
 20
86.0
 30
0.0
 11
349.04277569313092
 21
100.0
 31
0.0
  0
LINE
  5
6A8
  8
DATA
 62
     7
 10
358.05000000000013
 20
86.0
 30
0.0
 11
358.95722430686902
 21
100.0
 31
0.0
  0
LINE
  5
6A9
  8
DATA
 62
     7
 10
352.08658283817459
 20
86.0
 30
0.0
 11
351.99738964002648
 21
97.149149768513198
 31
0.0
  0
LINE
  5
6AA
  8
DATA
 62
     7
 10
355.91341716182541
 20
86.0
 30
0.0
 11
356.00261036007743
 21
97.149149781498949
 31
0.0
  0
LINE
  5
6AB
  8
DATA
 62
     7
 10
350.95619285495638
 20
86.0
 30
0.0
 11
350.75619285495628
 21
98.500000000000014
 31
0.0
  0
ARC
  5
6AC
  8
DATA
 62
     7
 10
350.25309642747823
 20
98.496893984658641
 30
0.0
 40
0.5031060153413686
 50
0.3537280319379601
 51
179.646271968062
  0
LINE
  5
6AD
  8
DATA
 62
     7
 10
357.04380714504362
 20
86.0
 30
0.0
 11
357.24380714504372
 21
98.500000000000014
 31
0.0
  0
ARC
  5
6AE
  8
DATA
 62
     7
 10
357.74690357252189
 20
98.496893984658641
 30
0.0
 40
0.5031060153413544
 50
0.35372803193797
 51
179.646271968062
  0
LINE
  5
6AF
  8
DATA
 62
     7
 10
349.94999999999987
 20
85.0
 30
0.0
 11
349.94999999999987
 21
86.0
 31
0.0
  0
LINE
  5
6B0
  8
DATA
 62
     7
 10
358.05000000000013
 20
85.0
 30
0.0
 11
358.05000000000013
 21
86.0
 31
0.0
  0
LINE
  5
6B1
  8
DATA
 62
     7
 10
353.75
 20
85.0
 30
0.0
 11
353.75
 21
97.0
 31
0.0
  0
LINE
  5
6B2
  8
DATA
 62
     7
 10
354.25
 20
85.0
 30
0.0
 11
354.25
 21
97.0
 31
0.0
  0
LINE
  5
6B3
  8
DATA
 62
     7
 10
339.5
 20
97.0
 30
0.0
 11
341.5
 21
97.0
 31
0.0
  0
LINE
  5
6B4
  8
DATA
 62
     7
 10
337.5
 20
100.0
 30
0.0
 11
337.5
 21
98.0
 31
0.0
  0
ARC
  5
6B5
  8
DATA
 62
     7
 10
339.30000000000001
 20
99.100000000000037
 30
0.0
 40
2.1095023109729198
 50
211.42956561483891
 51
275.4403320310052
  0
ARC
  5
6B6
  8
DATA
 62
     7
 10
341.69999999999999
 20
99.100000000000037
 30
0.0
 40
2.1095023109729198
 50
264.55966796899492
 51
328.57043438516098
  0
LINE
  5
6B7
  8
DATA
 62
     7
 10
343.5
 20
98.0
 30
0.0
 11
343.5
 21
100.0
 31
0.0
  0
LINE
  5
6B8
  8
DATA
 62
     7
 10
381.5
 20
97.0
 30
0.0
 11
383.5
 21
97.0
 31
0.0
  0
LINE
  5
6B9
  8
DATA
 62
     7
 10
379.5
 20
100.0
 30
0.0
 11
379.5
 21
98.0
 31
0.0
  0
ARC
  5
6BA
  8
DATA
 62
     7
 10
381.30000000000001
 20
99.100000000000037
 30
0.0
 40
2.1095023109729198
 50
211.42956561483891
 51
275.4403320310052
  0
ARC
  5
6BB
  8
DATA
 62
     7
 10
383.69999999999999
 20
99.100000000000037
 30
0.0
 40
2.1095023109729198
 50
264.55966796899492
 51
328.57043438516098
  0
LINE
  5
6BC
  8
DATA
 62
     7
 10
385.5
 20
98.0
 30
0.0
 11
385.5
 21
100.0
 31
0.0
  0
LINE
  5
6BD
  8
DATA
 62
     7
 10
378.44999999999987
 20
86.0
 30
0.0
 11
378.25
 21
98.500000000000014
 31
0.0
  0
LINE
  5
6BE
  8
DATA
 62
     7
 10
386.55000000000013
 20
86.0
 30
0.0
 11
386.75000000000011
 21
98.500000000000014
 31
0.0
  0
LINE
  5
6BF
  8
DATA
 62
     7
 10
378.44999999999987
 20
85.0
 30
0.0
 11
386.55000000000013
 21
85.0
 31
0.0
  0
LINE
  5
6C0
  8
DATA
 62
     7
 10
378.44999999999987
 20
86.0
 30
0.0
 11
386.55000000000013
 21
86.0
 31
0.0
  0
LINE
  5
6C1
  8
DATA
 62
     7
 10
381.84736903889961
 20
86.0
 30
0.0
 11
381.75936903889971
 21
97.0
 31
0.0
  0
LINE
  5
6C2
  8
DATA
 62
     7
 10
383.15263096110021
 20
86.0
 30
0.0
 11
383.24063096110018
 21
97.0
 31
0.0
  0
LINE
  5
6C3
  8
DATA
 62
     7
 10
378.44999999999987
 20
86.0
 30
0.0
 11
377.54277569313092
 21
100.0
 31
0.0
  0
LINE
  5
6C4
  8
DATA
 62
     7
 10
386.55000000000013
 20
86.0
 30
0.0
 11
387.45722430686902
 21
100.0
 31
0.0
  0
LINE
  5
6C5
  8
DATA
 62
     7
 10
380.58658283817459
 20
86.0
 30
0.0
 11
380.49738964002648
 21
97.149149768513198
 31
0.0
  0
LINE
  5
6C6
  8
DATA
 62
     7
 10
384.41341716182552
 20
86.0
 30
0.0
 11
384.50261036007743
 21
97.149149781498949
 31
0.0
  0
LINE
  5
6C7
  8
DATA
 62
     7
 10
379.45619285495638
 20
86.0
 30
0.0
 11
379.25619285495628
 21
98.500000000000014
 31
0.0
  0
ARC
  5
6C8
  8
DATA
 62
     7
 10
378.75309642747823
 20
98.496893984658641
 30
0.0
 40
0.5031060153413686
 50
0.3537280319379601
 51
179.646271968062
  0
LINE
  5
6C9
  8
DATA
 62
     7
 10
385.54380714504362
 20
86.0
 30
0.0
 11
385.74380714504372
 21
98.500000000000014
 31
0.0
  0
ARC
  5
6CA
  8
DATA
 62
     7
 10
386.24690357252172
 20
98.496893984658641
 30
0.0
 40
0.5031060153413544
 50
0.35372803193797
 51
179.646271968062
  0
LINE
  5
6CB
  8
DATA
 62
     7
 10
378.44999999999987
 20
85.0
 30
0.0
 11
378.44999999999987
 21
86.0
 31
0.0
  0
LINE
  5
6CC
  8
DATA
 62
     7
 10
386.55000000000013
 20
85.0
 30
0.0
 11
386.55000000000013
 21
86.0
 31
0.0
  0
LINE
  5
6CD
  8
DATA
 62
     7
 10
382.25
 20
85.0
 30
0.0
 11
382.25
 21
97.0
 31
0.0
  0
LINE
  5
6CE
  8
DATA
 62
     7
 10
382.75
 20
85.0
 30
0.0
 11
382.75
 21
97.0
 31
0.0
  0
LINE
  5
6CF
  8
DATA
 62
     7
 10
368.0
 20
97.0
 30
0.0
 11
370.0
 21
97.0
 31
0.0
  0
LINE
  5
6D0
  8
DATA
 62
     7
 10
366.0
 20
100.0
 30
0.0
 11
366.0
 21
98.0
 31
0.0
  0
ARC
  5
6D1
  8
DATA
 62
     7
 10
367.80000000000001
 20
99.100000000000037
 30
0.0
 40
2.1095023109729198
 50
211.42956561483891
 51
275.4403320310052
  0
ARC
  5
6D2
  8
DATA
 62
     7
 10
370.19999999999999
 20
99.100000000000037
 30
0.0
 40
2.1095023109729198
 50
264.55966796899492
 51
328.57043438516098
  0
LINE
  5
6D3
  8
DATA
 62
     7
 10
372.0
 20
98.0
 30
0.0
 11
372.0
 21
100.0
 31
0.0
  0
LINE
  5
6D4
  8
DATA
 62
     7
 10
410.0
 20
97.0
 30
0.0
 11
412.0
 21
97.0
 31
0.0
  0
LINE
  5
6D5
  8
DATA
 62
     7
 10
408.0
 20
100.0
 30
0.0
 11
408.0
 21
98.0
 31
0.0
  0
ARC
  5
6D6
  8
DATA
 62
     7
 10
409.7999999999999
 20
99.100000000000037
 30
0.0
 40
2.1095023109729198
 50
211.42956561483891
 51
275.4403320310052
  0
ARC
  5
6D7
  8
DATA
 62
     7
 10
412.19999999999987
 20
99.100000000000037
 30
0.0
 40
2.1095023109729198
 50
264.55966796899492
 51
328.57043438516098
  0
LINE
  5
6D8
  8
DATA
 62
     7
 10
414.0
 20
98.0
 30
0.0
 11
414.0
 21
100.0
 31
0.0
  0
LINE
  5
6D9
  8
DATA
 62
     7
 10
406.94999999999987
 20
86.0
 30
0.0
 11
406.74999999999989
 21
98.500000000000014
 31
0.0
  0
LINE
  5
6DA
  8
DATA
 62
     7
 10
415.05000000000001
 20
86.0
 30
0.0
 11
415.25
 21
98.500000000000014
 31
0.0
  0
LINE
  5
6DB
  8
DATA
 62
     7
 10
406.94999999999987
 20
85.0
 30
0.0
 11
415.05000000000001
 21
85.0
 31
0.0
  0
LINE
  5
6DC
  8
DATA
 62
     7
 10
406.94999999999987
 20
86.0
 30
0.0
 11
415.05000000000001
 21
86.0
 31
0.0
  0
LINE
  5
6DD
  8
DATA
 62
     7
 10
410.34736903889961
 20
86.0
 30
0.0
 11
410.25936903889982
 21
97.0
 31
0.0
  0
LINE
  5
6DE
  8
DATA
 62
     7
 10
411.65263096110021
 20
86.0
 30
0.0
 11
411.74063096110012
 21
97.0
 31
0.0
  0
LINE
  5
6DF
  8
DATA
 62
     7
 10
406.94999999999987
 20
86.0
 30
0.0
 11
406.04277569313081
 21
100.0
 31
0.0
  0
LINE
  5
6E0
  8
DATA
 62
     7
 10
415.05000000000001
 20
86.0
 30
0.0
 11
415.95722430686902
 21
100.0
 31
0.0
  0
LINE
  5
6E1
  8
DATA
 62
     7
 10
409.08658283817459
 20
86.0
 30
0.0
 11
408.99738964002643
 21
97.149149768513198
 31
0.0
  0
LINE
  5
6E2
  8
DATA
 62
     7
 10
412.91341716182541
 20
86.0
 30
0.0
 11
413.00261036007743
 21
97.149149781498949
 31
0.0
  0
LINE
  5
6E3
  8
DATA
 62
     7
 10
407.95619285495638
 20
86.0
 30
0.0
 11
407.75619285495628
 21
98.500000000000014
 31
0.0
  0
ARC
  5
6E4
  8
DATA
 62
     7
 10
407.25309642747811
 20
98.496893984658641
 30
0.0
 40
0.5031060153413686
 50
0.3537280319379601
 51
179.646271968062
  0
LINE
  5
6E5
  8
DATA
 62
     7
 10
414.04380714504362
 20
86.0
 30
0.0
 11
414.2438071450436
 21
98.500000000000014
 31
0.0
  0
ARC
  5
6E6
  8
DATA
 62
     7
 10
414.74690357252172
 20
98.496893984658641
 30
0.0
 40
0.5031060153413544
 50
0.35372803193797
 51
179.646271968062
  0
LINE
  5
6E7
  8
DATA
 62
     7
 10
406.94999999999987
 20
85.0
 30
0.0
 11
406.94999999999987
 21
86.0
 31
0.0
  0
LINE
  5
6E8
  8
DATA
 62
     7
 10
415.05000000000001
 20
85.0
 30
0.0
 11
415.05000000000001
 21
86.0
 31
0.0
  0
LINE
  5
6E9
  8
DATA
 62
     7
 10
410.74999999999989
 20
85.0
 30
0.0
 11
410.74999999999989
 21
97.0
 31
0.0
  0
LINE
  5
6EA
  8
DATA
 62
     7
 10
411.24999999999989
 20
85.0
 30
0.0
 11
411.24999999999989
 21
97.0
 31
0.0
  0
LINE
  5
6EB
  8
DATA
 62
     7
 10
396.5
 20
97.0
 30
0.0
 11
398.5
 21
97.0
 31
0.0
  0
LINE
  5
6EC
  8
DATA
 62
     7
 10
394.5
 20
100.0
 30
0.0
 11
394.5
 21
98.0
 31
0.0
  0
ARC
  5
6ED
  8
DATA
 62
     7
 10
396.30000000000001
 20
99.100000000000037
 30
0.0
 40
2.1095023109729198
 50
211.42956561483891
 51
275.4403320310052
  0
ARC
  5
6EE
  8
DATA
 62
     7
 10
398.69999999999999
 20
99.100000000000037
 30
0.0
 40
2.1095023109729198
 50
264.55966796899492
 51
328.57043438516098
  0
LINE
  5
6EF
  8
DATA
 62
     7
 10
400.49999999999989
 20
98.0
 30
0.0
 11
400.49999999999989
 21
100.0
 31
0.0
  0
LINE
  5
6F0
  8
DATA
 62
     7
 10
438.49999999999989
 20
97.0
 30
0.0
 11
440.5
 21
97.0
 31
0.0
  0
LINE
  5
6F1
  8
DATA
 62
     7
 10
436.5
 20
100.0
 30
0.0
 11
436.5
 21
98.0
 31
0.0
  0
ARC
  5
6F2
  8
DATA
 62
     7
 10
438.30000000000001
 20
99.100000000000037
 30
0.0
 40
2.1095023109729198
 50
211.42956561483891
 51
275.4403320310052
  0
ARC
  5
6F3
  8
DATA
 62
     7
 10
440.69999999999999
 20
99.100000000000037
 30
0.0
 40
2.1095023109729198
 50
264.55966796899492
 51
328.57043438516098
  0
LINE
  5
6F4
  8
DATA
 62
     7
 10
442.49999999999989
 20
98.0
 30
0.0
 11
442.49999999999989
 21
100.0
 31
0.0
  0
LINE
  5
6F5
  8
DATA
 62
     7
 10
435.44999999999987
 20
86.0
 30
0.0
 11
435.25
 21
98.500000000000014
 31
0.0
  0
LINE
  5
6F6
  8
DATA
 62
     7
 10
443.55000000000013
 20
86.0
 30
0.0
 11
443.75
 21
98.500000000000014
 31
0.0
  0
LINE
  5
6F7
  8
DATA
 62
     7
 10
435.44999999999987
 20
85.0
 30
0.0
 11
443.55000000000013
 21
85.0
 31
0.0
  0
LINE
  5
6F8
  8
DATA
 62
     7
 10
435.44999999999987
 20
86.0
 30
0.0
 11
443.55000000000013
 21
86.0
 31
0.0
  0
LINE
  5
6F9
  8
DATA
 62
     7
 10
438.84736903889961
 20
86.0
 30
0.0
 11
438.75936903889971
 21
97.0
 31
0.0
  0
LINE
  5
6FA
  8
DATA
 62
     7
 10
440.15263096110021
 20
86.0
 30
0.0
 11
440.24063096110012
 21
97.0
 31
0.0
  0
LINE
  5
6FB
  8
DATA
 62
     7
 10
435.44999999999987
 20
86.0
 30
0.0
 11
434.54277569313081
 21
100.0
 31
0.0
  0
LINE
  5
6FC
  8
DATA
 62
     7
 10
443.55000000000013
 20
86.0
 30
0.0
 11
444.45722430686902
 21
100.0
 31
0.0
  0
LINE
  5
6FD
  8
DATA
 62
     7
 10
437.58658283817459
 20
86.0
 30
0.0
 11
437.49738964002643
 21
97.149149768513198
 31
0.0
  0
LINE
  5
6FE
  8
DATA
 62
     7
 10
441.41341716182541
 20
86.0
 30
0.0
 11
441.50261036007743
 21
97.149149781498949
 31
0.0
  0
LINE
  5
6FF
  8
DATA
 62
     7
 10
436.45619285495633
 20
86.0
 30
0.0
 11
436.25619285495628
 21
98.500000000000014
 31
0.0
  0
ARC
  5
700
  8
DATA
 62
     7
 10
435.75309642747811
 20
98.496893984658641
 30
0.0
 40
0.5031060153413686
 50
0.3537280319379601
 51
179.646271968062
  0
LINE
  5
701
  8
DATA
 62
     7
 10
442.54380714504362
 20
86.0
 30
0.0
 11
442.74380714504372
 21
98.500000000000014
 31
0.0
  0
ARC
  5
702
  8
DATA
 62
     7
 10
443.24690357252172
 20
98.496893984658641
 30
0.0
 40
0.5031060153413544
 50
0.35372803193797
 51
179.646271968062
  0
LINE
  5
703
  8
DATA
 62
     7
 10
435.44999999999987
 20
85.0
 30
0.0
 11
435.44999999999987
 21
86.0
 31
0.0
  0
LINE
  5
704
  8
DATA
 62
     7
 10
443.55000000000013
 20
85.0
 30
0.0
 11
443.55000000000013
 21
86.0
 31
0.0
  0
LINE
  5
705
  8
DATA
 62
     7
 10
439.25
 20
85.0
 30
0.0
 11
439.25
 21
97.0
 31
0.0
  0
LINE
  5
706
  8
DATA
 62
     7
 10
439.74999999999989
 20
85.0
 30
0.0
 11
439.74999999999989
 21
97.0
 31
0.0
  0
LINE
  5
707
  8
DATA
 62
     7
 10
425.0
 20
97.0
 30
0.0
 11
427.0
 21
97.0
 31
0.0
  0
LINE
  5
708
  8
DATA
 62
     7
 10
423.0
 20
100.0
 30
0.0
 11
423.0
 21
98.0
 31
0.0
  0
ARC
  5
709
  8
DATA
 62
     7
 10
424.80000000000001
 20
99.100000000000037
 30
0.0
 40
2.1095023109729198
 50
211.42956561483891
 51
275.4403320310052
  0
ARC
  5
70A
  8
DATA
 62
     7
 10
427.19999999999999
 20
99.100000000000037
 30
0.0
 40
2.1095023109729198
 50
264.55966796899492
 51
328.57043438516098
  0
LINE
  5
70B
  8
DATA
 62
     7
 10
429.0
 20
98.0
 30
0.0
 11
429.0
 21
100.0
 31
0.0
  0
CIRCLE
  5
70C
  8
DATA
 62
     7
 10
211.0
 20
111.40000000000001
 30
0.0
 40
3.5000000000000071
  0
LINE
  5
70D
  8
DATA
 62
     7
 10
207.0
 20
105.40000000000001
 30
0.0
 11
206.0
 21
115.39999999999991
 31
0.0
  0
LINE
  5
70E
  8
DATA
 62
     7
 10
215.0
 20
105.40000000000001
 30
0.0
 11
216.0
 21
115.39999999999991
 31
0.0
  0
LINE
  5
70F
  8
DATA
 62
     7
 10
206.0
 20
115.39999999999991
 30
0.0
 11
216.0
 21
115.39999999999991
 31
0.0
  0
POLYLINE
  5
710
  8
DATA
 62
     7
 66
     1
 10
0.0
 20
0.0
 30
0.0
  0
VERTEX
  5
B3F
  8
DATA
 62
     7
 10
211.5
 20
111.89999999999991
 30
0.0
  0
VERTEX
  5
B40
  8
DATA
 62
     7
 10
211.5
 20
113.40000000000001
 30
0.0
  0
VERTEX
  5
B41
  8
DATA
 62
     7
 10
210.5
 20
113.40000000000001
 30
0.0
  0
VERTEX
  5
B42
  8
DATA
 62
     7
 10
210.5
 20
111.89999999999991
 30
0.0
  0
SEQEND
  5
B43
  8
DATA
 62
     7
  0
POLYLINE
  5
716
  8
DATA
 62
     7
 66
     1
 10
0.0
 20
0.0
 30
0.0
  0
VERTEX
  5
B44
  8
DATA
 62
     7
 10
211.5
 20
110.89999999999991
 30
0.0
  0
VERTEX
  5
B45
  8
DATA
 62
     7
 10
211.5
 20
109.40000000000001
 30
0.0
  0
VERTEX
  5
B46
  8
DATA
 62
     7
 10
210.5
 20
109.40000000000001
 30
0.0
  0
VERTEX
  5
B47
  8
DATA
 62
     7
 10
210.5
 20
110.89999999999991
 30
0.0
  0
SEQEND
  5
B48
  8
DATA
 62
     7
  0
POLYLINE
  5
71C
  8
DATA
 62
     7
 66
     1
 10
0.0
 20
0.0
 30
0.0
  0
VERTEX
  5
B49
  8
DATA
 62
     7
 10
211.5
 20
110.89999999999991
 30
0.0
  0
VERTEX
  5
B4A
  8
DATA
 62
     7
 10
213.0
 20
110.89999999999991
 30
0.0
  0
VERTEX
  5
B4B
  8
DATA
 62
     7
 10
213.0
 20
111.89999999999991
 30
0.0
  0
VERTEX
  5
B4C
  8
DATA
 62
     7
 10
211.5
 20
111.89999999999991
 30
0.0
  0
SEQEND
  5
B4D
  8
DATA
 62
     7
  0
POLYLINE
  5
722
  8
DATA
 62
     7
 66
     1
 10
0.0
 20
0.0
 30
0.0
  0
VERTEX
  5
B4E
  8
DATA
 62
     7
 10
210.5
 20
110.89999999999991
 30
0.0
  0
VERTEX
  5
B4F
  8
DATA
 62
     7
 10
209.0
 20
110.89999999999991
 30
0.0
  0
VERTEX
  5
B50
  8
DATA
 62
     7
 10
209.0
 20
111.89999999999991
 30
0.0
  0
VERTEX
  5
B51
  8
DATA
 62
     7
 10
210.5
 20
111.89999999999991
 30
0.0
  0
SEQEND
  5
B52
  8
DATA
 62
     7
  0
LINE
  5
728
  8
DATA
 62
     7
 10
349.0
 20
115.39999999999991
 30
0.0
 11
339.0
 21
115.39999999999991
 31
0.0
  0
LINE
  5
729
  8
DATA
 62
     7
 10
348.0
 20
105.40000000000001
 30
0.0
 11
349.0
 21
115.39999999999991
 31
0.0
  0
LINE
  5
72A
  8
DATA
 62
     7
 10
339.0
 20
115.39999999999991
 30
0.0
 11
340.0
 21
105.40000000000001
 31
0.0
  0
POLYLINE
  5
72B
  8
DATA
 62
     7
 66
     1
 10
0.0
 20
0.0
 30
0.0
  0
VERTEX
  5
B53
  8
DATA
 62
     7
 10
76.800000000000026
 20
479.49999999999989
 30
0.0
  0
VERTEX
  5
B54
  8
DATA
 62
     7
 10
77.800000000000026
 20
479.49999999999989
 30
0.0
  0
VERTEX
  5
B55
  8
DATA
 62
     7
 10
77.800000000000026
 20
478.5
 30
0.0
  0
VERTEX
  5
B56
  8
DATA
 62
     7
 10
76.800000000000026
 20
478.5
 30
0.0
  0
SEQEND
  5
B57
  8
DATA
 62
     7
  0
ARC
  5
731
  8
DATA
 62
     7
 10
89.300000000000026
 20
489.0
 30
0.0
 40
10.69999999999998
 50
283.51175535949187
 51
256.48824464050813
  0
CIRCLE
  5
732
  8
DATA
 62
     7
 10
89.300000000000026
 20
489.0
 30
0.0
 40
7.9999999999999947
  0
CIRCLE
  5
733
  8
DATA
 62
     7
 10
93.299999999999997
 20
489.0
 30
0.0
 40
1.2499999999999909
  0
CIRCLE
  5
734
  8
DATA
 62
     7
 10
85.300000000000026
 20
489.0
 30
0.0
 40
1.2499999999999909
  0
CIRCLE
  5
735
  8
DATA
 62
     7
 10
89.300000000000026
 20
493.0
 30
0.0
 40
1.2499999999999909
  0
LINE
  5
736
  8
DATA
 62
     7
 10
91.799999999999983
 20
479.5759615875146
 30
0.0
 11
91.799999999999983
 21
477.71132486540517
 31
0.0
  0
LINE
  5
737
  8
DATA
 62
     7
 10
86.800000000000026
 20
479.5759615875146
 30
0.0
 11
86.800000000000026
 21
477.71132486540512
 31
0.0
  0
ARC
  5
738
  8
DATA
 62
     7
 10
87.178728675972934
 20
474.8556624327025
 30
0.0
 40
2.880667169173269
 50
97.554693985849994
 51
262.44530601414999
  0
ARC
  5
739
  8
DATA
 62
     7
 10
91.421271324027074
 20
474.8556624327025
 30
0.0
 40
2.8806671691733809
 50
277.55469398584972
 51
82.44530601415029
  0
LINE
  5
73A
  8
DATA
 62
     7
 10
86.800000000000026
 20
472.0
 30
0.0
 11
91.799999999999983
 21
472.0
 31
0.0
  0
CIRCLE
  5
73B
  8
DATA
 62
     7
 10
89.300000000000026
 20
489.0
 30
0.0
 40
9.7500000000000036
  0
CIRCLE
  5
73C
  8
DATA
 62
     7
 10
79.300000000000026
 20
499.0
 30
0.0
 40
2.49999999999998
  0
POLYLINE
  5
73D
  8
DATA
 62
     7
 66
     1
 10
0.0
 20
0.0
 30
0.0
  0
VERTEX
  5
B58
  8
DATA
 62
     7
 10
79.800000000000026
 20
498.5
 30
0.0
  0
VERTEX
  5
B59
  8
DATA
 62
     7
 10
80.800000000000026
 20
498.5
 30
0.0
  0
VERTEX
  5
B5A
  8
DATA
 62
     7
 10
80.800000000000026
 20
499.5
 30
0.0
  0
VERTEX
  5
B5B
  8
DATA
 62
     7
 10
79.800000000000026
 20
499.5
 30
0.0
  0
SEQEND
  5
B5C
  8
DATA
 62
     7
  0
POLYLINE
  5
743
  8
DATA
 62
     7
 66
     1
 10
0.0
 20
0.0
 30
0.0
  0
VERTEX
  5
B5D
  8
DATA
 62
     7
 10
78.800000000000026
 20
498.5
 30
0.0
  0
VERTEX
  5
B5E
  8
DATA
 62
     7
 10
77.800000000000026
 20
498.5
 30
0.0
  0
VERTEX
  5
B5F
  8
DATA
 62
     7
 10
77.800000000000026
 20
499.5
 30
0.0
  0
VERTEX
  5
B60
  8
DATA
 62
     7
 10
78.800000000000026
 20
499.5
 30
0.0
  0
SEQEND
  5
B61
  8
DATA
 62
     7
  0
CIRCLE
  5
749
  8
DATA
 62
     7
 10
79.300000000000026
 20
499.0
 30
0.0
 40
2.499999999999988
  0
POLYLINE
  5
74A
  8
DATA
 62
     7
 66
     1
 10
0.0
 20
0.0
 30
0.0
  0
VERTEX
  5
B62
  8
DATA
 62
     7
 10
79.800000000000026
 20
499.5
 30
0.0
  0
VERTEX
  5
B63
  8
DATA
 62
     7
 10
79.800000000000026
 20
500.49999999999989
 30
0.0
  0
VERTEX
  5
B64
  8
DATA
 62
     7
 10
78.800000000000026
 20
500.49999999999989
 30
0.0
  0
VERTEX
  5
B65
  8
DATA
 62
     7
 10
78.800000000000026
 20
499.5
 30
0.0
  0
SEQEND
  5
B66
  8
DATA
 62
     7
  0
POLYLINE
  5
750
  8
DATA
 62
     7
 66
     1
 10
0.0
 20
0.0
 30
0.0
  0
VERTEX
  5
B67
  8
DATA
 62
     7
 10
79.800000000000026
 20
498.5
 30
0.0
  0
VERTEX
  5
B68
  8
DATA
 62
     7
 10
79.800000000000026
 20
497.5
 30
0.0
  0
VERTEX
  5
B69
  8
DATA
 62
     7
 10
78.800000000000026
 20
497.5
 30
0.0
  0
VERTEX
  5
B6A
  8
DATA
 62
     7
 10
78.800000000000026
 20
498.5
 30
0.0
  0
SEQEND
  5
B6B
  8
DATA
 62
     7
  0
CIRCLE
  5
756
  8
DATA
 62
     7
 10
99.299999999999983
 20
479.0
 30
0.0
 40
2.49999999999998
  0
POLYLINE
  5
757
  8
DATA
 62
     7
 66
     1
 10
0.0
 20
0.0
 30
0.0
  0
VERTEX
  5
B6C
  8
DATA
 62
     7
 10
98.799999999999997
 20
479.49999999999989
 30
0.0
  0
VERTEX
  5
B6D
  8
DATA
 62
     7
 10
97.800000000000011
 20
479.49999999999989
 30
0.0
  0
VERTEX
  5
B6E
  8
DATA
 62
     7
 10
97.800000000000011
 20
478.5
 30
0.0
  0
VERTEX
  5
B6F
  8
DATA
 62
     7
 10
98.799999999999997
 20
478.5
 30
0.0
  0
SEQEND
  5
B70
  8
DATA
 62
     7
  0
POLYLINE
  5
75D
  8
DATA
 62
     7
 66
     1
 10
0.0
 20
0.0
 30
0.0
  0
VERTEX
  5
B71
  8
DATA
 62
     7
 10
99.799999999999997
 20
479.49999999999989
 30
0.0
  0
VERTEX
  5
B72
  8
DATA
 62
     7
 10
100.8
 20
479.49999999999989
 30
0.0
  0
VERTEX
  5
B73
  8
DATA
 62
     7
 10
100.8
 20
478.5
 30
0.0
  0
VERTEX
  5
B74
  8
DATA
 62
     7
 10
99.799999999999997
 20
478.5
 30
0.0
  0
SEQEND
  5
B75
  8
DATA
 62
     7
  0
CIRCLE
  5
763
  8
DATA
 62
     7
 10
99.299999999999983
 20
479.0
 30
0.0
 40
2.499999999999988
  0
POLYLINE
  5
764
  8
DATA
 62
     7
 66
     1
 10
0.0
 20
0.0
 30
0.0
  0
VERTEX
  5
B76
  8
DATA
 62
     7
 10
98.799999999999997
 20
478.5
 30
0.0
  0
VERTEX
  5
B77
  8
DATA
 62
     7
 10
98.799999999999997
 20
477.5
 30
0.0
  0
VERTEX
  5
B78
  8
DATA
 62
     7
 10
99.799999999999997
 20
477.5
 30
0.0
  0
VERTEX
  5
B79
  8
DATA
 62
     7
 10
99.799999999999997
 20
478.5
 30
0.0
  0
SEQEND
  5
B7A
  8
DATA
 62
     7
  0
POLYLINE
  5
76A
  8
DATA
 62
     7
 66
     1
 10
0.0
 20
0.0
 30
0.0
  0
VERTEX
  5
B7B
  8
DATA
 62
     7
 10
98.799999999999997
 20
479.49999999999989
 30
0.0
  0
VERTEX
  5
B7C
  8
DATA
 62
     7
 10
98.799999999999997
 20
480.49999999999989
 30
0.0
  0
VERTEX
  5
B7D
  8
DATA
 62
     7
 10
99.799999999999997
 20
480.49999999999989
 30
0.0
  0
VERTEX
  5
B7E
  8
DATA
 62
     7
 10
99.799999999999997
 20
479.49999999999989
 30
0.0
  0
SEQEND
  5
B7F
  8
DATA
 62
     7
  0
LINE
  5
770
  8
DATA
 62
     7
 10
79.5
 20
493.0
 30
0.0
 11
79.300000000000026
 21
493.0
 31
0.0
  0
LINE
  5
771
  8
DATA
 62
     7
 10
100.3
 20
473.5
 30
0.0
 11
93.963007484233515
 21
473.5
 31
0.0
  0
TEXT
  5
772
  8
DATA
 62
     7
 10
93.926325757575952
 20
504.6192571524258
 30
0.0
 40
2.7999999999999998
  1
C/MIC
 50
180.0
 41
0.8
 11
93.926325757575952
 21
501.81925715242591
 31
0.0
 73
     3
  0
TEXT
  5
773
  8
DATA
 62
     7
 10
85.300000000000026
 20
474.5499999999999
 30
0.0
 40
2.7999999999999998
  1
BALANCED
 50
180.0
 41
0.8
 11
85.300000000000026
 21
471.75
 31
0.0
 73
     3
  0
LINE
  5
774
  8
DATA
 62
     7
 10
101.3
 20
476.49999999999989
 30
0.0
 11
101.3
 21
474.5
 31
0.0
  0
ARC
  5
775
  8
DATA
 62
     7
 10
100.3
 20
474.5
 30
0.0
 40
1.0
 50
270.0
 51
0.0
  0
ARC
  5
776
  8
DATA
 62
     7
 10
102.3
 20
474.5
 30
0.0
 40
1.0
 50
180.0
 51
270.0
  0
LINE
  5
777
  8
DATA
 62
     7
 10
102.3
 20
473.5
 30
0.0
 11
119.8358983848622
 21
473.5
 31
0.0
  0
CIRCLE
  5
778
  8
DATA
 62
     7
 10
125.3
 20
499.0
 30
0.0
 40
2.49999999999998
  0
POLYLINE
  5
779
  8
DATA
 62
     7
 66
     1
 10
0.0
 20
0.0
 30
0.0
  0
VERTEX
  5
B80
  8
DATA
 62
     7
 10
125.8
 20
498.5
 30
0.0
  0
VERTEX
  5
B81
  8
DATA
 62
     7
 10
126.8
 20
498.5
 30
0.0
  0
VERTEX
  5
B82
  8
DATA
 62
     7
 10
126.8
 20
499.5
 30
0.0
  0
VERTEX
  5
B83
  8
DATA
 62
     7
 10
125.8
 20
499.5
 30
0.0
  0
SEQEND
  5
B84
  8
DATA
 62
     7
  0
POLYLINE
  5
77F
  8
DATA
 62
     7
 66
     1
 10
0.0
 20
0.0
 30
0.0
  0
VERTEX
  5
B85
  8
DATA
 62
     7
 10
124.8
 20
498.5
 30
0.0
  0
VERTEX
  5
B86
  8
DATA
 62
     7
 10
123.8
 20
498.5
 30
0.0
  0
VERTEX
  5
B87
  8
DATA
 62
     7
 10
123.8
 20
499.5
 30
0.0
  0
VERTEX
  5
B88
  8
DATA
 62
     7
 10
124.8
 20
499.5
 30
0.0
  0
SEQEND
  5
B89
  8
DATA
 62
     7
  0
CIRCLE
  5
785
  8
DATA
 62
     7
 10
125.3
 20
499.0
 30
0.0
 40
2.499999999999988
  0
POLYLINE
  5
786
  8
DATA
 62
     7
 66
     1
 10
0.0
 20
0.0
 30
0.0
  0
VERTEX
  5
B8A
  8
DATA
 62
     7
 10
125.8
 20
499.5
 30
0.0
  0
VERTEX
  5
B8B
  8
DATA
 62
     7
 10
125.8
 20
500.49999999999989
 30
0.0
  0
VERTEX
  5
B8C
  8
DATA
 62
     7
 10
124.8
 20
500.49999999999989
 30
0.0
  0
VERTEX
  5
B8D
  8
DATA
 62
     7
 10
124.8
 20
499.5
 30
0.0
  0
SEQEND
  5
B8E
  8
DATA
 62
     7
  0
POLYLINE
  5
78C
  8
DATA
 62
     7
 66
     1
 10
0.0
 20
0.0
 30
0.0
  0
VERTEX
  5
B8F
  8
DATA
 62
     7
 10
125.8
 20
498.5
 30
0.0
  0
VERTEX
  5
B90
  8
DATA
 62
     7
 10
125.8
 20
497.5
 30
0.0
  0
VERTEX
  5
B91
  8
DATA
 62
     7
 10
124.8
 20
497.5
 30
0.0
  0
VERTEX
  5
B92
  8
DATA
 62
     7
 10
124.8
 20
498.5
 30
0.0
  0
SEQEND
  5
B93
  8
DATA
 62
     7
  0
POLYLINE
  5
792
  8
DATA
 62
     7
 66
     1
 10
0.0
 20
0.0
 30
0.0
 70
     1
  0
VERTEX
  5
B94
  8
DATA
 62
     7
 10
293.30000000000001
 20
476.6862639396133
 30
0.0
  0
VERTEX
  5
B95
  8
DATA
 62
     7
 10
295.73676690783918
 20
478.09313196980662
 30
0.0
  0
VERTEX
  5
B96
  8
DATA
 62
     7
 10
295.73676690783918
 20
480.90686803019321
 30
0.0
  0
VERTEX
  5
B97
  8
DATA
 62
     7
 10
293.30000000000001
 20
482.31373606038659
 30
0.0
  0
VERTEX
  5
B98
  8
DATA
 62
     7
 10
290.86323309216078
 20
480.90686803019321
 30
0.0
  0
VERTEX
  5
B99
  8
DATA
 62
     7
 10
290.86323309216078
 20
478.09313196980662
 30
0.0
  0
SEQEND
  5
B9A
  8
DATA
 62
     7
  0
CIRCLE
  5
79A
  8
DATA
 62
     7
 10
293.30000000000001
 20
479.49999999999989
 30
0.0
 40
1.499999999999998
  0
POLYLINE
  5
79B
  8
DATA
 62
     7
 66
     1
 10
0.0
 20
0.0
 30
0.0
 70
     1
  0
VERTEX
  5
B9B
  8
DATA
 62
     7
 10
318.30000000000001
 20
476.6862639396133
 30
0.0
  0
VERTEX
  5
B9C
  8
DATA
 62
     7
 10
320.73676690783918
 20
478.09313196980662
 30
0.0
  0
VERTEX
  5
B9D
  8
DATA
 62
     7
 10
320.73676690783918
 20
480.90686803019321
 30
0.0
  0
VERTEX
  5
B9E
  8
DATA
 62
     7
 10
318.30000000000001
 20
482.31373606038659
 30
0.0
  0
VERTEX
  5
B9F
  8
DATA
 62
     7
 10
315.86323309216078
 20
480.90686803019321
 30
0.0
  0
VERTEX
  5
BA0
  8
DATA
 62
     7
 10
315.86323309216078
 20
478.09313196980662
 30
0.0
  0
SEQEND
  5
BA1
  8
DATA
 62
     7
  0
CIRCLE
  5
7A3
  8
DATA
 62
     7
 10
318.30000000000001
 20
479.49999999999989
 30
0.0
 40
1.499999999999998
  0
ARC
  5
7A4
  8
DATA
 62
     7
 10
300.2947735340901
 20
477.2751065681756
 30
0.0
 40
2.399999999999991
 50
179.99999999999989
 51
261.74056202012127
  0
ARC
  5
7A5
  8
DATA
 62
     7
 10
311.30522646590998
 20
477.2751065681756
 30
0.0
 40
2.399999999999995
 50
278.2594379798789
 51
0.0000000000001137
  0
LINE
  5
7A6
  8
DATA
 62
     7
 10
299.9500000000001
 20
474.89999999999992
 30
0.0
 11
311.65000000000009
 21
474.89999999999992
 31
0.0
  0
LINE
  5
7A7
  8
DATA
 62
     7
 10
298.71324766903462
 20
482.91348394223809
 30
0.0
 11
297.89477353409001
 21
477.2751065681756
 31
0.0
  0
ARC
  5
7A8
  8
DATA
 62
     7
 10
300.1360270398182
 20
482.77159491208897
 30
0.0
 40
1.429836925947904
 50
87.435648395548512
 51
174.30491362457209
  0
ARC
  5
7A9
  8
DATA
 62
     7
 10
311.46397296018171
 20
482.77159491208897
 30
0.0
 40
1.42983692594791
 50
5.695086375427552
 51
92.564351604451204
  0
LINE
  5
7AA
  8
DATA
 62
     7
 10
300.2000000000001
 20
484.19999999999987
 30
0.0
 11
311.39999999999998
 21
484.19999999999987
 31
0.0
  0
LINE
  5
7AB
  8
DATA
 62
     7
 10
312.88675233096541
 20
482.91348394223809
 30
0.0
 11
313.70522646591002
 21
477.2751065681756
 31
0.0
  0
CIRCLE
  5
7AC
  8
DATA
 62
     7
 10
305.80000000000001
 20
478.0
 30
0.0
 40
0.65
  0
CIRCLE
  5
7AD
  8
DATA
 62
     7
 10
308.30000000000001
 20
478.0
 30
0.0
 40
0.65
  0
CIRCLE
  5
7AE
  8
DATA
 62
     7
 10
310.80000000000001
 20
478.0
 30
0.0
 40
0.65
  0
CIRCLE
  5
7AF
  8
DATA
 62
     7
 10
303.30000000000001
 20
478.0
 30
0.0
 40
0.6500000000000031
  0
CIRCLE
  5
7B0
  8
DATA
 62
     7
 10
300.80000000000001
 20
478.0
 30
0.0
 40
0.6500000000000031
  0
CIRCLE
  5
7B1
  8
DATA
 62
     7
 10
307.05000000000001
 20
481.0
 30
0.0
 40
0.65
  0
CIRCLE
  5
7B2
  8
DATA
 62
     7
 10
309.55000000000001
 20
481.0
 30
0.0
 40
0.65
  0
CIRCLE
  5
7B3
  8
DATA
 62
     7
 10
304.55000000000001
 20
481.0
 30
0.0
 40
0.6500000000000031
  0
CIRCLE
  5
7B4
  8
DATA
 62
     7
 10
302.05000000000001
 20
481.0
 30
0.0
 40
0.6500000000000031
  0
TEXT
  5
7B5
  8
DATA
 62
     7
 10
310.4797277716886
 20
487.67828493020357
 30
0.0
 40
2.7999999999999998
  1
RS485
 50
180.0
 41
0.8
 11
310.4797277716886
 21
484.87828493020362
 31
0.0
 73
     3
  0
POLYLINE
  5
7B6
  8
DATA
 62
     7
 66
     1
 10
0.0
 20
0.0
 30
0.0
 70
     1
  0
VERTEX
  5
BA2
  8
DATA
 62
     7
 10
326.30000000000001
 20
493.18626393961341
 30
0.0
  0
VERTEX
  5
BA3
  8
DATA
 62
     7
 10
328.73676690783918
 20
494.59313196980662
 30
0.0
  0
VERTEX
  5
BA4
  8
DATA
 62
     7
 10
328.73676690783918
 20
497.40686803019321
 30
0.0
  0
VERTEX
  5
BA5
  8
DATA
 62
     7
 10
326.30000000000001
 20
498.81373606038659
 30
0.0
  0
VERTEX
  5
BA6
  8
DATA
 62
     7
 10
323.86323309216078
 20
497.40686803019321
 30
0.0
  0
VERTEX
  5
BA7
  8
DATA
 62
     7
 10
323.86323309216078
 20
494.59313196980662
 30
0.0
  0
SEQEND
  5
BA8
  8
DATA
 62
     7
  0
CIRCLE
  5
7BE
  8
DATA
 62
     7
 10
326.30000000000001
 20
496.0
 30
0.0
 40
1.5
  0
POLYLINE
  5
7BF
  8
DATA
 62
     7
 66
     1
 10
0.0
 20
0.0
 30
0.0
 70
     1
  0
VERTEX
  5
BA9
  8
DATA
 62
     7
 10
351.30000000000001
 20
493.18626393961341
 30
0.0
  0
VERTEX
  5
BAA
  8
DATA
 62
     7
 10
353.73676690783918
 20
494.59313196980662
 30
0.0
  0
VERTEX
  5
BAB
  8
DATA
 62
     7
 10
353.73676690783918
 20
497.40686803019321
 30
0.0
  0
VERTEX
  5
BAC
  8
DATA
 62
     7
 10
351.30000000000001
 20
498.81373606038659
 30
0.0
  0
VERTEX
  5
BAD
  8
DATA
 62
     7
 10
348.86323309216078
 20
497.40686803019321
 30
0.0
  0
VERTEX
  5
BAE
  8
DATA
 62
     7
 10
348.86323309216078
 20
494.59313196980662
 30
0.0
  0
SEQEND
  5
BAF
  8
DATA
 62
     7
  0
CIRCLE
  5
7C7
  8
DATA
 62
     7
 10
351.30000000000001
 20
496.0
 30
0.0
 40
1.5
  0
ARC
  5
7C8
  8
DATA
 62
     7
 10
333.2947735340901
 20
493.7751065681756
 30
0.0
 40
2.399999999999991
 50
179.99999999999989
 51
261.74056202012127
  0
ARC
  5
7C9
  8
DATA
 62
     7
 10
344.3052264659101
 20
493.7751065681756
 30
0.0
 40
2.399999999999995
 50
278.2594379798789
 51
0.0000000000001137
  0
LINE
  5
7CA
  8
DATA
 62
     7
 10
332.9500000000001
 20
491.39999999999992
 30
0.0
 11
344.65000000000009
 21
491.39999999999992
 31
0.0
  0
LINE
  5
7CB
  8
DATA
 62
     7
 10
331.71324766903462
 20
499.41348394223809
 30
0.0
 11
330.89477353409001
 21
493.7751065681756
 31
0.0
  0
ARC
  5
7CC
  8
DATA
 62
     7
 10
333.13602703981832
 20
499.27159491208897
 30
0.0
 40
1.429836925947904
 50
87.435648395548512
 51
174.30491362457241
  0
ARC
  5
7CD
  8
DATA
 62
     7
 10
344.46397296018171
 20
499.27159491208897
 30
0.0
 40
1.42983692594791
 50
5.695086375427552
 51
92.564351604451204
  0
LINE
  5
7CE
  8
DATA
 62
     7
 10
333.2000000000001
 20
500.69999999999987
 30
0.0
 11
344.39999999999998
 21
500.69999999999987
 31
0.0
  0
LINE
  5
7CF
  8
DATA
 62
     7
 10
345.88675233096541
 20
499.41348394223809
 30
0.0
 11
346.70522646591002
 21
493.7751065681756
 31
0.0
  0
CIRCLE
  5
7D0
  8
DATA
 62
     7
 10
338.80000000000001
 20
494.5
 30
0.0
 40
0.5000000000000023
  0
CIRCLE
  5
7D1
  8
DATA
 62
     7
 10
341.30000000000001
 20
494.5
 30
0.0
 40
0.5000000000000023
  0
CIRCLE
  5
7D2
  8
DATA
 62
     7
 10
343.80000000000001
 20
494.5
 30
0.0
 40
0.5000000000000023
  0
CIRCLE
  5
7D3
  8
DATA
 62
     7
 10
336.30000000000001
 20
494.5
 30
0.0
 40
0.4999999999999992
  0
CIRCLE
  5
7D4
  8
DATA
 62
     7
 10
333.80000000000001
 20
494.5
 30
0.0
 40
0.4999999999999992
  0
CIRCLE
  5
7D5
  8
DATA
 62
     7
 10
340.05000000000001
 20
497.5
 30
0.0
 40
0.5000000000000023
  0
CIRCLE
  5
7D6
  8
DATA
 62
     7
 10
342.55000000000001
 20
497.5
 30
0.0
 40
0.5000000000000023
  0
CIRCLE
  5
7D7
  8
DATA
 62
     7
 10
337.55000000000001
 20
497.5
 30
0.0
 40
0.4999999999999992
  0
CIRCLE
  5
7D8
  8
DATA
 62
     7
 10
335.05000000000001
 20
497.5
 30
0.0
 40
0.4999999999999992
  0
TEXT
  5
7D9
  8
DATA
 62
     7
 10
343.4797277716886
 20
504.6192571524258
 30
0.0
 40
2.7999999999999998
  1
RS232
 50
180.0
 41
0.8
 11
343.4797277716886
 21
501.81925715242591
 31
0.0
 73
     3
  0
POLYLINE
  5
7DA
  8
DATA
 62
     7
 66
     1
 10
0.0
 20
0.0
 30
0.0
 70
     1
  0
VERTEX
  5
BB0
  8
DATA
 62
     7
 10
326.30000000000001
 20
476.6862639396133
 30
0.0
  0
VERTEX
  5
BB1
  8
DATA
 62
     7
 10
328.73676690783918
 20
478.09313196980662
 30
0.0
  0
VERTEX
  5
BB2
  8
DATA
 62
     7
 10
328.73676690783918
 20
480.90686803019321
 30
0.0
  0
VERTEX
  5
BB3
  8
DATA
 62
     7
 10
326.30000000000001
 20
482.31373606038659
 30
0.0
  0
VERTEX
  5
BB4
  8
DATA
 62
     7
 10
323.86323309216078
 20
480.90686803019321
 30
0.0
  0
VERTEX
  5
BB5
  8
DATA
 62
     7
 10
323.86323309216078
 20
478.09313196980662
 30
0.0
  0
SEQEND
  5
BB6
  8
DATA
 62
     7
  0
CIRCLE
  5
7E2
  8
DATA
 62
     7
 10
326.30000000000001
 20
479.49999999999989
 30
0.0
 40
1.499999999999998
  0
POLYLINE
  5
7E3
  8
DATA
 62
     7
 66
     1
 10
0.0
 20
0.0
 30
0.0
 70
     1
  0
VERTEX
  5
BB7
  8
DATA
 62
     7
 10
351.30000000000001
 20
476.6862639396133
 30
0.0
  0
VERTEX
  5
BB8
  8
DATA
 62
     7
 10
353.73676690783918
 20
478.09313196980662
 30
0.0
  0
VERTEX
  5
BB9
  8
DATA
 62
     7
 10
353.73676690783918
 20
480.90686803019321
 30
0.0
  0
VERTEX
  5
BBA
  8
DATA
 62
     7
 10
351.30000000000001
 20
482.31373606038659
 30
0.0
  0
VERTEX
  5
BBB
  8
DATA
 62
     7
 10
348.86323309216078
 20
480.90686803019321
 30
0.0
  0
VERTEX
  5
BBC
  8
DATA
 62
     7
 10
348.86323309216078
 20
478.09313196980662
 30
0.0
  0
SEQEND
  5
BBD
  8
DATA
 62
     7
  0
CIRCLE
  5
7EB
  8
DATA
 62
     7
 10
351.30000000000001
 20
479.49999999999989
 30
0.0
 40
1.499999999999998
  0
ARC
  5
7EC
  8
DATA
 62
     7
 10
333.2947735340901
 20
477.2751065681756
 30
0.0
 40
2.399999999999991
 50
179.99999999999989
 51
261.74056202012127
  0
ARC
  5
7ED
  8
DATA
 62
     7
 10
344.3052264659101
 20
477.2751065681756
 30
0.0
 40
2.399999999999995
 50
278.2594379798789
 51
0.0000000000001137
  0
LINE
  5
7EE
  8
DATA
 62
     7
 10
332.9500000000001
 20
474.89999999999992
 30
0.0
 11
344.65000000000009
 21
474.89999999999992
 31
0.0
  0
LINE
  5
7EF
  8
DATA
 62
     7
 10
331.71324766903462
 20
482.91348394223809
 30
0.0
 11
330.89477353409001
 21
477.2751065681756
 31
0.0
  0
ARC
  5
7F0
  8
DATA
 62
     7
 10
333.13602703981832
 20
482.77159491208897
 30
0.0
 40
1.429836925947904
 50
87.435648395548512
 51
174.30491362457209
  0
ARC
  5
7F1
  8
DATA
 62
     7
 10
344.46397296018171
 20
482.77159491208897
 30
0.0
 40
1.42983692594791
 50
5.695086375427552
 51
92.564351604451204
  0
LINE
  5
7F2
  8
DATA
 62
     7
 10
333.2000000000001
 20
484.19999999999987
 30
0.0
 11
344.39999999999998
 21
484.19999999999987
 31
0.0
  0
LINE
  5
7F3
  8
DATA
 62
     7
 10
345.88675233096541
 20
482.91348394223809
 30
0.0
 11
346.70522646591002
 21
477.2751065681756
 31
0.0
  0
CIRCLE
  5
7F4
  8
DATA
 62
     7
 10
338.80000000000001
 20
478.0
 30
0.0
 40
0.65
  0
CIRCLE
  5
7F5
  8
DATA
 62
     7
 10
341.30000000000001
 20
478.0
 30
0.0
 40
0.65
  0
CIRCLE
  5
7F6
  8
DATA
 62
     7
 10
343.80000000000001
 20
478.0
 30
0.0
 40
0.65
  0
CIRCLE
  5
7F7
  8
DATA
 62
     7
 10
336.30000000000001
 20
478.0
 30
0.0
 40
0.6500000000000031
  0
CIRCLE
  5
7F8
  8
DATA
 62
     7
 10
333.80000000000001
 20
478.0
 30
0.0
 40
0.6500000000000031
  0
CIRCLE
  5
7F9
  8
DATA
 62
     7
 10
340.05000000000001
 20
481.0
 30
0.0
 40
0.65
  0
CIRCLE
  5
7FA
  8
DATA
 62
     7
 10
342.55000000000001
 20
481.0
 30
0.0
 40
0.65
  0
CIRCLE
  5
7FB
  8
DATA
 62
     7
 10
337.55000000000001
 20
481.0
 30
0.0
 40
0.6500000000000031
  0
CIRCLE
  5
7FC
  8
DATA
 62
     7
 10
335.05000000000001
 20
481.0
 30
0.0
 40
0.6500000000000031
  0
TEXT
  5
7FD
  8
DATA
 62
     7
 10
343.4797277716886
 20
487.67828493020357
 30
0.0
 40
2.7999999999999998
  1
RS485
 50
180.0
 41
0.8
 11
343.4797277716886
 21
484.87828493020362
 31
0.0
 73
     3
  0
LINE
  5
7FE
  8
DATA
 62
     7
 10
406.30000000000001
 20
497.75
 30
0.0
 11
428.30000000000001
 21
497.75
 31
0.0
  0
LINE
  5
7FF
  8
DATA
 62
     7
 10
432.30000000000001
 20
493.75
 30
0.0
 11
432.30000000000001
 21
480.25
 31
0.0
  0
LINE
  5
800
  8
DATA
 62
     7
 10
402.30000000000001
 20
493.75
 30
0.0
 11
402.30000000000001
 21
480.25
 31
0.0
  0
LINE
  5
801
  8
DATA
 62
     7
 10
406.30000000000001
 20
476.25
 30
0.0
 11
428.30000000000001
 21
476.25
 31
0.0
  0
ARC
  5
802
  8
DATA
 62
     7
 10
406.30000000000001
 20
493.75
 30
0.0
 40
4.0
 50
90.0
 51
180.0
  0
ARC
  5
803
  8
DATA
 62
     7
 10
428.30000000000001
 20
493.75
 30
0.0
 40
4.0
 50
0.0
 51
90.0
  0
ARC
  5
804
  8
DATA
 62
     7
 10
428.30000000000001
 20
480.25
 30
0.0
 40
4.0
 50
270.0
 51
0.0
  0
ARC
  5
805
  8
DATA
 62
     7
 10
406.30000000000001
 20
480.25
 30
0.0
 40
4.0
 50
180.0
 51
270.0
  0
LINE
  5
806
  8
DATA
 62
     7
 10
429.39999999999992
 20
480.89999999999998
 30
0.0
 11
429.39999999999992
 21
490.05121951219479
 31
0.0
  0
LINE
  5
807
  8
DATA
 62
     7
 10
424.39999999999992
 20
495.10000000000002
 30
0.0
 11
410.2000000000001
 21
495.10000000000002
 31
0.0
  0
LINE
  5
808
  8
DATA
 62
     7
 10
405.19999999999987
 20
490.05121951219479
 30
0.0
 11
405.19999999999987
 21
480.89999999999998
 31
0.0
  0
LINE
  5
809
  8
DATA
 62
     7
 10
407.19999999999999
 20
478.89999999999992
 30
0.0
 11
427.39999999999998
 21
478.89999999999992
 31
0.0
  0
LINE
  5
80A
  8
DATA
 62
     7
 10
410.2000000000001
 20
495.10000000000002
 30
0.0
 11
405.19999999999987
 21
490.05121951219479
 31
0.0
  0
LINE
  5
80B
  8
DATA
 62
     7
 10
424.39999999999992
 20
495.10000000000002
 30
0.0
 11
429.39999999999992
 21
490.05121951219479
 31
0.0
  0
POLYLINE
  5
80C
  8
DATA
 62
     7
 66
     1
 10
0.0
 20
0.0
 30
0.0
 70
     1
  0
VERTEX
  5
BBE
  8
DATA
 62
     7
 10
416.30000000000001
 20
490.60000000000002
 30
0.0
  0
VERTEX
  5
BBF
  8
DATA
 62
     7
 10
418.2999999999999
 20
490.60000000000002
 30
0.0
  0
VERTEX
  5
BC0
  8
DATA
 62
     7
 10
418.2999999999999
 20
486.60000000000002
 30
0.0
  0
VERTEX
  5
BC1
  8
DATA
 62
     7
 10
416.30000000000001
 20
486.60000000000002
 30
0.0
  0
SEQEND
  5
BC2
  8
DATA
 62
     7
  0
POLYLINE
  5
812
  8
DATA
 62
     7
 66
     1
 10
0.0
 20
0.0
 30
0.0
 70
     1
  0
VERTEX
  5
BC3
  8
DATA
 62
     7
 10
423.30000000000001
 20
486.60000000000002
 30
0.0
  0
VERTEX
  5
BC4
  8
DATA
 62
     7
 10
425.30000000000001
 20
486.60000000000002
 30
0.0
  0
VERTEX
  5
BC5
  8
DATA
 62
     7
 10
425.30000000000001
 20
482.60000000000002
 30
0.0
  0
VERTEX
  5
BC6
  8
DATA
 62
     7
 10
423.30000000000001
 20
482.60000000000002
 30
0.0
  0
SEQEND
  5
BC7
  8
DATA
 62
     7
  0
POLYLINE
  5
818
  8
DATA
 62
     7
 66
     1
 10
0.0
 20
0.0
 30
0.0
 70
     1
  0
VERTEX
  5
BC8
  8
DATA
 62
     7
 10
409.2999999999999
 20
486.60000000000002
 30
0.0
  0
VERTEX
  5
BC9
  8
DATA
 62
     7
 10
411.30000000000001
 20
486.60000000000002
 30
0.0
  0
VERTEX
  5
BCA
  8
DATA
 62
     7
 10
411.30000000000001
 20
482.60000000000002
 30
0.0
  0
VERTEX
  5
BCB
  8
DATA
 62
     7
 10
409.2999999999999
 20
482.60000000000002
 30
0.0
  0
SEQEND
  5
BCC
  8
DATA
 62
     7
  0
CIRCLE
  5
81E
  8
DATA
 62
     7
 10
437.30000000000001
 20
487.0
 30
0.0
 40
2.9999999999999929
  0
POLYLINE
  5
81F
  8
DATA
 62
     7
 66
     1
 10
0.0
 20
0.0
 30
0.0
  0
VERTEX
  5
BCD
  8
DATA
 62
     7
 10
437.80000000000001
 20
487.5
 30
0.0
  0
VERTEX
  5
BCE
  8
DATA
 62
     7
 10
437.80000000000001
 20
488.49999999999989
 30
0.0
  0
VERTEX
  5
BCF
  8
DATA
 62
     7
 10
436.80000000000001
 20
488.49999999999989
 30
0.0
  0
VERTEX
  5
BD0
  8
DATA
 62
     7
 10
436.80000000000001
 20
487.5
 30
0.0
  0
SEQEND
  5
BD1
  8
DATA
 62
     7
  0
POLYLINE
  5
825
  8
DATA
 62
     7
 66
     1
 10
0.0
 20
0.0
 30
0.0
  0
VERTEX
  5
BD2
  8
DATA
 62
     7
 10
437.80000000000001
 20
486.5
 30
0.0
  0
VERTEX
  5
BD3
  8
DATA
 62
     7
 10
437.80000000000001
 20
485.5
 30
0.0
  0
VERTEX
  5
BD4
  8
DATA
 62
     7
 10
436.80000000000001
 20
485.5
 30
0.0
  0
VERTEX
  5
BD5
  8
DATA
 62
     7
 10
436.80000000000001
 20
486.5
 30
0.0
  0
SEQEND
  5
BD6
  8
DATA
 62
     7
  0
CIRCLE
  5
82B
  8
DATA
 62
     7
 10
437.30000000000001
 20
487.0
 30
0.0
 40
2.999999999999996
  0
POLYLINE
  5
82C
  8
DATA
 62
     7
 66
     1
 10
0.0
 20
0.0
 30
0.0
  0
VERTEX
  5
BD7
  8
DATA
 62
     7
 10
437.80000000000001
 20
486.5
 30
0.0
  0
VERTEX
  5
BD8
  8
DATA
 62
     7
 10
438.7999999999999
 20
486.5
 30
0.0
  0
VERTEX
  5
BD9
  8
DATA
 62
     7
 10
438.7999999999999
 20
487.5
 30
0.0
  0
VERTEX
  5
BDA
  8
DATA
 62
     7
 10
437.80000000000001
 20
487.5
 30
0.0
  0
SEQEND
  5
BDB
  8
DATA
 62
     7
  0
POLYLINE
  5
832
  8
DATA
 62
     7
 66
     1
 10
0.0
 20
0.0
 30
0.0
  0
VERTEX
  5
BDC
  8
DATA
 62
     7
 10
436.80000000000001
 20
486.5
 30
0.0
  0
VERTEX
  5
BDD
  8
DATA
 62
     7
 10
435.80000000000001
 20
486.5
 30
0.0
  0
VERTEX
  5
BDE
  8
DATA
 62
     7
 10
435.80000000000001
 20
487.5
 30
0.0
  0
VERTEX
  5
BDF
  8
DATA
 62
     7
 10
436.80000000000001
 20
487.5
 30
0.0
  0
SEQEND
  5
BE0
  8
DATA
 62
     7
  0
CIRCLE
  5
838
  8
DATA
 62
     7
 10
397.30000000000001
 20
487.0
 30
0.0
 40
2.999999999999996
  0
POLYLINE
  5
839
  8
DATA
 62
     7
 66
     1
 10
0.0
 20
0.0
 30
0.0
  0
VERTEX
  5
BE1
  8
DATA
 62
     7
 10
397.80000000000001
 20
487.5
 30
0.0
  0
VERTEX
  5
BE2
  8
DATA
 62
     7
 10
397.80000000000001
 20
488.49999999999989
 30
0.0
  0
VERTEX
  5
BE3
  8
DATA
 62
     7
 10
396.80000000000001
 20
488.49999999999989
 30
0.0
  0
VERTEX
  5
BE4
  8
DATA
 62
     7
 10
396.80000000000001
 20
487.5
 30
0.0
  0
SEQEND
  5
BE5
  8
DATA
 62
     7
  0
POLYLINE
  5
83F
  8
DATA
 62
     7
 66
     1
 10
0.0
 20
0.0
 30
0.0
  0
VERTEX
  5
BE6
  8
DATA
 62
     7
 10
397.80000000000001
 20
486.5
 30
0.0
  0
VERTEX
  5
BE7
  8
DATA
 62
     7
 10
397.80000000000001
 20
485.5
 30
0.0
  0
VERTEX
  5
BE8
  8
DATA
 62
     7
 10
396.80000000000001
 20
485.5
 30
0.0
  0
VERTEX
  5
BE9
  8
DATA
 62
     7
 10
396.80000000000001
 20
486.5
 30
0.0
  0
SEQEND
  5
BEA
  8
DATA
 62
     7
  0
CIRCLE
  5
845
  8
DATA
 62
     7
 10
397.30000000000001
 20
487.0
 30
0.0
 40
2.9999999999999929
  0
POLYLINE
  5
846
  8
DATA
 62
     7
 66
     1
 10
0.0
 20
0.0
 30
0.0
  0
VERTEX
  5
BEB
  8
DATA
 62
     7
 10
397.80000000000001
 20
486.5
 30
0.0
  0
VERTEX
  5
BEC
  8
DATA
 62
     7
 10
398.80000000000001
 20
486.5
 30
0.0
  0
VERTEX
  5
BED
  8
DATA
 62
     7
 10
398.80000000000001
 20
487.5
 30
0.0
  0
VERTEX
  5
BEE
  8
DATA
 62
     7
 10
397.80000000000001
 20
487.5
 30
0.0
  0
SEQEND
  5
BEF
  8
DATA
 62
     7
  0
POLYLINE
  5
84C
  8
DATA
 62
     7
 66
     1
 10
0.0
 20
0.0
 30
0.0
  0
VERTEX
  5
BF0
  8
DATA
 62
     7
 10
396.80000000000001
 20
486.5
 30
0.0
  0
VERTEX
  5
BF1
  8
DATA
 62
     7
 10
395.80000000000001
 20
486.5
 30
0.0
  0
VERTEX
  5
BF2
  8
DATA
 62
     7
 10
395.80000000000001
 20
487.5
 30
0.0
  0
VERTEX
  5
BF3
  8
DATA
 62
     7
 10
396.80000000000001
 20
487.5
 30
0.0
  0
SEQEND
  5
BF4
  8
DATA
 62
     7
  0
LINE
  5
852
  8
DATA
 62
     7
 10
458.30000000000001
 20
186.94999999999999
 30
0.0
 11
458.49999999999989
 21
186.94999999999999
 31
0.0
  0
LINE
  5
853
  8
DATA
 62
     7
 10
459.0
 20
186.4499999999999
 30
0.0
 11
459.0
 21
180.75
 31
0.0
  0
LINE
  5
854
  8
DATA
 62
     7
 10
458.30000000000001
 20
180.25
 30
0.0
 11
458.49999999999989
 21
180.25
 31
0.0
  0
ARC
  5
855
  8
DATA
 62
     7
 10
458.49999999999989
 20
186.4499999999999
 30
0.0
 40
0.5
 50
0.0
 51
90.0
  0
ARC
  5
856
  8
DATA
 62
     7
 10
458.49999999999989
 20
180.75
 30
0.0
 40
0.5
 50
270.0
 51
0.0
  0
LINE
  5
857
  8
DATA
 62
     7
 10
457.30000000000001
 20
503.84999999999991
 30
0.0
 11
457.30000000000001
 21
497.14999999999992
 31
0.0
  0
LINE
  5
858
  8
DATA
 62
     7
 10
457.30000000000001
 20
503.84999999999991
 30
0.0
 11
458.30000000000001
 21
503.84999999999991
 31
0.0
  0
LINE
  5
859
  8
DATA
 62
     7
 10
458.80000000000001
 20
503.35000000000002
 30
0.0
 11
458.80000000000001
 21
497.64999999999992
 31
0.0
  0
LINE
  5
85A
  8
DATA
 62
     7
 10
458.30000000000001
 20
497.14999999999992
 30
0.0
 11
457.30000000000001
 21
497.14999999999992
 31
0.0
  0
ARC
  5
85B
  8
DATA
 62
     7
 10
458.30000000000001
 20
503.35000000000002
 30
0.0
 40
0.5
 50
0.0
 51
90.0
  0
ARC
  5
85C
  8
DATA
 62
     7
 10
458.30000000000001
 20
497.64999999999992
 30
0.0
 40
0.5
 50
270.0
 51
0.0
  0
ARC
  5
85D
  8
DATA
 62
     7
 10
526.90006364118767
 20
35.0
 30
0.0
 40
2.5
 50
180.0
 51
270.0
  0
ARC
  5
85E
  8
DATA
 62
     7
 10
564.60000000503805
 20
35.0
 30
0.0
 40
2.5
 50
270.00000047464192
 51
359.99636254637687
  0
ARC
  5
85F
  8
DATA
 62
     7
 10
612.60000005160794
 20
35.0
 30
0.0
 40
2.5
 50
180.00363804372691
 51
270.0000008235869
  0
LINE
  5
860
  8
DATA
 62
     7
 10
457.30000000000001
 20
479.85000000000002
 30
0.0
 11
457.30000000000001
 21
473.14999999999992
 31
0.0
  0
LINE
  5
861
  8
DATA
 62
     7
 10
457.30000000000001
 20
479.85000000000002
 30
0.0
 11
458.30000000000001
 21
479.85000000000002
 31
0.0
  0
LINE
  5
862
  8
DATA
 62
     7
 10
458.80000000000001
 20
479.35000000000002
 30
0.0
 11
458.80000000000001
 21
476.49999999999989
 31
0.0
  0
ARC
  5
863
  8
DATA
 62
     7
 10
458.30000000000001
 20
479.35000000000002
 30
0.0
 40
0.5
 50
0.0
 51
90.0
  0
LINE
  5
864
  8
DATA
 62
     7
 10
458.30000000000001
 20
119.40000000000001
 30
0.0
 11
458.30000000000001
 21
113.40000000000001
 31
0.0
  0
LINE
  5
865
  8
DATA
 62
     7
 10
458.30000000000001
 20
119.40000000000001
 30
0.0
 11
459.2999999999999
 21
119.40000000000001
 31
0.0
  0
LINE
  5
866
  8
DATA
 62
     7
 10
460.80000000000001
 20
117.90000000000001
 30
0.0
 11
460.80000000000001
 21
114.90000000000001
 31
0.0
  0
LINE
  5
867
  8
DATA
 62
     7
 10
459.2999999999999
 20
113.40000000000001
 30
0.0
 11
458.30000000000001
 21
113.40000000000001
 31
0.0
  0
ARC
  5
868
  8
DATA
 62
     7
 10
459.2999999999999
 20
117.90000000000001
 30
0.0
 40
1.5
 50
0.0
 51
90.0
  0
ARC
  5
869
  8
DATA
 62
     7
 10
459.2999999999999
 20
114.90000000000001
 30
0.0
 40
1.5
 50
270.0
 51
0.0
  0
LINE
  5
86A
  8
DATA
 62
     7
 10
24.300000000000011
 20
118.75
 30
0.0
 11
24.300000000000011
 21
112.45
 31
0.0
  0
LINE
  5
86B
  8
DATA
 62
     7
 10
24.300000000000011
 20
119.40000000000001
 30
0.0
 11
24.300000000000011
 21
113.40000000000001
 31
0.0
  0
LINE
  5
86C
  8
DATA
 62
     7
 10
24.300000000000011
 20
119.40000000000001
 30
0.0
 11
23.300000000000011
 21
119.40000000000001
 31
0.0
  0
LINE
  5
86D
  8
DATA
 62
     7
 10
21.800000000000011
 20
117.90000000000001
 30
0.0
 11
21.800000000000011
 21
114.90000000000001
 31
0.0
  0
LINE
  5
86E
  8
DATA
 62
     7
 10
23.300000000000011
 20
113.40000000000001
 30
0.0
 11
24.300000000000011
 21
113.40000000000001
 31
0.0
  0
ARC
  5
86F
  8
DATA
 62
     7
 10
23.300000000000011
 20
117.90000000000001
 30
0.0
 40
1.5
 50
90.0
 51
180.0
  0
ARC
  5
870
  8
DATA
 62
     7
 10
23.300000000000011
 20
114.90000000000001
 30
0.0
 40
1.5
 50
180.0
 51
270.0
  0
TEXT
  5
871
  8
DATA
 62
     7
 10
34.604000000000021
 20
474.80000000000001
 30
0.0
 40
1.6000000000000001
  1
PIN 1
 50
180.0
 41
0.8
 72
     1
 11
32.300000000000011
 21
474.0
 31
0.0
 73
     2
  0
TEXT
  5
872
  8
DATA
 62
     7
 10
35.926666666666677
 20
476.7999999999999
 30
0.0
 40
1.6000000000000001
  1
GROUND
 50
180.0
 41
0.8
 72
     1
 11
32.300000000000011
 21
476.0
 31
0.0
 73
     2
  0
TEXT
  5
873
  8
DATA
 62
     7
 10
35.713333333333352
 20
478.80000000000001
 30
0.0
 40
1.6000000000000001
  1
LIFTED
 50
180.0
 41
0.8
 72
     1
 11
32.300000000000011
 21
478.0
 31
0.0
 73
     2
  0
LINE
  5
874
  8
DATA
 62
     7
 10
35.933978410912921
 20
479.64711431702989
 30
0.0
 11
28.666025403784431
 21
479.64711431702989
 31
0.0
  0
LINE
  5
875
  8
DATA
 62
     7
 10
32.733008887194963
 20
472.60287907572041
 30
0.0
 11
32.885845831275212
 21
472.86760042814097
 31
0.0
  0
LINE
  5
876
  8
DATA
 62
     7
 10
35.19524690803371
 20
476.86760042814097
 30
0.0
 11
36.366987298107851
 21
478.89711431702989
 31
0.0
  0
ARC
  5
877
  8
DATA
 62
     7
 10
32.299999999999947
 20
472.85288568297
 30
0.0
 40
0.4999999999999953
 50
210.00000000000131
 51
329.99999999999829
  0
ARC
  5
878
  8
DATA
 62
     7
 10
35.933974596215648
 20
479.14711431703
 30
0.0
 40
0.4999999999999427
 50
329.99999999999619
 51
90.000000000006494
  0
ARC
  5
879
  8
DATA
 62
     7
 10
28.666025403784431
 20
479.14711431703
 30
0.0
 40
0.5
 50
90.0
 51
210.00000000000159
  0
LINE
  5
87A
  8
DATA
 62
     7
 10
31.866987298107752
 20
472.60288568297
 30
0.0
 11
31.71415416872475
 21
472.86760042814097
 31
0.0
  0
LINE
  5
87B
  8
DATA
 62
     7
 10
29.40475309196632
 20
476.86760042814097
 30
0.0
 11
28.233012701892221
 21
478.89711431702989
 31
0.0
  0
LINE
  5
87C
  8
DATA
 62
     7
 10
192.30000000000001
 20
473.5
 30
0.0
 11
240.30000000000001
 21
473.5
 31
0.0
  0
LINE
  5
87D
  8
DATA
 62
     7
 10
241.30000000000001
 20
474.5
 30
0.0
 11
241.30000000000001
 21
476.49999999999989
 31
0.0
  0
ARC
  5
87E
  8
DATA
 62
     7
 10
240.30000000000001
 20
474.5
 30
0.0
 40
1.0
 50
270.0
 51
0.0
  0
ARC
  5
87F
  8
DATA
 62
     7
 10
407.19999999999999
 20
480.89999999999998
 30
0.0
 40
2.0
 50
180.0
 51
270.0
  0
ARC
  5
880
  8
DATA
 62
     7
 10
427.39999999999998
 20
480.89999999999998
 30
0.0
 40
2.0
 50
270.0
 51
0.0
  0
LINE
  5
881
  8
DATA
 62
     7
 10
383.80000000000001
 20
381.10000000000002
 30
0.0
 11
383.80000000000001
 21
380.60000000000002
 31
0.0
  0
LINE
  5
882
  8
DATA
 62
     7
 10
370.80000000000001
 20
381.10000000000002
 30
0.0
 11
370.80000000000001
 21
380.60000000000002
 31
0.0
  0
LINE
  5
883
  8
DATA
 62
     7
 10
24.300000000000011
 20
376.75
 30
0.0
 11
24.300000000000011
 21
370.4500000000001
 31
0.0
  0
LINE
  5
884
  8
DATA
 62
     7
 10
370.80000000000001
 20
381.10000000000002
 30
0.0
 11
383.80000000000001
 21
381.10000000000002
 31
0.0
  0
LINE
  5
885
  8
DATA
 62
     7
 10
353.73676690783918
 20
384.10000000000002
 30
0.0
 11
353.73676690783918
 21
380.60000000000002
 31
0.0
  0
LINE
  5
886
  8
DATA
 62
     7
 10
348.86323309216078
 20
384.10000000000002
 30
0.0
 11
348.86323309216078
 21
380.60000000000002
 31
0.0
  0
LINE
  5
887
  8
DATA
 62
     7
 10
346.70522646591002
 20
384.10000000000002
 30
0.0
 11
346.70522646591002
 21
380.60000000000002
 31
0.0
  0
LINE
  5
888
  8
DATA
 62
     7
 10
330.89477353409001
 20
384.10000000000002
 30
0.0
 11
330.89477353409001
 21
380.60000000000002
 31
0.0
  0
LINE
  5
889
  8
DATA
 62
     7
 10
328.73676690783918
 20
384.10000000000002
 30
0.0
 11
328.73676690783918
 21
380.60000000000002
 31
0.0
  0
LINE
  5
88A
  8
DATA
 62
     7
 10
323.86323309216078
 20
384.10000000000002
 30
0.0
 11
323.86323309216078
 21
380.60000000000002
 31
0.0
  0
LINE
  5
88B
  8
DATA
 62
     7
 10
320.73676690783918
 20
384.10000000000002
 30
0.0
 11
320.73676690783918
 21
380.60000000000002
 31
0.0
  0
LINE
  5
88C
  8
DATA
 62
     7
 10
315.86323309216078
 20
384.10000000000002
 30
0.0
 11
315.86323309216078
 21
380.60000000000002
 31
0.0
  0
LINE
  5
88D
  8
DATA
 62
     7
 10
313.70522646591002
 20
384.10000000000002
 30
0.0
 11
313.70522646591002
 21
380.60000000000002
 31
0.0
  0
LINE
  5
88E
  8
DATA
 62
     7
 10
297.89477353409001
 20
384.10000000000002
 30
0.0
 11
297.89477353409001
 21
380.60000000000002
 31
0.0
  0
LINE
  5
88F
  8
DATA
 62
     7
 10
295.73676690783918
 20
384.10000000000002
 30
0.0
 11
295.73676690783918
 21
380.60000000000002
 31
0.0
  0
LINE
  5
890
  8
DATA
 62
     7
 10
290.86323309216078
 20
384.10000000000002
 30
0.0
 11
290.86323309216078
 21
380.60000000000002
 31
0.0
  0
LINE
  5
891
  8
DATA
 62
     7
 10
290.86323309216078
 20
384.10000000000002
 30
0.0
 11
295.73676690783918
 21
384.10000000000002
 31
0.0
  0
LINE
  5
892
  8
DATA
 62
     7
 10
297.89477353409001
 20
384.10000000000002
 30
0.0
 11
313.70522646591002
 21
384.10000000000002
 31
0.0
  0
LINE
  5
893
  8
DATA
 62
     7
 10
315.86323309216078
 20
384.10000000000002
 30
0.0
 11
320.73676690783918
 21
384.10000000000002
 31
0.0
  0
LINE
  5
894
  8
DATA
 62
     7
 10
323.86323309216078
 20
384.10000000000002
 30
0.0
 11
328.73676690783918
 21
384.10000000000002
 31
0.0
  0
LINE
  5
895
  8
DATA
 62
     7
 10
330.89477353409001
 20
384.10000000000002
 30
0.0
 11
346.70522646591002
 21
384.10000000000002
 31
0.0
  0
LINE
  5
896
  8
DATA
 62
     7
 10
348.86323309216078
 20
384.10000000000002
 30
0.0
 11
353.73676690783918
 21
384.10000000000002
 31
0.0
  0
LINE
  5
897
  8
DATA
 62
     7
 10
38.298061506798383
 20
384.60000000000002
 30
0.0
 11
38.298061506798383
 21
384.10000000000002
 31
0.0
  0
LINE
  5
898
  8
DATA
 62
     7
 10
48.297729657914658
 20
384.60000000000002
 30
0.0
 11
48.297729657914658
 21
384.10000000000002
 31
0.0
  0
LINE
  5
899
  8
DATA
 62
     7
 10
61.300000000000011
 20
384.60000000000002
 30
0.0
 11
61.300000000000011
 21
384.10000000000002
 31
0.0
  0
LINE
  5
89A
  8
DATA
 62
     7
 10
71.300000000000026
 20
384.60000000000002
 30
0.0
 11
71.300000000000026
 21
384.10000000000002
 31
0.0
  0
LINE
  5
89B
  8
DATA
 62
     7
 10
94.297729657914715
 20
384.60000000000002
 30
0.0
 11
94.297729657914715
 21
384.10000000000002
 31
0.0
  0
LINE
  5
89C
  8
DATA
 62
     7
 10
84.300000000000026
 20
384.60000000000002
 30
0.0
 11
84.300000000000026
 21
384.10000000000002
 31
0.0
  0
LINE
  5
89D
  8
DATA
 62
     7
 10
38.298061506798383
 20
384.60000000000002
 30
0.0
 11
48.297729657914658
 21
384.60000000000002
 31
0.0
  0
LINE
  5
89E
  8
DATA
 62
     7
 10
61.300000000000011
 20
384.60000000000002
 30
0.0
 11
71.300000000000026
 21
384.60000000000002
 31
0.0
  0
LINE
  5
89F
  8
DATA
 62
     7
 10
84.300000000000026
 20
384.60000000000002
 30
0.0
 11
94.297729657914715
 21
384.60000000000002
 31
0.0
  0
LINE
  5
8A0
  8
DATA
 62
     7
 10
38.298061506798383
 20
384.10000000000002
 30
0.0
 11
48.297729657914658
 21
384.10000000000002
 31
0.0
  0
LINE
  5
8A1
  8
DATA
 62
     7
 10
61.300000000000011
 20
384.10000000000002
 30
0.0
 11
71.300000000000026
 21
384.10000000000002
 31
0.0
  0
LINE
  5
8A2
  8
DATA
 62
     7
 10
84.300000000000026
 20
384.10000000000002
 30
0.0
 11
94.297729657914715
 21
384.10000000000002
 31
0.0
  0
LINE
  5
8A3
  8
DATA
 62
     7
 10
40.799999999999997
 20
384.10000000000002
 30
0.0
 11
40.799999999999997
 21
380.60000000000002
 31
0.0
  0
LINE
  5
8A4
  8
DATA
 62
     7
 10
45.799999999999997
 20
384.10000000000002
 30
0.0
 11
45.799999999999997
 21
380.60000000000002
 31
0.0
  0
LINE
  5
8A5
  8
DATA
 62
     7
 10
63.800000000000011
 20
384.10000000000002
 30
0.0
 11
63.800000000000011
 21
380.60000000000002
 31
0.0
  0
LINE
  5
8A6
  8
DATA
 62
     7
 10
68.800000000000011
 20
384.10000000000002
 30
0.0
 11
68.800000000000011
 21
380.60000000000002
 31
0.0
  0
LINE
  5
8A7
  8
DATA
 62
     7
 10
86.800000000000026
 20
384.10000000000002
 30
0.0
 11
86.800000000000026
 21
380.60000000000002
 31
0.0
  0
LINE
  5
8A8
  8
DATA
 62
     7
 10
91.799999999999983
 20
384.10000000000002
 30
0.0
 11
91.799999999999983
 21
380.60000000000002
 31
0.0
  0
LINE
  5
8A9
  8
DATA
 62
     7
 10
803.59999999999968
 20
37.0
 30
0.0
 11
803.59999999999968
 21
29.424038412485402
 31
0.0
  0
LINE
  5
8AA
  8
DATA
 62
     7
 10
803.59999999999968
 20
31.288675134594708
 30
0.0
 11
803.0999999999998
 21
31.288675134594708
 31
0.0
  0
LINE
  5
8AB
  8
DATA
 62
     7
 10
803.0999999999998
 20
37.0
 30
0.0
 11
803.0999999999998
 21
30.5
 31
0.0
  0
LINE
  5
8AC
  8
DATA
 62
     7
 10
803.0999999999998
 20
37.0
 30
0.0
 11
803.59999999999968
 21
37.0
 31
0.0
  0
LINE
  5
8AD
  8
DATA
 62
     7
 10
803.0999999999998
 20
34.100000000000023
 30
0.0
 11
798.59999999999968
 21
34.100000000000023
 31
0.0
  0
LINE
  5
8AE
  8
DATA
 62
     7
 10
803.0999999999998
 20
24.800000000000011
 30
0.0
 11
800.19999999998845
 21
24.800000000000011
 31
0.0
  0
LINE
  5
8AF
  8
DATA
 62
     7
 10
803.0999999999998
 20
34.100000000000023
 30
0.0
 11
803.0999999999998
 21
24.800000000000011
 31
0.0
  0
LINE
  5
8B0
  8
DATA
 62
     7
 10
803.0999999999998
 20
32.313736060386653
 30
0.0
 11
798.59999999999968
 21
32.313736060386653
 31
0.0
  0
LINE
  5
8B1
  8
DATA
 62
     7
 10
803.0999999999998
 20
17.600000000000019
 30
0.0
 11
798.59999999999968
 21
17.600000000000019
 31
0.0
  0
LINE
  5
8B2
  8
DATA
 62
     7
 10
803.0999999999998
 20
8.3000000000000114
 30
0.0
 11
798.59999999999968
 21
8.3000000000000114
 31
0.0
  0
LINE
  5
8B3
  8
DATA
 62
     7
 10
803.0999999999998
 20
17.600000000000019
 30
0.0
 11
803.0999999999998
 21
8.3000000000000114
 31
0.0
  0
LINE
  5
8B4
  8
DATA
 62
     7
 10
803.0999999999998
 20
15.81373606038664
 30
0.0
 11
798.59999999999968
 21
15.81373606038664
 31
0.0
  0
LINE
  5
8B5
  8
DATA
 62
     7
 10
803.0999999999998
 20
26.686263939613362
 30
0.0
 11
798.74400310988813
 21
26.686263939613362
 31
0.0
  0
LINE
  5
8B6
  8
DATA
 62
     7
 10
803.59999999999968
 20
30.5
 30
0.0
 11
803.0999999999998
 21
30.5
 31
0.0
  0
LINE
  5
8B7
  8
DATA
 62
     7
 10
803.59999999999968
 20
29.424038412485402
 30
0.0
 11
803.0999999999998
 21
29.424038412485402
 31
0.0
  0
LINE
  5
8B8
  8
DATA
 62
     7
 10
803.0999999999998
 20
10.186263939613349
 30
0.0
 11
798.59999999999968
 21
10.186263939613349
 31
0.0
  0
LINE
  5
8B9
  8
DATA
 62
     7
 10
798.59999999999968
 20
25.0
 30
0.0
 11
798.59999999999968
 21
19.0
 31
0.0
  0
LINE
  5
8BA
  8
DATA
 62
     7
 10
798.59999999999968
 20
25.0
 30
0.0
 11
799.59999999999968
 21
25.0
 31
0.0
  0
LINE
  5
8BB
  8
DATA
 62
     7
 10
800.5999999999998
 20
24.0
 30
0.0
 11
800.5999999999998
 21
20.0
 31
0.0
  0
LINE
  5
8BC
  8
DATA
 62
     7
 10
799.59999999999968
 20
19.0
 30
0.0
 11
798.59999999999968
 21
19.0
 31
0.0
  0
ARC
  5
8BD
  8
DATA
 62
     7
 10
799.59999999999968
 20
24.0
 30
0.0
 40
1.0
 50
0.0
 51
90.0
  0
ARC
  5
8BE
  8
DATA
 62
     7
 10
799.59999999999968
 20
20.0
 30
0.0
 40
1.0
 50
270.0
 51
0.0
  0
LINE
  5
8BF
  8
DATA
 62
     7
 10
24.300000000000011
 20
476.49999999999989
 30
0.0
 11
24.300000000000011
 21
470.5
 31
0.0
  0
LINE
  5
8C0
  8
DATA
 62
     7
 10
24.300000000000011
 20
476.49999999999989
 30
0.0
 11
23.300000000000011
 21
476.49999999999989
 31
0.0
  0
LINE
  5
8C1
  8
DATA
 62
     7
 10
21.800000000000011
 20
475.0
 30
0.0
 11
21.800000000000011
 21
472.0
 31
0.0
  0
LINE
  5
8C2
  8
DATA
 62
     7
 10
23.300000000000011
 20
470.5
 30
0.0
 11
24.300000000000011
 21
470.5
 31
0.0
  0
ARC
  5
8C3
  8
DATA
 62
     7
 10
23.300000000000011
 20
475.0
 30
0.0
 40
1.5
 50
90.0
 51
180.0
  0
ARC
  5
8C4
  8
DATA
 62
     7
 10
23.300000000000011
 20
472.0
 30
0.0
 40
1.5
 50
180.0
 51
270.0
  0
LINE
  5
8C5
  8
DATA
 62
     7
 10
25.300000000000011
 20
500.49999999999989
 30
0.0
 11
25.300000000000011
 21
494.5
 31
0.0
  0
LINE
  5
8C6
  8
DATA
 62
     7
 10
25.300000000000011
 20
500.49999999999989
 30
0.0
 11
24.300000000000011
 21
500.49999999999989
 31
0.0
  0
LINE
  5
8C7
  8
DATA
 62
     7
 10
22.800000000000011
 20
499.0
 30
0.0
 11
22.800000000000011
 21
496.0
 31
0.0
  0
LINE
  5
8C8
  8
DATA
 62
     7
 10
24.300000000000011
 20
494.5
 30
0.0
 11
25.300000000000011
 21
494.5
 31
0.0
  0
ARC
  5
8C9
  8
DATA
 62
     7
 10
24.300000000000011
 20
499.0
 30
0.0
 40
1.5
 50
90.0
 51
180.0
  0
ARC
  5
8CA
  8
DATA
 62
     7
 10
24.300000000000011
 20
496.0
 30
0.0
 40
1.5
 50
180.0
 51
270.0
  0
LINE
  5
8CB
  8
DATA
 62
     7
 10
458.30000000000001
 20
476.49999999999989
 30
0.0
 11
458.30000000000001
 21
470.5
 31
0.0
  0
LINE
  5
8CC
  8
DATA
 62
     7
 10
458.30000000000001
 20
476.49999999999989
 30
0.0
 11
459.2999999999999
 21
476.49999999999989
 31
0.0
  0
LINE
  5
8CD
  8
DATA
 62
     7
 10
460.80000000000001
 20
475.0
 30
0.0
 11
460.80000000000001
 21
472.0
 31
0.0
  0
LINE
  5
8CE
  8
DATA
 62
     7
 10
459.2999999999999
 20
470.5
 30
0.0
 11
458.30000000000001
 21
470.5
 31
0.0
  0
ARC
  5
8CF
  8
DATA
 62
     7
 10
459.2999999999999
 20
475.0
 30
0.0
 40
1.5
 50
0.0
 51
90.0
  0
ARC
  5
8D0
  8
DATA
 62
     7
 10
459.2999999999999
 20
472.0
 30
0.0
 40
1.5
 50
270.0
 51
0.0
  0
LINE
  5
8D1
  8
DATA
 62
     7
 10
457.30000000000001
 20
500.49999999999989
 30
0.0
 11
457.30000000000001
 21
494.5
 31
0.0
  0
LINE
  5
8D2
  8
DATA
 62
     7
 10
459.7999999999999
 20
499.0
 30
0.0
 11
459.7999999999999
 21
496.0
 31
0.0
  0
LINE
  5
8D3
  8
DATA
 62
     7
 10
458.30000000000001
 20
494.5
 30
0.0
 11
457.30000000000001
 21
494.5
 31
0.0
  0
ARC
  5
8D4
  8
DATA
 62
     7
 10
458.30000000000001
 20
499.0
 30
0.0
 40
1.5
 50
0.0
 51
70.528779365509251
  0
ARC
  5
8D5
  8
DATA
 62
     7
 10
458.30000000000001
 20
496.0
 30
0.0
 40
1.5
 50
270.0
 51
0.0
  0
LINE
  5
8D6
  8
DATA
 62
     7
 10
505.0
 20
17.050000000000072
 30
0.0
 11
517.49999999999989
 21
17.25000000000005
 31
0.0
  0
LINE
  5
8D7
  8
DATA
 62
     7
 10
505.0
 20
8.9499999999999336
 30
0.0
 11
517.49999999999989
 21
8.7499999999999432
 31
0.0
  0
LINE
  5
8D8
  8
DATA
 62
     7
 10
504.0
 20
17.050000000000072
 30
0.0
 11
504.0
 21
8.9499999999999336
 31
0.0
  0
LINE
  5
8D9
  8
DATA
 62
     7
 10
505.0
 20
17.050000000000072
 30
0.0
 11
505.0
 21
8.9499999999999336
 31
0.0
  0
LINE
  5
8DA
  8
DATA
 62
     7
 10
505.0
 20
13.65263096110027
 30
0.0
 11
517.49999999999318
 21
13.752630961100349
 31
0.0
  0
LINE
  5
8DB
  8
DATA
 62
     7
 10
505.0
 20
12.347369038899719
 30
0.0
 11
517.4999999999892
 21
12.2473690388997
 31
0.0
  0
LINE
  5
8DC
  8
DATA
 62
     7
 10
505.0
 20
17.050000000000072
 30
0.0
 11
519.0
 21
17.957224306869069
 31
0.0
  0
LINE
  5
8DD
  8
DATA
 62
     7
 10
505.0
 20
8.9499999999999336
 30
0.0
 11
519.0
 21
8.0427756931309204
 31
0.0
  0
LINE
  5
8DE
  8
DATA
 62
     7
 10
505.0
 20
14.913417161825411
 30
0.0
 11
517.49999999998795
 21
15.01341716182543
 31
0.0
  0
LINE
  5
8DF
  8
DATA
 62
     7
 10
505.0
 20
11.086582838174531
 30
0.0
 11
517.49999999999341
 21
10.98658283817446
 31
0.0
  0
LINE
  5
8E0
  8
DATA
 62
     7
 10
505.0
 20
16.043807145043608
 30
0.0
 11
517.49999999999989
 21
16.243807145043601
 31
0.0
  0
ARC
  5
8E1
  8
DATA
 62
     7
 10
517.49689398465864
 20
16.74690357252183
 30
0.0
 40
0.5031060153413544
 50
270.35372803193798
 51
89.646271968062024
  0
LINE
  5
8E2
  8
DATA
 62
     7
 10
505.0
 20
9.9561928549563845
 30
0.0
 11
517.49999999999989
 21
9.7561928549563977
 31
0.0
  0
ARC
  5
8E3
  8
DATA
 62
     7
 10
517.49689398465864
 20
9.2530964274781677
 30
0.0
 40
0.5031060153413544
 50
270.35372803193798
 51
89.646271968062024
  0
LINE
  5
8E4
  8
DATA
 62
     7
 10
504.0
 20
17.050000000000072
 30
0.0
 11
505.0
 21
17.050000000000072
 31
0.0
  0
LINE
  5
8E5
  8
DATA
 62
     7
 10
504.0
 20
8.9499999999999336
 30
0.0
 11
505.0
 21
8.9499999999999336
 31
0.0
  0
LINE
  5
8E6
  8
DATA
 62
     7
 10
519.0
 20
17.957224306869069
 30
0.0
 11
519.0
 21
8.0427756931309204
 31
0.0
  0
ARC
  5
8E7
  8
DATA
 62
     7
 10
517.35262053901522
 20
14.38302406146283
 30
0.0
 40
0.6473918183797279
 50
283.15882164821852
 51
76.841178351781522
  0
ARC
  5
8E8
  8
DATA
 62
     7
 10
517.35262053901874
 20
11.616975938537051
 30
0.0
 40
0.6473918183760457
 50
283.15882164686872
 51
76.841178353133657
  0
LINE
  5
8E9
  8
DATA
 62
     7
 10
518.0
 20
32.0
 30
0.0
 11
519.0
 21
32.0
 31
0.0
  0
LINE
  5
8EA
  8
DATA
 62
     7
 10
518.0
 20
26.0
 30
0.0
 11
519.0
 21
26.0
 31
0.0
  0
LINE
  5
8EB
  8
DATA
 62
     7
 10
516.0
 20
30.0
 30
0.0
 11
516.0
 21
28.0
 31
0.0
  0
ARC
  5
8EC
  8
DATA
 62
     7
 10
518.0
 20
30.0
 30
0.0
 40
2.0
 50
90.0
 51
180.0
  0
ARC
  5
8ED
  8
DATA
 62
     7
 10
518.0
 20
28.0
 30
0.0
 40
2.0
 50
180.0
 51
270.0
  0
LINE
  5
8EE
  8
DATA
 62
     7
 10
500.49999999999989
 20
34.350000000000023
 30
0.0
 11
500.49999999999989
 21
9.6499999999999755
 31
0.0
  0
LINE
  5
8EF
  8
DATA
 62
     7
 10
502.0
 20
34.350000000000023
 30
0.0
 11
502.0
 21
9.6499999999999755
 31
0.0
  0
LINE
  5
8F0
  8
DATA
 62
     7
 10
519.0
 20
35.952857142857169
 30
0.0
 11
502.0
 21
34.350000000000023
 31
0.0
  0
LINE
  5
8F1
  8
DATA
 62
     7
 10
504.0
 20
9.4614285714285415
 30
0.0
 11
502.0
 21
9.6499999999999755
 31
0.0
  0
LINE
  5
8F2
  8
DATA
 62
     7
 10
502.0
 20
18.690000000000001
 30
0.0
 11
517.49999999999989
 21
18.690000000000001
 31
0.0
  0
LINE
  5
8F3
  8
DATA
 62
     7
 10
502.0
 20
22.0
 30
0.0
 11
517.49999999999989
 21
22.0
 31
0.0
  0
LINE
  5
8F4
  8
DATA
 62
     7
 10
500.44765075494621
 20
14.500913759471359
 30
0.0
 11
500.49999999999989
 21
14.49908568355181
 31
0.0
  0
LINE
  5
8F5
  8
DATA
 62
     7
 10
502.0
 20
12.94999999999999
 30
0.0
 11
504.0
 21
12.880158461016491
 31
0.0
  0
LINE
  5
8F6
  8
DATA
 62
     7
 10
502.0
 20
15.600000000000019
 30
0.0
 11
504.0
 21
15.530158461016519
 31
0.0
  0
LINE
  5
8F7
  8
DATA
 62
     7
 10
502.0
 20
25.309999999999999
 30
0.0
 11
517.54199330437825
 21
25.852738365624528
 31
0.0
  0
LINE
  5
8F8
  8
DATA
 62
     7
 10
500.44765075494621
 20
29.499086240528641
 30
0.0
 11
500.49999999999989
 21
29.500914316448188
 31
0.0
  0
LINE
  5
8F9
  8
DATA
 62
     7
 10
502.0
 20
28.399999999999981
 30
0.0
 11
516.0
 21
28.888890772884569
 31
0.0
  0
LINE
  5
8FA
  8
DATA
 62
     7
 10
500.49999999999989
 20
34.350000000000023
 30
0.0
 11
502.0
 21
34.350000000000023
 31
0.0
  0
LINE
  5
8FB
  8
DATA
 62
     7
 10
500.49999999999989
 20
9.6499999999999755
 30
0.0
 11
502.0
 21
9.6499999999999755
 31
0.0
  0
ARC
  5
8FC
  8
DATA
 62
     7
 10
516.56672795673671
 20
20.34499999999997
 30
0.0
 40
1.9000057122905269
 50
299.41911204752353
 51
60.58088795247658
  0
ARC
  5
8FD
  8
DATA
 62
     7
 10
516.81633656162114
 20
27.373069581781351
 30
0.0
 40
1.684631922744519
 50
295.51522455743361
 51
305.95942820098247
  0
LINE
  5
8FE
  8
DATA
 62
     7
 10
502.0
 20
31.050966799187851
 30
0.0
 11
502.0
 21
28.399999999999981
 31
0.0
  0
LINE
  5
8FF
  8
DATA
 62
     7
 10
502.0
 20
31.050000000000011
 30
0.0
 11
516.7550215071019
 21
31.565256704895319
 31
0.0
  0
LINE
  5
900
  8
DATA
 62
     7
 10
502.0
 20
33.090000000000032
 30
0.0
 11
517.4372948142709
 21
33.629082213785303
 31
0.0
  0
ARC
  5
901
  8
DATA
 62
     7
 10
517.48000000000002
 20
32.609082213785321
 30
0.0
 40
1.0208935952821421
 50
323.37202780158202
 51
92.397449719717343
  0
ENDSEC
  0
EOF
