  0
SECTION
  2
HEADER
  9
$ACADVER
  1
AC1009
  9
$INSBASE
 10
0.0
 20
0.0
 30
0.0
  9
$EXTMIN
 10
-80.027463724868767
 20
-226.8870479174243
 30
-0.0015258207003583
  9
$EXTMAX
 10
820.02746791582013
 20
1110.040753785041
 30
0.0000000349246037
  9
$LIMMIN
 10
0.0
 20
0.0
  9
$LIMMAX
 10
0.0
 20
0.0
  9
$ORTHOMODE
 70
     0
  9
$REGENMODE
 70
     1
  9
$FILLMODE
 70
     1
  9
$QTEXTMODE
 70
     0
  9
$MIRRTEXT
 70
     1
  9
$DRAGMODE
 70
     2
  9
$LTSCALE
 40
25.399999999999999
  9
$OSMODE
 70
   167
  9
$ATTMODE
 70
     1
  9
$TEXTSIZE
 40
0.0
  9
$TRACEWID
 40
1.0
  9
$TEXTSTYLE
  7
STANDARD
  9
$CLAYER
  8
DATA
  9
$CELTYPE
  6
CONTINUOUS
  9
$CECOLOR
 62
   256
  9
$DIMSCALE
 40
1.0
  9
$DIMASZ
 40
0.18
  9
$DIMEXO
 40
0.0625
  9
$DIMDLI
 40
0.38
  9
$DIMRND
 40
0.0
  9
$DIMDLE
 40
0.0
  9
$DIMEXE
 40
0.18
  9
$DIMTP
 40
0.0
  9
$DIMTM
 40
0.0
  9
$DIMTXT
 40
0.18
  9
$DIMCEN
 40
0.09
  9
$DIMTSZ
 40
0.0
  9
$DIMTOL
 70
     0
  9
$DIMLIM
 70
     0
  9
$DIMTIH
 70
     1
  9
$DIMTOH
 70
     1
  9
$DIMSE1
 70
     0
  9
$DIMSE2
 70
     0
  9
$DIMTAD
 70
     0
  9
$DIMZIN
 70
     0
  9
$DIMBLK
  1

  9
$DIMASO
 70
     1
  9
$DIMSHO
 70
     1
  9
$DIMPOST
  1

  9
$DIMAPOST
  1

  9
$DIMALT
 70
     0
  9
$DIMALTD
 70
     2
  9
$DIMALTF
 40
25.399999999999999
  9
$DIMLFAC
 40
1.0
  9
$DIMTOFL
 70
     0
  9
$DIMTVP
 40
0.0
  9
$DIMTIX
 70
     0
  9
$DIMSOXD
 70
     0
  9
$DIMSAH
 70
     0
  9
$DIMBLK1
  1

  9
$DIMBLK2
  1

  9
$DIMSTYLE
  2
STANDARD
  9
$DIMCLRD
 70
     0
  9
$DIMCLRE
 70
     0
  9
$DIMCLRT
 70
     0
  9
$DIMTFAC
 40
1.0
  9
$DIMGAP
 40
0.09
  9
$LUNITS
 70
     2
  9
$LUPREC
 70
     4
  9
$SKETCHINC
 40
0.1
  9
$FILLETRAD
 40
0.0
  9
$AUNITS
 70
     0
  9
$AUPREC
 70
     0
  9
$MENU
  1
acad
  9
$ELEVATION
 40
0.0
  9
$PELEVATION
 40
0.0
  9
$THICKNESS
 40
0.0
  9
$LIMCHECK
 70
     0
  9
$BLIPMODE
 70
     0
  9
$CHAMFERA
 40
0.0
  9
$CHAMFERB
 40
0.0
  9
$SKPOLY
 70
     0
  9
$TDCREATE
 40
2452979.7782754628
  9
$TDUPDATE
 40
2452979.8107391088
  9
$TDINDWG
 40
0.00024125
  9
$TDUSRTIMER
 40
0.00024125
  9
$USRTIMER
 70
     1
  9
$ANGBASE
 50
0.0
  9
$ANGDIR
 70
     0
  9
$PDMODE
 70
     1
  9
$PDSIZE
 40
-2.0
  9
$PLINEWID
 40
0.0
  9
$COORDS
 70
     2
  9
$SPLFRAME
 70
     0
  9
$SPLINETYPE
 70
     6
  9
$SPLINESEGS
 70
     8
  9
$ATTDIA
 70
     0
  9
$ATTREQ
 70
     1
  9
$HANDLING
 70
     1
  9
$HANDSEED
  5
C64
  9
$SURFTAB1
 70
     6
  9
$SURFTAB2
 70
     6
  9
$SURFTYPE
 70
     6
  9
$SURFU
 70
     6
  9
$SURFV
 70
     6
  9
$UCSNAME
  2

  9
$UCSORG
 10
0.0
 20
0.0
 30
0.0
  9
$UCSXDIR
 10
1.0
 20
0.0
 30
0.0
  9
$UCSYDIR
 10
0.0
 20
1.0
 30
0.0
  9
$PUCSNAME
  2

  9
$PUCSORG
 10
0.0
 20
0.0
 30
0.0
  9
$PUCSXDIR
 10
1.0
 20
0.0
 30
0.0
  9
$PUCSYDIR
 10
0.0
 20
1.0
 30
0.0
  9
$USERI1
 70
     0
  9
$USERI2
 70
     0
  9
$USERI3
 70
     0
  9
$USERI4
 70
     0
  9
$USERI5
 70
     0
  9
$USERR1
 40
0.0
  9
$USERR2
 40
0.0
  9
$USERR3
 40
0.0
  9
$USERR4
 40
0.0
  9
$USERR5
 40
0.0
  9
$WORLDVIEW
 70
     1
  9
$SHADEDGE
 70
     3
  9
$SHADEDIF
 70
    70
  9
$TILEMODE
 70
     1
  9
$MAXACTVP
 70
    16
  9
$PLIMCHECK
 70
     0
  9
$PEXTMIN
 10
1.0000000000000000E+020
 20
1.0000000000000000E+020
 30
1.0000000000000000E+020
  9
$PEXTMAX
 10
-1.0000000000000000E+020
 20
-1.0000000000000000E+020
 30
-1.0000000000000000E+020
  9
$PLIMMIN
 10
0.0
 20
0.0
  9
$PLIMMAX
 10
12.0
 20
9.0
  9
$UNITMODE
 70
     0
  9
$VISRETAIN
 70
     0
  9
$PLINEGEN
 70
     1
  9
$PSLTSCALE
 70
     0
  0
ENDSEC
  0
SECTION
  2
TABLES
  0
TABLE
  2
VPORT
 70
     2
  0
VPORT
  2
*ACTIVE
 70
     0
 10
0.0
 20
0.0
 11
1.0
 21
1.0
 12
370.00000209547579
 22
441.5768529338086
 13
0.0
 23
0.0
 14
1.0
 24
1.0
 15
0.0
 25
0.0
 16
0.0
 26
0.0
 36
1.0
 17
0.0
 27
0.0
 37
0.0
 40
1347.58061287141
 41
1.603723404255319
 42
50.0
 43
0.0
 44
0.0
 50
0.0
 51
0.0
 71
     0
 72
   100
 73
     1
 74
     1
 75
     0
 76
     0
 77
     0
 78
     0
  0
ENDTAB
  0
TABLE
  2
LTYPE
 70
    11
  0
LTYPE
  2
CONTINUOUS
 70
     0
  3
Solid line
 72
    65
 73
     0
 40
0.0
  0
LTYPE
  2
STYLE_01
 70
     0
  3

 72
    65
 73
     2
 40
0.4166412353515625
 49
0.208282470703125
 49
-0.2083587646484375
  0
LTYPE
  2
STYLE_02
 70
     0
  3

 72
    65
 73
     2
 40
0.694427490234375
 49
0.4860687255859375
 49
-0.2083587646484375
  0
LTYPE
  2
STYLE_03
 70
     0
  3

 72
    65
 73
     2
 40
1.25
 49
1.0416412353515621
 49
-0.2083587646484375
  0
LTYPE
  2
STYLE_04
 70
     0
  3

 72
    65
 73
     2
 40
1.5277099609375
 49
1.319427490234375
 49
-0.208282470703125
  0
LTYPE
  2
STYLE_05
 70
     0
  3

 72
    65
 73
     2
 40
0.208282470703125
 49
0.069427490234375
 49
-0.13885498046875
  0
LTYPE
  2
STYLE_06
 70
     0
  3

 72
    65
 73
     4
 40
1.0416412353515621
 49
0.625
 49
-0.208282470703125
 49
0.069427490234375
 49
-0.1389312744140625
  0
LTYPE
  2
STYLE_07
 70
     0
  3

 72
    65
 73
     6
 40
1.875
 49
0.625
 49
-0.208282470703125
 49
0.625
 49
-0.2083587646484375
 49
0.069427490234375
 49
-0.1389312744140625
  0
LTYPE
  2
STYLE_08
 70
     0
  3

 72
    65
 73
     6
 40
1.25
 49
0.625
 49
-0.208282470703125
 49
0.069427490234375
 49
-0.1389312744140625
 49
0.069427490234375
 49
-0.1389312744140625
  0
LTYPE
  2
STYLE_09
 70
     0
  3

 72
    65
 73
     4
 40
5.0
 49
3.75
 49
-0.2777862548828125
 49
0.694427490234375
 49
-0.2777862548828125
  0
LTYPE
  2
STYLE_10
 70
     0
  3

 72
    65
 73
     6
 40
5.9375
 49
3.75
 49
-0.2777862548828125
 49
0.694427490234375
 49
-0.2777862548828125
 49
0.625
 49
-0.3125
  0
ENDTAB
  0
TABLE
  2
LAYER
 70
     6
  0
LAYER
  2
0
 70
     0
 62
     7
  6
CONTINUOUS
  0
LAYER
  2
DATA
 70
     0
 62
     7
  6
CONTINUOUS
  0
LAYER
  2
DEFPOINTS
 70
     0
 62
     7
  6
CONTINUOUS
  0
LAYER
  2
HIBINO-BASE
 70
     0
 62
     7
  6
CONTINUOUS
  0
LAYER
  2
SPEC
 70
     0
 62
     7
  6
CONTINUOUS
  0
LAYER
  2
DIMNSIONS
 70
     0
 62
     7
  6
CONTINUOUS
  0
ENDTAB
  0
TABLE
  2
STYLE
 70
     2
  0
STYLE
  2
STANDARD
 70
     0
 40
0.0
 41
1.0
 50
0.0
 71
     0
 42
0.0
  3
txt
  4
BIGFONT.SHX
  0
ENDTAB
  0
TABLE
  2
VIEW
 70
     0
  0
ENDTAB
  0
TABLE
  2
UCS
 70
     0
  0
ENDTAB
  0
TABLE
  2
APPID
 70
     1
  0
APPID
  2
ACAD
 70
     0
  0
ENDTAB
  0
TABLE
  2
DIMSTYLE
 70
     1
  0
DIMSTYLE
  2
STANDARD
 70
     0
  3

  4

  5

  6

  7

 40
1.0
 41
0.18
 42
0.0625
 43
0.38
 44
0.18
 45
0.0
 46
0.0
 47
0.0
 48
0.0
140
0.18
141
0.09
142
0.0
143
25.399999999999999
144
1.0
145
0.0
146
1.0
147
0.09
 71
     0
 72
     0
 73
     1
 74
     1
 75
     0
 76
     0
 77
     0
 78
     0
170
     0
171
     2
172
     0
173
     0
174
     0
175
     0
176
     0
177
     0
178
     0
  0
ENDTAB
  0
ENDSEC
  0
SECTION
  2
BLOCKS
  0
BLOCK
  8
0
  2
$MODEL_SPACE
 70
     0
 10
0.0
 20
0.0
 30
0.0
  3
$MODEL_SPACE
  1

  0
ENDBLK
  5
8F4
  8
0
  0
BLOCK
 67
     1
  8
0
  2
$PAPER_SPACE
 70
     0
 10
0.0
 20
0.0
 30
0.0
  3
$PAPER_SPACE
  1

  0
ENDBLK
  5
8F0
 67
     1
  8
0
  0
BLOCK
  8
DATA
  2
*U0
 70
     1
 10
0.0
 20
0.0
 30
0.0
  3
*U0
  1

  0
LINE
  5
32
  8
DATA
  6
CONTINUOUS
 62
     7
 10
198.45006363343029
 20
-426.84984088705829
 30
0.0
 11
198.45006363343029
 21
-454.84984088705829
 31
0.0
  0
LINE
  5
33
  8
DATA
  6
CONTINUOUS
 62
     7
 10
194.7500636334303
 20
-426.84984088705829
 30
0.0
 11
194.7500636334303
 21
-454.84984088705829
 31
0.0
  0
ARC
  5
34
  8
DATA
  6
CONTINUOUS
 62
     7
 10
196.6000636334303
 20
-426.84984088705829
 30
0.0
 40
1.8499999999999941
 50
0.0
 51
180.0
  0
ARC
  5
35
  8
DATA
  6
CONTINUOUS
 62
     7
 10
196.6000636334303
 20
-454.84984088705829
 30
0.0
 40
1.8499999999999941
 50
180.0
 51
0.0
  0
ENDBLK
  5
36
  8
DATA
  0
BLOCK
  8
DATA
  2
*U1
 70
     1
 10
0.0
 20
0.0
 30
0.0
  3
*U1
  1

  0
LINE
  5
38
  8
DATA
  6
CONTINUOUS
 62
     7
 10
206.7500636334303
 20
-426.84984088705829
 30
0.0
 11
206.7500636334303
 21
-454.84984088705829
 31
0.0
  0
LINE
  5
39
  8
DATA
  6
CONTINUOUS
 62
     7
 10
210.45006363343029
 20
-426.84984088705829
 30
0.0
 11
210.45006363343029
 21
-454.84984088705829
 31
0.0
  0
ARC
  5
3A
  8
DATA
  6
CONTINUOUS
 62
     7
 10
208.6000636334303
 20
-426.84984088705829
 30
0.0
 40
1.8499999999999941
 50
0.0
 51
180.0
  0
ARC
  5
3B
  8
DATA
  6
CONTINUOUS
 62
     7
 10
208.6000636334303
 20
-454.84984088705829
 30
0.0
 40
1.8499999999999941
 50
180.0
 51
0.0
  0
LINE
  5
3C
  8
DATA
  6
CONTINUOUS
 62
     7
 10
212.7500636334303
 20
-426.84984088705829
 30
0.0
 11
212.7500636334303
 21
-454.84984088705829
 31
0.0
  0
LINE
  5
3D
  8
DATA
  6
CONTINUOUS
 62
     7
 10
216.45006363343029
 20
-426.84984088705829
 30
0.0
 11
216.45006363343029
 21
-454.84984088705829
 31
0.0
  0
ARC
  5
3E
  8
DATA
  6
CONTINUOUS
 62
     7
 10
214.6000636334303
 20
-426.84984088705829
 30
0.0
 40
1.8499999999999941
 50
0.0
 51
180.0
  0
ARC
  5
3F
  8
DATA
  6
CONTINUOUS
 62
     7
 10
214.6000636334303
 20
-454.84984088705829
 30
0.0
 40
1.8499999999999941
 50
180.0
 51
0.0
  0
LINE
  5
40
  8
DATA
  6
CONTINUOUS
 62
     7
 10
204.45006363343029
 20
-426.84984088705829
 30
0.0
 11
204.45006363343029
 21
-454.84984088705829
 31
0.0
  0
LINE
  5
41
  8
DATA
  6
CONTINUOUS
 62
     7
 10
200.7500636334303
 20
-426.84984088705829
 30
0.0
 11
200.7500636334303
 21
-454.84984088705829
 31
0.0
  0
ARC
  5
42
  8
DATA
  6
CONTINUOUS
 62
     7
 10
202.6000636334303
 20
-426.84984088705829
 30
0.0
 40
1.8499999999999941
 50
0.0
 51
180.0
  0
ARC
  5
43
  8
DATA
  6
CONTINUOUS
 62
     7
 10
202.6000636334303
 20
-454.84984088705829
 30
0.0
 40
1.8499999999999941
 50
180.0
 51
0.0
  0
INSERT
  5
44
  8
DATA
 62
     7
  2
*U0
 10
0.0
 20
0.0
 30
0.0
  0
ENDBLK
  5
45
  8
DATA
  0
BLOCK
  8
DATA
  2
*U2
 70
     1
 10
0.0
 20
0.0
 30
0.0
  3
*U2
  1

  0
LINE
  5
47
  8
DATA
  6
CONTINUOUS
 62
     7
 10
218.7500636334303
 20
-432.34984088705841
 30
0.0
 11
218.7500636334303
 21
-449.34984088705841
 31
0.0
  0
LINE
  5
48
  8
DATA
  6
CONTINUOUS
 62
     7
 10
222.45006363343029
 20
-432.34984088705841
 30
0.0
 11
222.45006363343029
 21
-449.34984088705841
 31
0.0
  0
ARC
  5
49
  8
DATA
  6
CONTINUOUS
 62
     7
 10
220.6000636334303
 20
-432.34984088705841
 30
0.0
 40
1.8499999999999941
 50
0.0
 51
180.0
  0
ARC
  5
4A
  8
DATA
  6
CONTINUOUS
 62
     7
 10
220.6000636334303
 20
-449.34984088705841
 30
0.0
 40
1.8499999999999941
 50
180.0
 51
0.0
  0
ENDBLK
  5
4B
  8
DATA
  0
BLOCK
  8
DATA
  2
*U3
 70
     1
 10
0.0
 20
0.0
 30
0.0
  3
*U3
  1

  0
POLYLINE
  5
4D
  8
DATA
  6
CONTINUOUS
 62
     7
 66
     1
 10
0.0
 20
0.0
 30
0.0
 70
     1
  0
VERTEX
  5
915
  8
DATA
  6
CONTINUOUS
 62
     7
 10
-44.699999999999932
 20
36.5
 30
0.0
  0
VERTEX
  5
916
  8
DATA
  6
CONTINUOUS
 62
     7
 10
-29.199999999999928
 20
36.5
 30
0.0
  0
VERTEX
  5
917
  8
DATA
  6
CONTINUOUS
 62
     7
 10
-29.199999999999928
 20
25.0
 30
0.0
  0
VERTEX
  5
918
  8
DATA
  6
CONTINUOUS
 62
     7
 10
-44.699999999999932
 20
25.0
 30
0.0
  0
SEQEND
  5
919
  8
DATA
  6
CONTINUOUS
 62
     7
  0
LINE
  5
53
  8
DATA
  6
CONTINUOUS
 62
     7
 10
-40.699999999999932
 20
36.5
 30
0.0
 11
-40.699999999999932
 21
34.0
 31
0.0
  0
LINE
  5
54
  8
DATA
  6
CONTINUOUS
 62
     7
 10
-40.699999999999932
 20
34.0
 30
0.0
 11
-43.199999999999932
 21
34.0
 31
0.0
  0
LINE
  5
55
  8
DATA
  6
CONTINUOUS
 62
     7
 10
-43.199999999999932
 20
34.0
 30
0.0
 11
-43.199999999999932
 21
26.5
 31
0.0
  0
LINE
  5
56
  8
DATA
  6
CONTINUOUS
 62
     7
 10
-33.199999999999932
 20
36.5
 30
0.0
 11
-33.199999999999932
 21
34.0
 31
0.0
  0
LINE
  5
57
  8
DATA
  6
CONTINUOUS
 62
     7
 10
-33.199999999999932
 20
34.0
 30
0.0
 11
-30.699999999999928
 21
34.0
 31
0.0
  0
LINE
  5
58
  8
DATA
  6
CONTINUOUS
 62
     7
 10
-30.699999999999928
 20
34.0
 30
0.0
 11
-30.699999999999928
 21
26.5
 31
0.0
  0
LINE
  5
59
  8
DATA
  6
CONTINUOUS
 62
     7
 10
-43.199999999999932
 20
26.5
 30
0.0
 11
-30.699999999999928
 21
26.5
 31
0.0
  0
POLYLINE
  5
5A
  8
DATA
  6
CONTINUOUS
 62
     7
 66
     1
 10
0.0
 20
0.0
 30
0.0
 70
     1
  0
VERTEX
  5
91A
  8
DATA
  6
CONTINUOUS
 62
     7
 10
-29.199999999999928
 20
36.5
 30
0.0
  0
VERTEX
  5
91B
  8
DATA
  6
CONTINUOUS
 62
     7
 10
-13.69999999999993
 20
36.5
 30
0.0
  0
VERTEX
  5
91C
  8
DATA
  6
CONTINUOUS
 62
     7
 10
-13.69999999999993
 20
25.0
 30
0.0
  0
VERTEX
  5
91D
  8
DATA
  6
CONTINUOUS
 62
     7
 10
-29.199999999999928
 20
25.0
 30
0.0
  0
SEQEND
  5
91E
  8
DATA
  6
CONTINUOUS
 62
     7
  0
LINE
  5
60
  8
DATA
  6
CONTINUOUS
 62
     7
 10
-25.199999999999928
 20
36.5
 30
0.0
 11
-25.199999999999928
 21
34.0
 31
0.0
  0
LINE
  5
61
  8
DATA
  6
CONTINUOUS
 62
     7
 10
-25.199999999999928
 20
34.0
 30
0.0
 11
-27.699999999999928
 21
34.0
 31
0.0
  0
LINE
  5
62
  8
DATA
  6
CONTINUOUS
 62
     7
 10
-27.699999999999928
 20
34.0
 30
0.0
 11
-27.699999999999928
 21
26.5
 31
0.0
  0
LINE
  5
63
  8
DATA
  6
CONTINUOUS
 62
     7
 10
-17.699999999999928
 20
36.5
 30
0.0
 11
-17.699999999999928
 21
34.0
 31
0.0
  0
LINE
  5
64
  8
DATA
  6
CONTINUOUS
 62
     7
 10
-17.699999999999928
 20
34.0
 30
0.0
 11
-15.19999999999993
 21
34.0
 31
0.0
  0
LINE
  5
65
  8
DATA
  6
CONTINUOUS
 62
     7
 10
-15.19999999999993
 20
34.0
 30
0.0
 11
-15.19999999999993
 21
26.5
 31
0.0
  0
LINE
  5
66
  8
DATA
  6
CONTINUOUS
 62
     7
 10
-27.699999999999928
 20
26.5
 30
0.0
 11
-15.19999999999993
 21
26.5
 31
0.0
  0
ENDBLK
  5
67
  8
DATA
  0
ENDSEC
  0
SECTION
  2
ENTITIES
  0
LINE
  5
68
  8
HIBINO-BASE
 62
     7
 10
-80.0
 20
1110.0
 30
0.0
 11
820.0
 21
1110.0
 31
0.0
  0
LINE
  5
69
  8
HIBINO-BASE
 62
     7
 10
820.0
 20
-190.0
 30
0.0
 11
-80.0
 21
-190.0
 31
0.0
  0
LINE
  5
6A
  8
HIBINO-BASE
 62
     7
 10
-80.0
 20
-190.0
 30
0.0
 11
-80.0
 21
1110.0
 31
0.0
  0
TEXT
  5
6B
  8
HIBINO-BASE
 62
     7
 10
-44.079999999999977
 20
-220.6399199999999
 30
0.0
 40
18.71292
  1
Hibino Corporation
 41
0.8
 11
-44.079999999999977
 21
-201.92699999999991
 31
0.0
 73
     3
  0
LINE
  5
6C
  8
HIBINO-BASE
 62
     7
 10
820.0
 20
1110.0
 30
0.0
 11
820.0
 21
-190.0
 31
0.0
  0
LINE
  5
6D
  8
HIBINO-BASE
 62
     7
 10
370.0
 20
-77.499999999999872
 30
0.0
 11
820.0
 21
-77.499999999999872
 31
0.0
  0
LINE
  5
6E
  8
HIBINO-BASE
 62
     7
 10
370.0
 20
-190.0
 30
0.0
 11
370.0
 21
-77.499999999999872
 31
0.0
  0
TEXT
  5
6F
  8
HIBINO-BASE
 62
     7
 10
374.5
 20
-89.408466666666598
 30
0.0
 40
8.466666666666665
  1
NOTE
 41
0.8
 11
374.5
 21
-80.941799999999915
 31
0.0
 73
     3
  0
LINE
  5
70
  8
HIBINO-BASE
 62
     7
 10
545.0
 20
-190.0
 30
0.0
 11
545.0
 21
-77.499999999999872
 31
0.0
  0
TEXT
  5
71
  8
HIBINO-BASE
 62
     7
 10
549.5
 20
-89.408466666666598
 30
0.0
 40
8.466666666666665
  1
TITLE
 41
0.8
 11
549.5
 21
-80.941799999999915
 31
0.0
 73
     3
  0
TEXT
  5
72
  8
HIBINO-BASE
 62
     7
 10
620.34194999999977
 20
-220.6399199999999
 30
0.0
 40
18.71292
  1
ヒビノ株式会社
 41
0.8
 11
620.34194999999977
 21
-201.92699999999991
 31
0.0
 73
     3
  0
LINE
  5
73
  8
HIBINO-BASE
 62
     7
 10
370.0
 20
-139.9999999999998
 30
0.0
 11
820.0
 21
-139.9999999999998
 31
0.0
  0
TEXT
  5
74
  8
HIBINO-BASE
 62
     7
 10
612.0
 20
-151.62686666666659
 30
0.0
 40
8.466666666666665
  1
DRAWN
 41
0.8
 11
612.0
 21
-143.16019999999989
 31
0.0
 73
     3
  0
TEXT
  5
75
  8
HIBINO-BASE
 62
     7
 10
487.0
 20
-151.62686666666659
 30
0.0
 40
8.466666666666665
  1
DATE
 41
0.8
 11
487.0
 21
-143.16019999999989
 31
0.0
 73
     3
  0
TEXT
  5
76
  8
HIBINO-BASE
 62
     7
 10
375.5
 20
-152.46227999999991
 30
0.0
 40
8.4666799999999984
  1
図面サイズ
 41
0.8
 11
375.5
 21
-143.9956
 31
0.0
 73
     3
  0
TEXT
  5
77
  8
HIBINO-BASE
 62
     7
 10
437.0
 20
-151.62686666666659
 30
0.0
 40
8.466666666666665
  1
SCALE
 41
0.8
 11
437.0
 21
-143.16019999999989
 31
0.0
 73
     3
  0
TEXT
  5
78
  8
HIBINO-BASE
 62
     7
 10
549.5
 20
-151.62686666666659
 30
0.0
 40
8.466666666666665
  1
DESIGN
 41
0.8
 11
549.5
 21
-143.16019999999989
 31
0.0
 73
     3
  0
TEXT
  5
79
  8
HIBINO-BASE
 62
     7
 10
737.0
 20
-151.62686666666659
 30
0.0
 40
8.466666666666665
  1
DRAWING NO.
 41
0.8
 11
737.0
 21
-143.16019999999989
 31
0.0
 73
     3
  0
TEXT
  5
7A
  8
HIBINO-BASE
 62
     7
 10
674.49999999999989
 20
-151.62686666666659
 30
0.0
 40
8.466666666666665
  1
CHECK
 41
0.8
 11
674.49999999999989
 21
-143.16019999999989
 31
0.0
 73
     3
  0
LINE
  5
7B
  8
HIBINO-BASE
 62
     7
 10
441.875
 20
-183.75
 30
0.0
 11
460.625
 21
-164.9999999999998
 31
0.0
  0
TEXT
  5
7C
  8
HIBINO-BASE
 62
     7
 10
438.75
 20
-169.90971666666661
 30
0.0
 40
8.466666666666665
  1
1
 41
0.8
 11
438.75
 21
-161.44304999999989
 31
0.0
 73
     3
  0
LINE
  5
7D
  8
HIBINO-BASE
 62
     7
 10
432.5
 20
-190.0
 30
0.0
 11
432.5
 21
-139.9999999999998
 31
0.0
  0
LINE
  5
7E
  8
HIBINO-BASE
 62
     7
 10
482.5
 20
-190.0
 30
0.0
 11
482.5
 21
-139.9999999999998
 31
0.0
  0
LINE
  5
7F
  8
HIBINO-BASE
 62
     7
 10
607.49999999999989
 20
-139.9999999999998
 30
0.0
 11
607.49999999999989
 21
-190.0
 31
0.0
  0
LINE
  5
80
  8
HIBINO-BASE
 62
     7
 10
732.5
 20
-139.9999999999998
 30
0.0
 11
732.5
 21
-190.0
 31
0.0
  0
LINE
  5
81
  8
HIBINO-BASE
 62
     7
 10
669.99999999999989
 20
-190.0
 30
0.0
 11
669.99999999999989
 21
-139.9999999999998
 31
0.0
  0
TEXT
  5
82
  8
HIBINO-BASE
 62
     7
 10
486.78269999999992
 20
-175.04676666666671
 30
0.0
 40
8.466666666666665
  1
'03.12.
 41
0.8
 11
486.78269999999992
 21
-166.58009999999999
 31
0.0
 73
     3
  0
TEXT
  5
83
  8
HIBINO-BASE
 62
     7
 10
457.5
 20
-179.28471666666661
 30
0.0
 40
8.466666666666665
  1
5
 41
0.8
 11
457.5
 21
-170.81804999999989
 31
0.0
 73
     3
  0
TEXT
  5
84
  8
HIBINO-BASE
 62
     7
 10
389.41666666666657
 20
-178.84999999999991
 30
0.0
 40
16.93333333333333
  1
A4
 41
0.8
 11
389.41666666666657
 21
-161.9166666666666
 31
0.0
 73
     3
  0
TEXT
  5
85
  8
HIBINO-BASE
 62
     7
 10
615.02905005517312
 20
-175.04676666666651
 30
0.0
 40
8.466666666666665
  1
N.Sasaki
 41
0.8
 11
615.02905005517312
 21
-166.58009999999979
 31
0.0
 73
     3
  0
LINE
  5
86
  8
SPEC
 62
     7
 10
-7.5190114068441289
 20
1060.0
 30
0.0
 11
407.5
 21
1060.0
 31
0.0
  0
LINE
  5
87
  8
SPEC
 62
     7
 10
37.499999999999943
 20
1041.25
 30
0.0
 11
407.5
 21
1041.25
 31
0.0
  0
LINE
  5
88
  8
SPEC
 62
     7
 10
-42.5
 20
966.24999999999989
 30
0.0
 11
407.5
 21
966.24999999999989
 31
0.0
  0
LINE
  5
89
  8
SPEC
 62
     7
 10
37.499999999999943
 20
985.0
 30
0.0
 11
407.5
 21
985.0
 31
0.0
  0
LINE
  5
8A
  8
SPEC
 62
     7
 10
37.499999999999943
 20
1003.75
 30
0.0
 11
407.5
 21
1003.75
 31
0.0
  0
LINE
  5
8B
  8
SPEC
 62
     7
 10
37.499999999999943
 20
947.49999999999989
 30
0.0
 11
407.5
 21
947.49999999999989
 31
0.0
  0
LINE
  5
8C
  8
SPEC
 62
     7
 10
37.499999999999943
 20
910.0
 30
0.0
 11
407.5
 21
910.0
 31
0.0
  0
LINE
  5
8D
  8
SPEC
 62
     7
 10
37.499999999999943
 20
928.74999999999989
 30
0.0
 11
407.5
 21
928.74999999999989
 31
0.0
  0
LINE
  5
8E
  8
SPEC
 62
     7
 10
37.499999999999943
 20
891.24999999999989
 30
0.0
 11
407.5
 21
891.24999999999989
 31
0.0
  0
LINE
  5
8F
  8
SPEC
 62
     7
 10
-42.5
 20
872.49999999999989
 30
0.0
 11
407.50000000000011
 21
872.49999999999989
 31
0.0
  0
LINE
  5
90
  8
SPEC
 62
     7
 10
37.499999999999943
 20
1022.5
 30
0.0
 11
407.5
 21
1022.5
 31
0.0
  0
TEXT
  5
91
  8
SPEC
 62
     7
 10
142.5
 20
1045.9304400000001
 30
0.0
 40
9.8777599999999985
  1
8
 41
0.8
 11
142.5
 21
1055.8081999999999
 31
0.0
 73
     3
  0
LINE
  5
92
  8
SPEC
 62
     7
 10
-42.5
 20
1060.0
 30
0.0
 11
-42.5
 21
685.0018
 31
0.0
  0
TEXT
  5
93
  8
SPEC
 62
     7
 10
-36.25
 20
1067.9188499999991
 30
0.0
 40
12.699999999999999
  1
仕様
 41
0.8
 11
-36.25
 21
1080.6188499999989
 31
0.0
 73
     3
  0
LINE
  5
94
  8
SPEC
 62
     7
 10
137.5
 20
1060.0
 30
0.0
 11
137.5
 21
685.0018
 31
0.0
  0
TEXT
  5
95
  8
SPEC
 62
     7
 10
-38.00000000000005
 20
1045.9304400000001
 30
0.0
 40
9.8777599999999985
  1
入力
 41
0.8
 11
-38.00000000000005
 21
1055.8081999999999
 31
0.0
 73
     3
  0
TEXT
  5
96
  8
SPEC
 62
     7
 10
-38.00000000000005
 20
952.18043999999998
 30
0.0
 40
9.8777599999999985
  1
出力
 41
0.8
 11
-38.00000000000005
 21
962.05820000000006
 31
0.0
 73
     3
  0
LINE
  5
97
  8
SPEC
 62
     7
 10
-42.5
 20
1060.0
 30
0.0
 11
119.9999999999999
 21
1060.0
 31
0.0
  0
LINE
  5
98
  8
SPEC
 62
     7
 10
37.5
 20
1060.0
 30
0.0
 11
37.5
 21
872.49999999999989
 31
0.0
  0
TEXT
  5
99
  8
SPEC
 62
     7
 10
43.249999999999929
 20
1045.9304400000001
 30
0.0
 40
9.8777599999999985
  1
チャンネル数
 41
0.8
 11
43.249999999999929
 21
1055.8081999999999
 31
0.0
 73
     3
  0
TEXT
  5
9A
  8
SPEC
 62
     7
 10
43.249999999999929
 20
1027.1804400000001
 30
0.0
 40
9.8777599999999985
  1
形式
 41
0.8
 11
43.249999999999929
 21
1037.0581999999999
 31
0.0
 73
     3
  0
TEXT
  5
9B
  8
SPEC
 62
     7
 10
43.249999999999929
 20
1008.43044
 30
0.0
 40
9.8777599999999985
  1
端子
 41
0.8
 11
43.249999999999929
 21
1018.3082000000001
 31
0.0
 73
     3
  0
TEXT
  5
9C
  8
SPEC
 62
     7
 10
43.249999999999929
 20
989.68043999999998
 30
0.0
 40
9.8777599999999985
  1
インピーダンス
 41
0.8
 11
43.249999999999929
 21
999.55820000000006
 31
0.0
 73
     3
  0
TEXT
  5
9D
  8
SPEC
 62
     7
 10
43.249999999999929
 20
970.93043999999998
 30
0.0
 40
9.8777599999999985
  1
最大レベル
 41
0.8
 11
43.249999999999929
 21
980.80820000000006
 31
0.0
 73
     3
  0
TEXT
  5
9E
  8
SPEC
 62
     7
 10
43.249999999999929
 20
952.18043999999998
 30
0.0
 40
9.8777599999999985
  1
チャンネル数
 41
0.8
 11
43.249999999999929
 21
962.05820000000006
 31
0.0
 73
     3
  0
TEXT
  5
9F
  8
SPEC
 62
     7
 10
43.249999999999929
 20
933.43043999999998
 30
0.0
 40
9.8777599999999985
  1
形式
 41
0.8
 11
43.249999999999929
 21
943.30820000000006
 31
0.0
 73
     3
  0
TEXT
  5
A0
  8
SPEC
 62
     7
 10
43.249999999999929
 20
914.68043999999998
 30
0.0
 40
9.8777599999999985
  1
端子
 41
0.8
 11
43.249999999999929
 21
924.55820000000006
 31
0.0
 73
     3
  0
TEXT
  5
A1
  8
SPEC
 62
     7
 10
43.249999999999929
 20
895.93043999999998
 30
0.0
 40
9.8777599999999985
  1
インピーダンス
 41
0.8
 11
43.249999999999929
 21
905.80820000000006
 31
0.0
 73
     3
  0
TEXT
  5
A2
  8
SPEC
 62
     7
 10
43.249999999999929
 20
877.18043999999975
 30
0.0
 40
9.8777599999999985
  1
最大レベル
 41
0.8
 11
43.249999999999929
 21
887.05819999999983
 31
0.0
 73
     3
  0
TEXT
  5
A3
  8
SPEC
 62
     7
 10
142.5
 20
1027.1804400000001
 30
0.0
 40
9.8777599999999985
  1
バランス
 41
0.8
 11
142.5
 21
1037.0581999999999
 31
0.0
 73
     3
  0
TEXT
  5
A4
  8
SPEC
 62
     7
 10
142.5
 20
1008.43044
 30
0.0
 40
9.8777599999999985
  1
ターミナルブロックコネクタ 
 41
0.8
 11
142.5
 21
1018.3082000000001
 31
0.0
 73
     3
  0
TEXT
  5
A5
  8
SPEC
 62
     7
 10
142.5
 20
989.68043999999998
 30
0.0
 40
9.8777599999999985
  1
10kΩ(ライン)
 41
0.8
 11
142.5
 21
999.55820000000006
 31
0.0
 73
     3
  0
TEXT
  5
A6
  8
SPEC
 62
     7
 10
142.5
 20
970.93043999999998
 30
0.0
 40
9.8777599999999985
  1
+20dBu(0dBインプットゲイン)
 41
0.8
 11
142.5
 21
980.80820000000006
 31
0.0
 73
     3
  0
TEXT
  5
A7
  8
SPEC
 62
     7
 10
142.5
 20
952.18043999999998
 30
0.0
 40
9.8777599999999985
  1
8
 41
0.8
 11
142.5
 21
962.05820000000006
 31
0.0
 73
     3
  0
TEXT
  5
A8
  8
SPEC
 62
     7
 10
142.5
 20
933.43043999999998
 30
0.0
 40
9.8777599999999985
  1
バランス
 41
0.8
 11
142.5
 21
943.30820000000006
 31
0.0
 73
     3
  0
TEXT
  5
A9
  8
SPEC
 62
     7
 10
142.5
 20
914.68043999999998
 30
0.0
 40
9.8777599999999985
  1
ターミナルブロックコネクタ 
 41
0.8
 11
142.5
 21
924.55820000000006
 31
0.0
 73
     3
  0
TEXT
  5
AA
  8
SPEC
 62
     7
 10
142.5
 20
895.93043999999998
 30
0.0
 40
9.8777599999999985
  1
75Ω以下
 41
0.8
 11
142.5
 21
905.80820000000006
 31
0.0
 73
     3
  0
TEXT
  5
AB
  8
SPEC
 62
     7
 10
142.5
 20
877.18043999999975
 30
0.0
 40
9.8777599999999985
  1
+20dBu
 41
0.8
 11
142.5
 21
887.05819999999983
 31
0.0
 73
     3
  0
LINE
  5
AC
  8
SPEC
 62
     7
 10
407.5
 20
1060.0
 30
0.0
 11
407.5
 21
685.0018
 31
0.0
  0
LINE
  5
AD
  8
SPEC
 62
     7
 10
-42.5
 20
816.2518
 30
0.0
 11
407.50000000000011
 21
816.2518
 31
0.0
  0
LINE
  5
AE
  8
SPEC
 62
     7
 10
-42.5
 20
778.7518
 30
0.0
 11
407.50000000000011
 21
778.7518
 31
0.0
  0
LINE
  5
AF
  8
SPEC
 62
     7
 10
-42.5
 20
722.5018
 30
0.0
 11
407.50000000000011
 21
722.5018
 31
0.0
  0
LINE
  5
B0
  8
SPEC
 62
     7
 10
-42.5
 20
703.7518
 30
0.0
 11
407.50000000000011
 21
703.7518
 31
0.0
  0
TEXT
  5
B1
  8
SPEC
 62
     7
 10
-38.00000000000005
 20
764.68223999999975
 30
0.0
 40
9.8777599999999985
  1
プロパゲーション・ディレイ
 41
0.8
 11
-38.00000000000005
 21
774.55999999999983
 31
0.0
 73
     3
  0
TEXT
  5
B2
  8
SPEC
 62
     7
 10
-38.00000000000005
 20
708.43223999999987
 30
0.0
 40
9.8777599999999985
  1
消費電力
 41
0.8
 11
-38.00000000000005
 21
718.30999999999995
 31
0.0
 73
     3
  0
TEXT
  5
B3
  8
SPEC
 62
     7
 10
-38.00000000000005
 20
839.68223999999987
 30
0.0
 40
9.8777599999999985
  1
A/D-D/A変換
 41
0.8
 11
-38.00000000000005
 21
849.55999999999972
 31
0.0
 73
     3
  0
TEXT
  5
B4
  8
SPEC
 62
     7
 10
-38.00000000000005
 20
802.18223999999987
 30
0.0
 40
9.8777599999999985
  1
THD
 41
0.8
 11
-38.00000000000005
 21
812.05999999999972
 31
0.0
 73
     3
  0
TEXT
  5
B5
  8
SPEC
 62
     7
 10
142.5
 20
839.68223999999987
 30
0.0
 40
9.8777599999999985
  1
24bit,48kHz
 41
0.8
 11
142.5
 21
849.55999999999972
 31
0.0
 73
     3
  0
LINE
  5
B6
  8
SPEC
 62
     7
 10
-42.5
 20
835.0018
 30
0.0
 11
407.50000000000011
 21
835.0018
 31
0.0
  0
TEXT
  5
B7
  8
SPEC
 62
     7
 10
-38.00000000000005
 20
820.93223999999987
 30
0.0
 40
9.8777599999999985
  1
周波数特性(±0.5dB)
 41
0.8
 11
-38.00000000000005
 21
830.80999999999972
 31
0.0
 73
     3
  0
TEXT
  5
B8
  8
SPEC
 62
     7
 10
142.5
 20
820.93223999999987
 30
0.0
 40
9.8777599999999985
  1
15Hz～20kHz(±0.5dB)
 41
0.8
 11
142.5
 21
830.80999999999972
 31
0.0
 73
     3
  0
TEXT
  5
B9
  8
SPEC
 62
     7
 10
142.5
 20
802.18223999999987
 30
0.0
 40
9.8777599999999985
  1
0.01%%%以下(20Hz～20kHz,+10dBu)
 41
0.8
 11
142.5
 21
812.05999999999972
 31
0.0
 73
     3
  0
TEXT
  5
BA
  8
SPEC
 62
     7
 10
-38.00000000000005
 20
783.43223999999975
 30
0.0
 40
9.8777599999999985
  1
ダイナミックレンジ
 41
0.8
 11
-38.00000000000005
 21
793.30999999999983
 31
0.0
 73
     3
  0
TEXT
  5
BB
  8
SPEC
 62
     7
 10
142.5
 20
783.43223999999975
 30
0.0
 40
9.8777599999999985
  1
108dB(22Hz～22kHz,Aウェイト)
 41
0.8
 11
142.5
 21
793.30999999999983
 31
0.0
 73
     3
  0
LINE
  5
BC
  8
SPEC
 62
     7
 10
-42.5
 20
797.5018
 30
0.0
 11
407.50000000000011
 21
797.5018
 31
0.0
  0
TEXT
  5
BD
  8
SPEC
 62
     7
 10
142.5
 20
764.68223999999975
 30
0.0
 40
9.8777599999999985
  1
1.4msec フラット・セットアップ
 41
0.8
 11
142.5
 21
774.55999999999983
 31
0.0
 73
     3
  0
LINE
  5
BE
  8
SPEC
 62
     7
 10
-42.5
 20
760.0018
 30
0.0
 11
407.50000000000011
 21
760.0018
 31
0.0
  0
TEXT
  5
BF
  8
SPEC
 62
     7
 10
-38.00000000000005
 20
745.93223999999975
 30
0.0
 40
9.8777599999999985
  1
ファンタム電源
 41
0.8
 11
-38.00000000000005
 21
755.80999999999983
 31
0.0
 73
     3
  0
TEXT
  5
C0
  8
SPEC
 62
     7
 10
142.5
 20
745.93223999999975
 30
0.0
 40
9.8777599999999985
  1
DC48V/チャンネル毎にon/off可能
 41
0.8
 11
142.5
 21
755.80999999999983
 31
0.0
 73
     3
  0
LINE
  5
C1
  8
SPEC
 62
     7
 10
-42.5
 20
741.2518
 30
0.0
 11
407.50000000000011
 21
741.2518
 31
0.0
  0
TEXT
  5
C2
  8
SPEC
 62
     7
 10
-38.00000000000005
 20
727.18223999999975
 30
0.0
 40
9.8777599999999985
  1
電源
 41
0.8
 11
-38.00000000000005
 21
737.05999999999983
 31
0.0
 73
     3
  0
TEXT
  5
C3
  8
SPEC
 62
     7
 10
142.5
 20
727.18223999999975
 30
0.0
 40
9.8777599999999985
  1
AC85～270V,50/60Hz
 41
0.8
 11
142.5
 21
737.05999999999983
 31
0.0
 73
     3
  0
TEXT
  5
C4
  8
SPEC
 62
     7
 10
142.5
 20
708.43223999999987
 30
0.0
 40
9.8777599999999985
  1
35W
 41
0.8
 11
142.5
 21
718.30999999999995
 31
0.0
 73
     3
  0
LINE
  5
C5
  8
SPEC
 62
     7
 10
-42.5
 20
685.0018
 30
0.0
 11
407.5
 21
685.0018
 31
0.0
  0
TEXT
  5
C6
  8
SPEC
 62
     7
 10
-38.00000000000005
 20
689.68223999999987
 30
0.0
 40
9.8777599999999985
  1
寸法(W×H×D)/重量
 41
0.8
 11
-38.00000000000005
 21
699.55999999999995
 31
0.0
 73
     3
  0
TEXT
  5
C7
  8
SPEC
 62
     7
 10
142.5
 20
689.68223999999987
 30
0.0
 40
9.8777599999999985
  1
483×44×281mm(突起部含まず)/約4.0kg
 41
0.8
 11
142.5
 21
699.55999999999995
 31
0.0
 73
     3
  0
TEXT
  5
C8
  8
SPEC
 62
     7
 10
-38.00000000000005
 20
858.43223999999987
 30
0.0
 40
9.8777599999999985
  1
ネットワーク・コネクタ 
 41
0.8
 11
-38.00000000000005
 21
868.30999999999972
 31
0.0
 73
     3
  0
TEXT
  5
C9
  8
SPEC
 62
     7
 10
142.5
 20
858.43223999999987
 30
0.0
 40
9.8777599999999985
  1
IN×1,OUT×1(RJ45)
 41
0.8
 11
142.5
 21
868.30999999999972
 31
0.0
 73
     3
  0
LINE
  5
CA
  8
SPEC
 62
     7
 10
-42.5
 20
853.7518
 30
0.0
 11
407.50000000000011
 21
853.7518
 31
0.0
  0
TEXT
  5
CB
  8
DIMNSIONS
 62
     7
 10
269.99999999999989
 20
-129.1111611111111
 30
0.0
 40
14.111111111111111
  1
(単位：mm)
 41
0.8
 11
269.99999999999989
 21
-115.00005
 31
0.0
 73
     3
  0
LINE
  5
CC
  8
DIMNSIONS
 62
     7
 10
-10.0
 20
44.0
 30
0.0
 11
-40.0
 21
44.0
 31
0.0
  0
LINE
  5
CD
  8
DIMNSIONS
 62
     7
 10
-10.0
 20
0.0
 30
0.0
 11
-40.0
 21
0.0
 31
0.0
  0
LINE
  5
CE
  8
DIMNSIONS
 62
     7
 10
-30.0
 20
44.0
 30
0.0
 11
-30.0
 21
0.0
 31
0.0
  0
LINE
  5
CF
  8
DIMNSIONS
 62
     7
 10
-30.0
 20
44.0
 30
0.0
 11
-26.649801024248799
 21
31.49688720703125
 31
0.0
  0
LINE
  5
D0
  8
DIMNSIONS
 62
     7
 10
-30.0
 20
44.0
 30
0.0
 11
-33.350198975751198
 21
31.49688720703125
 31
0.0
  0
LINE
  5
D1
  8
DIMNSIONS
 62
     7
 10
-30.0
 20
0.0
 30
0.0
 11
-33.350198975751198
 21
12.50311279296875
 31
0.0
  0
LINE
  5
D2
  8
DIMNSIONS
 62
     7
 10
-30.0
 20
0.0
 30
0.0
 11
-26.649801024248799
 21
12.50311279296875
 31
0.0
  0
TEXT
  5
D3
  8
DIMNSIONS
 62
     7
 10
-36.027777777777793
 20
13.180555555555539
 30
0.0
 40
14.111111111111111
  1
44
 50
90.0
 41
0.8
 11
-50.1388888888889
 21
13.180555555555539
 31
0.0
 73
     3
  0
LINE
  5
D4
  8
DIMNSIONS
 62
     7
 10
0.0
 20
-10.0
 30
0.0
 11
0.0
 21
-50.0
 31
0.0
  0
LINE
  5
D5
  8
DIMNSIONS
 62
     7
 10
482.60000000000002
 20
-10.0
 30
0.0
 11
482.60000000000002
 21
-50.0
 31
0.0
  0
LINE
  5
D6
  8
DIMNSIONS
 62
     7
 10
0.0
 20
-40.0
 30
0.0
 11
482.60000000000002
 21
-40.0
 31
0.0
  0
LINE
  5
D7
  8
DIMNSIONS
 62
     7
 10
0.0
 20
-40.0
 30
0.0
 11
12.50311279296875
 21
-36.649801024248802
 31
0.0
  0
LINE
  5
D8
  8
DIMNSIONS
 62
     7
 10
0.0
 20
-40.0
 30
0.0
 11
12.50311279296875
 21
-43.350198975751191
 31
0.0
  0
LINE
  5
D9
  8
DIMNSIONS
 62
     7
 10
482.60000000000002
 20
-40.0
 30
0.0
 11
470.09688720703122
 21
-43.350198975751191
 31
0.0
  0
LINE
  5
DA
  8
DIMNSIONS
 62
     7
 10
482.60000000000002
 20
-40.0
 30
0.0
 11
470.09688720703122
 21
-36.649801024248802
 31
0.0
  0
TEXT
  5
DB
  8
DIMNSIONS
 62
     7
 10
228.0708333333333
 20
-33.9722222222222
 30
0.0
 40
14.111111111111111
  1
483
 41
0.8
 11
228.0708333333333
 21
-19.861111111111079
 31
0.0
 73
     3
  0
LINE
  5
DC
  8
DIMNSIONS
 62
     7
 10
-10.0
 20
94.600000000000023
 30
0.0
 11
-25.0
 21
94.600000000000023
 31
0.0
  0
LINE
  5
DD
  8
DIMNSIONS
 62
     7
 10
-10.0
 20
90.0
 30
0.0
 11
-25.0
 21
90.0
 31
0.0
  0
LINE
  5
DE
  8
DIMNSIONS
 62
     7
 10
-15.0
 20
90.0
 30
0.0
 11
-15.0
 21
94.600000000000023
 31
0.0
  0
LINE
  5
DF
  8
DIMNSIONS
 62
     7
 10
-15.0
 20
94.600000000000023
 30
0.0
 11
-15.0
 21
118.8194444444444
 31
0.0
  0
LINE
  5
E0
  8
DIMNSIONS
 62
     7
 10
-15.0
 20
94.600000000000023
 30
0.0
 11
-18.350198975751201
 21
107.1031127929688
 31
0.0
  0
LINE
  5
E1
  8
DIMNSIONS
 62
     7
 10
-15.0
 20
94.600000000000023
 30
0.0
 11
-11.6498010242488
 21
107.1031127929688
 31
0.0
  0
LINE
  5
E2
  8
DIMNSIONS
 62
     7
 10
-15.0
 20
90.0
 30
0.0
 11
-15.0
 21
65.0
 31
0.0
  0
LINE
  5
E3
  8
DIMNSIONS
 62
     7
 10
-15.0
 20
90.0
 30
0.0
 11
-11.6498010242488
 21
77.49688720703125
 31
0.0
  0
LINE
  5
E4
  8
DIMNSIONS
 62
     7
 10
-15.0
 20
90.0
 30
0.0
 11
-18.350198975751201
 21
77.49688720703125
 31
0.0
  0
TEXT
  5
E5
  8
DIMNSIONS
 62
     7
 10
-21.0277777777778
 20
110.0
 30
0.0
 40
14.111111111111111
  1
5
 50
90.0
 41
0.8
 11
-35.138888888888907
 21
110.0
 31
0.0
 73
     3
  0
LINE
  5
E6
  8
DIMNSIONS
 62
     7
 10
34.300000000000011
 20
384.10000000000002
 30
0.0
 11
-50.0
 21
384.10000000000002
 31
0.0
  0
LINE
  5
E7
  8
DIMNSIONS
 62
     7
 10
14.30000000000001
 20
370.60000000000002
 30
0.0
 11
-50.0
 21
370.60000000000002
 31
0.0
  0
LINE
  5
E8
  8
DIMNSIONS
 62
     7
 10
-40.0
 20
370.60000000000002
 30
0.0
 11
-40.0
 21
384.10000000000002
 31
0.0
  0
LINE
  5
E9
  8
DIMNSIONS
 62
     7
 10
-40.0
 20
384.10000000000002
 30
0.0
 11
-40.0
 21
414.23888888888888
 31
0.0
  0
LINE
  5
EA
  8
DIMNSIONS
 62
     7
 10
-40.0
 20
384.10000000000002
 30
0.0
 11
-43.350198975751191
 21
396.60311279296877
 31
0.0
  0
LINE
  5
EB
  8
DIMNSIONS
 62
     7
 10
-40.0
 20
384.10000000000002
 30
0.0
 11
-36.649801024248802
 21
396.60311279296877
 31
0.0
  0
LINE
  5
EC
  8
DIMNSIONS
 62
     7
 10
-40.0
 20
370.60000000000002
 30
0.0
 11
-40.0
 21
345.60000000000002
 31
0.0
  0
LINE
  5
ED
  8
DIMNSIONS
 62
     7
 10
-40.0
 20
370.60000000000002
 30
0.0
 11
-36.649801024248802
 21
358.09688720703127
 31
0.0
  0
LINE
  5
EE
  8
DIMNSIONS
 62
     7
 10
-40.0
 20
370.60000000000002
 30
0.0
 11
-43.350198975751191
 21
358.09688720703127
 31
0.0
  0
TEXT
  5
EF
  8
DIMNSIONS
 62
     7
 10
-46.027777777777779
 20
396.60000000000002
 30
0.0
 40
14.111111111111111
  1
14
 50
90.0
 41
0.8
 11
-60.1388888888889
 21
396.60000000000002
 31
0.0
 73
     3
  0
LINE
  5
F0
  8
DIMNSIONS
 62
     7
 10
24.300000000000011
 20
380.60000000000002
 30
0.0
 11
24.300000000000011
 21
410.0
 31
0.0
  0
LINE
  5
F1
  8
DIMNSIONS
 62
     7
 10
458.30000000000001
 20
380.60000000000002
 30
0.0
 11
458.30000000000001
 21
410.0
 31
0.0
  0
LINE
  5
F2
  8
DIMNSIONS
 62
     7
 10
24.300000000000011
 20
400.0
 30
0.0
 11
458.30000000000001
 21
400.0
 31
0.0
  0
LINE
  5
F3
  8
DIMNSIONS
 62
     7
 10
24.300000000000011
 20
400.0
 30
0.0
 11
36.803112792968761
 21
403.35019897575108
 31
0.0
  0
LINE
  5
F4
  8
DIMNSIONS
 62
     7
 10
24.300000000000011
 20
400.0
 30
0.0
 11
36.803112792968761
 21
396.6498010242488
 31
0.0
  0
LINE
  5
F5
  8
DIMNSIONS
 62
     7
 10
458.30000000000001
 20
400.0
 30
0.0
 11
445.79688720703132
 21
396.6498010242488
 31
0.0
  0
LINE
  5
F6
  8
DIMNSIONS
 62
     7
 10
458.30000000000001
 20
400.0
 30
0.0
 11
445.79688720703132
 21
403.35019897575108
 31
0.0
  0
TEXT
  5
F7
  8
DIMNSIONS
 62
     7
 10
228.0708333333333
 20
406.02777777777771
 30
0.0
 40
14.111111111111111
  1
434
 41
0.8
 11
228.0708333333333
 21
420.1388888888888
 31
0.0
 73
     3
  0
LINE
  5
F8
  8
DIMNSIONS
 62
     7
 10
-10.0
 20
90.0
 30
0.0
 11
-50.0
 21
90.0
 31
0.0
  0
LINE
  5
F9
  8
DIMNSIONS
 62
     7
 10
14.30000000000001
 20
370.60000000000002
 30
0.0
 11
-50.0
 21
370.60000000000002
 31
0.0
  0
LINE
  5
FA
  8
DIMNSIONS
 62
     7
 10
-40.0
 20
90.0
 30
0.0
 11
-40.0
 21
370.60000000000002
 31
0.0
  0
LINE
  5
FB
  8
DIMNSIONS
 62
     7
 10
-40.0
 20
90.0
 30
0.0
 11
-43.350198975751191
 21
102.50311279296869
 31
0.0
  0
LINE
  5
FC
  8
DIMNSIONS
 62
     7
 10
-40.0
 20
90.0
 30
0.0
 11
-36.649801024248802
 21
102.50311279296869
 31
0.0
  0
LINE
  5
FD
  8
DIMNSIONS
 62
     7
 10
-40.0
 20
370.60000000000002
 30
0.0
 11
-36.649801024248802
 21
358.09688720703127
 31
0.0
  0
LINE
  5
FE
  8
DIMNSIONS
 62
     7
 10
-40.0
 20
370.60000000000002
 30
0.0
 11
-43.350198975751191
 21
358.09688720703127
 31
0.0
  0
TEXT
  5
FF
  8
DIMNSIONS
 62
     7
 10
-46.027777777777779
 20
217.0708333333333
 30
0.0
 40
14.111111111111111
  1
281
 50
90.0
 41
0.8
 11
-60.1388888888889
 21
217.0708333333333
 31
0.0
 73
     3
  0
LINE
  5
100
  8
DIMNSIONS
 62
     7
 10
22.800000000000072
 20
128.09999999999999
 30
0.0
 11
22.800000000000072
 21
435.0
 31
0.0
  0
LINE
  5
101
  8
DIMNSIONS
 62
     7
 10
459.79999999999978
 20
128.09999999999999
 30
0.0
 11
459.79999999999978
 21
435.0
 31
0.0
  0
LINE
  5
102
  8
DIMNSIONS
 62
     7
 10
22.800000000000072
 20
425.0
 30
0.0
 11
459.79999999999978
 21
425.0
 31
0.0
  0
LINE
  5
103
  8
DIMNSIONS
 62
     7
 10
22.800000000000072
 20
425.0
 30
0.0
 11
35.303112792968811
 21
428.35019897575108
 31
0.0
  0
LINE
  5
104
  8
DIMNSIONS
 62
     7
 10
22.800000000000072
 20
425.0
 30
0.0
 11
35.303112792968811
 21
421.6498010242488
 31
0.0
  0
LINE
  5
105
  8
DIMNSIONS
 62
     7
 10
459.79999999999978
 20
425.0
 30
0.0
 11
447.29688720703098
 21
421.6498010242488
 31
0.0
  0
LINE
  5
106
  8
DIMNSIONS
 62
     7
 10
459.79999999999978
 20
425.0
 30
0.0
 11
447.29688720703098
 21
428.35019897575108
 31
0.0
  0
TEXT
  5
107
  8
DIMNSIONS
 62
     7
 10
228.0708333333333
 20
431.02777777777771
 30
0.0
 40
14.111111111111111
  1
437
 41
0.8
 11
228.0708333333333
 21
445.1388888888888
 31
0.0
 73
     3
  0
TEXT
  5
108
  8
DATA
 62
     7
 10
619.99999999999989
 20
-129.3930499999999
 30
0.0
 40
12.699999999999999
  1
SW9088iis
 41
0.8
 11
619.99999999999989
 21
-116.6930499999999
 31
0.0
 73
     3
  0
TEXT
  5
109
  8
DATA
 62
     7
 10
619.99999999999989
 20
-103.1430499999999
 30
0.0
 40
12.699999999999999
  1
BSS
 41
0.8
 11
619.99999999999989
 21
-90.443049999999957
 31
0.0
 73
     3
  0
TEXT
  5
10A
  8
DATA
 62
     7
 10
-30.0
 20
-168.1749999999999
 30
0.0
 40
8.466666666666665
  1
仕様および外観は予告なく変更されることがありますので、ご了承ください。
 41
0.8
 11
-30.0
 21
-159.7083333333332
 31
0.0
 73
     3
  0
POLYLINE
  5
10B
  8
DATA
 62
     7
 66
     1
 10
0.0
 20
0.0
 30
0.0
 70
     1
  0
VERTEX
  5
91F
  8
DATA
 62
     7
 10
0.0
 20
44.0
 30
0.0
  0
VERTEX
  5
920
  8
DATA
 62
     7
 10
482.60000000000002
 20
44.0
 30
0.0
  0
VERTEX
  5
921
  8
DATA
 62
     7
 10
482.60000000000002
 20
0.0
 30
0.0
  0
VERTEX
  5
922
  8
DATA
 62
     7
 10
0.0
 20
0.0
 30
0.0
  0
SEQEND
  5
923
  8
DATA
 62
     7
  0
POLYLINE
  5
111
  8
DATA
 62
     7
 66
     1
 10
0.0
 20
0.0
 30
0.0
 70
     1
  0
VERTEX
  5
924
  8
DATA
 62
     7
 10
24.300000000000011
 20
370.60000000000002
 30
0.0
  0
VERTEX
  5
925
  8
DATA
 62
     7
 10
458.30000000000001
 20
370.60000000000002
 30
0.0
  0
VERTEX
  5
926
  8
DATA
 62
     7
 10
458.30000000000001
 20
95.400000000000034
 30
0.0
  0
VERTEX
  5
927
  8
DATA
 62
     7
 10
24.300000000000011
 20
95.400000000000034
 30
0.0
  0
SEQEND
  5
928
  8
DATA
 62
     7
  0
POLYLINE
  5
117
  8
DATA
 62
     7
 66
     1
 10
0.0
 20
0.0
 30
0.0
 70
     1
  0
VERTEX
  5
929
  8
DATA
 62
     7
 10
0.0
 20
504.0
 30
0.0
  0
VERTEX
  5
92A
  8
DATA
 62
     7
 10
483.0
 20
504.0
 30
0.0
  0
VERTEX
  5
92B
  8
DATA
 62
     7
 10
483.0
 20
460.0
 30
0.0
  0
VERTEX
  5
92C
  8
DATA
 62
     7
 10
0.0
 20
460.0
 30
0.0
  0
SEQEND
  5
92D
  8
DATA
 62
     7
  0
LINE
  5
11D
  8
DATA
 62
     7
 10
26.100000000000019
 20
93.600000000000023
 30
0.0
 11
0.0
 21
93.600000000000023
 31
0.0
  0
LINE
  5
11E
  8
DATA
 62
     7
 10
0.0
 20
90.0
 30
0.0
 11
482.60000000000002
 21
90.0
 31
0.0
  0
LINE
  5
11F
  8
DATA
 62
     7
 10
0.0
 20
91.699999999999989
 30
0.0
 11
482.60000000000002
 21
91.699999999999989
 31
0.0
  0
LINE
  5
120
  8
DATA
 62
     7
 10
25.100000000000019
 20
94.600000000000023
 30
0.0
 11
25.100000000000019
 21
95.399999999999963
 31
0.0
  0
LINE
  5
121
  8
DATA
 62
     7
 10
28.0
 20
95.400000000000034
 30
0.0
 11
28.0
 21
91.600000000000009
 31
0.0
  0
LINE
  5
122
  8
DATA
 62
     7
 10
0.0
 20
90.0
 30
0.0
 11
0.0
 21
94.600000000000023
 31
0.0
  0
LINE
  5
123
  8
DATA
 62
     7
 10
510.69999999999999
 20
44.0
 30
0.0
 11
510.69999999999999
 21
0.0
 31
0.0
  0
LINE
  5
124
  8
DATA
 62
     7
 10
513.60000000000002
 20
44.0
 30
0.0
 11
513.60000000000002
 21
0.0
 31
0.0
  0
LINE
  5
125
  8
DATA
 62
     7
 10
521.10000000000002
 20
32.5
 30
0.0
 11
552.10000001716537
 21
32.5
 31
0.0
  0
LINE
  5
126
  8
DATA
 62
     7
 10
789.60000000000002
 20
43.5
 30
0.0
 11
518.59999999999991
 21
43.5
 31
0.0
  0
LINE
  5
127
  8
DATA
 62
     7
 10
509.0
 20
44.0
 30
0.0
 11
509.0
 21
0.0
 31
0.0
  0
LINE
  5
128
  8
DATA
 62
     7
 10
518.59999999999991
 20
35.0
 30
0.0
 11
518.59999999999991
 21
43.5
 31
0.0
  0
LINE
  5
129
  8
DATA
 62
     7
 10
509.0
 20
44.0
 30
0.0
 11
513.60000000000002
 21
44.0
 31
0.0
  0
LINE
  5
12A
  8
DATA
 62
     7
 10
513.60000000000002
 20
41.0
 30
0.0
 11
518.59999999999991
 21
41.0
 31
0.0
  0
LINE
  5
12B
  8
DATA
 62
     7
 10
509.0
 20
0.0
 30
0.0
 11
516.5
 21
0.0
 31
0.0
  0
LINE
  5
12C
  8
DATA
 62
     7
 10
513.60000000000002
 20
0.5
 30
0.0
 11
788.5999999999998
 21
0.5
 31
0.0
  0
LINE
  5
12D
  8
DATA
 62
     7
 10
788.5999999999998
 20
0.5
 30
0.0
 11
788.5999999999998
 21
42.5
 31
0.0
  0
LINE
  5
12E
  8
DATA
 62
     7
 10
789.60000000000002
 20
43.5
 30
0.0
 11
789.60000000000002
 21
38.0
 31
0.0
  0
LINE
  5
12F
  8
DATA
 62
     7
 10
787.60000000000002
 20
43.5
 30
0.0
 11
787.60000000000002
 21
35.00000039908651
 31
0.0
  0
LINE
  5
130
  8
DATA
 62
     7
 10
789.60000000000002
 20
41.14999999999997
 30
0.0
 11
789.60000000000002
 21
34.849999999999973
 31
0.0
  0
ARC
  5
131
  8
DATA
 62
     7
 10
787.04250000000002
 20
38.0
 30
0.0
 40
4.057499999999985
 50
309.07330987625693
 51
50.926690123742972
  0
LINE
  5
132
  8
DATA
 62
     7
 10
24.300000000000011
 20
461.0
 30
0.0
 11
24.300000000000011
 21
472.0
 31
0.0
  0
LINE
  5
133
  8
DATA
 62
     7
 10
458.30000000000001
 20
461.0
 30
0.0
 11
458.30000000000001
 21
472.0
 31
0.0
  0
LINE
  5
134
  8
DATA
 62
     7
 10
25.300000000000011
 20
466.5
 30
0.0
 11
25.300000000000011
 21
503.5
 31
0.0
  0
LINE
  5
135
  8
DATA
 62
     7
 10
25.300000000000011
 20
466.5
 30
0.0
 11
457.30000000000001
 21
466.5
 31
0.0
  0
LINE
  5
136
  8
DATA
 62
     7
 10
457.30000000000001
 20
466.5
 30
0.0
 11
457.30000000000001
 21
503.5
 31
0.0
  0
LINE
  5
137
  8
DATA
 62
     7
 10
789.60000000000002
 20
34.850000000000023
 30
0.0
 11
788.5999999999998
 21
34.850000000000023
 31
0.0
  0
CIRCLE
  5
138
  8
DATA
 62
     7
 10
123.3
 20
466.5
 30
0.0
 40
3.149999999999991
  0
POLYLINE
  5
139
  8
DATA
 62
     7
 66
     1
 10
0.0
 20
0.0
 30
0.0
  0
VERTEX
  5
92E
  8
DATA
 62
     7
 10
123.8
 20
467.0
 30
0.0
  0
VERTEX
  5
92F
  8
DATA
 62
     7
 10
123.8
 20
468.5
 30
0.0
  0
VERTEX
  5
930
  8
DATA
 62
     7
 10
122.8
 20
468.5
 30
0.0
  0
VERTEX
  5
931
  8
DATA
 62
     7
 10
122.8
 20
467.0
 30
0.0
  0
SEQEND
  5
932
  8
DATA
 62
     7
  0
POLYLINE
  5
13F
  8
DATA
 62
     7
 66
     1
 10
0.0
 20
0.0
 30
0.0
  0
VERTEX
  5
933
  8
DATA
 62
     7
 10
123.8
 20
466.0
 30
0.0
  0
VERTEX
  5
934
  8
DATA
 62
     7
 10
123.8
 20
464.5
 30
0.0
  0
VERTEX
  5
935
  8
DATA
 62
     7
 10
122.8
 20
464.5
 30
0.0
  0
VERTEX
  5
936
  8
DATA
 62
     7
 10
122.8
 20
466.0
 30
0.0
  0
SEQEND
  5
937
  8
DATA
 62
     7
  0
CIRCLE
  5
145
  8
DATA
 62
     7
 10
123.3
 20
466.5
 30
0.0
 40
3.149999999999991
  0
POLYLINE
  5
146
  8
DATA
 62
     7
 66
     1
 10
0.0
 20
0.0
 30
0.0
  0
VERTEX
  5
938
  8
DATA
 62
     7
 10
123.8
 20
466.0
 30
0.0
  0
VERTEX
  5
939
  8
DATA
 62
     7
 10
125.3
 20
466.0
 30
0.0
  0
VERTEX
  5
93A
  8
DATA
 62
     7
 10
125.3
 20
467.0
 30
0.0
  0
VERTEX
  5
93B
  8
DATA
 62
     7
 10
123.8
 20
467.0
 30
0.0
  0
SEQEND
  5
93C
  8
DATA
 62
     7
  0
POLYLINE
  5
14C
  8
DATA
 62
     7
 66
     1
 10
0.0
 20
0.0
 30
0.0
  0
VERTEX
  5
93D
  8
DATA
 62
     7
 10
122.8
 20
466.0
 30
0.0
  0
VERTEX
  5
93E
  8
DATA
 62
     7
 10
121.3
 20
466.0
 30
0.0
  0
VERTEX
  5
93F
  8
DATA
 62
     7
 10
121.3
 20
467.0
 30
0.0
  0
VERTEX
  5
940
  8
DATA
 62
     7
 10
122.8
 20
467.0
 30
0.0
  0
SEQEND
  5
941
  8
DATA
 62
     7
  0
CIRCLE
  5
152
  8
DATA
 62
     7
 10
359.30000000000001
 20
466.5
 30
0.0
 40
3.149999999999991
  0
POLYLINE
  5
153
  8
DATA
 62
     7
 66
     1
 10
0.0
 20
0.0
 30
0.0
  0
VERTEX
  5
942
  8
DATA
 62
     7
 10
359.80000000000001
 20
467.0
 30
0.0
  0
VERTEX
  5
943
  8
DATA
 62
     7
 10
359.80000000000001
 20
468.5
 30
0.0
  0
VERTEX
  5
944
  8
DATA
 62
     7
 10
358.80000000000001
 20
468.5
 30
0.0
  0
VERTEX
  5
945
  8
DATA
 62
     7
 10
358.80000000000001
 20
467.0
 30
0.0
  0
SEQEND
  5
946
  8
DATA
 62
     7
  0
POLYLINE
  5
159
  8
DATA
 62
     7
 66
     1
 10
0.0
 20
0.0
 30
0.0
  0
VERTEX
  5
947
  8
DATA
 62
     7
 10
359.80000000000001
 20
466.0
 30
0.0
  0
VERTEX
  5
948
  8
DATA
 62
     7
 10
359.80000000000001
 20
464.5
 30
0.0
  0
VERTEX
  5
949
  8
DATA
 62
     7
 10
358.80000000000001
 20
464.5
 30
0.0
  0
VERTEX
  5
94A
  8
DATA
 62
     7
 10
358.80000000000001
 20
466.0
 30
0.0
  0
SEQEND
  5
94B
  8
DATA
 62
     7
  0
CIRCLE
  5
15F
  8
DATA
 62
     7
 10
359.30000000000001
 20
466.5
 30
0.0
 40
3.149999999999991
  0
POLYLINE
  5
160
  8
DATA
 62
     7
 66
     1
 10
0.0
 20
0.0
 30
0.0
  0
VERTEX
  5
94C
  8
DATA
 62
     7
 10
359.80000000000001
 20
466.0
 30
0.0
  0
VERTEX
  5
94D
  8
DATA
 62
     7
 10
361.30000000000001
 20
466.0
 30
0.0
  0
VERTEX
  5
94E
  8
DATA
 62
     7
 10
361.30000000000001
 20
467.0
 30
0.0
  0
VERTEX
  5
94F
  8
DATA
 62
     7
 10
359.80000000000001
 20
467.0
 30
0.0
  0
SEQEND
  5
950
  8
DATA
 62
     7
  0
POLYLINE
  5
166
  8
DATA
 62
     7
 66
     1
 10
0.0
 20
0.0
 30
0.0
  0
VERTEX
  5
951
  8
DATA
 62
     7
 10
358.80000000000001
 20
466.0
 30
0.0
  0
VERTEX
  5
952
  8
DATA
 62
     7
 10
357.30000000000001
 20
466.0
 30
0.0
  0
VERTEX
  5
953
  8
DATA
 62
     7
 10
357.30000000000001
 20
467.0
 30
0.0
  0
VERTEX
  5
954
  8
DATA
 62
     7
 10
358.80000000000001
 20
467.0
 30
0.0
  0
SEQEND
  5
955
  8
DATA
 62
     7
  0
ARC
  5
16C
  8
DATA
 62
     7
 10
123.3
 20
466.5
 30
0.0
 40
4.0
 50
0.0
 51
180.0
  0
ARC
  5
16D
  8
DATA
 62
     7
 10
359.30000000000001
 20
466.5
 30
0.0
 40
4.0
 50
0.0
 51
180.0
  0
LINE
  5
16E
  8
DATA
 62
     7
 10
24.300000000000011
 20
472.0
 30
0.0
 11
25.300000000000011
 21
472.0
 31
0.0
  0
LINE
  5
16F
  8
DATA
 62
     7
 10
458.30000000000001
 20
472.0
 30
0.0
 11
457.30000000000001
 21
472.0
 31
0.0
  0
LINE
  5
170
  8
DATA
 62
     7
 10
458.30000000000001
 20
461.0
 30
0.0
 11
24.300000000000011
 21
461.0
 31
0.0
  0
LINE
  5
171
  8
DATA
 62
     7
 10
25.300000000000011
 20
503.5
 30
0.0
 11
457.30000000000001
 21
503.5
 31
0.0
  0
TEXT
  5
172
  8
DATA
 62
     7
 10
395.17500000000001
 20
502.09999999999991
 30
0.0
 40
3.6000000000000001
  1
T1A-250V FUSE
 50
180.0
 41
0.8
 11
395.17500000000001
 21
498.5
 31
0.0
 73
     3
  0
LINE
  5
173
  8
DATA
 62
     7
 10
513.60000000000002
 20
44.0
 30
0.0
 11
515.60000000000002
 21
44.0
 31
0.0
  0
LINE
  5
174
  8
DATA
 62
     7
 10
6.849999999999965
 20
10.05000000000001
 30
0.0
 11
10.14999999999997
 21
10.05000000000001
 31
0.0
  0
LINE
  5
175
  8
DATA
 62
     7
 10
6.849999999999965
 20
2.9499999999999882
 30
0.0
 11
10.14999999999997
 21
2.9499999999999882
 31
0.0
  0
ARC
  5
176
  8
DATA
 62
     7
 10
6.8499999999999091
 20
6.5
 30
0.0
 40
3.5500000000000109
 50
90.0
 51
270.0
  0
ARC
  5
177
  8
DATA
 62
     7
 10
10.14999999999997
 20
6.5
 30
0.0
 40
3.5500000000000109
 50
270.0
 51
90.0
  0
LINE
  5
178
  8
DATA
 62
     7
 10
6.849999999999965
 20
41.050000000000011
 30
0.0
 11
10.14999999999997
 21
41.050000000000011
 31
0.0
  0
LINE
  5
179
  8
DATA
 62
     7
 10
6.849999999999965
 20
33.949999999999989
 30
0.0
 11
10.14999999999997
 21
33.949999999999989
 31
0.0
  0
ARC
  5
17A
  8
DATA
 62
     7
 10
6.8499999999999091
 20
37.5
 30
0.0
 40
3.5500000000000109
 50
90.0
 51
270.0
  0
ARC
  5
17B
  8
DATA
 62
     7
 10
10.14999999999997
 20
37.5
 30
0.0
 40
3.5500000000000109
 50
270.0
 51
90.0
  0
LINE
  5
17C
  8
DATA
 62
     7
 10
475.75
 20
10.05000000000001
 30
0.0
 11
472.44999999999999
 21
10.05000000000001
 31
0.0
  0
LINE
  5
17D
  8
DATA
 62
     7
 10
475.75
 20
2.9499999999999882
 30
0.0
 11
472.44999999999999
 21
2.9499999999999882
 31
0.0
  0
ARC
  5
17E
  8
DATA
 62
     7
 10
475.75
 20
6.5
 30
0.0
 40
3.5500000000000109
 50
270.0
 51
90.0
  0
ARC
  5
17F
  8
DATA
 62
     7
 10
472.44999999999999
 20
6.5
 30
0.0
 40
3.5500000000000109
 50
90.0
 51
270.0
  0
LINE
  5
180
  8
DATA
 62
     7
 10
475.75
 20
41.050000000000011
 30
0.0
 11
472.44999999999999
 21
41.050000000000011
 31
0.0
  0
LINE
  5
181
  8
DATA
 62
     7
 10
475.75
 20
33.949999999999989
 30
0.0
 11
472.44999999999999
 21
33.949999999999989
 31
0.0
  0
ARC
  5
182
  8
DATA
 62
     7
 10
475.75
 20
37.5
 30
0.0
 40
3.5500000000000109
 50
270.0
 51
90.0
  0
ARC
  5
183
  8
DATA
 62
     7
 10
472.44999999999999
 20
37.5
 30
0.0
 40
3.5500000000000109
 50
90.0
 51
270.0
  0
LINE
  5
184
  8
DATA
 62
     7
 10
476.14999999999992
 20
470.0499999999999
 30
0.0
 11
472.85000000000002
 21
470.0499999999999
 31
0.0
  0
LINE
  5
185
  8
DATA
 62
     7
 10
476.14999999999992
 20
462.94999999999999
 30
0.0
 11
472.85000000000002
 21
462.94999999999999
 31
0.0
  0
ARC
  5
186
  8
DATA
 62
     7
 10
476.14999999999992
 20
466.5
 30
0.0
 40
3.5500000000000109
 50
270.0
 51
90.0
  0
ARC
  5
187
  8
DATA
 62
     7
 10
472.85000000000002
 20
466.5
 30
0.0
 40
3.5500000000000109
 50
90.0
 51
270.0
  0
LINE
  5
188
  8
DATA
 62
     7
 10
476.14999999999992
 20
501.05000000000001
 30
0.0
 11
472.85000000000002
 21
501.05000000000001
 31
0.0
  0
LINE
  5
189
  8
DATA
 62
     7
 10
476.14999999999992
 20
493.94999999999987
 30
0.0
 11
472.85000000000002
 21
493.94999999999987
 31
0.0
  0
ARC
  5
18A
  8
DATA
 62
     7
 10
476.14999999999992
 20
497.5
 30
0.0
 40
3.5500000000000109
 50
270.0
 51
90.0
  0
ARC
  5
18B
  8
DATA
 62
     7
 10
472.85000000000002
 20
497.5
 30
0.0
 40
3.5500000000000109
 50
90.0
 51
270.0
  0
LINE
  5
18C
  8
DATA
 62
     7
 10
6.8500000000000227
 20
470.0499999999999
 30
0.0
 11
10.150000000000031
 21
470.0499999999999
 31
0.0
  0
LINE
  5
18D
  8
DATA
 62
     7
 10
6.8500000000000227
 20
462.94999999999999
 30
0.0
 11
10.150000000000031
 21
462.94999999999999
 31
0.0
  0
ARC
  5
18E
  8
DATA
 62
     7
 10
6.849999999999965
 20
466.5
 30
0.0
 40
3.5500000000000109
 50
90.0
 51
270.0
  0
ARC
  5
18F
  8
DATA
 62
     7
 10
10.150000000000031
 20
466.5
 30
0.0
 40
3.5500000000000109
 50
270.0
 51
90.0
  0
LINE
  5
190
  8
DATA
 62
     7
 10
6.8500000000000227
 20
501.05000000000001
 30
0.0
 11
10.150000000000031
 21
501.05000000000001
 31
0.0
  0
LINE
  5
191
  8
DATA
 62
     7
 10
6.8500000000000227
 20
493.94999999999987
 30
0.0
 11
10.150000000000031
 21
493.94999999999987
 31
0.0
  0
ARC
  5
192
  8
DATA
 62
     7
 10
6.849999999999965
 20
497.5
 30
0.0
 40
3.5500000000000109
 50
90.0
 51
270.0
  0
ARC
  5
193
  8
DATA
 62
     7
 10
10.150000000000031
 20
497.5
 30
0.0
 40
3.5500000000000109
 50
270.0
 51
90.0
  0
LINE
  5
194
  8
DATA
 62
     7
 10
0.0
 20
94.600000000000023
 30
0.0
 11
25.100000000000019
 21
94.600000000000023
 31
0.0
  0
LINE
  5
195
  8
DATA
 62
     7
 10
26.100000000000019
 20
93.600000000000023
 30
0.0
 11
26.100000000000019
 21
95.399999999999963
 31
0.0
  0
LINE
  5
196
  8
DATA
 62
     7
 10
456.5
 20
93.600000000000023
 30
0.0
 11
482.60000000000002
 21
93.600000000000023
 31
0.0
  0
LINE
  5
197
  8
DATA
 62
     7
 10
457.5
 20
94.600000000000023
 30
0.0
 11
457.5
 21
95.399999999999963
 31
0.0
  0
LINE
  5
198
  8
DATA
 62
     7
 10
454.60000000000002
 20
95.400000000000034
 30
0.0
 11
454.60000000000002
 21
91.600000000000009
 31
0.0
  0
LINE
  5
199
  8
DATA
 62
     7
 10
482.60000000000002
 20
90.0
 30
0.0
 11
482.60000000000002
 21
94.600000000000023
 31
0.0
  0
LINE
  5
19A
  8
DATA
 62
     7
 10
482.60000000000002
 20
94.600000000000023
 30
0.0
 11
457.5
 21
94.600000000000023
 31
0.0
  0
LINE
  5
19B
  8
DATA
 62
     7
 10
456.5
 20
93.600000000000023
 30
0.0
 11
456.5
 21
95.399999999999963
 31
0.0
  0
LINE
  5
19C
  8
DATA
 62
     7
 10
512.60000000000002
 20
44.0
 30
0.0
 11
512.60000000000002
 21
0.0
 31
0.0
  0
LINE
  5
19D
  8
DATA
 62
     7
 10
788.5999999999998
 20
42.5
 30
0.0
 11
787.60000000000002
 21
42.5
 31
0.0
  0
LINE
  5
19E
  8
DATA
 62
     7
 10
598.5999999716762
 20
40.0
 30
0.0
 11
598.5999999716762
 21
35.0
 31
0.0
  0
LINE
  5
19F
  8
DATA
 62
     7
 10
554.60000000000002
 20
40.0
 30
0.0
 11
598.5999999716762
 21
40.0
 31
0.0
  0
LINE
  5
1A0
  8
DATA
 62
     7
 10
554.60000000000002
 20
40.0
 30
0.0
 11
554.60000001716537
 21
35.000000008582731
 31
0.0
  0
LINE
  5
1A1
  8
DATA
 62
     7
 10
601.09999997167608
 20
32.5
 30
0.0
 11
785.09999999999991
 21
32.5
 31
0.0
  0
ARC
  5
1A2
  8
DATA
 62
     7
 10
785.09999999999991
 20
35.00000039908651
 30
0.0
 40
2.5
 50
270.0
 51
0.0
  0
POLYLINE
  5
1A3
  8
DATA
 62
     7
 66
     1
 10
0.0
 20
0.0
 30
0.0
 70
     1
  0
VERTEX
  5
956
  8
DATA
 62
     7
 10
282.80000000000001
 20
488.1862639396133
 30
0.0
  0
VERTEX
  5
957
  8
DATA
 62
     7
 10
285.23676690783918
 20
489.59313196980662
 30
0.0
  0
VERTEX
  5
958
  8
DATA
 62
     7
 10
285.23676690783918
 20
492.40686803019332
 30
0.0
  0
VERTEX
  5
959
  8
DATA
 62
     7
 10
282.80000000000001
 20
493.81373606038659
 30
0.0
  0
VERTEX
  5
95A
  8
DATA
 62
     7
 10
280.36323309216078
 20
492.40686803019332
 30
0.0
  0
VERTEX
  5
95B
  8
DATA
 62
     7
 10
280.36323309216078
 20
489.59313196980662
 30
0.0
  0
SEQEND
  5
95C
  8
DATA
 62
     7
  0
CIRCLE
  5
1AB
  8
DATA
 62
     7
 10
282.80000000000001
 20
491.0
 30
0.0
 40
1.499999999999998
  0
POLYLINE
  5
1AC
  8
DATA
 62
     7
 66
     1
 10
0.0
 20
0.0
 30
0.0
 70
     1
  0
VERTEX
  5
95D
  8
DATA
 62
     7
 10
307.80000000000001
 20
488.1862639396133
 30
0.0
  0
VERTEX
  5
95E
  8
DATA
 62
     7
 10
310.23676690783918
 20
489.59313196980662
 30
0.0
  0
VERTEX
  5
95F
  8
DATA
 62
     7
 10
310.23676690783918
 20
492.40686803019332
 30
0.0
  0
VERTEX
  5
960
  8
DATA
 62
     7
 10
307.80000000000001
 20
493.81373606038659
 30
0.0
  0
VERTEX
  5
961
  8
DATA
 62
     7
 10
305.36323309216078
 20
492.40686803019332
 30
0.0
  0
VERTEX
  5
962
  8
DATA
 62
     7
 10
305.36323309216078
 20
489.59313196980662
 30
0.0
  0
SEQEND
  5
963
  8
DATA
 62
     7
  0
CIRCLE
  5
1B4
  8
DATA
 62
     7
 10
307.80000000000001
 20
491.0
 30
0.0
 40
1.499999999999998
  0
ARC
  5
1B5
  8
DATA
 62
     7
 10
289.7947735340901
 20
488.7751065681756
 30
0.0
 40
2.399999999999991
 50
179.99999999999989
 51
261.74056202012127
  0
ARC
  5
1B6
  8
DATA
 62
     7
 10
300.80522646590998
 20
488.7751065681756
 30
0.0
 40
2.3999999999999941
 50
278.25943797987878
 51
0.0000000000001137
  0
LINE
  5
1B7
  8
DATA
 62
     7
 10
289.4500000000001
 20
486.39999999999992
 30
0.0
 11
301.15000000000009
 21
486.39999999999992
 31
0.0
  0
LINE
  5
1B8
  8
DATA
 62
     7
 10
288.21324766903462
 20
494.41348394223809
 30
0.0
 11
287.39477353409001
 21
488.7751065681756
 31
0.0
  0
ARC
  5
1B9
  8
DATA
 62
     7
 10
289.63602703981832
 20
494.27159491208897
 30
0.0
 40
1.429836925947904
 50
87.435648395548512
 51
174.30491362457241
  0
ARC
  5
1BA
  8
DATA
 62
     7
 10
300.96397296018171
 20
494.27159491208897
 30
0.0
 40
1.4298369259479029
 50
5.6950863754275796
 51
92.564351604451474
  0
LINE
  5
1BB
  8
DATA
 62
     7
 10
289.7000000000001
 20
495.69999999999987
 30
0.0
 11
300.89999999999998
 21
495.69999999999987
 31
0.0
  0
LINE
  5
1BC
  8
DATA
 62
     7
 10
302.38675233096541
 20
494.41348394223809
 30
0.0
 11
303.20522646591002
 21
488.7751065681756
 31
0.0
  0
CIRCLE
  5
1BD
  8
DATA
 62
     7
 10
295.30000000000001
 20
489.5
 30
0.0
 40
0.4999999999999992
  0
CIRCLE
  5
1BE
  8
DATA
 62
     7
 10
297.80000000000001
 20
489.5
 30
0.0
 40
0.4999999999999992
  0
CIRCLE
  5
1BF
  8
DATA
 62
     7
 10
300.30000000000001
 20
489.5
 30
0.0
 40
0.4999999999999992
  0
CIRCLE
  5
1C0
  8
DATA
 62
     7
 10
292.80000000000001
 20
489.5
 30
0.0
 40
0.5000000000000023
  0
CIRCLE
  5
1C1
  8
DATA
 62
     7
 10
290.30000000000001
 20
489.5
 30
0.0
 40
0.5000000000000023
  0
CIRCLE
  5
1C2
  8
DATA
 62
     7
 10
296.55000000000001
 20
492.49999999999989
 30
0.0
 40
0.5000000000000023
  0
CIRCLE
  5
1C3
  8
DATA
 62
     7
 10
299.05000000000001
 20
492.49999999999989
 30
0.0
 40
0.5000000000000023
  0
CIRCLE
  5
1C4
  8
DATA
 62
     7
 10
294.05000000000001
 20
492.49999999999989
 30
0.0
 40
0.5000000000000023
  0
CIRCLE
  5
1C5
  8
DATA
 62
     7
 10
291.55000000000001
 20
492.49999999999989
 30
0.0
 40
0.5000000000000023
  0
LINE
  5
1C6
  8
DATA
 62
     7
 10
406.30000000000001
 20
492.0
 30
0.0
 11
428.30000000000001
 21
492.0
 31
0.0
  0
LINE
  5
1C7
  8
DATA
 62
     7
 10
432.30000000000001
 20
488.0
 30
0.0
 11
432.30000000000001
 21
476.0
 31
0.0
  0
LINE
  5
1C8
  8
DATA
 62
     7
 10
402.30000000000001
 20
488.0
 30
0.0
 11
402.30000000000001
 21
476.0
 31
0.0
  0
LINE
  5
1C9
  8
DATA
 62
     7
 10
406.30000000000001
 20
472.0
 30
0.0
 11
428.30000000000001
 21
472.0
 31
0.0
  0
ARC
  5
1CA
  8
DATA
 62
     7
 10
406.30000000000001
 20
488.0
 30
0.0
 40
4.0
 50
90.0
 51
180.0
  0
ARC
  5
1CB
  8
DATA
 62
     7
 10
428.30000000000001
 20
488.0
 30
0.0
 40
4.0
 50
0.0
 51
90.0
  0
ARC
  5
1CC
  8
DATA
 62
     7
 10
428.30000000000001
 20
476.0
 30
0.0
 40
4.0
 50
270.0
 51
0.0
  0
ARC
  5
1CD
  8
DATA
 62
     7
 10
406.30000000000001
 20
476.0
 30
0.0
 40
4.0
 50
180.0
 51
270.0
  0
LINE
  5
1CE
  8
DATA
 62
     7
 10
429.39999999999992
 20
475.89999999999992
 30
0.0
 11
429.39999999999992
 21
485.05121951219479
 31
0.0
  0
LINE
  5
1CF
  8
DATA
 62
     7
 10
424.39999999999992
 20
490.10000000000002
 30
0.0
 11
410.2000000000001
 21
490.10000000000002
 31
0.0
  0
LINE
  5
1D0
  8
DATA
 62
     7
 10
405.19999999999987
 20
485.05121951219479
 30
0.0
 11
405.19999999999987
 21
475.89999999999992
 31
0.0
  0
LINE
  5
1D1
  8
DATA
 62
     7
 10
407.19999999999999
 20
473.89999999999992
 30
0.0
 11
427.39999999999998
 21
473.89999999999992
 31
0.0
  0
LINE
  5
1D2
  8
DATA
 62
     7
 10
410.2000000000001
 20
490.10000000000002
 30
0.0
 11
405.19999999999987
 21
485.05121951219479
 31
0.0
  0
LINE
  5
1D3
  8
DATA
 62
     7
 10
424.39999999999992
 20
490.10000000000002
 30
0.0
 11
429.39999999999992
 21
485.05121951219479
 31
0.0
  0
POLYLINE
  5
1D4
  8
DATA
 62
     7
 66
     1
 10
0.0
 20
0.0
 30
0.0
 70
     1
  0
VERTEX
  5
964
  8
DATA
 62
     7
 10
416.30000000000001
 20
485.60000000000002
 30
0.0
  0
VERTEX
  5
965
  8
DATA
 62
     7
 10
418.2999999999999
 20
485.60000000000002
 30
0.0
  0
VERTEX
  5
966
  8
DATA
 62
     7
 10
418.2999999999999
 20
481.60000000000002
 30
0.0
  0
VERTEX
  5
967
  8
DATA
 62
     7
 10
416.30000000000001
 20
481.60000000000002
 30
0.0
  0
SEQEND
  5
968
  8
DATA
 62
     7
  0
POLYLINE
  5
1DA
  8
DATA
 62
     7
 66
     1
 10
0.0
 20
0.0
 30
0.0
 70
     1
  0
VERTEX
  5
969
  8
DATA
 62
     7
 10
423.30000000000001
 20
481.60000000000002
 30
0.0
  0
VERTEX
  5
96A
  8
DATA
 62
     7
 10
425.30000000000001
 20
481.60000000000002
 30
0.0
  0
VERTEX
  5
96B
  8
DATA
 62
     7
 10
425.30000000000001
 20
477.60000000000002
 30
0.0
  0
VERTEX
  5
96C
  8
DATA
 62
     7
 10
423.30000000000001
 20
477.60000000000002
 30
0.0
  0
SEQEND
  5
96D
  8
DATA
 62
     7
  0
POLYLINE
  5
1E0
  8
DATA
 62
     7
 66
     1
 10
0.0
 20
0.0
 30
0.0
 70
     1
  0
VERTEX
  5
96E
  8
DATA
 62
     7
 10
409.2999999999999
 20
481.60000000000002
 30
0.0
  0
VERTEX
  5
96F
  8
DATA
 62
     7
 10
411.30000000000001
 20
481.60000000000002
 30
0.0
  0
VERTEX
  5
970
  8
DATA
 62
     7
 10
411.30000000000001
 20
477.60000000000002
 30
0.0
  0
VERTEX
  5
971
  8
DATA
 62
     7
 10
409.2999999999999
 20
477.60000000000002
 30
0.0
  0
SEQEND
  5
972
  8
DATA
 62
     7
  0
CIRCLE
  5
1E6
  8
DATA
 62
     7
 10
437.30000000000001
 20
482.0
 30
0.0
 40
2.9999999999999929
  0
POLYLINE
  5
1E7
  8
DATA
 62
     7
 66
     1
 10
0.0
 20
0.0
 30
0.0
  0
VERTEX
  5
973
  8
DATA
 62
     7
 10
437.80000000000001
 20
482.5
 30
0.0
  0
VERTEX
  5
974
  8
DATA
 62
     7
 10
437.80000000000001
 20
483.49999999999989
 30
0.0
  0
VERTEX
  5
975
  8
DATA
 62
     7
 10
436.80000000000001
 20
483.49999999999989
 30
0.0
  0
VERTEX
  5
976
  8
DATA
 62
     7
 10
436.80000000000001
 20
482.5
 30
0.0
  0
SEQEND
  5
977
  8
DATA
 62
     7
  0
POLYLINE
  5
1ED
  8
DATA
 62
     7
 66
     1
 10
0.0
 20
0.0
 30
0.0
  0
VERTEX
  5
978
  8
DATA
 62
     7
 10
437.80000000000001
 20
481.5
 30
0.0
  0
VERTEX
  5
979
  8
DATA
 62
     7
 10
437.80000000000001
 20
480.49999999999989
 30
0.0
  0
VERTEX
  5
97A
  8
DATA
 62
     7
 10
436.80000000000001
 20
480.49999999999989
 30
0.0
  0
VERTEX
  5
97B
  8
DATA
 62
     7
 10
436.80000000000001
 20
481.5
 30
0.0
  0
SEQEND
  5
97C
  8
DATA
 62
     7
  0
CIRCLE
  5
1F3
  8
DATA
 62
     7
 10
437.30000000000001
 20
482.0
 30
0.0
 40
3.0
  0
POLYLINE
  5
1F4
  8
DATA
 62
     7
 66
     1
 10
0.0
 20
0.0
 30
0.0
  0
VERTEX
  5
97D
  8
DATA
 62
     7
 10
437.80000000000001
 20
481.5
 30
0.0
  0
VERTEX
  5
97E
  8
DATA
 62
     7
 10
438.7999999999999
 20
481.5
 30
0.0
  0
VERTEX
  5
97F
  8
DATA
 62
     7
 10
438.7999999999999
 20
482.5
 30
0.0
  0
VERTEX
  5
980
  8
DATA
 62
     7
 10
437.80000000000001
 20
482.5
 30
0.0
  0
SEQEND
  5
981
  8
DATA
 62
     7
  0
POLYLINE
  5
1FA
  8
DATA
 62
     7
 66
     1
 10
0.0
 20
0.0
 30
0.0
  0
VERTEX
  5
982
  8
DATA
 62
     7
 10
436.80000000000001
 20
481.5
 30
0.0
  0
VERTEX
  5
983
  8
DATA
 62
     7
 10
435.80000000000001
 20
481.5
 30
0.0
  0
VERTEX
  5
984
  8
DATA
 62
     7
 10
435.80000000000001
 20
482.5
 30
0.0
  0
VERTEX
  5
985
  8
DATA
 62
     7
 10
436.80000000000001
 20
482.5
 30
0.0
  0
SEQEND
  5
986
  8
DATA
 62
     7
  0
LINE
  5
200
  8
DATA
 62
     7
 10
457.30000000000001
 20
474.84999999999991
 30
0.0
 11
457.30000000000001
 21
468.14999999999992
 31
0.0
  0
ARC
  5
201
  8
DATA
 62
     7
 10
407.19999999999999
 20
475.89999999999992
 30
0.0
 40
2.0
 50
180.0
 51
270.0
  0
ARC
  5
202
  8
DATA
 62
     7
 10
427.39999999999998
 20
475.89999999999992
 30
0.0
 40
2.0
 50
270.0
 51
0.0
  0
LINE
  5
203
  8
DATA
 62
     7
 10
387.30000000000001
 20
371.10000000000002
 30
0.0
 11
387.30000000000001
 21
370.60000000000002
 31
0.0
  0
LINE
  5
204
  8
DATA
 62
     7
 10
374.30000000000001
 20
371.10000000000002
 30
0.0
 11
374.30000000000001
 21
370.60000000000002
 31
0.0
  0
LINE
  5
205
  8
DATA
 62
     7
 10
374.30000000000001
 20
371.10000000000002
 30
0.0
 11
387.30000000000001
 21
371.10000000000002
 31
0.0
  0
LINE
  5
206
  8
DATA
 62
     7
 10
310.23676690783918
 20
374.10000000000002
 30
0.0
 11
310.23676690783918
 21
370.60000000000002
 31
0.0
  0
LINE
  5
207
  8
DATA
 62
     7
 10
305.36323309216078
 20
374.10000000000002
 30
0.0
 11
305.36323309216078
 21
370.60000000000002
 31
0.0
  0
LINE
  5
208
  8
DATA
 62
     7
 10
303.20522646591002
 20
374.10000000000002
 30
0.0
 11
303.20522646591002
 21
370.60000000000002
 31
0.0
  0
LINE
  5
209
  8
DATA
 62
     7
 10
287.39477353409001
 20
374.10000000000002
 30
0.0
 11
287.39477353409001
 21
370.60000000000002
 31
0.0
  0
LINE
  5
20A
  8
DATA
 62
     7
 10
285.23676690783918
 20
374.10000000000002
 30
0.0
 11
285.23676690783918
 21
370.60000000000002
 31
0.0
  0
LINE
  5
20B
  8
DATA
 62
     7
 10
280.36323309216078
 20
374.10000000000002
 30
0.0
 11
280.36323309216078
 21
370.60000000000002
 31
0.0
  0
LINE
  5
20C
  8
DATA
 62
     7
 10
280.36323309216078
 20
374.10000000000002
 30
0.0
 11
285.23676690783918
 21
374.10000000000002
 31
0.0
  0
LINE
  5
20D
  8
DATA
 62
     7
 10
287.39477353409001
 20
374.10000000000002
 30
0.0
 11
303.20522646591002
 21
374.10000000000002
 31
0.0
  0
LINE
  5
20E
  8
DATA
 62
     7
 10
305.36323309216078
 20
374.10000000000002
 30
0.0
 11
310.23676690783918
 21
374.10000000000002
 31
0.0
  0
LINE
  5
20F
  8
DATA
 62
     7
 10
793.0999999999998
 20
8.3000000000000114
 30
0.0
 11
788.5999999999998
 21
8.3000000000000114
 31
0.0
  0
LINE
  5
210
  8
DATA
 62
     7
 10
793.0999999999998
 20
17.600000000000019
 30
0.0
 11
793.0999999999998
 21
8.3000000000000114
 31
0.0
  0
LINE
  5
211
  8
DATA
 62
     7
 10
793.0999999999998
 20
10.186263939613349
 30
0.0
 11
788.5999999999998
 21
10.186263939613349
 31
0.0
  0
POLYLINE
  5
212
  8
DATA
 62
     7
 66
     1
 10
0.0
 20
0.0
 30
0.0
 70
     1
  0
VERTEX
  5
987
  8
DATA
 62
     7
 10
148.5
 20
30.25
 30
0.0
  0
VERTEX
  5
988
  8
DATA
 62
     7
 10
152.5
 20
30.25
 30
0.0
  0
VERTEX
  5
989
  8
DATA
 62
     7
 10
152.5
 20
27.75
 30
0.0
  0
VERTEX
  5
98A
  8
DATA
 62
     7
 10
148.5
 20
27.75
 30
0.0
  0
SEQEND
  5
98B
  8
DATA
 62
     7
  0
POLYLINE
  5
218
  8
DATA
 62
     7
 66
     1
 10
0.0
 20
0.0
 30
0.0
 70
     1
  0
VERTEX
  5
98C
  8
DATA
 62
     7
 10
148.5
 20
25.25
 30
0.0
  0
VERTEX
  5
98D
  8
DATA
 62
     7
 10
152.5
 20
25.25
 30
0.0
  0
VERTEX
  5
98E
  8
DATA
 62
     7
 10
152.5
 20
22.75
 30
0.0
  0
VERTEX
  5
98F
  8
DATA
 62
     7
 10
148.5
 20
22.75
 30
0.0
  0
SEQEND
  5
990
  8
DATA
 62
     7
  0
POLYLINE
  5
21E
  8
DATA
 62
     7
 66
     1
 10
0.0
 20
0.0
 30
0.0
 70
     1
  0
VERTEX
  5
991
  8
DATA
 62
     7
 10
148.5
 20
17.25
 30
0.0
  0
VERTEX
  5
992
  8
DATA
 62
     7
 10
152.5
 20
17.25
 30
0.0
  0
VERTEX
  5
993
  8
DATA
 62
     7
 10
152.5
 20
14.75
 30
0.0
  0
VERTEX
  5
994
  8
DATA
 62
     7
 10
148.5
 20
14.75
 30
0.0
  0
SEQEND
  5
995
  8
DATA
 62
     7
  0
TEXT
  5
224
  8
DATA
 62
     7
 10
155.02951388888891
 20
28.04878472222229
 30
0.0
 40
2.3999999999999999
  1
Clip
 41
0.8
 11
155.02951388888891
 21
30.448784722222289
 31
0.0
 73
     3
  0
TEXT
  5
225
  8
DATA
 62
     7
 10
153.52951388888891
 20
22.93854166666674
 30
0.0
 40
2.3999999999999999
  1
Signal
 41
0.8
 11
153.52951388888891
 21
25.33854166666675
 31
0.0
 73
     3
  0
TEXT
  5
226
  8
DATA
 62
     7
 10
152.77951388888891
 20
15.04097222222217
 30
0.0
 40
2.3999999999999999
  1
Phantom
 41
0.8
 11
152.77951388888891
 21
17.440972222222172
 31
0.0
 73
     3
  0
TEXT
  5
227
  8
DATA
 62
     7
 10
149.33801431414369
 20
33.665364583333321
 30
0.0
 40
4.0
  1
1
 41
0.8
 11
149.33801431414369
 21
37.665364583333321
 31
0.0
 73
     3
  0
TEXT
  5
228
  8
DATA
 62
     7
 10
164.33801431414369
 20
33.665364583333321
 30
0.0
 40
4.0
  1
2
 41
0.8
 11
164.33801431414369
 21
37.665364583333321
 31
0.0
 73
     3
  0
TEXT
  5
229
  8
DATA
 62
     7
 10
179.33801431414361
 20
33.665364583333321
 30
0.0
 40
4.0
  1
3
 41
0.8
 11
179.33801431414361
 21
37.665364583333321
 31
0.0
 73
     3
  0
TEXT
  5
22A
  8
DATA
 62
     7
 10
194.33801431414361
 20
33.665364583333321
 30
0.0
 40
4.0
  1
4
 41
0.8
 11
194.33801431414361
 21
37.665364583333321
 31
0.0
 73
     3
  0
TEXT
  5
22B
  8
DATA
 62
     7
 10
209.33801431414369
 20
33.665364583333321
 30
0.0
 40
4.0
  1
5
 41
0.8
 11
209.33801431414369
 21
37.665364583333321
 31
0.0
 73
     3
  0
TEXT
  5
22C
  8
DATA
 62
     7
 10
224.33801431414369
 20
33.665364583333321
 30
0.0
 40
4.0
  1
6
 41
0.8
 11
224.33801431414369
 21
37.665364583333321
 31
0.0
 73
     3
  0
TEXT
  5
22D
  8
DATA
 62
     7
 10
185.02951388888891
 20
28.04878472222229
 30
0.0
 40
2.3999999999999999
  1
Clip
 41
0.8
 11
185.02951388888891
 21
30.448784722222289
 31
0.0
 73
     3
  0
TEXT
  5
22E
  8
DATA
 62
     7
 10
183.52951388888891
 20
22.93854166666674
 30
0.0
 40
2.3999999999999999
  1
Signal
 41
0.8
 11
183.52951388888891
 21
25.33854166666675
 31
0.0
 73
     3
  0
TEXT
  5
22F
  8
DATA
 62
     7
 10
182.77951388888891
 20
15.04097222222217
 30
0.0
 40
2.3999999999999999
  1
Phantom
 41
0.8
 11
182.77951388888891
 21
17.440972222222172
 31
0.0
 73
     3
  0
TEXT
  5
230
  8
DATA
 62
     7
 10
215.02951388888891
 20
28.04878472222229
 30
0.0
 40
2.3999999999999999
  1
Clip
 41
0.8
 11
215.02951388888891
 21
30.448784722222289
 31
0.0
 73
     3
  0
TEXT
  5
231
  8
DATA
 62
     7
 10
213.52951388888891
 20
22.93854166666674
 30
0.0
 40
2.3999999999999999
  1
Signal
 41
0.8
 11
213.52951388888891
 21
25.33854166666675
 31
0.0
 73
     3
  0
TEXT
  5
232
  8
DATA
 62
     7
 10
212.77951388888891
 20
15.04097222222217
 30
0.0
 40
2.3999999999999999
  1
Phantom
 41
0.8
 11
212.77951388888891
 21
17.440972222222172
 31
0.0
 73
     3
  0
TEXT
  5
233
  8
DATA
 62
     7
 10
239.33801431414361
 20
33.665364583333321
 30
0.0
 40
4.0
  1
7
 41
0.8
 11
239.33801431414361
 21
37.665364583333321
 31
0.0
 73
     3
  0
TEXT
  5
234
  8
DATA
 62
     7
 10
254.33801431414369
 20
33.665364583333321
 30
0.0
 40
4.0
  1
8
 41
0.8
 11
254.33801431414369
 21
37.665364583333321
 31
0.0
 73
     3
  0
TEXT
  5
235
  8
DATA
 62
     7
 10
245.02951388888891
 20
28.04878472222229
 30
0.0
 40
2.3999999999999999
  1
Clip
 41
0.8
 11
245.02951388888891
 21
30.448784722222289
 31
0.0
 73
     3
  0
TEXT
  5
236
  8
DATA
 62
     7
 10
243.52951388888891
 20
22.93854166666674
 30
0.0
 40
2.3999999999999999
  1
Signal
 41
0.8
 11
243.52951388888891
 21
25.33854166666675
 31
0.0
 73
     3
  0
TEXT
  5
237
  8
DATA
 62
     7
 10
242.77951388888891
 20
15.04097222222217
 30
0.0
 40
2.3999999999999999
  1
Phantom
 41
0.8
 11
242.77951388888891
 21
17.440972222222172
 31
0.0
 73
     3
  0
POLYLINE
  5
238
  8
DATA
 62
     7
 66
     1
 10
0.0
 20
0.0
 30
0.0
 70
     1
  0
VERTEX
  5
996
  8
DATA
 62
     7
 10
273.5
 20
17.25
 30
0.0
  0
VERTEX
  5
997
  8
DATA
 62
     7
 10
277.5
 20
17.25
 30
0.0
  0
VERTEX
  5
998
  8
DATA
 62
     7
 10
277.5
 20
14.75
 30
0.0
  0
VERTEX
  5
999
  8
DATA
 62
     7
 10
273.5
 20
14.75
 30
0.0
  0
SEQEND
  5
99A
  8
DATA
 62
     7
  0
POLYLINE
  5
23E
  8
DATA
 62
     7
 66
     1
 10
0.0
 20
0.0
 30
0.0
 70
     1
  0
VERTEX
  5
99B
  8
DATA
 62
     7
 10
293.5
 20
17.25
 30
0.0
  0
VERTEX
  5
99C
  8
DATA
 62
     7
 10
297.5
 20
17.25
 30
0.0
  0
VERTEX
  5
99D
  8
DATA
 62
     7
 10
297.5
 20
14.75
 30
0.0
  0
VERTEX
  5
99E
  8
DATA
 62
     7
 10
293.5
 20
14.75
 30
0.0
  0
SEQEND
  5
99F
  8
DATA
 62
     7
  0
POLYLINE
  5
244
  8
DATA
 62
     7
 66
     1
 10
0.0
 20
0.0
 30
0.0
 70
     1
  0
VERTEX
  5
9A0
  8
DATA
 62
     7
 10
311.5
 20
17.25
 30
0.0
  0
VERTEX
  5
9A1
  8
DATA
 62
     7
 10
315.5
 20
17.25
 30
0.0
  0
VERTEX
  5
9A2
  8
DATA
 62
     7
 10
315.5
 20
14.75
 30
0.0
  0
VERTEX
  5
9A3
  8
DATA
 62
     7
 10
311.5
 20
14.75
 30
0.0
  0
SEQEND
  5
9A4
  8
DATA
 62
     7
  0
POLYLINE
  5
24A
  8
DATA
 62
     7
 66
     1
 10
0.0
 20
0.0
 30
0.0
 70
     1
  0
VERTEX
  5
9A5
  8
DATA
 62
     7
 10
323.5
 20
17.25
 30
0.0
  0
VERTEX
  5
9A6
  8
DATA
 62
     7
 10
327.5
 20
17.25
 30
0.0
  0
VERTEX
  5
9A7
  8
DATA
 62
     7
 10
327.5
 20
14.75
 30
0.0
  0
VERTEX
  5
9A8
  8
DATA
 62
     7
 10
323.5
 20
14.75
 30
0.0
  0
SEQEND
  5
9A9
  8
DATA
 62
     7
  0
TEXT
  5
250
  8
DATA
 62
     7
 10
270.0
 20
19.100000000000001
 30
0.0
 40
2.3999999999999999
  1
DSP Clip
 41
0.8
 11
270.0
 21
21.5
 31
0.0
 73
     3
  0
TEXT
  5
251
  8
DATA
 62
     7
 10
291.5
 20
19.100000000000001
 30
0.0
 40
2.3999999999999999
  1
Master
 41
0.8
 11
291.5
 21
21.5
 31
0.0
 73
     3
  0
TEXT
  5
252
  8
DATA
 62
     7
 10
310.5
 20
19.100000000000001
 30
0.0
 40
2.3999999999999999
  1
Sync
 41
0.8
 11
310.5
 21
21.5
 31
0.0
 73
     3
  0
TEXT
  5
253
  8
DATA
 62
     7
 10
320.0
 20
19.100000000000001
 30
0.0
 40
2.3999999999999999
  1
Activity
 41
0.8
 11
320.0
 21
21.5
 31
0.0
 73
     3
  0
LINE
  5
254
  8
DATA
 62
     7
 10
148.5
 20
12.5
 30
0.0
 11
257.5
 21
12.5
 31
0.0
  0
TEXT
  5
255
  8
DATA
 62
     7
 10
147.66874348081029
 20
7.2999999999999989
 30
0.0
 40
3.2000000000000002
  1
Input Monitoring
 41
0.8
 11
147.66874348081029
 21
10.5
 31
0.0
 73
     3
  0
TEXT
  5
256
  8
DATA
 62
     7
 10
293.66874348081029
 20
7.2999999999999989
 30
0.0
 40
3.2000000000000002
  1
Network
 41
0.8
 11
293.66874348081029
 21
10.5
 31
0.0
 73
     3
  0
LINE
  5
257
  8
DATA
 62
     7
 10
293.5
 20
12.5
 30
0.0
 11
327.5
 21
12.5
 31
0.0
  0
POLYLINE
  5
258
  8
DATA
 62
     7
 66
     1
 10
0.0
 20
0.0
 30
0.0
 70
     1
  0
VERTEX
  5
9AA
  8
DATA
 62
     7
 10
403.5
 20
19.5
 30
0.0
  0
VERTEX
  5
9AB
  8
DATA
 62
     7
 10
417.49999999999989
 20
19.5
 30
0.0
  0
VERTEX
  5
9AC
  8
DATA
 62
     7
 10
417.49999999999989
 20
6.5
 30
0.0
  0
VERTEX
  5
9AD
  8
DATA
 62
     7
 10
403.5
 20
6.5
 30
0.0
  0
SEQEND
  5
9AE
  8
DATA
 62
     7
  0
ARC
  5
25E
  8
DATA
 62
     7
 10
407.57967069115102
 20
10.33875050040041
 30
0.0
 40
0.6240415280719378
 50
335.47786182558809
 51
109.20696369015531
  0
ARC
  5
25F
  8
DATA
 62
     7
 10
413.42032930884892
 20
10.33875050040041
 30
0.0
 40
0.6240415280719417
 50
70.793036309844069
 51
204.52213817441171
  0
ARC
  5
260
  8
DATA
 62
     7
 10
410.5
 20
17.06088346480805
 30
0.0
 40
0.7106568413871955
 50
210.5449793658467
 51
329.4550206341533
  0
ARC
  5
261
  8
DATA
 62
     7
 10
410.5
 20
13.0
 30
0.0
 40
3.7499999999999978
 50
326.46003527711639
 51
80.606706372817456
  0
ARC
  5
262
  8
DATA
 62
     7
 10
410.5
 20
13.0
 30
0.0
 40
3.7499999999999729
 50
99.393293627182018
 51
213.53996472288389
  0
ARC
  5
263
  8
DATA
 62
     7
 10
410.5
 20
13.0
 30
0.0
 40
3.7499999999999769
 50
231.14486079285879
 51
308.85513920714129
  0
CIRCLE
  5
264
  8
DATA
 62
     7
 10
410.5
 20
14.5
 30
0.0
 40
0.5
  0
CIRCLE
  5
265
  8
DATA
 62
     7
 10
412.5
 20
14.5
 30
0.0
 40
0.5
  0
CIRCLE
  5
266
  8
DATA
 62
     7
 10
408.49999999999989
 20
14.5
 30
0.0
 40
0.5
  0
CIRCLE
  5
267
  8
DATA
 62
     7
 10
411.0
 20
12.5
 30
0.0
 40
0.5
  0
CIRCLE
  5
268
  8
DATA
 62
     7
 10
413.0
 20
12.5
 30
0.0
 40
0.5
  0
CIRCLE
  5
269
  8
DATA
 62
     7
 10
408.0
 20
12.5
 30
0.0
 40
0.5
  0
CIRCLE
  5
26A
  8
DATA
 62
     7
 10
411.5
 20
10.5
 30
0.0
 40
0.5
  0
CIRCLE
  5
26B
  8
DATA
 62
     7
 10
409.49999999999989
 20
10.5
 30
0.0
 40
0.5
  0
CIRCLE
  5
26C
  8
DATA
 62
     7
 10
410.5
 20
13.0
 30
0.0
 40
5.0000000000000044
  0
POLYLINE
  5
26D
  8
DATA
 62
     7
 66
     1
 10
0.0
 20
0.0
 30
0.0
 70
     1
  0
VERTEX
  5
9AF
  8
DATA
 62
     7
 10
404.0
 20
19.0
 30
0.0
  0
VERTEX
  5
9B0
  8
DATA
 62
     7
 10
417.0
 20
19.0
 30
0.0
  0
VERTEX
  5
9B1
  8
DATA
 62
     7
 10
417.0
 20
7.0
 30
0.0
  0
VERTEX
  5
9B2
  8
DATA
 62
     7
 10
404.0
 20
7.0
 30
0.0
  0
SEQEND
  5
9B3
  8
DATA
 62
     7
  0
POLYLINE
  5
273
  8
DATA
 62
     7
 66
     1
 10
0.0
 20
0.0
 30
0.0
 70
     1
  0
VERTEX
  5
9B4
  8
DATA
 62
     7
 10
438.49999999999989
 20
17.25
 30
0.0
  0
VERTEX
  5
9B5
  8
DATA
 62
     7
 10
442.49999999999989
 20
17.25
 30
0.0
  0
VERTEX
  5
9B6
  8
DATA
 62
     7
 10
442.49999999999989
 20
14.75
 30
0.0
  0
VERTEX
  5
9B7
  8
DATA
 62
     7
 10
438.49999999999989
 20
14.75
 30
0.0
  0
SEQEND
  5
9B8
  8
DATA
 62
     7
  0
TEXT
  5
279
  8
DATA
 62
     7
 10
436.74999999999989
 20
19.100000000000001
 30
0.0
 40
2.3999999999999999
  1
Power
 41
0.8
 11
436.74999999999989
 21
21.5
 31
0.0
 73
     3
  0
LINE
  5
27A
  8
DATA
 62
     7
 10
385.5
 20
12.5
 30
0.0
 11
403.5
 21
12.5
 31
0.0
  0
TEXT
  5
27B
  8
DATA
 62
     7
 10
385.66874348081041
 20
7.2999999999999989
 30
0.0
 40
3.2000000000000002
  1
RS232
 41
0.8
 11
385.66874348081041
 21
10.5
 31
0.0
 73
     3
  0
POLYLINE
  5
27C
  8
DATA
 62
     7
 66
     1
 10
0.0
 20
0.0
 30
0.0
 70
     1
  0
VERTEX
  5
9B9
  8
DATA
 62
     7
 10
163.5
 20
30.25
 30
0.0
  0
VERTEX
  5
9BA
  8
DATA
 62
     7
 10
167.5
 20
30.25
 30
0.0
  0
VERTEX
  5
9BB
  8
DATA
 62
     7
 10
167.5
 20
27.75
 30
0.0
  0
VERTEX
  5
9BC
  8
DATA
 62
     7
 10
163.5
 20
27.75
 30
0.0
  0
SEQEND
  5
9BD
  8
DATA
 62
     7
  0
POLYLINE
  5
282
  8
DATA
 62
     7
 66
     1
 10
0.0
 20
0.0
 30
0.0
 70
     1
  0
VERTEX
  5
9BE
  8
DATA
 62
     7
 10
163.5
 20
25.25
 30
0.0
  0
VERTEX
  5
9BF
  8
DATA
 62
     7
 10
167.5
 20
25.25
 30
0.0
  0
VERTEX
  5
9C0
  8
DATA
 62
     7
 10
167.5
 20
22.75
 30
0.0
  0
VERTEX
  5
9C1
  8
DATA
 62
     7
 10
163.5
 20
22.75
 30
0.0
  0
SEQEND
  5
9C2
  8
DATA
 62
     7
  0
POLYLINE
  5
288
  8
DATA
 62
     7
 66
     1
 10
0.0
 20
0.0
 30
0.0
 70
     1
  0
VERTEX
  5
9C3
  8
DATA
 62
     7
 10
163.5
 20
17.25
 30
0.0
  0
VERTEX
  5
9C4
  8
DATA
 62
     7
 10
167.5
 20
17.25
 30
0.0
  0
VERTEX
  5
9C5
  8
DATA
 62
     7
 10
167.5
 20
14.75
 30
0.0
  0
VERTEX
  5
9C6
  8
DATA
 62
     7
 10
163.5
 20
14.75
 30
0.0
  0
SEQEND
  5
9C7
  8
DATA
 62
     7
  0
POLYLINE
  5
28E
  8
DATA
 62
     7
 66
     1
 10
0.0
 20
0.0
 30
0.0
 70
     1
  0
VERTEX
  5
9C8
  8
DATA
 62
     7
 10
178.5
 20
30.25
 30
0.0
  0
VERTEX
  5
9C9
  8
DATA
 62
     7
 10
182.5
 20
30.25
 30
0.0
  0
VERTEX
  5
9CA
  8
DATA
 62
     7
 10
182.5
 20
27.75
 30
0.0
  0
VERTEX
  5
9CB
  8
DATA
 62
     7
 10
178.5
 20
27.75
 30
0.0
  0
SEQEND
  5
9CC
  8
DATA
 62
     7
  0
POLYLINE
  5
294
  8
DATA
 62
     7
 66
     1
 10
0.0
 20
0.0
 30
0.0
 70
     1
  0
VERTEX
  5
9CD
  8
DATA
 62
     7
 10
178.5
 20
25.25
 30
0.0
  0
VERTEX
  5
9CE
  8
DATA
 62
     7
 10
182.5
 20
25.25
 30
0.0
  0
VERTEX
  5
9CF
  8
DATA
 62
     7
 10
182.5
 20
22.75
 30
0.0
  0
VERTEX
  5
9D0
  8
DATA
 62
     7
 10
178.5
 20
22.75
 30
0.0
  0
SEQEND
  5
9D1
  8
DATA
 62
     7
  0
POLYLINE
  5
29A
  8
DATA
 62
     7
 66
     1
 10
0.0
 20
0.0
 30
0.0
 70
     1
  0
VERTEX
  5
9D2
  8
DATA
 62
     7
 10
178.5
 20
17.25
 30
0.0
  0
VERTEX
  5
9D3
  8
DATA
 62
     7
 10
182.5
 20
17.25
 30
0.0
  0
VERTEX
  5
9D4
  8
DATA
 62
     7
 10
182.5
 20
14.75
 30
0.0
  0
VERTEX
  5
9D5
  8
DATA
 62
     7
 10
178.5
 20
14.75
 30
0.0
  0
SEQEND
  5
9D6
  8
DATA
 62
     7
  0
POLYLINE
  5
2A0
  8
DATA
 62
     7
 66
     1
 10
0.0
 20
0.0
 30
0.0
 70
     1
  0
VERTEX
  5
9D7
  8
DATA
 62
     7
 10
193.5
 20
30.25
 30
0.0
  0
VERTEX
  5
9D8
  8
DATA
 62
     7
 10
197.5
 20
30.25
 30
0.0
  0
VERTEX
  5
9D9
  8
DATA
 62
     7
 10
197.5
 20
27.75
 30
0.0
  0
VERTEX
  5
9DA
  8
DATA
 62
     7
 10
193.5
 20
27.75
 30
0.0
  0
SEQEND
  5
9DB
  8
DATA
 62
     7
  0
POLYLINE
  5
2A6
  8
DATA
 62
     7
 66
     1
 10
0.0
 20
0.0
 30
0.0
 70
     1
  0
VERTEX
  5
9DC
  8
DATA
 62
     7
 10
193.5
 20
25.25
 30
0.0
  0
VERTEX
  5
9DD
  8
DATA
 62
     7
 10
197.5
 20
25.25
 30
0.0
  0
VERTEX
  5
9DE
  8
DATA
 62
     7
 10
197.5
 20
22.75
 30
0.0
  0
VERTEX
  5
9DF
  8
DATA
 62
     7
 10
193.5
 20
22.75
 30
0.0
  0
SEQEND
  5
9E0
  8
DATA
 62
     7
  0
POLYLINE
  5
2AC
  8
DATA
 62
     7
 66
     1
 10
0.0
 20
0.0
 30
0.0
 70
     1
  0
VERTEX
  5
9E1
  8
DATA
 62
     7
 10
193.5
 20
17.25
 30
0.0
  0
VERTEX
  5
9E2
  8
DATA
 62
     7
 10
197.5
 20
17.25
 30
0.0
  0
VERTEX
  5
9E3
  8
DATA
 62
     7
 10
197.5
 20
14.75
 30
0.0
  0
VERTEX
  5
9E4
  8
DATA
 62
     7
 10
193.5
 20
14.75
 30
0.0
  0
SEQEND
  5
9E5
  8
DATA
 62
     7
  0
POLYLINE
  5
2B2
  8
DATA
 62
     7
 66
     1
 10
0.0
 20
0.0
 30
0.0
 70
     1
  0
VERTEX
  5
9E6
  8
DATA
 62
     7
 10
208.5
 20
30.25
 30
0.0
  0
VERTEX
  5
9E7
  8
DATA
 62
     7
 10
212.5
 20
30.25
 30
0.0
  0
VERTEX
  5
9E8
  8
DATA
 62
     7
 10
212.5
 20
27.75
 30
0.0
  0
VERTEX
  5
9E9
  8
DATA
 62
     7
 10
208.5
 20
27.75
 30
0.0
  0
SEQEND
  5
9EA
  8
DATA
 62
     7
  0
POLYLINE
  5
2B8
  8
DATA
 62
     7
 66
     1
 10
0.0
 20
0.0
 30
0.0
 70
     1
  0
VERTEX
  5
9EB
  8
DATA
 62
     7
 10
208.5
 20
25.25
 30
0.0
  0
VERTEX
  5
9EC
  8
DATA
 62
     7
 10
212.5
 20
25.25
 30
0.0
  0
VERTEX
  5
9ED
  8
DATA
 62
     7
 10
212.5
 20
22.75
 30
0.0
  0
VERTEX
  5
9EE
  8
DATA
 62
     7
 10
208.5
 20
22.75
 30
0.0
  0
SEQEND
  5
9EF
  8
DATA
 62
     7
  0
POLYLINE
  5
2BE
  8
DATA
 62
     7
 66
     1
 10
0.0
 20
0.0
 30
0.0
 70
     1
  0
VERTEX
  5
9F0
  8
DATA
 62
     7
 10
208.5
 20
17.25
 30
0.0
  0
VERTEX
  5
9F1
  8
DATA
 62
     7
 10
212.5
 20
17.25
 30
0.0
  0
VERTEX
  5
9F2
  8
DATA
 62
     7
 10
212.5
 20
14.75
 30
0.0
  0
VERTEX
  5
9F3
  8
DATA
 62
     7
 10
208.5
 20
14.75
 30
0.0
  0
SEQEND
  5
9F4
  8
DATA
 62
     7
  0
POLYLINE
  5
2C4
  8
DATA
 62
     7
 66
     1
 10
0.0
 20
0.0
 30
0.0
 70
     1
  0
VERTEX
  5
9F5
  8
DATA
 62
     7
 10
223.5
 20
30.25
 30
0.0
  0
VERTEX
  5
9F6
  8
DATA
 62
     7
 10
227.5
 20
30.25
 30
0.0
  0
VERTEX
  5
9F7
  8
DATA
 62
     7
 10
227.5
 20
27.75
 30
0.0
  0
VERTEX
  5
9F8
  8
DATA
 62
     7
 10
223.5
 20
27.75
 30
0.0
  0
SEQEND
  5
9F9
  8
DATA
 62
     7
  0
POLYLINE
  5
2CA
  8
DATA
 62
     7
 66
     1
 10
0.0
 20
0.0
 30
0.0
 70
     1
  0
VERTEX
  5
9FA
  8
DATA
 62
     7
 10
223.5
 20
25.25
 30
0.0
  0
VERTEX
  5
9FB
  8
DATA
 62
     7
 10
227.5
 20
25.25
 30
0.0
  0
VERTEX
  5
9FC
  8
DATA
 62
     7
 10
227.5
 20
22.75
 30
0.0
  0
VERTEX
  5
9FD
  8
DATA
 62
     7
 10
223.5
 20
22.75
 30
0.0
  0
SEQEND
  5
9FE
  8
DATA
 62
     7
  0
POLYLINE
  5
2D0
  8
DATA
 62
     7
 66
     1
 10
0.0
 20
0.0
 30
0.0
 70
     1
  0
VERTEX
  5
9FF
  8
DATA
 62
     7
 10
223.5
 20
17.25
 30
0.0
  0
VERTEX
  5
A00
  8
DATA
 62
     7
 10
227.5
 20
17.25
 30
0.0
  0
VERTEX
  5
A01
  8
DATA
 62
     7
 10
227.5
 20
14.75
 30
0.0
  0
VERTEX
  5
A02
  8
DATA
 62
     7
 10
223.5
 20
14.75
 30
0.0
  0
SEQEND
  5
A03
  8
DATA
 62
     7
  0
POLYLINE
  5
2D6
  8
DATA
 62
     7
 66
     1
 10
0.0
 20
0.0
 30
0.0
 70
     1
  0
VERTEX
  5
A04
  8
DATA
 62
     7
 10
238.5
 20
30.25
 30
0.0
  0
VERTEX
  5
A05
  8
DATA
 62
     7
 10
242.5
 20
30.25
 30
0.0
  0
VERTEX
  5
A06
  8
DATA
 62
     7
 10
242.5
 20
27.75
 30
0.0
  0
VERTEX
  5
A07
  8
DATA
 62
     7
 10
238.5
 20
27.75
 30
0.0
  0
SEQEND
  5
A08
  8
DATA
 62
     7
  0
POLYLINE
  5
2DC
  8
DATA
 62
     7
 66
     1
 10
0.0
 20
0.0
 30
0.0
 70
     1
  0
VERTEX
  5
A09
  8
DATA
 62
     7
 10
238.5
 20
25.25
 30
0.0
  0
VERTEX
  5
A0A
  8
DATA
 62
     7
 10
242.5
 20
25.25
 30
0.0
  0
VERTEX
  5
A0B
  8
DATA
 62
     7
 10
242.5
 20
22.75
 30
0.0
  0
VERTEX
  5
A0C
  8
DATA
 62
     7
 10
238.5
 20
22.75
 30
0.0
  0
SEQEND
  5
A0D
  8
DATA
 62
     7
  0
POLYLINE
  5
2E2
  8
DATA
 62
     7
 66
     1
 10
0.0
 20
0.0
 30
0.0
 70
     1
  0
VERTEX
  5
A0E
  8
DATA
 62
     7
 10
238.5
 20
17.25
 30
0.0
  0
VERTEX
  5
A0F
  8
DATA
 62
     7
 10
242.5
 20
17.25
 30
0.0
  0
VERTEX
  5
A10
  8
DATA
 62
     7
 10
242.5
 20
14.75
 30
0.0
  0
VERTEX
  5
A11
  8
DATA
 62
     7
 10
238.5
 20
14.75
 30
0.0
  0
SEQEND
  5
A12
  8
DATA
 62
     7
  0
POLYLINE
  5
2E8
  8
DATA
 62
     7
 66
     1
 10
0.0
 20
0.0
 30
0.0
 70
     1
  0
VERTEX
  5
A13
  8
DATA
 62
     7
 10
253.5
 20
30.25
 30
0.0
  0
VERTEX
  5
A14
  8
DATA
 62
     7
 10
257.5
 20
30.25
 30
0.0
  0
VERTEX
  5
A15
  8
DATA
 62
     7
 10
257.5
 20
27.75
 30
0.0
  0
VERTEX
  5
A16
  8
DATA
 62
     7
 10
253.5
 20
27.75
 30
0.0
  0
SEQEND
  5
A17
  8
DATA
 62
     7
  0
POLYLINE
  5
2EE
  8
DATA
 62
     7
 66
     1
 10
0.0
 20
0.0
 30
0.0
 70
     1
  0
VERTEX
  5
A18
  8
DATA
 62
     7
 10
253.5
 20
25.25
 30
0.0
  0
VERTEX
  5
A19
  8
DATA
 62
     7
 10
257.5
 20
25.25
 30
0.0
  0
VERTEX
  5
A1A
  8
DATA
 62
     7
 10
257.5
 20
22.75
 30
0.0
  0
VERTEX
  5
A1B
  8
DATA
 62
     7
 10
253.5
 20
22.75
 30
0.0
  0
SEQEND
  5
A1C
  8
DATA
 62
     7
  0
POLYLINE
  5
2F4
  8
DATA
 62
     7
 66
     1
 10
0.0
 20
0.0
 30
0.0
 70
     1
  0
VERTEX
  5
A1D
  8
DATA
 62
     7
 10
253.5
 20
17.25
 30
0.0
  0
VERTEX
  5
A1E
  8
DATA
 62
     7
 10
257.5
 20
17.25
 30
0.0
  0
VERTEX
  5
A1F
  8
DATA
 62
     7
 10
257.5
 20
14.75
 30
0.0
  0
VERTEX
  5
A20
  8
DATA
 62
     7
 10
253.5
 20
14.75
 30
0.0
  0
SEQEND
  5
A21
  8
DATA
 62
     7
  0
CIRCLE
  5
2FA
  8
DATA
 62
     7
 10
232.0
 20
101.40000000000001
 30
0.0
 40
3.5000000000000071
  0
LINE
  5
2FB
  8
DATA
 62
     7
 10
228.0
 20
95.399999999999963
 30
0.0
 11
227.0
 21
105.40000000000001
 31
0.0
  0
LINE
  5
2FC
  8
DATA
 62
     7
 10
236.0
 20
95.399999999999963
 30
0.0
 11
237.0
 21
105.40000000000001
 31
0.0
  0
LINE
  5
2FD
  8
DATA
 62
     7
 10
227.0
 20
105.40000000000001
 30
0.0
 11
237.0
 21
105.40000000000001
 31
0.0
  0
POLYLINE
  5
2FE
  8
DATA
 62
     7
 66
     1
 10
0.0
 20
0.0
 30
0.0
  0
VERTEX
  5
A22
  8
DATA
 62
     7
 10
232.5
 20
101.89999999999991
 30
0.0
  0
VERTEX
  5
A23
  8
DATA
 62
     7
 10
232.5
 20
103.40000000000001
 30
0.0
  0
VERTEX
  5
A24
  8
DATA
 62
     7
 10
231.5
 20
103.40000000000001
 30
0.0
  0
VERTEX
  5
A25
  8
DATA
 62
     7
 10
231.5
 20
101.89999999999991
 30
0.0
  0
SEQEND
  5
A26
  8
DATA
 62
     7
  0
POLYLINE
  5
304
  8
DATA
 62
     7
 66
     1
 10
0.0
 20
0.0
 30
0.0
  0
VERTEX
  5
A27
  8
DATA
 62
     7
 10
232.5
 20
100.90000000000001
 30
0.0
  0
VERTEX
  5
A28
  8
DATA
 62
     7
 10
232.5
 20
99.399999999999963
 30
0.0
  0
VERTEX
  5
A29
  8
DATA
 62
     7
 10
231.5
 20
99.399999999999963
 30
0.0
  0
VERTEX
  5
A2A
  8
DATA
 62
     7
 10
231.5
 20
100.90000000000001
 30
0.0
  0
SEQEND
  5
A2B
  8
DATA
 62
     7
  0
POLYLINE
  5
30A
  8
DATA
 62
     7
 66
     1
 10
0.0
 20
0.0
 30
0.0
  0
VERTEX
  5
A2C
  8
DATA
 62
     7
 10
232.5
 20
100.90000000000001
 30
0.0
  0
VERTEX
  5
A2D
  8
DATA
 62
     7
 10
234.0
 20
100.90000000000001
 30
0.0
  0
VERTEX
  5
A2E
  8
DATA
 62
     7
 10
234.0
 20
101.89999999999991
 30
0.0
  0
VERTEX
  5
A2F
  8
DATA
 62
     7
 10
232.5
 20
101.89999999999991
 30
0.0
  0
SEQEND
  5
A30
  8
DATA
 62
     7
  0
POLYLINE
  5
310
  8
DATA
 62
     7
 66
     1
 10
0.0
 20
0.0
 30
0.0
  0
VERTEX
  5
A31
  8
DATA
 62
     7
 10
231.5
 20
100.90000000000001
 30
0.0
  0
VERTEX
  5
A32
  8
DATA
 62
     7
 10
230.0
 20
100.90000000000001
 30
0.0
  0
VERTEX
  5
A33
  8
DATA
 62
     7
 10
230.0
 20
101.89999999999991
 30
0.0
  0
VERTEX
  5
A34
  8
DATA
 62
     7
 10
231.5
 20
101.89999999999991
 30
0.0
  0
SEQEND
  5
A35
  8
DATA
 62
     7
  0
CIRCLE
  5
316
  8
DATA
 62
     7
 10
80.0
 20
101.40000000000001
 30
0.0
 40
3.5000000000000071
  0
LINE
  5
317
  8
DATA
 62
     7
 10
76.0
 20
95.399999999999963
 30
0.0
 11
75.0
 21
105.40000000000001
 31
0.0
  0
LINE
  5
318
  8
DATA
 62
     7
 10
84.0
 20
95.399999999999963
 30
0.0
 11
85.0
 21
105.40000000000001
 31
0.0
  0
LINE
  5
319
  8
DATA
 62
     7
 10
75.0
 20
105.40000000000001
 30
0.0
 11
85.0
 21
105.40000000000001
 31
0.0
  0
POLYLINE
  5
31A
  8
DATA
 62
     7
 66
     1
 10
0.0
 20
0.0
 30
0.0
  0
VERTEX
  5
A36
  8
DATA
 62
     7
 10
80.5
 20
101.89999999999991
 30
0.0
  0
VERTEX
  5
A37
  8
DATA
 62
     7
 10
80.5
 20
103.40000000000001
 30
0.0
  0
VERTEX
  5
A38
  8
DATA
 62
     7
 10
79.5
 20
103.40000000000001
 30
0.0
  0
VERTEX
  5
A39
  8
DATA
 62
     7
 10
79.5
 20
101.89999999999991
 30
0.0
  0
SEQEND
  5
A3A
  8
DATA
 62
     7
  0
POLYLINE
  5
320
  8
DATA
 62
     7
 66
     1
 10
0.0
 20
0.0
 30
0.0
  0
VERTEX
  5
A3B
  8
DATA
 62
     7
 10
80.5
 20
100.90000000000001
 30
0.0
  0
VERTEX
  5
A3C
  8
DATA
 62
     7
 10
80.5
 20
99.399999999999963
 30
0.0
  0
VERTEX
  5
A3D
  8
DATA
 62
     7
 10
79.5
 20
99.399999999999963
 30
0.0
  0
VERTEX
  5
A3E
  8
DATA
 62
     7
 10
79.5
 20
100.90000000000001
 30
0.0
  0
SEQEND
  5
A3F
  8
DATA
 62
     7
  0
POLYLINE
  5
326
  8
DATA
 62
     7
 66
     1
 10
0.0
 20
0.0
 30
0.0
  0
VERTEX
  5
A40
  8
DATA
 62
     7
 10
80.5
 20
100.90000000000001
 30
0.0
  0
VERTEX
  5
A41
  8
DATA
 62
     7
 10
82.0
 20
100.90000000000001
 30
0.0
  0
VERTEX
  5
A42
  8
DATA
 62
     7
 10
82.0
 20
101.89999999999991
 30
0.0
  0
VERTEX
  5
A43
  8
DATA
 62
     7
 10
80.5
 20
101.89999999999991
 30
0.0
  0
SEQEND
  5
A44
  8
DATA
 62
     7
  0
POLYLINE
  5
32C
  8
DATA
 62
     7
 66
     1
 10
0.0
 20
0.0
 30
0.0
  0
VERTEX
  5
A45
  8
DATA
 62
     7
 10
79.5
 20
100.90000000000001
 30
0.0
  0
VERTEX
  5
A46
  8
DATA
 62
     7
 10
78.0
 20
100.90000000000001
 30
0.0
  0
VERTEX
  5
A47
  8
DATA
 62
     7
 10
78.0
 20
101.89999999999991
 30
0.0
  0
VERTEX
  5
A48
  8
DATA
 62
     7
 10
79.5
 20
101.89999999999991
 30
0.0
  0
SEQEND
  5
A49
  8
DATA
 62
     7
  0
CIRCLE
  5
332
  8
DATA
 62
     7
 10
397.0
 20
101.40000000000001
 30
0.0
 40
3.5000000000000071
  0
LINE
  5
333
  8
DATA
 62
     7
 10
393.0
 20
95.399999999999963
 30
0.0
 11
392.0
 21
105.40000000000001
 31
0.0
  0
LINE
  5
334
  8
DATA
 62
     7
 10
401.0
 20
95.399999999999963
 30
0.0
 11
402.0
 21
105.40000000000001
 31
0.0
  0
LINE
  5
335
  8
DATA
 62
     7
 10
392.0
 20
105.40000000000001
 30
0.0
 11
402.0
 21
105.40000000000001
 31
0.0
  0
POLYLINE
  5
336
  8
DATA
 62
     7
 66
     1
 10
0.0
 20
0.0
 30
0.0
  0
VERTEX
  5
A4A
  8
DATA
 62
     7
 10
397.5
 20
101.89999999999991
 30
0.0
  0
VERTEX
  5
A4B
  8
DATA
 62
     7
 10
397.5
 20
103.40000000000001
 30
0.0
  0
VERTEX
  5
A4C
  8
DATA
 62
     7
 10
396.5
 20
103.40000000000001
 30
0.0
  0
VERTEX
  5
A4D
  8
DATA
 62
     7
 10
396.5
 20
101.89999999999991
 30
0.0
  0
SEQEND
  5
A4E
  8
DATA
 62
     7
  0
POLYLINE
  5
33C
  8
DATA
 62
     7
 66
     1
 10
0.0
 20
0.0
 30
0.0
  0
VERTEX
  5
A4F
  8
DATA
 62
     7
 10
397.5
 20
100.90000000000001
 30
0.0
  0
VERTEX
  5
A50
  8
DATA
 62
     7
 10
397.5
 20
99.399999999999963
 30
0.0
  0
VERTEX
  5
A51
  8
DATA
 62
     7
 10
396.5
 20
99.399999999999963
 30
0.0
  0
VERTEX
  5
A52
  8
DATA
 62
     7
 10
396.5
 20
100.90000000000001
 30
0.0
  0
SEQEND
  5
A53
  8
DATA
 62
     7
  0
POLYLINE
  5
342
  8
DATA
 62
     7
 66
     1
 10
0.0
 20
0.0
 30
0.0
  0
VERTEX
  5
A54
  8
DATA
 62
     7
 10
397.5
 20
100.90000000000001
 30
0.0
  0
VERTEX
  5
A55
  8
DATA
 62
     7
 10
399.0
 20
100.90000000000001
 30
0.0
  0
VERTEX
  5
A56
  8
DATA
 62
     7
 10
399.0
 20
101.89999999999991
 30
0.0
  0
VERTEX
  5
A57
  8
DATA
 62
     7
 10
397.5
 20
101.89999999999991
 30
0.0
  0
SEQEND
  5
A58
  8
DATA
 62
     7
  0
POLYLINE
  5
348
  8
DATA
 62
     7
 66
     1
 10
0.0
 20
0.0
 30
0.0
  0
VERTEX
  5
A59
  8
DATA
 62
     7
 10
396.5
 20
100.90000000000001
 30
0.0
  0
VERTEX
  5
A5A
  8
DATA
 62
     7
 10
395.0
 20
100.90000000000001
 30
0.0
  0
VERTEX
  5
A5B
  8
DATA
 62
     7
 10
395.0
 20
101.89999999999991
 30
0.0
  0
VERTEX
  5
A5C
  8
DATA
 62
     7
 10
396.5
 20
101.89999999999991
 30
0.0
  0
SEQEND
  5
A5D
  8
DATA
 62
     7
  0
CIRCLE
  5
34E
  8
DATA
 62
     7
 10
537.10000000000002
 20
35.5
 30
0.0
 40
3.1499999999999999
  0
POLYLINE
  5
34F
  8
DATA
 62
     7
 66
     1
 10
0.0
 20
0.0
 30
0.0
  0
VERTEX
  5
A5E
  8
DATA
 62
     7
 10
536.60000000000002
 20
35.0
 30
0.0
  0
VERTEX
  5
A5F
  8
DATA
 62
     7
 10
536.60000000000002
 20
33.5
 30
0.0
  0
VERTEX
  5
A60
  8
DATA
 62
     7
 10
537.60000000000002
 20
33.5
 30
0.0
  0
VERTEX
  5
A61
  8
DATA
 62
     7
 10
537.60000000000002
 20
35.0
 30
0.0
  0
SEQEND
  5
A62
  8
DATA
 62
     7
  0
POLYLINE
  5
355
  8
DATA
 62
     7
 66
     1
 10
0.0
 20
0.0
 30
0.0
  0
VERTEX
  5
A63
  8
DATA
 62
     7
 10
536.60000000000002
 20
36.0
 30
0.0
  0
VERTEX
  5
A64
  8
DATA
 62
     7
 10
536.60000000000002
 20
37.5
 30
0.0
  0
VERTEX
  5
A65
  8
DATA
 62
     7
 10
537.60000000000002
 20
37.5
 30
0.0
  0
VERTEX
  5
A66
  8
DATA
 62
     7
 10
537.60000000000002
 20
36.0
 30
0.0
  0
SEQEND
  5
A67
  8
DATA
 62
     7
  0
POLYLINE
  5
35B
  8
DATA
 62
     7
 66
     1
 10
0.0
 20
0.0
 30
0.0
  0
VERTEX
  5
A68
  8
DATA
 62
     7
 10
537.60000000000002
 20
35.0
 30
0.0
  0
VERTEX
  5
A69
  8
DATA
 62
     7
 10
539.10000000000002
 20
35.0
 30
0.0
  0
VERTEX
  5
A6A
  8
DATA
 62
     7
 10
539.10000000000002
 20
36.0
 30
0.0
  0
VERTEX
  5
A6B
  8
DATA
 62
     7
 10
537.60000000000002
 20
36.0
 30
0.0
  0
SEQEND
  5
A6C
  8
DATA
 62
     7
  0
POLYLINE
  5
361
  8
DATA
 62
     7
 66
     1
 10
0.0
 20
0.0
 30
0.0
  0
VERTEX
  5
A6D
  8
DATA
 62
     7
 10
536.60000000000002
 20
35.0
 30
0.0
  0
VERTEX
  5
A6E
  8
DATA
 62
     7
 10
535.09999999999991
 20
35.0
 30
0.0
  0
VERTEX
  5
A6F
  8
DATA
 62
     7
 10
535.09999999999991
 20
36.0
 30
0.0
  0
VERTEX
  5
A70
  8
DATA
 62
     7
 10
536.60000000000002
 20
36.0
 30
0.0
  0
SEQEND
  5
A71
  8
DATA
 62
     7
  0
ARC
  5
367
  8
DATA
 62
     7
 10
521.10000000000002
 20
35.0
 30
0.0
 40
2.5
 50
180.0
 51
270.0
  0
ARC
  5
368
  8
DATA
 62
     7
 10
552.10000001716537
 20
34.99999999999995
 30
0.0
 40
2.4999999999999432
 50
270.0
 51
0.000000196703013
  0
CIRCLE
  5
369
  8
DATA
 62
     7
 10
590.10000000000002
 20
34.000159112941667
 30
0.0
 40
3.3500000000000241
  0
POLYLINE
  5
36A
  8
DATA
 62
     7
 66
     1
 10
0.0
 20
0.0
 30
0.0
  0
VERTEX
  5
A72
  8
DATA
 62
     7
 10
590.60000000000002
 20
34.500159112941681
 30
0.0
  0
VERTEX
  5
A73
  8
DATA
 62
     7
 10
590.60000000000002
 20
36.000159112941681
 30
0.0
  0
VERTEX
  5
A74
  8
DATA
 62
     7
 10
589.59999999999991
 20
36.000159112941681
 30
0.0
  0
VERTEX
  5
A75
  8
DATA
 62
     7
 10
589.59999999999991
 20
34.500159112941681
 30
0.0
  0
SEQEND
  5
A76
  8
DATA
 62
     7
  0
POLYLINE
  5
370
  8
DATA
 62
     7
 66
     1
 10
0.0
 20
0.0
 30
0.0
  0
VERTEX
  5
A77
  8
DATA
 62
     7
 10
590.60000000000002
 20
33.500159112941681
 30
0.0
  0
VERTEX
  5
A78
  8
DATA
 62
     7
 10
590.60000000000002
 20
32.000000399086503
 30
0.0
  0
VERTEX
  5
A79
  8
DATA
 62
     7
 10
589.59999999999991
 20
32.000000399086503
 30
0.0
  0
VERTEX
  5
A7A
  8
DATA
 62
     7
 10
589.59999999999991
 20
33.500159112941681
 30
0.0
  0
SEQEND
  5
A7B
  8
DATA
 62
     7
  0
POLYLINE
  5
376
  8
DATA
 62
     7
 66
     1
 10
0.0
 20
0.0
 30
0.0
  0
VERTEX
  5
A7C
  8
DATA
 62
     7
 10
590.60000000000002
 20
33.500159112941681
 30
0.0
  0
VERTEX
  5
A7D
  8
DATA
 62
     7
 10
592.10015871385531
 20
33.500159112941681
 30
0.0
  0
VERTEX
  5
A7E
  8
DATA
 62
     7
 10
592.10015871385531
 20
34.500159112941681
 30
0.0
  0
VERTEX
  5
A7F
  8
DATA
 62
     7
 10
590.60000000000002
 20
34.500159112941681
 30
0.0
  0
SEQEND
  5
A80
  8
DATA
 62
     7
  0
POLYLINE
  5
37C
  8
DATA
 62
     7
 66
     1
 10
0.0
 20
0.0
 30
0.0
  0
VERTEX
  5
A81
  8
DATA
 62
     7
 10
589.59999999999991
 20
33.500159112941681
 30
0.0
  0
VERTEX
  5
A82
  8
DATA
 62
     7
 10
588.10000000000002
 20
33.500159112941681
 30
0.0
  0
VERTEX
  5
A83
  8
DATA
 62
     7
 10
588.10000000000002
 20
34.500159112941681
 30
0.0
  0
VERTEX
  5
A84
  8
DATA
 62
     7
 10
589.59999999999991
 20
34.500159112941681
 30
0.0
  0
SEQEND
  5
A85
  8
DATA
 62
     7
  0
LINE
  5
382
  8
DATA
 62
     7
 10
562.45000000000005
 20
27.650159112941651
 30
0.0
 11
562.45000000000005
 21
10.650159112941649
 31
0.0
  0
LINE
  5
383
  8
DATA
 62
     7
 10
558.75
 20
27.650159112941651
 30
0.0
 11
558.75
 21
10.650159112941649
 31
0.0
  0
ARC
  5
384
  8
DATA
 62
     7
 10
560.60000000000002
 20
27.650159112941651
 30
0.0
 40
1.8499999999999941
 50
0.0
 51
180.0
  0
ARC
  5
385
  8
DATA
 62
     7
 10
560.60000000000002
 20
10.650159112941649
 30
0.0
 40
1.8499999999999941
 50
180.0
 51
0.0
  0
CIRCLE
  5
386
  8
DATA
 62
     7
 10
561.10000000000002
 20
4.5001591129416729
 30
0.0
 40
3.3499999999999721
  0
POLYLINE
  5
387
  8
DATA
 62
     7
 66
     1
 10
0.0
 20
0.0
 30
0.0
  0
VERTEX
  5
A86
  8
DATA
 62
     7
 10
561.59992064307255
 20
5.0002384698692603
 30
0.0
  0
VERTEX
  5
A87
  8
DATA
 62
     7
 10
561.59992064307255
 20
6.5002384698692603
 30
0.0
  0
VERTEX
  5
A88
  8
DATA
 62
     7
 10
560.59992064307255
 20
6.5002384698692603
 30
0.0
  0
VERTEX
  5
A89
  8
DATA
 62
     7
 10
560.59992064307255
 20
5.0002384698692603
 30
0.0
  0
SEQEND
  5
A8A
  8
DATA
 62
     7
  0
POLYLINE
  5
38D
  8
DATA
 62
     7
 66
     1
 10
0.0
 20
0.0
 30
0.0
  0
VERTEX
  5
A8B
  8
DATA
 62
     7
 10
561.59992064307255
 20
4.0002384698692603
 30
0.0
  0
VERTEX
  5
A8C
  8
DATA
 62
     7
 10
561.59992064307255
 20
2.5000797560140882
 30
0.0
  0
VERTEX
  5
A8D
  8
DATA
 62
     7
 10
560.59992064307255
 20
2.5000797560140882
 30
0.0
  0
VERTEX
  5
A8E
  8
DATA
 62
     7
 10
560.59992064307255
 20
4.0002384698692603
 30
0.0
  0
SEQEND
  5
A8F
  8
DATA
 62
     7
  0
POLYLINE
  5
393
  8
DATA
 62
     7
 66
     1
 10
0.0
 20
0.0
 30
0.0
  0
VERTEX
  5
A90
  8
DATA
 62
     7
 10
561.59992064307255
 20
4.0002384698692603
 30
0.0
  0
VERTEX
  5
A91
  8
DATA
 62
     7
 10
563.10007935692761
 20
4.0002384698692603
 30
0.0
  0
VERTEX
  5
A92
  8
DATA
 62
     7
 10
563.10007935692761
 20
5.0002384698692603
 30
0.0
  0
VERTEX
  5
A93
  8
DATA
 62
     7
 10
561.59992064307255
 20
5.0002384698692603
 30
0.0
  0
SEQEND
  5
A94
  8
DATA
 62
     7
  0
POLYLINE
  5
399
  8
DATA
 62
     7
 66
     1
 10
0.0
 20
0.0
 30
0.0
  0
VERTEX
  5
A95
  8
DATA
 62
     7
 10
560.59992064307255
 20
4.0002384698692603
 30
0.0
  0
VERTEX
  5
A96
  8
DATA
 62
     7
 10
559.09992064307255
 20
4.0002384698692603
 30
0.0
  0
VERTEX
  5
A97
  8
DATA
 62
     7
 10
559.09992064307255
 20
5.0002384698692603
 30
0.0
  0
VERTEX
  5
A98
  8
DATA
 62
     7
 10
560.59992064307255
 20
5.0002384698692603
 30
0.0
  0
SEQEND
  5
A99
  8
DATA
 62
     7
  0
INSERT
  5
39F
  8
DATA
 62
     7
  2
*U1
 10
370.0
 20
460.0
 30
0.0
  0
INSERT
  5
3A0
  8
DATA
 62
     7
  2
*U2
 10
370.0
 20
460.0
 30
0.0
  0
ARC
  5
3A1
  8
DATA
 62
     7
 10
601.09999997167608
 20
35.0
 30
0.0
 40
2.5
 50
180.0
 51
270.0
  0
CIRCLE
  5
3A2
  8
DATA
 62
     7
 10
707.09999999999968
 20
35.5
 30
0.0
 40
3.1499999999999999
  0
POLYLINE
  5
3A3
  8
DATA
 62
     7
 66
     1
 10
0.0
 20
0.0
 30
0.0
  0
VERTEX
  5
A9A
  8
DATA
 62
     7
 10
706.5999999999998
 20
35.0
 30
0.0
  0
VERTEX
  5
A9B
  8
DATA
 62
     7
 10
706.5999999999998
 20
33.5
 30
0.0
  0
VERTEX
  5
A9C
  8
DATA
 62
     7
 10
707.59999999999968
 20
33.5
 30
0.0
  0
VERTEX
  5
A9D
  8
DATA
 62
     7
 10
707.59999999999968
 20
35.0
 30
0.0
  0
SEQEND
  5
A9E
  8
DATA
 62
     7
  0
POLYLINE
  5
3A9
  8
DATA
 62
     7
 66
     1
 10
0.0
 20
0.0
 30
0.0
  0
VERTEX
  5
A9F
  8
DATA
 62
     7
 10
706.5999999999998
 20
36.0
 30
0.0
  0
VERTEX
  5
AA0
  8
DATA
 62
     7
 10
706.5999999999998
 20
37.5
 30
0.0
  0
VERTEX
  5
AA1
  8
DATA
 62
     7
 10
707.59999999999968
 20
37.5
 30
0.0
  0
VERTEX
  5
AA2
  8
DATA
 62
     7
 10
707.59999999999968
 20
36.0
 30
0.0
  0
SEQEND
  5
AA3
  8
DATA
 62
     7
  0
POLYLINE
  5
3AF
  8
DATA
 62
     7
 66
     1
 10
0.0
 20
0.0
 30
0.0
  0
VERTEX
  5
AA4
  8
DATA
 62
     7
 10
707.59999999999968
 20
35.0
 30
0.0
  0
VERTEX
  5
AA5
  8
DATA
 62
     7
 10
709.0999999999998
 20
35.0
 30
0.0
  0
VERTEX
  5
AA6
  8
DATA
 62
     7
 10
709.0999999999998
 20
36.0
 30
0.0
  0
VERTEX
  5
AA7
  8
DATA
 62
     7
 10
707.59999999999968
 20
36.0
 30
0.0
  0
SEQEND
  5
AA8
  8
DATA
 62
     7
  0
POLYLINE
  5
3B5
  8
DATA
 62
     7
 66
     1
 10
0.0
 20
0.0
 30
0.0
  0
VERTEX
  5
AA9
  8
DATA
 62
     7
 10
706.5999999999998
 20
35.0
 30
0.0
  0
VERTEX
  5
AAA
  8
DATA
 62
     7
 10
705.0999999999998
 20
35.0
 30
0.0
  0
VERTEX
  5
AAB
  8
DATA
 62
     7
 10
705.0999999999998
 20
36.0
 30
0.0
  0
VERTEX
  5
AAC
  8
DATA
 62
     7
 10
706.5999999999998
 20
36.0
 30
0.0
  0
SEQEND
  5
AAD
  8
DATA
 62
     7
  0
LINE
  5
3BB
  8
DATA
 62
     7
 10
518.59999999999991
 20
42.0
 30
0.0
 11
517.10000000000002
 21
42.0
 31
0.0
  0
LINE
  5
3BC
  8
DATA
 62
     7
 10
515.60000000000002
 20
44.0
 30
0.0
 11
517.10000000000002
 21
42.0
 31
0.0
  0
LINE
  5
3BD
  8
DATA
 62
     7
 10
516.5
 20
0.0
 30
0.0
 11
516.60000000000002
 21
0.5
 31
0.0
  0
LINE
  5
3BE
  8
DATA
 62
     7
 10
458.30000000000001
 20
145.44999999999999
 30
0.0
 11
458.49999999999989
 21
145.44999999999999
 31
0.0
  0
LINE
  5
3BF
  8
DATA
 62
     7
 10
459.0
 20
144.94999999999999
 30
0.0
 11
459.0
 21
139.25
 31
0.0
  0
LINE
  5
3C0
  8
DATA
 62
     7
 10
458.30000000000001
 20
138.75
 30
0.0
 11
458.49999999999989
 21
138.75
 31
0.0
  0
ARC
  5
3C1
  8
DATA
 62
     7
 10
458.49999999999989
 20
144.94999999999999
 30
0.0
 40
0.5
 50
0.0
 51
90.0
  0
ARC
  5
3C2
  8
DATA
 62
     7
 10
458.49999999999989
 20
139.25
 30
0.0
 40
0.5
 50
270.0
 51
0.0
  0
LINE
  5
3C3
  8
DATA
 62
     7
 10
458.30000000000001
 20
174.44999999999999
 30
0.0
 11
458.49999999999989
 21
174.44999999999999
 31
0.0
  0
LINE
  5
3C4
  8
DATA
 62
     7
 10
459.0
 20
173.94999999999999
 30
0.0
 11
459.0
 21
168.25
 31
0.0
  0
LINE
  5
3C5
  8
DATA
 62
     7
 10
458.30000000000001
 20
167.75
 30
0.0
 11
458.49999999999989
 21
167.75
 31
0.0
  0
ARC
  5
3C6
  8
DATA
 62
     7
 10
458.49999999999989
 20
173.94999999999999
 30
0.0
 40
0.5
 50
0.0
 51
90.0
  0
ARC
  5
3C7
  8
DATA
 62
     7
 10
458.49999999999989
 20
168.25
 30
0.0
 40
0.5
 50
270.0
 51
0.0
  0
ARC
  5
3C8
  8
DATA
 62
     7
 10
455.74250000000001
 20
118.09999999999999
 30
0.0
 40
4.0575000000000818
 50
309.07330987625738
 51
50.926690123742382
  0
ARC
  5
3C9
  8
DATA
 62
     7
 10
455.74250000000001
 20
288.10000000000002
 30
0.0
 40
4.0575000000000818
 50
309.07330987625738
 51
50.926690123741942
  0
ARC
  5
3CA
  8
DATA
 62
     7
 10
26.85750000000008
 20
118.09999999999999
 30
0.0
 40
4.0575000000000641
 50
129.0733098762571
 51
230.92669012374279
  0
ARC
  5
3CB
  8
DATA
 62
     7
 10
26.85750000000008
 20
288.10000000000002
 30
0.0
 40
4.0575000000000641
 50
129.0733098762571
 51
230.92669012374279
  0
ARC
  5
3CC
  8
DATA
 62
     7
 10
26.857499999999959
 20
468.5
 30
0.0
 40
4.0574999999999486
 50
129.07330987625639
 51
230.92669012374361
  0
ARC
  5
3CD
  8
DATA
 62
     7
 10
455.74250000000001
 20
468.5
 30
0.0
 40
4.0575000000000037
 50
309.07330987625681
 51
50.926690123743199
  0
LINE
  5
3CE
  8
DATA
 62
     7
 10
457.30000000000001
 20
502.85000000000002
 30
0.0
 11
457.30000000000001
 21
496.14999999999998
 31
0.0
  0
LINE
  5
3CF
  8
DATA
 62
     7
 10
457.30000000000001
 20
502.85000000000002
 30
0.0
 11
458.30000000000001
 21
502.85000000000002
 31
0.0
  0
LINE
  5
3D0
  8
DATA
 62
     7
 10
458.80000000000001
 20
502.35000000000002
 30
0.0
 11
458.80000000000001
 21
496.64999999999992
 31
0.0
  0
LINE
  5
3D1
  8
DATA
 62
     7
 10
458.30000000000001
 20
496.14999999999998
 30
0.0
 11
457.30000000000001
 21
496.14999999999998
 31
0.0
  0
ARC
  5
3D2
  8
DATA
 62
     7
 10
458.30000000000001
 20
502.35000000000002
 30
0.0
 40
0.5
 50
0.0
 51
90.0
  0
ARC
  5
3D3
  8
DATA
 62
     7
 10
458.30000000000001
 20
496.64999999999992
 30
0.0
 40
0.5
 50
270.0
 51
0.0
  0
LINE
  5
3D4
  8
DATA
 62
     7
 10
457.30000000000001
 20
473.35000000000002
 30
0.0
 11
457.30000000000001
 21
466.64999999999998
 31
0.0
  0
LINE
  5
3D5
  8
DATA
 62
     7
 10
457.30000000000001
 20
473.35000000000002
 30
0.0
 11
458.30000000000001
 21
473.35000000000002
 31
0.0
  0
LINE
  5
3D6
  8
DATA
 62
     7
 10
458.80000000000001
 20
472.85000000000002
 30
0.0
 11
458.80000000000001
 21
471.16739573366982
 31
0.0
  0
ARC
  5
3D7
  8
DATA
 62
     7
 10
458.30000000000001
 20
472.85000000000002
 30
0.0
 40
0.5
 50
0.0
 51
90.0
  0
LINE
  5
3D8
  8
DATA
 62
     7
 10
44.300000000000011
 20
472.0
 30
0.0
 11
74.300000000000026
 21
472.0
 31
0.0
  0
LINE
  5
3D9
  8
DATA
 62
     7
 10
44.300000000000011
 20
473.0
 30
0.0
 11
45.799999999999997
 21
473.0
 31
0.0
  0
LINE
  5
3DA
  8
DATA
 62
     7
 10
45.799999999999997
 20
473.0
 30
0.0
 11
45.300000000000011
 21
472.0
 31
0.0
  0
LINE
  5
3DB
  8
DATA
 62
     7
 10
48.300000000000011
 20
472.0
 30
0.0
 11
47.800000000000011
 21
473.0
 31
0.0
  0
LINE
  5
3DC
  8
DATA
 62
     7
 10
47.800000000000011
 20
473.0
 30
0.0
 11
50.800000000000011
 21
473.0
 31
0.0
  0
LINE
  5
3DD
  8
DATA
 62
     7
 10
50.800000000000011
 20
473.0
 30
0.0
 11
50.300000000000011
 21
472.0
 31
0.0
  0
LINE
  5
3DE
  8
DATA
 62
     7
 10
53.300000000000011
 20
472.0
 30
0.0
 11
52.800000000000011
 21
473.0
 31
0.0
  0
LINE
  5
3DF
  8
DATA
 62
     7
 10
52.800000000000011
 20
473.0
 30
0.0
 11
55.800000000000011
 21
473.0
 31
0.0
  0
LINE
  5
3E0
  8
DATA
 62
     7
 10
55.800000000000011
 20
473.0
 30
0.0
 11
55.300000000000011
 21
472.0
 31
0.0
  0
LINE
  5
3E1
  8
DATA
 62
     7
 10
58.300000000000011
 20
472.0
 30
0.0
 11
57.800000000000011
 21
473.0
 31
0.0
  0
LINE
  5
3E2
  8
DATA
 62
     7
 10
57.800000000000011
 20
473.0
 30
0.0
 11
60.800000000000011
 21
473.0
 31
0.0
  0
LINE
  5
3E3
  8
DATA
 62
     7
 10
60.800000000000011
 20
473.0
 30
0.0
 11
60.300000000000011
 21
472.0
 31
0.0
  0
LINE
  5
3E4
  8
DATA
 62
     7
 10
63.300000000000011
 20
472.0
 30
0.0
 11
62.800000000000011
 21
473.0
 31
0.0
  0
LINE
  5
3E5
  8
DATA
 62
     7
 10
62.800000000000011
 20
473.0
 30
0.0
 11
65.800000000000011
 21
473.0
 31
0.0
  0
LINE
  5
3E6
  8
DATA
 62
     7
 10
65.800000000000011
 20
473.0
 30
0.0
 11
65.300000000000011
 21
472.0
 31
0.0
  0
LINE
  5
3E7
  8
DATA
 62
     7
 10
68.300000000000011
 20
472.0
 30
0.0
 11
67.800000000000011
 21
473.0
 31
0.0
  0
LINE
  5
3E8
  8
DATA
 62
     7
 10
67.800000000000011
 20
473.0
 30
0.0
 11
70.800000000000026
 21
473.0
 31
0.0
  0
LINE
  5
3E9
  8
DATA
 62
     7
 10
70.800000000000026
 20
473.0
 30
0.0
 11
70.300000000000011
 21
472.0
 31
0.0
  0
LINE
  5
3EA
  8
DATA
 62
     7
 10
74.300000000000026
 20
473.0
 30
0.0
 11
72.800000000000026
 21
473.0
 31
0.0
  0
LINE
  5
3EB
  8
DATA
 62
     7
 10
72.800000000000026
 20
473.0
 30
0.0
 11
73.300000000000026
 21
472.0
 31
0.0
  0
POLYLINE
  5
3EC
  8
DATA
 62
     7
 66
     1
 10
0.0
 20
0.0
 30
0.0
 70
     1
  0
VERTEX
  5
AAE
  8
DATA
 62
     7
 10
46.299999999999962
 20
476.49999999999989
 30
0.0
  0
VERTEX
  5
AAF
  8
DATA
 62
     7
 10
47.300000000000011
 20
476.49999999999989
 30
0.0
  0
VERTEX
  5
AB0
  8
DATA
 62
     7
 10
47.300000000000011
 20
475.49999999999989
 30
0.0
  0
VERTEX
  5
AB1
  8
DATA
 62
     7
 10
46.299999999999962
 20
475.49999999999989
 30
0.0
  0
SEQEND
  5
AB2
  8
DATA
 62
     7
  0
POLYLINE
  5
3F2
  8
DATA
 62
     7
 66
     1
 10
0.0
 20
0.0
 30
0.0
 70
     1
  0
VERTEX
  5
AB3
  8
DATA
 62
     7
 10
51.299999999999962
 20
476.49999999999989
 30
0.0
  0
VERTEX
  5
AB4
  8
DATA
 62
     7
 10
52.300000000000011
 20
476.49999999999989
 30
0.0
  0
VERTEX
  5
AB5
  8
DATA
 62
     7
 10
52.300000000000011
 20
475.49999999999989
 30
0.0
  0
VERTEX
  5
AB6
  8
DATA
 62
     7
 10
51.299999999999962
 20
475.49999999999989
 30
0.0
  0
SEQEND
  5
AB7
  8
DATA
 62
     7
  0
POLYLINE
  5
3F8
  8
DATA
 62
     7
 66
     1
 10
0.0
 20
0.0
 30
0.0
 70
     1
  0
VERTEX
  5
AB8
  8
DATA
 62
     7
 10
56.299999999999962
 20
476.49999999999989
 30
0.0
  0
VERTEX
  5
AB9
  8
DATA
 62
     7
 10
57.300000000000011
 20
476.49999999999989
 30
0.0
  0
VERTEX
  5
ABA
  8
DATA
 62
     7
 10
57.300000000000011
 20
475.49999999999989
 30
0.0
  0
VERTEX
  5
ABB
  8
DATA
 62
     7
 10
56.299999999999962
 20
475.49999999999989
 30
0.0
  0
SEQEND
  5
ABC
  8
DATA
 62
     7
  0
POLYLINE
  5
3FE
  8
DATA
 62
     7
 66
     1
 10
0.0
 20
0.0
 30
0.0
 70
     1
  0
VERTEX
  5
ABD
  8
DATA
 62
     7
 10
61.299999999999962
 20
476.49999999999989
 30
0.0
  0
VERTEX
  5
ABE
  8
DATA
 62
     7
 10
62.300000000000011
 20
476.49999999999989
 30
0.0
  0
VERTEX
  5
ABF
  8
DATA
 62
     7
 10
62.300000000000011
 20
475.49999999999989
 30
0.0
  0
VERTEX
  5
AC0
  8
DATA
 62
     7
 10
61.299999999999962
 20
475.49999999999989
 30
0.0
  0
SEQEND
  5
AC1
  8
DATA
 62
     7
  0
POLYLINE
  5
404
  8
DATA
 62
     7
 66
     1
 10
0.0
 20
0.0
 30
0.0
 70
     1
  0
VERTEX
  5
AC2
  8
DATA
 62
     7
 10
66.299999999999969
 20
476.49999999999989
 30
0.0
  0
VERTEX
  5
AC3
  8
DATA
 62
     7
 10
67.300000000000011
 20
476.49999999999989
 30
0.0
  0
VERTEX
  5
AC4
  8
DATA
 62
     7
 10
67.300000000000011
 20
475.49999999999989
 30
0.0
  0
VERTEX
  5
AC5
  8
DATA
 62
     7
 10
66.299999999999969
 20
475.49999999999989
 30
0.0
  0
SEQEND
  5
AC6
  8
DATA
 62
     7
  0
POLYLINE
  5
40A
  8
DATA
 62
     7
 66
     1
 10
0.0
 20
0.0
 30
0.0
 70
     1
  0
VERTEX
  5
AC7
  8
DATA
 62
     7
 10
71.299999999999955
 20
476.49999999999989
 30
0.0
  0
VERTEX
  5
AC8
  8
DATA
 62
     7
 10
72.300000000000026
 20
476.49999999999989
 30
0.0
  0
VERTEX
  5
AC9
  8
DATA
 62
     7
 10
72.300000000000026
 20
475.49999999999989
 30
0.0
  0
VERTEX
  5
ACA
  8
DATA
 62
     7
 10
71.299999999999955
 20
475.49999999999989
 30
0.0
  0
SEQEND
  5
ACB
  8
DATA
 62
     7
  0
LINE
  5
410
  8
DATA
 62
     7
 10
44.300000000000011
 20
471.49999999999989
 30
0.0
 11
44.300000000000011
 21
478.5
 31
0.0
  0
ARC
  5
411
  8
DATA
 62
     7
 10
46.800000000000011
 20
475.375
 30
0.0
 40
3.625
 50
46.397181027296369
 51
133.6028189727036
  0
ARC
  5
412
  8
DATA
 62
     7
 10
51.800000000000011
 20
475.375
 30
0.0
 40
3.625
 50
46.397181027296369
 51
133.6028189727036
  0
ARC
  5
413
  8
DATA
 62
     7
 10
56.800000000000011
 20
475.375
 30
0.0
 40
3.625
 50
46.397181027296369
 51
133.6028189727036
  0
ARC
  5
414
  8
DATA
 62
     7
 10
61.800000000000011
 20
475.375
 30
0.0
 40
3.625
 50
46.397181027296369
 51
133.6028189727036
  0
ARC
  5
415
  8
DATA
 62
     7
 10
66.800000000000011
 20
475.375
 30
0.0
 40
3.625
 50
46.397181027296369
 51
133.6028189727036
  0
ARC
  5
416
  8
DATA
 62
     7
 10
71.800000000000026
 20
475.375
 30
0.0
 40
3.625
 50
46.397181027296369
 51
133.6028189727036
  0
LINE
  5
417
  8
DATA
 62
     7
 10
74.300000000000026
 20
478.5
 30
0.0
 11
74.300000000000026
 21
471.49999999999989
 31
0.0
  0
ARC
  5
418
  8
DATA
 62
     7
 10
46.800000000000011
 20
475.875
 30
0.0
 40
3.625
 50
46.397181027296369
 51
133.6028189727036
  0
ARC
  5
419
  8
DATA
 62
     7
 10
51.800000000000011
 20
475.875
 30
0.0
 40
3.625
 50
46.397181027296369
 51
133.6028189727036
  0
ARC
  5
41A
  8
DATA
 62
     7
 10
56.800000000000011
 20
475.875
 30
0.0
 40
3.625
 50
46.397181027296369
 51
133.6028189727036
  0
ARC
  5
41B
  8
DATA
 62
     7
 10
61.800000000000011
 20
475.875
 30
0.0
 40
3.625
 50
46.397181027296369
 51
133.6028189727036
  0
ARC
  5
41C
  8
DATA
 62
     7
 10
66.800000000000011
 20
475.875
 30
0.0
 40
3.625
 50
46.397181027296369
 51
133.6028189727036
  0
ARC
  5
41D
  8
DATA
 62
     7
 10
71.800000000000026
 20
475.875
 30
0.0
 40
3.625
 50
46.397181027296369
 51
133.6028189727036
  0
LINE
  5
41E
  8
DATA
 62
     7
 10
44.300000000000011
 20
471.49999999999989
 30
0.0
 11
74.300000000000026
 21
471.49999999999989
 31
0.0
  0
LINE
  5
41F
  8
DATA
 62
     7
 10
44.300000000000011
 20
490.0
 30
0.0
 11
74.300000000000026
 21
490.0
 31
0.0
  0
LINE
  5
420
  8
DATA
 62
     7
 10
44.300000000000011
 20
491.0
 30
0.0
 11
45.799999999999997
 21
491.0
 31
0.0
  0
LINE
  5
421
  8
DATA
 62
     7
 10
45.799999999999997
 20
491.0
 30
0.0
 11
45.300000000000011
 21
490.0
 31
0.0
  0
LINE
  5
422
  8
DATA
 62
     7
 10
48.300000000000011
 20
490.0
 30
0.0
 11
47.800000000000011
 21
491.0
 31
0.0
  0
LINE
  5
423
  8
DATA
 62
     7
 10
47.800000000000011
 20
491.0
 30
0.0
 11
50.800000000000011
 21
491.0
 31
0.0
  0
LINE
  5
424
  8
DATA
 62
     7
 10
50.800000000000011
 20
491.0
 30
0.0
 11
50.300000000000011
 21
490.0
 31
0.0
  0
LINE
  5
425
  8
DATA
 62
     7
 10
53.300000000000011
 20
490.0
 30
0.0
 11
52.800000000000011
 21
491.0
 31
0.0
  0
LINE
  5
426
  8
DATA
 62
     7
 10
52.800000000000011
 20
491.0
 30
0.0
 11
55.800000000000011
 21
491.0
 31
0.0
  0
LINE
  5
427
  8
DATA
 62
     7
 10
55.800000000000011
 20
491.0
 30
0.0
 11
55.300000000000011
 21
490.0
 31
0.0
  0
LINE
  5
428
  8
DATA
 62
     7
 10
58.300000000000011
 20
490.0
 30
0.0
 11
57.800000000000011
 21
491.0
 31
0.0
  0
LINE
  5
429
  8
DATA
 62
     7
 10
57.800000000000011
 20
491.0
 30
0.0
 11
60.800000000000011
 21
491.0
 31
0.0
  0
LINE
  5
42A
  8
DATA
 62
     7
 10
60.800000000000011
 20
491.0
 30
0.0
 11
60.300000000000011
 21
490.0
 31
0.0
  0
LINE
  5
42B
  8
DATA
 62
     7
 10
63.300000000000011
 20
490.0
 30
0.0
 11
62.800000000000011
 21
491.0
 31
0.0
  0
LINE
  5
42C
  8
DATA
 62
     7
 10
62.800000000000011
 20
491.0
 30
0.0
 11
65.800000000000011
 21
491.0
 31
0.0
  0
LINE
  5
42D
  8
DATA
 62
     7
 10
65.800000000000011
 20
491.0
 30
0.0
 11
65.300000000000011
 21
490.0
 31
0.0
  0
LINE
  5
42E
  8
DATA
 62
     7
 10
68.300000000000011
 20
490.0
 30
0.0
 11
67.800000000000011
 21
491.0
 31
0.0
  0
LINE
  5
42F
  8
DATA
 62
     7
 10
67.800000000000011
 20
491.0
 30
0.0
 11
70.800000000000026
 21
491.0
 31
0.0
  0
LINE
  5
430
  8
DATA
 62
     7
 10
70.800000000000026
 20
491.0
 30
0.0
 11
70.300000000000011
 21
490.0
 31
0.0
  0
LINE
  5
431
  8
DATA
 62
     7
 10
74.300000000000026
 20
491.0
 30
0.0
 11
72.800000000000026
 21
491.0
 31
0.0
  0
LINE
  5
432
  8
DATA
 62
     7
 10
72.800000000000026
 20
491.0
 30
0.0
 11
73.300000000000026
 21
490.0
 31
0.0
  0
POLYLINE
  5
433
  8
DATA
 62
     7
 66
     1
 10
0.0
 20
0.0
 30
0.0
 70
     1
  0
VERTEX
  5
ACC
  8
DATA
 62
     7
 10
46.299999999999962
 20
494.5
 30
0.0
  0
VERTEX
  5
ACD
  8
DATA
 62
     7
 10
47.300000000000011
 20
494.5
 30
0.0
  0
VERTEX
  5
ACE
  8
DATA
 62
     7
 10
47.300000000000011
 20
493.5
 30
0.0
  0
VERTEX
  5
ACF
  8
DATA
 62
     7
 10
46.299999999999962
 20
493.5
 30
0.0
  0
SEQEND
  5
AD0
  8
DATA
 62
     7
  0
POLYLINE
  5
439
  8
DATA
 62
     7
 66
     1
 10
0.0
 20
0.0
 30
0.0
 70
     1
  0
VERTEX
  5
AD1
  8
DATA
 62
     7
 10
51.299999999999962
 20
494.5
 30
0.0
  0
VERTEX
  5
AD2
  8
DATA
 62
     7
 10
52.300000000000011
 20
494.5
 30
0.0
  0
VERTEX
  5
AD3
  8
DATA
 62
     7
 10
52.300000000000011
 20
493.5
 30
0.0
  0
VERTEX
  5
AD4
  8
DATA
 62
     7
 10
51.299999999999962
 20
493.5
 30
0.0
  0
SEQEND
  5
AD5
  8
DATA
 62
     7
  0
POLYLINE
  5
43F
  8
DATA
 62
     7
 66
     1
 10
0.0
 20
0.0
 30
0.0
 70
     1
  0
VERTEX
  5
AD6
  8
DATA
 62
     7
 10
56.299999999999962
 20
494.5
 30
0.0
  0
VERTEX
  5
AD7
  8
DATA
 62
     7
 10
57.300000000000011
 20
494.5
 30
0.0
  0
VERTEX
  5
AD8
  8
DATA
 62
     7
 10
57.300000000000011
 20
493.5
 30
0.0
  0
VERTEX
  5
AD9
  8
DATA
 62
     7
 10
56.299999999999962
 20
493.5
 30
0.0
  0
SEQEND
  5
ADA
  8
DATA
 62
     7
  0
POLYLINE
  5
445
  8
DATA
 62
     7
 66
     1
 10
0.0
 20
0.0
 30
0.0
 70
     1
  0
VERTEX
  5
ADB
  8
DATA
 62
     7
 10
61.299999999999962
 20
494.5
 30
0.0
  0
VERTEX
  5
ADC
  8
DATA
 62
     7
 10
62.300000000000011
 20
494.5
 30
0.0
  0
VERTEX
  5
ADD
  8
DATA
 62
     7
 10
62.300000000000011
 20
493.5
 30
0.0
  0
VERTEX
  5
ADE
  8
DATA
 62
     7
 10
61.299999999999962
 20
493.5
 30
0.0
  0
SEQEND
  5
ADF
  8
DATA
 62
     7
  0
POLYLINE
  5
44B
  8
DATA
 62
     7
 66
     1
 10
0.0
 20
0.0
 30
0.0
 70
     1
  0
VERTEX
  5
AE0
  8
DATA
 62
     7
 10
66.299999999999969
 20
494.5
 30
0.0
  0
VERTEX
  5
AE1
  8
DATA
 62
     7
 10
67.300000000000011
 20
494.5
 30
0.0
  0
VERTEX
  5
AE2
  8
DATA
 62
     7
 10
67.300000000000011
 20
493.5
 30
0.0
  0
VERTEX
  5
AE3
  8
DATA
 62
     7
 10
66.299999999999969
 20
493.5
 30
0.0
  0
SEQEND
  5
AE4
  8
DATA
 62
     7
  0
POLYLINE
  5
451
  8
DATA
 62
     7
 66
     1
 10
0.0
 20
0.0
 30
0.0
 70
     1
  0
VERTEX
  5
AE5
  8
DATA
 62
     7
 10
71.299999999999955
 20
494.5
 30
0.0
  0
VERTEX
  5
AE6
  8
DATA
 62
     7
 10
72.300000000000026
 20
494.5
 30
0.0
  0
VERTEX
  5
AE7
  8
DATA
 62
     7
 10
72.300000000000026
 20
493.5
 30
0.0
  0
VERTEX
  5
AE8
  8
DATA
 62
     7
 10
71.299999999999955
 20
493.5
 30
0.0
  0
SEQEND
  5
AE9
  8
DATA
 62
     7
  0
LINE
  5
457
  8
DATA
 62
     7
 10
44.300000000000011
 20
489.5
 30
0.0
 11
44.300000000000011
 21
496.49999999999989
 31
0.0
  0
ARC
  5
458
  8
DATA
 62
     7
 10
46.800000000000011
 20
493.37499999999989
 30
0.0
 40
3.625
 50
46.397181027296369
 51
133.6028189727036
  0
ARC
  5
459
  8
DATA
 62
     7
 10
51.800000000000011
 20
493.37499999999989
 30
0.0
 40
3.625
 50
46.397181027296369
 51
133.6028189727036
  0
ARC
  5
45A
  8
DATA
 62
     7
 10
56.800000000000011
 20
493.37499999999989
 30
0.0
 40
3.625
 50
46.397181027296369
 51
133.6028189727036
  0
ARC
  5
45B
  8
DATA
 62
     7
 10
61.800000000000011
 20
493.37499999999989
 30
0.0
 40
3.625
 50
46.397181027296369
 51
133.6028189727036
  0
ARC
  5
45C
  8
DATA
 62
     7
 10
66.800000000000011
 20
493.37499999999989
 30
0.0
 40
3.625
 50
46.397181027296369
 51
133.6028189727036
  0
ARC
  5
45D
  8
DATA
 62
     7
 10
71.800000000000026
 20
493.37499999999989
 30
0.0
 40
3.625
 50
46.397181027296369
 51
133.6028189727036
  0
LINE
  5
45E
  8
DATA
 62
     7
 10
74.300000000000026
 20
496.49999999999989
 30
0.0
 11
74.300000000000026
 21
489.5
 31
0.0
  0
ARC
  5
45F
  8
DATA
 62
     7
 10
46.800000000000011
 20
493.87499999999989
 30
0.0
 40
3.625
 50
46.397181027296369
 51
133.6028189727036
  0
ARC
  5
460
  8
DATA
 62
     7
 10
51.800000000000011
 20
493.87499999999989
 30
0.0
 40
3.625
 50
46.397181027296369
 51
133.6028189727036
  0
ARC
  5
461
  8
DATA
 62
     7
 10
56.800000000000011
 20
493.87499999999989
 30
0.0
 40
3.625
 50
46.397181027296369
 51
133.6028189727036
  0
ARC
  5
462
  8
DATA
 62
     7
 10
61.800000000000011
 20
493.87499999999989
 30
0.0
 40
3.625
 50
46.397181027296369
 51
133.6028189727036
  0
ARC
  5
463
  8
DATA
 62
     7
 10
66.800000000000011
 20
493.87499999999989
 30
0.0
 40
3.625
 50
46.397181027296369
 51
133.6028189727036
  0
ARC
  5
464
  8
DATA
 62
     7
 10
71.800000000000026
 20
493.87499999999989
 30
0.0
 40
3.625
 50
46.397181027296369
 51
133.6028189727036
  0
LINE
  5
465
  8
DATA
 62
     7
 10
44.300000000000011
 20
489.5
 30
0.0
 11
74.300000000000026
 21
489.5
 31
0.0
  0
LINE
  5
466
  8
DATA
 62
     7
 10
85.300000000000026
 20
472.0
 30
0.0
 11
115.3
 21
472.0
 31
0.0
  0
LINE
  5
467
  8
DATA
 62
     7
 10
85.300000000000026
 20
473.0
 30
0.0
 11
86.800000000000026
 21
473.0
 31
0.0
  0
LINE
  5
468
  8
DATA
 62
     7
 10
86.800000000000026
 20
473.0
 30
0.0
 11
86.300000000000026
 21
472.0
 31
0.0
  0
LINE
  5
469
  8
DATA
 62
     7
 10
89.300000000000026
 20
472.0
 30
0.0
 11
88.800000000000026
 21
473.0
 31
0.0
  0
LINE
  5
46A
  8
DATA
 62
     7
 10
88.800000000000026
 20
473.0
 30
0.0
 11
91.799999999999983
 21
473.0
 31
0.0
  0
LINE
  5
46B
  8
DATA
 62
     7
 10
91.799999999999983
 20
473.0
 30
0.0
 11
91.299999999999997
 21
472.0
 31
0.0
  0
LINE
  5
46C
  8
DATA
 62
     7
 10
94.299999999999983
 20
472.0
 30
0.0
 11
93.799999999999997
 21
473.0
 31
0.0
  0
LINE
  5
46D
  8
DATA
 62
     7
 10
93.799999999999997
 20
473.0
 30
0.0
 11
96.799999999999983
 21
473.0
 31
0.0
  0
LINE
  5
46E
  8
DATA
 62
     7
 10
96.799999999999983
 20
473.0
 30
0.0
 11
96.299999999999997
 21
472.0
 31
0.0
  0
LINE
  5
46F
  8
DATA
 62
     7
 10
99.299999999999983
 20
472.0
 30
0.0
 11
98.799999999999997
 21
473.0
 31
0.0
  0
LINE
  5
470
  8
DATA
 62
     7
 10
98.799999999999997
 20
473.0
 30
0.0
 11
101.8
 21
473.0
 31
0.0
  0
LINE
  5
471
  8
DATA
 62
     7
 10
101.8
 20
473.0
 30
0.0
 11
101.3
 21
472.0
 31
0.0
  0
LINE
  5
472
  8
DATA
 62
     7
 10
104.3
 20
472.0
 30
0.0
 11
103.8
 21
473.0
 31
0.0
  0
LINE
  5
473
  8
DATA
 62
     7
 10
103.8
 20
473.0
 30
0.0
 11
106.8
 21
473.0
 31
0.0
  0
LINE
  5
474
  8
DATA
 62
     7
 10
106.8
 20
473.0
 30
0.0
 11
106.3
 21
472.0
 31
0.0
  0
LINE
  5
475
  8
DATA
 62
     7
 10
109.3
 20
472.0
 30
0.0
 11
108.8
 21
473.0
 31
0.0
  0
LINE
  5
476
  8
DATA
 62
     7
 10
108.8
 20
473.0
 30
0.0
 11
111.8
 21
473.0
 31
0.0
  0
LINE
  5
477
  8
DATA
 62
     7
 10
111.8
 20
473.0
 30
0.0
 11
111.3
 21
472.0
 31
0.0
  0
LINE
  5
478
  8
DATA
 62
     7
 10
115.3
 20
473.0
 30
0.0
 11
113.8
 21
473.0
 31
0.0
  0
LINE
  5
479
  8
DATA
 62
     7
 10
113.8
 20
473.0
 30
0.0
 11
114.3
 21
472.0
 31
0.0
  0
POLYLINE
  5
47A
  8
DATA
 62
     7
 66
     1
 10
0.0
 20
0.0
 30
0.0
 70
     1
  0
VERTEX
  5
AEA
  8
DATA
 62
     7
 10
87.299999999999955
 20
476.49999999999989
 30
0.0
  0
VERTEX
  5
AEB
  8
DATA
 62
     7
 10
88.300000000000026
 20
476.49999999999989
 30
0.0
  0
VERTEX
  5
AEC
  8
DATA
 62
     7
 10
88.300000000000026
 20
475.49999999999989
 30
0.0
  0
VERTEX
  5
AED
  8
DATA
 62
     7
 10
87.299999999999955
 20
475.49999999999989
 30
0.0
  0
SEQEND
  5
AEE
  8
DATA
 62
     7
  0
POLYLINE
  5
480
  8
DATA
 62
     7
 66
     1
 10
0.0
 20
0.0
 30
0.0
 70
     1
  0
VERTEX
  5
AEF
  8
DATA
 62
     7
 10
92.299999999999955
 20
476.49999999999989
 30
0.0
  0
VERTEX
  5
AF0
  8
DATA
 62
     7
 10
93.299999999999997
 20
476.49999999999989
 30
0.0
  0
VERTEX
  5
AF1
  8
DATA
 62
     7
 10
93.299999999999997
 20
475.49999999999989
 30
0.0
  0
VERTEX
  5
AF2
  8
DATA
 62
     7
 10
92.299999999999955
 20
475.49999999999989
 30
0.0
  0
SEQEND
  5
AF3
  8
DATA
 62
     7
  0
POLYLINE
  5
486
  8
DATA
 62
     7
 66
     1
 10
0.0
 20
0.0
 30
0.0
 70
     1
  0
VERTEX
  5
AF4
  8
DATA
 62
     7
 10
97.299999999999955
 20
476.49999999999989
 30
0.0
  0
VERTEX
  5
AF5
  8
DATA
 62
     7
 10
98.299999999999997
 20
476.49999999999989
 30
0.0
  0
VERTEX
  5
AF6
  8
DATA
 62
     7
 10
98.299999999999997
 20
475.49999999999989
 30
0.0
  0
VERTEX
  5
AF7
  8
DATA
 62
     7
 10
97.299999999999955
 20
475.49999999999989
 30
0.0
  0
SEQEND
  5
AF8
  8
DATA
 62
     7
  0
POLYLINE
  5
48C
  8
DATA
 62
     7
 66
     1
 10
0.0
 20
0.0
 30
0.0
 70
     1
  0
VERTEX
  5
AF9
  8
DATA
 62
     7
 10
102.2999999999999
 20
476.49999999999989
 30
0.0
  0
VERTEX
  5
AFA
  8
DATA
 62
     7
 10
103.3
 20
476.49999999999989
 30
0.0
  0
VERTEX
  5
AFB
  8
DATA
 62
     7
 10
103.3
 20
475.49999999999989
 30
0.0
  0
VERTEX
  5
AFC
  8
DATA
 62
     7
 10
102.2999999999999
 20
475.49999999999989
 30
0.0
  0
SEQEND
  5
AFD
  8
DATA
 62
     7
  0
POLYLINE
  5
492
  8
DATA
 62
     7
 66
     1
 10
0.0
 20
0.0
 30
0.0
 70
     1
  0
VERTEX
  5
AFE
  8
DATA
 62
     7
 10
107.2999999999999
 20
476.49999999999989
 30
0.0
  0
VERTEX
  5
AFF
  8
DATA
 62
     7
 10
108.3
 20
476.49999999999989
 30
0.0
  0
VERTEX
  5
B00
  8
DATA
 62
     7
 10
108.3
 20
475.49999999999989
 30
0.0
  0
VERTEX
  5
B01
  8
DATA
 62
     7
 10
107.2999999999999
 20
475.49999999999989
 30
0.0
  0
SEQEND
  5
B02
  8
DATA
 62
     7
  0
POLYLINE
  5
498
  8
DATA
 62
     7
 66
     1
 10
0.0
 20
0.0
 30
0.0
 70
     1
  0
VERTEX
  5
B03
  8
DATA
 62
     7
 10
112.2999999999999
 20
476.49999999999989
 30
0.0
  0
VERTEX
  5
B04
  8
DATA
 62
     7
 10
113.3
 20
476.49999999999989
 30
0.0
  0
VERTEX
  5
B05
  8
DATA
 62
     7
 10
113.3
 20
475.49999999999989
 30
0.0
  0
VERTEX
  5
B06
  8
DATA
 62
     7
 10
112.2999999999999
 20
475.49999999999989
 30
0.0
  0
SEQEND
  5
B07
  8
DATA
 62
     7
  0
LINE
  5
49E
  8
DATA
 62
     7
 10
85.300000000000026
 20
471.49999999999989
 30
0.0
 11
85.300000000000026
 21
478.5
 31
0.0
  0
ARC
  5
49F
  8
DATA
 62
     7
 10
87.800000000000026
 20
475.375
 30
0.0
 40
3.625
 50
46.397181027296369
 51
133.6028189727036
  0
ARC
  5
4A0
  8
DATA
 62
     7
 10
92.799999999999983
 20
475.375
 30
0.0
 40
3.625
 50
46.397181027296369
 51
133.6028189727036
  0
ARC
  5
4A1
  8
DATA
 62
     7
 10
97.800000000000011
 20
475.375
 30
0.0
 40
3.625
 50
46.397181027296369
 51
133.6028189727036
  0
ARC
  5
4A2
  8
DATA
 62
     7
 10
102.8
 20
475.375
 30
0.0
 40
3.625
 50
46.397181027296369
 51
133.6028189727036
  0
ARC
  5
4A3
  8
DATA
 62
     7
 10
107.8
 20
475.375
 30
0.0
 40
3.625
 50
46.397181027296369
 51
133.6028189727036
  0
ARC
  5
4A4
  8
DATA
 62
     7
 10
112.8
 20
475.375
 30
0.0
 40
3.625
 50
46.397181027296369
 51
133.6028189727036
  0
LINE
  5
4A5
  8
DATA
 62
     7
 10
115.3
 20
478.5
 30
0.0
 11
115.3
 21
471.49999999999989
 31
0.0
  0
ARC
  5
4A6
  8
DATA
 62
     7
 10
87.800000000000026
 20
475.875
 30
0.0
 40
3.625
 50
46.397181027296369
 51
133.6028189727036
  0
ARC
  5
4A7
  8
DATA
 62
     7
 10
92.799999999999983
 20
475.875
 30
0.0
 40
3.625
 50
46.397181027296369
 51
133.6028189727036
  0
ARC
  5
4A8
  8
DATA
 62
     7
 10
97.800000000000011
 20
475.875
 30
0.0
 40
3.625
 50
46.397181027296369
 51
133.6028189727036
  0
ARC
  5
4A9
  8
DATA
 62
     7
 10
102.8
 20
475.875
 30
0.0
 40
3.625
 50
46.397181027296369
 51
133.6028189727036
  0
ARC
  5
4AA
  8
DATA
 62
     7
 10
107.8
 20
475.875
 30
0.0
 40
3.625
 50
46.397181027296369
 51
133.6028189727036
  0
ARC
  5
4AB
  8
DATA
 62
     7
 10
112.8
 20
475.875
 30
0.0
 40
3.625
 50
46.397181027296369
 51
133.6028189727036
  0
LINE
  5
4AC
  8
DATA
 62
     7
 10
85.300000000000026
 20
471.49999999999989
 30
0.0
 11
115.3
 21
471.49999999999989
 31
0.0
  0
LINE
  5
4AD
  8
DATA
 62
     7
 10
85.300000000000026
 20
490.0
 30
0.0
 11
115.3
 21
490.0
 31
0.0
  0
LINE
  5
4AE
  8
DATA
 62
     7
 10
85.300000000000026
 20
491.0
 30
0.0
 11
86.800000000000026
 21
491.0
 31
0.0
  0
LINE
  5
4AF
  8
DATA
 62
     7
 10
86.800000000000026
 20
491.0
 30
0.0
 11
86.300000000000026
 21
490.0
 31
0.0
  0
LINE
  5
4B0
  8
DATA
 62
     7
 10
89.300000000000026
 20
490.0
 30
0.0
 11
88.800000000000026
 21
491.0
 31
0.0
  0
LINE
  5
4B1
  8
DATA
 62
     7
 10
88.800000000000026
 20
491.0
 30
0.0
 11
91.799999999999983
 21
491.0
 31
0.0
  0
LINE
  5
4B2
  8
DATA
 62
     7
 10
91.799999999999983
 20
491.0
 30
0.0
 11
91.299999999999997
 21
490.0
 31
0.0
  0
LINE
  5
4B3
  8
DATA
 62
     7
 10
94.299999999999983
 20
490.0
 30
0.0
 11
93.799999999999997
 21
491.0
 31
0.0
  0
LINE
  5
4B4
  8
DATA
 62
     7
 10
93.799999999999997
 20
491.0
 30
0.0
 11
96.799999999999983
 21
491.0
 31
0.0
  0
LINE
  5
4B5
  8
DATA
 62
     7
 10
96.799999999999983
 20
491.0
 30
0.0
 11
96.299999999999997
 21
490.0
 31
0.0
  0
LINE
  5
4B6
  8
DATA
 62
     7
 10
99.299999999999983
 20
490.0
 30
0.0
 11
98.799999999999997
 21
491.0
 31
0.0
  0
LINE
  5
4B7
  8
DATA
 62
     7
 10
98.799999999999997
 20
491.0
 30
0.0
 11
101.8
 21
491.0
 31
0.0
  0
LINE
  5
4B8
  8
DATA
 62
     7
 10
101.8
 20
491.0
 30
0.0
 11
101.3
 21
490.0
 31
0.0
  0
LINE
  5
4B9
  8
DATA
 62
     7
 10
104.3
 20
490.0
 30
0.0
 11
103.8
 21
491.0
 31
0.0
  0
LINE
  5
4BA
  8
DATA
 62
     7
 10
103.8
 20
491.0
 30
0.0
 11
106.8
 21
491.0
 31
0.0
  0
LINE
  5
4BB
  8
DATA
 62
     7
 10
106.8
 20
491.0
 30
0.0
 11
106.3
 21
490.0
 31
0.0
  0
LINE
  5
4BC
  8
DATA
 62
     7
 10
109.3
 20
490.0
 30
0.0
 11
108.8
 21
491.0
 31
0.0
  0
LINE
  5
4BD
  8
DATA
 62
     7
 10
108.8
 20
491.0
 30
0.0
 11
111.8
 21
491.0
 31
0.0
  0
LINE
  5
4BE
  8
DATA
 62
     7
 10
111.8
 20
491.0
 30
0.0
 11
111.3
 21
490.0
 31
0.0
  0
LINE
  5
4BF
  8
DATA
 62
     7
 10
115.3
 20
491.0
 30
0.0
 11
113.8
 21
491.0
 31
0.0
  0
LINE
  5
4C0
  8
DATA
 62
     7
 10
113.8
 20
491.0
 30
0.0
 11
114.3
 21
490.0
 31
0.0
  0
POLYLINE
  5
4C1
  8
DATA
 62
     7
 66
     1
 10
0.0
 20
0.0
 30
0.0
 70
     1
  0
VERTEX
  5
B08
  8
DATA
 62
     7
 10
87.299999999999955
 20
494.5
 30
0.0
  0
VERTEX
  5
B09
  8
DATA
 62
     7
 10
88.300000000000026
 20
494.5
 30
0.0
  0
VERTEX
  5
B0A
  8
DATA
 62
     7
 10
88.300000000000026
 20
493.5
 30
0.0
  0
VERTEX
  5
B0B
  8
DATA
 62
     7
 10
87.299999999999955
 20
493.5
 30
0.0
  0
SEQEND
  5
B0C
  8
DATA
 62
     7
  0
POLYLINE
  5
4C7
  8
DATA
 62
     7
 66
     1
 10
0.0
 20
0.0
 30
0.0
 70
     1
  0
VERTEX
  5
B0D
  8
DATA
 62
     7
 10
92.299999999999955
 20
494.5
 30
0.0
  0
VERTEX
  5
B0E
  8
DATA
 62
     7
 10
93.299999999999997
 20
494.5
 30
0.0
  0
VERTEX
  5
B0F
  8
DATA
 62
     7
 10
93.299999999999997
 20
493.5
 30
0.0
  0
VERTEX
  5
B10
  8
DATA
 62
     7
 10
92.299999999999955
 20
493.5
 30
0.0
  0
SEQEND
  5
B11
  8
DATA
 62
     7
  0
POLYLINE
  5
4CD
  8
DATA
 62
     7
 66
     1
 10
0.0
 20
0.0
 30
0.0
 70
     1
  0
VERTEX
  5
B12
  8
DATA
 62
     7
 10
97.299999999999955
 20
494.5
 30
0.0
  0
VERTEX
  5
B13
  8
DATA
 62
     7
 10
98.299999999999997
 20
494.5
 30
0.0
  0
VERTEX
  5
B14
  8
DATA
 62
     7
 10
98.299999999999997
 20
493.5
 30
0.0
  0
VERTEX
  5
B15
  8
DATA
 62
     7
 10
97.299999999999955
 20
493.5
 30
0.0
  0
SEQEND
  5
B16
  8
DATA
 62
     7
  0
POLYLINE
  5
4D3
  8
DATA
 62
     7
 66
     1
 10
0.0
 20
0.0
 30
0.0
 70
     1
  0
VERTEX
  5
B17
  8
DATA
 62
     7
 10
102.2999999999999
 20
494.5
 30
0.0
  0
VERTEX
  5
B18
  8
DATA
 62
     7
 10
103.3
 20
494.5
 30
0.0
  0
VERTEX
  5
B19
  8
DATA
 62
     7
 10
103.3
 20
493.5
 30
0.0
  0
VERTEX
  5
B1A
  8
DATA
 62
     7
 10
102.2999999999999
 20
493.5
 30
0.0
  0
SEQEND
  5
B1B
  8
DATA
 62
     7
  0
POLYLINE
  5
4D9
  8
DATA
 62
     7
 66
     1
 10
0.0
 20
0.0
 30
0.0
 70
     1
  0
VERTEX
  5
B1C
  8
DATA
 62
     7
 10
107.2999999999999
 20
494.5
 30
0.0
  0
VERTEX
  5
B1D
  8
DATA
 62
     7
 10
108.3
 20
494.5
 30
0.0
  0
VERTEX
  5
B1E
  8
DATA
 62
     7
 10
108.3
 20
493.5
 30
0.0
  0
VERTEX
  5
B1F
  8
DATA
 62
     7
 10
107.2999999999999
 20
493.5
 30
0.0
  0
SEQEND
  5
B20
  8
DATA
 62
     7
  0
POLYLINE
  5
4DF
  8
DATA
 62
     7
 66
     1
 10
0.0
 20
0.0
 30
0.0
 70
     1
  0
VERTEX
  5
B21
  8
DATA
 62
     7
 10
112.2999999999999
 20
494.5
 30
0.0
  0
VERTEX
  5
B22
  8
DATA
 62
     7
 10
113.3
 20
494.5
 30
0.0
  0
VERTEX
  5
B23
  8
DATA
 62
     7
 10
113.3
 20
493.5
 30
0.0
  0
VERTEX
  5
B24
  8
DATA
 62
     7
 10
112.2999999999999
 20
493.5
 30
0.0
  0
SEQEND
  5
B25
  8
DATA
 62
     7
  0
LINE
  5
4E5
  8
DATA
 62
     7
 10
85.300000000000026
 20
489.5
 30
0.0
 11
85.300000000000026
 21
496.49999999999989
 31
0.0
  0
ARC
  5
4E6
  8
DATA
 62
     7
 10
87.800000000000026
 20
493.37499999999989
 30
0.0
 40
3.625
 50
46.397181027296369
 51
133.6028189727036
  0
ARC
  5
4E7
  8
DATA
 62
     7
 10
92.799999999999983
 20
493.37499999999989
 30
0.0
 40
3.625
 50
46.397181027296369
 51
133.6028189727036
  0
ARC
  5
4E8
  8
DATA
 62
     7
 10
97.800000000000011
 20
493.37499999999989
 30
0.0
 40
3.625
 50
46.397181027296369
 51
133.6028189727036
  0
ARC
  5
4E9
  8
DATA
 62
     7
 10
102.8
 20
493.37499999999989
 30
0.0
 40
3.625
 50
46.397181027296369
 51
133.6028189727036
  0
ARC
  5
4EA
  8
DATA
 62
     7
 10
107.8
 20
493.37499999999989
 30
0.0
 40
3.625
 50
46.397181027296369
 51
133.6028189727036
  0
ARC
  5
4EB
  8
DATA
 62
     7
 10
112.8
 20
493.37499999999989
 30
0.0
 40
3.625
 50
46.397181027296369
 51
133.6028189727036
  0
LINE
  5
4EC
  8
DATA
 62
     7
 10
115.3
 20
496.49999999999989
 30
0.0
 11
115.3
 21
489.5
 31
0.0
  0
ARC
  5
4ED
  8
DATA
 62
     7
 10
87.800000000000026
 20
493.87499999999989
 30
0.0
 40
3.625
 50
46.397181027296369
 51
133.6028189727036
  0
ARC
  5
4EE
  8
DATA
 62
     7
 10
92.799999999999983
 20
493.87499999999989
 30
0.0
 40
3.625
 50
46.397181027296369
 51
133.6028189727036
  0
ARC
  5
4EF
  8
DATA
 62
     7
 10
97.800000000000011
 20
493.87499999999989
 30
0.0
 40
3.625
 50
46.397181027296369
 51
133.6028189727036
  0
ARC
  5
4F0
  8
DATA
 62
     7
 10
102.8
 20
493.87499999999989
 30
0.0
 40
3.625
 50
46.397181027296369
 51
133.6028189727036
  0
ARC
  5
4F1
  8
DATA
 62
     7
 10
107.8
 20
493.87499999999989
 30
0.0
 40
3.625
 50
46.397181027296369
 51
133.6028189727036
  0
ARC
  5
4F2
  8
DATA
 62
     7
 10
112.8
 20
493.87499999999989
 30
0.0
 40
3.625
 50
46.397181027296369
 51
133.6028189727036
  0
LINE
  5
4F3
  8
DATA
 62
     7
 10
85.300000000000026
 20
489.5
 30
0.0
 11
115.3
 21
489.5
 31
0.0
  0
LINE
  5
4F4
  8
DATA
 62
     7
 10
133.30000000000001
 20
472.0
 30
0.0
 11
163.30000000000001
 21
472.0
 31
0.0
  0
LINE
  5
4F5
  8
DATA
 62
     7
 10
133.30000000000001
 20
473.0
 30
0.0
 11
134.80000000000001
 21
473.0
 31
0.0
  0
LINE
  5
4F6
  8
DATA
 62
     7
 10
134.80000000000001
 20
473.0
 30
0.0
 11
134.30000000000001
 21
472.0
 31
0.0
  0
LINE
  5
4F7
  8
DATA
 62
     7
 10
137.30000000000001
 20
472.0
 30
0.0
 11
136.80000000000001
 21
473.0
 31
0.0
  0
LINE
  5
4F8
  8
DATA
 62
     7
 10
136.80000000000001
 20
473.0
 30
0.0
 11
139.80000000000001
 21
473.0
 31
0.0
  0
LINE
  5
4F9
  8
DATA
 62
     7
 10
139.80000000000001
 20
473.0
 30
0.0
 11
139.30000000000001
 21
472.0
 31
0.0
  0
LINE
  5
4FA
  8
DATA
 62
     7
 10
142.30000000000001
 20
472.0
 30
0.0
 11
141.80000000000001
 21
473.0
 31
0.0
  0
LINE
  5
4FB
  8
DATA
 62
     7
 10
141.80000000000001
 20
473.0
 30
0.0
 11
144.80000000000001
 21
473.0
 31
0.0
  0
LINE
  5
4FC
  8
DATA
 62
     7
 10
144.80000000000001
 20
473.0
 30
0.0
 11
144.30000000000001
 21
472.0
 31
0.0
  0
LINE
  5
4FD
  8
DATA
 62
     7
 10
147.30000000000001
 20
472.0
 30
0.0
 11
146.80000000000001
 21
473.0
 31
0.0
  0
LINE
  5
4FE
  8
DATA
 62
     7
 10
146.80000000000001
 20
473.0
 30
0.0
 11
149.80000000000001
 21
473.0
 31
0.0
  0
LINE
  5
4FF
  8
DATA
 62
     7
 10
149.80000000000001
 20
473.0
 30
0.0
 11
149.30000000000001
 21
472.0
 31
0.0
  0
LINE
  5
500
  8
DATA
 62
     7
 10
152.30000000000001
 20
472.0
 30
0.0
 11
151.80000000000001
 21
473.0
 31
0.0
  0
LINE
  5
501
  8
DATA
 62
     7
 10
151.80000000000001
 20
473.0
 30
0.0
 11
154.80000000000001
 21
473.0
 31
0.0
  0
LINE
  5
502
  8
DATA
 62
     7
 10
154.80000000000001
 20
473.0
 30
0.0
 11
154.30000000000001
 21
472.0
 31
0.0
  0
LINE
  5
503
  8
DATA
 62
     7
 10
157.30000000000001
 20
472.0
 30
0.0
 11
156.80000000000001
 21
473.0
 31
0.0
  0
LINE
  5
504
  8
DATA
 62
     7
 10
156.80000000000001
 20
473.0
 30
0.0
 11
159.80000000000001
 21
473.0
 31
0.0
  0
LINE
  5
505
  8
DATA
 62
     7
 10
159.80000000000001
 20
473.0
 30
0.0
 11
159.30000000000001
 21
472.0
 31
0.0
  0
LINE
  5
506
  8
DATA
 62
     7
 10
163.30000000000001
 20
473.0
 30
0.0
 11
161.80000000000001
 21
473.0
 31
0.0
  0
LINE
  5
507
  8
DATA
 62
     7
 10
161.80000000000001
 20
473.0
 30
0.0
 11
162.30000000000001
 21
472.0
 31
0.0
  0
POLYLINE
  5
508
  8
DATA
 62
     7
 66
     1
 10
0.0
 20
0.0
 30
0.0
 70
     1
  0
VERTEX
  5
B26
  8
DATA
 62
     7
 10
135.2999999999999
 20
476.49999999999989
 30
0.0
  0
VERTEX
  5
B27
  8
DATA
 62
     7
 10
136.30000000000001
 20
476.49999999999989
 30
0.0
  0
VERTEX
  5
B28
  8
DATA
 62
     7
 10
136.30000000000001
 20
475.49999999999989
 30
0.0
  0
VERTEX
  5
B29
  8
DATA
 62
     7
 10
135.2999999999999
 20
475.49999999999989
 30
0.0
  0
SEQEND
  5
B2A
  8
DATA
 62
     7
  0
POLYLINE
  5
50E
  8
DATA
 62
     7
 66
     1
 10
0.0
 20
0.0
 30
0.0
 70
     1
  0
VERTEX
  5
B2B
  8
DATA
 62
     7
 10
140.2999999999999
 20
476.49999999999989
 30
0.0
  0
VERTEX
  5
B2C
  8
DATA
 62
     7
 10
141.30000000000001
 20
476.49999999999989
 30
0.0
  0
VERTEX
  5
B2D
  8
DATA
 62
     7
 10
141.30000000000001
 20
475.49999999999989
 30
0.0
  0
VERTEX
  5
B2E
  8
DATA
 62
     7
 10
140.2999999999999
 20
475.49999999999989
 30
0.0
  0
SEQEND
  5
B2F
  8
DATA
 62
     7
  0
POLYLINE
  5
514
  8
DATA
 62
     7
 66
     1
 10
0.0
 20
0.0
 30
0.0
 70
     1
  0
VERTEX
  5
B30
  8
DATA
 62
     7
 10
145.2999999999999
 20
476.49999999999989
 30
0.0
  0
VERTEX
  5
B31
  8
DATA
 62
     7
 10
146.30000000000001
 20
476.49999999999989
 30
0.0
  0
VERTEX
  5
B32
  8
DATA
 62
     7
 10
146.30000000000001
 20
475.49999999999989
 30
0.0
  0
VERTEX
  5
B33
  8
DATA
 62
     7
 10
145.2999999999999
 20
475.49999999999989
 30
0.0
  0
SEQEND
  5
B34
  8
DATA
 62
     7
  0
POLYLINE
  5
51A
  8
DATA
 62
     7
 66
     1
 10
0.0
 20
0.0
 30
0.0
 70
     1
  0
VERTEX
  5
B35
  8
DATA
 62
     7
 10
150.2999999999999
 20
476.49999999999989
 30
0.0
  0
VERTEX
  5
B36
  8
DATA
 62
     7
 10
151.30000000000001
 20
476.49999999999989
 30
0.0
  0
VERTEX
  5
B37
  8
DATA
 62
     7
 10
151.30000000000001
 20
475.49999999999989
 30
0.0
  0
VERTEX
  5
B38
  8
DATA
 62
     7
 10
150.2999999999999
 20
475.49999999999989
 30
0.0
  0
SEQEND
  5
B39
  8
DATA
 62
     7
  0
POLYLINE
  5
520
  8
DATA
 62
     7
 66
     1
 10
0.0
 20
0.0
 30
0.0
 70
     1
  0
VERTEX
  5
B3A
  8
DATA
 62
     7
 10
155.2999999999999
 20
476.49999999999989
 30
0.0
  0
VERTEX
  5
B3B
  8
DATA
 62
     7
 10
156.30000000000001
 20
476.49999999999989
 30
0.0
  0
VERTEX
  5
B3C
  8
DATA
 62
     7
 10
156.30000000000001
 20
475.49999999999989
 30
0.0
  0
VERTEX
  5
B3D
  8
DATA
 62
     7
 10
155.2999999999999
 20
475.49999999999989
 30
0.0
  0
SEQEND
  5
B3E
  8
DATA
 62
     7
  0
POLYLINE
  5
526
  8
DATA
 62
     7
 66
     1
 10
0.0
 20
0.0
 30
0.0
 70
     1
  0
VERTEX
  5
B3F
  8
DATA
 62
     7
 10
160.2999999999999
 20
476.49999999999989
 30
0.0
  0
VERTEX
  5
B40
  8
DATA
 62
     7
 10
161.30000000000001
 20
476.49999999999989
 30
0.0
  0
VERTEX
  5
B41
  8
DATA
 62
     7
 10
161.30000000000001
 20
475.49999999999989
 30
0.0
  0
VERTEX
  5
B42
  8
DATA
 62
     7
 10
160.2999999999999
 20
475.49999999999989
 30
0.0
  0
SEQEND
  5
B43
  8
DATA
 62
     7
  0
LINE
  5
52C
  8
DATA
 62
     7
 10
133.30000000000001
 20
471.49999999999989
 30
0.0
 11
133.30000000000001
 21
478.5
 31
0.0
  0
ARC
  5
52D
  8
DATA
 62
     7
 10
135.80000000000001
 20
475.375
 30
0.0
 40
3.625
 50
46.397181027296369
 51
133.6028189727036
  0
ARC
  5
52E
  8
DATA
 62
     7
 10
140.80000000000001
 20
475.375
 30
0.0
 40
3.625
 50
46.397181027296369
 51
133.6028189727036
  0
ARC
  5
52F
  8
DATA
 62
     7
 10
145.80000000000001
 20
475.375
 30
0.0
 40
3.625
 50
46.397181027296369
 51
133.6028189727036
  0
ARC
  5
530
  8
DATA
 62
     7
 10
150.80000000000001
 20
475.375
 30
0.0
 40
3.625
 50
46.397181027296369
 51
133.6028189727036
  0
ARC
  5
531
  8
DATA
 62
     7
 10
155.80000000000001
 20
475.375
 30
0.0
 40
3.625
 50
46.397181027296369
 51
133.6028189727036
  0
ARC
  5
532
  8
DATA
 62
     7
 10
160.80000000000001
 20
475.375
 30
0.0
 40
3.625
 50
46.397181027296369
 51
133.6028189727036
  0
LINE
  5
533
  8
DATA
 62
     7
 10
163.30000000000001
 20
478.5
 30
0.0
 11
163.30000000000001
 21
471.49999999999989
 31
0.0
  0
ARC
  5
534
  8
DATA
 62
     7
 10
135.80000000000001
 20
475.875
 30
0.0
 40
3.625
 50
46.397181027296369
 51
133.6028189727036
  0
ARC
  5
535
  8
DATA
 62
     7
 10
140.80000000000001
 20
475.875
 30
0.0
 40
3.625
 50
46.397181027296369
 51
133.6028189727036
  0
ARC
  5
536
  8
DATA
 62
     7
 10
145.80000000000001
 20
475.875
 30
0.0
 40
3.625
 50
46.397181027296369
 51
133.6028189727036
  0
ARC
  5
537
  8
DATA
 62
     7
 10
150.80000000000001
 20
475.875
 30
0.0
 40
3.625
 50
46.397181027296369
 51
133.6028189727036
  0
ARC
  5
538
  8
DATA
 62
     7
 10
155.80000000000001
 20
475.875
 30
0.0
 40
3.625
 50
46.397181027296369
 51
133.6028189727036
  0
ARC
  5
539
  8
DATA
 62
     7
 10
160.80000000000001
 20
475.875
 30
0.0
 40
3.625
 50
46.397181027296369
 51
133.6028189727036
  0
LINE
  5
53A
  8
DATA
 62
     7
 10
133.30000000000001
 20
471.49999999999989
 30
0.0
 11
163.30000000000001
 21
471.49999999999989
 31
0.0
  0
LINE
  5
53B
  8
DATA
 62
     7
 10
133.30000000000001
 20
490.0
 30
0.0
 11
163.30000000000001
 21
490.0
 31
0.0
  0
LINE
  5
53C
  8
DATA
 62
     7
 10
133.30000000000001
 20
491.0
 30
0.0
 11
134.80000000000001
 21
491.0
 31
0.0
  0
LINE
  5
53D
  8
DATA
 62
     7
 10
134.80000000000001
 20
491.0
 30
0.0
 11
134.30000000000001
 21
490.0
 31
0.0
  0
LINE
  5
53E
  8
DATA
 62
     7
 10
137.30000000000001
 20
490.0
 30
0.0
 11
136.80000000000001
 21
491.0
 31
0.0
  0
LINE
  5
53F
  8
DATA
 62
     7
 10
136.80000000000001
 20
491.0
 30
0.0
 11
139.80000000000001
 21
491.0
 31
0.0
  0
LINE
  5
540
  8
DATA
 62
     7
 10
139.80000000000001
 20
491.0
 30
0.0
 11
139.30000000000001
 21
490.0
 31
0.0
  0
LINE
  5
541
  8
DATA
 62
     7
 10
142.30000000000001
 20
490.0
 30
0.0
 11
141.80000000000001
 21
491.0
 31
0.0
  0
LINE
  5
542
  8
DATA
 62
     7
 10
141.80000000000001
 20
491.0
 30
0.0
 11
144.80000000000001
 21
491.0
 31
0.0
  0
LINE
  5
543
  8
DATA
 62
     7
 10
144.80000000000001
 20
491.0
 30
0.0
 11
144.30000000000001
 21
490.0
 31
0.0
  0
LINE
  5
544
  8
DATA
 62
     7
 10
147.30000000000001
 20
490.0
 30
0.0
 11
146.80000000000001
 21
491.0
 31
0.0
  0
LINE
  5
545
  8
DATA
 62
     7
 10
146.80000000000001
 20
491.0
 30
0.0
 11
149.80000000000001
 21
491.0
 31
0.0
  0
LINE
  5
546
  8
DATA
 62
     7
 10
149.80000000000001
 20
491.0
 30
0.0
 11
149.30000000000001
 21
490.0
 31
0.0
  0
LINE
  5
547
  8
DATA
 62
     7
 10
152.30000000000001
 20
490.0
 30
0.0
 11
151.80000000000001
 21
491.0
 31
0.0
  0
LINE
  5
548
  8
DATA
 62
     7
 10
151.80000000000001
 20
491.0
 30
0.0
 11
154.80000000000001
 21
491.0
 31
0.0
  0
LINE
  5
549
  8
DATA
 62
     7
 10
154.80000000000001
 20
491.0
 30
0.0
 11
154.30000000000001
 21
490.0
 31
0.0
  0
LINE
  5
54A
  8
DATA
 62
     7
 10
157.30000000000001
 20
490.0
 30
0.0
 11
156.80000000000001
 21
491.0
 31
0.0
  0
LINE
  5
54B
  8
DATA
 62
     7
 10
156.80000000000001
 20
491.0
 30
0.0
 11
159.80000000000001
 21
491.0
 31
0.0
  0
LINE
  5
54C
  8
DATA
 62
     7
 10
159.80000000000001
 20
491.0
 30
0.0
 11
159.30000000000001
 21
490.0
 31
0.0
  0
LINE
  5
54D
  8
DATA
 62
     7
 10
163.30000000000001
 20
491.0
 30
0.0
 11
161.80000000000001
 21
491.0
 31
0.0
  0
LINE
  5
54E
  8
DATA
 62
     7
 10
161.80000000000001
 20
491.0
 30
0.0
 11
162.30000000000001
 21
490.0
 31
0.0
  0
POLYLINE
  5
54F
  8
DATA
 62
     7
 66
     1
 10
0.0
 20
0.0
 30
0.0
 70
     1
  0
VERTEX
  5
B44
  8
DATA
 62
     7
 10
135.2999999999999
 20
494.5
 30
0.0
  0
VERTEX
  5
B45
  8
DATA
 62
     7
 10
136.30000000000001
 20
494.5
 30
0.0
  0
VERTEX
  5
B46
  8
DATA
 62
     7
 10
136.30000000000001
 20
493.5
 30
0.0
  0
VERTEX
  5
B47
  8
DATA
 62
     7
 10
135.2999999999999
 20
493.5
 30
0.0
  0
SEQEND
  5
B48
  8
DATA
 62
     7
  0
POLYLINE
  5
555
  8
DATA
 62
     7
 66
     1
 10
0.0
 20
0.0
 30
0.0
 70
     1
  0
VERTEX
  5
B49
  8
DATA
 62
     7
 10
140.2999999999999
 20
494.5
 30
0.0
  0
VERTEX
  5
B4A
  8
DATA
 62
     7
 10
141.30000000000001
 20
494.5
 30
0.0
  0
VERTEX
  5
B4B
  8
DATA
 62
     7
 10
141.30000000000001
 20
493.5
 30
0.0
  0
VERTEX
  5
B4C
  8
DATA
 62
     7
 10
140.2999999999999
 20
493.5
 30
0.0
  0
SEQEND
  5
B4D
  8
DATA
 62
     7
  0
POLYLINE
  5
55B
  8
DATA
 62
     7
 66
     1
 10
0.0
 20
0.0
 30
0.0
 70
     1
  0
VERTEX
  5
B4E
  8
DATA
 62
     7
 10
145.2999999999999
 20
494.5
 30
0.0
  0
VERTEX
  5
B4F
  8
DATA
 62
     7
 10
146.30000000000001
 20
494.5
 30
0.0
  0
VERTEX
  5
B50
  8
DATA
 62
     7
 10
146.30000000000001
 20
493.5
 30
0.0
  0
VERTEX
  5
B51
  8
DATA
 62
     7
 10
145.2999999999999
 20
493.5
 30
0.0
  0
SEQEND
  5
B52
  8
DATA
 62
     7
  0
POLYLINE
  5
561
  8
DATA
 62
     7
 66
     1
 10
0.0
 20
0.0
 30
0.0
 70
     1
  0
VERTEX
  5
B53
  8
DATA
 62
     7
 10
150.2999999999999
 20
494.5
 30
0.0
  0
VERTEX
  5
B54
  8
DATA
 62
     7
 10
151.30000000000001
 20
494.5
 30
0.0
  0
VERTEX
  5
B55
  8
DATA
 62
     7
 10
151.30000000000001
 20
493.5
 30
0.0
  0
VERTEX
  5
B56
  8
DATA
 62
     7
 10
150.2999999999999
 20
493.5
 30
0.0
  0
SEQEND
  5
B57
  8
DATA
 62
     7
  0
POLYLINE
  5
567
  8
DATA
 62
     7
 66
     1
 10
0.0
 20
0.0
 30
0.0
 70
     1
  0
VERTEX
  5
B58
  8
DATA
 62
     7
 10
155.2999999999999
 20
494.5
 30
0.0
  0
VERTEX
  5
B59
  8
DATA
 62
     7
 10
156.30000000000001
 20
494.5
 30
0.0
  0
VERTEX
  5
B5A
  8
DATA
 62
     7
 10
156.30000000000001
 20
493.5
 30
0.0
  0
VERTEX
  5
B5B
  8
DATA
 62
     7
 10
155.2999999999999
 20
493.5
 30
0.0
  0
SEQEND
  5
B5C
  8
DATA
 62
     7
  0
POLYLINE
  5
56D
  8
DATA
 62
     7
 66
     1
 10
0.0
 20
0.0
 30
0.0
 70
     1
  0
VERTEX
  5
B5D
  8
DATA
 62
     7
 10
160.2999999999999
 20
494.5
 30
0.0
  0
VERTEX
  5
B5E
  8
DATA
 62
     7
 10
161.30000000000001
 20
494.5
 30
0.0
  0
VERTEX
  5
B5F
  8
DATA
 62
     7
 10
161.30000000000001
 20
493.5
 30
0.0
  0
VERTEX
  5
B60
  8
DATA
 62
     7
 10
160.2999999999999
 20
493.5
 30
0.0
  0
SEQEND
  5
B61
  8
DATA
 62
     7
  0
LINE
  5
573
  8
DATA
 62
     7
 10
133.30000000000001
 20
489.5
 30
0.0
 11
133.30000000000001
 21
496.49999999999989
 31
0.0
  0
ARC
  5
574
  8
DATA
 62
     7
 10
135.80000000000001
 20
493.37499999999989
 30
0.0
 40
3.625
 50
46.397181027296369
 51
133.6028189727036
  0
ARC
  5
575
  8
DATA
 62
     7
 10
140.80000000000001
 20
493.37499999999989
 30
0.0
 40
3.625
 50
46.397181027296369
 51
133.6028189727036
  0
ARC
  5
576
  8
DATA
 62
     7
 10
145.80000000000001
 20
493.37499999999989
 30
0.0
 40
3.625
 50
46.397181027296369
 51
133.6028189727036
  0
ARC
  5
577
  8
DATA
 62
     7
 10
150.80000000000001
 20
493.37499999999989
 30
0.0
 40
3.625
 50
46.397181027296369
 51
133.6028189727036
  0
ARC
  5
578
  8
DATA
 62
     7
 10
155.80000000000001
 20
493.37499999999989
 30
0.0
 40
3.625
 50
46.397181027296369
 51
133.6028189727036
  0
ARC
  5
579
  8
DATA
 62
     7
 10
160.80000000000001
 20
493.37499999999989
 30
0.0
 40
3.625
 50
46.397181027296369
 51
133.6028189727036
  0
LINE
  5
57A
  8
DATA
 62
     7
 10
163.30000000000001
 20
496.49999999999989
 30
0.0
 11
163.30000000000001
 21
489.5
 31
0.0
  0
ARC
  5
57B
  8
DATA
 62
     7
 10
135.80000000000001
 20
493.87499999999989
 30
0.0
 40
3.625
 50
46.397181027296369
 51
133.6028189727036
  0
ARC
  5
57C
  8
DATA
 62
     7
 10
140.80000000000001
 20
493.87499999999989
 30
0.0
 40
3.625
 50
46.397181027296369
 51
133.6028189727036
  0
ARC
  5
57D
  8
DATA
 62
     7
 10
145.80000000000001
 20
493.87499999999989
 30
0.0
 40
3.625
 50
46.397181027296369
 51
133.6028189727036
  0
ARC
  5
57E
  8
DATA
 62
     7
 10
150.80000000000001
 20
493.87499999999989
 30
0.0
 40
3.625
 50
46.397181027296369
 51
133.6028189727036
  0
ARC
  5
57F
  8
DATA
 62
     7
 10
155.80000000000001
 20
493.87499999999989
 30
0.0
 40
3.625
 50
46.397181027296369
 51
133.6028189727036
  0
ARC
  5
580
  8
DATA
 62
     7
 10
160.80000000000001
 20
493.87499999999989
 30
0.0
 40
3.625
 50
46.397181027296369
 51
133.6028189727036
  0
LINE
  5
581
  8
DATA
 62
     7
 10
133.30000000000001
 20
489.5
 30
0.0
 11
163.30000000000001
 21
489.5
 31
0.0
  0
LINE
  5
582
  8
DATA
 62
     7
 10
174.30000000000001
 20
472.0
 30
0.0
 11
204.30000000000001
 21
472.0
 31
0.0
  0
LINE
  5
583
  8
DATA
 62
     7
 10
174.30000000000001
 20
473.0
 30
0.0
 11
175.80000000000001
 21
473.0
 31
0.0
  0
LINE
  5
584
  8
DATA
 62
     7
 10
175.80000000000001
 20
473.0
 30
0.0
 11
175.30000000000001
 21
472.0
 31
0.0
  0
LINE
  5
585
  8
DATA
 62
     7
 10
178.30000000000001
 20
472.0
 30
0.0
 11
177.80000000000001
 21
473.0
 31
0.0
  0
LINE
  5
586
  8
DATA
 62
     7
 10
177.80000000000001
 20
473.0
 30
0.0
 11
180.80000000000001
 21
473.0
 31
0.0
  0
LINE
  5
587
  8
DATA
 62
     7
 10
180.80000000000001
 20
473.0
 30
0.0
 11
180.30000000000001
 21
472.0
 31
0.0
  0
LINE
  5
588
  8
DATA
 62
     7
 10
183.30000000000001
 20
472.0
 30
0.0
 11
182.80000000000001
 21
473.0
 31
0.0
  0
LINE
  5
589
  8
DATA
 62
     7
 10
182.80000000000001
 20
473.0
 30
0.0
 11
185.80000000000001
 21
473.0
 31
0.0
  0
LINE
  5
58A
  8
DATA
 62
     7
 10
185.80000000000001
 20
473.0
 30
0.0
 11
185.30000000000001
 21
472.0
 31
0.0
  0
LINE
  5
58B
  8
DATA
 62
     7
 10
188.30000000000001
 20
472.0
 30
0.0
 11
187.80000000000001
 21
473.0
 31
0.0
  0
LINE
  5
58C
  8
DATA
 62
     7
 10
187.80000000000001
 20
473.0
 30
0.0
 11
190.80000000000001
 21
473.0
 31
0.0
  0
LINE
  5
58D
  8
DATA
 62
     7
 10
190.80000000000001
 20
473.0
 30
0.0
 11
190.30000000000001
 21
472.0
 31
0.0
  0
LINE
  5
58E
  8
DATA
 62
     7
 10
193.30000000000001
 20
472.0
 30
0.0
 11
192.80000000000001
 21
473.0
 31
0.0
  0
LINE
  5
58F
  8
DATA
 62
     7
 10
192.80000000000001
 20
473.0
 30
0.0
 11
195.80000000000001
 21
473.0
 31
0.0
  0
LINE
  5
590
  8
DATA
 62
     7
 10
195.80000000000001
 20
473.0
 30
0.0
 11
195.30000000000001
 21
472.0
 31
0.0
  0
LINE
  5
591
  8
DATA
 62
     7
 10
198.30000000000001
 20
472.0
 30
0.0
 11
197.80000000000001
 21
473.0
 31
0.0
  0
LINE
  5
592
  8
DATA
 62
     7
 10
197.80000000000001
 20
473.0
 30
0.0
 11
200.80000000000001
 21
473.0
 31
0.0
  0
LINE
  5
593
  8
DATA
 62
     7
 10
200.80000000000001
 20
473.0
 30
0.0
 11
200.30000000000001
 21
472.0
 31
0.0
  0
LINE
  5
594
  8
DATA
 62
     7
 10
204.30000000000001
 20
473.0
 30
0.0
 11
202.80000000000001
 21
473.0
 31
0.0
  0
LINE
  5
595
  8
DATA
 62
     7
 10
202.80000000000001
 20
473.0
 30
0.0
 11
203.30000000000001
 21
472.0
 31
0.0
  0
POLYLINE
  5
596
  8
DATA
 62
     7
 66
     1
 10
0.0
 20
0.0
 30
0.0
 70
     1
  0
VERTEX
  5
B62
  8
DATA
 62
     7
 10
176.2999999999999
 20
476.49999999999989
 30
0.0
  0
VERTEX
  5
B63
  8
DATA
 62
     7
 10
177.30000000000001
 20
476.49999999999989
 30
0.0
  0
VERTEX
  5
B64
  8
DATA
 62
     7
 10
177.30000000000001
 20
475.49999999999989
 30
0.0
  0
VERTEX
  5
B65
  8
DATA
 62
     7
 10
176.2999999999999
 20
475.49999999999989
 30
0.0
  0
SEQEND
  5
B66
  8
DATA
 62
     7
  0
POLYLINE
  5
59C
  8
DATA
 62
     7
 66
     1
 10
0.0
 20
0.0
 30
0.0
 70
     1
  0
VERTEX
  5
B67
  8
DATA
 62
     7
 10
181.2999999999999
 20
476.49999999999989
 30
0.0
  0
VERTEX
  5
B68
  8
DATA
 62
     7
 10
182.30000000000001
 20
476.49999999999989
 30
0.0
  0
VERTEX
  5
B69
  8
DATA
 62
     7
 10
182.30000000000001
 20
475.49999999999989
 30
0.0
  0
VERTEX
  5
B6A
  8
DATA
 62
     7
 10
181.2999999999999
 20
475.49999999999989
 30
0.0
  0
SEQEND
  5
B6B
  8
DATA
 62
     7
  0
POLYLINE
  5
5A2
  8
DATA
 62
     7
 66
     1
 10
0.0
 20
0.0
 30
0.0
 70
     1
  0
VERTEX
  5
B6C
  8
DATA
 62
     7
 10
186.2999999999999
 20
476.49999999999989
 30
0.0
  0
VERTEX
  5
B6D
  8
DATA
 62
     7
 10
187.30000000000001
 20
476.49999999999989
 30
0.0
  0
VERTEX
  5
B6E
  8
DATA
 62
     7
 10
187.30000000000001
 20
475.49999999999989
 30
0.0
  0
VERTEX
  5
B6F
  8
DATA
 62
     7
 10
186.2999999999999
 20
475.49999999999989
 30
0.0
  0
SEQEND
  5
B70
  8
DATA
 62
     7
  0
POLYLINE
  5
5A8
  8
DATA
 62
     7
 66
     1
 10
0.0
 20
0.0
 30
0.0
 70
     1
  0
VERTEX
  5
B71
  8
DATA
 62
     7
 10
191.2999999999999
 20
476.49999999999989
 30
0.0
  0
VERTEX
  5
B72
  8
DATA
 62
     7
 10
192.30000000000001
 20
476.49999999999989
 30
0.0
  0
VERTEX
  5
B73
  8
DATA
 62
     7
 10
192.30000000000001
 20
475.49999999999989
 30
0.0
  0
VERTEX
  5
B74
  8
DATA
 62
     7
 10
191.2999999999999
 20
475.49999999999989
 30
0.0
  0
SEQEND
  5
B75
  8
DATA
 62
     7
  0
POLYLINE
  5
5AE
  8
DATA
 62
     7
 66
     1
 10
0.0
 20
0.0
 30
0.0
 70
     1
  0
VERTEX
  5
B76
  8
DATA
 62
     7
 10
196.2999999999999
 20
476.49999999999989
 30
0.0
  0
VERTEX
  5
B77
  8
DATA
 62
     7
 10
197.30000000000001
 20
476.49999999999989
 30
0.0
  0
VERTEX
  5
B78
  8
DATA
 62
     7
 10
197.30000000000001
 20
475.49999999999989
 30
0.0
  0
VERTEX
  5
B79
  8
DATA
 62
     7
 10
196.2999999999999
 20
475.49999999999989
 30
0.0
  0
SEQEND
  5
B7A
  8
DATA
 62
     7
  0
POLYLINE
  5
5B4
  8
DATA
 62
     7
 66
     1
 10
0.0
 20
0.0
 30
0.0
 70
     1
  0
VERTEX
  5
B7B
  8
DATA
 62
     7
 10
201.2999999999999
 20
476.49999999999989
 30
0.0
  0
VERTEX
  5
B7C
  8
DATA
 62
     7
 10
202.30000000000001
 20
476.49999999999989
 30
0.0
  0
VERTEX
  5
B7D
  8
DATA
 62
     7
 10
202.30000000000001
 20
475.49999999999989
 30
0.0
  0
VERTEX
  5
B7E
  8
DATA
 62
     7
 10
201.2999999999999
 20
475.49999999999989
 30
0.0
  0
SEQEND
  5
B7F
  8
DATA
 62
     7
  0
LINE
  5
5BA
  8
DATA
 62
     7
 10
174.30000000000001
 20
471.49999999999989
 30
0.0
 11
174.30000000000001
 21
478.5
 31
0.0
  0
ARC
  5
5BB
  8
DATA
 62
     7
 10
176.80000000000001
 20
475.375
 30
0.0
 40
3.625
 50
46.397181027296369
 51
133.6028189727036
  0
ARC
  5
5BC
  8
DATA
 62
     7
 10
181.80000000000001
 20
475.375
 30
0.0
 40
3.625
 50
46.397181027296369
 51
133.6028189727036
  0
ARC
  5
5BD
  8
DATA
 62
     7
 10
186.80000000000001
 20
475.375
 30
0.0
 40
3.625
 50
46.397181027296369
 51
133.6028189727036
  0
ARC
  5
5BE
  8
DATA
 62
     7
 10
191.80000000000001
 20
475.375
 30
0.0
 40
3.625
 50
46.397181027296369
 51
133.6028189727036
  0
ARC
  5
5BF
  8
DATA
 62
     7
 10
196.80000000000001
 20
475.375
 30
0.0
 40
3.625
 50
46.397181027296369
 51
133.6028189727036
  0
ARC
  5
5C0
  8
DATA
 62
     7
 10
201.80000000000001
 20
475.375
 30
0.0
 40
3.625
 50
46.397181027296369
 51
133.6028189727036
  0
LINE
  5
5C1
  8
DATA
 62
     7
 10
204.30000000000001
 20
478.5
 30
0.0
 11
204.30000000000001
 21
471.49999999999989
 31
0.0
  0
ARC
  5
5C2
  8
DATA
 62
     7
 10
176.80000000000001
 20
475.875
 30
0.0
 40
3.625
 50
46.397181027296369
 51
133.6028189727036
  0
ARC
  5
5C3
  8
DATA
 62
     7
 10
181.80000000000001
 20
475.875
 30
0.0
 40
3.625
 50
46.397181027296369
 51
133.6028189727036
  0
ARC
  5
5C4
  8
DATA
 62
     7
 10
186.80000000000001
 20
475.875
 30
0.0
 40
3.625
 50
46.397181027296369
 51
133.6028189727036
  0
ARC
  5
5C5
  8
DATA
 62
     7
 10
191.80000000000001
 20
475.875
 30
0.0
 40
3.625
 50
46.397181027296369
 51
133.6028189727036
  0
ARC
  5
5C6
  8
DATA
 62
     7
 10
196.80000000000001
 20
475.875
 30
0.0
 40
3.625
 50
46.397181027296369
 51
133.6028189727036
  0
ARC
  5
5C7
  8
DATA
 62
     7
 10
201.80000000000001
 20
475.875
 30
0.0
 40
3.625
 50
46.397181027296369
 51
133.6028189727036
  0
LINE
  5
5C8
  8
DATA
 62
     7
 10
174.30000000000001
 20
471.49999999999989
 30
0.0
 11
204.30000000000001
 21
471.49999999999989
 31
0.0
  0
LINE
  5
5C9
  8
DATA
 62
     7
 10
174.30000000000001
 20
490.0
 30
0.0
 11
204.30000000000001
 21
490.0
 31
0.0
  0
LINE
  5
5CA
  8
DATA
 62
     7
 10
174.30000000000001
 20
491.0
 30
0.0
 11
175.80000000000001
 21
491.0
 31
0.0
  0
LINE
  5
5CB
  8
DATA
 62
     7
 10
175.80000000000001
 20
491.0
 30
0.0
 11
175.30000000000001
 21
490.0
 31
0.0
  0
LINE
  5
5CC
  8
DATA
 62
     7
 10
178.30000000000001
 20
490.0
 30
0.0
 11
177.80000000000001
 21
491.0
 31
0.0
  0
LINE
  5
5CD
  8
DATA
 62
     7
 10
177.80000000000001
 20
491.0
 30
0.0
 11
180.80000000000001
 21
491.0
 31
0.0
  0
LINE
  5
5CE
  8
DATA
 62
     7
 10
180.80000000000001
 20
491.0
 30
0.0
 11
180.30000000000001
 21
490.0
 31
0.0
  0
LINE
  5
5CF
  8
DATA
 62
     7
 10
183.30000000000001
 20
490.0
 30
0.0
 11
182.80000000000001
 21
491.0
 31
0.0
  0
LINE
  5
5D0
  8
DATA
 62
     7
 10
182.80000000000001
 20
491.0
 30
0.0
 11
185.80000000000001
 21
491.0
 31
0.0
  0
LINE
  5
5D1
  8
DATA
 62
     7
 10
185.80000000000001
 20
491.0
 30
0.0
 11
185.30000000000001
 21
490.0
 31
0.0
  0
LINE
  5
5D2
  8
DATA
 62
     7
 10
188.30000000000001
 20
490.0
 30
0.0
 11
187.80000000000001
 21
491.0
 31
0.0
  0
LINE
  5
5D3
  8
DATA
 62
     7
 10
187.80000000000001
 20
491.0
 30
0.0
 11
190.80000000000001
 21
491.0
 31
0.0
  0
LINE
  5
5D4
  8
DATA
 62
     7
 10
190.80000000000001
 20
491.0
 30
0.0
 11
190.30000000000001
 21
490.0
 31
0.0
  0
LINE
  5
5D5
  8
DATA
 62
     7
 10
193.30000000000001
 20
490.0
 30
0.0
 11
192.80000000000001
 21
491.0
 31
0.0
  0
LINE
  5
5D6
  8
DATA
 62
     7
 10
192.80000000000001
 20
491.0
 30
0.0
 11
195.80000000000001
 21
491.0
 31
0.0
  0
LINE
  5
5D7
  8
DATA
 62
     7
 10
195.80000000000001
 20
491.0
 30
0.0
 11
195.30000000000001
 21
490.0
 31
0.0
  0
LINE
  5
5D8
  8
DATA
 62
     7
 10
198.30000000000001
 20
490.0
 30
0.0
 11
197.80000000000001
 21
491.0
 31
0.0
  0
LINE
  5
5D9
  8
DATA
 62
     7
 10
197.80000000000001
 20
491.0
 30
0.0
 11
200.80000000000001
 21
491.0
 31
0.0
  0
LINE
  5
5DA
  8
DATA
 62
     7
 10
200.80000000000001
 20
491.0
 30
0.0
 11
200.30000000000001
 21
490.0
 31
0.0
  0
LINE
  5
5DB
  8
DATA
 62
     7
 10
204.30000000000001
 20
491.0
 30
0.0
 11
202.80000000000001
 21
491.0
 31
0.0
  0
LINE
  5
5DC
  8
DATA
 62
     7
 10
202.80000000000001
 20
491.0
 30
0.0
 11
203.30000000000001
 21
490.0
 31
0.0
  0
POLYLINE
  5
5DD
  8
DATA
 62
     7
 66
     1
 10
0.0
 20
0.0
 30
0.0
 70
     1
  0
VERTEX
  5
B80
  8
DATA
 62
     7
 10
176.2999999999999
 20
494.5
 30
0.0
  0
VERTEX
  5
B81
  8
DATA
 62
     7
 10
177.30000000000001
 20
494.5
 30
0.0
  0
VERTEX
  5
B82
  8
DATA
 62
     7
 10
177.30000000000001
 20
493.5
 30
0.0
  0
VERTEX
  5
B83
  8
DATA
 62
     7
 10
176.2999999999999
 20
493.5
 30
0.0
  0
SEQEND
  5
B84
  8
DATA
 62
     7
  0
POLYLINE
  5
5E3
  8
DATA
 62
     7
 66
     1
 10
0.0
 20
0.0
 30
0.0
 70
     1
  0
VERTEX
  5
B85
  8
DATA
 62
     7
 10
181.2999999999999
 20
494.5
 30
0.0
  0
VERTEX
  5
B86
  8
DATA
 62
     7
 10
182.30000000000001
 20
494.5
 30
0.0
  0
VERTEX
  5
B87
  8
DATA
 62
     7
 10
182.30000000000001
 20
493.5
 30
0.0
  0
VERTEX
  5
B88
  8
DATA
 62
     7
 10
181.2999999999999
 20
493.5
 30
0.0
  0
SEQEND
  5
B89
  8
DATA
 62
     7
  0
POLYLINE
  5
5E9
  8
DATA
 62
     7
 66
     1
 10
0.0
 20
0.0
 30
0.0
 70
     1
  0
VERTEX
  5
B8A
  8
DATA
 62
     7
 10
186.2999999999999
 20
494.5
 30
0.0
  0
VERTEX
  5
B8B
  8
DATA
 62
     7
 10
187.30000000000001
 20
494.5
 30
0.0
  0
VERTEX
  5
B8C
  8
DATA
 62
     7
 10
187.30000000000001
 20
493.5
 30
0.0
  0
VERTEX
  5
B8D
  8
DATA
 62
     7
 10
186.2999999999999
 20
493.5
 30
0.0
  0
SEQEND
  5
B8E
  8
DATA
 62
     7
  0
POLYLINE
  5
5EF
  8
DATA
 62
     7
 66
     1
 10
0.0
 20
0.0
 30
0.0
 70
     1
  0
VERTEX
  5
B8F
  8
DATA
 62
     7
 10
191.2999999999999
 20
494.5
 30
0.0
  0
VERTEX
  5
B90
  8
DATA
 62
     7
 10
192.30000000000001
 20
494.5
 30
0.0
  0
VERTEX
  5
B91
  8
DATA
 62
     7
 10
192.30000000000001
 20
493.5
 30
0.0
  0
VERTEX
  5
B92
  8
DATA
 62
     7
 10
191.2999999999999
 20
493.5
 30
0.0
  0
SEQEND
  5
B93
  8
DATA
 62
     7
  0
POLYLINE
  5
5F5
  8
DATA
 62
     7
 66
     1
 10
0.0
 20
0.0
 30
0.0
 70
     1
  0
VERTEX
  5
B94
  8
DATA
 62
     7
 10
196.2999999999999
 20
494.5
 30
0.0
  0
VERTEX
  5
B95
  8
DATA
 62
     7
 10
197.30000000000001
 20
494.5
 30
0.0
  0
VERTEX
  5
B96
  8
DATA
 62
     7
 10
197.30000000000001
 20
493.5
 30
0.0
  0
VERTEX
  5
B97
  8
DATA
 62
     7
 10
196.2999999999999
 20
493.5
 30
0.0
  0
SEQEND
  5
B98
  8
DATA
 62
     7
  0
POLYLINE
  5
5FB
  8
DATA
 62
     7
 66
     1
 10
0.0
 20
0.0
 30
0.0
 70
     1
  0
VERTEX
  5
B99
  8
DATA
 62
     7
 10
201.2999999999999
 20
494.5
 30
0.0
  0
VERTEX
  5
B9A
  8
DATA
 62
     7
 10
202.30000000000001
 20
494.5
 30
0.0
  0
VERTEX
  5
B9B
  8
DATA
 62
     7
 10
202.30000000000001
 20
493.5
 30
0.0
  0
VERTEX
  5
B9C
  8
DATA
 62
     7
 10
201.2999999999999
 20
493.5
 30
0.0
  0
SEQEND
  5
B9D
  8
DATA
 62
     7
  0
LINE
  5
601
  8
DATA
 62
     7
 10
174.30000000000001
 20
489.5
 30
0.0
 11
174.30000000000001
 21
496.49999999999989
 31
0.0
  0
ARC
  5
602
  8
DATA
 62
     7
 10
176.80000000000001
 20
493.37499999999989
 30
0.0
 40
3.625
 50
46.397181027296369
 51
133.6028189727036
  0
ARC
  5
603
  8
DATA
 62
     7
 10
181.80000000000001
 20
493.37499999999989
 30
0.0
 40
3.625
 50
46.397181027296369
 51
133.6028189727036
  0
ARC
  5
604
  8
DATA
 62
     7
 10
186.80000000000001
 20
493.37499999999989
 30
0.0
 40
3.625
 50
46.397181027296369
 51
133.6028189727036
  0
ARC
  5
605
  8
DATA
 62
     7
 10
191.80000000000001
 20
493.37499999999989
 30
0.0
 40
3.625
 50
46.397181027296369
 51
133.6028189727036
  0
ARC
  5
606
  8
DATA
 62
     7
 10
196.80000000000001
 20
493.37499999999989
 30
0.0
 40
3.625
 50
46.397181027296369
 51
133.6028189727036
  0
ARC
  5
607
  8
DATA
 62
     7
 10
201.80000000000001
 20
493.37499999999989
 30
0.0
 40
3.625
 50
46.397181027296369
 51
133.6028189727036
  0
LINE
  5
608
  8
DATA
 62
     7
 10
204.30000000000001
 20
496.49999999999989
 30
0.0
 11
204.30000000000001
 21
489.5
 31
0.0
  0
ARC
  5
609
  8
DATA
 62
     7
 10
176.80000000000001
 20
493.87499999999989
 30
0.0
 40
3.625
 50
46.397181027296369
 51
133.6028189727036
  0
ARC
  5
60A
  8
DATA
 62
     7
 10
181.80000000000001
 20
493.87499999999989
 30
0.0
 40
3.625
 50
46.397181027296369
 51
133.6028189727036
  0
ARC
  5
60B
  8
DATA
 62
     7
 10
186.80000000000001
 20
493.87499999999989
 30
0.0
 40
3.625
 50
46.397181027296369
 51
133.6028189727036
  0
ARC
  5
60C
  8
DATA
 62
     7
 10
191.80000000000001
 20
493.87499999999989
 30
0.0
 40
3.625
 50
46.397181027296369
 51
133.6028189727036
  0
ARC
  5
60D
  8
DATA
 62
     7
 10
196.80000000000001
 20
493.87499999999989
 30
0.0
 40
3.625
 50
46.397181027296369
 51
133.6028189727036
  0
ARC
  5
60E
  8
DATA
 62
     7
 10
201.80000000000001
 20
493.87499999999989
 30
0.0
 40
3.625
 50
46.397181027296369
 51
133.6028189727036
  0
LINE
  5
60F
  8
DATA
 62
     7
 10
174.30000000000001
 20
489.5
 30
0.0
 11
204.30000000000001
 21
489.5
 31
0.0
  0
LINE
  5
610
  8
DATA
 62
     7
 10
217.30000000000001
 20
490.0
 30
0.0
 11
275.30000000000001
 21
490.0
 31
0.0
  0
LINE
  5
611
  8
DATA
 62
     7
 10
215.30000000000001
 20
491.0
 30
0.0
 11
217.80000000000001
 21
491.0
 31
0.0
  0
LINE
  5
612
  8
DATA
 62
     7
 10
217.80000000000001
 20
491.0
 30
0.0
 11
217.30000000000001
 21
490.0
 31
0.0
  0
LINE
  5
613
  8
DATA
 62
     7
 10
220.30000000000001
 20
490.0
 30
0.0
 11
219.80000000000001
 21
491.0
 31
0.0
  0
LINE
  5
614
  8
DATA
 62
     7
 10
219.80000000000001
 20
491.0
 30
0.0
 11
222.80000000000001
 21
491.0
 31
0.0
  0
LINE
  5
615
  8
DATA
 62
     7
 10
222.80000000000001
 20
491.0
 30
0.0
 11
222.30000000000001
 21
490.0
 31
0.0
  0
LINE
  5
616
  8
DATA
 62
     7
 10
225.30000000000001
 20
490.0
 30
0.0
 11
224.80000000000001
 21
491.0
 31
0.0
  0
LINE
  5
617
  8
DATA
 62
     7
 10
224.80000000000001
 20
491.0
 30
0.0
 11
227.80000000000001
 21
491.0
 31
0.0
  0
LINE
  5
618
  8
DATA
 62
     7
 10
227.80000000000001
 20
491.0
 30
0.0
 11
227.30000000000001
 21
490.0
 31
0.0
  0
LINE
  5
619
  8
DATA
 62
     7
 10
230.30000000000001
 20
490.0
 30
0.0
 11
229.80000000000001
 21
491.0
 31
0.0
  0
LINE
  5
61A
  8
DATA
 62
     7
 10
229.80000000000001
 20
491.0
 30
0.0
 11
232.80000000000001
 21
491.0
 31
0.0
  0
LINE
  5
61B
  8
DATA
 62
     7
 10
232.80000000000001
 20
491.0
 30
0.0
 11
232.30000000000001
 21
490.0
 31
0.0
  0
LINE
  5
61C
  8
DATA
 62
     7
 10
235.30000000000001
 20
490.0
 30
0.0
 11
234.80000000000001
 21
491.0
 31
0.0
  0
LINE
  5
61D
  8
DATA
 62
     7
 10
234.80000000000001
 20
491.0
 30
0.0
 11
237.80000000000001
 21
491.0
 31
0.0
  0
LINE
  5
61E
  8
DATA
 62
     7
 10
237.80000000000001
 20
491.0
 30
0.0
 11
237.30000000000001
 21
490.0
 31
0.0
  0
LINE
  5
61F
  8
DATA
 62
     7
 10
240.30000000000001
 20
490.0
 30
0.0
 11
239.80000000000001
 21
491.0
 31
0.0
  0
LINE
  5
620
  8
DATA
 62
     7
 10
239.80000000000001
 20
491.0
 30
0.0
 11
242.80000000000001
 21
491.0
 31
0.0
  0
LINE
  5
621
  8
DATA
 62
     7
 10
242.80000000000001
 20
491.0
 30
0.0
 11
242.30000000000001
 21
490.0
 31
0.0
  0
POLYLINE
  5
622
  8
DATA
 62
     7
 66
     1
 10
0.0
 20
0.0
 30
0.0
 70
     1
  0
VERTEX
  5
B9E
  8
DATA
 62
     7
 10
218.2999999999999
 20
494.5
 30
0.0
  0
VERTEX
  5
B9F
  8
DATA
 62
     7
 10
219.30000000000001
 20
494.5
 30
0.0
  0
VERTEX
  5
BA0
  8
DATA
 62
     7
 10
219.30000000000001
 20
493.5
 30
0.0
  0
VERTEX
  5
BA1
  8
DATA
 62
     7
 10
218.2999999999999
 20
493.5
 30
0.0
  0
SEQEND
  5
BA2
  8
DATA
 62
     7
  0
POLYLINE
  5
628
  8
DATA
 62
     7
 66
     1
 10
0.0
 20
0.0
 30
0.0
 70
     1
  0
VERTEX
  5
BA3
  8
DATA
 62
     7
 10
223.30000000000001
 20
494.5
 30
0.0
  0
VERTEX
  5
BA4
  8
DATA
 62
     7
 10
224.30000000000001
 20
494.5
 30
0.0
  0
VERTEX
  5
BA5
  8
DATA
 62
     7
 10
224.30000000000001
 20
493.5
 30
0.0
  0
VERTEX
  5
BA6
  8
DATA
 62
     7
 10
223.30000000000001
 20
493.5
 30
0.0
  0
SEQEND
  5
BA7
  8
DATA
 62
     7
  0
POLYLINE
  5
62E
  8
DATA
 62
     7
 66
     1
 10
0.0
 20
0.0
 30
0.0
 70
     1
  0
VERTEX
  5
BA8
  8
DATA
 62
     7
 10
228.2999999999999
 20
494.5
 30
0.0
  0
VERTEX
  5
BA9
  8
DATA
 62
     7
 10
229.30000000000001
 20
494.5
 30
0.0
  0
VERTEX
  5
BAA
  8
DATA
 62
     7
 10
229.30000000000001
 20
493.5
 30
0.0
  0
VERTEX
  5
BAB
  8
DATA
 62
     7
 10
228.2999999999999
 20
493.5
 30
0.0
  0
SEQEND
  5
BAC
  8
DATA
 62
     7
  0
POLYLINE
  5
634
  8
DATA
 62
     7
 66
     1
 10
0.0
 20
0.0
 30
0.0
 70
     1
  0
VERTEX
  5
BAD
  8
DATA
 62
     7
 10
233.30000000000001
 20
494.5
 30
0.0
  0
VERTEX
  5
BAE
  8
DATA
 62
     7
 10
234.30000000000001
 20
494.5
 30
0.0
  0
VERTEX
  5
BAF
  8
DATA
 62
     7
 10
234.30000000000001
 20
493.5
 30
0.0
  0
VERTEX
  5
BB0
  8
DATA
 62
     7
 10
233.30000000000001
 20
493.5
 30
0.0
  0
SEQEND
  5
BB1
  8
DATA
 62
     7
  0
POLYLINE
  5
63A
  8
DATA
 62
     7
 66
     1
 10
0.0
 20
0.0
 30
0.0
 70
     1
  0
VERTEX
  5
BB2
  8
DATA
 62
     7
 10
238.30000000000001
 20
494.5
 30
0.0
  0
VERTEX
  5
BB3
  8
DATA
 62
     7
 10
239.30000000000001
 20
494.5
 30
0.0
  0
VERTEX
  5
BB4
  8
DATA
 62
     7
 10
239.30000000000001
 20
493.5
 30
0.0
  0
VERTEX
  5
BB5
  8
DATA
 62
     7
 10
238.30000000000001
 20
493.5
 30
0.0
  0
SEQEND
  5
BB6
  8
DATA
 62
     7
  0
POLYLINE
  5
640
  8
DATA
 62
     7
 66
     1
 10
0.0
 20
0.0
 30
0.0
 70
     1
  0
VERTEX
  5
BB7
  8
DATA
 62
     7
 10
243.2999999999999
 20
494.5
 30
0.0
  0
VERTEX
  5
BB8
  8
DATA
 62
     7
 10
244.30000000000001
 20
494.5
 30
0.0
  0
VERTEX
  5
BB9
  8
DATA
 62
     7
 10
244.30000000000001
 20
493.5
 30
0.0
  0
VERTEX
  5
BBA
  8
DATA
 62
     7
 10
243.2999999999999
 20
493.5
 30
0.0
  0
SEQEND
  5
BBB
  8
DATA
 62
     7
  0
ARC
  5
646
  8
DATA
 62
     7
 10
218.80000000000001
 20
493.37499999999989
 30
0.0
 40
3.625
 50
46.397181027296369
 51
133.6028189727036
  0
ARC
  5
647
  8
DATA
 62
     7
 10
223.80000000000001
 20
493.37499999999989
 30
0.0
 40
3.625
 50
46.397181027296369
 51
133.6028189727036
  0
ARC
  5
648
  8
DATA
 62
     7
 10
228.80000000000001
 20
493.37499999999989
 30
0.0
 40
3.625
 50
46.397181027296369
 51
133.6028189727036
  0
ARC
  5
649
  8
DATA
 62
     7
 10
233.80000000000001
 20
493.37499999999989
 30
0.0
 40
3.625
 50
46.397181027296369
 51
133.6028189727036
  0
ARC
  5
64A
  8
DATA
 62
     7
 10
238.80000000000001
 20
493.37499999999989
 30
0.0
 40
3.625
 50
46.397181027296369
 51
133.6028189727036
  0
ARC
  5
64B
  8
DATA
 62
     7
 10
243.80000000000001
 20
493.37499999999989
 30
0.0
 40
3.625
 50
46.397181027296369
 51
133.6028189727036
  0
LINE
  5
64C
  8
DATA
 62
     7
 10
214.80000000000001
 20
489.5
 30
0.0
 11
277.80000000000001
 21
489.5
 31
0.0
  0
LINE
  5
64D
  8
DATA
 62
     7
 10
214.80000000000001
 20
497.5
 30
0.0
 11
277.80000000000001
 21
497.5
 31
0.0
  0
LINE
  5
64E
  8
DATA
 62
     7
 10
216.30000000000001
 20
496.0
 30
0.0
 11
215.30000000000001
 21
496.0
 31
0.0
  0
LINE
  5
64F
  8
DATA
 62
     7
 10
215.30000000000001
 20
496.0
 30
0.0
 11
215.30000000000001
 21
491.0
 31
0.0
  0
LINE
  5
650
  8
DATA
 62
     7
 10
277.30000000000001
 20
491.0
 30
0.0
 11
274.80000000000001
 21
491.0
 31
0.0
  0
LINE
  5
651
  8
DATA
 62
     7
 10
274.80000000000001
 20
491.0
 30
0.0
 11
275.30000000000001
 21
490.0
 31
0.0
  0
LINE
  5
652
  8
DATA
 62
     7
 10
272.30000000000001
 20
490.0
 30
0.0
 11
272.80000000000001
 21
491.0
 31
0.0
  0
LINE
  5
653
  8
DATA
 62
     7
 10
272.80000000000001
 20
491.0
 30
0.0
 11
269.80000000000001
 21
491.0
 31
0.0
  0
LINE
  5
654
  8
DATA
 62
     7
 10
269.80000000000001
 20
491.0
 30
0.0
 11
270.30000000000001
 21
490.0
 31
0.0
  0
LINE
  5
655
  8
DATA
 62
     7
 10
267.30000000000001
 20
490.0
 30
0.0
 11
267.80000000000001
 21
491.0
 31
0.0
  0
LINE
  5
656
  8
DATA
 62
     7
 10
267.80000000000001
 20
491.0
 30
0.0
 11
264.80000000000001
 21
491.0
 31
0.0
  0
LINE
  5
657
  8
DATA
 62
     7
 10
264.80000000000001
 20
491.0
 30
0.0
 11
265.30000000000001
 21
490.0
 31
0.0
  0
LINE
  5
658
  8
DATA
 62
     7
 10
262.30000000000001
 20
490.0
 30
0.0
 11
262.80000000000001
 21
491.0
 31
0.0
  0
LINE
  5
659
  8
DATA
 62
     7
 10
262.80000000000001
 20
491.0
 30
0.0
 11
259.80000000000001
 21
491.0
 31
0.0
  0
LINE
  5
65A
  8
DATA
 62
     7
 10
259.80000000000001
 20
491.0
 30
0.0
 11
260.30000000000001
 21
490.0
 31
0.0
  0
LINE
  5
65B
  8
DATA
 62
     7
 10
257.30000000000001
 20
490.0
 30
0.0
 11
257.80000000000001
 21
491.0
 31
0.0
  0
LINE
  5
65C
  8
DATA
 62
     7
 10
257.80000000000001
 20
491.0
 30
0.0
 11
254.80000000000001
 21
491.0
 31
0.0
  0
LINE
  5
65D
  8
DATA
 62
     7
 10
254.80000000000001
 20
491.0
 30
0.0
 11
255.30000000000001
 21
490.0
 31
0.0
  0
LINE
  5
65E
  8
DATA
 62
     7
 10
252.30000000000001
 20
490.0
 30
0.0
 11
252.80000000000001
 21
491.0
 31
0.0
  0
LINE
  5
65F
  8
DATA
 62
     7
 10
252.80000000000001
 20
491.0
 30
0.0
 11
249.80000000000001
 21
491.0
 31
0.0
  0
LINE
  5
660
  8
DATA
 62
     7
 10
249.80000000000001
 20
491.0
 30
0.0
 11
250.30000000000001
 21
490.0
 31
0.0
  0
POLYLINE
  5
661
  8
DATA
 62
     7
 66
     1
 10
0.0
 20
0.0
 30
0.0
 70
     1
  0
VERTEX
  5
BBC
  8
DATA
 62
     7
 10
273.30000000000001
 20
494.5
 30
0.0
  0
VERTEX
  5
BBD
  8
DATA
 62
     7
 10
274.30000000000013
 20
494.5
 30
0.0
  0
VERTEX
  5
BBE
  8
DATA
 62
     7
 10
274.30000000000013
 20
493.5
 30
0.0
  0
VERTEX
  5
BBF
  8
DATA
 62
     7
 10
273.30000000000001
 20
493.5
 30
0.0
  0
SEQEND
  5
BC0
  8
DATA
 62
     7
  0
POLYLINE
  5
667
  8
DATA
 62
     7
 66
     1
 10
0.0
 20
0.0
 30
0.0
 70
     1
  0
VERTEX
  5
BC1
  8
DATA
 62
     7
 10
268.30000000000001
 20
494.5
 30
0.0
  0
VERTEX
  5
BC2
  8
DATA
 62
     7
 10
269.30000000000013
 20
494.5
 30
0.0
  0
VERTEX
  5
BC3
  8
DATA
 62
     7
 10
269.30000000000013
 20
493.5
 30
0.0
  0
VERTEX
  5
BC4
  8
DATA
 62
     7
 10
268.30000000000001
 20
493.5
 30
0.0
  0
SEQEND
  5
BC5
  8
DATA
 62
     7
  0
POLYLINE
  5
66D
  8
DATA
 62
     7
 66
     1
 10
0.0
 20
0.0
 30
0.0
 70
     1
  0
VERTEX
  5
BC6
  8
DATA
 62
     7
 10
263.30000000000001
 20
494.5
 30
0.0
  0
VERTEX
  5
BC7
  8
DATA
 62
     7
 10
264.30000000000013
 20
494.5
 30
0.0
  0
VERTEX
  5
BC8
  8
DATA
 62
     7
 10
264.30000000000013
 20
493.5
 30
0.0
  0
VERTEX
  5
BC9
  8
DATA
 62
     7
 10
263.30000000000001
 20
493.5
 30
0.0
  0
SEQEND
  5
BCA
  8
DATA
 62
     7
  0
POLYLINE
  5
673
  8
DATA
 62
     7
 66
     1
 10
0.0
 20
0.0
 30
0.0
 70
     1
  0
VERTEX
  5
BCB
  8
DATA
 62
     7
 10
258.30000000000001
 20
494.5
 30
0.0
  0
VERTEX
  5
BCC
  8
DATA
 62
     7
 10
259.30000000000013
 20
494.5
 30
0.0
  0
VERTEX
  5
BCD
  8
DATA
 62
     7
 10
259.30000000000013
 20
493.5
 30
0.0
  0
VERTEX
  5
BCE
  8
DATA
 62
     7
 10
258.30000000000001
 20
493.5
 30
0.0
  0
SEQEND
  5
BCF
  8
DATA
 62
     7
  0
POLYLINE
  5
679
  8
DATA
 62
     7
 66
     1
 10
0.0
 20
0.0
 30
0.0
 70
     1
  0
VERTEX
  5
BD0
  8
DATA
 62
     7
 10
253.30000000000001
 20
494.5
 30
0.0
  0
VERTEX
  5
BD1
  8
DATA
 62
     7
 10
254.3000000000001
 20
494.5
 30
0.0
  0
VERTEX
  5
BD2
  8
DATA
 62
     7
 10
254.3000000000001
 20
493.5
 30
0.0
  0
VERTEX
  5
BD3
  8
DATA
 62
     7
 10
253.30000000000001
 20
493.5
 30
0.0
  0
SEQEND
  5
BD4
  8
DATA
 62
     7
  0
POLYLINE
  5
67F
  8
DATA
 62
     7
 66
     1
 10
0.0
 20
0.0
 30
0.0
 70
     1
  0
VERTEX
  5
BD5
  8
DATA
 62
     7
 10
248.30000000000001
 20
494.5
 30
0.0
  0
VERTEX
  5
BD6
  8
DATA
 62
     7
 10
249.3000000000001
 20
494.5
 30
0.0
  0
VERTEX
  5
BD7
  8
DATA
 62
     7
 10
249.3000000000001
 20
493.5
 30
0.0
  0
VERTEX
  5
BD8
  8
DATA
 62
     7
 10
248.30000000000001
 20
493.5
 30
0.0
  0
SEQEND
  5
BD9
  8
DATA
 62
     7
  0
ARC
  5
685
  8
DATA
 62
     7
 10
273.80000000000001
 20
493.37499999999989
 30
0.0
 40
3.625
 50
46.397181027296369
 51
133.6028189727036
  0
ARC
  5
686
  8
DATA
 62
     7
 10
268.80000000000001
 20
493.37499999999989
 30
0.0
 40
3.625
 50
46.397181027296369
 51
133.6028189727036
  0
ARC
  5
687
  8
DATA
 62
     7
 10
263.80000000000001
 20
493.37499999999989
 30
0.0
 40
3.625
 50
46.397181027296369
 51
133.6028189727036
  0
ARC
  5
688
  8
DATA
 62
     7
 10
258.80000000000001
 20
493.37499999999989
 30
0.0
 40
3.625
 50
46.397181027296369
 51
133.6028189727036
  0
ARC
  5
689
  8
DATA
 62
     7
 10
253.80000000000001
 20
493.37499999999989
 30
0.0
 40
3.625
 50
46.397181027296369
 51
133.6028189727036
  0
ARC
  5
68A
  8
DATA
 62
     7
 10
248.80000000000001
 20
493.37499999999989
 30
0.0
 40
3.625
 50
46.397181027296369
 51
133.6028189727036
  0
LINE
  5
68B
  8
DATA
 62
     7
 10
276.30000000000001
 20
496.0
 30
0.0
 11
277.30000000000001
 21
496.0
 31
0.0
  0
LINE
  5
68C
  8
DATA
 62
     7
 10
277.30000000000001
 20
496.0
 30
0.0
 11
277.30000000000001
 21
491.0
 31
0.0
  0
LINE
  5
68D
  8
DATA
 62
     7
 10
245.30000000000001
 20
490.0
 30
0.0
 11
244.80000000000001
 21
491.0
 31
0.0
  0
LINE
  5
68E
  8
DATA
 62
     7
 10
244.80000000000001
 20
491.0
 30
0.0
 11
247.80000000000001
 21
491.0
 31
0.0
  0
LINE
  5
68F
  8
DATA
 62
     7
 10
247.80000000000001
 20
491.0
 30
0.0
 11
247.30000000000001
 21
490.0
 31
0.0
  0
LINE
  5
690
  8
DATA
 62
     7
 10
217.30000000000001
 20
470.0
 30
0.0
 11
275.30000000000001
 21
470.0
 31
0.0
  0
LINE
  5
691
  8
DATA
 62
     7
 10
215.30000000000001
 20
471.0
 30
0.0
 11
217.80000000000001
 21
471.0
 31
0.0
  0
LINE
  5
692
  8
DATA
 62
     7
 10
217.80000000000001
 20
471.0
 30
0.0
 11
217.30000000000001
 21
470.0
 31
0.0
  0
LINE
  5
693
  8
DATA
 62
     7
 10
220.30000000000001
 20
470.0
 30
0.0
 11
219.80000000000001
 21
471.0
 31
0.0
  0
LINE
  5
694
  8
DATA
 62
     7
 10
219.80000000000001
 20
471.0
 30
0.0
 11
222.80000000000001
 21
471.0
 31
0.0
  0
LINE
  5
695
  8
DATA
 62
     7
 10
222.80000000000001
 20
471.0
 30
0.0
 11
222.30000000000001
 21
470.0
 31
0.0
  0
LINE
  5
696
  8
DATA
 62
     7
 10
225.30000000000001
 20
470.0
 30
0.0
 11
224.80000000000001
 21
471.0
 31
0.0
  0
LINE
  5
697
  8
DATA
 62
     7
 10
224.80000000000001
 20
471.0
 30
0.0
 11
227.80000000000001
 21
471.0
 31
0.0
  0
LINE
  5
698
  8
DATA
 62
     7
 10
227.80000000000001
 20
471.0
 30
0.0
 11
227.30000000000001
 21
470.0
 31
0.0
  0
LINE
  5
699
  8
DATA
 62
     7
 10
230.30000000000001
 20
470.0
 30
0.0
 11
229.80000000000001
 21
471.0
 31
0.0
  0
LINE
  5
69A
  8
DATA
 62
     7
 10
229.80000000000001
 20
471.0
 30
0.0
 11
232.80000000000001
 21
471.0
 31
0.0
  0
LINE
  5
69B
  8
DATA
 62
     7
 10
232.80000000000001
 20
471.0
 30
0.0
 11
232.30000000000001
 21
470.0
 31
0.0
  0
LINE
  5
69C
  8
DATA
 62
     7
 10
235.30000000000001
 20
470.0
 30
0.0
 11
234.80000000000001
 21
471.0
 31
0.0
  0
LINE
  5
69D
  8
DATA
 62
     7
 10
234.80000000000001
 20
471.0
 30
0.0
 11
237.80000000000001
 21
471.0
 31
0.0
  0
LINE
  5
69E
  8
DATA
 62
     7
 10
237.80000000000001
 20
471.0
 30
0.0
 11
237.30000000000001
 21
470.0
 31
0.0
  0
LINE
  5
69F
  8
DATA
 62
     7
 10
240.30000000000001
 20
470.0
 30
0.0
 11
239.80000000000001
 21
471.0
 31
0.0
  0
LINE
  5
6A0
  8
DATA
 62
     7
 10
239.80000000000001
 20
471.0
 30
0.0
 11
242.80000000000001
 21
471.0
 31
0.0
  0
LINE
  5
6A1
  8
DATA
 62
     7
 10
242.80000000000001
 20
471.0
 30
0.0
 11
242.30000000000001
 21
470.0
 31
0.0
  0
POLYLINE
  5
6A2
  8
DATA
 62
     7
 66
     1
 10
0.0
 20
0.0
 30
0.0
 70
     1
  0
VERTEX
  5
BDA
  8
DATA
 62
     7
 10
218.2999999999999
 20
474.5
 30
0.0
  0
VERTEX
  5
BDB
  8
DATA
 62
     7
 10
219.30000000000001
 20
474.5
 30
0.0
  0
VERTEX
  5
BDC
  8
DATA
 62
     7
 10
219.30000000000001
 20
473.5
 30
0.0
  0
VERTEX
  5
BDD
  8
DATA
 62
     7
 10
218.2999999999999
 20
473.5
 30
0.0
  0
SEQEND
  5
BDE
  8
DATA
 62
     7
  0
POLYLINE
  5
6A8
  8
DATA
 62
     7
 66
     1
 10
0.0
 20
0.0
 30
0.0
 70
     1
  0
VERTEX
  5
BDF
  8
DATA
 62
     7
 10
223.30000000000001
 20
474.5
 30
0.0
  0
VERTEX
  5
BE0
  8
DATA
 62
     7
 10
224.30000000000001
 20
474.5
 30
0.0
  0
VERTEX
  5
BE1
  8
DATA
 62
     7
 10
224.30000000000001
 20
473.5
 30
0.0
  0
VERTEX
  5
BE2
  8
DATA
 62
     7
 10
223.30000000000001
 20
473.5
 30
0.0
  0
SEQEND
  5
BE3
  8
DATA
 62
     7
  0
POLYLINE
  5
6AE
  8
DATA
 62
     7
 66
     1
 10
0.0
 20
0.0
 30
0.0
 70
     1
  0
VERTEX
  5
BE4
  8
DATA
 62
     7
 10
228.2999999999999
 20
474.5
 30
0.0
  0
VERTEX
  5
BE5
  8
DATA
 62
     7
 10
229.30000000000001
 20
474.5
 30
0.0
  0
VERTEX
  5
BE6
  8
DATA
 62
     7
 10
229.30000000000001
 20
473.5
 30
0.0
  0
VERTEX
  5
BE7
  8
DATA
 62
     7
 10
228.2999999999999
 20
473.5
 30
0.0
  0
SEQEND
  5
BE8
  8
DATA
 62
     7
  0
POLYLINE
  5
6B4
  8
DATA
 62
     7
 66
     1
 10
0.0
 20
0.0
 30
0.0
 70
     1
  0
VERTEX
  5
BE9
  8
DATA
 62
     7
 10
233.30000000000001
 20
474.5
 30
0.0
  0
VERTEX
  5
BEA
  8
DATA
 62
     7
 10
234.30000000000001
 20
474.5
 30
0.0
  0
VERTEX
  5
BEB
  8
DATA
 62
     7
 10
234.30000000000001
 20
473.5
 30
0.0
  0
VERTEX
  5
BEC
  8
DATA
 62
     7
 10
233.30000000000001
 20
473.5
 30
0.0
  0
SEQEND
  5
BED
  8
DATA
 62
     7
  0
POLYLINE
  5
6BA
  8
DATA
 62
     7
 66
     1
 10
0.0
 20
0.0
 30
0.0
 70
     1
  0
VERTEX
  5
BEE
  8
DATA
 62
     7
 10
238.30000000000001
 20
474.5
 30
0.0
  0
VERTEX
  5
BEF
  8
DATA
 62
     7
 10
239.30000000000001
 20
474.5
 30
0.0
  0
VERTEX
  5
BF0
  8
DATA
 62
     7
 10
239.30000000000001
 20
473.5
 30
0.0
  0
VERTEX
  5
BF1
  8
DATA
 62
     7
 10
238.30000000000001
 20
473.5
 30
0.0
  0
SEQEND
  5
BF2
  8
DATA
 62
     7
  0
POLYLINE
  5
6C0
  8
DATA
 62
     7
 66
     1
 10
0.0
 20
0.0
 30
0.0
 70
     1
  0
VERTEX
  5
BF3
  8
DATA
 62
     7
 10
243.2999999999999
 20
474.5
 30
0.0
  0
VERTEX
  5
BF4
  8
DATA
 62
     7
 10
244.30000000000001
 20
474.5
 30
0.0
  0
VERTEX
  5
BF5
  8
DATA
 62
     7
 10
244.30000000000001
 20
473.5
 30
0.0
  0
VERTEX
  5
BF6
  8
DATA
 62
     7
 10
243.2999999999999
 20
473.5
 30
0.0
  0
SEQEND
  5
BF7
  8
DATA
 62
     7
  0
LINE
  5
6C6
  8
DATA
 62
     7
 10
214.80000000000001
 20
469.5
 30
0.0
 11
214.80000000000001
 21
497.5
 31
0.0
  0
ARC
  5
6C7
  8
DATA
 62
     7
 10
218.80000000000001
 20
473.37499999999989
 30
0.0
 40
3.625
 50
46.397181027296369
 51
133.6028189727036
  0
ARC
  5
6C8
  8
DATA
 62
     7
 10
223.80000000000001
 20
473.37499999999989
 30
0.0
 40
3.625
 50
46.397181027296369
 51
133.6028189727036
  0
ARC
  5
6C9
  8
DATA
 62
     7
 10
228.80000000000001
 20
473.37499999999989
 30
0.0
 40
3.625
 50
46.397181027296369
 51
133.6028189727036
  0
ARC
  5
6CA
  8
DATA
 62
     7
 10
233.80000000000001
 20
473.37499999999989
 30
0.0
 40
3.625
 50
46.397181027296369
 51
133.6028189727036
  0
ARC
  5
6CB
  8
DATA
 62
     7
 10
238.80000000000001
 20
473.37499999999989
 30
0.0
 40
3.625
 50
46.397181027296369
 51
133.6028189727036
  0
ARC
  5
6CC
  8
DATA
 62
     7
 10
243.80000000000001
 20
473.37499999999989
 30
0.0
 40
3.625
 50
46.397181027296369
 51
133.6028189727036
  0
LINE
  5
6CD
  8
DATA
 62
     7
 10
214.80000000000001
 20
469.5
 30
0.0
 11
277.80000000000001
 21
469.5
 31
0.0
  0
LINE
  5
6CE
  8
DATA
 62
     7
 10
214.80000000000001
 20
477.5
 30
0.0
 11
277.80000000000001
 21
477.5
 31
0.0
  0
LINE
  5
6CF
  8
DATA
 62
     7
 10
216.30000000000001
 20
476.0
 30
0.0
 11
215.30000000000001
 21
476.0
 31
0.0
  0
LINE
  5
6D0
  8
DATA
 62
     7
 10
215.30000000000001
 20
476.0
 30
0.0
 11
215.30000000000001
 21
471.0
 31
0.0
  0
LINE
  5
6D1
  8
DATA
 62
     7
 10
277.30000000000001
 20
471.0
 30
0.0
 11
274.80000000000001
 21
471.0
 31
0.0
  0
LINE
  5
6D2
  8
DATA
 62
     7
 10
274.80000000000001
 20
471.0
 30
0.0
 11
275.30000000000001
 21
470.0
 31
0.0
  0
LINE
  5
6D3
  8
DATA
 62
     7
 10
272.30000000000001
 20
470.0
 30
0.0
 11
272.80000000000001
 21
471.0
 31
0.0
  0
LINE
  5
6D4
  8
DATA
 62
     7
 10
272.80000000000001
 20
471.0
 30
0.0
 11
269.80000000000001
 21
471.0
 31
0.0
  0
LINE
  5
6D5
  8
DATA
 62
     7
 10
269.80000000000001
 20
471.0
 30
0.0
 11
270.30000000000001
 21
470.0
 31
0.0
  0
LINE
  5
6D6
  8
DATA
 62
     7
 10
267.30000000000001
 20
470.0
 30
0.0
 11
267.80000000000001
 21
471.0
 31
0.0
  0
LINE
  5
6D7
  8
DATA
 62
     7
 10
267.80000000000001
 20
471.0
 30
0.0
 11
264.80000000000001
 21
471.0
 31
0.0
  0
LINE
  5
6D8
  8
DATA
 62
     7
 10
264.80000000000001
 20
471.0
 30
0.0
 11
265.30000000000001
 21
470.0
 31
0.0
  0
LINE
  5
6D9
  8
DATA
 62
     7
 10
262.30000000000001
 20
470.0
 30
0.0
 11
262.80000000000001
 21
471.0
 31
0.0
  0
LINE
  5
6DA
  8
DATA
 62
     7
 10
262.80000000000001
 20
471.0
 30
0.0
 11
259.80000000000001
 21
471.0
 31
0.0
  0
LINE
  5
6DB
  8
DATA
 62
     7
 10
259.80000000000001
 20
471.0
 30
0.0
 11
260.30000000000001
 21
470.0
 31
0.0
  0
LINE
  5
6DC
  8
DATA
 62
     7
 10
257.30000000000001
 20
470.0
 30
0.0
 11
257.80000000000001
 21
471.0
 31
0.0
  0
LINE
  5
6DD
  8
DATA
 62
     7
 10
257.80000000000001
 20
471.0
 30
0.0
 11
254.80000000000001
 21
471.0
 31
0.0
  0
LINE
  5
6DE
  8
DATA
 62
     7
 10
254.80000000000001
 20
471.0
 30
0.0
 11
255.30000000000001
 21
470.0
 31
0.0
  0
LINE
  5
6DF
  8
DATA
 62
     7
 10
252.30000000000001
 20
470.0
 30
0.0
 11
252.80000000000001
 21
471.0
 31
0.0
  0
LINE
  5
6E0
  8
DATA
 62
     7
 10
252.80000000000001
 20
471.0
 30
0.0
 11
249.80000000000001
 21
471.0
 31
0.0
  0
LINE
  5
6E1
  8
DATA
 62
     7
 10
249.80000000000001
 20
471.0
 30
0.0
 11
250.30000000000001
 21
470.0
 31
0.0
  0
POLYLINE
  5
6E2
  8
DATA
 62
     7
 66
     1
 10
0.0
 20
0.0
 30
0.0
 70
     1
  0
VERTEX
  5
BF8
  8
DATA
 62
     7
 10
273.30000000000001
 20
474.5
 30
0.0
  0
VERTEX
  5
BF9
  8
DATA
 62
     7
 10
274.30000000000013
 20
474.5
 30
0.0
  0
VERTEX
  5
BFA
  8
DATA
 62
     7
 10
274.30000000000013
 20
473.5
 30
0.0
  0
VERTEX
  5
BFB
  8
DATA
 62
     7
 10
273.30000000000001
 20
473.5
 30
0.0
  0
SEQEND
  5
BFC
  8
DATA
 62
     7
  0
POLYLINE
  5
6E8
  8
DATA
 62
     7
 66
     1
 10
0.0
 20
0.0
 30
0.0
 70
     1
  0
VERTEX
  5
BFD
  8
DATA
 62
     7
 10
268.30000000000001
 20
474.5
 30
0.0
  0
VERTEX
  5
BFE
  8
DATA
 62
     7
 10
269.30000000000013
 20
474.5
 30
0.0
  0
VERTEX
  5
BFF
  8
DATA
 62
     7
 10
269.30000000000013
 20
473.5
 30
0.0
  0
VERTEX
  5
C00
  8
DATA
 62
     7
 10
268.30000000000001
 20
473.5
 30
0.0
  0
SEQEND
  5
C01
  8
DATA
 62
     7
  0
POLYLINE
  5
6EE
  8
DATA
 62
     7
 66
     1
 10
0.0
 20
0.0
 30
0.0
 70
     1
  0
VERTEX
  5
C02
  8
DATA
 62
     7
 10
263.30000000000001
 20
474.5
 30
0.0
  0
VERTEX
  5
C03
  8
DATA
 62
     7
 10
264.30000000000013
 20
474.5
 30
0.0
  0
VERTEX
  5
C04
  8
DATA
 62
     7
 10
264.30000000000013
 20
473.5
 30
0.0
  0
VERTEX
  5
C05
  8
DATA
 62
     7
 10
263.30000000000001
 20
473.5
 30
0.0
  0
SEQEND
  5
C06
  8
DATA
 62
     7
  0
POLYLINE
  5
6F4
  8
DATA
 62
     7
 66
     1
 10
0.0
 20
0.0
 30
0.0
 70
     1
  0
VERTEX
  5
C07
  8
DATA
 62
     7
 10
258.30000000000001
 20
474.5
 30
0.0
  0
VERTEX
  5
C08
  8
DATA
 62
     7
 10
259.30000000000013
 20
474.5
 30
0.0
  0
VERTEX
  5
C09
  8
DATA
 62
     7
 10
259.30000000000013
 20
473.5
 30
0.0
  0
VERTEX
  5
C0A
  8
DATA
 62
     7
 10
258.30000000000001
 20
473.5
 30
0.0
  0
SEQEND
  5
C0B
  8
DATA
 62
     7
  0
POLYLINE
  5
6FA
  8
DATA
 62
     7
 66
     1
 10
0.0
 20
0.0
 30
0.0
 70
     1
  0
VERTEX
  5
C0C
  8
DATA
 62
     7
 10
253.30000000000001
 20
474.5
 30
0.0
  0
VERTEX
  5
C0D
  8
DATA
 62
     7
 10
254.3000000000001
 20
474.5
 30
0.0
  0
VERTEX
  5
C0E
  8
DATA
 62
     7
 10
254.3000000000001
 20
473.5
 30
0.0
  0
VERTEX
  5
C0F
  8
DATA
 62
     7
 10
253.30000000000001
 20
473.5
 30
0.0
  0
SEQEND
  5
C10
  8
DATA
 62
     7
  0
POLYLINE
  5
700
  8
DATA
 62
     7
 66
     1
 10
0.0
 20
0.0
 30
0.0
 70
     1
  0
VERTEX
  5
C11
  8
DATA
 62
     7
 10
248.30000000000001
 20
474.5
 30
0.0
  0
VERTEX
  5
C12
  8
DATA
 62
     7
 10
249.3000000000001
 20
474.5
 30
0.0
  0
VERTEX
  5
C13
  8
DATA
 62
     7
 10
249.3000000000001
 20
473.5
 30
0.0
  0
VERTEX
  5
C14
  8
DATA
 62
     7
 10
248.30000000000001
 20
473.5
 30
0.0
  0
SEQEND
  5
C15
  8
DATA
 62
     7
  0
LINE
  5
706
  8
DATA
 62
     7
 10
277.80000000000001
 20
469.5
 30
0.0
 11
277.80000000000001
 21
497.5
 31
0.0
  0
ARC
  5
707
  8
DATA
 62
     7
 10
273.80000000000001
 20
473.37499999999989
 30
0.0
 40
3.625
 50
46.397181027296369
 51
133.6028189727036
  0
ARC
  5
708
  8
DATA
 62
     7
 10
268.80000000000001
 20
473.37499999999989
 30
0.0
 40
3.625
 50
46.397181027296369
 51
133.6028189727036
  0
ARC
  5
709
  8
DATA
 62
     7
 10
263.80000000000001
 20
473.37499999999989
 30
0.0
 40
3.625
 50
46.397181027296369
 51
133.6028189727036
  0
ARC
  5
70A
  8
DATA
 62
     7
 10
258.80000000000001
 20
473.37499999999989
 30
0.0
 40
3.625
 50
46.397181027296369
 51
133.6028189727036
  0
ARC
  5
70B
  8
DATA
 62
     7
 10
253.80000000000001
 20
473.37499999999989
 30
0.0
 40
3.625
 50
46.397181027296369
 51
133.6028189727036
  0
ARC
  5
70C
  8
DATA
 62
     7
 10
248.80000000000001
 20
473.37499999999989
 30
0.0
 40
3.625
 50
46.397181027296369
 51
133.6028189727036
  0
LINE
  5
70D
  8
DATA
 62
     7
 10
276.30000000000001
 20
476.0
 30
0.0
 11
277.30000000000001
 21
476.0
 31
0.0
  0
LINE
  5
70E
  8
DATA
 62
     7
 10
277.30000000000001
 20
476.0
 30
0.0
 11
277.30000000000001
 21
471.0
 31
0.0
  0
LINE
  5
70F
  8
DATA
 62
     7
 10
245.30000000000001
 20
470.0
 30
0.0
 11
244.80000000000001
 21
471.0
 31
0.0
  0
LINE
  5
710
  8
DATA
 62
     7
 10
244.80000000000001
 20
471.0
 30
0.0
 11
247.80000000000001
 21
471.0
 31
0.0
  0
LINE
  5
711
  8
DATA
 62
     7
 10
247.80000000000001
 20
471.0
 30
0.0
 11
247.30000000000001
 21
470.0
 31
0.0
  0
LINE
  5
712
  8
DATA
 62
     7
 10
214.80000000000001
 20
486.5
 30
0.0
 11
277.80000000000001
 21
486.5
 31
0.0
  0
POLYLINE
  5
713
  8
DATA
 62
     7
 66
     1
 10
0.0
 20
0.0
 30
0.0
 70
     1
  0
VERTEX
  5
C16
  8
DATA
 62
     7
 10
323.80000000000001
 20
498.5
 30
0.0
  0
VERTEX
  5
C17
  8
DATA
 62
     7
 10
357.80000000000001
 20
498.5
 30
0.0
  0
VERTEX
  5
C18
  8
DATA
 62
     7
 10
357.80000000000001
 20
483.0
 30
0.0
  0
VERTEX
  5
C19
  8
DATA
 62
     7
 10
323.80000000000001
 20
483.0
 30
0.0
  0
SEQEND
  5
C1A
  8
DATA
 62
     7
  0
INSERT
  5
719
  8
DATA
 62
     7
  2
*U3
 10
370.0
 20
460.0
 30
0.0
  0
CIRCLE
  5
71A
  8
DATA
 62
     7
 10
380.80000000000001
 20
491.0
 30
0.0
 40
6.5
  0
POLYLINE
  5
71B
  8
DATA
 62
     7
 66
     1
 10
0.0
 20
0.0
 30
0.0
 70
     1
  0
VERTEX
  5
C1B
  8
DATA
 62
     7
 10
380.30000000000001
 20
493.5
 30
0.0
  0
VERTEX
  5
C1C
  8
DATA
 62
     7
 10
381.30000000000001
 20
493.5
 30
0.0
  0
VERTEX
  5
C1D
  8
DATA
 62
     7
 10
381.30000000000001
 20
488.49999999999989
 30
0.0
  0
VERTEX
  5
C1E
  8
DATA
 62
     7
 10
380.30000000000001
 20
488.49999999999989
 30
0.0
  0
SEQEND
  5
C1F
  8
DATA
 62
     7
  0
CIRCLE
  5
721
  8
DATA
 62
     7
 10
380.80000000000001
 20
491.0
 30
0.0
 40
4.9999999999999991
  0
LINE
  5
722
  8
DATA
 62
     7
 10
403.30000000000001
 20
493.0
 30
0.0
 11
431.30000000000001
 21
493.0
 31
0.0
  0
LINE
  5
723
  8
DATA
 62
     7
 10
434.2999999999999
 20
490.0
 30
0.0
 11
434.2999999999999
 21
474.0
 31
0.0
  0
LINE
  5
724
  8
DATA
 62
     7
 10
431.30000000000001
 20
471.0
 30
0.0
 11
403.30000000000001
 21
471.0
 31
0.0
  0
LINE
  5
725
  8
DATA
 62
     7
 10
400.30000000000001
 20
490.0
 30
0.0
 11
400.30000000000001
 21
474.0
 31
0.0
  0
ARC
  5
726
  8
DATA
 62
     7
 10
431.30000000000001
 20
490.0
 30
0.0
 40
3.0
 50
0.0
 51
90.0
  0
ARC
  5
727
  8
DATA
 62
     7
 10
431.30000000000001
 20
474.0
 30
0.0
 40
3.0
 50
270.0
 51
0.0
  0
ARC
  5
728
  8
DATA
 62
     7
 10
403.30000000000001
 20
474.0
 30
0.0
 40
3.0
 50
180.0
 51
270.0
  0
ARC
  5
729
  8
DATA
 62
     7
 10
403.30000000000001
 20
490.0
 30
0.0
 40
3.0
 50
90.0
 51
180.0
  0
CIRCLE
  5
72A
  8
DATA
 62
     7
 10
313.80000000000001
 20
475.0
 30
0.0
 40
6.0
  0
CIRCLE
  5
72B
  8
DATA
 62
     7
 10
397.30000000000001
 20
482.0
 30
0.0
 40
2.999999999999996
  0
POLYLINE
  5
72C
  8
DATA
 62
     7
 66
     1
 10
0.0
 20
0.0
 30
0.0
  0
VERTEX
  5
C20
  8
DATA
 62
     7
 10
397.80000000000001
 20
482.5
 30
0.0
  0
VERTEX
  5
C21
  8
DATA
 62
     7
 10
397.80000000000001
 20
483.49999999999989
 30
0.0
  0
VERTEX
  5
C22
  8
DATA
 62
     7
 10
396.80000000000001
 20
483.49999999999989
 30
0.0
  0
VERTEX
  5
C23
  8
DATA
 62
     7
 10
396.80000000000001
 20
482.5
 30
0.0
  0
SEQEND
  5
C24
  8
DATA
 62
     7
  0
POLYLINE
  5
732
  8
DATA
 62
     7
 66
     1
 10
0.0
 20
0.0
 30
0.0
  0
VERTEX
  5
C25
  8
DATA
 62
     7
 10
397.80000000000001
 20
481.5
 30
0.0
  0
VERTEX
  5
C26
  8
DATA
 62
     7
 10
397.80000000000001
 20
480.49999999999989
 30
0.0
  0
VERTEX
  5
C27
  8
DATA
 62
     7
 10
396.80000000000001
 20
480.49999999999989
 30
0.0
  0
VERTEX
  5
C28
  8
DATA
 62
     7
 10
396.80000000000001
 20
481.5
 30
0.0
  0
SEQEND
  5
C29
  8
DATA
 62
     7
  0
CIRCLE
  5
738
  8
DATA
 62
     7
 10
397.30000000000001
 20
482.0
 30
0.0
 40
2.999999999999996
  0
POLYLINE
  5
739
  8
DATA
 62
     7
 66
     1
 10
0.0
 20
0.0
 30
0.0
  0
VERTEX
  5
C2A
  8
DATA
 62
     7
 10
397.80000000000001
 20
481.5
 30
0.0
  0
VERTEX
  5
C2B
  8
DATA
 62
     7
 10
398.80000000000001
 20
481.5
 30
0.0
  0
VERTEX
  5
C2C
  8
DATA
 62
     7
 10
398.80000000000001
 20
482.5
 30
0.0
  0
VERTEX
  5
C2D
  8
DATA
 62
     7
 10
397.80000000000001
 20
482.5
 30
0.0
  0
SEQEND
  5
C2E
  8
DATA
 62
     7
  0
POLYLINE
  5
73F
  8
DATA
 62
     7
 66
     1
 10
0.0
 20
0.0
 30
0.0
  0
VERTEX
  5
C2F
  8
DATA
 62
     7
 10
396.80000000000001
 20
481.5
 30
0.0
  0
VERTEX
  5
C30
  8
DATA
 62
     7
 10
395.80000000000001
 20
481.5
 30
0.0
  0
VERTEX
  5
C31
  8
DATA
 62
     7
 10
395.80000000000001
 20
482.5
 30
0.0
  0
VERTEX
  5
C32
  8
DATA
 62
     7
 10
396.80000000000001
 20
482.5
 30
0.0
  0
SEQEND
  5
C33
  8
DATA
 62
     7
  0
CIRCLE
  5
745
  8
DATA
 62
     7
 10
282.80000000000001
 20
475.0
 30
0.0
 40
2.9999999999999929
  0
POLYLINE
  5
746
  8
DATA
 62
     7
 66
     1
 10
0.0
 20
0.0
 30
0.0
  0
VERTEX
  5
C34
  8
DATA
 62
     7
 10
283.30000000000001
 20
475.49999999999989
 30
0.0
  0
VERTEX
  5
C35
  8
DATA
 62
     7
 10
283.30000000000001
 20
476.49999999999989
 30
0.0
  0
VERTEX
  5
C36
  8
DATA
 62
     7
 10
282.30000000000001
 20
476.49999999999989
 30
0.0
  0
VERTEX
  5
C37
  8
DATA
 62
     7
 10
282.30000000000001
 20
475.49999999999989
 30
0.0
  0
SEQEND
  5
C38
  8
DATA
 62
     7
  0
POLYLINE
  5
74C
  8
DATA
 62
     7
 66
     1
 10
0.0
 20
0.0
 30
0.0
  0
VERTEX
  5
C39
  8
DATA
 62
     7
 10
283.30000000000001
 20
474.5
 30
0.0
  0
VERTEX
  5
C3A
  8
DATA
 62
     7
 10
283.30000000000001
 20
473.5
 30
0.0
  0
VERTEX
  5
C3B
  8
DATA
 62
     7
 10
282.30000000000001
 20
473.5
 30
0.0
  0
VERTEX
  5
C3C
  8
DATA
 62
     7
 10
282.30000000000001
 20
474.5
 30
0.0
  0
SEQEND
  5
C3D
  8
DATA
 62
     7
  0
CIRCLE
  5
752
  8
DATA
 62
     7
 10
282.80000000000001
 20
475.0
 30
0.0
 40
3.0
  0
POLYLINE
  5
753
  8
DATA
 62
     7
 66
     1
 10
0.0
 20
0.0
 30
0.0
  0
VERTEX
  5
C3E
  8
DATA
 62
     7
 10
283.30000000000001
 20
474.5
 30
0.0
  0
VERTEX
  5
C3F
  8
DATA
 62
     7
 10
284.30000000000001
 20
474.5
 30
0.0
  0
VERTEX
  5
C40
  8
DATA
 62
     7
 10
284.30000000000001
 20
475.49999999999989
 30
0.0
  0
VERTEX
  5
C41
  8
DATA
 62
     7
 10
283.30000000000001
 20
475.49999999999989
 30
0.0
  0
SEQEND
  5
C42
  8
DATA
 62
     7
  0
POLYLINE
  5
759
  8
DATA
 62
     7
 66
     1
 10
0.0
 20
0.0
 30
0.0
  0
VERTEX
  5
C43
  8
DATA
 62
     7
 10
282.30000000000001
 20
474.5
 30
0.0
  0
VERTEX
  5
C44
  8
DATA
 62
     7
 10
281.30000000000001
 20
474.5
 30
0.0
  0
VERTEX
  5
C45
  8
DATA
 62
     7
 10
281.30000000000001
 20
475.49999999999989
 30
0.0
  0
VERTEX
  5
C46
  8
DATA
 62
     7
 10
282.30000000000001
 20
475.49999999999989
 30
0.0
  0
SEQEND
  5
C47
  8
DATA
 62
     7
  0
CIRCLE
  5
75F
  8
DATA
 62
     7
 10
209.80000000000001
 20
475.0
 30
0.0
 40
2.9999999999999929
  0
POLYLINE
  5
760
  8
DATA
 62
     7
 66
     1
 10
0.0
 20
0.0
 30
0.0
  0
VERTEX
  5
C48
  8
DATA
 62
     7
 10
210.30000000000001
 20
475.49999999999989
 30
0.0
  0
VERTEX
  5
C49
  8
DATA
 62
     7
 10
210.30000000000001
 20
476.49999999999989
 30
0.0
  0
VERTEX
  5
C4A
  8
DATA
 62
     7
 10
209.30000000000001
 20
476.49999999999989
 30
0.0
  0
VERTEX
  5
C4B
  8
DATA
 62
     7
 10
209.30000000000001
 20
475.49999999999989
 30
0.0
  0
SEQEND
  5
C4C
  8
DATA
 62
     7
  0
POLYLINE
  5
766
  8
DATA
 62
     7
 66
     1
 10
0.0
 20
0.0
 30
0.0
  0
VERTEX
  5
C4D
  8
DATA
 62
     7
 10
210.30000000000001
 20
474.5
 30
0.0
  0
VERTEX
  5
C4E
  8
DATA
 62
     7
 10
210.30000000000001
 20
473.5
 30
0.0
  0
VERTEX
  5
C4F
  8
DATA
 62
     7
 10
209.30000000000001
 20
473.5
 30
0.0
  0
VERTEX
  5
C50
  8
DATA
 62
     7
 10
209.30000000000001
 20
474.5
 30
0.0
  0
SEQEND
  5
C51
  8
DATA
 62
     7
  0
CIRCLE
  5
76C
  8
DATA
 62
     7
 10
209.80000000000001
 20
475.0
 30
0.0
 40
3.0
  0
POLYLINE
  5
76D
  8
DATA
 62
     7
 66
     1
 10
0.0
 20
0.0
 30
0.0
  0
VERTEX
  5
C52
  8
DATA
 62
     7
 10
210.30000000000001
 20
474.5
 30
0.0
  0
VERTEX
  5
C53
  8
DATA
 62
     7
 10
211.30000000000001
 20
474.5
 30
0.0
  0
VERTEX
  5
C54
  8
DATA
 62
     7
 10
211.30000000000001
 20
475.49999999999989
 30
0.0
  0
VERTEX
  5
C55
  8
DATA
 62
     7
 10
210.30000000000001
 20
475.49999999999989
 30
0.0
  0
SEQEND
  5
C56
  8
DATA
 62
     7
  0
POLYLINE
  5
773
  8
DATA
 62
     7
 66
     1
 10
0.0
 20
0.0
 30
0.0
  0
VERTEX
  5
C57
  8
DATA
 62
     7
 10
209.30000000000001
 20
474.5
 30
0.0
  0
VERTEX
  5
C58
  8
DATA
 62
     7
 10
208.30000000000001
 20
474.5
 30
0.0
  0
VERTEX
  5
C59
  8
DATA
 62
     7
 10
208.30000000000001
 20
475.49999999999989
 30
0.0
  0
VERTEX
  5
C5A
  8
DATA
 62
     7
 10
209.30000000000001
 20
475.49999999999989
 30
0.0
  0
SEQEND
  5
C5B
  8
DATA
 62
     7
  0
TEXT
  5
779
  8
DATA
 62
     7
 10
55.300000000000011
 20
469.89401076758548
 30
0.0
 40
2.7999999999999998
  1
In 1
 50
180.0
 41
0.8
 11
55.300000000000011
 21
467.09401076758547
 31
0.0
 73
     3
  0
TEXT
  5
77A
  8
DATA
 62
     7
 10
70.300000000000011
 20
469.89401076758548
 30
0.0
 40
2.7999999999999998
  1
In 2
 50
180.0
 41
0.8
 11
70.300000000000011
 21
467.09401076758547
 31
0.0
 73
     3
  0
TEXT
  5
77B
  8
DATA
 62
     7
 10
56.300000000000011
 20
487.89401076758548
 30
0.0
 40
2.7999999999999998
  1
Out 1
 50
180.0
 41
0.8
 11
56.300000000000011
 21
485.09401076758547
 31
0.0
 73
     3
  0
TEXT
  5
77C
  8
DATA
 62
     7
 10
71.300000000000026
 20
487.89401076758548
 30
0.0
 40
2.7999999999999998
  1
Out 2
 50
180.0
 41
0.8
 11
71.300000000000026
 21
485.09401076758547
 31
0.0
 73
     3
  0
TEXT
  5
77D
  8
DATA
 62
     7
 10
47.800000000000011
 20
500.55000000000001
 30
0.0
 40
2.7999999999999998
  1
-
 50
180.0
 41
0.8
 11
47.800000000000011
 21
497.75
 31
0.0
 73
     3
  0
TEXT
  5
77E
  8
DATA
 62
     7
 10
52.675000000000011
 20
500.55000000000001
 30
0.0
 40
2.7999999999999998
  1
+
 50
180.0
 41
0.8
 11
52.675000000000011
 21
497.75
 31
0.0
 73
     3
  0
TEXT
  5
77F
  8
DATA
 62
     7
 10
57.800000000000011
 20
500.55000000000001
 30
0.0
 40
2.7999999999999998
  1
S
 50
180.0
 41
0.8
 11
57.800000000000011
 21
497.75
 31
0.0
 73
     3
  0
TEXT
  5
780
  8
DATA
 62
     7
 10
62.675000000000011
 20
500.55000000000001
 30
0.0
 40
2.7999999999999998
  1
-
 50
180.0
 41
0.8
 11
62.675000000000011
 21
497.75
 31
0.0
 73
     3
  0
TEXT
  5
781
  8
DATA
 62
     7
 10
67.550000000000011
 20
500.55000000000001
 30
0.0
 40
2.7999999999999998
  1
+
 50
180.0
 41
0.8
 11
67.550000000000011
 21
497.75
 31
0.0
 73
     3
  0
TEXT
  5
782
  8
DATA
 62
     7
 10
72.675000000000026
 20
500.55000000000001
 30
0.0
 40
2.7999999999999998
  1
S
 50
180.0
 41
0.8
 11
72.675000000000026
 21
497.75
 31
0.0
 73
     3
  0
LINE
  5
783
  8
DATA
 62
     7
 10
44.300000000000011
 20
498.125
 30
0.0
 11
44.300000000000011
 21
501.625
 31
0.0
  0
LINE
  5
784
  8
DATA
 62
     7
 10
44.300000000000011
 20
501.49999999999989
 30
0.0
 11
74.300000000000026
 21
501.49999999999989
 31
0.0
  0
LINE
  5
785
  8
DATA
 62
     7
 10
74.300000000000026
 20
501.49999999999989
 30
0.0
 11
74.300000000000026
 21
498.0
 31
0.0
  0
TEXT
  5
786
  8
DATA
 62
     7
 10
47.800000000000011
 20
482.5499999999999
 30
0.0
 40
2.7999999999999998
  1
-
 50
180.0
 41
0.8
 11
47.800000000000011
 21
479.75
 31
0.0
 73
     3
  0
TEXT
  5
787
  8
DATA
 62
     7
 10
52.675000000000011
 20
482.5499999999999
 30
0.0
 40
2.7999999999999998
  1
+
 50
180.0
 41
0.8
 11
52.675000000000011
 21
479.75
 31
0.0
 73
     3
  0
TEXT
  5
788
  8
DATA
 62
     7
 10
57.800000000000011
 20
482.5499999999999
 30
0.0
 40
2.7999999999999998
  1
S
 50
180.0
 41
0.8
 11
57.800000000000011
 21
479.75
 31
0.0
 73
     3
  0
TEXT
  5
789
  8
DATA
 62
     7
 10
62.675000000000011
 20
482.5499999999999
 30
0.0
 40
2.7999999999999998
  1
-
 50
180.0
 41
0.8
 11
62.675000000000011
 21
479.75
 31
0.0
 73
     3
  0
TEXT
  5
78A
  8
DATA
 62
     7
 10
67.550000000000011
 20
482.5499999999999
 30
0.0
 40
2.7999999999999998
  1
+
 50
180.0
 41
0.8
 11
67.550000000000011
 21
479.75
 31
0.0
 73
     3
  0
TEXT
  5
78B
  8
DATA
 62
     7
 10
72.675000000000026
 20
482.5499999999999
 30
0.0
 40
2.7999999999999998
  1
S
 50
180.0
 41
0.8
 11
72.675000000000026
 21
479.75
 31
0.0
 73
     3
  0
LINE
  5
78C
  8
DATA
 62
     7
 10
44.300000000000011
 20
480.125
 30
0.0
 11
44.300000000000011
 21
483.62499999999989
 31
0.0
  0
LINE
  5
78D
  8
DATA
 62
     7
 10
44.300000000000011
 20
483.49999999999989
 30
0.0
 11
74.300000000000026
 21
483.49999999999989
 31
0.0
  0
LINE
  5
78E
  8
DATA
 62
     7
 10
74.300000000000026
 20
483.49999999999989
 30
0.0
 11
74.300000000000026
 21
480.0
 31
0.0
  0
TEXT
  5
78F
  8
DATA
 62
     7
 10
88.800000000000026
 20
482.5499999999999
 30
0.0
 40
2.7999999999999998
  1
-
 50
180.0
 41
0.8
 11
88.800000000000026
 21
479.75
 31
0.0
 73
     3
  0
TEXT
  5
790
  8
DATA
 62
     7
 10
93.674999999999983
 20
482.5499999999999
 30
0.0
 40
2.7999999999999998
  1
+
 50
180.0
 41
0.8
 11
93.674999999999983
 21
479.75
 31
0.0
 73
     3
  0
TEXT
  5
791
  8
DATA
 62
     7
 10
98.799999999999997
 20
482.5499999999999
 30
0.0
 40
2.7999999999999998
  1
S
 50
180.0
 41
0.8
 11
98.799999999999997
 21
479.75
 31
0.0
 73
     3
  0
TEXT
  5
792
  8
DATA
 62
     7
 10
103.675
 20
482.5499999999999
 30
0.0
 40
2.7999999999999998
  1
-
 50
180.0
 41
0.8
 11
103.675
 21
479.75
 31
0.0
 73
     3
  0
TEXT
  5
793
  8
DATA
 62
     7
 10
108.55
 20
482.5499999999999
 30
0.0
 40
2.7999999999999998
  1
+
 50
180.0
 41
0.8
 11
108.55
 21
479.75
 31
0.0
 73
     3
  0
TEXT
  5
794
  8
DATA
 62
     7
 10
113.675
 20
482.5499999999999
 30
0.0
 40
2.7999999999999998
  1
S
 50
180.0
 41
0.8
 11
113.675
 21
479.75
 31
0.0
 73
     3
  0
LINE
  5
795
  8
DATA
 62
     7
 10
85.300000000000026
 20
480.125
 30
0.0
 11
85.300000000000026
 21
483.62499999999989
 31
0.0
  0
LINE
  5
796
  8
DATA
 62
     7
 10
85.300000000000026
 20
483.49999999999989
 30
0.0
 11
115.3
 21
483.49999999999989
 31
0.0
  0
LINE
  5
797
  8
DATA
 62
     7
 10
115.3
 20
483.49999999999989
 30
0.0
 11
115.3
 21
480.0
 31
0.0
  0
TEXT
  5
798
  8
DATA
 62
     7
 10
88.800000000000026
 20
500.55000000000001
 30
0.0
 40
2.7999999999999998
  1
-
 50
180.0
 41
0.8
 11
88.800000000000026
 21
497.75
 31
0.0
 73
     3
  0
TEXT
  5
799
  8
DATA
 62
     7
 10
93.674999999999983
 20
500.55000000000001
 30
0.0
 40
2.7999999999999998
  1
+
 50
180.0
 41
0.8
 11
93.674999999999983
 21
497.75
 31
0.0
 73
     3
  0
TEXT
  5
79A
  8
DATA
 62
     7
 10
98.799999999999997
 20
500.55000000000001
 30
0.0
 40
2.7999999999999998
  1
S
 50
180.0
 41
0.8
 11
98.799999999999997
 21
497.75
 31
0.0
 73
     3
  0
TEXT
  5
79B
  8
DATA
 62
     7
 10
103.675
 20
500.55000000000001
 30
0.0
 40
2.7999999999999998
  1
-
 50
180.0
 41
0.8
 11
103.675
 21
497.75
 31
0.0
 73
     3
  0
TEXT
  5
79C
  8
DATA
 62
     7
 10
108.55
 20
500.55000000000001
 30
0.0
 40
2.7999999999999998
  1
+
 50
180.0
 41
0.8
 11
108.55
 21
497.75
 31
0.0
 73
     3
  0
TEXT
  5
79D
  8
DATA
 62
     7
 10
113.675
 20
500.55000000000001
 30
0.0
 40
2.7999999999999998
  1
S
 50
180.0
 41
0.8
 11
113.675
 21
497.75
 31
0.0
 73
     3
  0
LINE
  5
79E
  8
DATA
 62
     7
 10
85.300000000000026
 20
498.125
 30
0.0
 11
85.300000000000026
 21
501.625
 31
0.0
  0
LINE
  5
79F
  8
DATA
 62
     7
 10
85.300000000000026
 20
501.49999999999989
 30
0.0
 11
115.3
 21
501.49999999999989
 31
0.0
  0
LINE
  5
7A0
  8
DATA
 62
     7
 10
115.3
 20
501.49999999999989
 30
0.0
 11
115.3
 21
498.0
 31
0.0
  0
TEXT
  5
7A1
  8
DATA
 62
     7
 10
96.299999999999997
 20
469.89401076758548
 30
0.0
 40
2.7999999999999998
  1
In 3
 50
180.0
 41
0.8
 11
96.299999999999997
 21
467.09401076758547
 31
0.0
 73
     3
  0
TEXT
  5
7A2
  8
DATA
 62
     7
 10
111.3
 20
469.89401076758548
 30
0.0
 40
2.7999999999999998
  1
In 4
 50
180.0
 41
0.8
 11
111.3
 21
467.09401076758547
 31
0.0
 73
     3
  0
TEXT
  5
7A3
  8
DATA
 62
     7
 10
97.299999999999997
 20
487.89401076758548
 30
0.0
 40
2.7999999999999998
  1
Out 3
 50
180.0
 41
0.8
 11
97.299999999999997
 21
485.09401076758547
 31
0.0
 73
     3
  0
TEXT
  5
7A4
  8
DATA
 62
     7
 10
112.3
 20
487.89401076758548
 30
0.0
 40
2.7999999999999998
  1
Out 4
 50
180.0
 41
0.8
 11
112.3
 21
485.09401076758547
 31
0.0
 73
     3
  0
TEXT
  5
7A5
  8
DATA
 62
     7
 10
144.30000000000001
 20
469.89401076758548
 30
0.0
 40
2.7999999999999998
  1
In 5
 50
180.0
 41
0.8
 11
144.30000000000001
 21
467.09401076758547
 31
0.0
 73
     3
  0
TEXT
  5
7A6
  8
DATA
 62
     7
 10
159.30000000000001
 20
469.89401076758548
 30
0.0
 40
2.7999999999999998
  1
In 6
 50
180.0
 41
0.8
 11
159.30000000000001
 21
467.09401076758547
 31
0.0
 73
     3
  0
TEXT
  5
7A7
  8
DATA
 62
     7
 10
145.30000000000001
 20
487.89401076758548
 30
0.0
 40
2.7999999999999998
  1
Out 5
 50
180.0
 41
0.8
 11
145.30000000000001
 21
485.09401076758547
 31
0.0
 73
     3
  0
TEXT
  5
7A8
  8
DATA
 62
     7
 10
160.30000000000001
 20
487.89401076758548
 30
0.0
 40
2.7999999999999998
  1
Out 6
 50
180.0
 41
0.8
 11
160.30000000000001
 21
485.09401076758547
 31
0.0
 73
     3
  0
TEXT
  5
7A9
  8
DATA
 62
     7
 10
136.80000000000001
 20
500.55000000000001
 30
0.0
 40
2.7999999999999998
  1
-
 50
180.0
 41
0.8
 11
136.80000000000001
 21
497.75
 31
0.0
 73
     3
  0
TEXT
  5
7AA
  8
DATA
 62
     7
 10
141.67500000000001
 20
500.55000000000001
 30
0.0
 40
2.7999999999999998
  1
+
 50
180.0
 41
0.8
 11
141.67500000000001
 21
497.75
 31
0.0
 73
     3
  0
TEXT
  5
7AB
  8
DATA
 62
     7
 10
146.80000000000001
 20
500.55000000000001
 30
0.0
 40
2.7999999999999998
  1
S
 50
180.0
 41
0.8
 11
146.80000000000001
 21
497.75
 31
0.0
 73
     3
  0
TEXT
  5
7AC
  8
DATA
 62
     7
 10
151.67500000000001
 20
500.55000000000001
 30
0.0
 40
2.7999999999999998
  1
-
 50
180.0
 41
0.8
 11
151.67500000000001
 21
497.75
 31
0.0
 73
     3
  0
TEXT
  5
7AD
  8
DATA
 62
     7
 10
156.55000000000001
 20
500.55000000000001
 30
0.0
 40
2.7999999999999998
  1
+
 50
180.0
 41
0.8
 11
156.55000000000001
 21
497.75
 31
0.0
 73
     3
  0
TEXT
  5
7AE
  8
DATA
 62
     7
 10
161.67500000000001
 20
500.55000000000001
 30
0.0
 40
2.7999999999999998
  1
S
 50
180.0
 41
0.8
 11
161.67500000000001
 21
497.75
 31
0.0
 73
     3
  0
LINE
  5
7AF
  8
DATA
 62
     7
 10
133.30000000000001
 20
498.125
 30
0.0
 11
133.30000000000001
 21
501.625
 31
0.0
  0
LINE
  5
7B0
  8
DATA
 62
     7
 10
133.30000000000001
 20
501.49999999999989
 30
0.0
 11
163.30000000000001
 21
501.49999999999989
 31
0.0
  0
LINE
  5
7B1
  8
DATA
 62
     7
 10
163.30000000000001
 20
501.49999999999989
 30
0.0
 11
163.30000000000001
 21
498.0
 31
0.0
  0
TEXT
  5
7B2
  8
DATA
 62
     7
 10
136.80000000000001
 20
482.5499999999999
 30
0.0
 40
2.7999999999999998
  1
-
 50
180.0
 41
0.8
 11
136.80000000000001
 21
479.75
 31
0.0
 73
     3
  0
TEXT
  5
7B3
  8
DATA
 62
     7
 10
141.67500000000001
 20
482.5499999999999
 30
0.0
 40
2.7999999999999998
  1
+
 50
180.0
 41
0.8
 11
141.67500000000001
 21
479.75
 31
0.0
 73
     3
  0
TEXT
  5
7B4
  8
DATA
 62
     7
 10
146.80000000000001
 20
482.5499999999999
 30
0.0
 40
2.7999999999999998
  1
S
 50
180.0
 41
0.8
 11
146.80000000000001
 21
479.75
 31
0.0
 73
     3
  0
TEXT
  5
7B5
  8
DATA
 62
     7
 10
151.67500000000001
 20
482.5499999999999
 30
0.0
 40
2.7999999999999998
  1
-
 50
180.0
 41
0.8
 11
151.67500000000001
 21
479.75
 31
0.0
 73
     3
  0
TEXT
  5
7B6
  8
DATA
 62
     7
 10
156.55000000000001
 20
482.5499999999999
 30
0.0
 40
2.7999999999999998
  1
+
 50
180.0
 41
0.8
 11
156.55000000000001
 21
479.75
 31
0.0
 73
     3
  0
TEXT
  5
7B7
  8
DATA
 62
     7
 10
161.67500000000001
 20
482.5499999999999
 30
0.0
 40
2.7999999999999998
  1
S
 50
180.0
 41
0.8
 11
161.67500000000001
 21
479.75
 31
0.0
 73
     3
  0
LINE
  5
7B8
  8
DATA
 62
     7
 10
133.30000000000001
 20
480.125
 30
0.0
 11
133.30000000000001
 21
483.62499999999989
 31
0.0
  0
LINE
  5
7B9
  8
DATA
 62
     7
 10
133.30000000000001
 20
483.49999999999989
 30
0.0
 11
163.30000000000001
 21
483.49999999999989
 31
0.0
  0
LINE
  5
7BA
  8
DATA
 62
     7
 10
163.30000000000001
 20
483.49999999999989
 30
0.0
 11
163.30000000000001
 21
480.0
 31
0.0
  0
TEXT
  5
7BB
  8
DATA
 62
     7
 10
177.80000000000001
 20
482.5499999999999
 30
0.0
 40
2.7999999999999998
  1
-
 50
180.0
 41
0.8
 11
177.80000000000001
 21
479.75
 31
0.0
 73
     3
  0
TEXT
  5
7BC
  8
DATA
 62
     7
 10
182.67500000000001
 20
482.5499999999999
 30
0.0
 40
2.7999999999999998
  1
+
 50
180.0
 41
0.8
 11
182.67500000000001
 21
479.75
 31
0.0
 73
     3
  0
TEXT
  5
7BD
  8
DATA
 62
     7
 10
187.80000000000001
 20
482.5499999999999
 30
0.0
 40
2.7999999999999998
  1
S
 50
180.0
 41
0.8
 11
187.80000000000001
 21
479.75
 31
0.0
 73
     3
  0
TEXT
  5
7BE
  8
DATA
 62
     7
 10
192.67500000000001
 20
482.5499999999999
 30
0.0
 40
2.7999999999999998
  1
-
 50
180.0
 41
0.8
 11
192.67500000000001
 21
479.75
 31
0.0
 73
     3
  0
TEXT
  5
7BF
  8
DATA
 62
     7
 10
197.55000000000001
 20
482.5499999999999
 30
0.0
 40
2.7999999999999998
  1
+
 50
180.0
 41
0.8
 11
197.55000000000001
 21
479.75
 31
0.0
 73
     3
  0
TEXT
  5
7C0
  8
DATA
 62
     7
 10
202.67500000000001
 20
482.5499999999999
 30
0.0
 40
2.7999999999999998
  1
S
 50
180.0
 41
0.8
 11
202.67500000000001
 21
479.75
 31
0.0
 73
     3
  0
LINE
  5
7C1
  8
DATA
 62
     7
 10
174.30000000000001
 20
480.125
 30
0.0
 11
174.30000000000001
 21
483.62499999999989
 31
0.0
  0
LINE
  5
7C2
  8
DATA
 62
     7
 10
174.30000000000001
 20
483.49999999999989
 30
0.0
 11
204.30000000000001
 21
483.49999999999989
 31
0.0
  0
LINE
  5
7C3
  8
DATA
 62
     7
 10
204.30000000000001
 20
483.49999999999989
 30
0.0
 11
204.30000000000001
 21
480.0
 31
0.0
  0
TEXT
  5
7C4
  8
DATA
 62
     7
 10
177.80000000000001
 20
500.55000000000001
 30
0.0
 40
2.7999999999999998
  1
-
 50
180.0
 41
0.8
 11
177.80000000000001
 21
497.75
 31
0.0
 73
     3
  0
TEXT
  5
7C5
  8
DATA
 62
     7
 10
182.67500000000001
 20
500.55000000000001
 30
0.0
 40
2.7999999999999998
  1
+
 50
180.0
 41
0.8
 11
182.67500000000001
 21
497.75
 31
0.0
 73
     3
  0
TEXT
  5
7C6
  8
DATA
 62
     7
 10
187.80000000000001
 20
500.55000000000001
 30
0.0
 40
2.7999999999999998
  1
S
 50
180.0
 41
0.8
 11
187.80000000000001
 21
497.75
 31
0.0
 73
     3
  0
TEXT
  5
7C7
  8
DATA
 62
     7
 10
192.67500000000001
 20
500.55000000000001
 30
0.0
 40
2.7999999999999998
  1
-
 50
180.0
 41
0.8
 11
192.67500000000001
 21
497.75
 31
0.0
 73
     3
  0
TEXT
  5
7C8
  8
DATA
 62
     7
 10
197.55000000000001
 20
500.55000000000001
 30
0.0
 40
2.7999999999999998
  1
+
 50
180.0
 41
0.8
 11
197.55000000000001
 21
497.75
 31
0.0
 73
     3
  0
TEXT
  5
7C9
  8
DATA
 62
     7
 10
202.67500000000001
 20
500.55000000000001
 30
0.0
 40
2.7999999999999998
  1
S
 50
180.0
 41
0.8
 11
202.67500000000001
 21
497.75
 31
0.0
 73
     3
  0
LINE
  5
7CA
  8
DATA
 62
     7
 10
174.30000000000001
 20
498.125
 30
0.0
 11
174.30000000000001
 21
501.625
 31
0.0
  0
LINE
  5
7CB
  8
DATA
 62
     7
 10
174.30000000000001
 20
501.49999999999989
 30
0.0
 11
204.30000000000001
 21
501.49999999999989
 31
0.0
  0
LINE
  5
7CC
  8
DATA
 62
     7
 10
204.30000000000001
 20
501.49999999999989
 30
0.0
 11
204.30000000000001
 21
498.0
 31
0.0
  0
TEXT
  5
7CD
  8
DATA
 62
     7
 10
185.30000000000001
 20
469.89401076758548
 30
0.0
 40
2.7999999999999998
  1
In 7
 50
180.0
 41
0.8
 11
185.30000000000001
 21
467.09401076758547
 31
0.0
 73
     3
  0
TEXT
  5
7CE
  8
DATA
 62
     7
 10
200.30000000000001
 20
469.89401076758548
 30
0.0
 40
2.7999999999999998
  1
In 8
 50
180.0
 41
0.8
 11
200.30000000000001
 21
467.09401076758547
 31
0.0
 73
     3
  0
TEXT
  5
7CF
  8
DATA
 62
     7
 10
186.30000000000001
 20
487.89401076758548
 30
0.0
 40
2.7999999999999998
  1
Out 7
 50
180.0
 41
0.8
 11
186.30000000000001
 21
485.09401076758547
 31
0.0
 73
     3
  0
TEXT
  5
7D0
  8
DATA
 62
     7
 10
201.30000000000001
 20
487.89401076758548
 30
0.0
 40
2.7999999999999998
  1
Out 8
 50
180.0
 41
0.8
 11
201.30000000000001
 21
485.09401076758547
 31
0.0
 73
     3
  0
LINE
  5
7D1
  8
DATA
 62
     7
 10
209.80000000000001
 20
478.5
 30
0.0
 11
209.80000000000001
 21
480.49999999999989
 31
0.0
  0
LINE
  5
7D2
  8
DATA
 62
     7
 10
207.30000000000001
 20
480.49999999999989
 30
0.0
 11
212.30000000000001
 21
480.49999999999989
 31
0.0
  0
LINE
  5
7D3
  8
DATA
 62
     7
 10
207.30000000000001
 20
480.49999999999989
 30
0.0
 11
208.80000000000001
 21
483.0980762113532
 31
0.0
  0
LINE
  5
7D4
  8
DATA
 62
     7
 10
209.80000000000001
 20
480.49999999999989
 30
0.0
 11
211.30000000000001
 21
483.0980762113532
 31
0.0
  0
LINE
  5
7D5
  8
DATA
 62
     7
 10
212.30000000000001
 20
480.49999999999989
 30
0.0
 11
213.80000000000001
 21
483.0980762113532
 31
0.0
  0
LINE
  5
7D6
  8
DATA
 62
     7
 10
282.80000000000001
 20
478.5
 30
0.0
 11
282.80000000000001
 21
480.49999999999989
 31
0.0
  0
LINE
  5
7D7
  8
DATA
 62
     7
 10
280.30000000000001
 20
480.49999999999989
 30
0.0
 11
285.30000000000001
 21
480.49999999999989
 31
0.0
  0
LINE
  5
7D8
  8
DATA
 62
     7
 10
280.30000000000001
 20
480.49999999999989
 30
0.0
 11
281.80000000000001
 21
483.0980762113532
 31
0.0
  0
LINE
  5
7D9
  8
DATA
 62
     7
 10
282.80000000000001
 20
480.49999999999989
 30
0.0
 11
284.30000000000001
 21
483.0980762113532
 31
0.0
  0
LINE
  5
7DA
  8
DATA
 62
     7
 10
285.30000000000001
 20
480.49999999999989
 30
0.0
 11
286.7999999999999
 21
483.0980762113532
 31
0.0
  0
TEXT
  5
7DB
  8
DATA
 62
     7
 10
300.55000000000001
 20
482.5
 30
0.0
 40
2.0
  1
Aux RS232
 50
180.0
 41
0.8
 11
300.55000000000001
 21
480.49999999999989
 31
0.0
 73
     3
  0
TEXT
  5
7DC
  8
DATA
 62
     7
 10
306.30000000000001
 20
473.80000000000001
 30
0.0
 40
2.7999999999999998
  1
WORD
 50
180.0
 41
0.8
 11
306.30000000000001
 21
471.0
 31
0.0
 73
     3
  0
TEXT
  5
7DD
  8
DATA
 62
     7
 10
306.30000000000001
 20
477.30000000000001
 30
0.0
 40
2.7999999999999998
  1
CLOCK IN
 50
180.0
 41
0.8
 11
306.30000000000001
 21
474.5
 31
0.0
 73
     3
  0
TEXT
  5
7DE
  8
DATA
 62
     7
 10
349.05000000000001
 20
476.57927405783619
 30
0.0
 40
3.6000000000000001
  1
NETWORK
 50
180.0
 41
0.8
 11
349.05000000000001
 21
472.97927405783611
 31
0.0
 73
     3
  0
TEXT
  5
7DF
  8
DATA
 62
     7
 10
351.05000000000001
 20
481.60000000000002
 30
0.0
 40
3.6000000000000001
  1
In
 50
180.0
 41
0.8
 11
351.05000000000001
 21
478.0
 31
0.0
 73
     3
  0
TEXT
  5
7E0
  8
DATA
 62
     7
 10
336.55000000000001
 20
481.60000000000002
 30
0.0
 40
3.6000000000000001
  1
Out
 50
180.0
 41
0.8
 11
336.55000000000001
 21
478.0
 31
0.0
 73
     3
  0
LINE
  5
7E1
  8
DATA
 62
     7
 10
400.30000000000001
 20
371.60000000000002
 30
0.0
 11
400.30000000000001
 21
370.60000000000002
 31
0.0
  0
LINE
  5
7E2
  8
DATA
 62
     7
 10
434.2999999999999
 20
371.60000000000002
 30
0.0
 11
434.2999999999999
 21
370.60000000000002
 31
0.0
  0
LINE
  5
7E3
  8
DATA
 62
     7
 10
402.30000000000001
 20
374.10000000000002
 30
0.0
 11
402.30000000000001
 21
371.60000000000002
 31
0.0
  0
LINE
  5
7E4
  8
DATA
 62
     7
 10
432.17298334620739
 20
374.10000000000002
 30
0.0
 11
432.17298334620739
 21
371.60000000000002
 31
0.0
  0
LINE
  5
7E5
  8
DATA
 62
     7
 10
400.30000000000001
 20
371.60000000000002
 30
0.0
 11
434.2999999999999
 21
371.60000000000002
 31
0.0
  0
LINE
  5
7E6
  8
DATA
 62
     7
 10
402.30000000000001
 20
374.10000000000002
 30
0.0
 11
432.17298334620739
 21
374.10000000000002
 31
0.0
  0
LINE
  5
7E7
  8
DATA
 62
     7
 10
277.80000000000001
 20
376.10000000000002
 30
0.0
 11
277.80000000000001
 21
370.60000000000002
 31
0.0
  0
LINE
  5
7E8
  8
DATA
 62
     7
 10
214.80000000000001
 20
376.10000000000002
 30
0.0
 11
214.80000000000001
 21
370.60000000000002
 31
0.0
  0
LINE
  5
7E9
  8
DATA
 62
     7
 10
214.80000000000001
 20
376.10000000000002
 30
0.0
 11
277.80000000000001
 21
376.10000000000002
 31
0.0
  0
LINE
  5
7EA
  8
DATA
 62
     7
 10
204.30000000000001
 20
374.60000000000002
 30
0.0
 11
204.30000000000001
 21
370.60000000000002
 31
0.0
  0
LINE
  5
7EB
  8
DATA
 62
     7
 10
174.30000000000001
 20
374.60000000000002
 30
0.0
 11
174.30000000000001
 21
370.60000000000002
 31
0.0
  0
LINE
  5
7EC
  8
DATA
 62
     7
 10
174.30000000000001
 20
374.60000000000002
 30
0.0
 11
204.30000000000001
 21
374.60000000000002
 31
0.0
  0
LINE
  5
7ED
  8
DATA
 62
     7
 10
163.30000000000001
 20
374.60000000000002
 30
0.0
 11
163.30000000000001
 21
370.60000000000002
 31
0.0
  0
LINE
  5
7EE
  8
DATA
 62
     7
 10
133.30000000000001
 20
374.60000000000002
 30
0.0
 11
133.30000000000001
 21
370.60000000000002
 31
0.0
  0
LINE
  5
7EF
  8
DATA
 62
     7
 10
115.3
 20
374.60000000000002
 30
0.0
 11
115.3
 21
370.60000000000002
 31
0.0
  0
LINE
  5
7F0
  8
DATA
 62
     7
 10
85.300000000000026
 20
374.60000000000002
 30
0.0
 11
85.300000000000026
 21
370.60000000000002
 31
0.0
  0
LINE
  5
7F1
  8
DATA
 62
     7
 10
85.300000000000026
 20
374.60000000000002
 30
0.0
 11
115.3
 21
374.60000000000002
 31
0.0
  0
LINE
  5
7F2
  8
DATA
 62
     7
 10
74.300000000000026
 20
374.60000000000002
 30
0.0
 11
74.300000000000026
 21
370.60000000000002
 31
0.0
  0
LINE
  5
7F3
  8
DATA
 62
     7
 10
44.300000000000011
 20
374.60000000000002
 30
0.0
 11
44.300000000000011
 21
370.60000000000002
 31
0.0
  0
LINE
  5
7F4
  8
DATA
 62
     7
 10
44.300000000000011
 20
374.60000000000002
 30
0.0
 11
74.300000000000026
 21
374.60000000000002
 31
0.0
  0
LINE
  5
7F5
  8
DATA
 62
     7
 10
74.300000000000026
 20
374.60000000000002
 30
0.0
 11
74.300000000000026
 21
384.10000000000002
 31
0.0
  0
LINE
  5
7F6
  8
DATA
 62
     7
 10
44.300000000000011
 20
374.60000000000002
 30
0.0
 11
44.300000000000011
 21
384.10000000000002
 31
0.0
  0
LINE
  5
7F7
  8
DATA
 62
     7
 10
44.300000000000011
 20
384.10000000000002
 30
0.0
 11
74.300000000000026
 21
384.10000000000002
 31
0.0
  0
LINE
  5
7F8
  8
DATA
 62
     7
 10
44.300000000000011
 20
382.10000000000002
 30
0.0
 11
74.300000000000026
 21
382.10000000000002
 31
0.0
  0
LINE
  5
7F9
  8
DATA
 62
     7
 10
44.300000000000011
 20
375.10000000000002
 30
0.0
 11
74.300000000000026
 21
375.10000000000002
 31
0.0
  0
CIRCLE
  5
7FA
  8
DATA
 62
     7
 10
46.800000000000011
 20
378.60000000000002
 30
0.0
 40
2.0000000000000222
  0
LINE
  5
7FB
  8
DATA
 62
     7
 10
44.956534114391559
 20
377.82434960929697
 30
0.0
 11
48.3934658856084
 21
379.8086630925954
 31
0.0
  0
LINE
  5
7FC
  8
DATA
 62
     7
 10
45.206534114391559
 20
377.39133690740482
 30
0.0
 11
48.643465885608407
 21
379.37565039070319
 31
0.0
  0
CIRCLE
  5
7FD
  8
DATA
 62
     7
 10
51.800000000000011
 20
378.60000000000002
 30
0.0
 40
2.0000000000000222
  0
LINE
  5
7FE
  8
DATA
 62
     7
 10
49.956534114391573
 20
377.82434960929697
 30
0.0
 11
53.3934658856084
 21
379.8086630925954
 31
0.0
  0
LINE
  5
7FF
  8
DATA
 62
     7
 10
50.206534114391559
 20
377.39133690740482
 30
0.0
 11
53.643465885608407
 21
379.37565039070319
 31
0.0
  0
CIRCLE
  5
800
  8
DATA
 62
     7
 10
56.800000000000011
 20
378.60000000000002
 30
0.0
 40
2.0000000000000222
  0
LINE
  5
801
  8
DATA
 62
     7
 10
54.956534114391573
 20
377.82434960929697
 30
0.0
 11
58.3934658856084
 21
379.8086630925954
 31
0.0
  0
LINE
  5
802
  8
DATA
 62
     7
 10
55.206534114391559
 20
377.39133690740482
 30
0.0
 11
58.643465885608407
 21
379.37565039070319
 31
0.0
  0
CIRCLE
  5
803
  8
DATA
 62
     7
 10
61.800000000000011
 20
378.60000000000002
 30
0.0
 40
2.0000000000000222
  0
LINE
  5
804
  8
DATA
 62
     7
 10
59.956534114391573
 20
377.82434960929697
 30
0.0
 11
63.3934658856084
 21
379.8086630925954
 31
0.0
  0
LINE
  5
805
  8
DATA
 62
     7
 10
60.206534114391559
 20
377.39133690740482
 30
0.0
 11
63.643465885608407
 21
379.37565039070319
 31
0.0
  0
CIRCLE
  5
806
  8
DATA
 62
     7
 10
66.800000000000011
 20
378.60000000000002
 30
0.0
 40
2.0000000000000222
  0
LINE
  5
807
  8
DATA
 62
     7
 10
64.956534114391559
 20
377.82434960929697
 30
0.0
 11
68.393465885608407
 21
379.8086630925954
 31
0.0
  0
LINE
  5
808
  8
DATA
 62
     7
 10
65.206534114391545
 20
377.39133690740482
 30
0.0
 11
68.643465885608407
 21
379.37565039070319
 31
0.0
  0
CIRCLE
  5
809
  8
DATA
 62
     7
 10
71.800000000000026
 20
378.60000000000002
 30
0.0
 40
2.0000000000000222
  0
LINE
  5
80A
  8
DATA
 62
     7
 10
69.956534114391559
 20
377.82434960929697
 30
0.0
 11
73.393465885608407
 21
379.8086630925954
 31
0.0
  0
LINE
  5
80B
  8
DATA
 62
     7
 10
70.206534114391545
 20
377.39133690740482
 30
0.0
 11
73.643465885608407
 21
379.37565039070319
 31
0.0
  0
LINE
  5
80C
  8
DATA
 62
     7
 10
115.3
 20
374.60000000000002
 30
0.0
 11
115.3
 21
384.10000000000002
 31
0.0
  0
LINE
  5
80D
  8
DATA
 62
     7
 10
85.300000000000026
 20
374.60000000000002
 30
0.0
 11
85.300000000000026
 21
384.10000000000002
 31
0.0
  0
LINE
  5
80E
  8
DATA
 62
     7
 10
85.300000000000026
 20
384.10000000000002
 30
0.0
 11
115.3
 21
384.10000000000002
 31
0.0
  0
LINE
  5
80F
  8
DATA
 62
     7
 10
85.300000000000026
 20
382.10000000000002
 30
0.0
 11
115.3
 21
382.10000000000002
 31
0.0
  0
LINE
  5
810
  8
DATA
 62
     7
 10
85.300000000000026
 20
375.10000000000002
 30
0.0
 11
115.3
 21
375.10000000000002
 31
0.0
  0
CIRCLE
  5
811
  8
DATA
 62
     7
 10
87.800000000000026
 20
378.60000000000002
 30
0.0
 40
2.0000000000000222
  0
LINE
  5
812
  8
DATA
 62
     7
 10
85.956534114391559
 20
377.82434960929697
 30
0.0
 11
89.393465885608407
 21
379.8086630925954
 31
0.0
  0
LINE
  5
813
  8
DATA
 62
     7
 10
86.206534114391545
 20
377.39133690740482
 30
0.0
 11
89.643465885608407
 21
379.37565039070319
 31
0.0
  0
CIRCLE
  5
814
  8
DATA
 62
     7
 10
92.799999999999983
 20
378.60000000000002
 30
0.0
 40
2.0000000000000222
  0
LINE
  5
815
  8
DATA
 62
     7
 10
90.956534114391559
 20
377.82434960929697
 30
0.0
 11
94.393465885608407
 21
379.8086630925954
 31
0.0
  0
LINE
  5
816
  8
DATA
 62
     7
 10
91.206534114391545
 20
377.39133690740482
 30
0.0
 11
94.643465885608407
 21
379.37565039070319
 31
0.0
  0
CIRCLE
  5
817
  8
DATA
 62
     7
 10
97.800000000000011
 20
378.60000000000002
 30
0.0
 40
2.0000000000000222
  0
LINE
  5
818
  8
DATA
 62
     7
 10
95.956534114391559
 20
377.82434960929697
 30
0.0
 11
99.393465885608407
 21
379.8086630925954
 31
0.0
  0
LINE
  5
819
  8
DATA
 62
     7
 10
96.206534114391573
 20
377.39133690740482
 30
0.0
 11
99.643465885608407
 21
379.37565039070319
 31
0.0
  0
CIRCLE
  5
81A
  8
DATA
 62
     7
 10
102.8
 20
378.60000000000002
 30
0.0
 40
2.0000000000000222
  0
LINE
  5
81B
  8
DATA
 62
     7
 10
100.9565341143915
 20
377.82434960929697
 30
0.0
 11
104.39346588560841
 21
379.8086630925954
 31
0.0
  0
LINE
  5
81C
  8
DATA
 62
     7
 10
101.2065341143915
 20
377.39133690740482
 30
0.0
 11
104.64346588560841
 21
379.37565039070319
 31
0.0
  0
CIRCLE
  5
81D
  8
DATA
 62
     7
 10
107.8
 20
378.60000000000002
 30
0.0
 40
2.0000000000000222
  0
LINE
  5
81E
  8
DATA
 62
     7
 10
105.9565341143915
 20
377.82434960929697
 30
0.0
 11
109.39346588560841
 21
379.8086630925954
 31
0.0
  0
LINE
  5
81F
  8
DATA
 62
     7
 10
106.2065341143915
 20
377.39133690740482
 30
0.0
 11
109.64346588560841
 21
379.37565039070319
 31
0.0
  0
CIRCLE
  5
820
  8
DATA
 62
     7
 10
112.8
 20
378.60000000000002
 30
0.0
 40
2.0000000000000222
  0
LINE
  5
821
  8
DATA
 62
     7
 10
110.9565341143915
 20
377.82434960929697
 30
0.0
 11
114.39346588560841
 21
379.8086630925954
 31
0.0
  0
LINE
  5
822
  8
DATA
 62
     7
 10
111.2065341143915
 20
377.39133690740482
 30
0.0
 11
114.64346588560841
 21
379.37565039070319
 31
0.0
  0
LINE
  5
823
  8
DATA
 62
     7
 10
133.30000000000001
 20
374.60000000000002
 30
0.0
 11
163.30000000000001
 21
374.60000000000002
 31
0.0
  0
LINE
  5
824
  8
DATA
 62
     7
 10
163.30000000000001
 20
374.60000000000002
 30
0.0
 11
163.30000000000001
 21
384.10000000000002
 31
0.0
  0
LINE
  5
825
  8
DATA
 62
     7
 10
133.30000000000001
 20
374.60000000000002
 30
0.0
 11
133.30000000000001
 21
384.10000000000002
 31
0.0
  0
LINE
  5
826
  8
DATA
 62
     7
 10
133.30000000000001
 20
384.10000000000002
 30
0.0
 11
163.30000000000001
 21
384.10000000000002
 31
0.0
  0
LINE
  5
827
  8
DATA
 62
     7
 10
133.30000000000001
 20
382.10000000000002
 30
0.0
 11
163.30000000000001
 21
382.10000000000002
 31
0.0
  0
LINE
  5
828
  8
DATA
 62
     7
 10
133.30000000000001
 20
375.10000000000002
 30
0.0
 11
163.30000000000001
 21
375.10000000000002
 31
0.0
  0
CIRCLE
  5
829
  8
DATA
 62
     7
 10
135.80000000000001
 20
378.60000000000002
 30
0.0
 40
2.0000000000000222
  0
LINE
  5
82A
  8
DATA
 62
     7
 10
133.9565341143915
 20
377.82434960929697
 30
0.0
 11
137.39346588560841
 21
379.8086630925954
 31
0.0
  0
LINE
  5
82B
  8
DATA
 62
     7
 10
134.2065341143915
 20
377.39133690740482
 30
0.0
 11
137.64346588560841
 21
379.37565039070319
 31
0.0
  0
CIRCLE
  5
82C
  8
DATA
 62
     7
 10
140.80000000000001
 20
378.60000000000002
 30
0.0
 40
2.0000000000000222
  0
LINE
  5
82D
  8
DATA
 62
     7
 10
138.9565341143915
 20
377.82434960929697
 30
0.0
 11
142.39346588560841
 21
379.8086630925954
 31
0.0
  0
LINE
  5
82E
  8
DATA
 62
     7
 10
139.2065341143915
 20
377.39133690740482
 30
0.0
 11
142.64346588560841
 21
379.37565039070319
 31
0.0
  0
CIRCLE
  5
82F
  8
DATA
 62
     7
 10
145.80000000000001
 20
378.60000000000002
 30
0.0
 40
2.0000000000000222
  0
LINE
  5
830
  8
DATA
 62
     7
 10
143.9565341143915
 20
377.82434960929697
 30
0.0
 11
147.39346588560841
 21
379.8086630925954
 31
0.0
  0
LINE
  5
831
  8
DATA
 62
     7
 10
144.2065341143915
 20
377.39133690740482
 30
0.0
 11
147.64346588560841
 21
379.37565039070319
 31
0.0
  0
CIRCLE
  5
832
  8
DATA
 62
     7
 10
150.80000000000001
 20
378.60000000000002
 30
0.0
 40
2.0000000000000222
  0
LINE
  5
833
  8
DATA
 62
     7
 10
148.9565341143915
 20
377.82434960929697
 30
0.0
 11
152.39346588560841
 21
379.8086630925954
 31
0.0
  0
LINE
  5
834
  8
DATA
 62
     7
 10
149.2065341143915
 20
377.39133690740482
 30
0.0
 11
152.64346588560841
 21
379.37565039070319
 31
0.0
  0
CIRCLE
  5
835
  8
DATA
 62
     7
 10
155.80000000000001
 20
378.60000000000002
 30
0.0
 40
2.0000000000000222
  0
LINE
  5
836
  8
DATA
 62
     7
 10
153.9565341143915
 20
377.82434960929697
 30
0.0
 11
157.39346588560841
 21
379.8086630925954
 31
0.0
  0
LINE
  5
837
  8
DATA
 62
     7
 10
154.2065341143915
 20
377.39133690740482
 30
0.0
 11
157.64346588560841
 21
379.37565039070319
 31
0.0
  0
CIRCLE
  5
838
  8
DATA
 62
     7
 10
160.80000000000001
 20
378.60000000000002
 30
0.0
 40
2.0000000000000222
  0
LINE
  5
839
  8
DATA
 62
     7
 10
158.9565341143915
 20
377.82434960929697
 30
0.0
 11
162.39346588560841
 21
379.8086630925954
 31
0.0
  0
LINE
  5
83A
  8
DATA
 62
     7
 10
159.2065341143915
 20
377.39133690740482
 30
0.0
 11
162.64346588560841
 21
379.37565039070319
 31
0.0
  0
LINE
  5
83B
  8
DATA
 62
     7
 10
174.30000000000001
 20
374.60000000000002
 30
0.0
 11
204.30000000000001
 21
374.60000000000002
 31
0.0
  0
LINE
  5
83C
  8
DATA
 62
     7
 10
204.30000000000001
 20
374.60000000000002
 30
0.0
 11
204.30000000000001
 21
384.10000000000002
 31
0.0
  0
LINE
  5
83D
  8
DATA
 62
     7
 10
174.30000000000001
 20
374.60000000000002
 30
0.0
 11
174.30000000000001
 21
384.10000000000002
 31
0.0
  0
LINE
  5
83E
  8
DATA
 62
     7
 10
174.30000000000001
 20
384.10000000000002
 30
0.0
 11
204.30000000000001
 21
384.10000000000002
 31
0.0
  0
LINE
  5
83F
  8
DATA
 62
     7
 10
174.30000000000001
 20
382.10000000000002
 30
0.0
 11
204.30000000000001
 21
382.10000000000002
 31
0.0
  0
LINE
  5
840
  8
DATA
 62
     7
 10
174.30000000000001
 20
375.10000000000002
 30
0.0
 11
204.30000000000001
 21
375.10000000000002
 31
0.0
  0
CIRCLE
  5
841
  8
DATA
 62
     7
 10
176.80000000000001
 20
378.60000000000002
 30
0.0
 40
2.0000000000000222
  0
LINE
  5
842
  8
DATA
 62
     7
 10
174.9565341143915
 20
377.82434960929697
 30
0.0
 11
178.39346588560841
 21
379.8086630925954
 31
0.0
  0
LINE
  5
843
  8
DATA
 62
     7
 10
175.2065341143915
 20
377.39133690740482
 30
0.0
 11
178.64346588560841
 21
379.37565039070319
 31
0.0
  0
CIRCLE
  5
844
  8
DATA
 62
     7
 10
181.80000000000001
 20
378.60000000000002
 30
0.0
 40
2.0000000000000222
  0
LINE
  5
845
  8
DATA
 62
     7
 10
179.9565341143915
 20
377.82434960929697
 30
0.0
 11
183.39346588560841
 21
379.8086630925954
 31
0.0
  0
LINE
  5
846
  8
DATA
 62
     7
 10
180.2065341143915
 20
377.39133690740482
 30
0.0
 11
183.64346588560841
 21
379.37565039070319
 31
0.0
  0
CIRCLE
  5
847
  8
DATA
 62
     7
 10
186.80000000000001
 20
378.60000000000002
 30
0.0
 40
2.0000000000000222
  0
LINE
  5
848
  8
DATA
 62
     7
 10
184.95653411439159
 20
377.82434960929697
 30
0.0
 11
188.39346588560841
 21
379.8086630925954
 31
0.0
  0
LINE
  5
849
  8
DATA
 62
     7
 10
185.20653411439159
 20
377.39133690740482
 30
0.0
 11
188.64346588560841
 21
379.37565039070319
 31
0.0
  0
CIRCLE
  5
84A
  8
DATA
 62
     7
 10
191.80000000000001
 20
378.60000000000002
 30
0.0
 40
2.0000000000000222
  0
LINE
  5
84B
  8
DATA
 62
     7
 10
189.95653411439159
 20
377.82434960929697
 30
0.0
 11
193.39346588560841
 21
379.8086630925954
 31
0.0
  0
LINE
  5
84C
  8
DATA
 62
     7
 10
190.20653411439159
 20
377.39133690740482
 30
0.0
 11
193.64346588560841
 21
379.37565039070319
 31
0.0
  0
CIRCLE
  5
84D
  8
DATA
 62
     7
 10
196.80000000000001
 20
378.60000000000002
 30
0.0
 40
2.0000000000000222
  0
LINE
  5
84E
  8
DATA
 62
     7
 10
194.95653411439159
 20
377.82434960929697
 30
0.0
 11
198.39346588560841
 21
379.8086630925954
 31
0.0
  0
LINE
  5
84F
  8
DATA
 62
     7
 10
195.20653411439159
 20
377.39133690740482
 30
0.0
 11
198.64346588560841
 21
379.37565039070319
 31
0.0
  0
CIRCLE
  5
850
  8
DATA
 62
     7
 10
201.80000000000001
 20
378.60000000000002
 30
0.0
 40
2.0000000000000222
  0
LINE
  5
851
  8
DATA
 62
     7
 10
199.95653411439159
 20
377.82434960929697
 30
0.0
 11
203.39346588560841
 21
379.8086630925954
 31
0.0
  0
LINE
  5
852
  8
DATA
 62
     7
 10
200.20653411439159
 20
377.39133690740482
 30
0.0
 11
203.64346588560841
 21
379.37565039070319
 31
0.0
  0
LINE
  5
853
  8
DATA
 62
     7
 10
174.30000000000001
 20
374.60000000000002
 30
0.0
 11
204.30000000000001
 21
374.60000000000002
 31
0.0
  0
LINE
  5
854
  8
DATA
 62
     7
 10
204.30000000000001
 20
374.60000000000002
 30
0.0
 11
204.30000000000001
 21
384.10000000000002
 31
0.0
  0
LINE
  5
855
  8
DATA
 62
     7
 10
174.30000000000001
 20
374.60000000000002
 30
0.0
 11
174.30000000000001
 21
384.10000000000002
 31
0.0
  0
LINE
  5
856
  8
DATA
 62
     7
 10
174.30000000000001
 20
384.10000000000002
 30
0.0
 11
204.30000000000001
 21
384.10000000000002
 31
0.0
  0
LINE
  5
857
  8
DATA
 62
     7
 10
174.30000000000001
 20
382.10000000000002
 30
0.0
 11
204.30000000000001
 21
382.10000000000002
 31
0.0
  0
LINE
  5
858
  8
DATA
 62
     7
 10
174.30000000000001
 20
375.10000000000002
 30
0.0
 11
204.30000000000001
 21
375.10000000000002
 31
0.0
  0
CIRCLE
  5
859
  8
DATA
 62
     7
 10
176.80000000000001
 20
378.60000000000002
 30
0.0
 40
2.0000000000000222
  0
LINE
  5
85A
  8
DATA
 62
     7
 10
174.9565341143915
 20
377.82434960929697
 30
0.0
 11
178.39346588560841
 21
379.8086630925954
 31
0.0
  0
LINE
  5
85B
  8
DATA
 62
     7
 10
175.2065341143915
 20
377.39133690740482
 30
0.0
 11
178.64346588560841
 21
379.37565039070319
 31
0.0
  0
CIRCLE
  5
85C
  8
DATA
 62
     7
 10
181.80000000000001
 20
378.60000000000002
 30
0.0
 40
2.0000000000000222
  0
LINE
  5
85D
  8
DATA
 62
     7
 10
179.9565341143915
 20
377.82434960929697
 30
0.0
 11
183.39346588560841
 21
379.8086630925954
 31
0.0
  0
LINE
  5
85E
  8
DATA
 62
     7
 10
180.2065341143915
 20
377.39133690740482
 30
0.0
 11
183.64346588560841
 21
379.37565039070319
 31
0.0
  0
CIRCLE
  5
85F
  8
DATA
 62
     7
 10
186.80000000000001
 20
378.60000000000002
 30
0.0
 40
2.0000000000000222
  0
LINE
  5
860
  8
DATA
 62
     7
 10
184.95653411439159
 20
377.82434960929697
 30
0.0
 11
188.39346588560841
 21
379.8086630925954
 31
0.0
  0
LINE
  5
861
  8
DATA
 62
     7
 10
185.20653411439159
 20
377.39133690740482
 30
0.0
 11
188.64346588560841
 21
379.37565039070319
 31
0.0
  0
CIRCLE
  5
862
  8
DATA
 62
     7
 10
191.80000000000001
 20
378.60000000000002
 30
0.0
 40
2.0000000000000222
  0
LINE
  5
863
  8
DATA
 62
     7
 10
189.95653411439159
 20
377.82434960929697
 30
0.0
 11
193.39346588560841
 21
379.8086630925954
 31
0.0
  0
LINE
  5
864
  8
DATA
 62
     7
 10
190.20653411439159
 20
377.39133690740482
 30
0.0
 11
193.64346588560841
 21
379.37565039070319
 31
0.0
  0
CIRCLE
  5
865
  8
DATA
 62
     7
 10
196.80000000000001
 20
378.60000000000002
 30
0.0
 40
2.0000000000000222
  0
LINE
  5
866
  8
DATA
 62
     7
 10
194.95653411439159
 20
377.82434960929697
 30
0.0
 11
198.39346588560841
 21
379.8086630925954
 31
0.0
  0
LINE
  5
867
  8
DATA
 62
     7
 10
195.20653411439159
 20
377.39133690740482
 30
0.0
 11
198.64346588560841
 21
379.37565039070319
 31
0.0
  0
CIRCLE
  5
868
  8
DATA
 62
     7
 10
201.80000000000001
 20
378.60000000000002
 30
0.0
 40
2.0000000000000222
  0
LINE
  5
869
  8
DATA
 62
     7
 10
199.95653411439159
 20
377.82434960929697
 30
0.0
 11
203.39346588560841
 21
379.8086630925954
 31
0.0
  0
LINE
  5
86A
  8
DATA
 62
     7
 10
200.20653411439159
 20
377.39133690740482
 30
0.0
 11
203.64346588560841
 21
379.37565039070319
 31
0.0
  0
LINE
  5
86B
  8
DATA
 62
     7
 10
216.30000000000001
 20
376.10000000000002
 30
0.0
 11
246.30000000000001
 21
376.10000000000002
 31
0.0
  0
LINE
  5
86C
  8
DATA
 62
     7
 10
246.30000000000001
 20
376.10000000000002
 30
0.0
 11
246.30000000000001
 21
385.60000000000002
 31
0.0
  0
LINE
  5
86D
  8
DATA
 62
     7
 10
216.30000000000001
 20
376.10000000000002
 30
0.0
 11
216.30000000000001
 21
385.60000000000002
 31
0.0
  0
LINE
  5
86E
  8
DATA
 62
     7
 10
216.30000000000001
 20
385.60000000000002
 30
0.0
 11
246.30000000000001
 21
385.60000000000002
 31
0.0
  0
LINE
  5
86F
  8
DATA
 62
     7
 10
216.30000000000001
 20
383.60000000000002
 30
0.0
 11
246.30000000000001
 21
383.60000000000002
 31
0.0
  0
LINE
  5
870
  8
DATA
 62
     7
 10
216.30000000000001
 20
376.60000000000002
 30
0.0
 11
246.30000000000001
 21
376.60000000000002
 31
0.0
  0
CIRCLE
  5
871
  8
DATA
 62
     7
 10
218.80000000000001
 20
380.10000000000002
 30
0.0
 40
2.0000000000000222
  0
LINE
  5
872
  8
DATA
 62
     7
 10
216.95653411439159
 20
379.32434960929697
 30
0.0
 11
220.39346588560841
 21
381.3086630925954
 31
0.0
  0
LINE
  5
873
  8
DATA
 62
     7
 10
217.20653411439159
 20
378.89133690740482
 30
0.0
 11
220.64346588560841
 21
380.87565039070319
 31
0.0
  0
CIRCLE
  5
874
  8
DATA
 62
     7
 10
223.80000000000001
 20
380.10000000000002
 30
0.0
 40
2.0000000000000222
  0
LINE
  5
875
  8
DATA
 62
     7
 10
221.95653411439159
 20
379.32434960929697
 30
0.0
 11
225.39346588560841
 21
381.3086630925954
 31
0.0
  0
LINE
  5
876
  8
DATA
 62
     7
 10
222.20653411439159
 20
378.89133690740482
 30
0.0
 11
225.64346588560841
 21
380.87565039070319
 31
0.0
  0
CIRCLE
  5
877
  8
DATA
 62
     7
 10
228.80000000000001
 20
380.10000000000002
 30
0.0
 40
2.0000000000000222
  0
LINE
  5
878
  8
DATA
 62
     7
 10
226.95653411439159
 20
379.32434960929697
 30
0.0
 11
230.39346588560841
 21
381.3086630925954
 31
0.0
  0
LINE
  5
879
  8
DATA
 62
     7
 10
227.20653411439159
 20
378.89133690740482
 30
0.0
 11
230.64346588560841
 21
380.87565039070319
 31
0.0
  0
CIRCLE
  5
87A
  8
DATA
 62
     7
 10
233.80000000000001
 20
380.10000000000002
 30
0.0
 40
2.0000000000000222
  0
LINE
  5
87B
  8
DATA
 62
     7
 10
231.95653411439159
 20
379.32434960929697
 30
0.0
 11
235.39346588560841
 21
381.3086630925954
 31
0.0
  0
LINE
  5
87C
  8
DATA
 62
     7
 10
232.20653411439159
 20
378.89133690740482
 30
0.0
 11
235.64346588560841
 21
380.87565039070319
 31
0.0
  0
CIRCLE
  5
87D
  8
DATA
 62
     7
 10
238.80000000000001
 20
380.10000000000002
 30
0.0
 40
2.0000000000000222
  0
LINE
  5
87E
  8
DATA
 62
     7
 10
236.95653411439159
 20
379.32434960929697
 30
0.0
 11
240.39346588560841
 21
381.3086630925954
 31
0.0
  0
LINE
  5
87F
  8
DATA
 62
     7
 10
237.20653411439159
 20
378.89133690740482
 30
0.0
 11
240.64346588560841
 21
380.87565039070319
 31
0.0
  0
CIRCLE
  5
880
  8
DATA
 62
     7
 10
243.80000000000001
 20
380.10000000000002
 30
0.0
 40
2.0000000000000222
  0
LINE
  5
881
  8
DATA
 62
     7
 10
241.95653411439159
 20
379.32434960929697
 30
0.0
 11
245.39346588560841
 21
381.3086630925954
 31
0.0
  0
LINE
  5
882
  8
DATA
 62
     7
 10
242.20653411439159
 20
378.89133690740482
 30
0.0
 11
245.64346588560841
 21
380.87565039070319
 31
0.0
  0
LINE
  5
883
  8
DATA
 62
     7
 10
246.30000000000001
 20
376.10000000000002
 30
0.0
 11
276.30000000000001
 21
376.10000000000002
 31
0.0
  0
LINE
  5
884
  8
DATA
 62
     7
 10
276.30000000000001
 20
376.10000000000002
 30
0.0
 11
276.30000000000001
 21
385.60000000000002
 31
0.0
  0
LINE
  5
885
  8
DATA
 62
     7
 10
246.30000000000001
 20
385.60000000000002
 30
0.0
 11
276.30000000000001
 21
385.60000000000002
 31
0.0
  0
LINE
  5
886
  8
DATA
 62
     7
 10
246.30000000000001
 20
383.60000000000002
 30
0.0
 11
276.30000000000001
 21
383.60000000000002
 31
0.0
  0
LINE
  5
887
  8
DATA
 62
     7
 10
246.30000000000001
 20
376.60000000000002
 30
0.0
 11
276.30000000000001
 21
376.60000000000002
 31
0.0
  0
CIRCLE
  5
888
  8
DATA
 62
     7
 10
248.80000000000001
 20
380.10000000000002
 30
0.0
 40
2.0000000000000222
  0
LINE
  5
889
  8
DATA
 62
     7
 10
246.95653411439159
 20
379.32434960929697
 30
0.0
 11
250.39346588560841
 21
381.3086630925954
 31
0.0
  0
LINE
  5
88A
  8
DATA
 62
     7
 10
247.20653411439159
 20
378.89133690740482
 30
0.0
 11
250.64346588560841
 21
380.87565039070319
 31
0.0
  0
CIRCLE
  5
88B
  8
DATA
 62
     7
 10
253.80000000000001
 20
380.10000000000002
 30
0.0
 40
2.0000000000000222
  0
LINE
  5
88C
  8
DATA
 62
     7
 10
251.95653411439159
 20
379.32434960929697
 30
0.0
 11
255.39346588560841
 21
381.3086630925954
 31
0.0
  0
LINE
  5
88D
  8
DATA
 62
     7
 10
252.20653411439159
 20
378.89133690740482
 30
0.0
 11
255.64346588560841
 21
380.87565039070319
 31
0.0
  0
CIRCLE
  5
88E
  8
DATA
 62
     7
 10
258.80000000000001
 20
380.10000000000002
 30
0.0
 40
2.0000000000000222
  0
LINE
  5
88F
  8
DATA
 62
     7
 10
256.95653411439162
 20
379.32434960929697
 30
0.0
 11
260.39346588560841
 21
381.3086630925954
 31
0.0
  0
LINE
  5
890
  8
DATA
 62
     7
 10
257.20653411439162
 20
378.89133690740482
 30
0.0
 11
260.64346588560841
 21
380.87565039070319
 31
0.0
  0
CIRCLE
  5
891
  8
DATA
 62
     7
 10
263.80000000000001
 20
380.10000000000002
 30
0.0
 40
2.0000000000000222
  0
LINE
  5
892
  8
DATA
 62
     7
 10
261.95653411439162
 20
379.32434960929697
 30
0.0
 11
265.39346588560841
 21
381.3086630925954
 31
0.0
  0
LINE
  5
893
  8
DATA
 62
     7
 10
262.20653411439162
 20
378.89133690740482
 30
0.0
 11
265.64346588560841
 21
380.87565039070319
 31
0.0
  0
CIRCLE
  5
894
  8
DATA
 62
     7
 10
268.80000000000001
 20
380.10000000000002
 30
0.0
 40
2.0000000000000222
  0
LINE
  5
895
  8
DATA
 62
     7
 10
266.95653411439162
 20
379.32434960929697
 30
0.0
 11
270.39346588560841
 21
381.3086630925954
 31
0.0
  0
LINE
  5
896
  8
DATA
 62
     7
 10
267.20653411439162
 20
378.89133690740482
 30
0.0
 11
270.64346588560841
 21
380.87565039070319
 31
0.0
  0
CIRCLE
  5
897
  8
DATA
 62
     7
 10
273.80000000000001
 20
380.10000000000002
 30
0.0
 40
2.0000000000000222
  0
LINE
  5
898
  8
DATA
 62
     7
 10
271.95653411439162
 20
379.32434960929697
 30
0.0
 11
275.39346588560841
 21
381.3086630925954
 31
0.0
  0
LINE
  5
899
  8
DATA
 62
     7
 10
272.20653411439162
 20
378.89133690740482
 30
0.0
 11
275.64346588560841
 21
380.87565039070319
 31
0.0
  0
TEXT
  5
89A
  8
DATA
 62
     7
 10
219.84427083333341
 20
480.75
 30
0.0
 40
2.7999999999999998
  1
R
 50
180.0
 41
0.8
 11
219.84427083333341
 21
477.9500000000001
 31
0.0
 73
     3
  0
TEXT
  5
89B
  8
DATA
 62
     7
 10
224.7192708333333
 20
480.75
 30
0.0
 40
2.7999999999999998
  1
R
 50
180.0
 41
0.8
 11
224.7192708333333
 21
477.9500000000001
 31
0.0
 73
     3
  0
TEXT
  5
89C
  8
DATA
 62
     7
 10
229.8442708333333
 20
480.75
 30
0.0
 40
2.7999999999999998
  1
8
 50
180.0
 41
0.8
 11
229.8442708333333
 21
477.9500000000001
 31
0.0
 73
     3
  0
TEXT
  5
89D
  8
DATA
 62
     7
 10
234.7192708333333
 20
480.75
 30
0.0
 40
2.7999999999999998
  1
7
 50
180.0
 41
0.8
 11
234.7192708333333
 21
477.9500000000001
 31
0.0
 73
     3
  0
TEXT
  5
89E
  8
DATA
 62
     7
 10
244.88854166666681
 20
480.44999999999999
 30
0.0
 40
2.0
  1
INPUTS
 50
180.0
 41
0.8
 11
244.88854166666681
 21
478.4500000000001
 31
0.0
 73
     3
  0
TEXT
  5
89F
  8
DATA
 62
     7
 10
254.67500000000001
 20
480.44999999999999
 30
0.0
 40
2.0
  1
CONTROL
 50
180.0
 41
0.8
 11
254.67500000000001
 21
478.4500000000001
 31
0.0
 73
     3
  0
TEXT
  5
8A0
  8
DATA
 62
     7
 10
259.80000000000001
 20
480.75
 30
0.0
 40
2.7999999999999998
  1
2
 50
180.0
 41
0.8
 11
259.80000000000001
 21
477.9500000000001
 31
0.0
 73
     3
  0
TEXT
  5
8A1
  8
DATA
 62
     7
 10
264.92500000000001
 20
480.75
 30
0.0
 40
2.7999999999999998
  1
1
 50
180.0
 41
0.8
 11
264.92500000000001
 21
477.9500000000001
 31
0.0
 73
     3
  0
TEXT
  5
8A2
  8
DATA
 62
     7
 10
269.80000000000001
 20
480.75
 30
0.0
 40
2.7999999999999998
  1
C
 50
180.0
 41
0.8
 11
269.80000000000001
 21
477.9500000000001
 31
0.0
 73
     3
  0
TEXT
  5
8A3
  8
DATA
 62
     7
 10
274.67500000000001
 20
480.75
 30
0.0
 40
2.7999999999999998
  1
C
 50
180.0
 41
0.8
 11
274.67500000000001
 21
477.9500000000001
 31
0.0
 73
     3
  0
TEXT
  5
8A4
  8
DATA
 62
     7
 10
219.84427083333341
 20
485.25
 30
0.0
 40
2.7999999999999998
  1
C
 50
180.0
 41
0.8
 11
219.84427083333341
 21
482.4500000000001
 31
0.0
 73
     3
  0
TEXT
  5
8A5
  8
DATA
 62
     7
 10
224.7192708333333
 20
485.25
 30
0.0
 40
2.7999999999999998
  1
C
 50
180.0
 41
0.8
 11
224.7192708333333
 21
482.4500000000001
 31
0.0
 73
     3
  0
TEXT
  5
8A6
  8
DATA
 62
     7
 10
229.8442708333333
 20
485.25
 30
0.0
 40
2.7999999999999998
  1
8
 50
180.0
 41
0.8
 11
229.8442708333333
 21
482.4500000000001
 31
0.0
 73
     3
  0
TEXT
  5
8A7
  8
DATA
 62
     7
 10
234.7192708333333
 20
485.25
 30
0.0
 40
2.7999999999999998
  1
7
 50
180.0
 41
0.8
 11
234.7192708333333
 21
482.4500000000001
 31
0.0
 73
     3
  0
TEXT
  5
8A8
  8
DATA
 62
     7
 10
246.61597222222221
 20
484.94999999999999
 30
0.0
 40
2.0
  1
OUTPUTS
 50
180.0
 41
0.8
 11
246.61597222222221
 21
482.9500000000001
 31
0.0
 73
     3
  0
TEXT
  5
8A9
  8
DATA
 62
     7
 10
253.86597222222221
 20
484.94999999999999
 30
0.0
 40
2.0
  1
LOGIC
 50
180.0
 41
0.8
 11
253.86597222222221
 21
482.9500000000001
 31
0.0
 73
     3
  0
TEXT
  5
8AA
  8
DATA
 62
     7
 10
259.80000000000001
 20
485.25
 30
0.0
 40
2.7999999999999998
  1
2
 50
180.0
 41
0.8
 11
259.80000000000001
 21
482.4500000000001
 31
0.0
 73
     3
  0
TEXT
  5
8AB
  8
DATA
 62
     7
 10
264.92500000000001
 20
485.25
 30
0.0
 40
2.7999999999999998
  1
1
 50
180.0
 41
0.8
 11
264.92500000000001
 21
482.4500000000001
 31
0.0
 73
     3
  0
TEXT
  5
8AC
  8
DATA
 62
     7
 10
269.80000000000001
 20
485.7000000000001
 30
0.0
 40
2.0
  1
-
 50
180.0
 41
0.8
 11
269.80000000000001
 21
483.7000000000001
 31
0.0
 73
     3
  0
TEXT
  5
8AD
  8
DATA
 62
     7
 10
274.67500000000001
 20
485.7000000000001
 30
0.0
 40
2.0
  1
+
 50
180.0
 41
0.8
 11
274.67500000000001
 21
483.7000000000001
 31
0.0
 73
     3
  0
TEXT
  5
8AE
  8
DATA
 62
     7
 10
274.05000000000001
 20
483.7000000000001
 30
0.0
 40
2.0
  1
OPTO
 50
180.0
 41
0.8
 11
274.05000000000001
 21
481.7000000000001
 31
0.0
 73
     3
  0
LINE
  5
8AF
  8
DATA
 62
     7
 10
274.30000000000001
 20
482.9500000000001
 30
0.0
 11
275.80000000000001
 21
482.9500000000001
 31
0.0
  0
LINE
  5
8B0
  8
DATA
 62
     7
 10
275.80000000000001
 20
482.9500000000001
 30
0.0
 11
275.80000000000001
 21
486.5
 31
0.0
  0
LINE
  5
8B1
  8
DATA
 62
     7
 10
268.80000000000001
 20
482.9500000000001
 30
0.0
 11
267.30000000000001
 21
482.9500000000001
 31
0.0
  0
LINE
  5
8B2
  8
DATA
 62
     7
 10
267.30000000000001
 20
482.9500000000001
 30
0.0
 11
267.30000000000001
 21
486.5
 31
0.0
  0
LINE
  5
8B3
  8
DATA
 62
     7
 10
788.5999999999998
 20
25.0
 30
0.0
 11
788.5999999999998
 21
19.0
 31
0.0
  0
LINE
  5
8B4
  8
DATA
 62
     7
 10
788.5999999999998
 20
25.0
 30
0.0
 11
789.5999999999998
 21
25.0
 31
0.0
  0
LINE
  5
8B5
  8
DATA
 62
     7
 10
790.59999999999968
 20
24.0
 30
0.0
 11
790.59999999999968
 21
20.0
 31
0.0
  0
LINE
  5
8B6
  8
DATA
 62
     7
 10
789.5999999999998
 20
19.0
 30
0.0
 11
788.5999999999998
 21
19.0
 31
0.0
  0
ARC
  5
8B7
  8
DATA
 62
     7
 10
789.5999999999998
 20
24.0
 30
0.0
 40
1.0
 50
0.0
 51
90.0
  0
ARC
  5
8B8
  8
DATA
 62
     7
 10
789.5999999999998
 20
20.0
 30
0.0
 40
1.0
 50
270.0
 51
0.0
  0
LINE
  5
8B9
  8
DATA
 62
     7
 10
789.5999999999998
 20
33.0
 30
0.0
 11
788.5999999999998
 21
33.0
 31
0.0
  0
LINE
  5
8BA
  8
DATA
 62
     7
 10
789.5999999999998
 20
11.0
 30
0.0
 11
788.5999999999998
 21
11.0
 31
0.0
  0
LINE
  5
8BB
  8
DATA
 62
     7
 10
789.5999999999998
 20
33.0
 30
0.0
 11
789.5999999999998
 21
25.0
 31
0.0
  0
LINE
  5
8BC
  8
DATA
 62
     7
 10
789.5999999999998
 20
19.0
 30
0.0
 11
789.5999999999998
 21
8.3000000000000114
 31
0.0
  0
LINE
  5
8BD
  8
DATA
 62
     7
 10
793.0999999999998
 20
32.0
 30
0.0
 11
789.5999999999998
 21
32.0
 31
0.0
  0
LINE
  5
8BE
  8
DATA
 62
     7
 10
793.0999999999998
 20
12.0
 30
0.0
 11
789.5999999999998
 21
12.0
 31
0.0
  0
LINE
  5
8BF
  8
DATA
 62
     7
 10
793.0999999999998
 20
32.0
 30
0.0
 11
793.0999999999998
 21
12.0
 31
0.0
  0
LINE
  5
8C0
  8
DATA
 62
     7
 10
803.59999999999968
 20
6.5
 30
0.0
 11
788.5999999999998
 21
6.5
 31
0.0
  0
LINE
  5
8C1
  8
DATA
 62
     7
 10
794.0999999999998
 20
6.5
 30
0.0
 11
794.0999999999998
 21
39.0
 31
0.0
  0
LINE
  5
8C2
  8
DATA
 62
     7
 10
803.59999999999968
 20
6.5
 30
0.0
 11
803.59999999999968
 21
16.0
 31
0.0
  0
LINE
  5
8C3
  8
DATA
 62
     7
 10
803.59999999999968
 20
16.0
 30
0.0
 11
801.5999999999998
 21
16.0
 31
0.0
  0
LINE
  5
8C4
  8
DATA
 62
     7
 10
801.5999999999998
 20
16.0
 30
0.0
 11
801.5999999999998
 21
19.0
 31
0.0
  0
LINE
  5
8C5
  8
DATA
 62
     7
 10
801.5999999999998
 20
19.0
 30
0.0
 11
794.0999999999998
 21
19.0
 31
0.0
  0
LINE
  5
8C6
  8
DATA
 62
     7
 10
803.59999999999968
 20
26.5
 30
0.0
 11
794.0999999999998
 21
26.5
 31
0.0
  0
LINE
  5
8C7
  8
DATA
 62
     7
 10
803.59999999999968
 20
26.5
 30
0.0
 11
803.59999999999968
 21
36.0
 31
0.0
  0
LINE
  5
8C8
  8
DATA
 62
     7
 10
803.59999999999968
 20
36.0
 30
0.0
 11
801.5999999999998
 21
36.0
 31
0.0
  0
LINE
  5
8C9
  8
DATA
 62
     7
 10
801.5999999999998
 20
36.0
 30
0.0
 11
801.5999999999998
 21
39.0
 31
0.0
  0
LINE
  5
8CA
  8
DATA
 62
     7
 10
801.5999999999998
 20
39.0
 30
0.0
 11
794.0999999999998
 21
39.0
 31
0.0
  0
LINE
  5
8CB
  8
DATA
 62
     7
 10
794.0999999999998
 20
37.0
 30
0.0
 11
792.0999999999998
 21
37.0
 31
0.0
  0
LINE
  5
8CC
  8
DATA
 62
     7
 10
794.0999999999998
 20
35.0
 30
0.0
 11
789.77440524177439
 21
35.0
 31
0.0
  0
LINE
  5
8CD
  8
DATA
 62
     7
 10
792.0999999999998
 20
37.0
 30
0.0
 11
790.55609955701152
 21
35.970733038007893
 31
0.0
  0
LINE
  5
8CE
  8
DATA
 62
     7
 10
794.0999999999998
 20
24.5
 30
0.0
 11
802.09999999999968
 21
24.5
 31
0.0
  0
LINE
  5
8CF
  8
DATA
 62
     7
 10
802.09999999999968
 20
24.5
 30
0.0
 11
802.09999999999968
 21
26.5
 31
0.0
  0
TEXT
  5
8D0
  8
DATA
 62
     7
 10
509.0
 20
480.5333333333333
 30
0.0
 40
8.466666666666665
  1
背面図のみターミナルブロック非装着
 41
0.8
 11
509.0
 21
489.0
 31
0.0
 73
     3
  0
ENDSEC
  0
EOF
