  0
SECTION
  2
HEADER
  9
$ACADVER
  1
AC1015
  9
$ACADMAINTVER
 70
    20
  9
$DWGCODEPAGE
  3
ANSI_932
  9
$INSBASE
 10
0.0
 20
0.0
 30
0.0
  9
$EXTMIN
 10
-180.0109854899475
 20
-265.243827279111
 30
-0.0015258207003583
  9
$EXTMAX
 10
180.010987166328
 20
270.0163015140169
 30
0.0000000349246037
  9
$LIMMIN
 10
0.0
 20
0.0
  9
$LIMMAX
 10
0.0
 20
0.0
  9
$ORTHOMODE
 70
     0
  9
$REGENMODE
 70
     1
  9
$FILLMODE
 70
     1
  9
$QTEXTMODE
 70
     0
  9
$MIRRTEXT
 70
     1
  9
$LTSCALE
 40
10.16
  9
$ATTMODE
 70
     1
  9
$TEXTSIZE
 40
0.0
  9
$TRACEWID
 40
1.0
  9
$TEXTSTYLE
  7
STANDARD
  9
$CLAYER
  8
DATA
  9
$CELTYPE
  6
ByLayer
  9
$CECOLOR
 62
   256
  9
$CELTSCALE
 40
1.0
  9
$DISPSILH
 70
     0
  9
$DIMSCALE
 40
1.0
  9
$DIMASZ
 40
0.18
  9
$DIMEXO
 40
0.0625
  9
$DIMDLI
 40
0.38
  9
$DIMRND
 40
0.0
  9
$DIMDLE
 40
0.0
  9
$DIMEXE
 40
0.18
  9
$DIMTP
 40
0.0
  9
$DIMTM
 40
0.0
  9
$DIMTXT
 40
0.18
  9
$DIMCEN
 40
0.09
  9
$DIMTSZ
 40
0.0
  9
$DIMTOL
 70
     0
  9
$DIMLIM
 70
     0
  9
$DIMTIH
 70
     1
  9
$DIMTOH
 70
     1
  9
$DIMSE1
 70
     0
  9
$DIMSE2
 70
     0
  9
$DIMTAD
 70
     0
  9
$DIMZIN
 70
     0
  9
$DIMBLK
  1

  9
$DIMASO
 70
     1
  9
$DIMSHO
 70
     1
  9
$DIMPOST
  1

  9
$DIMAPOST
  1

  9
$DIMALT
 70
     0
  9
$DIMALTD
 70
     2
  9
$DIMALTF
 40
25.4
  9
$DIMLFAC
 40
1.0
  9
$DIMTOFL
 70
     0
  9
$DIMTVP
 40
0.0
  9
$DIMTIX
 70
     0
  9
$DIMSOXD
 70
     0
  9
$DIMSAH
 70
     0
  9
$DIMBLK1
  1

  9
$DIMBLK2
  1

  9
$DIMSTYLE
  2
STANDARD
  9
$DIMCLRD
 70
     0
  9
$DIMCLRE
 70
     0
  9
$DIMCLRT
 70
     0
  9
$DIMTFAC
 40
1.0
  9
$DIMGAP
 40
0.09
  9
$DIMJUST
 70
     0
  9
$DIMSD1
 70
     0
  9
$DIMSD2
 70
     0
  9
$DIMTOLJ
 70
     1
  9
$DIMTZIN
 70
     0
  9
$DIMALTZ
 70
     0
  9
$DIMALTTZ
 70
     0
  9
$DIMUPT
 70
     0
  9
$DIMDEC
 70
     4
  9
$DIMTDEC
 70
     4
  9
$DIMALTU
 70
     2
  9
$DIMALTTD
 70
     2
  9
$DIMTXSTY
  7
STANDARD
  9
$DIMAUNIT
 70
     0
  9
$DIMADEC
 70
     0
  9
$DIMALTRND
 40
0.0
  9
$DIMAZIN
 70
     0
  9
$DIMDSEP
 70
    46
  9
$DIMATFIT
 70
     3
  9
$DIMFRAC
 70
     0
  9
$DIMLDRBLK
  1

  9
$DIMLUNIT
 70
     2
  9
$DIMLWD
 70
    -2
  9
$DIMLWE
 70
    -2
  9
$DIMTMOVE
 70
     0
  9
$LUNITS
 70
     2
  9
$LUPREC
 70
     4
  9
$SKETCHINC
 40
0.1
  9
$FILLETRAD
 40
0.0
  9
$AUNITS
 70
     0
  9
$AUPREC
 70
     0
  9
$MENU
  1
acad
  9
$ELEVATION
 40
0.0
  9
$PELEVATION
 40
0.0
  9
$THICKNESS
 40
0.0
  9
$LIMCHECK
 70
     0
  9
$CHAMFERA
 40
0.0
  9
$CHAMFERB
 40
0.0
  9
$CHAMFERC
 40
0.0
  9
$CHAMFERD
 40
0.0
  9
$SKPOLY
 70
     0
  9
$TDCREATE
 40
2457396.812326389
  9
$TDUCREATE
 40
2457396.437326389
  9
$TDUPDATE
 40
2457396.812882118
  9
$TDUUPDATE
 40
2457396.437882118
  9
$TDINDWG
 40
0.0004457870
  9
$TDUSRTIMER
 40
0.0004456944
  9
$USRTIMER
 70
     1
  9
$ANGBASE
 50
0.0
  9
$ANGDIR
 70
     0
  9
$PDMODE
 70
     1
  9
$PDSIZE
 40
-2.0
  9
$PLINEWID
 40
0.0
  9
$SPLFRAME
 70
     0
  9
$SPLINETYPE
 70
     6
  9
$SPLINESEGS
 70
     8
  9
$HANDSEED
  5
8BB
  9
$SURFTAB1
 70
     6
  9
$SURFTAB2
 70
     6
  9
$SURFTYPE
 70
     6
  9
$SURFU
 70
     6
  9
$SURFV
 70
     6
  9
$UCSBASE
  2

  9
$UCSNAME
  2

  9
$UCSORG
 10
0.0
 20
0.0
 30
0.0
  9
$UCSXDIR
 10
1.0
 20
0.0
 30
0.0
  9
$UCSYDIR
 10
0.0
 20
1.0
 30
0.0
  9
$UCSORTHOREF
  2

  9
$UCSORTHOVIEW
 70
     0
  9
$UCSORGTOP
 10
0.0
 20
0.0
 30
0.0
  9
$UCSORGBOTTOM
 10
0.0
 20
0.0
 30
0.0
  9
$UCSORGLEFT
 10
0.0
 20
0.0
 30
0.0
  9
$UCSORGRIGHT
 10
0.0
 20
0.0
 30
0.0
  9
$UCSORGFRONT
 10
0.0
 20
0.0
 30
0.0
  9
$UCSORGBACK
 10
0.0
 20
0.0
 30
0.0
  9
$PUCSBASE
  2

  9
$PUCSNAME
  2

  9
$PUCSORG
 10
0.0
 20
0.0
 30
0.0
  9
$PUCSXDIR
 10
1.0
 20
0.0
 30
0.0
  9
$PUCSYDIR
 10
0.0
 20
1.0
 30
0.0
  9
$PUCSORTHOREF
  2

  9
$PUCSORTHOVIEW
 70
     0
  9
$PUCSORGTOP
 10
0.0
 20
0.0
 30
0.0
  9
$PUCSORGBOTTOM
 10
0.0
 20
0.0
 30
0.0
  9
$PUCSORGLEFT
 10
0.0
 20
0.0
 30
0.0
  9
$PUCSORGRIGHT
 10
0.0
 20
0.0
 30
0.0
  9
$PUCSORGFRONT
 10
0.0
 20
0.0
 30
0.0
  9
$PUCSORGBACK
 10
0.0
 20
0.0
 30
0.0
  9
$USERI1
 70
     0
  9
$USERI2
 70
     0
  9
$USERI3
 70
     0
  9
$USERI4
 70
     0
  9
$USERI5
 70
     0
  9
$USERR1
 40
0.0
  9
$USERR2
 40
0.0
  9
$USERR3
 40
0.0
  9
$USERR4
 40
0.0
  9
$USERR5
 40
0.0
  9
$WORLDVIEW
 70
     1
  9
$SHADEDGE
 70
     3
  9
$SHADEDIF
 70
    70
  9
$TILEMODE
 70
     1
  9
$MAXACTVP
 70
    64
  9
$PINSBASE
 10
0.0
 20
0.0
 30
0.0
  9
$PLIMCHECK
 70
     0
  9
$PEXTMIN
 10
1.000000000000000E+20
 20
1.000000000000000E+20
 30
1.000000000000000E+20
  9
$PEXTMAX
 10
-1.000000000000000E+20
 20
-1.000000000000000E+20
 30
-1.000000000000000E+20
  9
$PLIMMIN
 10
0.0
 20
0.0
  9
$PLIMMAX
 10
12.0
 20
9.0
  9
$UNITMODE
 70
     0
  9
$VISRETAIN
 70
     0
  9
$PLINEGEN
 70
     1
  9
$PSLTSCALE
 70
     0
  9
$TREEDEPTH
 70
  3020
  9
$CMLSTYLE
  2
Standard
  9
$CMLJUST
 70
     0
  9
$CMLSCALE
 40
1.0
  9
$PROXYGRAPHICS
 70
     1
  9
$MEASUREMENT
 70
     0
  9
$CELWEIGHT
370
    -1
  9
$ENDCAPS
280
     0
  9
$JOINSTYLE
280
     0
  9
$LWDISPLAY
290
     0
  9
$INSUNITS
 70
     0
  9
$HYPERLINKBASE
  1

  9
$STYLESHEET
  1

  9
$XEDIT
290
     1
  9
$CEPSNTYPE
380
     0
  9
$PSTYLEMODE
290
     1
  9
$FINGERPRINTGUID
  2
{E8CC6A55-E775-4D83-B86D-A65B99AC9689}
  9
$VERSIONGUID
  2
{F1069324-C690-432B-AAB2-97B67B04EAA4}
  9
$EXTNAMES
290
     1
  9
$PSVPSCALE
 40
0.0
  9
$OLESTARTUP
290
     0
  0
ENDSEC
  0
SECTION
  2
CLASSES
  0
CLASS
  1
ACDBDICTIONARYWDFLT
  2
AcDbDictionaryWithDefault
  3
ObjectDBX Classes
 90
        0
280
     0
281
     0
  0
CLASS
  1
MATERIAL
  2
AcDbMaterial
  3
ObjectDBX Classes
 90
     1153
280
     0
281
     0
  0
CLASS
  1
VISUALSTYLE
  2
AcDbVisualStyle
  3
ObjectDBX Classes
 90
     4095
280
     0
281
     0
  0
CLASS
  1
SCALE
  2
AcDbScale
  3
ObjectDBX Classes
 90
     1153
280
     0
281
     0
  0
CLASS
  1
TABLESTYLE
  2
AcDbTableStyle
  3
ObjectDBX Classes
 90
     4095
280
     0
281
     0
  0
CLASS
  1
MLEADERSTYLE
  2
AcDbMLeaderStyle
  3
ACDB_MLEADERSTYLE_CLASS
 90
     4095
280
     0
281
     0
  0
CLASS
  1
ACDBSECTIONVIEWSTYLE
  2
AcDbSectionViewStyle
  3
ObjectDBX Classes
 90
     1025
280
     0
281
     0
  0
CLASS
  1
ACDBDETAILVIEWSTYLE
  2
AcDbDetailViewStyle
  3
ObjectDBX Classes
 90
     1025
280
     0
281
     0
  0
CLASS
  1
DICTIONARYVAR
  2
AcDbDictionaryVar
  3
ObjectDBX Classes
 90
        0
280
     0
281
     0
  0
CLASS
  1
CELLSTYLEMAP
  2
AcDbCellStyleMap
  3
ObjectDBX Classes
 90
     1152
280
     0
281
     0
  0
CLASS
  1
ACDBPLACEHOLDER
  2
AcDbPlaceHolder
  3
ObjectDBX Classes
 90
        0
280
     0
281
     0
  0
CLASS
  1
LAYOUT
  2
AcDbLayout
  3
ObjectDBX Classes
 90
        0
280
     0
281
     0
  0
ENDSEC
  0
SECTION
  2
TABLES
  0
TABLE
  2
VPORT
  5
7E5
330
0
100
AcDbSymbolTable
 70
     1
  0
VPORT
  5
851
330
7E5
100
AcDbSymbolTableRecord
100
AcDbViewportTableRecord
  2
*ACTIVE
 70
     0
 10
0.0
 20
0.0
 11
1.0
 21
1.0
 12
0.0000008381903172
 22
2.386237117452992
 13
0.0
 23
0.0
 14
1.0
 24
1.0
 15
0.0
 25
0.0
 16
0.0
 26
0.0
 36
1.0
 17
0.0
 27
0.0
 37
0.0
 40
538.2011185117715
 41
2.328139321723189
 42
50.0
 43
0.0
 44
0.0
 50
0.0
 51
0.0
 71
     0
 72
  2000
 73
     1
 74
     1
 75
     0
 76
     0
 77
     0
 78
     0
281
     0
 65
     1
110
0.0
120
0.0
130
0.0
111
1.0
121
0.0
131
0.0
112
0.0
122
1.0
132
0.0
 79
     0
146
0.0
1001
ACAD_NAV_VCDISPLAY
1070
     3
  0
ENDTAB
  0
TABLE
  2
LTYPE
  5
7E2
330
0
100
AcDbSymbolTable
 70
    11
  0
LTYPE
  5
837
330
7E2
100
AcDbSymbolTableRecord
100
AcDbLinetypeTableRecord
  2
ByBlock
 70
     0
  3

 72
    65
 73
     0
 40
0.0
  0
LTYPE
  5
838
330
7E2
100
AcDbSymbolTableRecord
100
AcDbLinetypeTableRecord
  2
ByLayer
 70
     0
  3

 72
    65
 73
     0
 40
0.0
  0
LTYPE
  5
839
330
7E2
100
AcDbSymbolTableRecord
100
AcDbLinetypeTableRecord
  2
CONTINUOUS
 70
     0
  3
Solid line
 72
    65
 73
     0
 40
0.0
  0
LTYPE
  5
857
330
7E2
100
AcDbSymbolTableRecord
100
AcDbLinetypeTableRecord
  2
STYLE_06
 70
     0
  3

 72
    65
 73
     4
 40
1.041641235351562
 49
0.625
 74
     0
 49
-0.208282470703125
 74
     0
 49
0.069427490234375
 74
     0
 49
-0.1389312744140625
 74
     0
  0
ENDTAB
  0
TABLE
  2
LAYER
  5
7DF
330
0
100
AcDbSymbolTable
 70
     5
  0
LAYER
  5
831
102
{ACAD_XDICTIONARY
360
865
102
}
330
7DF
100
AcDbSymbolTableRecord
100
AcDbLayerTableRecord
  2
0
 70
     0
 62
     7
  6
CONTINUOUS
370
    -3
390
7EC
  0
LAYER
  5
850
102
{ACAD_XDICTIONARY
360
867
102
}
330
7DF
100
AcDbSymbolTableRecord
100
AcDbLayerTableRecord
  2
DATA
 70
     0
 62
     7
  6
CONTINUOUS
370
    -3
390
7EC
  0
LAYER
  5
85C
102
{ACAD_XDICTIONARY
360
869
102
}
330
7DF
100
AcDbSymbolTableRecord
100
AcDbLayerTableRecord
  2
HIBINO-BASE
 70
     0
 62
     7
  6
CONTINUOUS
370
    -3
390
7EC
  0
LAYER
  5
85D
102
{ACAD_XDICTIONARY
360
86B
102
}
330
7DF
100
AcDbSymbolTableRecord
100
AcDbLayerTableRecord
  2
SPEC
 70
     0
 62
     7
  6
CONTINUOUS
370
    -3
390
7EC
  0
LAYER
  5
85E
102
{ACAD_XDICTIONARY
360
86D
102
}
330
7DF
100
AcDbSymbolTableRecord
100
AcDbLayerTableRecord
  2
DIMNSIONS
 70
     0
 62
     7
  6
CONTINUOUS
370
    -3
390
7EC
  0
ENDTAB
  0
TABLE
  2
STYLE
  5
7E0
330
0
100
AcDbSymbolTable
 70
     3
  0
STYLE
  5
832
330
7E0
100
AcDbSymbolTableRecord
100
AcDbTextStyleTableRecord
  2
STANDARD
 70
     0
 40
0.0
 41
1.0
 50
0.0
 71
     0
 42
0.0
  3
txt
  4
BIGFONT.SHX
  0
ENDTAB
  0
TABLE
  2
VIEW
  5
7E3
330
0
100
AcDbSymbolTable
 70
     0
  0
ENDTAB
  0
TABLE
  2
UCS
  5
7E4
330
0
100
AcDbSymbolTable
 70
     0
  0
ENDTAB
  0
TABLE
  2
APPID
  5
7E6
330
0
100
AcDbSymbolTable
 70
     4
  0
APPID
  5
833
330
7E6
100
AcDbSymbolTableRecord
100
AcDbRegAppTableRecord
  2
ACAD
 70
     0
  0
APPID
  5
83A
330
7E6
100
AcDbSymbolTableRecord
100
AcDbRegAppTableRecord
  2
AcadAnnotative
 70
     0
  0
APPID
  5
879
330
7E6
100
AcDbSymbolTableRecord
100
AcDbRegAppTableRecord
  2
ACAD_NAV_VCDISPLAY
 70
     0
  0
APPID
  5
8B2
330
7E6
100
AcDbSymbolTableRecord
100
AcDbRegAppTableRecord
  2
ACAD_MLEADERVER
 70
     0
  0
ENDTAB
  0
TABLE
  2
DIMSTYLE
  5
7E7
330
0
100
AcDbSymbolTable
 70
     2
100
AcDbDimStyleTable
 71
     0
  0
DIMSTYLE
105
834
330
7E7
100
AcDbSymbolTableRecord
100
AcDbDimStyleTableRecord
  2
STANDARD
 70
     0
279
     2
340
832
  0
ENDTAB
  0
TABLE
  2
BLOCK_RECORD
  5
7DE
330
0
100
AcDbSymbolTable
 70
     0
  0
BLOCK_RECORD
  5
84C
330
7DE
100
AcDbSymbolTableRecord
100
AcDbBlockTableRecord
  2
*Model_Space
340
84F
  0
BLOCK_RECORD
  5
848
330
7DE
100
AcDbSymbolTableRecord
100
AcDbBlockTableRecord
  2
*Paper_Space
340
84B
  0
ENDTAB
  0
ENDSEC
  0
SECTION
  2
BLOCKS
  0
BLOCK
  5
84D
330
84C
100
AcDbEntity
  8
0
100
AcDbBlockBegin
  2
*Model_Space
 70
     0
 10
0.0
 20
0.0
 30
0.0
  3
*Model_Space
  1

  0
ENDBLK
  5
84E
330
84C
100
AcDbEntity
  8
0
100
AcDbBlockEnd
  0
BLOCK
  5
849
330
848
100
AcDbEntity
 67
     1
  8
0
100
AcDbBlockBegin
  2
*Paper_Space
 70
     0
 10
0.0
 20
0.0
 30
0.0
  3
*Paper_Space
  1

  0
ENDBLK
  5
84A
330
848
100
AcDbEntity
 67
     1
  8
0
100
AcDbBlockEnd
  0
ENDSEC
  0
SECTION
  2
ENTITIES
  0
LINE
  5
2C
330
84C
100
AcDbEntity
  8
HIBINO-BASE
  6
Continuous
 62
     7
100
AcDbLine
 10
-180.0
 20
269.9999999999999
 30
0.0
 11
180.0
 21
269.9999999999999
 31
0.0
  0
LINE
  5
2D
330
84C
100
AcDbEntity
  8
HIBINO-BASE
  6
Continuous
 62
     7
100
AcDbLine
 10
180.0
 20
-250.0000000000001
 30
0.0
 11
-180.0
 21
-250.0000000000001
 31
0.0
  0
LINE
  5
2E
330
84C
100
AcDbEntity
  8
HIBINO-BASE
  6
Continuous
 62
     7
100
AcDbLine
 10
-180.0
 20
-250.0000000000001
 30
0.0
 11
-180.0
 21
269.9999999999999
 31
0.0
  0
LINE
  5
2F
330
84C
100
AcDbEntity
  8
HIBINO-BASE
  6
Continuous
 62
     7
100
AcDbLine
 10
180.0
 20
269.9999999999999
 30
0.0
 11
180.0
 21
-250.0000000000001
 31
0.0
  0
LINE
  5
30
330
84C
100
AcDbEntity
  8
HIBINO-BASE
  6
Continuous
 62
     7
100
AcDbLine
 10
0.0000000000000142
 20
-205.0000000000001
 30
0.0
 11
180.0
 21
-205.0000000000001
 31
0.0
  0
LINE
  5
31
330
84C
100
AcDbEntity
  8
HIBINO-BASE
  6
Continuous
 62
     7
100
AcDbLine
 10
0.0000000000000142
 20
-250.0000000000001
 30
0.0
 11
0.0000000000000142
 21
-205.0000000000001
 31
0.0
  0
TEXT
  5
32
330
84C
100
AcDbEntity
  8
HIBINO-BASE
 62
     7
100
AcDbText
 10
1.800000000000025
 20
-210.0173866666667
 30
0.0
 40
3.257682291666666
  1
NOTE
 41
0.7
 11
1.800000000000025
 21
-206.7597043750001
 31
0.0
100
AcDbText
 73
     3
  0
LINE
  5
33
330
84C
100
AcDbEntity
  8
HIBINO-BASE
  6
Continuous
 62
     7
100
AcDbLine
 10
70.00000000000004
 20
-250.0000000000001
 30
0.0
 11
70.00000000000004
 21
-205.0000000000001
 31
0.0
  0
TEXT
  5
34
330
84C
100
AcDbEntity
  8
HIBINO-BASE
 62
     7
100
AcDbText
 10
71.79999999999999
 20
-210.0173866666667
 30
0.0
 40
3.257682291666666
  1
TITLE
 41
0.7
 11
71.79999999999999
 21
-206.7597043750001
 31
0.0
100
AcDbText
 73
     3
  0
LINE
  5
35
330
84C
100
AcDbEntity
  8
HIBINO-BASE
  6
Continuous
 62
     7
100
AcDbLine
 10
0.0000000000000142
 20
-230.0000000000001
 30
0.0
 11
180.0
 21
-230.0000000000001
 31
0.0
  0
TEXT
  5
36
330
84C
100
AcDbEntity
  8
HIBINO-BASE
 62
     7
100
AcDbText
 10
96.79999999999999
 20
-234.9047466666668
 30
0.0
 40
3.257682291666666
  1
DRAWN
 41
0.7
 11
96.79999999999999
 21
-231.6470643750001
 31
0.0
100
AcDbText
 73
     3
  0
TEXT
  5
37
330
84C
100
AcDbEntity
  8
HIBINO-BASE
 62
     7
100
AcDbText
 10
46.79999999999999
 20
-234.9047466666668
 30
0.0
 40
3.257682291666666
  1
DATE
 41
0.7
 11
46.79999999999999
 21
-231.6470643750001
 31
0.0
100
AcDbText
 73
     3
  0
TEXT
  5
38
330
84C
100
AcDbEntity
  8
HIBINO-BASE
 62
     7
100
AcDbText
 10
26.8
 20
-234.9047466666668
 30
0.0
 40
3.257682291666666
  1
SCALE
 41
0.7
 11
26.8
 21
-231.6470643750001
 31
0.0
100
AcDbText
 73
     3
  0
TEXT
  5
39
330
84C
100
AcDbEntity
  8
HIBINO-BASE
 62
     7
100
AcDbText
 10
71.79999999999999
 20
-234.9047466666668
 30
0.0
 40
3.257682291666666
  1
DESIGN
 41
0.7
 11
71.79999999999999
 21
-231.6470643750001
 31
0.0
100
AcDbText
 73
     3
  0
TEXT
  5
3A
330
84C
100
AcDbEntity
  8
HIBINO-BASE
 62
     7
100
AcDbText
 10
146.7999999999999
 20
-234.9047466666668
 30
0.0
 40
3.257682291666666
  1
DRAWING NO.
 41
0.7
 11
146.7999999999999
 21
-231.6470643750001
 31
0.0
100
AcDbText
 73
     3
  0
TEXT
  5
3B
330
84C
100
AcDbEntity
  8
HIBINO-BASE
 62
     7
100
AcDbText
 10
121.7999999999999
 20
-234.9047466666668
 30
0.0
 40
3.257682291666666
  1
CHECK
 41
0.7
 11
121.7999999999999
 21
-231.6470643750001
 31
0.0
100
AcDbText
 73
     3
  0
LINE
  5
3C
330
84C
100
AcDbEntity
  8
HIBINO-BASE
  6
Continuous
 62
     7
100
AcDbLine
 10
28.75000000000001
 20
-247.5000000000001
 30
0.0
 11
36.25000000000005
 21
-240.0000000000001
 31
0.0
  0
TEXT
  5
3D
330
84C
100
AcDbEntity
  8
HIBINO-BASE
 62
     7
100
AcDbText
 10
27.50000000000001
 20
-242.2178866666667
 30
0.0
 40
3.257682291666666
  1
1
 41
0.7
 11
27.50000000000001
 21
-238.9602043750001
 31
0.0
100
AcDbText
 73
     3
  0
LINE
  5
3E
330
84C
100
AcDbEntity
  8
HIBINO-BASE
  6
Continuous
 62
     7
100
AcDbLine
 10
25.00000000000001
 20
-250.0000000000001
 30
0.0
 11
25.00000000000001
 21
-230.0000000000001
 31
0.0
  0
LINE
  5
3F
330
84C
100
AcDbEntity
  8
HIBINO-BASE
  6
Continuous
 62
     7
100
AcDbLine
 10
44.99999999999999
 20
-250.0000000000001
 30
0.0
 11
44.99999999999999
 21
-230.0000000000001
 31
0.0
  0
LINE
  5
40
330
84C
100
AcDbEntity
  8
HIBINO-BASE
  6
Continuous
 62
     7
100
AcDbLine
 10
94.99999999999998
 20
-230.0000000000001
 30
0.0
 11
94.99999999999998
 21
-250.0000000000001
 31
0.0
  0
LINE
  5
41
330
84C
100
AcDbEntity
  8
HIBINO-BASE
  6
Continuous
 62
     7
100
AcDbLine
 10
145.0
 20
-230.0000000000001
 30
0.0
 11
145.0
 21
-250.0000000000001
 31
0.0
  0
LINE
  5
42
330
84C
100
AcDbEntity
  8
HIBINO-BASE
  6
Continuous
 62
     7
100
AcDbLine
 10
120.0
 20
-250.0000000000001
 30
0.0
 11
120.0
 21
-230.0000000000001
 31
0.0
  0
TEXT
  5
43
330
84C
100
AcDbEntity
  8
HIBINO-BASE
 62
     7
100
AcDbText
 10
46.71308000000004
 20
-244.2727066666666
 30
0.0
 40
3.257682291666666
  1
'16.01.
 41
0.7
 11
46.71308000000004
 21
-241.015024375
 31
0.0
100
AcDbText
 73
     3
  0
TEXT
  5
44
330
84C
100
AcDbEntity
  8
HIBINO-BASE
 62
     7
100
AcDbText
 10
35.00000000000001
 20
-245.9678866666668
 30
0.0
 40
3.257682291666666
  1
2
 41
0.7
 11
35.00000000000001
 21
-242.7102043750001
 31
0.0
100
AcDbText
 73
     3
  0
TEXT
  5
45
330
84C
100
AcDbEntity
  8
HIBINO-BASE
 62
     7
100
AcDbText
 10
98.01162002206922
 20
-244.2727066666666
 30
0.0
 40
3.257682291666666
  1
N.Sasaki
 41
0.7
 11
98.01162002206922
 21
-241.015024375
 31
0.0
100
AcDbText
 73
     3
  0
TEXT
  5
46
330
84C
100
AcDbEntity
  8
HIBINO-BASE
 62
     7
100
AcDbText
 10
7.766666666666721
 20
-246.048
 30
0.0
 40
6.515364583333333
  1
A4
 41
0.7
 11
7.766666666666721
 21
-239.5326354166667
 31
0.0
100
AcDbText
 73
     3
  0
TEXT
  5
47
330
84C
100
AcDbEntity
  8
HIBINO-BASE
 62
     7
100
AcDbText
 10
1.916666666666671
 20
-235.2389100000001
 30
0.0
 40
3.257682291666666
  1
PAPER SIZE
 41
0.7
 11
1.916666666666671
 21
-231.9812277083334
 31
0.0
100
AcDbText
 73
     3
  0
TEXT
  5
48
330
84C
100
AcDbEntity
  8
HIBINO-BASE
 62
     7
100
AcDbText
 10
-165.6319999999999
 20
-262.8173556
 30
0.0
 40
7.200088359374999
  1
Hibino Corporation
 41
0.7
 11
-165.6319999999999
 21
-255.617267240625
 31
0.0
100
AcDbText
 73
     3
  0
TEXT
  5
49
330
84C
100
AcDbEntity
  8
HIBINO-BASE
 62
     7
100
AcDbText
 10
100.13678
 20
-262.8173556
 30
0.0
 40
7.200088359374999
  1
ヒビノ株式会社
 41
0.7
 11
100.13678
 21
-255.617267240625
 31
0.0
100
AcDbText
 73
     3
  0
LINE
  5
4A
330
84C
100
AcDbEntity
  8
SPEC
  6
Continuous
 62
     7
100
AcDbLine
 10
-164.9999999999999
 20
250.0
 30
0.0
 11
130.0
 21
250.0
 31
0.0
  0
LINE
  5
4B
330
84C
100
AcDbEntity
  8
SPEC
  6
Continuous
 62
     7
100
AcDbLine
 10
-164.9999999999999
 20
242.5
 30
0.0
 11
130.0
 21
242.5
 31
0.0
  0
LINE
  5
4C
330
84C
100
AcDbEntity
  8
SPEC
  6
Continuous
 62
     7
100
AcDbLine
 10
-164.9999999999999
 20
250.0
 30
0.0
 11
-164.9999999999999
 21
235.0
 31
0.0
  0
TEXT
  5
4D
330
84C
100
AcDbEntity
  8
SPEC
 62
     7
100
AcDbText
 10
-162.5
 20
252.7865399999999
 30
0.0
 40
4.886523437500001
  1
仕様
 41
0.7
 11
-162.5
 21
257.6730634374999
 31
0.0
100
AcDbText
 73
     3
  0
LINE
  5
4E
330
84C
100
AcDbEntity
  8
SPEC
  6
Continuous
 62
     7
100
AcDbLine
 10
-100.0
 20
250.0
 30
0.0
 11
-100.0
 21
235.0
 31
0.0
  0
LINE
  5
4F
330
84C
100
AcDbEntity
  8
SPEC
  6
Continuous
 62
     7
100
AcDbLine
 10
130.0
 20
250.0
 30
0.0
 11
130.0
 21
235.0
 31
0.0
  0
TEXT
  5
50
330
84C
100
AcDbEntity
  8
SPEC
 62
     7
100
AcDbText
 10
-163.2
 20
244.0758355555555
 30
0.0
 40
3.800629340277779
  1
寸法(W\U+00D7H\U+00D7D)
 41
0.7
 11
-163.2
 21
247.8764648958333
 31
0.0
100
AcDbText
 73
     3
  0
TEXT
  5
51
330
84C
100
AcDbEntity
  8
SPEC
 62
     7
100
AcDbText
 10
-163.2
 20
236.5758355555555
 30
0.0
 40
3.800629340277779
  1
質量
 41
0.7
 11
-163.2
 21
240.3764648958333
 31
0.0
100
AcDbText
 73
     3
  0
TEXT
  5
52
330
84C
100
AcDbEntity
  8
SPEC
 62
     7
100
AcDbText
 10
-98.2
 20
244.0758355555555
 30
0.0
 40
3.800629340277779
  1
76\U+00D7120\U+00D729mm(除突起部)
 41
0.7
 11
-98.2
 21
247.8764648958333
 31
0.0
100
AcDbText
 73
     3
  0
TEXT
  5
53
330
84C
100
AcDbEntity
  8
SPEC
 62
     7
100
AcDbText
 10
-98.2
 20
236.5758355555555
 30
0.0
 40
3.800629340277779
  1
74g
 41
0.7
 11
-98.2
 21
240.3764648958333
 31
0.0
100
AcDbText
 73
     3
  0
LINE
  5
54
330
84C
100
AcDbEntity
  8
SPEC
  6
Continuous
 62
     7
100
AcDbLine
 10
-164.9999999999999
 20
235.0
 30
0.0
 11
130.0
 21
235.0
 31
0.0
  0
TEXT
  5
55
330
84C
100
AcDbEntity
  8
DIMNSIONS
 62
     7
100
AcDbText
 10
-40.0
 20
-225.46102
 30
0.0
 40
4.886523437500001
  1
(単位：mm)
 41
0.7
 11
-40.0
 21
-220.5744965625
 31
0.0
100
AcDbText
 73
     3
  0
LINE
  5
56
330
84C
100
AcDbEntity
  8
DIMNSIONS
  6
Continuous
 62
     7
100
AcDbLine
 10
-89.55779835948669
 20
-15.07440236834527
 30
0.0
 11
-116.5
 21
-15.07440236834527
 31
0.0
  0
LINE
  5
57
330
84C
100
AcDbEntity
  8
DIMNSIONS
  6
Continuous
 62
     7
100
AcDbLine
 10
-89.55779835948669
 20
-134.9235730645243
 30
0.0
 11
-116.5
 21
-134.9235730645243
 31
0.0
  0
LINE
  5
58
330
84C
100
AcDbEntity
  8
DIMNSIONS
  6
Continuous
 62
     7
100
AcDbLine
 10
-112.5
 20
-15.07440236834527
 30
0.0
 11
-112.5
 21
-134.9235730645243
 31
0.0
  0
LINE
  5
59
330
84C
100
AcDbEntity
  8
DIMNSIONS
  6
Continuous
 62
     7
100
AcDbLine
 10
-112.5
 20
-15.07440236834527
 30
0.0
 11
-111.1599204096995
 21
-20.07564748553277
 31
0.0
  0
LINE
  5
5A
330
84C
100
AcDbEntity
  8
DIMNSIONS
  6
Continuous
 62
     7
100
AcDbLine
 10
-112.5
 20
-15.07440236834527
 30
0.0
 11
-113.8400795903005
 21
-20.07564748553277
 31
0.0
  0
LINE
  5
5B
330
84C
100
AcDbEntity
  8
DIMNSIONS
  6
Continuous
 62
     7
100
AcDbLine
 10
-112.5
 20
-134.9235730645243
 30
0.0
 11
-113.8400795903005
 21
-129.9223279473368
 31
0.0
  0
LINE
  5
5C
330
84C
100
AcDbEntity
  8
DIMNSIONS
  6
Continuous
 62
     7
100
AcDbLine
 10
-112.5
 20
-134.9235730645243
 30
0.0
 11
-111.1599204096995
 21
-129.9223279473368
 31
0.0
  0
TEXT
  5
5D
330
84C
100
AcDbEntity
  8
DIMNSIONS
 62
     7
100
AcDbText
 10
-114.4877777777777
 20
-80.29065438310146
 30
0.0
 40
5.429470486111111
  1
120
 50
90.0
 41
0.7
 11
-119.9172482638888
 21
-80.29065438310146
 31
0.0
100
AcDbText
 73
     3
  0
LINE
  5
5E
330
84C
100
AcDbEntity
  8
DIMNSIONS
  6
Continuous
 62
     7
100
AcDbLine
 10
-87.75
 20
-137.0120073414166
 30
0.0
 11
-87.75
 21
-163.9235730645243
 31
0.0
  0
LINE
  5
5F
330
84C
100
AcDbEntity
  8
DIMNSIONS
  6
Continuous
 62
     7
100
AcDbLine
 10
-12.25
 20
-137.0109950578513
 30
0.0
 11
-12.25
 21
-163.9235730645243
 31
0.0
  0
LINE
  5
60
330
84C
100
AcDbEntity
  8
DIMNSIONS
  6
Continuous
 62
     7
100
AcDbLine
 10
-87.75
 20
-159.9235730645243
 30
0.0
 11
-12.25
 21
-159.9235730645243
 31
0.0
  0
LINE
  5
61
330
84C
100
AcDbEntity
  8
DIMNSIONS
  6
Continuous
 62
     7
100
AcDbLine
 10
-87.75
 20
-159.9235730645243
 30
0.0
 11
-82.74875488281251
 21
-158.5834934742238
 31
0.0
  0
LINE
  5
62
330
84C
100
AcDbEntity
  8
DIMNSIONS
  6
Continuous
 62
     7
100
AcDbLine
 10
-87.75
 20
-159.9235730645243
 30
0.0
 11
-82.74875488281251
 21
-161.2636526548248
 31
0.0
  0
LINE
  5
63
330
84C
100
AcDbEntity
  8
DIMNSIONS
  6
Continuous
 62
     7
100
AcDbLine
 10
-12.25
 20
-159.9235730645243
 30
0.0
 11
-17.2512451171875
 21
-161.2636526548248
 31
0.0
  0
LINE
  5
64
330
84C
100
AcDbEntity
  8
DIMNSIONS
  6
Continuous
 62
     7
100
AcDbLine
 10
-12.25
 20
-159.9235730645243
 30
0.0
 11
-17.2512451171875
 21
-158.5834934742238
 31
0.0
  0
TEXT
  5
65
330
84C
100
AcDbEntity
  8
DIMNSIONS
 62
     7
100
AcDbText
 10
-57.05555555555556
 20
-157.9357952867466
 30
0.0
 40
5.429470486111111
  1
75.5
 41
0.7
 11
-57.05555555555556
 21
-152.5063248006354
 31
0.0
100
AcDbText
 73
     3
  0
LINE
  5
66
330
84C
100
AcDbEntity
  8
DIMNSIONS
  6
Continuous
 62
     7
100
AcDbLine
 10
-54.0
 20
-26.4
 30
0.0
 11
-104.0
 21
-26.4
 31
0.0
  0
LINE
  5
67
330
84C
100
AcDbEntity
  8
DIMNSIONS
  6
Continuous
 62
     7
100
AcDbLine
 10
-54.0
 20
-123.6
 30
0.0
 11
-104.0
 21
-123.6
 31
0.0
  0
LINE
  5
68
330
84C
100
AcDbEntity
  8
DIMNSIONS
  6
Continuous
 62
     7
100
AcDbLine
 10
-100.0
 20
-26.4
 30
0.0
 11
-100.0
 21
-123.6
 31
0.0
  0
LINE
  5
69
330
84C
100
AcDbEntity
  8
DIMNSIONS
  6
Continuous
 62
     7
100
AcDbLine
 10
-100.0
 20
-26.4
 30
0.0
 11
-98.65992040969951
 21
-31.4012451171875
 31
0.0
  0
LINE
  5
6A
330
84C
100
AcDbEntity
  8
DIMNSIONS
  6
Continuous
 62
     7
100
AcDbLine
 10
-100.0
 20
-26.4
 30
0.0
 11
-101.3400795903005
 21
-31.4012451171875
 31
0.0
  0
LINE
  5
6B
330
84C
100
AcDbEntity
  8
DIMNSIONS
  6
Continuous
 62
     7
100
AcDbLine
 10
-100.0
 20
-123.6
 30
0.0
 11
-101.3400795903005
 21
-118.5987548828125
 31
0.0
  0
LINE
  5
6C
330
84C
100
AcDbEntity
  8
DIMNSIONS
  6
Continuous
 62
     7
100
AcDbLine
 10
-100.0
 20
-123.6
 30
0.0
 11
-98.65992040969951
 21
-118.5987548828125
 31
0.0
  0
TEXT
  5
6D
330
84C
100
AcDbEntity
  8
DIMNSIONS
 62
     7
100
AcDbText
 10
-101.9877777777777
 20
-82.05555555555553
 30
0.0
 40
5.429470486111111
  1
97.2
 50
90.0
 41
0.7
 11
-107.4172482638888
 21
-82.05555555555553
 31
0.0
100
AcDbText
 73
     3
  0
LINE
  5
6E
330
84C
100
AcDbEntity
  8
DIMNSIONS
  6
Continuous
 62
     7
100
AcDbLine
 10
52.06549454826843
 20
-33.3
 30
0.0
 11
79.0
 21
-33.3
 31
0.0
  0
LINE
  5
6F
330
84C
100
AcDbEntity
  8
DIMNSIONS
  6
Continuous
 62
     7
100
AcDbLine
 10
52.06549454826843
 20
-116.7
 30
0.0
 11
79.0
 21
-116.7
 31
0.0
  0
LINE
  5
70
330
84C
100
AcDbEntity
  8
DIMNSIONS
  6
Continuous
 62
     7
100
AcDbLine
 10
75.0
 20
-33.3
 30
0.0
 11
75.0
 21
-116.7
 31
0.0
  0
LINE
  5
71
330
84C
100
AcDbEntity
  8
DIMNSIONS
  6
Continuous
 62
     7
100
AcDbLine
 10
75.0
 20
-33.3
 30
0.0
 11
76.3400795903005
 21
-38.30124511718749
 31
0.0
  0
LINE
  5
72
330
84C
100
AcDbEntity
  8
DIMNSIONS
  6
Continuous
 62
     7
100
AcDbLine
 10
75.0
 20
-33.3
 30
0.0
 11
73.65992040969951
 21
-38.30124511718749
 31
0.0
  0
LINE
  5
73
330
84C
100
AcDbEntity
  8
DIMNSIONS
  6
Continuous
 62
     7
100
AcDbLine
 10
75.0
 20
-116.7
 30
0.0
 11
73.65992040969951
 21
-111.6987548828125
 31
0.0
  0
LINE
  5
74
330
84C
100
AcDbEntity
  8
DIMNSIONS
  6
Continuous
 62
     7
100
AcDbLine
 10
75.0
 20
-116.7
 30
0.0
 11
76.3400795903005
 21
-111.6987548828125
 31
0.0
  0
TEXT
  5
75
330
84C
100
AcDbEntity
  8
DIMNSIONS
 62
     7
100
AcDbText
 10
73.01222222222222
 20
-82.05555555555553
 30
0.0
 40
5.429470486111111
  1
83.4
 50
90.0
 41
0.7
 11
67.5827517361111
 21
-82.05555555555553
 31
0.0
100
AcDbText
 73
     3
  0
LINE
  5
76
330
84C
100
AcDbEntity
  8
DIMNSIONS
  6
Continuous
 62
     7
100
AcDbLine
 10
-78.92943786109879
 20
31.12616940825507
 30
0.0
 11
-104.0
 21
31.12616940825507
 31
0.0
  0
LINE
  5
77
330
84C
100
AcDbEntity
  8
DIMNSIONS
  6
Continuous
 62
     7
100
AcDbLine
 10
-91.75
 20
37.5
 30
0.0
 11
-104.0
 21
37.5
 31
0.0
  0
LINE
  5
78
330
84C
100
AcDbEntity
  8
DIMNSIONS
  6
Continuous
 62
     7
100
AcDbLine
 10
-100.0
 20
37.5
 30
0.0
 11
-100.0
 21
31.12616940825507
 31
0.0
  0
LINE
  5
79
330
84C
100
AcDbEntity
  8
DIMNSIONS
  6
Continuous
 62
     7
100
AcDbLine
 10
-100.0
 20
31.12616940825507
 30
0.0
 11
-100.0
 21
21.12616940825507
 31
0.0
  0
LINE
  5
7A
330
84C
100
AcDbEntity
  8
DIMNSIONS
  6
Continuous
 62
     7
100
AcDbLine
 10
-100.0
 20
31.12616940825507
 30
0.0
 11
-98.65992040969951
 21
26.12492429106757
 31
0.0
  0
LINE
  5
7B
330
84C
100
AcDbEntity
  8
DIMNSIONS
  6
Continuous
 62
     7
100
AcDbLine
 10
-100.0
 20
31.12616940825507
 30
0.0
 11
-101.3400795903005
 21
26.12492429106757
 31
0.0
  0
LINE
  5
7C
330
84C
100
AcDbEntity
  8
DIMNSIONS
  6
Continuous
 62
     7
100
AcDbLine
 10
-100.0
 20
37.5
 30
0.0
 11
-100.0
 21
54.2095027415884
 31
0.0
  0
LINE
  5
7D
330
84C
100
AcDbEntity
  8
DIMNSIONS
  6
Continuous
 62
     7
100
AcDbLine
 10
-100.0
 20
37.5
 30
0.0
 11
-101.3400795903005
 21
42.50124511718751
 31
0.0
  0
LINE
  5
7E
330
84C
100
AcDbEntity
  8
DIMNSIONS
  6
Continuous
 62
     7
100
AcDbLine
 10
-100.0
 20
37.5
 30
0.0
 11
-98.65992040969951
 21
42.50124511718751
 31
0.0
  0
TEXT
  5
7F
330
84C
100
AcDbEntity
  8
DIMNSIONS
 62
     7
100
AcDbText
 10
-101.9877777777777
 20
43.62616940825506
 30
0.0
 40
5.429470486111111
  1
6.4
 50
90.0
 41
0.7
 11
-107.4172482638888
 21
43.62616940825506
 31
0.0
100
AcDbText
 73
     3
  0
LINE
  5
80
330
84C
100
AcDbEntity
  8
DIMNSIONS
  6
Continuous
 62
     7
100
AcDbLine
 10
-104.0
 20
31.12616940825507
 30
0.0
 11
-116.5
 21
31.12616940825507
 31
0.0
  0
LINE
  5
81
330
84C
100
AcDbEntity
  8
DIMNSIONS
  6
Continuous
 62
     7
100
AcDbLine
 10
-61.75000000000002
 20
60.12616940825505
 30
0.0
 11
-116.5
 21
60.12616940825505
 31
0.0
  0
LINE
  5
82
330
84C
100
AcDbEntity
  8
DIMNSIONS
  6
Continuous
 62
     7
100
AcDbLine
 10
-112.5
 20
31.12616940825507
 30
0.0
 11
-112.5
 21
60.12616940825505
 31
0.0
  0
LINE
  5
83
330
84C
100
AcDbEntity
  8
DIMNSIONS
  6
Continuous
 62
     7
100
AcDbLine
 10
-112.5
 20
31.12616940825507
 30
0.0
 11
-113.8400795903005
 21
36.12741452544258
 31
0.0
  0
LINE
  5
84
330
84C
100
AcDbEntity
  8
DIMNSIONS
  6
Continuous
 62
     7
100
AcDbLine
 10
-112.5
 20
31.12616940825507
 30
0.0
 11
-111.1599204096995
 21
36.12741452544258
 31
0.0
  0
LINE
  5
85
330
84C
100
AcDbEntity
  8
DIMNSIONS
  6
Continuous
 62
     7
100
AcDbLine
 10
-112.5
 20
60.12616940825505
 30
0.0
 11
-111.1599204096995
 21
55.12492429106757
 31
0.0
  0
LINE
  5
86
330
84C
100
AcDbEntity
  8
DIMNSIONS
  6
Continuous
 62
     7
100
AcDbLine
 10
-112.5
 20
60.12616940825505
 30
0.0
 11
-113.8400795903005
 21
55.12492429106757
 31
0.0
  0
TEXT
  5
87
330
84C
100
AcDbEntity
  8
DIMNSIONS
 62
     7
100
AcDbText
 10
-114.4877777777777
 20
38.57061385269951
 30
0.0
 40
5.429470486111111
  1
29.0
 50
90.0
 41
0.7
 11
-119.9172482638888
 21
38.57061385269951
 31
0.0
100
AcDbText
 73
     3
  0
LINE
  5
88
330
84C
100
AcDbEntity
  8
DIMNSIONS
  6
Continuous
 62
     7
100
AcDbLine
 10
-59.36679680571953
 20
22.1261694082718
 30
0.0
 11
-116.5
 21
22.1261694082718
 31
0.0
  0
LINE
  5
89
330
84C
100
AcDbEntity
  8
DIMNSIONS
  6
Continuous
 62
     7
100
AcDbLine
 10
-82.92943786109878
 20
31.12616940825507
 30
0.0
 11
-116.5
 21
31.12616940825507
 31
0.0
  0
LINE
  5
8A
330
84C
100
AcDbEntity
  8
DIMNSIONS
  6
Continuous
 62
     7
100
AcDbLine
 10
-112.5
 20
31.12616940825507
 30
0.0
 11
-112.5
 21
22.1261694082718
 31
0.0
  0
LINE
  5
8B
330
84C
100
AcDbEntity
  8
DIMNSIONS
  6
Continuous
 62
     7
100
AcDbLine
 10
-112.5
 20
22.1261694082718
 30
0.0
 11
-112.5
 21
5.185746174565213
 31
0.0
  0
LINE
  5
8C
330
84C
100
AcDbEntity
  8
DIMNSIONS
  6
Continuous
 62
     7
100
AcDbLine
 10
-112.5
 20
22.1261694082718
 30
0.0
 11
-111.1599204096995
 21
17.12492429108429
 31
0.0
  0
LINE
  5
8D
330
84C
100
AcDbEntity
  8
DIMNSIONS
  6
Continuous
 62
     7
100
AcDbLine
 10
-112.5
 20
22.1261694082718
 30
0.0
 11
-113.8400795903005
 21
17.12492429108429
 31
0.0
  0
LINE
  5
8E
330
84C
100
AcDbEntity
  8
DIMNSIONS
  6
Continuous
 62
     7
100
AcDbLine
 10
-112.5
 20
31.12616940825507
 30
0.0
 11
-112.5
 21
41.12616940825506
 31
0.0
  0
LINE
  5
8F
330
84C
100
AcDbEntity
  8
DIMNSIONS
  6
Continuous
 62
     7
100
AcDbLine
 10
-112.5
 20
31.12616940825507
 30
0.0
 11
-113.8400795903005
 21
36.12741452544258
 31
0.0
  0
LINE
  5
90
330
84C
100
AcDbEntity
  8
DIMNSIONS
  6
Continuous
 62
     7
100
AcDbLine
 10
-112.5
 20
31.12616940825507
 30
0.0
 11
-111.1599204096995
 21
36.12741452544258
 31
0.0
  0
TEXT
  5
91
330
84C
100
AcDbEntity
  8
DIMNSIONS
 62
     7
100
AcDbText
 10
-114.4877777777777
 20
5.185746174565212
 30
0.0
 40
5.429470486111111
  1
9.0
 50
90.0
 41
0.7
 11
-119.9172482638888
 21
5.185746174565213
 31
0.0
100
AcDbText
 73
     3
  0
TEXT
  5
92
330
84C
100
AcDbEntity
  8
DIMNSIONS
 62
     7
100
AcDbText
 10
68.72244444444444
 20
-67.94444444444444
 30
0.0
 40
3.800629340277777
  1
※
 50
90.0
 41
0.7
 11
64.92181510416665
 21
-67.94444444444444
 31
0.0
100
AcDbText
 73
     3
  0
TEXT
  5
93
330
84C
100
AcDbEntity
  8
DIMNSIONS
 62
     7
100
AcDbText
 10
-106.2775555555556
 20
-67.94444444444444
 30
0.0
 40
3.800629340277777
  1
※
 50
90.0
 41
0.7
 11
-110.0781848958333
 21
-67.94444444444444
 31
0.0
100
AcDbText
 73
     3
  0
TEXT
  5
94
330
84C
100
AcDbEntity
  8
DIMNSIONS
 62
     7
100
AcDbText
 10
12.5
 20
-193.5677777777778
 30
0.0
 40
5.429470486111111
  1
※ センタ ー振り分け
 41
0.7
 11
12.5
 21
-188.1383072916666
 31
0.0
100
AcDbText
 73
     3
  0
TEXT
  5
95
330
84C
100
AcDbEntity
  8
DATA
 62
     7
100
AcDbText
 10
100.0
 20
-227.73822
 30
0.0
 40
4.886523437500001
  1
AC-5S
 41
0.7
 11
100.0
 21
-222.8516965625
 31
0.0
100
AcDbText
 73
     3
  0
TEXT
  5
96
330
84C
100
AcDbEntity
  8
DATA
 62
     7
100
AcDbText
 10
-175.0
 20
-234.2474444444445
 30
0.0
 40
3.800629340277779
  1
※仕様及び外観は予告なく変更されることがあります。
 41
0.7
 11
-175.0
 21
-230.4468151041667
 31
0.0
100
AcDbText
 73
     3
  0
TEXT
  5
97
330
84C
100
AcDbEntity
  8
DATA
 62
     7
100
AcDbText
 10
-175.0
 20
-239.1863333333334
 30
0.0
 40
3.800629340277779
  1
　また、同一商品でも若干の個体差があることがあります。ご了承ください。
 41
0.7
 11
-175.0
 21
-235.3857039930556
 31
0.0
100
AcDbText
 73
     3
  0
LINE
  5
98
330
84C
100
AcDbEntity
  8
DATA
  6
Continuous
 62
     7
100
AcDbLine
 10
-14.16329272192209
 20
-15.07440236834523
 30
0.0
 11
-85.8367072780779
 21
-15.07541465191045
 31
0.0
  0
LINE
  5
99
330
84C
100
AcDbEntity
  8
DATA
  6
Continuous
 62
     7
100
AcDbLine
 10
-87.75
 20
-16.98799265858341
 30
0.0
 11
-87.75
 21
-133.0120073414166
 31
0.0
  0
LINE
  5
9A
330
84C
100
AcDbEntity
  8
DATA
  6
Continuous
 62
     7
100
AcDbLine
 10
-86.98450990074219
 20
-21.3438845337172
 30
0.0
 11
-86.98450990074219
 21
-128.6561154662828
 31
0.0
  0
LINE
  5
9B
330
84C
100
AcDbEntity
  8
DATA
  6
Continuous
 62
     7
100
AcDbLine
 10
-18.4694821653719
 20
-15.88917775235393
 30
0.0
 11
-81.5305178346281
 21
-15.88917775235393
 31
0.0
  0
LINE
  5
9C
330
84C
100
AcDbEntity
  8
DATA
  6
Continuous
 62
     7
100
AcDbLine
 10
-26.05629790135773
 20
-27.89496450724644
 30
0.0
 11
-46.94630042046143
 21
-27.89496450724644
 31
0.0
  0
LINE
  5
9D
330
84C
100
AcDbEntity
  8
DATA
  6
Continuous
 62
     7
100
AcDbLine
 10
-53.05369957953857
 20
-27.89496450724644
 30
0.0
 11
-73.94370209864226
 21
-27.89496450724644
 31
0.0
  0
LINE
  5
9E
330
84C
100
AcDbEntity
  8
DATA
  6
Continuous
 62
     7
100
AcDbLine
 10
-74.94370209864226
 20
-28.89496450724644
 30
0.0
 11
-74.94370209864226
 21
-121.1050354927535
 31
0.0
  0
LINE
  5
9F
330
84C
100
AcDbEntity
  8
DATA
  6
Continuous
 62
     7
100
AcDbLine
 10
31.37454530699406
 20
-15.07440236834527
 30
0.0
 11
31.37454530876754
 21
-15.07440236618459
 31
0.0
  0
LINE
  5
A0
330
84C
100
AcDbEntity
  8
DATA
  6
Continuous
 62
     7
100
AcDbLine
 10
25.0
 20
-122.0672751631665
 30
0.0
 11
25.0
 21
-27.93070026970295
 31
0.0
  0
LINE
  5
A1
330
84C
100
AcDbEntity
  8
DATA
  6
Continuous
 62
     7
100
AcDbLine
 10
27.69161762822511
 20
-128.6555203296507
 30
0.0
 11
27.69161762822511
 21
-21.34245510321888
 31
0.0
  0
LINE
  5
A2
330
84C
100
AcDbEntity
  8
DATA
  6
Continuous
 62
     7
100
AcDbLine
 10
31.37454530699406
 20
-134.9235730645243
 30
0.0
 11
31.37454530699406
 21
-15.07440236834527
 31
0.0
  0
LINE
  5
A3
330
84C
100
AcDbEntity
  8
DATA
  6
Continuous
 62
     7
100
AcDbLine
 10
-54.06911873781765
 20
31.12616940825507
 30
0.0
 11
-74.92943786109879
 21
31.12616940825507
 31
0.0
  0
LINE
  5
A4
330
84C
100
AcDbEntity
  8
DATA
  6
Continuous
 62
     7
100
AcDbLine
 10
-25.07056213890121
 20
31.12616940825507
 30
0.0
 11
-45.93088126218235
 21
31.12616940825507
 31
0.0
  0
LINE
  5
A5
330
84C
100
AcDbEntity
  8
DATA
  6
Continuous
 62
     7
100
AcDbLine
 10
-13.01477538400872
 20
33.81778703648019
 30
0.0
 11
-86.98522461599127
 21
33.81778703648019
 31
0.0
  0
LINE
  5
A6
330
84C
100
AcDbEntity
  8
DATA
  6
Continuous
 62
     7
100
AcDbLine
 10
-12.25
 20
37.5
 30
0.0
 11
-87.75
 21
37.5
 31
0.0
  0
ARC
  5
A7
330
84C
100
AcDbEntity
  8
DATA
  6
Continuous
 62
     7
100
AcDbCircle
 10
-85.87536100713933
 20
-16.95003933372049
 30
0.0
 40
1.875023148769576
100
AcDbArc
 50
88.8187599516403
 51
181.1598330695268
  0
ARC
  5
A8
330
84C
100
AcDbEntity
  8
DATA
  6
Continuous
 62
     7
100
AcDbCircle
 10
-86.13543087704538
 20
-16.70180810225676
 30
0.0
 40
0.706853943810571
100
AcDbArc
 50
89.88391569824589
 51
180.1738712656065
  0
LINE
  5
A9
330
84C
100
AcDbEntity
  8
DATA
  6
Continuous
 62
     7
100
AcDbLine
 10
-86.84228156616525
 20
-16.70395313636261
 30
0.0
 11
-86.98450990074219
 21
-21.3438845337172
 31
0.0
  0
LINE
  5
AA
330
84C
100
AcDbEntity
  8
DATA
  6
Continuous
 62
     7
100
AcDbLine
 10
-81.5305178346281
 20
-15.88917775235393
 30
0.0
 11
-73.94370209864226
 21
-27.89496450724644
 31
0.0
  0
LINE
  5
AB
330
84C
100
AcDbEntity
  8
DATA
  6
Continuous
 62
     7
100
AcDbLine
 10
-86.98450990074219
 20
-21.3438845337172
 30
0.0
 11
-74.94370209864226
 21
-28.89496450724644
 31
0.0
  0
LINE
  5
AC
330
84C
100
AcDbEntity
  8
DATA
  6
Continuous
 62
     7
100
AcDbLine
 10
-86.13399875427701
 20
-15.9949556092252
 30
0.0
 11
-81.5305178346281
 21
-15.88917775235393
 31
0.0
  0
ARC
  5
AD
330
84C
100
AcDbEntity
  8
DATA
  6
Continuous
 62
     7
100
AcDbCircle
 10
-73.94370209864226
 20
-28.89496450724644
 30
0.0
 40
1.0
100
AcDbArc
 50
90.0
 51
180.0
  0
LINE
  5
AE
330
84C
100
AcDbEntity
  8
DATA
  6
Continuous
 62
     7
100
AcDbLine
 10
-12.25
 20
-16.98698037501819
 30
0.0
 11
-12.25
 21
-133.0109950578513
 31
0.0
  0
LINE
  5
AF
330
84C
100
AcDbEntity
  8
DATA
  6
Continuous
 62
     7
100
AcDbLine
 10
-13.0154900992578
 20
-21.3438845337172
 30
0.0
 11
-13.0154900992578
 21
-128.6561154662828
 31
0.0
  0
LINE
  5
B0
330
84C
100
AcDbEntity
  8
DATA
  6
Continuous
 62
     7
100
AcDbLine
 10
-25.05629790135773
 20
-28.89496450724644
 30
0.0
 11
-25.05629790135773
 21
-121.1050354927535
 31
0.0
  0
ARC
  5
B1
330
84C
100
AcDbEntity
  8
DATA
  6
Continuous
 62
     7
100
AcDbCircle
 10
-14.12463899286066
 20
-16.94902705015528
 30
0.0
 40
1.875023148769584
100
AcDbArc
 50
358.8401669304731
 51
91.18124004835971
  0
ARC
  5
B2
330
84C
100
AcDbEntity
  8
DATA
  6
Continuous
 62
     7
100
AcDbCircle
 10
-13.86456912295462
 20
-16.70180810225676
 30
0.0
 40
0.7068539438105709
100
AcDbArc
 50
359.8261287343935
 51
90.11608430175416
  0
LINE
  5
B3
330
84C
100
AcDbEntity
  8
DATA
  6
Continuous
 62
     7
100
AcDbLine
 10
-13.15771843383474
 20
-16.70395313636261
 30
0.0
 11
-13.0154900992578
 21
-21.3438845337172
 31
0.0
  0
LINE
  5
B4
330
84C
100
AcDbEntity
  8
DATA
  6
Continuous
 62
     7
100
AcDbLine
 10
-13.86600124572298
 20
-15.9949556092252
 30
0.0
 11
-18.4694821653719
 21
-15.88917775235393
 31
0.0
  0
ARC
  5
B5
330
84C
100
AcDbEntity
  8
DATA
  6
Continuous
 62
     7
100
AcDbCircle
 10
-26.05629790135773
 20
-28.89496450724644
 30
0.0
 40
1.0
100
AcDbArc
 50
0.0
 51
90.0
  0
LINE
  5
B6
330
84C
100
AcDbEntity
  8
DATA
  6
Continuous
 62
     7
100
AcDbLine
 10
-33.0
 20
-43.49898771643479
 30
0.0
 11
-33.0
 21
-106.4989877164348
 31
0.0
  0
LINE
  5
B7
330
84C
100
AcDbEntity
  8
DATA
  6
Continuous
 62
     7
100
AcDbLine
 10
-67.0
 20
-43.49898771643479
 30
0.0
 11
-67.0
 21
-106.4989877164348
 31
0.0
  0
LINE
  5
B8
330
84C
100
AcDbEntity
  8
DATA
  6
Continuous
 62
     7
100
AcDbLine
 10
-65.0
 20
-41.4989877164348
 30
0.0
 11
-35.0
 21
-41.4989877164348
 31
0.0
  0
LINE
  5
B9
330
84C
100
AcDbEntity
  8
DATA
  6
Continuous
 62
     7
100
AcDbLine
 10
-65.0
 20
-108.4989877164348
 30
0.0
 11
-35.0
 21
-108.4989877164348
 31
0.0
  0
ARC
  5
BA
330
84C
100
AcDbEntity
  8
DATA
  6
Continuous
 62
     7
100
AcDbCircle
 10
-65.0
 20
-43.49898771643479
 30
0.0
 40
2.0
100
AcDbArc
 50
90.0
 51
180.0
  0
ARC
  5
BB
330
84C
100
AcDbEntity
  8
DATA
  6
Continuous
 62
     7
100
AcDbCircle
 10
-35.0
 20
-43.49898771643479
 30
0.0
 40
2.0
100
AcDbArc
 50
0.0
 51
90.0
  0
ARC
  5
BC
330
84C
100
AcDbEntity
  8
DATA
  6
Continuous
 62
     7
100
AcDbCircle
 10
-35.0
 20
-106.4989877164348
 30
0.0
 40
2.0
100
AcDbArc
 50
270.0
 51
0.0
  0
ARC
  5
BD
330
84C
100
AcDbEntity
  8
DATA
  6
Continuous
 62
     7
100
AcDbCircle
 10
-65.0
 20
-106.4989877164348
 30
0.0
 40
2.0
100
AcDbArc
 50
180.0
 51
270.0
  0
LINE
  5
BE
330
84C
100
AcDbEntity
  8
DATA
  6
Continuous
 62
     7
100
AcDbLine
 10
-33.5
 20
-43.69898771643479
 30
0.0
 11
-33.5
 21
-106.2989877164348
 31
0.0
  0
LINE
  5
BF
330
84C
100
AcDbEntity
  8
DATA
  6
Continuous
 62
     7
100
AcDbLine
 10
-66.5
 20
-43.69898771643479
 30
0.0
 11
-66.5
 21
-106.2989877164348
 31
0.0
  0
LINE
  5
C0
330
84C
100
AcDbEntity
  8
DATA
  6
Continuous
 62
     7
100
AcDbLine
 10
-64.5
 20
-41.6989877164348
 30
0.0
 11
-35.5
 21
-41.6989877164348
 31
0.0
  0
LINE
  5
C1
330
84C
100
AcDbEntity
  8
DATA
  6
Continuous
 62
     7
100
AcDbLine
 10
-64.5
 20
-108.2989877164348
 30
0.0
 11
-35.5
 21
-108.2989877164348
 31
0.0
  0
ARC
  5
C2
330
84C
100
AcDbEntity
  8
DATA
  6
Continuous
 62
     7
100
AcDbCircle
 10
-64.5
 20
-43.69898771643479
 30
0.0
 40
2.0
100
AcDbArc
 50
90.0
 51
180.0
  0
ARC
  5
C3
330
84C
100
AcDbEntity
  8
DATA
  6
Continuous
 62
     7
100
AcDbCircle
 10
-35.5
 20
-43.69898771643479
 30
0.0
 40
2.0
100
AcDbArc
 50
0.0
 51
90.0
  0
ARC
  5
C4
330
84C
100
AcDbEntity
  8
DATA
  6
Continuous
 62
     7
100
AcDbCircle
 10
-64.5
 20
-106.2989877164348
 30
0.0
 40
2.0
100
AcDbArc
 50
180.0
 51
270.0
  0
ARC
  5
C5
330
84C
100
AcDbEntity
  8
DATA
  6
Continuous
 62
     7
100
AcDbCircle
 10
-35.5
 20
-106.2989877164348
 30
0.0
 40
2.0
100
AcDbArc
 50
270.0
 51
0.0
  0
LINE
  5
C6
330
84C
100
AcDbEntity
  8
DATA
  6
Continuous
 62
     7
100
AcDbLine
 10
31.37454530876754
 20
-15.07440236618459
 30
0.0
 11
28.78942025088944
 21
-15.14587389325835
 31
0.0
  0
ARC
  5
C7
330
84C
100
AcDbEntity
  8
DATA
  6
Continuous
 62
     7
100
AcDbCircle
 10
28.90889297362368
 20
-16.50466285667338
 30
0.0
 40
1.364031223460832
100
AcDbArc
 50
95.02485973484708
 51
153.1776885837412
  0
ARC
  5
C8
330
84C
100
AcDbEntity
  8
DATA
  6
Continuous
 62
     7
100
AcDbCircle
 10
53.56727070467997
 20
-27.99469835812468
 30
0.0
 40
28.56734239074032
100
AcDbArc
 50
154.9281899445653
 51
179.8716428227569
  0
ARC
  5
C9
330
84C
100
AcDbEntity
  8
DATA
  6
Continuous
 62
     7
100
AcDbCircle
 10
35.4953107175126
 20
-28.37459289238461
 30
0.0
 40
10.50469360417551
100
AcDbArc
 50
137.9770541763644
 51
177.5781541202858
  0
LINE
  5
CA
330
84C
100
AcDbEntity
  8
DATA
  6
Continuous
 62
     7
100
AcDbLine
 10
27.69161762822511
 20
-21.34245510321888
 30
0.0
 11
27.69161762996177
 21
-15.88917775020138
 31
0.0
  0
LINE
  5
CB
330
84C
100
AcDbEntity
  8
DATA
  6
Continuous
 62
     7
100
AcDbLine
 10
31.37454530699406
 20
-134.9235730645243
 30
0.0
 11
31.37454530876754
 21
-134.923573066685
 31
0.0
  0
LINE
  5
CC
330
84C
100
AcDbEntity
  8
DATA
  6
Continuous
 62
     7
100
AcDbLine
 10
31.37454530876754
 20
-134.923573066685
 30
0.0
 11
28.78942025088944
 21
-134.8521015396112
 31
0.0
  0
ARC
  5
CD
330
84C
100
AcDbEntity
  8
DATA
  6
Continuous
 62
     7
100
AcDbCircle
 10
28.90889297362368
 20
-133.4933125761962
 30
0.0
 40
1.364031223460828
100
AcDbArc
 50
206.8223114162583
 51
264.9751402651529
  0
ARC
  5
CE
330
84C
100
AcDbEntity
  8
DATA
  6
Continuous
 62
     7
100
AcDbCircle
 10
53.56727070467997
 20
-122.0032770747449
 30
0.0
 40
28.56734239074032
100
AcDbArc
 50
180.128357177243
 51
205.0718100554346
  0
ARC
  5
CF
330
84C
100
AcDbEntity
  8
DATA
  6
Continuous
 62
     7
100
AcDbCircle
 10
35.4953107175126
 20
-121.623382540485
 30
0.0
 40
10.50469360417551
100
AcDbArc
 50
182.4218458797141
 51
222.0229458236356
  0
LINE
  5
D0
330
84C
100
AcDbEntity
  8
DATA
  6
Continuous
 62
     7
100
AcDbLine
 10
27.69161762822511
 20
-128.6555203296507
 30
0.0
 11
27.69161762996177
 21
-134.1087976826682
 31
0.0
  0
ARC
  5
D1
330
84C
100
AcDbEntity
  8
DATA
  6
Continuous
 62
     7
100
AcDbCircle
 10
-50.0
 20
15.82289957668088
 30
0.0
 40
15.83501799305659
100
AcDbArc
 50
75.10967352858244
 51
104.8903264714175
  0
ARC
  5
D2
330
84C
100
AcDbEntity
  8
DATA
  6
Continuous
 62
     7
100
AcDbCircle
 10
-50.0
 20
46.42943923982916
 30
0.0
 40
15.83501799305658
100
AcDbArc
 50
255.1096735285825
 51
284.8903264714175
  0
LINE
  5
D3
330
84C
100
AcDbEntity
  8
DATA
  6
Continuous
 62
     7
100
AcDbLine
 10
31.37454530699406
 20
-31.6
 30
0.0
 11
47.06549454826843
 21
-31.6
 31
0.0
  0
LINE
  5
D4
330
84C
100
AcDbEntity
  8
DATA
  6
Continuous
 62
     7
100
AcDbLine
 10
31.37454530699406
 20
-35.0
 30
0.0
 11
47.06549454826843
 21
-35.0
 31
0.0
  0
LINE
  5
D5
330
84C
100
AcDbEntity
  8
DATA
  6
Continuous
 62
     7
100
AcDbLine
 10
48.06549454826843
 20
-32.17735026918962
 30
0.0
 11
48.06549454826843
 21
-34.42264973081037
 31
0.0
  0
LINE
  5
D6
330
84C
100
AcDbEntity
  8
DATA
  6
Continuous
 62
     7
100
AcDbLine
 10
47.06549454826843
 20
-31.6
 30
0.0
 11
47.06549454826843
 21
-35.0
 31
0.0
  0
LINE
  5
D7
330
84C
100
AcDbEntity
  8
DATA
  6
Continuous
 62
     7
100
AcDbLine
 10
47.06549454826843
 20
-31.6
 30
0.0
 11
48.06549454826843
 21
-32.17735026918962
 31
0.0
  0
LINE
  5
D8
330
84C
100
AcDbEntity
  8
DATA
  6
Continuous
 62
     7
100
AcDbLine
 10
47.06549454826843
 20
-35.0
 30
0.0
 11
48.06549454826843
 21
-34.42264973081037
 31
0.0
  0
LINE
  5
D9
330
84C
100
AcDbEntity
  8
DATA
  6
Continuous
 62
     7
100
AcDbLine
 10
33.96010702531351
 20
-31.6
 30
0.0
 11
34.44526935515633
 21
-35.0
 31
0.0
  0
LINE
  5
DA
330
84C
100
AcDbEntity
  8
DATA
  6
Continuous
 62
     7
100
AcDbLine
 10
34.50876014457477
 20
-31.6
 30
0.0
 11
34.9939224744176
 21
-35.0
 31
0.0
  0
LINE
  5
DB
330
84C
100
AcDbEntity
  8
DATA
  6
Continuous
 62
     7
100
AcDbLine
 10
35.05741326383605
 20
-31.6
 30
0.0
 11
35.54257559367889
 21
-35.0
 31
0.0
  0
LINE
  5
DC
330
84C
100
AcDbEntity
  8
DATA
  6
Continuous
 62
     7
100
AcDbLine
 10
35.60606638309733
 20
-31.6
 30
0.0
 11
36.09122871294015
 21
-35.0
 31
0.0
  0
LINE
  5
DD
330
84C
100
AcDbEntity
  8
DATA
  6
Continuous
 62
     7
100
AcDbLine
 10
36.1547195023586
 20
-31.6
 30
0.0
 11
36.63988183220141
 21
-35.0
 31
0.0
  0
LINE
  5
DE
330
84C
100
AcDbEntity
  8
DATA
  6
Continuous
 62
     7
100
AcDbLine
 10
36.70337262161985
 20
-31.6
 30
0.0
 11
37.18853495146269
 21
-35.0
 31
0.0
  0
LINE
  5
DF
330
84C
100
AcDbEntity
  8
DATA
  6
Continuous
 62
     7
100
AcDbLine
 10
37.25202574088113
 20
-31.6
 30
0.0
 11
37.73718807072396
 21
-35.0
 31
0.0
  0
LINE
  5
E0
330
84C
100
AcDbEntity
  8
DATA
  6
Continuous
 62
     7
100
AcDbLine
 10
37.8006788601424
 20
-31.6
 30
0.0
 11
38.28584118998523
 21
-35.0
 31
0.0
  0
LINE
  5
E1
330
84C
100
AcDbEntity
  8
DATA
  6
Continuous
 62
     7
100
AcDbLine
 10
38.34933197940368
 20
-31.6
 30
0.0
 11
38.83449430924649
 21
-35.0
 31
0.0
  0
LINE
  5
E2
330
84C
100
AcDbEntity
  8
DATA
  6
Continuous
 62
     7
100
AcDbLine
 10
38.89798509866496
 20
-31.6
 30
0.0
 11
39.38314742850777
 21
-35.0
 31
0.0
  0
LINE
  5
E3
330
84C
100
AcDbEntity
  8
DATA
  6
Continuous
 62
     7
100
AcDbLine
 10
39.44663821792623
 20
-31.6
 30
0.0
 11
39.93180054776905
 21
-35.0
 31
0.0
  0
LINE
  5
E4
330
84C
100
AcDbEntity
  8
DATA
  6
Continuous
 62
     7
100
AcDbLine
 10
39.99529133718749
 20
-31.6
 30
0.0
 11
40.48045366703031
 21
-35.0
 31
0.0
  0
LINE
  5
E5
330
84C
100
AcDbEntity
  8
DATA
  6
Continuous
 62
     7
100
AcDbLine
 10
40.54394445644876
 20
-31.6
 30
0.0
 11
41.02910678629159
 21
-35.0
 31
0.0
  0
LINE
  5
E6
330
84C
100
AcDbEntity
  8
DATA
  6
Continuous
 62
     7
100
AcDbLine
 10
41.09259757571003
 20
-31.6
 30
0.0
 11
41.57775990555285
 21
-35.0
 31
0.0
  0
LINE
  5
E7
330
84C
100
AcDbEntity
  8
DATA
  6
Continuous
 62
     7
100
AcDbLine
 10
41.64125069497131
 20
-31.6
 30
0.0
 11
42.12641302481413
 21
-35.0
 31
0.0
  0
LINE
  5
E8
330
84C
100
AcDbEntity
  8
DATA
  6
Continuous
 62
     7
100
AcDbLine
 10
42.18990381423258
 20
-31.6
 30
0.0
 11
42.67506614407539
 21
-35.0
 31
0.0
  0
LINE
  5
E9
330
84C
100
AcDbEntity
  8
DATA
  6
Continuous
 62
     7
100
AcDbLine
 10
42.73855693349385
 20
-31.6
 30
0.0
 11
43.22371926333667
 21
-35.0
 31
0.0
  0
LINE
  5
EA
330
84C
100
AcDbEntity
  8
DATA
  6
Continuous
 62
     7
100
AcDbLine
 10
43.28721005275511
 20
-31.6
 30
0.0
 11
43.77237238259794
 21
-35.0
 31
0.0
  0
LINE
  5
EB
330
84C
100
AcDbEntity
  8
DATA
  6
Continuous
 62
     7
100
AcDbLine
 10
43.83586317201639
 20
-31.6
 30
0.0
 11
44.3210255018592
 21
-35.0
 31
0.0
  0
LINE
  5
EC
330
84C
100
AcDbEntity
  8
DATA
  6
Continuous
 62
     7
100
AcDbLine
 10
44.38451629127766
 20
-31.6
 30
0.0
 11
44.86967862112047
 21
-35.0
 31
0.0
  0
LINE
  5
ED
330
84C
100
AcDbEntity
  8
DATA
  6
Continuous
 62
     7
100
AcDbLine
 10
44.93316941053893
 20
-31.6
 30
0.0
 11
45.41833174038174
 21
-35.0
 31
0.0
  0
LINE
  5
EE
330
84C
100
AcDbEntity
  8
DATA
  6
Continuous
 62
     7
100
AcDbLine
 10
45.4818225298002
 20
-31.6
 30
0.0
 11
45.96698485964302
 21
-35.0
 31
0.0
  0
LINE
  5
EF
330
84C
100
AcDbEntity
  8
DATA
  6
Continuous
 62
     7
100
AcDbLine
 10
46.03047564906147
 20
-31.6
 30
0.0
 11
46.51563797890428
 21
-35.0
 31
0.0
  0
LINE
  5
F0
330
84C
100
AcDbEntity
  8
DATA
  6
Continuous
 62
     7
100
AcDbLine
 10
46.57912876832274
 20
-31.6
 30
0.0
 11
47.06429109816556
 21
-35.0
 31
0.0
  0
LINE
  5
F1
330
84C
100
AcDbEntity
  8
DATA
  6
Continuous
 62
     7
100
AcDbLine
 10
31.37454530699406
 20
-115.0
 30
0.0
 11
47.06549454826843
 21
-115.0
 31
0.0
  0
LINE
  5
F2
330
84C
100
AcDbEntity
  8
DATA
  6
Continuous
 62
     7
100
AcDbLine
 10
31.37454530699406
 20
-118.4
 30
0.0
 11
47.06549454826843
 21
-118.4
 31
0.0
  0
LINE
  5
F3
330
84C
100
AcDbEntity
  8
DATA
  6
Continuous
 62
     7
100
AcDbLine
 10
48.06549454826843
 20
-115.5773502691896
 30
0.0
 11
48.06549454826843
 21
-117.8226497308103
 31
0.0
  0
LINE
  5
F4
330
84C
100
AcDbEntity
  8
DATA
  6
Continuous
 62
     7
100
AcDbLine
 10
47.06549454826843
 20
-115.0
 30
0.0
 11
47.06549454826843
 21
-118.4
 31
0.0
  0
LINE
  5
F5
330
84C
100
AcDbEntity
  8
DATA
  6
Continuous
 62
     7
100
AcDbLine
 10
47.06549454826843
 20
-115.0
 30
0.0
 11
48.06549454826843
 21
-115.5773502691896
 31
0.0
  0
LINE
  5
F6
330
84C
100
AcDbEntity
  8
DATA
  6
Continuous
 62
     7
100
AcDbLine
 10
47.06549454826843
 20
-118.4
 30
0.0
 11
48.06549454826843
 21
-117.8226497308103
 31
0.0
  0
LINE
  5
F7
330
84C
100
AcDbEntity
  8
DATA
  6
Continuous
 62
     7
100
AcDbLine
 10
33.96010702531351
 20
-115.0
 30
0.0
 11
34.44526935515633
 21
-118.4
 31
0.0
  0
LINE
  5
F8
330
84C
100
AcDbEntity
  8
DATA
  6
Continuous
 62
     7
100
AcDbLine
 10
34.50876014457477
 20
-115.0
 30
0.0
 11
34.9939224744176
 21
-118.4
 31
0.0
  0
LINE
  5
F9
330
84C
100
AcDbEntity
  8
DATA
  6
Continuous
 62
     7
100
AcDbLine
 10
35.05741326383605
 20
-115.0
 30
0.0
 11
35.54257559367889
 21
-118.4
 31
0.0
  0
LINE
  5
FA
330
84C
100
AcDbEntity
  8
DATA
  6
Continuous
 62
     7
100
AcDbLine
 10
35.60606638309733
 20
-115.0
 30
0.0
 11
36.09122871294015
 21
-118.4
 31
0.0
  0
LINE
  5
FB
330
84C
100
AcDbEntity
  8
DATA
  6
Continuous
 62
     7
100
AcDbLine
 10
36.1547195023586
 20
-115.0
 30
0.0
 11
36.63988183220141
 21
-118.4
 31
0.0
  0
LINE
  5
FC
330
84C
100
AcDbEntity
  8
DATA
  6
Continuous
 62
     7
100
AcDbLine
 10
36.70337262161985
 20
-115.0
 30
0.0
 11
37.18853495146269
 21
-118.4
 31
0.0
  0
LINE
  5
FD
330
84C
100
AcDbEntity
  8
DATA
  6
Continuous
 62
     7
100
AcDbLine
 10
37.25202574088113
 20
-115.0
 30
0.0
 11
37.73718807072396
 21
-118.4
 31
0.0
  0
LINE
  5
FE
330
84C
100
AcDbEntity
  8
DATA
  6
Continuous
 62
     7
100
AcDbLine
 10
37.8006788601424
 20
-115.0
 30
0.0
 11
38.28584118998523
 21
-118.4
 31
0.0
  0
LINE
  5
FF
330
84C
100
AcDbEntity
  8
DATA
  6
Continuous
 62
     7
100
AcDbLine
 10
38.34933197940368
 20
-115.0
 30
0.0
 11
38.83449430924649
 21
-118.4
 31
0.0
  0
LINE
  5
100
330
84C
100
AcDbEntity
  8
DATA
  6
Continuous
 62
     7
100
AcDbLine
 10
38.89798509866496
 20
-115.0
 30
0.0
 11
39.38314742850777
 21
-118.4
 31
0.0
  0
LINE
  5
101
330
84C
100
AcDbEntity
  8
DATA
  6
Continuous
 62
     7
100
AcDbLine
 10
39.44663821792623
 20
-115.0
 30
0.0
 11
39.93180054776905
 21
-118.4
 31
0.0
  0
LINE
  5
102
330
84C
100
AcDbEntity
  8
DATA
  6
Continuous
 62
     7
100
AcDbLine
 10
39.99529133718749
 20
-115.0
 30
0.0
 11
40.48045366703031
 21
-118.4
 31
0.0
  0
LINE
  5
103
330
84C
100
AcDbEntity
  8
DATA
  6
Continuous
 62
     7
100
AcDbLine
 10
40.54394445644876
 20
-115.0
 30
0.0
 11
41.02910678629159
 21
-118.4
 31
0.0
  0
LINE
  5
104
330
84C
100
AcDbEntity
  8
DATA
  6
Continuous
 62
     7
100
AcDbLine
 10
41.09259757571003
 20
-115.0
 30
0.0
 11
41.57775990555285
 21
-118.4
 31
0.0
  0
LINE
  5
105
330
84C
100
AcDbEntity
  8
DATA
  6
Continuous
 62
     7
100
AcDbLine
 10
41.64125069497131
 20
-115.0
 30
0.0
 11
42.12641302481413
 21
-118.4
 31
0.0
  0
LINE
  5
106
330
84C
100
AcDbEntity
  8
DATA
  6
Continuous
 62
     7
100
AcDbLine
 10
42.18990381423258
 20
-115.0
 30
0.0
 11
42.67506614407539
 21
-118.4
 31
0.0
  0
LINE
  5
107
330
84C
100
AcDbEntity
  8
DATA
  6
Continuous
 62
     7
100
AcDbLine
 10
42.73855693349385
 20
-115.0
 30
0.0
 11
43.22371926333667
 21
-118.4
 31
0.0
  0
LINE
  5
108
330
84C
100
AcDbEntity
  8
DATA
  6
Continuous
 62
     7
100
AcDbLine
 10
43.28721005275511
 20
-115.0
 30
0.0
 11
43.77237238259794
 21
-118.4
 31
0.0
  0
LINE
  5
109
330
84C
100
AcDbEntity
  8
DATA
  6
Continuous
 62
     7
100
AcDbLine
 10
43.83586317201639
 20
-115.0
 30
0.0
 11
44.3210255018592
 21
-118.4
 31
0.0
  0
LINE
  5
10A
330
84C
100
AcDbEntity
  8
DATA
  6
Continuous
 62
     7
100
AcDbLine
 10
44.38451629127766
 20
-115.0
 30
0.0
 11
44.86967862112047
 21
-118.4
 31
0.0
  0
LINE
  5
10B
330
84C
100
AcDbEntity
  8
DATA
  6
Continuous
 62
     7
100
AcDbLine
 10
44.93316941053893
 20
-115.0
 30
0.0
 11
45.41833174038174
 21
-118.4
 31
0.0
  0
LINE
  5
10C
330
84C
100
AcDbEntity
  8
DATA
  6
Continuous
 62
     7
100
AcDbLine
 10
45.4818225298002
 20
-115.0
 30
0.0
 11
45.96698485964302
 21
-118.4
 31
0.0
  0
LINE
  5
10D
330
84C
100
AcDbEntity
  8
DATA
  6
Continuous
 62
     7
100
AcDbLine
 10
46.03047564906147
 20
-115.0
 30
0.0
 11
46.51563797890428
 21
-118.4
 31
0.0
  0
LINE
  5
10E
330
84C
100
AcDbEntity
  8
DATA
  6
Continuous
 62
     7
100
AcDbLine
 10
46.57912876832274
 20
-115.0
 30
0.0
 11
47.06429109816556
 21
-118.4
 31
0.0
  0
LINE
  5
10F
330
84C
100
AcDbEntity
  8
DATA
  6
Continuous
 62
     7
100
AcDbLine
 10
24.0
 20
-98.40018151597867
 30
0.0
 11
25.0
 21
-98.40018151597867
 31
0.0
  0
LINE
  5
110
330
84C
100
AcDbEntity
  8
DATA
  6
Continuous
 62
     7
100
AcDbLine
 10
24.0
 20
-91.14010401531214
 30
0.0
 11
25.0
 21
-91.14010401531214
 31
0.0
  0
LINE
  5
111
330
84C
100
AcDbEntity
  8
DATA
  6
Continuous
 62
     7
100
AcDbLine
 10
24.0
 20
-88.87014276564537
 30
0.0
 11
24.0
 21
-100.6701427656454
 31
0.0
  0
ARC
  5
112
330
84C
100
AcDbEntity
  8
DATA
  6
Continuous
 62
     7
100
AcDbCircle
 10
16.5414608055657
 20
-100.0064293666567
 30
0.0
 40
0.5569674294771776
100
AcDbArc
 50
193.5517114529231
 51
265.2456992570622
  0
LINE
  5
113
330
84C
100
AcDbEntity
  8
DATA
  6
Continuous
 62
     7
100
AcDbLine
 10
15.99999999999868
 20
-100.1369395713655
 30
0.0
 11
15.99999999999868
 21
-89.40334595992519
 31
0.0
  0
ARC
  5
114
330
84C
100
AcDbEntity
  8
DATA
  6
Continuous
 62
     7
100
AcDbCircle
 10
16.5414608055657
 20
-89.53385616463402
 30
0.0
 40
0.5569674294771755
100
AcDbArc
 50
94.75430074293772
 51
166.4482885470769
  0
LINE
  5
115
330
84C
100
AcDbEntity
  8
DATA
  6
Continuous
 62
     7
100
AcDbLine
 10
-87.75
 20
37.5
 30
0.0
 11
-87.67995790558522
 21
34.95132542160102
 31
0.0
  0
ARC
  5
116
330
84C
100
AcDbEntity
  8
DATA
  6
Continuous
 62
     7
100
AcDbCircle
 10
-86.3240800148746
 20
35.03072187736477
 30
0.0
 40
1.358200519697203
100
AcDbArc
 50
183.3512553026606
 51
243.2584716382642
  0
ARC
  5
117
330
84C
100
AcDbEntity
  8
DATA
  6
Continuous
 62
     7
100
AcDbCircle
 10
-74.84735054166169
 20
59.61364198929426
 30
0.0
 40
28.48759084906044
100
AcDbArc
 50
244.8923274123473
 51
269.8349013263761
  0
ARC
  5
118
330
84C
100
AcDbEntity
  8
DATA
  6
Continuous
 62
     7
100
AcDbCircle
 10
-74.5666559757495
 20
41.31330705433813
 30
0.0
 40
10.19359524979191
100
AcDbArc
 50
227.3339769631474
 51
267.9604584276665
  0
LINE
  5
119
330
84C
100
AcDbEntity
  8
DATA
  6
Continuous
 62
     7
100
AcDbLine
 10
-12.25
 20
37.5
 30
0.0
 11
-12.32004209441476
 21
34.95132542160102
 31
0.0
  0
ARC
  5
11A
330
84C
100
AcDbEntity
  8
DATA
  6
Continuous
 62
     7
100
AcDbCircle
 10
-13.67591998512539
 20
35.03072187736477
 30
0.0
 40
1.358200519697206
100
AcDbArc
 50
296.7415283617358
 51
356.6487446973394
  0
ARC
  5
11B
330
84C
100
AcDbEntity
  8
DATA
  6
Continuous
 62
     7
100
AcDbCircle
 10
-25.1526494583383
 20
59.61364198929426
 30
0.0
 40
28.48759084906045
100
AcDbArc
 50
270.1650986736239
 51
295.1076725876527
  0
ARC
  5
11C
330
84C
100
AcDbEntity
  8
DATA
  6
Continuous
 62
     7
100
AcDbCircle
 10
-25.43334402425049
 20
41.31330705433813
 30
0.0
 40
10.19359524979191
100
AcDbArc
 50
272.0395415723335
 51
312.6531620092114
  0
TEXT
  5
11D
330
84C
100
AcDbEntity
  8
DATA
 62
     7
100
AcDbText
 10
100.0
 20
-213.23822
 30
0.0
 40
4.8865234375
  1
BSS AUDIO
 41
0.7
 11
100.0
 21
-208.3516965625
 31
0.0
100
AcDbText
 73
     3
  0
TEXT
  5
11E
330
84C
100
AcDbEntity
  8
DATA
 62
     7
100
AcDbText
 10
81.25
 20
-220.4461300000001
 30
0.0
 40
3.800629340277777
  1
壁面取付パネル型リモートコントローラー
 41
0.7
 11
81.25
 21
-216.6455006597223
 31
0.0
100
AcDbText
 73
     3
  0
CIRCLE
  5
11F
330
84C
100
AcDbEntity
  8
DATA
  6
Continuous
 62
     7
100
AcDbCircle
 10
-50.0
 20
-94.79898771643481
 30
0.0
 40
5.899999999999999
  0
CIRCLE
  5
120
330
84C
100
AcDbEntity
  8
DATA
  6
Continuous
 62
     7
100
AcDbCircle
 10
-50.0
 20
-94.79898771643481
 30
0.0
 40
5.75
  0
LINE
  5
121
330
84C
100
AcDbEntity
  8
DATA
  6
Continuous
 62
     7
100
AcDbLine
 10
-61.5
 20
-48.69898771643481
 30
0.0
 11
-38.5
 21
-48.69898771643481
 31
0.0
  0
LINE
  5
122
330
84C
100
AcDbEntity
  8
DATA
  6
Continuous
 62
     7
100
AcDbLine
 10
-38.5
 20
-52.69898771643481
 30
0.0
 11
-61.5
 21
-52.69898771643481
 31
0.0
  0
ARC
  5
123
330
84C
100
AcDbEntity
  8
DATA
  6
Continuous
 62
     7
100
AcDbCircle
 10
-61.5
 20
-50.69898771643481
 30
0.0
 40
2.0
100
AcDbArc
 50
90.0
 51
270.0
  0
ARC
  5
124
330
84C
100
AcDbEntity
  8
DATA
  6
Continuous
 62
     7
100
AcDbCircle
 10
-38.5
 20
-50.69898771643481
 30
0.0
 40
2.0
100
AcDbArc
 50
270.0
 51
90.0
  0
TEXT
  5
125
330
84C
100
AcDbEntity
  8
DATA
 62
     7
100
AcDbText
 10
-62.19784059079946
 20
-51.71576208520308
 30
0.0
 40
2.171788194444444
  1
A
 41
0.7
 11
-62.19784059079946
 21
-49.54397389075864
 31
0.0
100
AcDbText
 73
     3
  0
CIRCLE
  5
126
330
84C
100
AcDbEntity
  8
DATA
  6
Continuous
 62
     7
100
AcDbCircle
 10
-61.46991104359997
 20
-50.6989877164348
 30
0.0
 40
1.850000000000001
  0
LINE
  5
127
330
84C
100
AcDbEntity
  8
DATA
  6
Continuous
 62
     7
100
AcDbLine
 10
-61.5
 20
-55.69898771643481
 30
0.0
 11
-38.5
 21
-55.69898771643481
 31
0.0
  0
LINE
  5
128
330
84C
100
AcDbEntity
  8
DATA
  6
Continuous
 62
     7
100
AcDbLine
 10
-38.5
 20
-59.69898771643482
 30
0.0
 11
-61.5
 21
-59.69898771643482
 31
0.0
  0
ARC
  5
129
330
84C
100
AcDbEntity
  8
DATA
  6
Continuous
 62
     7
100
AcDbCircle
 10
-61.5
 20
-57.69898771643481
 30
0.0
 40
2.0
100
AcDbArc
 50
90.0
 51
270.0
  0
ARC
  5
12A
330
84C
100
AcDbEntity
  8
DATA
  6
Continuous
 62
     7
100
AcDbCircle
 10
-38.5
 20
-57.69898771643481
 30
0.0
 40
2.0
100
AcDbArc
 50
270.0
 51
90.0
  0
TEXT
  5
12B
330
84C
100
AcDbEntity
  8
DATA
 62
     7
100
AcDbText
 10
-62.19784059079946
 20
-58.71576208520308
 30
0.0
 40
2.171788194444444
  1
B
 41
0.7
 11
-62.19784059079946
 21
-56.54397389075864
 31
0.0
100
AcDbText
 73
     3
  0
CIRCLE
  5
12C
330
84C
100
AcDbEntity
  8
DATA
  6
Continuous
 62
     7
100
AcDbCircle
 10
-61.46991104359997
 20
-57.69898771643479
 30
0.0
 40
1.850000000000001
  0
LINE
  5
12D
330
84C
100
AcDbEntity
  8
DATA
  6
Continuous
 62
     7
100
AcDbLine
 10
-61.5
 20
-62.69898771643481
 30
0.0
 11
-38.5
 21
-62.69898771643481
 31
0.0
  0
LINE
  5
12E
330
84C
100
AcDbEntity
  8
DATA
  6
Continuous
 62
     7
100
AcDbLine
 10
-38.5
 20
-66.6989877164348
 30
0.0
 11
-61.5
 21
-66.6989877164348
 31
0.0
  0
ARC
  5
12F
330
84C
100
AcDbEntity
  8
DATA
  6
Continuous
 62
     7
100
AcDbCircle
 10
-61.5
 20
-64.6989877164348
 30
0.0
 40
1.999999999999992
100
AcDbArc
 50
90.0
 51
270.0
  0
ARC
  5
130
330
84C
100
AcDbEntity
  8
DATA
  6
Continuous
 62
     7
100
AcDbCircle
 10
-38.5
 20
-64.6989877164348
 30
0.0
 40
2.0
100
AcDbArc
 50
270.0
 51
90.0
  0
TEXT
  5
131
330
84C
100
AcDbEntity
  8
DATA
 62
     7
100
AcDbText
 10
-62.19784059079946
 20
-65.71576208520308
 30
0.0
 40
2.171788194444444
  1
C
 41
0.7
 11
-62.19784059079946
 21
-63.54397389075863
 31
0.0
100
AcDbText
 73
     3
  0
CIRCLE
  5
132
330
84C
100
AcDbEntity
  8
DATA
  6
Continuous
 62
     7
100
AcDbCircle
 10
-61.46991104359997
 20
-64.6989877164348
 30
0.0
 40
1.850000000000001
  0
LINE
  5
133
330
84C
100
AcDbEntity
  8
DATA
  6
Continuous
 62
     7
100
AcDbLine
 10
-61.5
 20
-69.6989877164348
 30
0.0
 11
-38.5
 21
-69.6989877164348
 31
0.0
  0
LINE
  5
134
330
84C
100
AcDbEntity
  8
DATA
  6
Continuous
 62
     7
100
AcDbLine
 10
-38.5
 20
-73.6989877164348
 30
0.0
 11
-61.5
 21
-73.6989877164348
 31
0.0
  0
ARC
  5
135
330
84C
100
AcDbEntity
  8
DATA
  6
Continuous
 62
     7
100
AcDbCircle
 10
-61.5
 20
-71.6989877164348
 30
0.0
 40
2.0
100
AcDbArc
 50
90.0
 51
270.0
  0
ARC
  5
136
330
84C
100
AcDbEntity
  8
DATA
  6
Continuous
 62
     7
100
AcDbCircle
 10
-38.5
 20
-71.6989877164348
 30
0.0
 40
2.0
100
AcDbArc
 50
270.0
 51
90.0
  0
TEXT
  5
137
330
84C
100
AcDbEntity
  8
DATA
 62
     7
100
AcDbText
 10
-62.19784059079946
 20
-72.71576208520311
 30
0.0
 40
2.171788194444444
  1
D
 41
0.7
 11
-62.19784059079946
 21
-70.54397389075866
 31
0.0
100
AcDbText
 73
     3
  0
CIRCLE
  5
138
330
84C
100
AcDbEntity
  8
DATA
  6
Continuous
 62
     7
100
AcDbCircle
 10
-61.46991104359997
 20
-71.6989877164348
 30
0.0
 40
1.850000000000001
  0
LINE
  5
139
330
84C
100
AcDbEntity
  8
DATA
  6
Continuous
 62
     7
100
AcDbLine
 10
-61.5
 20
-76.6989877164348
 30
0.0
 11
-38.5
 21
-76.6989877164348
 31
0.0
  0
LINE
  5
13A
330
84C
100
AcDbEntity
  8
DATA
  6
Continuous
 62
     7
100
AcDbLine
 10
-38.5
 20
-80.6989877164348
 30
0.0
 11
-61.5
 21
-80.6989877164348
 31
0.0
  0
ARC
  5
13B
330
84C
100
AcDbEntity
  8
DATA
  6
Continuous
 62
     7
100
AcDbCircle
 10
-61.5
 20
-78.6989877164348
 30
0.0
 40
2.0
100
AcDbArc
 50
90.0
 51
270.0
  0
ARC
  5
13C
330
84C
100
AcDbEntity
  8
DATA
  6
Continuous
 62
     7
100
AcDbCircle
 10
-38.5
 20
-78.6989877164348
 30
0.0
 40
2.0
100
AcDbArc
 50
270.0
 51
90.0
  0
TEXT
  5
13D
330
84C
100
AcDbEntity
  8
DATA
 62
     7
100
AcDbText
 10
-62.19784059079946
 20
-79.71576208520311
 30
0.0
 40
2.171788194444444
  1
E
 41
0.7
 11
-62.19784059079946
 21
-77.54397389075866
 31
0.0
100
AcDbText
 73
     3
  0
CIRCLE
  5
13E
330
84C
100
AcDbEntity
  8
DATA
  6
Continuous
 62
     7
100
AcDbCircle
 10
-61.46991104359997
 20
-78.6989877164348
 30
0.0
 40
1.850000000000001
  0
TEXT
  5
13F
330
84C
100
AcDbEntity
  8
DATA
 62
     7
100
AcDbText
 10
-50.71076053262282
 20
-85.31161661510909
 30
0.0
 40
2.171788194444444
  1
C
 41
0.7
 11
-50.71076053262282
 21
-83.13982842066463
 31
0.0
100
AcDbText
 73
     3
  0
TEXT
  5
140
330
84C
100
AcDbEntity
  8
DATA
 62
     7
100
AcDbText
 10
-55.33212791220902
 20
-86.38547766486794
 30
0.0
 40
2.171788194444444
  1
B
 41
0.7
 11
-55.33212791220902
 21
-84.21368947042351
 31
0.0
100
AcDbText
 73
     3
  0
TEXT
  5
141
330
84C
100
AcDbEntity
  8
DATA
 62
     7
100
AcDbText
 10
-59.01266091511821
 20
-89.38748181374776
 30
0.0
 40
2.171788194444444
  1
A
 41
0.7
 11
-59.01266091511821
 21
-87.21569361930333
 31
0.0
100
AcDbText
 73
     3
  0
TEXT
  5
142
330
84C
100
AcDbEntity
  8
DATA
 62
     7
100
AcDbText
 10
-46.07898319890208
 20
-86.38547766486789
 30
0.0
 40
2.171788194444444
  1
D
 41
0.7
 11
-46.07898319890208
 21
-84.21368947042344
 31
0.0
100
AcDbText
 73
     3
  0
TEXT
  5
143
330
84C
100
AcDbEntity
  8
DATA
 62
     7
100
AcDbText
 10
-42.3984501959929
 20
-89.38748181374778
 30
0.0
 40
2.171788194444444
  1
E
 41
0.7
 11
-42.3984501959929
 21
-87.21569361930333
 31
0.0
100
AcDbText
 73
     3
  0
CIRCLE
  5
144
330
84C
100
AcDbEntity
  8
DATA
  6
Continuous
 62
     7
100
AcDbCircle
 10
-54.03441083696002
 20
-91.6774190898163
 30
0.0
 40
0.2499999999999917
  0
LINE
  5
145
330
84C
100
AcDbEntity
  8
DATA
  6
Continuous
 62
     7
100
AcDbLine
 10
54.0
 20
-101.923573066685
 30
0.0
 11
54.0
 21
-63.0744023661846
 31
0.0
  0
LINE
  5
146
330
84C
100
AcDbEntity
  8
DATA
  6
Continuous
 62
     7
100
AcDbLine
 10
24.0
 20
-88.87014276564537
 30
0.0
 11
16.495297667646
 21
-88.97880510194175
 31
0.0
  0
LINE
  5
147
330
84C
100
AcDbEntity
  8
DATA
  6
Continuous
 62
     7
100
AcDbLine
 10
24.0
 20
-100.6701427656454
 30
0.0
 11
16.495297667646
 21
-100.561480429349
 31
0.0
  0
LINE
  5
148
330
84C
100
AcDbEntity
  8
DATA
  6
Continuous
 62
     7
100
AcDbLine
 10
31.37454530699406
 20
-101.923573066685
 30
0.0
 11
54.0
 21
-101.923573066685
 31
0.0
  0
LINE
  5
149
330
84C
100
AcDbEntity
  8
DATA
  6
Continuous
 62
     7
100
AcDbLine
 10
31.37454530699406
 20
-63.0744023661846
 30
0.0
 11
54.0
 21
-63.0744023661846
 31
0.0
  0
LINE
  5
14A
330
84C
100
AcDbEntity
  8
DATA
  6
Continuous
 62
     7
100
AcDbLine
 10
31.37454530699406
 20
-99.92357306668502
 30
0.0
 11
43.22545469123247
 21
-99.92357306668502
 31
0.0
  0
LINE
  5
14B
330
84C
100
AcDbEntity
  8
DATA
  6
Continuous
 62
     7
100
AcDbLine
 10
31.37454530699406
 20
-89.923573066685
 30
0.0
 11
43.22545469123247
 21
-89.923573066685
 31
0.0
  0
LINE
  5
14C
330
84C
100
AcDbEntity
  8
DATA
  6
Continuous
 62
     7
100
AcDbLine
 10
43.22545469123247
 20
-99.92357306668502
 30
0.0
 11
43.22545469123247
 21
-89.923573066685
 31
0.0
  0
LINE
  5
14D
330
84C
100
AcDbEntity
  8
DATA
  6
Continuous
 62
     7
100
AcDbLine
 10
43.22545469123247
 20
-63.5744023661846
 30
0.0
 11
53.22545469123247
 21
-63.5744023661846
 31
0.0
  0
LINE
  5
14E
330
84C
100
AcDbEntity
  8
DATA
  6
Continuous
 62
     7
100
AcDbLine
 10
43.22545469123247
 20
-76.57440236618457
 30
0.0
 11
53.22545469123247
 21
-76.57440236618457
 31
0.0
  0
LINE
  5
14F
330
84C
100
AcDbEntity
  8
DATA
  6
Continuous
 62
     7
100
AcDbLine
 10
53.22545469123247
 20
-63.5744023661846
 30
0.0
 11
53.22545469123247
 21
-76.57440236618457
 31
0.0
  0
LINE
  5
150
330
84C
100
AcDbEntity
  8
DATA
  6
Continuous
 62
     7
100
AcDbLine
 10
43.22545469123247
 20
-63.5744023661846
 30
0.0
 11
43.22545469123247
 21
-76.57440236618457
 31
0.0
  0
CIRCLE
  5
151
330
84C
100
AcDbEntity
  8
DATA
  6
Continuous
 62
     7
100
AcDbCircle
 10
35.72545469123247
 20
-70.08149114876563
 30
0.0
 40
3.5
  0
LINE
  5
152
330
84C
100
AcDbEntity
  8
DATA
  6
Continuous
 62
     7
100
AcDbLine
 10
33.22545469123247
 20
-70.08149114876563
 30
0.0
 11
38.22545469123247
 21
-70.08149114876563
 31
0.0
  0
LINE
  5
153
330
84C
100
AcDbEntity
  8
DATA
  6
Continuous
 62
     7
100
AcDbLine
 10
35.72545469123247
 20
-72.58149114876562
 30
0.0
 11
35.72545469123247
 21
-67.58149114876563
 31
0.0
  0
LWPOLYLINE
  5
154
330
84C
100
AcDbEntity
  8
DATA
  6
Continuous
 62
     7
100
AcDbPolyline
 90
        4
 70
     0
 43
0.0
 10
53.22545469123247
 20
-73.54809794447287
 10
43.22545469123247
 20
-73.54809794447287
 10
43.22545469123247
 20
-70.0480979444729
 10
53.22545469123247
 20
-70.0480979444729
  0
LINE
  5
15B
330
84C
100
AcDbEntity
  8
DATA
  6
Continuous
 62
     7
100
AcDbLine
 10
43.22545469123247
 20
-64.95063109977564
 30
0.0
 11
47.72545469123247
 21
-64.95063109977564
 31
0.0
  0
LINE
  5
15C
330
84C
100
AcDbEntity
  8
DATA
  6
Continuous
 62
     7
100
AcDbLine
 10
48.72545469123247
 20
-64.95063109977564
 30
0.0
 11
53.22545469123247
 21
-64.95063109977564
 31
0.0
  0
LWPOLYLINE
  5
15D
330
84C
100
AcDbEntity
  8
DATA
  6
Continuous
 62
     7
100
AcDbPolyline
 90
        4
 70
     0
 43
0.0
 10
47.72545469123246
 20
-70.04809794447287
 10
47.72545469123246
 20
-63.57440236618458
 10
48.72545469123247
 20
-63.57440236618458
 10
48.72545469123247
 20
-70.0480979444729
  0
LINE
  5
164
330
84C
100
AcDbEntity
  8
DATA
  6
Continuous
 62
     7
100
AcDbLine
 10
48.72545469123247
 20
-73.54809794447287
 30
0.0
 11
48.72545469123247
 21
-76.57440236618457
 31
0.0
  0
LINE
  5
165
330
84C
100
AcDbEntity
  8
DATA
  6
Continuous
 62
     7
100
AcDbLine
 10
47.72545469123246
 20
-76.57440236618457
 30
0.0
 11
47.72545469123246
 21
-73.54809794447286
 31
0.0
  0
LWPOLYLINE
  5
166
330
84C
100
AcDbEntity
  8
DATA
  6
Continuous
 62
     7
100
AcDbPolyline
 90
      770
 70
   129
 43
0.0
 10
44.78634913679575
 20
-74.01794354004258
 10
44.79633212078288
 20
-74.01412383499219
 10
44.80633920646884
 20
-74.01036428277723
 10
44.81637039385361
 20
-74.00666488339773
 10
44.82642568293723
 20
-74.00302563685362
 10
44.83650507371964
 20
-73.99944654314499
 10
44.84660856620089
 20
-73.99592760227182
 10
44.85673616038095
 20
-73.99246881423407
 10
44.86688785625982
 20
-73.98907017903173
 10
44.87706365383751
 20
-73.98573169666484
 10
44.88726355311404
 20
-73.98245336713341
 10
44.8974875540894
 20
-73.97923519043742
 10
44.90773565676357
 20
-73.97607716657685
 10
44.91800786113656
 20
-73.97297929555174
 10
44.92830416720837
 20
-73.96994157736206
 10
44.938624574979
 20
-73.96696401200781
 10
44.94896908444845
 20
-73.96404659948901
 10
44.95933769561673
 20
-73.96118933980566
 10
44.96973040848381
 20
-73.95839223295773
 10
44.98014722304972
 20
-73.95565527894524
 10
44.99058813931447
 20
-73.9529784777682
 10
45.00105315727801
 20
-73.95036182942661
 10
45.0115422769404
 20
-73.94780533392045
 10
45.0220554983016
 20
-73.9453089912497
 10
45.03259282136164
 20
-73.94287280141442
 10
45.04315424612047
 20
-73.94049676441458
 10
45.05373977257813
 20
-73.93818088025018
 10
45.06434940073461
 20
-73.93592514892119
 10
45.07498313058993
 20
-73.93372957042766
 10
45.08564096214406
 20
-73.93159414476956
 10
45.09632289539699
 20
-73.92951887194691
 10
45.10702893034876
 20
-73.9275037519597
 10
45.11775906699936
 20
-73.92554878480794
 10
45.12851330534876
 20
-73.92365397049158
 10
45.13929164539699
 20
-73.9218193090107
 10
45.15009408714406
 20
-73.92004480036525
 10
45.16092063058994
 20
-73.91833044455521
 10
45.17177127573461
 20
-73.91667624158063
 10
45.18264602257813
 20
-73.91508219144149
 10
45.19354487112047
 20
-73.9135482941378
 10
45.20446782136164
 20
-73.91207454966954
 10
45.2154148733016
 20
-73.9106609580367
 10
45.2263860269404
 20
-73.90930751923933
 10
45.23738128227802
 20
-73.90801423327738
 10
45.24840063931446
 20
-73.90678110015091
 10
45.25944409804973
 20
-73.90560811985981
 10
45.27051165848381
 20
-73.90449529240417
 10
45.28160332061673
 20
-73.90344261778401
 10
45.29271908444845
 20
-73.90245009599927
 10
45.303858949979
 20
-73.90151772704995
 10
45.31502291720836
 20
-73.9006455109361
 10
45.32621098613655
 20
-73.89983344765767
 10
45.33742315676357
 20
-73.89908153721467
 10
45.3486594290894
 20
-73.8983897796071
 10
45.35991980311403
 20
-73.89775817483502
 10
45.37120427883752
 20
-73.89718672289834
 10
45.38251285625983
 20
-73.89667542379709
 10
45.39384553538095
 20
-73.8962242775313
 10
45.40520231620089
 20
-73.89583328410094
 10
45.41658319871964
 20
-73.89550244350605
 10
45.42798818293722
 20
-73.89523175574656
 10
45.43941726885361
 20
-73.89502122082252
 10
45.45087045646884
 20
-73.89487083873392
 10
45.46234774578287
 20
-73.89478060948076
 10
45.47384913679574
 20
-73.89475053306305
 10
45.48535052780862
 20
-73.89478060948076
 10
45.49682781712266
 20
-73.89487083873392
 10
45.50828100473785
 20
-73.89502122082252
 10
45.51971009065428
 20
-73.89523175574656
 10
45.53111507487185
 20
-73.89550244350605
 10
45.54249595739061
 20
-73.89583328410094
 10
45.55385273821054
 20
-73.8962242775313
 10
45.56518541733168
 20
-73.89667542379709
 10
45.57649399475397
 20
-73.89718672289834
 10
45.58777847047745
 20
-73.89775817483502
 10
45.5990388445021
 20
-73.8983897796071
 10
45.61027511682793
 20
-73.89908153721467
 10
45.62148728745493
 20
-73.89983344765767
 10
45.63267535638312
 20
-73.9006455109361
 10
45.64383932361249
 20
-73.90151772704995
 10
45.65497918914305
 20
-73.90245009599927
 10
45.66609495297477
 20
-73.90344261778401
 10
45.67718661510768
 20
-73.90449529240417
 10
45.68825417554177
 20
-73.90560811985981
 10
45.69929763427703
 20
-73.90678110015091
 10
45.71031699131347
 20
-73.90801423327738
 10
45.7213122466511
 20
-73.90930751923933
 10
45.73228340028989
 20
-73.9106609580367
 10
45.74323045222985
 20
-73.91207454966954
 10
45.75415340247102
 20
-73.9135482941378
 10
45.76505225101336
 20
-73.91508219144149
 10
45.77592699785689
 20
-73.91667624158063
 10
45.78677764300156
 20
-73.91833044455521
 10
45.79760418644744
 20
-73.92004480036525
 10
45.8084066281945
 20
-73.9218193090107
 10
45.81918496824274
 20
-73.92365397049158
 10
45.82993920659213
 20
-73.92554878480794
 10
45.84066934324273
 20
-73.9275037519597
 10
45.8513753781945
 20
-73.92951887194691
 10
45.86205731144743
 20
-73.93159414476956
 10
45.87271514300156
 20
-73.93372957042766
 10
45.88334887285689
 20
-73.93592514892119
 10
45.89395850101336
 20
-73.93818088025018
 10
45.90454402747102
 20
-73.94049676441458
 10
45.91510545222986
 20
-73.94287280141442
 10
45.92564277528988
 20
-73.9453089912497
 10
45.9361559966511
 20
-73.94780533392045
 10
45.94664511631347
 20
-73.95036182942661
 10
45.95711013427703
 20
-73.9529784777682
 10
45.96755105054177
 20
-73.95565527894524
 10
45.97796786510769
 20
-73.95839223295773
 10
45.98836057797477
 20
-73.96118933980566
 10
45.99872918914305
 20
-73.96404659948901
 10
46.00907369861249
 20
-73.96696401200781
 10
46.01939410638313
 20
-73.96994157736206
 10
46.02969041245493
 20
-73.97297929555174
 10
46.03996261682793
 20
-73.97607716657685
 10
46.0502107195021
 20
-73.97923519043742
 10
46.06043472047746
 20
-73.98245336713341
 10
46.07063461975397
 20
-73.98573169666484
 10
46.08081041733167
 20
-73.98907017903173
 10
46.09096211321054
 20
-73.99246881423407
 10
46.10108970739061
 20
-73.99592760227182
 10
46.11119319987185
 20
-73.99944654314499
 10
46.12127259065427
 20
-74.00302563685362
 10
46.13132787973786
 20
-74.00666488339773
 10
46.14135906712266
 20
-74.01036428277723
 10
46.15136615280862
 20
-74.01412383499219
 10
46.16134913679575
 20
-74.01794354004258
 10
46.17128714640061
 20
-74.02181533897658
 10
46.18115930893973
 20
-74.02573117284234
 10
46.19096562441313
 20
-74.02969104163981
 10
46.20070609282081
 20
-74.03369494536914
 10
46.21038071416276
 20
-74.03774288403013
 10
46.21998948843899
 20
-74.04183485762295
 10
46.22953241564949
 20
-74.04597086614749
 10
46.23900949579425
 20
-74.05015090960382
 10
46.2484207288733
 20
-74.05437498799189
 10
46.2577661148866
 20
-74.05864310131173
 10
46.26704565383418
 20
-74.06295524956333
 10
46.27625934571603
 20
-74.06731143274669
 10
46.28540719053216
 20
-74.0717116508618
 10
46.29448918828257
 20
-74.07615590390867
 10
46.30350533896723
 20
-74.08064419188733
 10
46.31245564258617
 20
-74.08517651479773
 10
46.32134009913938
 20
-74.08975287263989
 10
46.33015870862687
 20
-74.09437326541381
 10
46.33891147104863
 20
-74.0990376931195
 10
46.34759838640465
 20
-74.10374615575694
 10
46.35621945469496
 20
-74.10849865332616
 10
46.36477467591954
 20
-74.11329518582713
 10
46.37326405007838
 20
-74.11813575325983
 10
46.3816875771715
 20
-74.12302035562435
 10
46.39004525719889
 20
-74.12794899292059
 10
46.39833709016055
 20
-74.13292166514861
 10
46.40656307605649
 20
-74.13793837230838
 10
46.41472321488671
 20
-74.14299911439991
 10
46.42281750665119
 20
-74.14810389142321
 10
46.43084595134993
 20
-74.15325270337827
 10
46.43880854898296
 20
-74.15844555026507
 10
46.44670529955024
 20
-74.16368243208366
 10
46.45453620305182
 20
-74.16896334883401
 10
46.46230125948766
 20
-74.17428830051611
 10
46.47000046885778
 20
-74.17965728712997
 10
46.47763383116214
 20
-74.18507030867558
 10
46.48520134640081
 20
-74.19052736515299
 10
46.49270301457375
 20
-74.19602845656211
 10
46.50013883568093
 20
-74.20157358290301
 10
46.5075088097224
 20
-74.20716274417564
 10
46.51481293669816
 20
-74.21279594038009
 10
46.52205121660818
 20
-74.21847317151628
 10
46.52922364945245
 20
-74.22419443758421
 10
46.53633023523102
 20
-74.22995973858395
 10
46.54337097394384
 20
-74.23576907451539
 10
46.55034586559096
 20
-74.24162244537862
 10
46.55725491017232
 20
-74.24751985117364
 10
46.56409810768797
 20
-74.25346129190034
 10
46.57087545813789
 20
-74.25944676755887
 10
46.57758696152209
 20
-74.26547627814915
 10
46.58423261784057
 20
-74.27154982367119
 10
46.59081242709329
 20
-74.27766740412498
 10
46.59732638928031
 20
-74.28382901951052
 10
46.6037745044016
 20
-74.29003466982782
 10
46.61015677245714
 20
-74.29628435507691
 10
46.61647319344695
 20
-74.30257807525773
 10
46.62272376737104
 20
-74.30891583037034
 10
46.62890849422942
 20
-74.31529762041468
 10
46.63502737402207
 20
-74.32172344539082
 10
46.64108040674896
 20
-74.3281933052987
 10
46.64706759241015
 20
-74.33470720013834
 10
46.65298893100562
 20
-74.34126512990973
 10
46.65884442253535
 20
-74.34786709461291
 10
46.66463406699936
 20
-74.35451309424781
 10
46.67034581354822
 20
-74.3611891703005
 10
46.67596761133253
 20
-74.3678813642568
 10
46.6814994603523
 20
-74.37458967611681
 10
46.68694136060751
 20
-74.38131410588045
 10
46.69229331209818
 20
-74.38805465354781
 10
46.69755531482429
 20
-74.39481131911886
 10
46.70272736878586
 20
-74.40158410259356
 10
46.70780947398288
 20
-74.40837300397197
 10
46.71280163041534
 20
-74.41517802325406
 10
46.71770383808327
 20
-74.42199916043979
 10
46.72251609698664
 20
-74.42883641552923
 10
46.72723840712546
 20
-74.43568978852231
 10
46.73187076849974
 20
-74.4425592794191
 10
46.73641318110945
 20
-74.44944488821956
 10
46.74086564495465
 20
-74.4563466149237
 10
46.74522816003529
 20
-74.46326445953153
 10
46.74950072635136
 20
-74.47019842204301
 10
46.75368334390289
 20
-74.4771485024582
 10
46.75777601268986
 20
-74.48411470077707
 10
46.76177873271229
 20
-74.4910970169996
 10
46.76569150397018
 20
-74.49809545112579
 10
46.76951432646353
 20
-74.50511000315569
 10
46.7732472001923
 20
-74.51214067308926
 10
46.77689012515652
 20
-74.5191874609265
 10
46.78044310135621
 20
-74.52625036666742
 10
46.78390612879136
 20
-74.53332939031203
 10
46.78727920746193
 20
-74.54042453186031
 10
46.79056233736799
 20
-74.54753579131227
 10
46.79375551850946
 20
-74.5546631686679
 10
46.79685875088642
 20
-74.56180666392723
 10
46.79987203449879
 20
-74.56896627709021
 10
46.80279536934665
 20
-74.5761420081569
 10
46.80562875542995
 20
-74.58333385712727
 10
46.80837219274869
 20
-74.59054182400127
 10
46.8110256813029
 20
-74.59776590877898
 10
46.81358922109254
 20
-74.60500611146037
 10
46.81606281211764
 20
-74.61226243204542
 10
46.81844645437818
 20
-74.6195348705342
 10
46.82074014787418
 20
-74.62682342692659
 10
46.82294389260563
 20
-74.6341281012227
 10
46.82505768857254
 20
-74.64144889342245
 10
46.8270815357749
 20
-74.64878580352595
 10
46.82901543421269
 20
-74.65613883153306
 10
46.83085938388596
 20
-74.66350797744387
 10
46.83261338479465
 20
-74.67089324125836
 10
46.83427743693881
 20
-74.67829462297655
 10
46.83585154031842
 20
-74.6857121225984
 10
46.83733569493347
 20
-74.69314574012392
 10
46.83872990078397
 20
-74.70059547555314
 10
46.84003415786995
 20
-74.70806132888603
 10
46.84124846619136
 20
-74.71554330012259
 10
46.84237282574821
 20
-74.72304138926283
 10
46.84340723654052
 20
-74.73055559630672
 10
46.84435169856829
 20
-74.73808592125434
 10
46.84520621183151
 20
-74.74563236410563
 10
46.84597077633017
 20
-74.75319492486057
 10
46.84664539206428
 20
-74.76077360351922
 10
46.84723005903386
 20
-74.7683684000815
 10
46.84772477723888
 20
-74.7759793145475
 10
46.84812954667936
 20
-74.78360634691719
 10
46.84844436735527
 20
-74.79124949719054
 10
46.84866923926665
 20
-74.79890876536754
 10
46.84880416241347
 20
-74.80658415144826
 10
46.84884913679574
 20
-74.81427565543263
 10
46.84880416241347
 20
-74.82196715941701
 10
46.84866923926665
 20
-74.82964254549772
 10
46.84844436735527
 20
-74.83730181367474
 10
46.84812954667936
 20
-74.84494496394809
 10
46.84772477723888
 20
-74.85257199631779
 10
46.84723005903386
 20
-74.86018291078377
 10
46.84664539206428
 20
-74.86777770734606
 10
46.84597077633017
 20
-74.87535638600468
 10
46.84520621183151
 20
-74.88291894675966
 10
46.84435169856829
 20
-74.8904653896109
 10
46.84340723654052
 20
-74.89799571455853
 10
46.84237282574821
 20
-74.90550992160244
 10
46.84124846619136
 20
-74.91300801074268
 10
46.84003415786995
 20
-74.92048998197923
 10
46.83872990078397
 20
-74.92795583531213
 10
46.83733569493347
 20
-74.93540557074135
 10
46.83585154031842
 20
-74.94283918826686
 10
46.83427743693881
 20
-74.95025668788871
 10
46.83261338479465
 20
-74.9576580696069
 10
46.83085938388596
 20
-74.96504333342139
 10
46.82901543421269
 20
-74.97241247933219
 10
46.8270815357749
 20
-74.97976550733932
 10
46.82505768857254
 20
-74.9871024174428
 10
46.82294389260563
 20
-74.99442320964258
 10
46.82074014787418
 20
-75.00172788393868
 10
46.81844645437818
 20
-75.0090164403311
 10
46.81606281211764
 20
-75.01628887881985
 10
46.81358922109254
 20
-75.02354519940491
 10
46.8110256813029
 20
-75.03078540208626
 10
46.80837219274869
 20
-75.038009486864
 10
46.80562875542995
 20
-75.04521745373804
 10
46.80279536934665
 20
-75.05240930270838
 10
46.79987203449879
 20
-75.05958503377506
 10
46.79685875088642
 20
-75.06674464693805
 10
46.79375551850946
 20
-75.07388814219737
 10
46.79056233736799
 20
-75.08101551955298
 10
46.78727920746193
 20
-75.08812677900495
 10
46.78390612879136
 20
-75.09522192055325
 10
46.78044310135621
 20
-75.10230094419785
 10
46.77689012515652
 20
-75.10936384993875
 10
46.7732472001923
 20
-75.11641063777602
 10
46.76951432646353
 20
-75.12344130770959
 10
46.76569150397018
 20
-75.13045585973947
 10
46.76177873271229
 20
-75.13745429386569
 10
46.75777601268986
 20
-75.14443661008822
 10
46.75368334390289
 20
-75.15140280840705
 10
46.74950072635136
 20
-75.15835288882225
 10
46.74522816003529
 20
-75.16528685133373
 10
46.74086564495465
 20
-75.17220469594156
 10
46.73641318110945
 20
-75.1791064226457
 10
46.73187076849974
 20
-75.18599203144619
 10
46.72723840712546
 20
-75.19286152234293
 10
46.72251609698664
 20
-75.19971489533607
 10
46.71770383808327
 20
-75.20655215042548
 10
46.71280163041534
 20
-75.21337328761124
 10
46.70780947398288
 20
-75.2201783068933
 10
46.70272736878586
 20
-75.2269672082717
 10
46.69755531482429
 20
-75.23373999174641
 10
46.69229331209818
 20
-75.24049665731745
 10
46.68694136060751
 20
-75.2472372049848
 10
46.6814994603523
 20
-75.25396163474844
 10
46.67596761133253
 20
-75.26066994660846
 10
46.67034581354822
 20
-75.26736214056478
 10
46.66463406699936
 20
-75.27403821661744
 10
46.65884442253535
 20
-75.28068421625234
 10
46.65298893100562
 20
-75.28728618095555
 10
46.64706759241015
 20
-75.29384411072694
 10
46.64108040674896
 20
-75.30035800556659
 10
46.63502737402207
 20
-75.30682786547444
 10
46.62890849422942
 20
-75.31325369045058
 10
46.62272376737104
 20
-75.31963548049493
 10
46.61647319344695
 20
-75.32597323560755
 10
46.61015677245714
 20
-75.33226695578837
 10
46.6037745044016
 20
-75.33851664103742
 10
46.59732638928031
 20
-75.34472229135475
 10
46.59081242709329
 20
-75.3508839067403
 10
46.58423261784057
 20
-75.3570014871941
 10
46.57758696152209
 20
-75.36307503271612
 10
46.57087545813789
 20
-75.36910454330641
 10
46.56409810768797
 20
-75.37509001896491
 10
46.55725491017232
 20
-75.38103145969166
 10
46.55034586559096
 20
-75.38692886548666
 10
46.54337097394384
 20
-75.39278223634989
 10
46.53633023523102
 20
-75.39859157228135
 10
46.52922364945245
 20
-75.40435687328105
 10
46.52205121660818
 20
-75.41007813934898
 10
46.51481293669816
 20
-75.41575537048519
 10
46.5075088097224
 20
-75.4213885666896
 10
46.50013883568093
 20
-75.42697772796227
 10
46.49270301457375
 20
-75.43252285430317
 10
46.48520134640081
 20
-75.4380239457123
 10
46.47763383116214
 20
-75.44348100218968
 10
46.47000046885778
 20
-75.44889402373529
 10
46.46230125948766
 20
-75.45426301034916
 10
46.45453620305182
 20
-75.45958796203127
 10
46.44670529955024
 20
-75.46486887878163
 10
46.43880854898296
 20
-75.47010576060019
 10
46.43084595134993
 20
-75.475298607487
 10
46.42281750665119
 20
-75.48044741944206
 10
46.41472321488671
 20
-75.48555219646536
 10
46.40656307605649
 20
-75.4906129385569
 10
46.39833709016055
 20
-75.49562964571666
 10
46.39004525719889
 20
-75.50060231794468
 10
46.3816875771715
 20
-75.50553095524094
 10
46.37326405007838
 20
-75.51041555760541
 10
46.36477467591954
 20
-75.51525612503815
 10
46.35621945469496
 20
-75.52005265753909
 10
46.34759838640465
 20
-75.52480515510831
 10
46.33891147104863
 20
-75.52951361774581
 10
46.33015870862687
 20
-75.53417804545145
 10
46.32134009913938
 20
-75.53879843822537
 10
46.31245564258617
 20
-75.54337479606754
 10
46.30350533896723
 20
-75.54790711897793
 10
46.29448918828257
 20
-75.55239540695659
 10
46.28540719053216
 20
-75.55683966000348
 10
46.27625934571603
 20
-75.56123987811858
 10
46.26704565383418
 20
-75.56559606130193
 10
46.2577661148866
 20
-75.56990820955355
 10
46.2484207288733
 20
-75.57417632287337
 10
46.23900949579425
 20
-75.57840040126144
 10
46.22953241564949
 20
-75.58258044471777
 10
46.21998948843899
 20
-75.58671645324235
 10
46.21038071416276
 20
-75.59080842683512
 10
46.20070609282081
 20
-75.59485636549614
 10
46.19096562441313
 20
-75.59886026922544
 10
46.18115930893973
 20
-75.60282013802297
 10
46.17128714640061
 20
-75.60673597188868
 10
46.16134913679575
 20
-75.61060777082268
 10
46.15136615280862
 20
-75.6144274758731
 10
46.14135906712266
 20
-75.61818702808803
 10
46.13132787973786
 20
-75.62188642746754
 10
46.12127259065427
 20
-75.62552567401166
 10
46.11119319987185
 20
-75.62910476772029
 10
46.10108970739061
 20
-75.63262370859345
 10
46.09096211321054
 20
-75.63608249663123
 10
46.08081041733167
 20
-75.63948113183355
 10
46.07063461975397
 20
-75.64281961420042
 10
46.06043472047746
 20
-75.64609794373184
 10
46.0502107195021
 20
-75.64931612042784
 10
46.03996261682793
 20
-75.6524741442884
 10
46.02969041245493
 20
-75.65557201531351
 10
46.01939410638313
 20
-75.65860973350321
 10
46.00907369861249
 20
-75.66158729885746
 10
45.99872918914305
 20
-75.66450471137627
 10
45.98836057797477
 20
-75.66736197105964
 10
45.97796786510769
 20
-75.67015907790754
 10
45.96755105054177
 20
-75.67289603192003
 10
45.95711013427703
 20
-75.67557283309707
 10
45.94664511631347
 20
-75.67818948143865
 10
45.9361559966511
 20
-75.68074597694483
 10
45.92564277528988
 20
-75.68324231961556
 10
45.91510545222986
 20
-75.68567850945085
 10
45.90454402747102
 20
-75.6880545464507
 10
45.89395850101336
 20
-75.69037043061509
 10
45.88334887285689
 20
-75.69262616194409
 10
45.87271514300156
 20
-75.69482174043762
 10
45.86205731144743
 20
-75.6969571660957
 10
45.8513753781945
 20
-75.69903243891833
 10
45.84066934324273
 20
-75.70104755890556
 10
45.82993920659213
 20
-75.70300252605735
 10
45.81918496824274
 20
-75.70489734037366
 10
45.8084066281945
 20
-75.70673200185457
 10
45.79760418644744
 20
-75.70850651050003
 10
45.78677764300156
 20
-75.71022086631003
 10
45.77592699785689
 20
-75.71187506928464
 10
45.76505225101336
 20
-75.71346911942377
 10
45.75415340247102
 20
-75.71500301672748
 10
45.74323045222985
 20
-75.71647676119574
 10
45.73228340028989
 20
-75.71789035282856
 10
45.7213122466511
 20
-75.71924379162594
 10
45.71031699131347
 20
-75.72053707758789
 10
45.69929763427703
 20
-75.72177021071438
 10
45.68825417554177
 20
-75.72294319100544
 10
45.67718661510768
 20
-75.72405601846107
 10
45.66609495297477
 20
-75.72510869308124
 10
45.65497918914305
 20
-75.72610121486601
 10
45.64383932361249
 20
-75.72703358381531
 10
45.63267535638312
 20
-75.72790579992918
 10
45.62148728745493
 20
-75.72871786320759
 10
45.61027511682793
 20
-75.72946977365059
 10
45.5990388445021
 20
-75.73016153125815
 10
45.58777847047745
 20
-75.73079313603026
 10
45.57649399475397
 20
-75.73136458796693
 10
45.56518541733168
 20
-75.73187588706819
 10
45.55385273821054
 20
-75.73232703333397
 10
45.54249595739061
 20
-75.7327180267643
 10
45.53111507487185
 20
-75.73304886735924
 10
45.51971009065428
 20
-75.7333195551187
 10
45.50828100473785
 20
-75.73353009004275
 10
45.49682781712266
 20
-75.73368047213135
 10
45.48535052780862
 20
-75.73377070138452
 10
45.47384913679574
 20
-75.73380077780225
 10
45.46234774578287
 20
-75.73377070138452
 10
45.45087045646884
 20
-75.73368047213135
 10
45.43941726885361
 20
-75.73353009004275
 10
45.42798818293722
 20
-75.7333195551187
 10
45.41658319871964
 20
-75.73304886735924
 10
45.40520231620089
 20
-75.7327180267643
 10
45.39384553538095
 20
-75.73232703333397
 10
45.38251285625983
 20
-75.73187588706819
 10
45.37120427883752
 20
-75.73136458796693
 10
45.35991980311403
 20
-75.73079313603026
 10
45.3486594290894
 20
-75.73016153125815
 10
45.33742315676357
 20
-75.72946977365059
 10
45.32621098613655
 20
-75.72871786320759
 10
45.31502291720836
 20
-75.72790579992918
 10
45.303858949979
 20
-75.72703358381531
 10
45.29271908444845
 20
-75.72610121486601
 10
45.28160332061673
 20
-75.72510869308124
 10
45.27051165848381
 20
-75.72405601846107
 10
45.25944409804973
 20
-75.72294319100544
 10
45.24840063931446
 20
-75.72177021071438
 10
45.23738128227802
 20
-75.72053707758789
 10
45.2263860269404
 20
-75.71924379162594
 10
45.2154148733016
 20
-75.71789035282856
 10
45.20446782136164
 20
-75.71647676119574
 10
45.19354487112047
 20
-75.71500301672748
 10
45.18264602257813
 20
-75.71346911942377
 10
45.17177127573461
 20
-75.71187506928464
 10
45.16092063058994
 20
-75.71022086631003
 10
45.15009408714406
 20
-75.70850651050003
 10
45.13929164539699
 20
-75.70673200185457
 10
45.12851330534876
 20
-75.70489734037366
 10
45.11775906699936
 20
-75.70300252605735
 10
45.10702893034876
 20
-75.70104755890556
 10
45.09632289539699
 20
-75.69903243891833
 10
45.08564096214406
 20
-75.6969571660957
 10
45.07498313058993
 20
-75.69482174043762
 10
45.06434940073461
 20
-75.69262616194409
 10
45.05373977257813
 20
-75.69037043061509
 10
45.04315424612047
 20
-75.6880545464507
 10
45.03259282136164
 20
-75.68567850945085
 10
45.0220554983016
 20
-75.68324231961556
 10
45.0115422769404
 20
-75.68074597694483
 10
45.00105315727801
 20
-75.67818948143865
 10
44.99058813931447
 20
-75.67557283309707
 10
44.98014722304972
 20
-75.67289603192003
 10
44.96973040848381
 20
-75.67015907790754
 10
44.95933769561673
 20
-75.66736197105964
 10
44.94896908444845
 20
-75.66450471137627
 10
44.938624574979
 20
-75.66158729885746
 10
44.92830416720837
 20
-75.65860973350321
 10
44.91800786113656
 20
-75.65557201531351
 10
44.90773565676357
 20
-75.6524741442884
 10
44.8974875540894
 20
-75.64931612042784
 10
44.88726355311404
 20
-75.64609794373184
 10
44.87706365383751
 20
-75.64281961420042
 10
44.86688785625982
 20
-75.63948113183355
 10
44.85673616038095
 20
-75.63608249663123
 10
44.84660856620089
 20
-75.63262370859345
 10
44.83650507371964
 20
-75.62910476772029
 10
44.82642568293723
 20
-75.62552567401166
 10
44.81637039385361
 20
-75.62188642746754
 10
44.80633920646884
 20
-75.61818702808803
 10
44.79633212078288
 20
-75.6144274758731
 10
44.78634913679575
 20
-75.61060777082268
 10
44.7764111271909
 20
-75.60673597188868
 10
44.76653896465175
 20
-75.60282013802297
 10
44.75673264917835
 20
-75.59886026922544
 10
44.74699218077068
 20
-75.59485636549614
 10
44.73731755942873
 20
-75.59080842683512
 10
44.72770878515249
 20
-75.58671645324235
 10
44.71816585794201
 20
-75.58258044471777
 10
44.70868877779724
 20
-75.57840040126144
 10
44.6992775447182
 20
-75.57417632287337
 10
44.68993215870489
 20
-75.56990820955355
 10
44.68065261975731
 20
-75.56559606130193
 10
44.67143892787545
 20
-75.56123987811858
 10
44.66229108305934
 20
-75.55683966000348
 10
44.65320908530893
 20
-75.55239540695659
 10
44.64419293462426
 20
-75.54790711897793
 10
44.63524263100532
 20
-75.54337479606754
 10
44.62635817445211
 20
-75.53879843822537
 10
44.61753956496463
 20
-75.53417804545145
 10
44.60878680254286
 20
-75.52951361774581
 10
44.60009988718684
 20
-75.52480515510831
 10
44.59147881889653
 20
-75.52005265753909
 10
44.58292359767196
 20
-75.51525612503815
 10
44.57443422351311
 20
-75.51041555760541
 10
44.56601069642
 20
-75.50553095524094
 10
44.55765301639259
 20
-75.50060231794468
 10
44.54936118343094
 20
-75.49562964571666
 10
44.54113519753501
 20
-75.4906129385569
 10
44.53297505870478
 20
-75.48555219646536
 10
44.52488076694032
 20
-75.48044741944206
 10
44.51685232224156
 20
-75.475298607487
 10
44.50888972460854
 20
-75.47010576060019
 10
44.50099297404125
 20
-75.46486887878163
 10
44.49316207053968
 20
-75.45958796203127
 10
44.48539701410384
 20
-75.45426301034916
 10
44.47769780473372
 20
-75.44889402373529
 10
44.47006444242935
 20
-75.44348100218968
 10
44.46249692719068
 20
-75.4380239457123
 10
44.45499525901776
 20
-75.43252285430317
 10
44.44755943791056
 20
-75.42697772796227
 10
44.44018946386909
 20
-75.4213885666896
 10
44.43288533689334
 20
-75.41575537048519
 10
44.42564705698331
 20
-75.41007813934898
 10
44.41847462413904
 20
-75.40435687328105
 10
44.41136803836047
 20
-75.39859157228135
 10
44.40432729964764
 20
-75.39278223634989
 10
44.39735240800054
 20
-75.38692886548666
 10
44.39044336341917
 20
-75.38103145969166
 10
44.38360016590352
 20
-75.37509001896491
 10
44.3768228154536
 20
-75.36910454330641
 10
44.3701113120694
 20
-75.36307503271612
 10
44.36346565575094
 20
-75.3570014871941
 10
44.35688584649819
 20
-75.3508839067403
 10
44.35037188431119
 20
-75.34472229135475
 10
44.34392376918991
 20
-75.33851664103742
 10
44.33754150113435
 20
-75.33226695578837
 10
44.33122508014455
 20
-75.32597323560755
 10
44.32497450622046
 20
-75.31963548049493
 10
44.31878977936207
 20
-75.31325369045058
 10
44.31267089956942
 20
-75.30682786547444
 10
44.30661786684253
 20
-75.30035800556659
 10
44.30063068118133
 20
-75.29384411072694
 10
44.29470934258588
 20
-75.28728618095555
 10
44.28885385105615
 20
-75.28068421625234
 10
44.28306420659215
 20
-75.27403821661744
 10
44.27735246004327
 20
-75.26736214056478
 10
44.27173066225896
 20
-75.26066994660846
 10
44.2661988132392
 20
-75.25396163474844
 10
44.26075691298399
 20
-75.2472372049848
 10
44.25540496149332
 20
-75.24049665731745
 10
44.25014295876721
 20
-75.23373999174641
 10
44.24497090480564
 20
-75.2269672082717
 10
44.23988879960861
 20
-75.2201783068933
 10
44.23489664317616
 20
-75.21337328761124
 10
44.22999443550822
 20
-75.20655215042548
 10
44.22518217660488
 20
-75.19971489533607
 10
44.22045986646604
 20
-75.19286152234293
 10
44.21582750509175
 20
-75.18599203144619
 10
44.21128509248202
 20
-75.1791064226457
 10
44.20683262863685
 20
-75.17220469594156
 10
44.20247011355622
 20
-75.16528685133373
 10
44.19819754724016
 20
-75.15835288882225
 10
44.1940149296886
 20
-75.15140280840705
 10
44.18992226090162
 20
-75.14443661008822
 10
44.1859195408792
 20
-75.13745429386569
 10
44.18200676962132
 20
-75.13045585973947
 10
44.17818394712798
 20
-75.12344130770959
 10
44.17445107339919
 20
-75.11641063777602
 10
44.17080814843497
 20
-75.10936384993875
 10
44.16725517223528
 20
-75.10230094419785
 10
44.16379214480015
 20
-75.09522192055325
 10
44.16041906612956
 20
-75.08812677900495
 10
44.1571359362235
 20
-75.08101551955298
 10
44.15394275508202
 20
-75.07388814219737
 10
44.15083952270509
 20
-75.06674464693805
 10
44.14782623909268
 20
-75.05958503377506
 10
44.14490290424485
 20
-75.05240930270838
 10
44.14206951816153
 20
-75.04521745373804
 10
44.13932608084279
 20
-75.038009486864
 10
44.13667259228861
 20
-75.03078540208626
 10
44.13410905249896
 20
-75.02354519940491
 10
44.13163546147385
 20
-75.01628887881985
 10
44.12925181921329
 20
-75.0090164403311
 10
44.12695812571731
 20
-75.00172788393868
 10
44.12475438098584
 20
-74.99442320964258
 10
44.12264058501896
 20
-74.9871024174428
 10
44.12061673781661
 20
-74.97976550733932
 10
44.11868283937881
 20
-74.97241247933219
 10
44.11683888970554
 20
-74.96504333342139
 10
44.11508488879685
 20
-74.9576580696069
 10
44.11342083665268
 20
-74.95025668788871
 10
44.11184673327308
 20
-74.94283918826686
 10
44.11036257865802
 20
-74.93540557074135
 10
44.10896837280752
 20
-74.92795583531213
 10
44.10766411572154
 20
-74.92048998197923
 10
44.10644980740013
 20
-74.91300801074268
 10
44.10532544784328
 20
-74.90550992160244
 10
44.10429103705097
 20
-74.89799571455853
 10
44.1033465750232
 20
-74.8904653896109
 10
44.10249206176
 20
-74.88291894675966
 10
44.10172749726132
 20
-74.87535638600468
 10
44.10105288152721
 20
-74.86777770734606
 10
44.10046821455764
 20
-74.86018291078377
 10
44.09997349635261
 20
-74.85257199631779
 10
44.09956872691213
 20
-74.84494496394809
 10
44.09925390623622
 20
-74.83730181367474
 10
44.09902903432484
 20
-74.82964254549772
 10
44.09889411117802
 20
-74.82196715941701
 10
44.09884913679575
 20
-74.81427565543263
 10
44.09889411117802
 20
-74.80658415144826
 10
44.09902903432484
 20
-74.79890876536754
 10
44.09925390623622
 20
-74.79124949719054
 10
44.09956872691213
 20
-74.78360634691719
 10
44.09997349635261
 20
-74.7759793145475
 10
44.10046821455764
 20
-74.7683684000815
 10
44.10105288152721
 20
-74.76077360351922
 10
44.10172749726132
 20
-74.75319492486057
 10
44.10249206176
 20
-74.74563236410563
 10
44.1033465750232
 20
-74.73808592125434
 10
44.10429103705097
 20
-74.73055559630672
 10
44.10532544784328
 20
-74.72304138926283
 10
44.10644980740013
 20
-74.71554330012259
 10
44.10766411572154
 20
-74.70806132888603
 10
44.10896837280752
 20
-74.70059547555314
 10
44.11036257865802
 20
-74.69314574012392
 10
44.11184673327308
 20
-74.6857121225984
 10
44.11342083665268
 20
-74.67829462297655
 10
44.11508488879685
 20
-74.67089324125836
 10
44.11683888970554
 20
-74.66350797744387
 10
44.11868283937881
 20
-74.65613883153306
 10
44.12061673781661
 20
-74.64878580352595
 10
44.12264058501896
 20
-74.64144889342245
 10
44.12475438098584
 20
-74.6341281012227
 10
44.12695812571731
 20
-74.62682342692659
 10
44.12925181921329
 20
-74.6195348705342
 10
44.13163546147385
 20
-74.61226243204542
 10
44.13410905249896
 20
-74.60500611146037
 10
44.13667259228861
 20
-74.59776590877898
 10
44.13932608084279
 20
-74.59054182400127
 10
44.14206951816153
 20
-74.58333385712727
 10
44.14490290424485
 20
-74.5761420081569
 10
44.14782623909268
 20
-74.56896627709021
 10
44.15083952270509
 20
-74.56180666392723
 10
44.15394275508202
 20
-74.5546631686679
 10
44.1571359362235
 20
-74.54753579131227
 10
44.16041906612956
 20
-74.54042453186031
 10
44.16379214480015
 20
-74.53332939031203
 10
44.16725517223528
 20
-74.52625036666742
 10
44.17080814843497
 20
-74.5191874609265
 10
44.17445107339919
 20
-74.51214067308926
 10
44.17818394712798
 20
-74.50511000315569
 10
44.18200676962132
 20
-74.49809545112579
 10
44.1859195408792
 20
-74.4910970169996
 10
44.18992226090162
 20
-74.48411470077707
 10
44.1940149296886
 20
-74.4771485024582
 10
44.19819754724016
 20
-74.47019842204301
 10
44.20247011355622
 20
-74.46326445953153
 10
44.20683262863685
 20
-74.4563466149237
 10
44.21128509248202
 20
-74.44944488821956
 10
44.21582750509175
 20
-74.4425592794191
 10
44.22045986646604
 20
-74.43568978852231
 10
44.22518217660488
 20
-74.42883641552923
 10
44.22999443550822
 20
-74.42199916043979
 10
44.23489664317616
 20
-74.41517802325406
 10
44.23988879960861
 20
-74.40837300397197
 10
44.24497090480564
 20
-74.40158410259356
 10
44.25014295876721
 20
-74.39481131911886
 10
44.25540496149332
 20
-74.38805465354781
 10
44.26075691298399
 20
-74.38131410588045
 10
44.2661988132392
 20
-74.37458967611681
 10
44.27173066225896
 20
-74.3678813642568
 10
44.27735246004327
 20
-74.3611891703005
 10
44.28306420659215
 20
-74.35451309424781
 10
44.28885385105615
 20
-74.34786709461291
 10
44.29470934258588
 20
-74.34126512990973
 10
44.30063068118133
 20
-74.33470720013834
 10
44.30661786684253
 20
-74.3281933052987
 10
44.31267089956942
 20
-74.32172344539082
 10
44.31878977936207
 20
-74.31529762041468
 10
44.32497450622046
 20
-74.30891583037034
 10
44.33122508014455
 20
-74.30257807525773
 10
44.33754150113435
 20
-74.29628435507691
 10
44.34392376918991
 20
-74.29003466982782
 10
44.35037188431119
 20
-74.28382901951052
 10
44.35688584649819
 20
-74.27766740412498
 10
44.36346565575094
 20
-74.27154982367119
 10
44.3701113120694
 20
-74.26547627814915
 10
44.3768228154536
 20
-74.25944676755887
 10
44.38360016590352
 20
-74.25346129190034
 10
44.39044336341917
 20
-74.24751985117364
 10
44.39735240800054
 20
-74.24162244537862
 10
44.40432729964764
 20
-74.23576907451539
 10
44.41136803836047
 20
-74.22995973858395
 10
44.41847462413904
 20
-74.22419443758421
 10
44.42564705698331
 20
-74.21847317151628
 10
44.43288533689334
 20
-74.21279594038009
 10
44.44018946386909
 20
-74.20716274417564
 10
44.44755943791056
 20
-74.20157358290301
 10
44.45499525901776
 20
-74.19602845656211
 10
44.46249692719068
 20
-74.19052736515299
 10
44.47006444242935
 20
-74.18507030867558
 10
44.47769780473372
 20
-74.17965728712997
 10
44.48539701410384
 20
-74.17428830051611
 10
44.49316207053968
 20
-74.16896334883401
 10
44.50099297404125
 20
-74.16368243208366
 10
44.50888972460854
 20
-74.15844555026507
 10
44.51685232224156
 20
-74.15325270337827
 10
44.52488076694032
 20
-74.14810389142321
 10
44.53297505870478
 20
-74.14299911439991
 10
44.54113519753501
 20
-74.13793837230838
 10
44.54936118343094
 20
-74.13292166514861
 10
44.55765301639259
 20
-74.12794899292059
 10
44.56601069642
 20
-74.12302035562435
 10
44.57443422351311
 20
-74.11813575325983
 10
44.58292359767196
 20
-74.11329518582713
 10
44.59147881889653
 20
-74.10849865332616
 10
44.60009988718684
 20
-74.10374615575694
 10
44.60878680254286
 20
-74.0990376931195
 10
44.61753956496463
 20
-74.09437326541381
 10
44.62635817445211
 20
-74.08975287263989
 10
44.63524263100532
 20
-74.08517651479773
 10
44.64419293462426
 20
-74.08064419188733
 10
44.65320908530893
 20
-74.07615590390867
 10
44.66229108305934
 20
-74.0717116508618
 10
44.67143892787545
 20
-74.06731143274669
 10
44.68065261975731
 20
-74.06295524956333
 10
44.68993215870489
 20
-74.05864310131173
 10
44.6992775447182
 20
-74.05437498799189
 10
44.70868877779724
 20
-74.05015090960382
 10
44.71816585794201
 20
-74.04597086614749
 10
44.72770878515249
 20
-74.04183485762295
 10
44.73731755942873
 20
-74.03774288403013
 10
44.74699218077068
 20
-74.03369494536914
 10
44.75673264917835
 20
-74.02969104163981
 10
44.76653896465175
 20
-74.02573117284234
 10
44.7764111271909
 20
-74.02181533897658
 10
44.78634913679575
 20
-74.01794354004258
 10
44.78634913679575
 20
-74.01794354004258
  0
LINE
  5
46A
330
84C
100
AcDbEntity
  8
DATA
  6
Continuous
 62
     7
100
AcDbLine
 10
43.22545469123247
 20
-76.24477645428702
 30
0.0
 11
53.22545469123247
 21
-76.24477645428702
 31
0.0
  0
LINE
  5
46B
330
84C
100
AcDbEntity
  8
DATA
  6
Continuous
 62
     7
100
AcDbLine
 10
44.56501201170194
 20
-74.12360494724544
 30
0.0
 11
46.08128942353052
 21
-75.63932230714748
 31
0.0
  0
LINE
  5
46C
330
84C
100
AcDbEntity
  8
DATA
  6
Continuous
 62
     7
100
AcDbLine
 10
44.87143706604837
 20
-73.98756925808889
 30
0.0
 11
46.3854885949085
 21
-75.50329972039158
 31
0.0
  0
LWPOLYLINE
  5
46D
330
84C
100
AcDbEntity
  8
DATA
  6
Continuous
 62
     7
100
AcDbPolyline
 90
      770
 70
   129
 43
0.0
 10
50.28634913679574
 20
-74.01794354004258
 10
50.29633212078287
 20
-74.01412383499219
 10
50.30633920646884
 20
-74.01036428277723
 10
50.31637039385362
 20
-74.00666488339773
 10
50.32642568293722
 20
-74.00302563685362
 10
50.33650507371964
 20
-73.99944654314499
 10
50.34660856620089
 20
-73.99592760227182
 10
50.35673616038096
 20
-73.99246881423407
 10
50.36688785625983
 20
-73.98907017903173
 10
50.37706365383751
 20
-73.98573169666484
 10
50.38726355311403
 20
-73.98245336713341
 10
50.3974875540894
 20
-73.97923519043742
 10
50.40773565676357
 20
-73.97607716657685
 10
50.41800786113656
 20
-73.97297929555174
 10
50.42830416720836
 20
-73.96994157736206
 10
50.438624574979
 20
-73.96696401200781
 10
50.44896908444845
 20
-73.96404659948901
 10
50.45933769561672
 20
-73.96118933980566
 10
50.46973040848381
 20
-73.95839223295773
 10
50.48014722304973
 20
-73.95565527894524
 10
50.49058813931447
 20
-73.9529784777682
 10
50.50105315727802
 20
-73.95036182942661
 10
50.5115422769404
 20
-73.94780533392045
 10
50.5220554983016
 20
-73.9453089912497
 10
50.53259282136163
 20
-73.94287280141442
 10
50.54315424612047
 20
-73.94049676441458
 10
50.55373977257813
 20
-73.93818088025018
 10
50.56434940073462
 20
-73.93592514892119
 10
50.57498313058993
 20
-73.93372957042766
 10
50.58564096214406
 20
-73.93159414476956
 10
50.59632289539699
 20
-73.92951887194691
 10
50.60702893034876
 20
-73.9275037519597
 10
50.61775906699936
 20
-73.92554878480794
 10
50.62851330534876
 20
-73.92365397049158
 10
50.63929164539699
 20
-73.9218193090107
 10
50.65009408714406
 20
-73.92004480036525
 10
50.66092063058993
 20
-73.91833044455521
 10
50.67177127573462
 20
-73.91667624158063
 10
50.68264602257813
 20
-73.91508219144149
 10
50.69354487112047
 20
-73.9135482941378
 10
50.70446782136164
 20
-73.91207454966954
 10
50.7154148733016
 20
-73.9106609580367
 10
50.7263860269404
 20
-73.90930751923933
 10
50.73738128227802
 20
-73.90801423327738
 10
50.74840063931446
 20
-73.90678110015091
 10
50.75944409804972
 20
-73.90560811985981
 10
50.77051165848381
 20
-73.90449529240417
 10
50.78160332061672
 20
-73.90344261778401
 10
50.79271908444844
 20
-73.90245009599927
 10
50.803858949979
 20
-73.90151772704995
 10
50.81502291720837
 20
-73.9006455109361
 10
50.82621098613656
 20
-73.89983344765767
 10
50.83742315676357
 20
-73.89908153721467
 10
50.8486594290894
 20
-73.8983897796071
 10
50.85991980311404
 20
-73.89775817483502
 10
50.87120427883752
 20
-73.89718672289834
 10
50.88251285625982
 20
-73.89667542379709
 10
50.89384553538096
 20
-73.8962242775313
 10
50.90520231620089
 20
-73.89583328410094
 10
50.91658319871964
 20
-73.89550244350605
 10
50.92798818293722
 20
-73.89523175574656
 10
50.93941726885361
 20
-73.89502122082252
 10
50.95087045646884
 20
-73.89487083873392
 10
50.96234774578288
 20
-73.89478060948076
 10
50.97384913679575
 20
-73.89475053306305
 10
50.98535052780862
 20
-73.89478060948076
 10
50.99682781712266
 20
-73.89487083873392
 10
51.00828100473786
 20
-73.89502122082252
 10
51.01971009065428
 20
-73.89523175574656
 10
51.03111507487185
 20
-73.89550244350605
 10
51.04249595739061
 20
-73.89583328410094
 10
51.05385273821054
 20
-73.8962242775313
 10
51.06518541733167
 20
-73.89667542379709
 10
51.07649399475397
 20
-73.89718672289834
 10
51.08777847047746
 20
-73.89775817483502
 10
51.0990388445021
 20
-73.8983897796071
 10
51.11027511682793
 20
-73.89908153721467
 10
51.12148728745494
 20
-73.89983344765767
 10
51.13267535638313
 20
-73.9006455109361
 10
51.14383932361249
 20
-73.90151772704995
 10
51.15497918914305
 20
-73.90245009599927
 10
51.16609495297478
 20
-73.90344261778401
 10
51.17718661510768
 20
-73.90449529240417
 10
51.18825417554177
 20
-73.90560811985981
 10
51.19929763427703
 20
-73.90678110015091
 10
51.21031699131347
 20
-73.90801423327738
 10
51.2213122466511
 20
-73.90930751923933
 10
51.23228340028989
 20
-73.9106609580367
 10
51.24323045222986
 20
-73.91207454966954
 10
51.25415340247102
 20
-73.9135482941378
 10
51.26505225101336
 20
-73.91508219144149
 10
51.27592699785688
 20
-73.91667624158063
 10
51.28677764300157
 20
-73.91833044455521
 10
51.29760418644743
 20
-73.92004480036525
 10
51.3084066281945
 20
-73.9218193090107
 10
51.31918496824273
 20
-73.92365397049158
 10
51.32993920659213
 20
-73.92554878480794
 10
51.34066934324273
 20
-73.9275037519597
 10
51.3513753781945
 20
-73.92951887194691
 10
51.36205731144744
 20
-73.93159414476956
 10
51.37271514300156
 20
-73.93372957042766
 10
51.38334887285688
 20
-73.93592514892119
 10
51.39395850101337
 20
-73.93818088025018
 10
51.40454402747103
 20
-73.94049676441458
 10
51.41510545222986
 20
-73.94287280141442
 10
51.42564277528989
 20
-73.9453089912497
 10
51.4361559966511
 20
-73.94780533392045
 10
51.44664511631347
 20
-73.95036182942661
 10
51.45711013427703
 20
-73.9529784777682
 10
51.46755105054177
 20
-73.95565527894524
 10
51.47796786510768
 20
-73.95839223295773
 10
51.48836057797478
 20
-73.96118933980566
 10
51.49872918914304
 20
-73.96404659948901
 10
51.5090736986125
 20
-73.96696401200781
 10
51.51939410638313
 20
-73.96994157736206
 10
51.52969041245494
 20
-73.97297929555174
 10
51.53996261682793
 20
-73.97607716657685
 10
51.5502107195021
 20
-73.97923519043742
 10
51.56043472047746
 20
-73.98245336713341
 10
51.57063461975397
 20
-73.98573169666484
 10
51.58081041733168
 20
-73.98907017903173
 10
51.59096211321054
 20
-73.99246881423407
 10
51.60108970739061
 20
-73.99592760227182
 10
51.61119319987186
 20
-73.99944654314499
 10
51.62127259065428
 20
-74.00302563685362
 10
51.63132787973786
 20
-74.00666488339773
 10
51.64135906712266
 20
-74.01036428277723
 10
51.65136615280862
 20
-74.01412383499219
 10
51.66134913679575
 20
-74.01794354004258
 10
51.67128714640061
 20
-74.02181533897658
 10
51.68115930893974
 20
-74.02573117284234
 10
51.69096562441314
 20
-74.02969104163981
 10
51.70070609282081
 20
-74.03369494536914
 10
51.71038071416276
 20
-74.03774288403013
 10
51.71998948843899
 20
-74.04183485762295
 10
51.72953241564949
 20
-74.04597086614749
 10
51.73900949579426
 20
-74.05015090960382
 10
51.74842072887329
 20
-74.05437498799189
 10
51.75776611488661
 20
-74.05864310131173
 10
51.76704565383418
 20
-74.06295524956333
 10
51.77625934571604
 20
-74.06731143274669
 10
51.78540719053216
 20
-74.0717116508618
 10
51.79448918828256
 20
-74.07615590390867
 10
51.80350533896723
 20
-74.08064419188733
 10
51.81245564258617
 20
-74.08517651479773
 10
51.82134009913938
 20
-74.08975287263989
 10
51.83015870862687
 20
-74.09437326541381
 10
51.83891147104863
 20
-74.0990376931195
 10
51.84759838640466
 20
-74.10374615575694
 10
51.85621945469496
 20
-74.10849865332616
 10
51.86477467591954
 20
-74.11329518582713
 10
51.87326405007838
 20
-74.11813575325983
 10
51.8816875771715
 20
-74.12302035562435
 10
51.8900452571989
 20
-74.12794899292059
 10
51.89833709016056
 20
-74.13292166514861
 10
51.90656307605649
 20
-74.13793837230838
 10
51.91472321488671
 20
-74.14299911439991
 10
51.92281750665119
 20
-74.14810389142321
 10
51.93084595134994
 20
-74.15325270337827
 10
51.93880854898296
 20
-74.15844555026507
 10
51.94670529955025
 20
-74.16368243208366
 10
51.95453620305182
 20
-74.16896334883401
 10
51.96230125948765
 20
-74.17428830051611
 10
51.97000046885777
 20
-74.17965728712997
 10
51.97763383116214
 20
-74.18507030867558
 10
51.98520134640081
 20
-74.19052736515299
 10
51.99270301457374
 20
-74.19602845656211
 10
52.00013883568093
 20
-74.20157358290301
 10
52.0075088097224
 20
-74.20716274417564
 10
52.01481293669816
 20
-74.21279594038009
 10
52.02205121660818
 20
-74.21847317151628
 10
52.02922364945245
 20
-74.22419443758421
 10
52.03633023523103
 20
-74.22995973858395
 10
52.04337097394385
 20
-74.23576907451539
 10
52.05034586559096
 20
-74.24162244537862
 10
52.05725491017233
 20
-74.24751985117364
 10
52.06409810768797
 20
-74.25346129190034
 10
52.07087545813789
 20
-74.25944676755887
 10
52.0775869615221
 20
-74.26547627814915
 10
52.08423261784057
 20
-74.27154982367119
 10
52.0908124270933
 20
-74.27766740412498
 10
52.09732638928031
 20
-74.28382901951052
 10
52.1037745044016
 20
-74.29003466982782
 10
52.11015677245715
 20
-74.29628435507691
 10
52.11647319344695
 20
-74.30257807525773
 10
52.12272376737104
 20
-74.30891583037034
 10
52.12890849422942
 20
-74.31529762041468
 10
52.13502737402207
 20
-74.32172344539082
 10
52.14108040674897
 20
-74.3281933052987
 10
52.14706759241015
 20
-74.33470720013834
 10
52.15298893100563
 20
-74.34126512990973
 10
52.15884442253535
 20
-74.34786709461291
 10
52.16463406699936
 20
-74.35451309424781
 10
52.17034581354822
 20
-74.3611891703005
 10
52.17596761133254
 20
-74.3678813642568
 10
52.1814994603523
 20
-74.37458967611681
 10
52.18694136060751
 20
-74.38131410588045
 10
52.19229331209818
 20
-74.38805465354781
 10
52.19755531482428
 20
-74.39481131911886
 10
52.20272736878586
 20
-74.40158410259356
 10
52.20780947398289
 20
-74.40837300397197
 10
52.21280163041534
 20
-74.41517802325406
 10
52.21770383808327
 20
-74.42199916043979
 10
52.22251609698663
 20
-74.42883641552923
 10
52.22723840712546
 20
-74.43568978852231
 10
52.23187076849974
 20
-74.4425592794191
 10
52.23641318110946
 20
-74.44944488821956
 10
52.24086564495465
 20
-74.4563466149237
 10
52.24522816003529
 20
-74.46326445953153
 10
52.24950072635135
 20
-74.47019842204301
 10
52.25368334390289
 20
-74.4771485024582
 10
52.25777601268987
 20
-74.48411470077707
 10
52.26177873271229
 20
-74.4910970169996
 10
52.26569150397018
 20
-74.49809545112579
 10
52.26951432646353
 20
-74.50511000315569
 10
52.2732472001923
 20
-74.51214067308926
 10
52.27689012515653
 20
-74.5191874609265
 10
52.28044310135621
 20
-74.52625036666742
 10
52.28390612879135
 20
-74.53332939031203
 10
52.28727920746194
 20
-74.54042453186031
 10
52.29056233736799
 20
-74.54753579131227
 10
52.29375551850946
 20
-74.5546631686679
 10
52.29685875088642
 20
-74.56180666392723
 10
52.2998720344988
 20
-74.56896627709021
 10
52.30279536934665
 20
-74.5761420081569
 10
52.30562875542996
 20
-74.58333385712727
 10
52.3083721927487
 20
-74.59054182400127
 10
52.3110256813029
 20
-74.59776590877898
 10
52.31358922109254
 20
-74.60500611146037
 10
52.31606281211764
 20
-74.61226243204542
 10
52.31844645437818
 20
-74.6195348705342
 10
52.32074014787418
 20
-74.62682342692659
 10
52.32294389260563
 20
-74.6341281012227
 10
52.32505768857254
 20
-74.64144889342245
 10
52.3270815357749
 20
-74.64878580352595
 10
52.32901543421268
 20
-74.65613883153306
 10
52.33085938388596
 20
-74.66350797744387
 10
52.33261338479465
 20
-74.67089324125836
 10
52.33427743693881
 20
-74.67829462297655
 10
52.33585154031842
 20
-74.6857121225984
 10
52.33733569493347
 20
-74.69314574012392
 10
52.33872990078397
 20
-74.70059547555314
 10
52.34003415786995
 20
-74.70806132888603
 10
52.34124846619136
 20
-74.71554330012259
 10
52.34237282574821
 20
-74.72304138926283
 10
52.34340723654053
 20
-74.73055559630672
 10
52.3443516985683
 20
-74.73808592125434
 10
52.3452062118315
 20
-74.74563236410563
 10
52.34597077633018
 20
-74.75319492486057
 10
52.34664539206428
 20
-74.76077360351922
 10
52.34723005903386
 20
-74.7683684000815
 10
52.34772477723888
 20
-74.7759793145475
 10
52.34812954667937
 20
-74.78360634691719
 10
52.34844436735528
 20
-74.79124949719054
 10
52.34866923926666
 20
-74.79890876536754
 10
52.34880416241347
 20
-74.80658415144826
 10
52.34884913679575
 20
-74.81427565543263
 10
52.34880416241347
 20
-74.82196715941701
 10
52.34866923926666
 20
-74.82964254549772
 10
52.34844436735528
 20
-74.83730181367474
 10
52.34812954667937
 20
-74.84494496394809
 10
52.34772477723888
 20
-74.85257199631779
 10
52.34723005903386
 20
-74.86018291078377
 10
52.34664539206428
 20
-74.86777770734606
 10
52.34597077633018
 20
-74.87535638600468
 10
52.3452062118315
 20
-74.88291894675966
 10
52.3443516985683
 20
-74.8904653896109
 10
52.34340723654053
 20
-74.89799571455853
 10
52.34237282574821
 20
-74.90550992160244
 10
52.34124846619136
 20
-74.91300801074268
 10
52.34003415786995
 20
-74.92048998197923
 10
52.33872990078397
 20
-74.92795583531213
 10
52.33733569493347
 20
-74.93540557074135
 10
52.33585154031842
 20
-74.94283918826686
 10
52.33427743693881
 20
-74.95025668788871
 10
52.33261338479465
 20
-74.9576580696069
 10
52.33085938388596
 20
-74.96504333342139
 10
52.32901543421268
 20
-74.97241247933219
 10
52.3270815357749
 20
-74.97976550733932
 10
52.32505768857254
 20
-74.9871024174428
 10
52.32294389260563
 20
-74.99442320964258
 10
52.32074014787418
 20
-75.00172788393868
 10
52.31844645437818
 20
-75.0090164403311
 10
52.31606281211764
 20
-75.01628887881985
 10
52.31358922109254
 20
-75.02354519940491
 10
52.3110256813029
 20
-75.03078540208626
 10
52.3083721927487
 20
-75.038009486864
 10
52.30562875542996
 20
-75.04521745373804
 10
52.30279536934665
 20
-75.05240930270838
 10
52.2998720344988
 20
-75.05958503377506
 10
52.29685875088642
 20
-75.06674464693805
 10
52.29375551850946
 20
-75.07388814219737
 10
52.29056233736799
 20
-75.08101551955298
 10
52.28727920746194
 20
-75.08812677900495
 10
52.28390612879135
 20
-75.09522192055325
 10
52.28044310135621
 20
-75.10230094419785
 10
52.27689012515653
 20
-75.10936384993875
 10
52.2732472001923
 20
-75.11641063777602
 10
52.26951432646353
 20
-75.12344130770959
 10
52.26569150397018
 20
-75.13045585973947
 10
52.26177873271229
 20
-75.13745429386569
 10
52.25777601268987
 20
-75.14443661008822
 10
52.25368334390289
 20
-75.15140280840705
 10
52.24950072635135
 20
-75.15835288882225
 10
52.24522816003529
 20
-75.16528685133373
 10
52.24086564495465
 20
-75.17220469594156
 10
52.23641318110946
 20
-75.1791064226457
 10
52.23187076849974
 20
-75.18599203144619
 10
52.22723840712546
 20
-75.19286152234293
 10
52.22251609698663
 20
-75.19971489533607
 10
52.21770383808327
 20
-75.20655215042548
 10
52.21280163041534
 20
-75.21337328761124
 10
52.20780947398289
 20
-75.2201783068933
 10
52.20272736878586
 20
-75.2269672082717
 10
52.19755531482428
 20
-75.23373999174641
 10
52.19229331209818
 20
-75.24049665731745
 10
52.18694136060751
 20
-75.2472372049848
 10
52.1814994603523
 20
-75.25396163474844
 10
52.17596761133254
 20
-75.26066994660846
 10
52.17034581354822
 20
-75.26736214056478
 10
52.16463406699936
 20
-75.27403821661744
 10
52.15884442253535
 20
-75.28068421625234
 10
52.15298893100563
 20
-75.28728618095555
 10
52.14706759241015
 20
-75.29384411072694
 10
52.14108040674897
 20
-75.30035800556659
 10
52.13502737402207
 20
-75.30682786547444
 10
52.12890849422942
 20
-75.31325369045058
 10
52.12272376737104
 20
-75.31963548049493
 10
52.11647319344695
 20
-75.32597323560755
 10
52.11015677245715
 20
-75.33226695578837
 10
52.1037745044016
 20
-75.33851664103742
 10
52.09732638928031
 20
-75.34472229135475
 10
52.0908124270933
 20
-75.3508839067403
 10
52.08423261784057
 20
-75.3570014871941
 10
52.0775869615221
 20
-75.36307503271612
 10
52.07087545813789
 20
-75.36910454330641
 10
52.06409810768797
 20
-75.37509001896491
 10
52.05725491017233
 20
-75.38103145969166
 10
52.05034586559096
 20
-75.38692886548666
 10
52.04337097394385
 20
-75.39278223634989
 10
52.03633023523103
 20
-75.39859157228135
 10
52.02922364945245
 20
-75.40435687328105
 10
52.02205121660818
 20
-75.41007813934898
 10
52.01481293669816
 20
-75.41575537048519
 10
52.0075088097224
 20
-75.4213885666896
 10
52.00013883568093
 20
-75.42697772796227
 10
51.99270301457374
 20
-75.43252285430317
 10
51.98520134640081
 20
-75.4380239457123
 10
51.97763383116214
 20
-75.44348100218968
 10
51.97000046885777
 20
-75.44889402373529
 10
51.96230125948765
 20
-75.45426301034916
 10
51.95453620305182
 20
-75.45958796203127
 10
51.94670529955025
 20
-75.46486887878163
 10
51.93880854898296
 20
-75.47010576060019
 10
51.93084595134994
 20
-75.475298607487
 10
51.92281750665119
 20
-75.48044741944206
 10
51.91472321488671
 20
-75.48555219646536
 10
51.90656307605649
 20
-75.4906129385569
 10
51.89833709016056
 20
-75.49562964571666
 10
51.8900452571989
 20
-75.50060231794468
 10
51.8816875771715
 20
-75.50553095524094
 10
51.87326405007838
 20
-75.51041555760541
 10
51.86477467591954
 20
-75.51525612503815
 10
51.85621945469496
 20
-75.52005265753909
 10
51.84759838640466
 20
-75.52480515510831
 10
51.83891147104863
 20
-75.52951361774581
 10
51.83015870862687
 20
-75.53417804545145
 10
51.82134009913938
 20
-75.53879843822537
 10
51.81245564258617
 20
-75.54337479606754
 10
51.80350533896723
 20
-75.54790711897793
 10
51.79448918828256
 20
-75.55239540695659
 10
51.78540719053216
 20
-75.55683966000348
 10
51.77625934571604
 20
-75.56123987811858
 10
51.76704565383418
 20
-75.56559606130193
 10
51.75776611488661
 20
-75.56990820955355
 10
51.74842072887329
 20
-75.57417632287337
 10
51.73900949579426
 20
-75.57840040126144
 10
51.72953241564949
 20
-75.58258044471777
 10
51.71998948843899
 20
-75.58671645324235
 10
51.71038071416276
 20
-75.59080842683512
 10
51.70070609282081
 20
-75.59485636549614
 10
51.69096562441314
 20
-75.59886026922544
 10
51.68115930893974
 20
-75.60282013802297
 10
51.67128714640061
 20
-75.60673597188868
 10
51.66134913679575
 20
-75.61060777082268
 10
51.65136615280862
 20
-75.6144274758731
 10
51.64135906712266
 20
-75.61818702808803
 10
51.63132787973786
 20
-75.62188642746754
 10
51.62127259065428
 20
-75.62552567401166
 10
51.61119319987186
 20
-75.62910476772029
 10
51.60108970739061
 20
-75.63262370859345
 10
51.59096211321054
 20
-75.63608249663123
 10
51.58081041733168
 20
-75.63948113183355
 10
51.57063461975397
 20
-75.64281961420042
 10
51.56043472047746
 20
-75.64609794373184
 10
51.5502107195021
 20
-75.64931612042784
 10
51.53996261682793
 20
-75.6524741442884
 10
51.52969041245494
 20
-75.65557201531351
 10
51.51939410638313
 20
-75.65860973350321
 10
51.5090736986125
 20
-75.66158729885746
 10
51.49872918914304
 20
-75.66450471137627
 10
51.48836057797478
 20
-75.66736197105964
 10
51.47796786510768
 20
-75.67015907790754
 10
51.46755105054177
 20
-75.67289603192003
 10
51.45711013427703
 20
-75.67557283309707
 10
51.44664511631347
 20
-75.67818948143865
 10
51.4361559966511
 20
-75.68074597694483
 10
51.42564277528989
 20
-75.68324231961556
 10
51.41510545222986
 20
-75.68567850945085
 10
51.40454402747103
 20
-75.6880545464507
 10
51.39395850101337
 20
-75.69037043061509
 10
51.38334887285688
 20
-75.69262616194409
 10
51.37271514300156
 20
-75.69482174043762
 10
51.36205731144744
 20
-75.6969571660957
 10
51.3513753781945
 20
-75.69903243891833
 10
51.34066934324273
 20
-75.70104755890556
 10
51.32993920659213
 20
-75.70300252605735
 10
51.31918496824273
 20
-75.70489734037366
 10
51.3084066281945
 20
-75.70673200185457
 10
51.29760418644743
 20
-75.70850651050003
 10
51.28677764300157
 20
-75.71022086631003
 10
51.27592699785688
 20
-75.71187506928464
 10
51.26505225101336
 20
-75.71346911942377
 10
51.25415340247102
 20
-75.71500301672748
 10
51.24323045222986
 20
-75.71647676119574
 10
51.23228340028989
 20
-75.71789035282856
 10
51.2213122466511
 20
-75.71924379162594
 10
51.21031699131347
 20
-75.72053707758789
 10
51.19929763427703
 20
-75.72177021071438
 10
51.18825417554177
 20
-75.72294319100544
 10
51.17718661510768
 20
-75.72405601846107
 10
51.16609495297478
 20
-75.72510869308124
 10
51.15497918914305
 20
-75.72610121486601
 10
51.14383932361249
 20
-75.72703358381531
 10
51.13267535638313
 20
-75.72790579992918
 10
51.12148728745494
 20
-75.72871786320759
 10
51.11027511682793
 20
-75.72946977365059
 10
51.0990388445021
 20
-75.73016153125815
 10
51.08777847047746
 20
-75.73079313603026
 10
51.07649399475397
 20
-75.73136458796693
 10
51.06518541733167
 20
-75.73187588706819
 10
51.05385273821054
 20
-75.73232703333397
 10
51.04249595739061
 20
-75.7327180267643
 10
51.03111507487185
 20
-75.73304886735924
 10
51.01971009065428
 20
-75.7333195551187
 10
51.00828100473786
 20
-75.73353009004275
 10
50.99682781712266
 20
-75.73368047213135
 10
50.98535052780862
 20
-75.73377070138452
 10
50.97384913679575
 20
-75.73380077780225
 10
50.96234774578288
 20
-75.73377070138452
 10
50.95087045646884
 20
-75.73368047213135
 10
50.93941726885361
 20
-75.73353009004275
 10
50.92798818293722
 20
-75.7333195551187
 10
50.91658319871964
 20
-75.73304886735924
 10
50.90520231620089
 20
-75.7327180267643
 10
50.89384553538096
 20
-75.73232703333397
 10
50.88251285625982
 20
-75.73187588706819
 10
50.87120427883752
 20
-75.73136458796693
 10
50.85991980311404
 20
-75.73079313603026
 10
50.8486594290894
 20
-75.73016153125815
 10
50.83742315676357
 20
-75.72946977365059
 10
50.82621098613656
 20
-75.72871786320759
 10
50.81502291720837
 20
-75.72790579992918
 10
50.803858949979
 20
-75.72703358381531
 10
50.79271908444844
 20
-75.72610121486601
 10
50.78160332061672
 20
-75.72510869308124
 10
50.77051165848381
 20
-75.72405601846107
 10
50.75944409804972
 20
-75.72294319100544
 10
50.74840063931446
 20
-75.72177021071438
 10
50.73738128227802
 20
-75.72053707758789
 10
50.7263860269404
 20
-75.71924379162594
 10
50.7154148733016
 20
-75.71789035282856
 10
50.70446782136164
 20
-75.71647676119574
 10
50.69354487112047
 20
-75.71500301672748
 10
50.68264602257813
 20
-75.71346911942377
 10
50.67177127573462
 20
-75.71187506928464
 10
50.66092063058993
 20
-75.71022086631003
 10
50.65009408714406
 20
-75.70850651050003
 10
50.63929164539699
 20
-75.70673200185457
 10
50.62851330534876
 20
-75.70489734037366
 10
50.61775906699936
 20
-75.70300252605735
 10
50.60702893034876
 20
-75.70104755890556
 10
50.59632289539699
 20
-75.69903243891833
 10
50.58564096214406
 20
-75.6969571660957
 10
50.57498313058993
 20
-75.69482174043762
 10
50.56434940073462
 20
-75.69262616194409
 10
50.55373977257813
 20
-75.69037043061509
 10
50.54315424612047
 20
-75.6880545464507
 10
50.53259282136163
 20
-75.68567850945085
 10
50.5220554983016
 20
-75.68324231961556
 10
50.5115422769404
 20
-75.68074597694483
 10
50.50105315727802
 20
-75.67818948143865
 10
50.49058813931447
 20
-75.67557283309707
 10
50.48014722304973
 20
-75.67289603192003
 10
50.46973040848381
 20
-75.67015907790754
 10
50.45933769561672
 20
-75.66736197105964
 10
50.44896908444845
 20
-75.66450471137627
 10
50.438624574979
 20
-75.66158729885746
 10
50.42830416720836
 20
-75.65860973350321
 10
50.41800786113656
 20
-75.65557201531351
 10
50.40773565676357
 20
-75.6524741442884
 10
50.3974875540894
 20
-75.64931612042784
 10
50.38726355311403
 20
-75.64609794373184
 10
50.37706365383751
 20
-75.64281961420042
 10
50.36688785625983
 20
-75.63948113183355
 10
50.35673616038096
 20
-75.63608249663123
 10
50.34660856620089
 20
-75.63262370859345
 10
50.33650507371964
 20
-75.62910476772029
 10
50.32642568293722
 20
-75.62552567401166
 10
50.31637039385362
 20
-75.62188642746754
 10
50.30633920646884
 20
-75.61818702808803
 10
50.29633212078287
 20
-75.6144274758731
 10
50.28634913679574
 20
-75.61060777082268
 10
50.2764111271909
 20
-75.60673597188868
 10
50.26653896465176
 20
-75.60282013802297
 10
50.25673264917835
 20
-75.59886026922544
 10
50.24699218077068
 20
-75.59485636549614
 10
50.23731755942873
 20
-75.59080842683512
 10
50.2277087851525
 20
-75.58671645324235
 10
50.21816585794201
 20
-75.58258044471777
 10
50.20868877779724
 20
-75.57840040126144
 10
50.1992775447182
 20
-75.57417632287337
 10
50.18993215870489
 20
-75.56990820955355
 10
50.18065261975731
 20
-75.56559606130193
 10
50.17143892787546
 20
-75.56123987811858
 10
50.16229108305934
 20
-75.55683966000348
 10
50.15320908530893
 20
-75.55239540695659
 10
50.14419293462426
 20
-75.54790711897793
 10
50.13524263100532
 20
-75.54337479606754
 10
50.12635817445211
 20
-75.53879843822537
 10
50.11753956496463
 20
-75.53417804545145
 10
50.10878680254286
 20
-75.52951361774581
 10
50.10009988718684
 20
-75.52480515510831
 10
50.09147881889653
 20
-75.52005265753909
 10
50.08292359767196
 20
-75.51525612503815
 10
50.07443422351311
 20
-75.51041555760541
 10
50.06601069642
 20
-75.50553095524094
 10
50.0576530163926
 20
-75.50060231794468
 10
50.04936118343094
 20
-75.49562964571666
 10
50.04113519753501
 20
-75.4906129385569
 10
50.03297505870478
 20
-75.48555219646536
 10
50.02488076694032
 20
-75.48044741944206
 10
50.01685232224156
 20
-75.475298607487
 10
50.00888972460853
 20
-75.47010576060019
 10
50.00099297404125
 20
-75.46486887878163
 10
49.99316207053968
 20
-75.45958796203127
 10
49.98539701410384
 20
-75.45426301034916
 10
49.97769780473372
 20
-75.44889402373529
 10
49.97006444242935
 20
-75.44348100218968
 10
49.96249692719068
 20
-75.4380239457123
 10
49.95499525901776
 20
-75.43252285430317
 10
49.94755943791056
 20
-75.42697772796227
 10
49.94018946386909
 20
-75.4213885666896
 10
49.93288533689334
 20
-75.41575537048519
 10
49.92564705698331
 20
-75.41007813934898
 10
49.91847462413904
 20
-75.40435687328105
 10
49.91136803836048
 20
-75.39859157228135
 10
49.90432729964765
 20
-75.39278223634989
 10
49.89735240800054
 20
-75.38692886548666
 10
49.89044336341917
 20
-75.38103145969166
 10
49.88360016590352
 20
-75.37509001896491
 10
49.8768228154536
 20
-75.36910454330641
 10
49.87011131206941
 20
-75.36307503271612
 10
49.86346565575094
 20
-75.3570014871941
 10
49.8568858464982
 20
-75.3508839067403
 10
49.8503718843112
 20
-75.34472229135475
 10
49.84392376918992
 20
-75.33851664103742
 10
49.83754150113436
 20
-75.33226695578837
 10
49.83122508014454
 20
-75.32597323560755
 10
49.82497450622045
 20
-75.31963548049493
 10
49.81878977936208
 20
-75.31325369045058
 10
49.81267089956943
 20
-75.30682786547444
 10
49.80661786684253
 20
-75.30035800556659
 10
49.80063068118134
 20
-75.29384411072694
 10
49.79470934258587
 20
-75.28728618095555
 10
49.78885385105614
 20
-75.28068421625234
 10
49.78306420659214
 20
-75.27403821661744
 10
49.77735246004328
 20
-75.26736214056478
 10
49.77173066225896
 20
-75.26066994660846
 10
49.76619881323919
 20
-75.25396163474844
 10
49.76075691298399
 20
-75.2472372049848
 10
49.75540496149331
 20
-75.24049665731745
 10
49.75014295876722
 20
-75.23373999174641
 10
49.74497090480564
 20
-75.2269672082717
 10
49.73988879960862
 20
-75.2201783068933
 10
49.73489664317615
 20
-75.21337328761124
 10
49.72999443550822
 20
-75.20655215042548
 10
49.72518217660486
 20
-75.19971489533607
 10
49.72045986646604
 20
-75.19286152234293
 10
49.71582750509175
 20
-75.18599203144619
 10
49.71128509248202
 20
-75.1791064226457
 10
49.70683262863685
 20
-75.17220469594156
 10
49.70247011355622
 20
-75.16528685133373
 10
49.69819754724014
 20
-75.15835288882225
 10
49.6940149296886
 20
-75.15140280840705
 10
49.68992226090161
 20
-75.14443661008822
 10
49.6859195408792
 20
-75.13745429386569
 10
49.68200676962132
 20
-75.13045585973947
 10
49.67818394712798
 20
-75.12344130770959
 10
49.67445107339919
 20
-75.11641063777602
 10
49.67080814843497
 20
-75.10936384993875
 10
49.66725517223529
 20
-75.10230094419785
 10
49.66379214480014
 20
-75.09522192055325
 10
49.66041906612956
 20
-75.08812677900495
 10
49.6571359362235
 20
-75.08101551955298
 10
49.65394275508202
 20
-75.07388814219737
 10
49.6508395227051
 20
-75.06674464693805
 10
49.64782623909268
 20
-75.05958503377506
 10
49.64490290424485
 20
-75.05240930270838
 10
49.64206951816153
 20
-75.04521745373804
 10
49.6393260808428
 20
-75.038009486864
 10
49.63667259228861
 20
-75.03078540208626
 10
49.63410905249896
 20
-75.02354519940491
 10
49.63163546147385
 20
-75.01628887881985
 10
49.62925181921329
 20
-75.0090164403311
 10
49.62695812571731
 20
-75.00172788393868
 10
49.62475438098586
 20
-74.99442320964258
 10
49.62264058501896
 20
-74.9871024174428
 10
49.62061673781661
 20
-74.97976550733932
 10
49.61868283937882
 20
-74.97241247933219
 10
49.61683888970554
 20
-74.96504333342139
 10
49.61508488879685
 20
-74.9576580696069
 10
49.61342083665268
 20
-74.95025668788871
 10
49.61184673327307
 20
-74.94283918826686
 10
49.61036257865803
 20
-74.93540557074135
 10
49.60896837280753
 20
-74.92795583531213
 10
49.60766411572154
 20
-74.92048998197923
 10
49.60644980740013
 20
-74.91300801074268
 10
49.60532544784328
 20
-74.90550992160244
 10
49.60429103705097
 20
-74.89799571455853
 10
49.6033465750232
 20
-74.8904653896109
 10
49.60249206175999
 20
-74.88291894675966
 10
49.60172749726132
 20
-74.87535638600468
 10
49.60105288152721
 20
-74.86777770734606
 10
49.60046821455764
 20
-74.86018291078377
 10
49.59997349635262
 20
-74.85257199631779
 10
49.59956872691214
 20
-74.84494496394809
 10
49.59925390623622
 20
-74.83730181367474
 10
49.59902903432484
 20
-74.82964254549772
 10
49.59889411117803
 20
-74.82196715941701
 10
49.59884913679575
 20
-74.81427565543263
 10
49.59889411117803
 20
-74.80658415144826
 10
49.59902903432484
 20
-74.79890876536754
 10
49.59925390623622
 20
-74.79124949719054
 10
49.59956872691214
 20
-74.78360634691719
 10
49.59997349635262
 20
-74.7759793145475
 10
49.60046821455764
 20
-74.7683684000815
 10
49.60105288152721
 20
-74.76077360351922
 10
49.60172749726132
 20
-74.75319492486057
 10
49.60249206175999
 20
-74.74563236410563
 10
49.6033465750232
 20
-74.73808592125434
 10
49.60429103705097
 20
-74.73055559630672
 10
49.60532544784328
 20
-74.72304138926283
 10
49.60644980740013
 20
-74.71554330012259
 10
49.60766411572154
 20
-74.70806132888603
 10
49.60896837280753
 20
-74.70059547555314
 10
49.61036257865803
 20
-74.69314574012392
 10
49.61184673327307
 20
-74.6857121225984
 10
49.61342083665268
 20
-74.67829462297655
 10
49.61508488879685
 20
-74.67089324125836
 10
49.61683888970554
 20
-74.66350797744387
 10
49.61868283937882
 20
-74.65613883153306
 10
49.62061673781661
 20
-74.64878580352595
 10
49.62264058501896
 20
-74.64144889342245
 10
49.62475438098586
 20
-74.6341281012227
 10
49.62695812571731
 20
-74.62682342692659
 10
49.62925181921329
 20
-74.6195348705342
 10
49.63163546147385
 20
-74.61226243204542
 10
49.63410905249896
 20
-74.60500611146037
 10
49.63667259228861
 20
-74.59776590877898
 10
49.6393260808428
 20
-74.59054182400127
 10
49.64206951816153
 20
-74.58333385712727
 10
49.64490290424485
 20
-74.5761420081569
 10
49.64782623909268
 20
-74.56896627709021
 10
49.6508395227051
 20
-74.56180666392723
 10
49.65394275508202
 20
-74.5546631686679
 10
49.6571359362235
 20
-74.54753579131227
 10
49.66041906612956
 20
-74.54042453186031
 10
49.66379214480014
 20
-74.53332939031203
 10
49.66725517223529
 20
-74.52625036666742
 10
49.67080814843497
 20
-74.5191874609265
 10
49.67445107339919
 20
-74.51214067308926
 10
49.67818394712798
 20
-74.50511000315569
 10
49.68200676962132
 20
-74.49809545112579
 10
49.6859195408792
 20
-74.4910970169996
 10
49.68992226090161
 20
-74.48411470077707
 10
49.6940149296886
 20
-74.4771485024582
 10
49.69819754724014
 20
-74.47019842204301
 10
49.70247011355622
 20
-74.46326445953153
 10
49.70683262863685
 20
-74.4563466149237
 10
49.71128509248202
 20
-74.44944488821956
 10
49.71582750509175
 20
-74.4425592794191
 10
49.72045986646604
 20
-74.43568978852231
 10
49.72518217660486
 20
-74.42883641552923
 10
49.72999443550822
 20
-74.42199916043979
 10
49.73489664317615
 20
-74.41517802325406
 10
49.73988879960862
 20
-74.40837300397197
 10
49.74497090480564
 20
-74.40158410259356
 10
49.75014295876722
 20
-74.39481131911886
 10
49.75540496149331
 20
-74.38805465354781
 10
49.76075691298399
 20
-74.38131410588045
 10
49.76619881323919
 20
-74.37458967611681
 10
49.77173066225896
 20
-74.3678813642568
 10
49.77735246004328
 20
-74.3611891703005
 10
49.78306420659214
 20
-74.35451309424781
 10
49.78885385105614
 20
-74.34786709461291
 10
49.79470934258587
 20
-74.34126512990973
 10
49.80063068118134
 20
-74.33470720013834
 10
49.80661786684253
 20
-74.3281933052987
 10
49.81267089956943
 20
-74.32172344539082
 10
49.81878977936208
 20
-74.31529762041468
 10
49.82497450622045
 20
-74.30891583037034
 10
49.83122508014454
 20
-74.30257807525773
 10
49.83754150113436
 20
-74.29628435507691
 10
49.84392376918992
 20
-74.29003466982782
 10
49.8503718843112
 20
-74.28382901951052
 10
49.8568858464982
 20
-74.27766740412498
 10
49.86346565575094
 20
-74.27154982367119
 10
49.87011131206941
 20
-74.26547627814915
 10
49.8768228154536
 20
-74.25944676755887
 10
49.88360016590352
 20
-74.25346129190034
 10
49.89044336341917
 20
-74.24751985117364
 10
49.89735240800054
 20
-74.24162244537862
 10
49.90432729964765
 20
-74.23576907451539
 10
49.91136803836048
 20
-74.22995973858395
 10
49.91847462413904
 20
-74.22419443758421
 10
49.92564705698331
 20
-74.21847317151628
 10
49.93288533689334
 20
-74.21279594038009
 10
49.94018946386909
 20
-74.20716274417564
 10
49.94755943791056
 20
-74.20157358290301
 10
49.95499525901776
 20
-74.19602845656211
 10
49.96249692719068
 20
-74.19052736515299
 10
49.97006444242935
 20
-74.18507030867558
 10
49.97769780473372
 20
-74.17965728712997
 10
49.98539701410384
 20
-74.17428830051611
 10
49.99316207053968
 20
-74.16896334883401
 10
50.00099297404125
 20
-74.16368243208366
 10
50.00888972460853
 20
-74.15844555026507
 10
50.01685232224156
 20
-74.15325270337827
 10
50.02488076694032
 20
-74.14810389142321
 10
50.03297505870478
 20
-74.14299911439991
 10
50.04113519753501
 20
-74.13793837230838
 10
50.04936118343094
 20
-74.13292166514861
 10
50.0576530163926
 20
-74.12794899292059
 10
50.06601069642
 20
-74.12302035562435
 10
50.07443422351311
 20
-74.11813575325983
 10
50.08292359767196
 20
-74.11329518582713
 10
50.09147881889653
 20
-74.10849865332616
 10
50.10009988718684
 20
-74.10374615575694
 10
50.10878680254286
 20
-74.0990376931195
 10
50.11753956496463
 20
-74.09437326541381
 10
50.12635817445211
 20
-74.08975287263989
 10
50.13524263100532
 20
-74.08517651479773
 10
50.14419293462426
 20
-74.08064419188733
 10
50.15320908530893
 20
-74.07615590390867
 10
50.16229108305934
 20
-74.0717116508618
 10
50.17143892787546
 20
-74.06731143274669
 10
50.18065261975731
 20
-74.06295524956333
 10
50.18993215870489
 20
-74.05864310131173
 10
50.1992775447182
 20
-74.05437498799189
 10
50.20868877779724
 20
-74.05015090960382
 10
50.21816585794201
 20
-74.04597086614749
 10
50.2277087851525
 20
-74.04183485762295
 10
50.23731755942873
 20
-74.03774288403013
 10
50.24699218077068
 20
-74.03369494536914
 10
50.25673264917835
 20
-74.02969104163981
 10
50.26653896465176
 20
-74.02573117284234
 10
50.2764111271909
 20
-74.02181533897658
 10
50.28634913679574
 20
-74.01794354004258
 10
50.28634913679574
 20
-74.01794354004258
  0
LINE
  5
771
330
84C
100
AcDbEntity
  8
DATA
  6
Continuous
 62
     7
100
AcDbLine
 10
50.06501201170194
 20
-74.12360494724544
 30
0.0
 11
51.58128942353052
 21
-75.63932230714748
 31
0.0
  0
LINE
  5
772
330
84C
100
AcDbEntity
  8
DATA
  6
Continuous
 62
     7
100
AcDbLine
 10
50.37143706604839
 20
-73.98756925808889
 30
0.0
 11
51.8854885949085
 21
-75.50329972039158
 31
0.0
  0
LINE
  5
773
330
84C
100
AcDbEntity
  8
DATA
  6
Continuous
 62
     7
100
AcDbLine
 10
33.6
 20
-53.7244023572439
 30
0.0
 11
33.6
 21
-50.6744023751253
 31
0.0
  0
LINE
  5
774
330
84C
100
AcDbEntity
  8
DATA
  6
Continuous
 62
     7
100
AcDbLine
 10
33.0
 20
-45.8244023661846
 30
0.0
 11
31.37454530699406
 21
-45.8244023661846
 31
0.0
  0
LINE
  5
775
330
84C
100
AcDbEntity
  8
DATA
  6
Continuous
 62
     7
100
AcDbLine
 10
32.99999999105931
 20
-54.3244023661846
 30
0.0
 11
31.37454530699406
 21
-54.3244023661846
 31
0.0
  0
LINE
  5
776
330
84C
100
AcDbEntity
  8
DATA
  6
Continuous
 62
     7
100
AcDbLine
 10
32.99999999105931
 20
-50.0744023661846
 30
0.0
 11
31.37454530699406
 21
-50.0744023661846
 31
0.0
  0
LINE
  5
777
330
84C
100
AcDbEntity
  8
DATA
  6
Continuous
 62
     7
100
AcDbLine
 10
-57.75000000000002
 20
60.12616940825505
 30
0.0
 11
-56.15000000000001
 21
60.12616940825505
 31
0.0
  0
LINE
  5
778
330
84C
100
AcDbEntity
  8
DATA
  6
Continuous
 62
     7
100
AcDbLine
 10
-57.75000000000002
 20
37.5
 30
0.0
 11
-57.75000000000002
 21
60.12616940825505
 31
0.0
  0
LINE
  5
779
330
84C
100
AcDbEntity
  8
DATA
  6
Continuous
 62
     7
100
AcDbLine
 10
-56.15000000000001
 20
37.5
 30
0.0
 11
-56.15000000000001
 21
60.12616940825505
 31
0.0
  0
LINE
  5
77A
330
84C
100
AcDbEntity
  8
DATA
  6
Continuous
 62
     7
100
AcDbLine
 10
-56.15000000000001
 20
59.35090938246493
 30
0.0
 11
-44.25000000000002
 21
59.35090938246493
 31
0.0
  0
LINE
  5
77B
330
84C
100
AcDbEntity
  8
DATA
  6
Continuous
 62
     7
100
AcDbLine
 10
-56.15000000000001
 20
49.35090938246493
 30
0.0
 11
-44.25000000000002
 21
49.35090938246493
 31
0.0
  0
LINE
  5
77C
330
84C
100
AcDbEntity
  8
DATA
  6
Continuous
 62
     7
100
AcDbLine
 10
-44.25000000000002
 20
49.35090938246493
 30
0.0
 11
-44.25000000000002
 21
59.35090938246493
 31
0.0
  0
LINE
  5
77D
330
84C
100
AcDbEntity
  8
DATA
  6
Continuous
 62
     7
100
AcDbLine
 10
-51.25000000000002
 20
49.35090938246493
 30
0.0
 11
-51.25000000000002
 21
59.35090938246493
 31
0.0
  0
LINE
  5
77E
330
84C
100
AcDbEntity
  8
DATA
  6
Continuous
 62
     7
100
AcDbLine
 10
-44.95045234901315
 20
54.8509093829374
 30
0.0
 11
-51.25000000000002
 21
54.8509093829374
 31
0.0
  0
LINE
  5
77F
330
84C
100
AcDbEntity
  8
DATA
  6
Continuous
 62
     7
100
AcDbLine
 10
-44.95045234901315
 20
53.8509093829374
 30
0.0
 11
-51.25000000000002
 21
53.8509093829374
 31
0.0
  0
LINE
  5
780
330
84C
100
AcDbEntity
  8
DATA
  6
Continuous
 62
     7
100
AcDbLine
 10
-44.95045234901315
 20
59.35090938246493
 30
0.0
 11
-44.95045234901315
 21
49.35090938246493
 31
0.0
  0
LINE
  5
781
330
84C
100
AcDbEntity
  8
DATA
  6
Continuous
 62
     7
100
AcDbLine
 10
-45.15000000000002
 20
37.5
 30
0.0
 11
-45.15000000000002
 21
49.35090938246493
 31
0.0
  0
ARC
  5
782
330
84C
100
AcDbEntity
  8
DATA
  6
Continuous
 62
     7
100
AcDbCircle
 10
32.99999999999999
 20
-46.42440236618459
 30
0.0
 40
0.6000000000000086
100
AcDbArc
 50
0.0
 51
89.99999999999934
  0
ARC
  5
783
330
84C
100
AcDbEntity
  8
DATA
  6
Continuous
 62
     7
100
AcDbCircle
 10
32.99999999105931
 20
-53.7244023572439
 30
0.0
 40
0.6000000089406968
100
AcDbArc
 50
270.0
 51
0.0
  0
ARC
  5
784
330
84C
100
AcDbEntity
  8
DATA
  6
Continuous
 62
     7
100
AcDbCircle
 10
32.99999999105931
 20
-50.6744023751253
 30
0.0
 40
0.6000000089406968
100
AcDbArc
 50
0.0
 51
90.0
  0
LINE
  5
785
330
84C
100
AcDbEntity
  8
DATA
  6
Continuous
 62
     7
100
AcDbLine
 10
33.6
 20
-46.42440236618459
 30
0.0
 11
33.6
 21
-49.4744023572439
 31
0.0
  0
ARC
  5
786
330
84C
100
AcDbEntity
  8
DATA
  6
Continuous
 62
     7
100
AcDbCircle
 10
32.99999999105931
 20
-49.4744023572439
 30
0.0
 40
0.6000000089406968
100
AcDbArc
 50
270.0
 51
0.0
  0
LWPOLYLINE
  5
787
330
84C
100
AcDbEntity
  8
DATA
  6
Continuous
 62
     7
100
AcDbPolyline
 90
        4
 70
     0
 43
0.0
 10
33.6
 20
-48.17440236618458
 10
34.45781128804207
 20
-48.17440236618458
 10
34.45781128804207
 20
-51.9744023661846
 10
33.6
 20
-51.9744023661846
  0
LINE
  5
78E
330
84C
100
AcDbEntity
  8
DATA
  6
Continuous
 62
     7
100
AcDbLine
 10
-59.35000000894071
 20
39.75090938246494
 30
0.0
 11
-62.39999999105933
 21
39.75090938246494
 31
0.0
  0
LINE
  5
78F
330
84C
100
AcDbEntity
  8
DATA
  6
Continuous
 62
     7
100
AcDbLine
 10
-67.25000000000001
 20
39.15090938246495
 30
0.0
 11
-67.25000000000001
 21
37.5
 31
0.0
  0
LINE
  5
790
330
84C
100
AcDbEntity
  8
DATA
  6
Continuous
 62
     7
100
AcDbLine
 10
-58.75000000000002
 20
39.15090937352424
 30
0.0
 11
-58.75000000000002
 21
37.5
 31
0.0
  0
LINE
  5
791
330
84C
100
AcDbEntity
  8
DATA
  6
Continuous
 62
     7
100
AcDbLine
 10
-63.00000000000002
 20
39.15090937352424
 30
0.0
 11
-63.00000000000002
 21
37.5
 31
0.0
  0
ARC
  5
792
330
84C
100
AcDbEntity
  8
DATA
  6
Continuous
 62
     7
100
AcDbCircle
 10
-66.65000000000003
 20
39.15090938246495
 30
0.0
 40
0.5999999999999944
100
AcDbArc
 50
90.0
 51
180.0
  0
ARC
  5
793
330
84C
100
AcDbEntity
  8
DATA
  6
Continuous
 62
     7
100
AcDbCircle
 10
-59.35000000894071
 20
39.15090937352424
 30
0.0
 40
0.6000000089406968
100
AcDbArc
 50
0.0
 51
90.0
  0
ARC
  5
794
330
84C
100
AcDbEntity
  8
DATA
  6
Continuous
 62
     7
100
AcDbCircle
 10
-62.39999999105933
 20
39.15090937352424
 30
0.0
 40
0.6000000089406968
100
AcDbArc
 50
90.0
 51
180.0
  0
LINE
  5
795
330
84C
100
AcDbEntity
  8
DATA
  6
Continuous
 62
     7
100
AcDbLine
 10
-66.65000000000003
 20
39.75090938246494
 30
0.0
 11
-63.60000000894071
 21
39.75090938246494
 31
0.0
  0
ARC
  5
796
330
84C
100
AcDbEntity
  8
DATA
  6
Continuous
 62
     7
100
AcDbCircle
 10
-63.60000000894071
 20
39.15090937352424
 30
0.0
 40
0.6000000089406968
100
AcDbArc
 50
0.0
 51
90.0
  0
LWPOLYLINE
  5
797
330
84C
100
AcDbEntity
  8
DATA
  6
Continuous
 62
     7
100
AcDbPolyline
 90
        4
 70
     0
 43
0.0
 10
-64.90000000000003
 20
39.75090938246494
 10
-64.90000000000003
 20
40.60872067050703
 10
-61.10000000000002
 20
40.60872067050703
 10
-61.10000000000002
 20
39.75090938246494
  0
LINE
  5
79E
330
84C
100
AcDbEntity
  8
DATA
  6
Continuous
 62
     7
100
AcDbLine
 10
-46.36996124966608
 20
30.12616940827311
 30
0.0
 11
-46.36996124966608
 21
31.12616940827311
 31
0.0
  0
LINE
  5
79F
330
84C
100
AcDbEntity
  8
DATA
  6
Continuous
 62
     7
100
AcDbLine
 10
-53.63003875033261
 20
30.12616940827311
 30
0.0
 11
-53.63003875033261
 21
31.12616940827311
 31
0.0
  0
LINE
  5
7A0
330
84C
100
AcDbEntity
  8
DATA
  6
Continuous
 62
     7
100
AcDbLine
 10
-55.89999999999935
 20
30.12616940827311
 30
0.0
 11
-44.09999999999934
 21
30.12616940827311
 31
0.0
  0
ARC
  5
7A1
330
84C
100
AcDbEntity
  8
DATA
  6
Continuous
 62
     7
100
AcDbCircle
 10
-44.76371339898796
 20
22.6676302138388
 30
0.0
 40
0.5569674294771776
100
AcDbArc
 50
283.551711452923
 51
355.2456992570623
  0
LINE
  5
7A2
330
84C
100
AcDbEntity
  8
DATA
  6
Continuous
 62
     7
100
AcDbLine
 10
-44.63320319427915
 20
22.1261694082718
 30
0.0
 11
-55.36679680571953
 21
22.1261694082718
 31
0.0
  0
ARC
  5
7A3
330
84C
100
AcDbEntity
  8
DATA
  6
Continuous
 62
     7
100
AcDbCircle
 10
-55.23628660101072
 20
22.6676302138388
 30
0.0
 40
0.5569674294771755
100
AcDbArc
 50
184.7543007429377
 51
256.4482885470769
  0
LINE
  5
7A4
330
84C
100
AcDbEntity
  8
DATA
  6
Continuous
 62
     7
100
AcDbLine
 10
-55.89999999999935
 20
30.12616940827311
 30
0.0
 11
-55.79133766370299
 21
22.62146707591911
 31
0.0
  0
LINE
  5
7A5
330
84C
100
AcDbEntity
  8
DATA
  6
Continuous
 62
     7
100
AcDbLine
 10
-44.09999999999934
 20
30.12616940827311
 30
0.0
 11
-44.2086623362957
 21
22.62146707591911
 31
0.0
  0
LINE
  5
7A6
330
84C
100
AcDbEntity
  8
DATA
  6
Continuous
 62
     7
100
AcDbLine
 10
33.46010701786293
 20
-31.6
 30
0.0
 11
33.94526934770575
 21
-35.0
 31
0.0
  0
LINE
  5
7A7
330
84C
100
AcDbEntity
  8
DATA
  6
Continuous
 62
     7
100
AcDbLine
 10
32.96010701041235
 20
-31.6
 30
0.0
 11
33.44526934025517
 21
-35.0
 31
0.0
  0
LINE
  5
7A8
330
84C
100
AcDbEntity
  8
DATA
  6
Continuous
 62
     7
100
AcDbLine
 10
32.46010700296177
 20
-31.6
 30
0.0
 11
32.94526933280459
 21
-35.0
 31
0.0
  0
LINE
  5
7A9
330
84C
100
AcDbEntity
  8
DATA
  6
Continuous
 62
     7
100
AcDbLine
 10
31.96010699551119
 20
-31.6
 30
0.0
 11
32.44526932535401
 21
-35.0
 31
0.0
  0
LINE
  5
7AA
330
84C
100
AcDbEntity
  8
DATA
  6
Continuous
 62
     7
100
AcDbLine
 10
31.46010698806061
 20
-31.6
 30
0.0
 11
31.94526931790343
 21
-35.0
 31
0.0
  0
LINE
  5
7AB
330
84C
100
AcDbEntity
  8
DATA
  6
Continuous
 62
     7
100
AcDbLine
 10
31.37454530699406
 20
-34.50436875048028
 30
0.0
 11
31.44526931045285
 21
-35.0
 31
0.0
  0
LINE
  5
7AC
330
84C
100
AcDbEntity
  8
DATA
  6
Continuous
 62
     7
100
AcDbLine
 10
33.46010701041235
 20
-115.0
 30
0.0
 11
33.94526934025517
 21
-118.4
 31
0.0
  0
LINE
  5
7AD
330
84C
100
AcDbEntity
  8
DATA
  6
Continuous
 62
     7
100
AcDbLine
 10
32.9601069955112
 20
-115.0
 30
0.0
 11
33.44526932535401
 21
-118.4
 31
0.0
  0
LINE
  5
7AE
330
84C
100
AcDbEntity
  8
DATA
  6
Continuous
 62
     7
100
AcDbLine
 10
32.46010698061004
 20
-115.0
 30
0.0
 11
32.94526931045285
 21
-118.4
 31
0.0
  0
LINE
  5
7AF
330
84C
100
AcDbEntity
  8
DATA
  6
Continuous
 62
     7
100
AcDbLine
 10
31.96010696570886
 20
-115.0
 30
0.0
 11
32.44526929555169
 21
-118.4
 31
0.0
  0
LINE
  5
7B0
330
84C
100
AcDbEntity
  8
DATA
  6
Continuous
 62
     7
100
AcDbLine
 10
31.46010695080771
 20
-115.0
 30
0.0
 11
31.94526928065053
 21
-118.4
 31
0.0
  0
LINE
  5
7B1
330
84C
100
AcDbEntity
  8
DATA
  6
Continuous
 62
     7
100
AcDbLine
 10
31.37454530699406
 20
-117.9043690637607
 30
0.0
 11
31.44526926574937
 21
-118.4
 31
0.0
  0
LINE
  5
7B2
330
84C
100
AcDbEntity
  8
DATA
  6
Continuous
 62
     7
100
AcDbLine
 10
-14.16329272192209
 20
-134.9255976316547
 30
0.0
 11
-85.8367072780779
 21
-134.9245853480895
 31
0.0
  0
LINE
  5
7B3
330
84C
100
AcDbEntity
  8
DATA
  6
Continuous
 62
     7
100
AcDbLine
 10
-18.4694821653719
 20
-134.110822247646
 30
0.0
 11
-81.5305178346281
 21
-134.110822247646
 31
0.0
  0
LINE
  5
7B4
330
84C
100
AcDbEntity
  8
DATA
  6
Continuous
 62
     7
100
AcDbLine
 10
-26.05629790135773
 20
-122.1050354927535
 30
0.0
 11
-46.94630042046146
 21
-122.1050354927535
 31
0.0
  0
LINE
  5
7B5
330
84C
100
AcDbEntity
  8
DATA
  6
Continuous
 62
     7
100
AcDbLine
 10
-53.05369957953854
 20
-122.1050354927535
 30
0.0
 11
-73.94370209864226
 21
-122.1050354927535
 31
0.0
  0
ARC
  5
7B6
330
84C
100
AcDbEntity
  8
DATA
  6
Continuous
 62
     7
100
AcDbCircle
 10
-85.87536100713933
 20
-133.0499606662795
 30
0.0
 40
1.875023148769584
100
AcDbArc
 50
178.8401669304731
 51
271.1812400483597
  0
ARC
  5
7B7
330
84C
100
AcDbEntity
  8
DATA
  6
Continuous
 62
     7
100
AcDbCircle
 10
-86.13543087704538
 20
-133.2981918977432
 30
0.0
 40
0.7068539438105708
100
AcDbArc
 50
179.8261287343946
 51
270.1160843017541
  0
LINE
  5
7B8
330
84C
100
AcDbEntity
  8
DATA
  6
Continuous
 62
     7
100
AcDbLine
 10
-86.84228156616525
 20
-133.2960468636374
 30
0.0
 11
-86.98450990074219
 21
-128.6561154662828
 31
0.0
  0
LINE
  5
7B9
330
84C
100
AcDbEntity
  8
DATA
  6
Continuous
 62
     7
100
AcDbLine
 10
-86.13399875427701
 20
-134.0050443907748
 30
0.0
 11
-81.5305178346281
 21
-134.110822247646
 31
0.0
  0
ARC
  5
7BA
330
84C
100
AcDbEntity
  8
DATA
  6
Continuous
 62
     7
100
AcDbCircle
 10
-73.94370209864226
 20
-121.1050354927535
 30
0.0
 40
1.0
100
AcDbArc
 50
180.0
 51
270.0
  0
ARC
  5
7BB
330
84C
100
AcDbEntity
  8
DATA
  6
Continuous
 62
     7
100
AcDbCircle
 10
-14.12463899286066
 20
-133.0509729498447
 30
0.0
 40
1.875023148769576
100
AcDbArc
 50
268.8187599516402
 51
1.159833069526882
  0
ARC
  5
7BC
330
84C
100
AcDbEntity
  8
DATA
  6
Continuous
 62
     7
100
AcDbCircle
 10
-13.86456912295462
 20
-133.2981918977432
 30
0.0
 40
0.706853943810571
100
AcDbArc
 50
269.8839156982459
 51
0.1738712656054418
  0
LINE
  5
7BD
330
84C
100
AcDbEntity
  8
DATA
  6
Continuous
 62
     7
100
AcDbLine
 10
-13.15771843383474
 20
-133.2960468636374
 30
0.0
 11
-13.0154900992578
 21
-128.6561154662828
 31
0.0
  0
LINE
  5
7BE
330
84C
100
AcDbEntity
  8
DATA
  6
Continuous
 62
     7
100
AcDbLine
 10
-13.86600124572298
 20
-134.0050443907748
 30
0.0
 11
-18.4694821653719
 21
-134.110822247646
 31
0.0
  0
ARC
  5
7BF
330
84C
100
AcDbEntity
  8
DATA
  6
Continuous
 62
     7
100
AcDbCircle
 10
-26.05629790135773
 20
-121.1050354927535
 30
0.0
 40
1.0
100
AcDbArc
 50
270.0
 51
0.0
  0
LINE
  5
7C0
330
84C
100
AcDbEntity
  8
DATA
  6
Continuous
 62
     7
100
AcDbLine
 10
-18.4694821653719
 20
-15.88917775235393
 30
0.0
 11
-26.05629790135773
 21
-27.89496450724644
 31
0.0
  0
LINE
  5
7C1
330
84C
100
AcDbEntity
  8
DATA
  6
Continuous
 62
     7
100
AcDbLine
 10
-13.0154900992578
 20
-21.3438845337172
 30
0.0
 11
-25.05629790135773
 21
-28.89496450724644
 31
0.0
  0
LINE
  5
7C2
330
84C
100
AcDbEntity
  8
DATA
  6
Continuous
 62
     7
100
AcDbLine
 10
-81.5305178346281
 20
-134.110822247646
 30
0.0
 11
-73.94370209864226
 21
-122.1050354927535
 31
0.0
  0
LINE
  5
7C3
330
84C
100
AcDbEntity
  8
DATA
  6
Continuous
 62
     7
100
AcDbLine
 10
-86.98450990074219
 20
-128.6561154662828
 30
0.0
 11
-74.94370209864226
 21
-121.1050354927535
 31
0.0
  0
LINE
  5
7C4
330
84C
100
AcDbEntity
  8
DATA
  6
Continuous
 62
     7
100
AcDbLine
 10
-18.4694821653719
 20
-134.110822247646
 30
0.0
 11
-26.05629790135773
 21
-122.1050354927535
 31
0.0
  0
LINE
  5
7C5
330
84C
100
AcDbEntity
  8
DATA
  6
Continuous
 62
     7
100
AcDbLine
 10
-13.0154900992578
 20
-128.6561154662828
 30
0.0
 11
-25.05629790135773
 21
-121.1050354927535
 31
0.0
  0
LINE
  5
7C6
330
84C
100
AcDbEntity
  8
DATA
  6
Continuous
 62
     7
100
AcDbLine
 10
-54.06911873781765
 20
31.12616940825507
 30
0.0
 11
-45.93088126218235
 21
31.12616940825502
 31
0.0
  0
CIRCLE
  5
7C7
330
84C
100
AcDbEntity
  8
DATA
  6
Continuous
 62
     7
100
AcDbCircle
 10
-50.0
 20
-26.4
 30
0.0
 40
3.399999999999998
  0
LINE
  5
7C8
330
84C
100
AcDbEntity
  8
DATA
  6
Continuous
 62
     7
100
AcDbLine
 10
-53.39999999999999
 20
-26.4
 30
0.0
 11
-46.60000000000001
 21
-26.4
 31
0.0
  0
LINE
  5
7C9
330
84C
100
AcDbEntity
  8
DATA
  6
Continuous
 62
     7
100
AcDbLine
 10
33.37454530699407
 20
-24.7
 30
0.0
 11
33.37454530699407
 21
-28.1
 31
0.0
  0
LINE
  5
7CA
330
84C
100
AcDbEntity
  8
DATA
  6
Continuous
 62
     7
100
AcDbLine
 10
31.37454530699406
 20
-25.62732976285697
 30
0.0
 11
31.72738249910739
 21
-28.1
 31
0.0
  0
LINE
  5
7CB
330
84C
100
AcDbEntity
  8
DATA
  6
Continuous
 62
     7
100
AcDbLine
 10
31.79087328852583
 20
-24.7
 30
0.0
 11
32.27603561836865
 21
-28.1
 31
0.0
  0
LINE
  5
7CC
330
84C
100
AcDbEntity
  8
DATA
  6
Continuous
 62
     7
100
AcDbLine
 10
32.3395264077871
 20
-24.7
 30
0.0
 11
32.82468873762993
 21
-28.1
 31
0.0
  0
LINE
  5
7CD
330
84C
100
AcDbEntity
  8
DATA
  6
Continuous
 62
     7
100
AcDbLine
 10
32.88817952704838
 20
-24.7
 30
0.0
 11
33.37334185689119
 21
-28.1
 31
0.0
  0
LINE
  5
7CE
330
84C
100
AcDbEntity
  8
DATA
  6
Continuous
 62
     7
100
AcDbLine
 10
33.37454530699407
 20
-24.7
 30
0.0
 11
31.37454530699406
 21
-24.7
 31
0.0
  0
LINE
  5
7CF
330
84C
100
AcDbEntity
  8
DATA
  6
Continuous
 62
     7
100
AcDbLine
 10
33.37334185689119
 20
-28.1
 30
0.0
 11
31.37454530699406
 21
-28.1
 31
0.0
  0
CIRCLE
  5
7D0
330
84C
100
AcDbEntity
  8
DATA
  6
Continuous
 62
     7
100
AcDbCircle
 10
-50.0
 20
-123.6
 30
0.0
 40
3.400000000000005
  0
LINE
  5
7D1
330
84C
100
AcDbEntity
  8
DATA
  6
Continuous
 62
     7
100
AcDbLine
 10
-53.39999999999999
 20
-123.6
 30
0.0
 11
-46.60000000000001
 21
-123.6
 31
0.0
  0
LINE
  5
7D2
330
84C
100
AcDbEntity
  8
DATA
  6
Continuous
 62
     7
100
AcDbLine
 10
33.37454530699407
 20
-125.3
 30
0.0
 11
33.37454530699407
 21
-121.9
 31
0.0
  0
LINE
  5
7D3
330
84C
100
AcDbEntity
  8
DATA
  6
Continuous
 62
     7
100
AcDbLine
 10
31.37454530699406
 20
-124.372670237143
 30
0.0
 11
31.72738249910739
 21
-121.9
 31
0.0
  0
LINE
  5
7D4
330
84C
100
AcDbEntity
  8
DATA
  6
Continuous
 62
     7
100
AcDbLine
 10
31.79087328852583
 20
-125.3
 30
0.0
 11
32.27603561836865
 21
-121.9
 31
0.0
  0
LINE
  5
7D5
330
84C
100
AcDbEntity
  8
DATA
  6
Continuous
 62
     7
100
AcDbLine
 10
32.3395264077871
 20
-125.3
 30
0.0
 11
32.82468873762993
 21
-121.9
 31
0.0
  0
LINE
  5
7D6
330
84C
100
AcDbEntity
  8
DATA
  6
Continuous
 62
     7
100
AcDbLine
 10
32.88817952704838
 20
-125.3
 30
0.0
 11
33.37334185689119
 21
-121.9
 31
0.0
  0
LINE
  5
7D7
330
84C
100
AcDbEntity
  8
DATA
  6
Continuous
 62
     7
100
AcDbLine
 10
33.37454530699407
 20
-125.3
 30
0.0
 11
31.37454530699406
 21
-125.3
 31
0.0
  0
LINE
  5
7D8
330
84C
100
AcDbEntity
  8
DATA
  6
Continuous
 62
     7
100
AcDbLine
 10
33.37334185689119
 20
-121.9
 30
0.0
 11
31.37454530699406
 21
-121.9
 31
0.0
  0
LINE
  5
7D9
330
84C
100
AcDbEntity
  8
DATA
  6
STYLE_06
 62
     7
100
AcDbLine
 10
-50.0
 20
-34.92407920630697
 30
0.0
 11
-50.0
 21
-9.924079206306956
 31
0.0
  0
LINE
  5
7DA
330
84C
100
AcDbEntity
  8
DATA
  6
STYLE_06
 62
     7
100
AcDbLine
 10
-50.0
 20
-140.7230620732119
 30
0.0
 11
-50.0
 21
-115.7230620732122
 31
0.0
  0
LINE
  5
7DB
330
84C
100
AcDbEntity
  8
DATA
  6
STYLE_06
 62
     7
100
AcDbLine
 10
-50.0
 20
65.07592079369304
 30
0.0
 11
-50.0
 21
12.5
 31
0.0
  0
ENDSEC
  0
SECTION
  2
OBJECTS
  0
DICTIONARY
  5
7E9
330
0
100
AcDbDictionary
281
     1
  3
ACAD_CIP_PREVIOUS_PRODUCT_INFO
350
864
  3
ACAD_COLOR
350
83F
  3
ACAD_DETAILVIEWSTYLE
350
846
  3
ACAD_GROUP
350
7EA
  3
ACAD_LAYOUT
350
83E
  3
ACAD_MATERIAL
350
7ED
  3
ACAD_MLEADERSTYLE
350
842
  3
ACAD_MLINESTYLE
350
83B
  3
ACAD_PLOTSETTINGS
350
83D
  3
ACAD_PLOTSTYLENAME
350
7EB
  3
ACAD_SCALELIST
350
81F
  3
ACAD_SECTIONVIEWSTYLE
350
844
  3
ACAD_TABLESTYLE
350
840
  3
ACAD_VISUALSTYLE
350
806
  3
ACDB_RECOMPOSE_DATA
350
87C
  3
AcDbVariableDictionary
350
86F
  3
DWGPROPS
350
87D
  0
DICTIONARY
  5
865
330
831
100
AcDbDictionary
280
     1
281
     1
  3
ADSK_XREC_LAYER_RECONCILED
360
866
  0
DICTIONARY
  5
867
330
850
100
AcDbDictionary
280
     1
281
     1
  3
ADSK_XREC_LAYER_RECONCILED
360
868
  0
DICTIONARY
  5
869
330
85C
100
AcDbDictionary
280
     1
281
     1
  3
ADSK_XREC_LAYER_RECONCILED
360
86A
  0
DICTIONARY
  5
86B
330
85D
100
AcDbDictionary
280
     1
281
     1
  3
ADSK_XREC_LAYER_RECONCILED
360
86C
  0
DICTIONARY
  5
86D
330
85E
100
AcDbDictionary
280
     1
281
     1
  3
ADSK_XREC_LAYER_RECONCILED
360
86E
  0
XRECORD
  5
864
102
{ACAD_REACTORS
330
7E9
102
}
330
7E9
100
AcDbXrecord
280
     1
300
ACDLT
300
2016
300
ACDLT_F_S
  0
DICTIONARY
  5
83F
102
{ACAD_REACTORS
330
7E9
102
}
330
7E9
100
AcDbDictionary
281
     1
  0
DICTIONARY
  5
846
102
{ACAD_REACTORS
330
7E9
102
}
330
7E9
100
AcDbDictionary
281
     1
  3
Imperial24
350
847
  0
DICTIONARY
  5
7EA
102
{ACAD_REACTORS
330
7E9
102
}
330
7E9
100
AcDbDictionary
281
     1
  0
DICTIONARY
  5
83E
102
{ACAD_REACTORS
330
7E9
102
}
330
7E9
100
AcDbDictionary
281
     1
  3
Model
350
84F
  3
レイアウト1
350
84B
  0
DICTIONARY
  5
7ED
102
{ACAD_REACTORS
330
7E9
102
}
330
7E9
100
AcDbDictionary
281
     1
  3
ByBlock
350
7F6
  3
ByLayer
350
7EE
  3
Global
350
7FE
  0
DICTIONARY
  5
842
102
{ACAD_REACTORS
330
7E9
102
}
330
7E9
100
AcDbDictionary
281
     1
  3
Standard
350
843
  0
DICTIONARY
  5
83B
102
{ACAD_REACTORS
330
7E9
102
}
330
7E9
100
AcDbDictionary
281
     1
  3
Standard
350
83C
  0
DICTIONARY
  5
83D
102
{ACAD_REACTORS
330
7E9
102
}
330
7E9
100
AcDbDictionary
281
     1
  0
ACDBDICTIONARYWDFLT
  5
7EB
102
{ACAD_REACTORS
330
7E9
102
}
330
7E9
100
AcDbDictionary
281
     1
  3
Normal
350
7EC
100
AcDbDictionaryWithDefault
340
7EC
  0
DICTIONARY
  5
81F
102
{ACAD_REACTORS
330
7E9
102
}
330
7E9
100
AcDbDictionary
281
     1
  3
A0
350
820
  3
A1
350
821
  3
A2
350
822
  3
A3
350
823
  3
A4
350
824
  3
A5
350
825
  3
A6
350
826
  3
A7
350
827
  3
A8
350
828
  3
A9
350
829
  3
B0
350
82A
  3
B1
350
82B
  3
B2
350
82C
  3
B3
350
82D
  3
B4
350
82E
  3
B5
350
82F
  3
B6
350
830
  0
DICTIONARY
  5
844
102
{ACAD_REACTORS
330
7E9
102
}
330
7E9
100
AcDbDictionary
281
     1
  3
Imperial24
350
845
  0
DICTIONARY
  5
840
102
{ACAD_REACTORS
330
7E9
102
}
330
7E9
100
AcDbDictionary
281
     1
  3
Standard
350
841
  0
DICTIONARY
  5
806
102
{ACAD_REACTORS
330
7E9
102
}
330
7E9
100
AcDbDictionary
281
     1
  3
2dWireframe
350
80C
  3
Basic
350
80B
  3
Brighten
350
812
  3
ColorChange
350
816
  3
Conceptual
350
80F
  3
Dim
350
811
  3
EdgeColorOff
350
81E
  3
Facepattern
350
815
  3
Flat
350
807
  3
FlatWithEdges
350
808
  3
Gouraud
350
809
  3
GouraudWithEdges
350
80A
  3
Hidden
350
80E
  3
JitterOff
350
81C
  3
Linepattern
350
814
  3
OverhangOff
350
81D
  3
Realistic
350
810
  3
Shaded
350
81B
  3
Shaded with edges
350
81A
  3
Shades of Gray
350
817
  3
Sketchy
350
818
  3
Thicken
350
813
  3
Wireframe
350
80D
  3
X-Ray
350
819
  0
XRECORD
  5
87C
102
{ACAD_REACTORS
330
7E9
102
}
330
7E9
100
AcDbXrecord
280
     1
 90
        1
330
841
  0
DICTIONARY
  5
86F
102
{ACAD_REACTORS
330
7E9
102
}
330
7E9
100
AcDbDictionary
281
     1
  3
CANNOSCALE
350
874
  3
CMLEADERSTYLE
350
871
  3
CTABLESTYLE
350
870
  3
CVIEWDETAILSTYLE
350
872
  3
CVIEWSECTIONSTYLE
350
873
  3
DIMASSOC
350
877
  3
INDEXCTL
350
876
  3
SORTENTS
350
875
  3
XCLIPFRAME
350
878
  0
XRECORD
  5
87D
102
{ACAD_REACTORS
330
7E9
102
}
330
7E9
100
AcDbXrecord
280
     1
  1
DWGPROPS COOKIE
  2

  3

  4

  6

  7

  8
sasaki_n
  9

300
=
301
=
302
=
303
=
304
=
305
=
306
=
307
=
308
=
309
=
 40
0.0004449652777778
 41
2457396.812326389
 42
2457396.812882118
  1

 90
        0
  0
XRECORD
  5
866
102
{ACAD_REACTORS
330
865
102
}
330
865
100
AcDbXrecord
280
     1
290
     1
  0
XRECORD
  5
868
102
{ACAD_REACTORS
330
867
102
}
330
867
100
AcDbXrecord
280
     1
290
     1
  0
XRECORD
  5
86A
102
{ACAD_REACTORS
330
869
102
}
330
869
100
AcDbXrecord
280
     1
290
     1
  0
XRECORD
  5
86C
102
{ACAD_REACTORS
330
86B
102
}
330
86B
100
AcDbXrecord
280
     1
290
     1
  0
XRECORD
  5
86E
102
{ACAD_REACTORS
330
86D
102
}
330
86D
100
AcDbXrecord
280
     1
290
     1
  0
ACDBDETAILVIEWSTYLE
  5
847
102
{ACAD_XDICTIONARY
360
8B5
102
}
102
{ACAD_REACTORS
330
846
102
}
330
846
100
AcDbModelDocViewStyle
 70
     0
  3
Imperial24
290
     0
100
AcDbDetailViewStyle
 70
     0
 71
     0
 90
        3
 71
     1
340
832
 40
0.24
340
0
 40
0.24
300

 40
0.36
280
     3
 71
     2
340
839
 90
       25
 71
     3
340
832
 40
0.24
 90
        1
 40
0.75
 90
        1
300
%<\AcVar ViewType \f "%tc1">% %<\AcVar ViewDetailId>%\PSCALE %<\AcVar ViewScale \f "%sn">%
 71
     4
340
839
 90
       25
340
839
 90
       25
280
     0
  0
LAYOUT
  5
84F
102
{ACAD_XDICTIONARY
360
8B9
102
}
102
{ACAD_REACTORS
330
83E
102
}
330
83E
100
AcDbPlotSettings
  1

  2
DocuPrint 3000-2
  4

  6

 40
0.0
 41
0.0
 42
0.0
 43
0.0
 44
0.0
 45
0.0
 46
0.0
 47
0.0
 48
0.0
 49
0.0
140
0.0
141
0.0
142
1.0
143
1.0
 70
  1712
 72
     0
 73
     0
 74
     0
  7

 75
     0
147
1.0
148
0.0
149
0.0
100
AcDbLayout
  1
Model
 70
     1
 71
     0
 10
0.0
 20
0.0
 11
12.0
 21
9.0
 12
0.0
 22
0.0
 32
0.0
 14
0.0
 24
0.0
 34
0.0
 15
0.0
 25
0.0
 35
0.0
146
0.0
 13
0.0
 23
0.0
 33
0.0
 16
1.0
 26
0.0
 36
0.0
 17
0.0
 27
1.0
 37
0.0
 76
     0
330
84C
331
851
  0
LAYOUT
  5
84B
102
{ACAD_XDICTIONARY
360
8B7
102
}
102
{ACAD_REACTORS
330
83E
102
}
330
83E
100
AcDbPlotSettings
  1

  2
DocuPrint 3000-2
  4

  6

 40
0.0
 41
0.0
 42
0.0
 43
0.0
 44
0.0
 45
0.0
 46
0.0
 47
0.0
 48
0.0
 49
0.0
140
0.0
141
0.0
142
1.0
143
1.0
 70
   688
 72
     0
 73
     0
 74
     5
  7

 75
    16
147
1.0
148
0.0
149
0.0
100
AcDbLayout
  1
レイアウト1
 70
     0
 71
     1
 10
0.0
 20
0.0
 11
12.0
 21
9.0
 12
0.0
 22
0.0
 32
0.0
 14
1.000000000000000E+20
 24
1.000000000000000E+20
 34
1.000000000000000E+20
 15
-1.000000000000000E+20
 25
-1.000000000000000E+20
 35
-1.000000000000000E+20
146
0.0
 13
0.0
 23
0.0
 33
0.0
 16
1.0
 26
0.0
 36
0.0
 17
0.0
 27
1.0
 37
0.0
 76
     0
330
848
  0
MATERIAL
  5
7F6
102
{ACAD_XDICTIONARY
360
7F7
102
}
102
{ACAD_REACTORS
330
7ED
102
}
330
7ED
100
AcDbMaterial
  1
ByBlock
 72
     0
 43
0.0208333333333333
 43
0.0
 43
0.0
 43
0.0
 43
0.0
 43
0.0208333333333333
 43
0.0
 43
0.0
 43
0.0
 43
0.0
 43
1.0
 43
0.0
 43
0.0
 43
0.0
 43
0.0
 43
1.0
 77
     0
 47
0.0208333333333333
 47
0.0
 47
0.0
 47
0.0
 47
0.0
 47
0.0208333333333333
 47
0.0
 47
0.0
 47
0.0
 47
0.0
 47
1.0
 47
0.0
 47
0.0
 47
0.0
 47
0.0
 47
1.0
171
     0
 49
0.0208333333333333
 49
0.0
 49
0.0
 49
0.0
 49
0.0
 49
0.0208333333333333
 49
0.0
 49
0.0
 49
0.0
 49
0.0
 49
1.0
 49
0.0
 49
0.0
 49
0.0
 49
0.0
 49
1.0
175
     0
142
0.0208333333333333
142
0.0
142
0.0
142
0.0
142
0.0
142
0.0208333333333333
142
0.0
142
0.0
142
0.0
142
0.0
142
1.0
142
0.0
142
0.0
142
0.0
142
0.0
142
1.0
179
     0
144
0.0208333333333333
144
0.0
144
0.0
144
0.0
144
0.0
144
0.0208333333333333
144
0.0
144
0.0
144
0.0
144
0.0
144
1.0
144
0.0
144
0.0
144
0.0
144
0.0
144
1.0
147
0.0208333333333333
147
0.0
147
0.0
147
0.0
147
0.0
147
0.0208333333333333
147
0.0
147
0.0
147
0.0
147
0.0
147
1.0
147
0.0
147
0.0
147
0.0
147
0.0
147
1.0
  0
MATERIAL
  5
7EE
102
{ACAD_XDICTIONARY
360
7EF
102
}
102
{ACAD_REACTORS
330
7ED
102
}
330
7ED
100
AcDbMaterial
  1
ByLayer
 72
     0
 43
0.0208333333333333
 43
0.0
 43
0.0
 43
0.0
 43
0.0
 43
0.0208333333333333
 43
0.0
 43
0.0
 43
0.0
 43
0.0
 43
1.0
 43
0.0
 43
0.0
 43
0.0
 43
0.0
 43
1.0
 77
     0
 47
0.0208333333333333
 47
0.0
 47
0.0
 47
0.0
 47
0.0
 47
0.0208333333333333
 47
0.0
 47
0.0
 47
0.0
 47
0.0
 47
1.0
 47
0.0
 47
0.0
 47
0.0
 47
0.0
 47
1.0
171
     0
 49
0.0208333333333333
 49
0.0
 49
0.0
 49
0.0
 49
0.0
 49
0.0208333333333333
 49
0.0
 49
0.0
 49
0.0
 49
0.0
 49
1.0
 49
0.0
 49
0.0
 49
0.0
 49
0.0
 49
1.0
175
     0
142
0.0208333333333333
142
0.0
142
0.0
142
0.0
142
0.0
142
0.0208333333333333
142
0.0
142
0.0
142
0.0
142
0.0
142
1.0
142
0.0
142
0.0
142
0.0
142
0.0
142
1.0
179
     0
144
0.0208333333333333
144
0.0
144
0.0
144
0.0
144
0.0
144
0.0208333333333333
144
0.0
144
0.0
144
0.0
144
0.0
144
1.0
144
0.0
144
0.0
144
0.0
144
0.0
144
1.0
147
0.0208333333333333
147
0.0
147
0.0
147
0.0
147
0.0
147
0.0208333333333333
147
0.0
147
0.0
147
0.0
147
0.0
147
1.0
147
0.0
147
0.0
147
0.0
147
0.0
147
1.0
  0
MATERIAL
  5
7FE
102
{ACAD_XDICTIONARY
360
7FF
102
}
102
{ACAD_REACTORS
330
7ED
102
}
330
7ED
100
AcDbMaterial
  1
Global
 72
     0
 43
0.0208333333333333
 43
0.0
 43
0.0
 43
0.0
 43
0.0
 43
0.0208333333333333
 43
0.0
 43
0.0
 43
0.0
 43
0.0
 43
1.0
 43
0.0
 43
0.0
 43
0.0
 43
0.0
 43
1.0
 77
     0
 47
0.0208333333333333
 47
0.0
 47
0.0
 47
0.0
 47
0.0
 47
0.0208333333333333
 47
0.0
 47
0.0
 47
0.0
 47
0.0
 47
1.0
 47
0.0
 47
0.0
 47
0.0
 47
0.0
 47
1.0
171
     0
 49
0.0208333333333333
 49
0.0
 49
0.0
 49
0.0
 49
0.0
 49
0.0208333333333333
 49
0.0
 49
0.0
 49
0.0
 49
0.0
 49
1.0
 49
0.0
 49
0.0
 49
0.0
 49
0.0
 49
1.0
175
     0
142
0.0208333333333333
142
0.0
142
0.0
142
0.0
142
0.0
142
0.0208333333333333
142
0.0
142
0.0
142
0.0
142
0.0
142
1.0
142
0.0
142
0.0
142
0.0
142
0.0
142
1.0
179
     0
144
0.0208333333333333
144
0.0
144
0.0
144
0.0
144
0.0
144
0.0208333333333333
144
0.0
144
0.0
144
0.0
144
0.0
144
1.0
144
0.0
144
0.0
144
0.0
144
0.0
144
1.0
147
0.0208333333333333
147
0.0
147
0.0
147
0.0
147
0.0
147
0.0208333333333333
147
0.0
147
0.0
147
0.0
147
0.0
147
1.0
147
0.0
147
0.0
147
0.0
147
0.0
147
1.0
  0
MLEADERSTYLE
  5
843
102
{ACAD_REACTORS
330
842
102
}
330
842
100
AcDbMLeaderStyle
170
     2
171
     1
172
     0
 90
        2
 40
0.0
 41
0.0
173
     1
 91
-1056964608
340
837
 92
       -2
290
     1
 42
0.09
291
     1
 43
0.36
  3
Standard
 44
0.18
300

342
832
174
     1
178
     6
175
     1
176
     0
 93
-1056964608
 45
0.18
292
     0
297
     0
 46
0.18
 94
-1056964608
 47
1.0
 49
1.0
140
1.0
293
     1
141
0.0
294
     1
177
     0
142
1.0
295
     0
296
     0
143
0.125
1001
ACAD_MLEADERVER
1070
     2
  0
MLINESTYLE
  5
83C
102
{ACAD_REACTORS
330
83B
102
}
330
83B
100
AcDbMlineStyle
  2
STANDARD
 70
     0
  3

 62
   256
 51
90.0
 52
90.0
 71
     2
 49
0.5
 62
   256
  6
BYLAYER
 49
-0.5
 62
   256
  6
BYLAYER
  0
ACDBPLACEHOLDER
  5
7EC
102
{ACAD_REACTORS
330
7EB
102
}
330
7EB
  0
SCALE
  5
820
102
{ACAD_REACTORS
330
81F
102
}
330
81F
100
AcDbScale
 70
     0
300
1:1
140
1.0
141
1.0
290
     1
  0
SCALE
  5
821
102
{ACAD_REACTORS
330
81F
102
}
330
81F
100
AcDbScale
 70
     0
300
1/128" = 1'-0"
140
0.0078125
141
12.0
290
     0
  0
SCALE
  5
822
102
{ACAD_REACTORS
330
81F
102
}
330
81F
100
AcDbScale
 70
     0
300
1/64" = 1'-0"
140
0.015625
141
12.0
290
     0
  0
SCALE
  5
823
102
{ACAD_REACTORS
330
81F
102
}
330
81F
100
AcDbScale
 70
     0
300
1/32" = 1'-0"
140
0.03125
141
12.0
290
     0
  0
SCALE
  5
824
102
{ACAD_REACTORS
330
81F
102
}
330
81F
100
AcDbScale
 70
     0
300
1/16" = 1'-0"
140
0.0625
141
12.0
290
     0
  0
SCALE
  5
825
102
{ACAD_REACTORS
330
81F
102
}
330
81F
100
AcDbScale
 70
     0
300
3/32" = 1'-0"
140
0.09375
141
12.0
290
     0
  0
SCALE
  5
826
102
{ACAD_REACTORS
330
81F
102
}
330
81F
100
AcDbScale
 70
     0
300
1/8" = 1'-0"
140
0.125
141
12.0
290
     0
  0
SCALE
  5
827
102
{ACAD_REACTORS
330
81F
102
}
330
81F
100
AcDbScale
 70
     0
300
3/16" = 1'-0"
140
0.1875
141
12.0
290
     0
  0
SCALE
  5
828
102
{ACAD_REACTORS
330
81F
102
}
330
81F
100
AcDbScale
 70
     0
300
1/4" = 1'-0"
140
0.25
141
12.0
290
     0
  0
SCALE
  5
829
102
{ACAD_REACTORS
330
81F
102
}
330
81F
100
AcDbScale
 70
     0
300
3/8" = 1'-0"
140
0.375
141
12.0
290
     0
  0
SCALE
  5
82A
102
{ACAD_REACTORS
330
81F
102
}
330
81F
100
AcDbScale
 70
     0
300
1/2" = 1'-0"
140
0.5
141
12.0
290
     0
  0
SCALE
  5
82B
102
{ACAD_REACTORS
330
81F
102
}
330
81F
100
AcDbScale
 70
     0
300
3/4" = 1'-0"
140
0.75
141
12.0
290
     0
  0
SCALE
  5
82C
102
{ACAD_REACTORS
330
81F
102
}
330
81F
100
AcDbScale
 70
     0
300
1" = 1'-0"
140
1.0
141
12.0
290
     0
  0
SCALE
  5
82D
102
{ACAD_REACTORS
330
81F
102
}
330
81F
100
AcDbScale
 70
     0
300
1-1/2" = 1'-0"
140
1.5
141
12.0
290
     0
  0
SCALE
  5
82E
102
{ACAD_REACTORS
330
81F
102
}
330
81F
100
AcDbScale
 70
     0
300
3" = 1'-0"
140
3.0
141
12.0
290
     0
  0
SCALE
  5
82F
102
{ACAD_REACTORS
330
81F
102
}
330
81F
100
AcDbScale
 70
     0
300
6" = 1'-0"
140
6.0
141
12.0
290
     0
  0
SCALE
  5
830
102
{ACAD_REACTORS
330
81F
102
}
330
81F
100
AcDbScale
 70
     0
300
1'-0" = 1'-0"
140
12.0
141
12.0
290
     0
  0
ACDBSECTIONVIEWSTYLE
  5
845
102
{ACAD_XDICTIONARY
360
8B3
102
}
102
{ACAD_REACTORS
330
844
102
}
330
844
100
AcDbModelDocViewStyle
 70
     0
  3
Imperial24
290
     0
100
AcDbSectionViewStyle
 70
     0
 71
     0
 90
       78
 71
     1
340
832
 40
0.24
340
0
340
0
 40
0.24
300
I, O, Q, S, X, Z
 40
0.48
 90
        3
 40
0.18
 90
        1
 71
     2
340
839
 90
       25
340
839
 90
       50
 40
0.24
 40
0.0
 40
0.24
 71
     3
340
832
 40
0.24
 90
        1
 40
0.75
 90
        1
300
%<\AcVar ViewType \f "%tc1">% %<\AcVar ViewSectionStartId>%-%<\AcVar ViewSectionEndId>%\PSCALE %<\AcVar ViewScale \f "%sn">%
 71
     4
300
ANSI31
 40
1.0
 90
        0
290
     0
290
     0
 90
        6
 40
0.0
 40
1.570796326794896
 40
0.2617993877991494
 40
1.308996938995747
 40
-0.2617993877991494
 40
1.832595714594046
  0
TABLESTYLE
  5
841
102
{ACAD_XDICTIONARY
360
87A
102
}
102
{ACAD_REACTORS
330
840
102
}
330
840
100
AcDbTableStyle
  3
Standard
 70
     0
 71
     0
 40
0.06
 41
0.06
280
     0
281
     0
  7
STANDARD
140
0.18
170
     2
 62
     0
 63
     7
283
     0
274
    -2
284
     1
 64
     0
275
    -2
285
     1
 65
     0
276
    -2
286
     1
 66
     0
277
    -2
287
     1
 67
     0
278
    -2
288
     1
 68
     0
279
    -2
289
     1
 69
     0
  7
STANDARD
140
0.25
170
     5
 62
     0
 63
     7
283
     0
274
    -2
284
     1
 64
     0
275
    -2
285
     1
 65
     0
276
    -2
286
     1
 66
     0
277
    -2
287
     1
 67
     0
278
    -2
288
     1
 68
     0
279
    -2
289
     1
 69
     0
  7
STANDARD
140
0.18
170
     5
 62
     0
 63
     7
283
     0
274
    -2
284
     1
 64
     0
275
    -2
285
     1
 65
     0
276
    -2
286
     1
 66
     0
277
    -2
287
     1
 67
     0
278
    -2
288
     1
 68
     0
279
    -2
289
     1
 69
     0
  0
VISUALSTYLE
  5
80C
102
{ACAD_XDICTIONARY
360
88B
102
}
102
{ACAD_REACTORS
330
806
102
}
330
806
100
AcDbVisualStyle
  2
2dWireframe
 70
     4
 71
     0
 72
     2
 73
     0
 90
        0
 40
-0.6
 41
-30.0
 62
     5
 63
     7
 74
     1
 91
        4
 64
     7
 65
   257
 75
     1
175
     1
 42
1.0
 92
        0
 66
   257
 43
1.0
 76
     1
 77
     6
 78
     2
 67
     7
 79
     5
170
     0
171
     0
290
     0
174
     0
 93
        1
 44
0.0
173
     0
291
     0
 45
0.0
1001
ACAD
1000
AcDbSavedByObjectVersion
1070
     0
  0
VISUALSTYLE
  5
80B
102
{ACAD_XDICTIONARY
360
889
102
}
102
{ACAD_REACTORS
330
806
102
}
330
806
100
AcDbVisualStyle
  2
Basic
 70
     7
 71
     1
 72
     0
 73
     1
 90
        0
 40
-0.6
 41
-30.0
 62
     5
 63
     7
 74
     0
 91
        4
 64
     7
 65
   257
 75
     1
175
     1
 42
1.0
 92
        8
 66
     7
 43
1.0
 76
     1
 77
     6
 78
     2
 67
     7
 79
     5
170
     0
171
     0
290
     0
174
     0
 93
        1
 44
0.0
173
     0
291
     1
 45
0.0
1001
ACAD
1000
AcDbSavedByObjectVersion
1070
     0
  0
VISUALSTYLE
  5
812
102
{ACAD_XDICTIONARY
360
897
102
}
102
{ACAD_REACTORS
330
806
102
}
330
806
100
AcDbVisualStyle
  2
Brighten
 70
    12
 71
     2
 72
     2
 73
     0
 90
        0
 40
-0.6
 41
-30.0
 62
     5
 63
     7
 74
     1
 91
        4
 64
     7
 65
   257
 75
     1
175
     1
 42
1.0
 92
        8
 66
     7
 43
1.0
 76
     1
 77
     6
 78
     2
 67
     7
 79
     5
170
     0
171
     0
290
     0
174
     0
 93
        1
 44
50.0
173
     0
291
     1
 45
0.0
1001
ACAD
1000
AcDbSavedByObjectVersion
1070
     0
  0
VISUALSTYLE
  5
816
102
{ACAD_XDICTIONARY
360
89F
102
}
102
{ACAD_REACTORS
330
806
102
}
330
806
100
AcDbVisualStyle
  2
ColorChange
 70
    16
 71
     2
 72
     2
 73
     3
 90
        0
 40
-0.6
 41
-30.0
 62
     5
 63
     8
 74
     1
 91
        4
 64
     7
 65
   257
 75
     1
175
     1
 42
1.0
 92
        8
 66
     8
 43
1.0
 76
     1
 77
     6
 78
     2
 67
     7
 79
     5
170
     0
171
     0
290
     0
174
     0
 93
        1
 44
0.0
173
     0
291
     1
 45
0.0
1001
ACAD
1000
AcDbSavedByObjectVersion
1070
     0
  0
VISUALSTYLE
  5
80F
102
{ACAD_XDICTIONARY
360
891
102
}
102
{ACAD_REACTORS
330
806
102
}
330
806
100
AcDbVisualStyle
  2
Conceptual
 70
     9
 71
     3
 72
     2
 73
     0
 90
        0
 40
-0.6
 41
-30.0
 62
     5
 63
     7
 74
     2
 91
        2
 64
     7
 65
   257
 75
     1
175
     1
 42
179.0
 92
        8
 66
     7
 43
1.0
 76
     1
 77
     6
 78
     2
 67
     7
 79
     3
170
     0
171
     0
290
     0
174
     0
 93
        1
 44
0.0
173
     0
291
     0
 45
0.0
1001
ACAD
1000
AcDbSavedByObjectVersion
1070
     0
  0
VISUALSTYLE
  5
811
102
{ACAD_XDICTIONARY
360
895
102
}
102
{ACAD_REACTORS
330
806
102
}
330
806
100
AcDbVisualStyle
  2
Dim
 70
    11
 71
     2
 72
     2
 73
     0
 90
        0
 40
-0.6
 41
-30.0
 62
     5
 63
     7
 74
     1
 91
        4
 64
     7
 65
   257
 75
     1
175
     1
 42
1.0
 92
        8
 66
     7
 43
1.0
 76
     1
 77
     6
 78
     2
 67
     7
 79
     5
170
     0
171
     0
290
     0
174
     0
 93
        1
 44
-50.0
173
     0
291
     1
 45
0.0
1001
ACAD
1000
AcDbSavedByObjectVersion
1070
     0
  0
VISUALSTYLE
  5
81E
102
{ACAD_XDICTIONARY
360
8AF
102
}
102
{ACAD_REACTORS
330
806
102
}
330
806
100
AcDbVisualStyle
  2
EdgeColorOff
 70
    22
 71
     2
 72
     2
 73
     0
 90
        0
 40
-0.6
 41
-30.0
 62
     5
 63
     7
 74
     1
 91
        4
 64
     7
 65
   257
 75
     1
175
     1
 42
1.0
 92
        8
 66
     7
 43
1.0
 76
     1
 77
     6
 78
     2
 67
     7
 79
     5
170
     0
171
     0
290
     0
174
     0
 93
        1
 44
0.0
173
     0
291
     1
 45
0.0
1001
ACAD
1000
AcDbSavedByObjectVersion
1070
     0
  0
VISUALSTYLE
  5
815
102
{ACAD_XDICTIONARY
360
89D
102
}
102
{ACAD_REACTORS
330
806
102
}
330
806
100
AcDbVisualStyle
  2
Facepattern
 70
    15
 71
     2
 72
     2
 73
     0
 90
        0
 40
-0.6
 41
-30.0
 62
     5
 63
     7
 74
     1
 91
        4
 64
     7
 65
   257
 75
     1
175
     1
 42
1.0
 92
        8
 66
     7
 43
1.0
 76
     1
 77
     6
 78
     2
 67
     7
 79
     5
170
     0
171
     0
290
     0
174
     0
 93
        1
 44
0.0
173
     0
291
     1
 45
0.0
1001
ACAD
1000
AcDbSavedByObjectVersion
1070
     0
  0
VISUALSTYLE
  5
807
102
{ACAD_XDICTIONARY
360
881
102
}
102
{ACAD_REACTORS
330
806
102
}
330
806
100
AcDbVisualStyle
  2
Flat
 70
     0
 71
     2
 72
     1
 73
     1
 90
        2
 40
-0.6
 41
30.0
 62
     5
 63
     7
 74
     0
 91
        0
 64
     7
 65
   257
 75
     1
175
     1
 42
1.0
 92
        8
 66
     7
 43
1.0
 76
     1
 77
     6
 78
     2
 67
     7
 79
     5
170
     0
171
     0
290
     0
174
     0
 93
       13
 44
0.0
173
     0
291
     1
 45
0.0
1001
ACAD
1000
AcDbSavedByObjectVersion
1070
     0
  0
VISUALSTYLE
  5
808
102
{ACAD_XDICTIONARY
360
883
102
}
102
{ACAD_REACTORS
330
806
102
}
330
806
100
AcDbVisualStyle
  2
FlatWithEdges
 70
     1
 71
     2
 72
     1
 73
     1
 90
        2
 40
-0.6
 41
30.0
 62
     5
 63
     7
 74
     1
 91
        0
 64
     7
 65
   257
 75
     1
175
     1
 42
1.0
 92
        0
 66
   257
 43
1.0
 76
     1
 77
     6
 78
     2
 67
     7
 79
     5
170
     0
171
     0
290
     0
174
     0
 93
       13
 44
0.0
173
     0
291
     1
 45
0.0
1001
ACAD
1000
AcDbSavedByObjectVersion
1070
     0
  0
VISUALSTYLE
  5
809
102
{ACAD_XDICTIONARY
360
885
102
}
102
{ACAD_REACTORS
330
806
102
}
330
806
100
AcDbVisualStyle
  2
Gouraud
 70
     2
 71
     2
 72
     2
 73
     1
 90
        2
 40
-0.6
 41
30.0
 62
     5
 63
     7
 74
     0
 91
        0
 64
     7
 65
   257
 75
     1
175
     1
 42
1.0
 92
        0
 66
     7
 43
1.0
 76
     1
 77
     6
 78
     2
 67
     7
 79
     5
170
     0
171
     0
290
     0
174
     0
 93
       13
 44
0.0
173
     0
291
     1
 45
0.0
1001
ACAD
1000
AcDbSavedByObjectVersion
1070
     0
  0
VISUALSTYLE
  5
80A
102
{ACAD_XDICTIONARY
360
887
102
}
102
{ACAD_REACTORS
330
806
102
}
330
806
100
AcDbVisualStyle
  2
GouraudWithEdges
 70
     3
 71
     2
 72
     2
 73
     1
 90
        2
 40
-0.6
 41
30.0
 62
     5
 63
     7
 74
     1
 91
        0
 64
     7
 65
   257
 75
     1
175
     1
 42
1.0
 92
        0
 66
   257
 43
1.0
 76
     1
 77
     6
 78
     2
 67
     7
 79
     5
170
     0
171
     0
290
     0
174
     0
 93
       13
 44
0.0
173
     0
291
     1
 45
0.0
1001
ACAD
1000
AcDbSavedByObjectVersion
1070
     0
  0
VISUALSTYLE
  5
80E
102
{ACAD_XDICTIONARY
360
88F
102
}
102
{ACAD_REACTORS
330
806
102
}
330
806
100
AcDbVisualStyle
  2
Hidden
 70
     6
 71
     1
 72
     2
 73
     2
 90
        0
 40
-0.6
 41
-30.0
 62
     5
 63
     7
 74
     2
 91
        2
 64
     7
 65
   257
 75
     2
175
     1
 42
40.0
 92
        0
 66
   257
 43
1.0
 76
     1
 77
     6
 78
     2
 67
     7
 79
     3
170
     0
171
     0
290
     0
174
     0
 93
        1
 44
0.0
173
     0
291
     0
 45
0.0
1001
ACAD
1000
AcDbSavedByObjectVersion
1070
     0
  0
VISUALSTYLE
  5
81C
102
{ACAD_XDICTIONARY
360
8AB
102
}
102
{ACAD_REACTORS
330
806
102
}
330
806
100
AcDbVisualStyle
  2
JitterOff
 70
    20
 71
     2
 72
     2
 73
     0
 90
        0
 40
-0.6
 41
-30.0
 62
     5
 63
     7
 74
     1
 91
        4
 64
     7
 65
   257
 75
     1
175
     1
 42
1.0
 92
       10
 66
     7
 43
1.0
 76
     1
 77
     6
 78
     2
 67
     7
 79
     5
170
     0
171
     0
290
     0
174
     0
 93
        1
 44
0.0
173
     0
291
     1
 45
0.0
1001
ACAD
1000
AcDbSavedByObjectVersion
1070
     0
  0
VISUALSTYLE
  5
814
102
{ACAD_XDICTIONARY
360
89B
102
}
102
{ACAD_REACTORS
330
806
102
}
330
806
100
AcDbVisualStyle
  2
Linepattern
 70
    14
 71
     2
 72
     2
 73
     0
 90
        0
 40
-0.6
 41
-30.0
 62
     5
 63
     7
 74
     1
 91
        4
 64
     7
 65
   257
 75
     7
175
     7
 42
1.0
 92
        8
 66
     7
 43
1.0
 76
     1
 77
     6
 78
     2
 67
     7
 79
     5
170
     0
171
     0
290
     0
174
     0
 93
        1
 44
0.0
173
     0
291
     1
 45
0.0
1001
ACAD
1000
AcDbSavedByObjectVersion
1070
     0
  0
VISUALSTYLE
  5
81D
102
{ACAD_XDICTIONARY
360
8AD
102
}
102
{ACAD_REACTORS
330
806
102
}
330
806
100
AcDbVisualStyle
  2
OverhangOff
 70
    21
 71
     2
 72
     2
 73
     0
 90
        0
 40
-0.6
 41
-30.0
 62
     5
 63
     7
 74
     1
 91
        4
 64
     7
 65
   257
 75
     1
175
     1
 42
1.0
 92
        9
 66
     7
 43
1.0
 76
     1
 77
     6
 78
     2
 67
     7
 79
     5
170
     0
171
     0
290
     0
174
     0
 93
        1
 44
0.0
173
     0
291
     1
 45
0.0
1001
ACAD
1000
AcDbSavedByObjectVersion
1070
     0
  0
VISUALSTYLE
  5
810
102
{ACAD_XDICTIONARY
360
893
102
}
102
{ACAD_REACTORS
330
806
102
}
330
806
100
AcDbVisualStyle
  2
Realistic
 70
     8
 71
     2
 72
     3
 73
     0
 90
        2
 40
-0.6
 41
30.0
 62
     5
 63
     7
 74
     0
 91
        0
 64
     7
 65
   257
 75
     1
175
     1
 42
1.0
 92
        8
 66
   257
 43
1.0
 76
     1
 77
     6
 78
     2
 67
     7
 79
     3
170
     0
171
     0
290
     0
174
     0
 93
       13
 44
0.0
173
     0
291
     0
 45
0.0
1001
ACAD
1000
AcDbSavedByObjectVersion
1070
     0
  0
VISUALSTYLE
  5
81B
102
{ACAD_XDICTIONARY
360
8A9
102
}
102
{ACAD_REACTORS
330
806
102
}
330
806
100
AcDbVisualStyle
  2
Shaded
 70
    27
 71
     2
 72
     2
 73
     1
 90
        2
 40
-0.6
 41
30.0
 62
     5
 63
     7
 74
     0
 91
        4
 64
     7
 65
   257
 75
     1
175
     1
 42
1.0
 92
        8
 66
   257
 43
1.0
 76
     1
 77
     6
 78
     2
 67
     8
 79
     3
170
     0
171
     0
290
     0
174
     0
 93
        5
 44
0.0
173
     0
291
     0
 45
0.0
1001
ACAD
1000
AcDbSavedByObjectVersion
1070
     0
  0
VISUALSTYLE
  5
81A
102
{ACAD_XDICTIONARY
360
8A7
102
}
102
{ACAD_REACTORS
330
806
102
}
330
806
100
AcDbVisualStyle
  2
Shaded with edges
 70
    26
 71
     2
 72
     2
 73
     1
 90
        2
 40
-0.6
 41
30.0
 62
     5
 63
     7
 74
     1
 91
       10
 64
     7
 65
   257
 75
     2
175
     1
 42
1.0
 92
        8
 66
   257
 43
1.0
 76
     1
 77
     6
 78
     2
 67
     7
 79
     3
170
     0
171
     0
290
     0
174
     0
 93
        5
 44
0.0
173
     0
291
     0
 45
0.0
1001
ACAD
1000
AcDbSavedByObjectVersion
1070
     0
  0
VISUALSTYLE
  5
817
102
{ACAD_XDICTIONARY
360
8A1
102
}
102
{ACAD_REACTORS
330
806
102
}
330
806
100
AcDbVisualStyle
  2
Shades of Gray
 70
    23
 71
     2
 72
     2
 73
     3
 90
        0
 40
-0.6
 41
-30.0
 62
     5
 63
     7
 74
     2
 91
        2
 64
     7
 65
     7
 75
     1
175
     1
 42
40.0
 92
        8
 66
     7
 43
1.0
 76
     1
 77
     6
 78
     2
 67
     7
 79
     3
170
     0
171
     0
290
     0
174
     0
 93
        1
 44
0.0
173
     0
291
     0
 45
0.0
1001
ACAD
1000
AcDbSavedByObjectVersion
1070
     0
  0
VISUALSTYLE
  5
818
102
{ACAD_XDICTIONARY
360
8A3
102
}
102
{ACAD_REACTORS
330
806
102
}
330
806
100
AcDbVisualStyle
  2
Sketchy
 70
    24
 71
     1
 72
     2
 73
     2
 90
        0
 40
-0.6
 41
-30.0
 62
     5
 63
     7
 74
     2
 91
        2
 64
     7
 65
     7
 75
     1
175
     1
 42
40.0
 92
       11
 66
     7
 43
1.0
 76
     1
 77
     6
 78
     2
 67
     7
 79
     6
170
     0
171
     0
290
     0
174
     0
 93
        1
 44
0.0
173
     0
291
     0
 45
0.0
1001
ACAD
1000
AcDbSavedByObjectVersion
1070
     0
  0
VISUALSTYLE
  5
813
102
{ACAD_XDICTIONARY
360
899
102
}
102
{ACAD_REACTORS
330
806
102
}
330
806
100
AcDbVisualStyle
  2
Thicken
 70
    13
 71
     2
 72
     2
 73
     0
 90
        0
 40
-0.6
 41
-30.0
 62
     5
 63
     7
 74
     1
 91
        4
 64
     7
 65
   257
 75
     1
175
     1
 42
1.0
 92
       12
 66
     7
 43
1.0
 76
     1
 77
     6
 78
     2
 67
     7
 79
     5
170
     0
171
     0
290
     0
174
     0
 93
        1
 44
0.0
173
     0
291
     1
 45
0.0
1001
ACAD
1000
AcDbSavedByObjectVersion
1070
     0
  0
VISUALSTYLE
  5
80D
102
{ACAD_XDICTIONARY
360
88D
102
}
102
{ACAD_REACTORS
330
806
102
}
330
806
100
AcDbVisualStyle
  2
Wireframe
 70
     5
 71
     0
 72
     2
 73
     0
 90
        0
 40
-0.6
 41
-30.0
 62
     5
 63
     7
 74
     1
 91
        4
 64
     7
 65
   257
 75
     1
175
     1
 42
1.0
 92
        0
 66
   257
 43
1.0
 76
     1
 77
     6
 78
     2
 67
     7
 79
     3
170
     0
171
     0
290
     0
174
     0
 93
        1
 44
0.0
173
     0
291
     0
 45
0.0
1001
ACAD
1000
AcDbSavedByObjectVersion
1070
     0
  0
VISUALSTYLE
  5
819
102
{ACAD_XDICTIONARY
360
8A5
102
}
102
{ACAD_REACTORS
330
806
102
}
330
806
100
AcDbVisualStyle
  2
X-Ray
 70
    25
 71
     2
 72
     2
 73
     1
 90
        1
 40
0.5
 41
-30.0
 62
     5
 63
     7
 74
     1
 91
        0
 64
     7
 65
   257
 75
     1
175
     1
 42
1.0
 92
        8
 66
     7
 43
1.0
 76
     1
 77
     6
 78
     2
 67
     7
 79
     3
170
     0
171
     0
290
     0
174
     0
 93
       13
 44
0.0
173
     0
291
     0
 45
0.0
1001
ACAD
1000
AcDbSavedByObjectVersion
1070
     0
  0
DICTIONARYVAR
  5
874
102
{ACAD_REACTORS
330
86F
102
}
330
86F
100
DictionaryVariables
280
     0
  1
1:1
  0
DICTIONARYVAR
  5
871
102
{ACAD_REACTORS
330
86F
102
}
330
86F
100
DictionaryVariables
280
     0
  1
STANDARD
  0
DICTIONARYVAR
  5
870
102
{ACAD_REACTORS
330
86F
102
}
330
86F
100
DictionaryVariables
280
     0
  1
STANDARD
  0
DICTIONARYVAR
  5
872
102
{ACAD_REACTORS
330
86F
102
}
330
86F
100
DictionaryVariables
280
     0
  1
Imperial24
  0
DICTIONARYVAR
  5
873
102
{ACAD_REACTORS
330
86F
102
}
330
86F
100
DictionaryVariables
280
     0
  1
Imperial24
  0
DICTIONARYVAR
  5
877
102
{ACAD_REACTORS
330
86F
102
}
330
86F
100
DictionaryVariables
280
     0
  1
1
  0
DICTIONARYVAR
  5
876
102
{ACAD_REACTORS
330
86F
102
}
330
86F
100
DictionaryVariables
280
     0
  1
0
  0
DICTIONARYVAR
  5
875
102
{ACAD_REACTORS
330
86F
102
}
330
86F
100
DictionaryVariables
280
     0
  1
127
  0
DICTIONARYVAR
  5
878
102
{ACAD_REACTORS
330
86F
102
}
330
86F
100
DictionaryVariables
280
     0
  1
2
  0
DICTIONARY
  5
8B5
330
847
100
AcDbDictionary
280
     1
281
     1
  3
ACAD_XREC_ROUNDTRIP
360
8B6
  0
DICTIONARY
  5
8B9
330
84F
100
AcDbDictionary
280
     1
281
     1
  3
ACAD_XREC_ROUNDTRIP
360
8BA
  0
DICTIONARY
  5
8B7
330
84B
100
AcDbDictionary
280
     1
281
     1
  3
ACAD_XREC_ROUNDTRIP
360
8B8
  0
DICTIONARY
  5
7F7
330
7F6
100
AcDbDictionary
280
     1
281
     1
  3
ACAD_XREC_ROUNDTRIP
360
87F
  3
BUMPTILE
360
7F9
  3
DIFFUSETILE
360
7F8
  3
OPACITYTILE
360
7FC
  3
REFLECTIONTILE
360
7FB
  3
REFRACTIONTILE
360
7FD
  3
SPECULARTILE
360
7FA
  0
DICTIONARY
  5
7EF
330
7EE
100
AcDbDictionary
280
     1
281
     1
  3
ACAD_XREC_ROUNDTRIP
360
87E
  3
BUMPTILE
360
7F1
  3
DIFFUSETILE
360
7F0
  3
OPACITYTILE
360
7F4
  3
REFLECTIONTILE
360
7F3
  3
REFRACTIONTILE
360
7F5
  3
SPECULARTILE
360
7F2
  0
DICTIONARY
  5
7FF
330
7FE
100
AcDbDictionary
280
     1
281
     1
  3
ACAD_XREC_ROUNDTRIP
360
880
  3
BUMPTILE
360
801
  3
DIFFUSETILE
360
800
  3
OPACITYTILE
360
804
  3
REFLECTIONTILE
360
803
  3
REFRACTIONTILE
360
805
  3
SPECULARTILE
360
802
  0
DICTIONARY
  5
8B3
330
845
100
AcDbDictionary
280
     1
281
     1
  3
ACAD_XREC_ROUNDTRIP
360
8B4
  0
DICTIONARY
  5
87A
330
841
100
AcDbDictionary
280
     1
281
     1
  3
ACAD_ROUNDTRIP_2008_TABLESTYLE_CELLSTYLEMAP
360
87B
  3
ACAD_XREC_ROUNDTRIP
360
8B1
  0
DICTIONARY
  5
88B
330
80C
100
AcDbDictionary
280
     1
281
     1
  3
ACAD_XREC_ROUNDTRIP
360
88C
  0
DICTIONARY
  5
889
330
80B
100
AcDbDictionary
280
     1
281
     1
  3
ACAD_XREC_ROUNDTRIP
360
88A
  0
DICTIONARY
  5
897
330
812
100
AcDbDictionary
280
     1
281
     1
  3
ACAD_XREC_ROUNDTRIP
360
898
  0
DICTIONARY
  5
89F
330
816
100
AcDbDictionary
280
     1
281
     1
  3
ACAD_XREC_ROUNDTRIP
360
8A0
  0
DICTIONARY
  5
891
330
80F
100
AcDbDictionary
280
     1
281
     1
  3
ACAD_XREC_ROUNDTRIP
360
892
  0
DICTIONARY
  5
895
330
811
100
AcDbDictionary
280
     1
281
     1
  3
ACAD_XREC_ROUNDTRIP
360
896
  0
DICTIONARY
  5
8AF
330
81E
100
AcDbDictionary
280
     1
281
     1
  3
ACAD_XREC_ROUNDTRIP
360
8B0
  0
DICTIONARY
  5
89D
330
815
100
AcDbDictionary
280
     1
281
     1
  3
ACAD_XREC_ROUNDTRIP
360
89E
  0
DICTIONARY
  5
881
330
807
100
AcDbDictionary
280
     1
281
     1
  3
ACAD_XREC_ROUNDTRIP
360
882
  0
DICTIONARY
  5
883
330
808
100
AcDbDictionary
280
     1
281
     1
  3
ACAD_XREC_ROUNDTRIP
360
884
  0
DICTIONARY
  5
885
330
809
100
AcDbDictionary
280
     1
281
     1
  3
ACAD_XREC_ROUNDTRIP
360
886
  0
DICTIONARY
  5
887
330
80A
100
AcDbDictionary
280
     1
281
     1
  3
ACAD_XREC_ROUNDTRIP
360
888
  0
DICTIONARY
  5
88F
330
80E
100
AcDbDictionary
280
     1
281
     1
  3
ACAD_XREC_ROUNDTRIP
360
890
  0
DICTIONARY
  5
8AB
330
81C
100
AcDbDictionary
280
     1
281
     1
  3
ACAD_XREC_ROUNDTRIP
360
8AC
  0
DICTIONARY
  5
89B
330
814
100
AcDbDictionary
280
     1
281
     1
  3
ACAD_XREC_ROUNDTRIP
360
89C
  0
DICTIONARY
  5
8AD
330
81D
100
AcDbDictionary
280
     1
281
     1
  3
ACAD_XREC_ROUNDTRIP
360
8AE
  0
DICTIONARY
  5
893
330
810
100
AcDbDictionary
280
     1
281
     1
  3
ACAD_XREC_ROUNDTRIP
360
894
  0
DICTIONARY
  5
8A9
330
81B
100
AcDbDictionary
280
     1
281
     1
  3
ACAD_XREC_ROUNDTRIP
360
8AA
  0
DICTIONARY
  5
8A7
330
81A
100
AcDbDictionary
280
     1
281
     1
  3
ACAD_XREC_ROUNDTRIP
360
8A8
  0
DICTIONARY
  5
8A1
330
817
100
AcDbDictionary
280
     1
281
     1
  3
ACAD_XREC_ROUNDTRIP
360
8A2
  0
DICTIONARY
  5
8A3
330
818
100
AcDbDictionary
280
     1
281
     1
  3
ACAD_XREC_ROUNDTRIP
360
8A4
  0
DICTIONARY
  5
899
330
813
100
AcDbDictionary
280
     1
281
     1
  3
ACAD_XREC_ROUNDTRIP
360
89A
  0
DICTIONARY
  5
88D
330
80D
100
AcDbDictionary
280
     1
281
     1
  3
ACAD_XREC_ROUNDTRIP
360
88E
  0
DICTIONARY
  5
8A5
330
819
100
AcDbDictionary
280
     1
281
     1
  3
ACAD_XREC_ROUNDTRIP
360
8A6
  0
XRECORD
  5
8B6
102
{ACAD_REACTORS
330
8B5
102
}
330
8B5
100
AcDbXrecord
280
     1
102
DISPLAYNAME
  1
Imperial24
102
FLAGS
 90
        0
  0
XRECORD
  5
8BA
102
{ACAD_REACTORS
330
8B9
102
}
330
8B9
100
AcDbXrecord
280
     1
102
SHADEPLOT
 70
     0
102
SHADEPLOTRESLEVEL
 70
     2
102
SHADEPLOTCUSTOMDPI
 70
   300
  0
XRECORD
  5
8B8
102
{ACAD_REACTORS
330
8B7
102
}
330
8B7
100
AcDbXrecord
280
     1
102
SHADEPLOT
 70
     0
102
SHADEPLOTRESLEVEL
 70
     2
102
SHADEPLOTCUSTOMDPI
 70
   300
  0
XRECORD
  5
87F
102
{ACAD_REACTORS
330
7F7
102
}
330
7F7
100
AcDbXrecord
280
     1
102
MATERIAL
148
0.0
149
0.0
149
0.0
 93
        0
 94
      127
282
     0
 72
     0
 77
     0
171
     0
175
     0
179
     0
273
     0
  0
XRECORD
  5
7F9
102
{ACAD_REACTORS
330
7F7
102
}
330
7F7
100
AcDbXrecord
280
     1
270
     1
271
     1
  0
XRECORD
  5
7F8
102
{ACAD_REACTORS
330
7F7
102
}
330
7F7
100
AcDbXrecord
280
     1
270
     1
271
     1
  0
XRECORD
  5
7FC
102
{ACAD_REACTORS
330
7F7
102
}
330
7F7
100
AcDbXrecord
280
     1
270
     1
271
     1
  0
XRECORD
  5
7FB
102
{ACAD_REACTORS
330
7F7
102
}
330
7F7
100
AcDbXrecord
280
     1
270
     1
271
     1
  0
XRECORD
  5
7FD
102
{ACAD_REACTORS
330
7F7
102
}
330
7F7
100
AcDbXrecord
280
     1
270
     1
271
     1
  0
XRECORD
  5
7FA
102
{ACAD_REACTORS
330
7F7
102
}
330
7F7
100
AcDbXrecord
280
     1
270
     1
271
     1
  0
XRECORD
  5
87E
102
{ACAD_REACTORS
330
7EF
102
}
330
7EF
100
AcDbXrecord
280
     1
102
MATERIAL
148
0.0
149
0.0
149
0.0
 93
        0
 94
      127
282
     0
 72
     0
 77
     0
171
     0
175
     0
179
     0
273
     0
  0
XRECORD
  5
7F1
102
{ACAD_REACTORS
330
7EF
102
}
330
7EF
100
AcDbXrecord
280
     1
270
     1
271
     1
  0
XRECORD
  5
7F0
102
{ACAD_REACTORS
330
7EF
102
}
330
7EF
100
AcDbXrecord
280
     1
270
     1
271
     1
  0
XRECORD
  5
7F4
102
{ACAD_REACTORS
330
7EF
102
}
330
7EF
100
AcDbXrecord
280
     1
270
     1
271
     1
  0
XRECORD
  5
7F3
102
{ACAD_REACTORS
330
7EF
102
}
330
7EF
100
AcDbXrecord
280
     1
270
     1
271
     1
  0
XRECORD
  5
7F5
102
{ACAD_REACTORS
330
7EF
102
}
330
7EF
100
AcDbXrecord
280
     1
270
     1
271
     1
  0
XRECORD
  5
7F2
102
{ACAD_REACTORS
330
7EF
102
}
330
7EF
100
AcDbXrecord
280
     1
270
     1
271
     1
  0
XRECORD
  5
880
102
{ACAD_REACTORS
330
7FF
102
}
330
7FF
100
AcDbXrecord
280
     1
102
MATERIAL
148
0.0
149
0.0
149
0.0
 93
        0
 94
      127
282
     0
 72
     0
 77
     0
171
     0
175
     0
179
     0
273
     0
  0
XRECORD
  5
801
102
{ACAD_REACTORS
330
7FF
102
}
330
7FF
100
AcDbXrecord
280
     1
270
     1
271
     1
  0
XRECORD
  5
800
102
{ACAD_REACTORS
330
7FF
102
}
330
7FF
100
AcDbXrecord
280
     1
270
     1
271
     1
  0
XRECORD
  5
804
102
{ACAD_REACTORS
330
7FF
102
}
330
7FF
100
AcDbXrecord
280
     1
270
     1
271
     1
  0
XRECORD
  5
803
102
{ACAD_REACTORS
330
7FF
102
}
330
7FF
100
AcDbXrecord
280
     1
270
     1
271
     1
  0
XRECORD
  5
805
102
{ACAD_REACTORS
330
7FF
102
}
330
7FF
100
AcDbXrecord
280
     1
270
     1
271
     1
  0
XRECORD
  5
802
102
{ACAD_REACTORS
330
7FF
102
}
330
7FF
100
AcDbXrecord
280
     1
270
     1
271
     1
  0
XRECORD
  5
8B4
102
{ACAD_REACTORS
330
8B3
102
}
330
8B3
100
AcDbXrecord
280
     1
102
DISPLAYNAME
  1
Imperial24
102
FLAGS
 90
        0
  0
CELLSTYLEMAP
  5
87B
102
{ACAD_REACTORS
330
87A
102
}
330
87A
100
AcDbCellStyleMap
 90
        3
300
CELLSTYLE
  1
TABLEFORMAT_BEGIN
 90
        5
170
     1
 91
        0
 92
    32768
 62
   257
 93
        1
300
CONTENTFORMAT
  1
CONTENTFORMAT_BEGIN
 90
        0
 91
        0
 92
      512
 93
        0
300

 40
0.0
140
1.0
 94
        5
 62
     0
340
832
144
0.25
309
CONTENTFORMAT_END
171
     0
 94
        0
309
TABLEFORMAT_END
  1
CELLSTYLE_BEGIN
 90
        1
 91
        1
300
_TITLE
309
CELLSTYLE_END
300
CELLSTYLE
  1
TABLEFORMAT_BEGIN
 90
        5
170
     1
 91
        0
 92
        0
 62
   257
 93
        1
300
CONTENTFORMAT
  1
CONTENTFORMAT_BEGIN
 90
        0
 91
        0
 92
      512
 93
        0
300

 40
0.0
140
1.0
 94
        5
 62
     0
340
832
144
0.18
309
CONTENTFORMAT_END
171
     0
 94
        0
309
TABLEFORMAT_END
  1
CELLSTYLE_BEGIN
 90
        2
 91
        1
300
_HEADER
309
CELLSTYLE_END
300
CELLSTYLE
  1
TABLEFORMAT_BEGIN
 90
        5
170
     1
 91
        0
 92
        0
 62
   257
 93
        1
300
CONTENTFORMAT
  1
CONTENTFORMAT_BEGIN
 90
        0
 91
        0
 92
      512
 93
        0
300

 40
0.0
140
1.0
 94
        2
 62
     0
340
832
144
0.18
309
CONTENTFORMAT_END
171
     0
 94
        0
309
TABLEFORMAT_END
  1
CELLSTYLE_BEGIN
 90
        3
 91
        2
300
_DATA
309
CELLSTYLE_END
  0
XRECORD
  5
8B1
102
{ACAD_REACTORS
330
87A
102
}
330
87A
100
AcDbXrecord
280
     1
102
ACAD_ROUNDTRIP_PRE2007_TABLESTYLE
 90
      512
 91
        0
  1

 92
      512
 93
        0
  2

 94
      512
 95
        0
  3

  0
XRECORD
  5
88C
102
{ACAD_REACTORS
330
88B
102
}
330
88B
100
AcDbXrecord
280
     1
102
RTVSPost2010Prop28
280
     1
102
RTVSPost2010PropOp28
 70
     1
102
RTVSPost2010Prop29
280
     1
102
RTVSPost2010PropOp29
 70
     1
102
RTVSPost2010Prop30
280
     0
102
RTVSPost2010PropOp30
 70
     1
102
RTVSPost2010Prop31
280
     0
102
RTVSPost2010PropOp31
 70
     1
102
RTVSPost2010Prop32
280
     0
102
RTVSPost2010PropOp32
 70
     1
102
RTVSPost2010Prop33
280
     0
102
RTVSPost2010PropOp33
 70
     1
102
RTVSPost2010Prop34
280
     0
102
RTVSPost2010PropOp34
 70
     1
102
RTVSPost2010Prop35
280
     0
102
RTVSPost2010PropOp35
 70
     1
102
RTVSPost2010Prop36
280
     0
102
RTVSPost2010PropOp36
 70
     1
102
RTVSPost2010Prop37
 90
       50
102
RTVSPost2010PropOp37
 70
     1
102
RTVSPost2010Prop38
140
0.0
102
RTVSPost2010PropOp38
 70
     1
102
RTVSPost2010Prop39
140
1.0
102
RTVSPost2010PropOp39
 70
     1
102
RTVSPost2010Prop40
 90
        0
102
RTVSPost2010PropOp40
 70
     1
102
RTVSPost2010Prop41ColorIndex
 90
       18
102
RTVSPost2010Prop41ColorRGB
 90
        0
102
RTVSPost2010PropOp41
 70
     1
102
RTVSPost2010Prop42
 90
       50
102
RTVSPost2010PropOp42
 70
     1
102
RTVSPost2010Prop43
 90
        3
102
RTVSPost2010PropOp43
 70
     1
102
RTVSPost2010Prop44ColorIndex
 90
        5
102
RTVSPost2010Prop44ColorRGB
 90
      255
102
RTVSPost2010PropOp44
 70
     1
102
RTVSPost2010Prop45
280
     0
102
RTVSPost2010PropOp45
 70
     1
102
RTVSPost2010Prop46
 90
       50
102
RTVSPost2010PropOp46
 70
     1
102
RTVSPost2010Prop47
 90
       50
102
RTVSPost2010PropOp47
 70
     1
102
RTVSPost2010Prop48
 90
       50
102
RTVSPost2010PropOp48
 70
     1
102
RTVSPost2010Prop49
280
     0
102
RTVSPost2010PropOp49
 70
     1
102
RTVSPost2010Prop50
 90
       50
102
RTVSPost2010PropOp50
 70
     1
102
RTVSPost2010Prop51ColorIndex
 90
      256
102
RTVSPost2010Prop51ColorRGB
 90
-16777216
102
RTVSPost2010PropOp51
 70
     0
102
RTVSPost2010Prop52
140
1.0
102
RTVSPost2010PropOp52
 70
     0
102
RTVSPost2010Prop53
 90
        2
102
RTVSPost2010PropOp53
 70
     1
102
RTVSPost2010Prop54
  1
strokes_ogs.tif
102
RTVSPost2010PropOp54
 70
     1
102
RTVSPost2010Prop55
280
     0
102
RTVSPost2010PropOp55
 70
     1
102
RTVSPost2010Prop56
140
1.0
102
RTVSPost2010PropOp56
 70
     1
102
RTVSPost2010Prop57
140
1.0
102
RTVSPost2010PropOp57
 70
     1
102
RTVSPropertyOp0
 70
     1
102
RTVSPropertyOp1
 70
     1
102
RTVSPropertyOp2
 70
     1
102
RTVSPropertyOp3
 70
     1
102
RTVSPropertyOp4
 70
     1
102
RTVSPropertyOp5
 70
     1
102
RTVSPropertyOp6
 70
     1
102
RTVSPropertyOp7
 70
     1
102
RTVSPropertyOp8
 70
     1
102
RTVSPropertyOp9
 70
     1
102
RTVSPropertyOp10
 70
     1
102
RTVSPropertyOp11
 70
     1
102
RTVSPropertyOp12
 70
     1
102
RTVSPropertyOp13
 70
     1
102
RTVSPropertyOp14
 70
     1
102
RTVSPropertyOp15
 70
     1
102
RTVSPropertyOp16
 70
     1
102
RTVSPropertyOp17
 70
     1
102
RTVSPropertyOp18
 70
     1
102
RTVSPropertyOp19
 70
     1
102
RTVSPropertyOp20
 70
     1
102
RTVSPropertyOp21
 70
     1
102
RTVSPropertyOp22
 70
     1
102
RTVSPropertyOp23
 70
     1
102
RTVSPropertyOp24
 70
     1
102
RTVSPropertyOp25
 70
     1
102
RTVSPropertyOp26
 70
     1
102
RTVSPropertyOp27
 70
     1
102
RTVSPropertyOp28
 70
     1
102
RTVSPropertyOp29
 70
     1
102
RTVSPropertyOp30
 70
     1
102
RTVSPropertyOp31
 70
     1
102
RTVSPropertyOp32
 70
     1
102
RTVSPropertyOp33
 70
     1
102
RTVSPropertyOp34
 70
     1
102
RTVSPropertyOp35
 70
     1
102
RTVSPropertyOp36
 70
     1
102
RTVSPropertyOp37
 70
     1
102
RTVSPropertyOp38
 70
     1
102
RTVSPropertyOp39
 70
     1
102
RTVSPropertyOp40
 70
     1
102
RTVSPropertyOp41
 70
     1
102
RTVSPropertyOp42
 70
     1
102
RTVSPropertyOp43
 70
     1
102
RTVSPropertyOp44
 70
     1
102
RTVSPropertyOp45
 70
     1
102
RTVSPropertyOp46
 70
     1
102
RTVSPropertyOp47
 70
     1
102
RTVSPropertyOp48
 70
     1
102
RTVSPropertyOp49
 70
     1
102
RTVSPropertyOp50
 70
     1
102
RTVSPropertyOp51
 70
     0
102
RTVSPropertyOp52
 70
     0
102
RTVSPropertyOp53
 70
     1
102
RTVSPropertyOp54
 70
     1
102
RTVSPropertyOp55
 70
     1
102
RTVSPropertyOp56
 70
     1
102
RTVSPropertyOp57
 70
     1
102
RTVSPropertyOp58
 70
     1
102
RTVSPropertyOp59
 70
     1
102
RTVSPropertyOp60
 70
     1
102
RTVSPropertyOp61
 70
     1
102
RTVSPropertyOp62
 70
     1
  0
XRECORD
  5
88A
102
{ACAD_REACTORS
330
889
102
}
330
889
100
AcDbXrecord
280
     1
102
RTVSPost2010Prop28
280
     0
102
RTVSPost2010PropOp28
 70
     1
102
RTVSPost2010Prop29
280
     1
102
RTVSPost2010PropOp29
 70
     1
102
RTVSPost2010Prop30
280
     1
102
RTVSPost2010PropOp30
 70
     1
102
RTVSPost2010Prop31
280
     0
102
RTVSPost2010PropOp31
 70
     1
102
RTVSPost2010Prop32
280
     0
102
RTVSPost2010PropOp32
 70
     1
102
RTVSPost2010Prop33
280
     0
102
RTVSPost2010PropOp33
 70
     1
102
RTVSPost2010Prop34
280
     0
102
RTVSPost2010PropOp34
 70
     1
102
RTVSPost2010Prop35
280
     0
102
RTVSPost2010PropOp35
 70
     1
102
RTVSPost2010Prop36
280
     0
102
RTVSPost2010PropOp36
 70
     1
102
RTVSPost2010Prop37
 90
       50
102
RTVSPost2010PropOp37
 70
     1
102
RTVSPost2010Prop38
140
0.0
102
RTVSPost2010PropOp38
 70
     1
102
RTVSPost2010Prop39
140
1.0
102
RTVSPost2010PropOp39
 70
     1
102
RTVSPost2010Prop40
 90
        0
102
RTVSPost2010PropOp40
 70
     1
102
RTVSPost2010Prop41ColorIndex
 90
       18
102
RTVSPost2010Prop41ColorRGB
 90
        0
102
RTVSPost2010PropOp41
 70
     1
102
RTVSPost2010Prop42
 90
       50
102
RTVSPost2010PropOp42
 70
     1
102
RTVSPost2010Prop43
 90
        3
102
RTVSPost2010PropOp43
 70
     1
102
RTVSPost2010Prop44ColorIndex
 90
        5
102
RTVSPost2010Prop44ColorRGB
 90
      255
102
RTVSPost2010PropOp44
 70
     1
102
RTVSPost2010Prop45
280
     0
102
RTVSPost2010PropOp45
 70
     1
102
RTVSPost2010Prop46
 90
       50
102
RTVSPost2010PropOp46
 70
     1
102
RTVSPost2010Prop47
 90
       50
102
RTVSPost2010PropOp47
 70
     1
102
RTVSPost2010Prop48
 90
       50
102
RTVSPost2010PropOp48
 70
     1
102
RTVSPost2010Prop49
280
     0
102
RTVSPost2010PropOp49
 70
     1
102
RTVSPost2010Prop50
 90
       50
102
RTVSPost2010PropOp50
 70
     1
102
RTVSPost2010Prop51ColorIndex
 90
      256
102
RTVSPost2010Prop51ColorRGB
 90
-16777216
102
RTVSPost2010PropOp51
 70
     0
102
RTVSPost2010Prop52
140
1.0
102
RTVSPost2010PropOp52
 70
     0
102
RTVSPost2010Prop53
 90
        2
102
RTVSPost2010PropOp53
 70
     1
102
RTVSPost2010Prop54
  1
strokes_ogs.tif
102
RTVSPost2010PropOp54
 70
     1
102
RTVSPost2010Prop55
280
     0
102
RTVSPost2010PropOp55
 70
     1
102
RTVSPost2010Prop56
140
1.0
102
RTVSPost2010PropOp56
 70
     1
102
RTVSPost2010Prop57
140
1.0
102
RTVSPost2010PropOp57
 70
     1
102
RTVSPropertyOp0
 70
     1
102
RTVSPropertyOp1
 70
     1
102
RTVSPropertyOp2
 70
     1
102
RTVSPropertyOp3
 70
     1
102
RTVSPropertyOp4
 70
     1
102
RTVSPropertyOp5
 70
     1
102
RTVSPropertyOp6
 70
     1
102
RTVSPropertyOp7
 70
     1
102
RTVSPropertyOp8
 70
     1
102
RTVSPropertyOp9
 70
     1
102
RTVSPropertyOp10
 70
     1
102
RTVSPropertyOp11
 70
     1
102
RTVSPropertyOp12
 70
     1
102
RTVSPropertyOp13
 70
     1
102
RTVSPropertyOp14
 70
     1
102
RTVSPropertyOp15
 70
     1
102
RTVSPropertyOp16
 70
     1
102
RTVSPropertyOp17
 70
     1
102
RTVSPropertyOp18
 70
     1
102
RTVSPropertyOp19
 70
     1
102
RTVSPropertyOp20
 70
     1
102
RTVSPropertyOp21
 70
     1
102
RTVSPropertyOp22
 70
     1
102
RTVSPropertyOp23
 70
     1
102
RTVSPropertyOp24
 70
     1
102
RTVSPropertyOp25
 70
     1
102
RTVSPropertyOp26
 70
     1
102
RTVSPropertyOp27
 70
     1
102
RTVSPropertyOp28
 70
     1
102
RTVSPropertyOp29
 70
     1
102
RTVSPropertyOp30
 70
     1
102
RTVSPropertyOp31
 70
     1
102
RTVSPropertyOp32
 70
     1
102
RTVSPropertyOp33
 70
     1
102
RTVSPropertyOp34
 70
     1
102
RTVSPropertyOp35
 70
     1
102
RTVSPropertyOp36
 70
     1
102
RTVSPropertyOp37
 70
     1
102
RTVSPropertyOp38
 70
     1
102
RTVSPropertyOp39
 70
     1
102
RTVSPropertyOp40
 70
     1
102
RTVSPropertyOp41
 70
     1
102
RTVSPropertyOp42
 70
     1
102
RTVSPropertyOp43
 70
     1
102
RTVSPropertyOp44
 70
     1
102
RTVSPropertyOp45
 70
     1
102
RTVSPropertyOp46
 70
     1
102
RTVSPropertyOp47
 70
     1
102
RTVSPropertyOp48
 70
     1
102
RTVSPropertyOp49
 70
     1
102
RTVSPropertyOp50
 70
     1
102
RTVSPropertyOp51
 70
     0
102
RTVSPropertyOp52
 70
     0
102
RTVSPropertyOp53
 70
     1
102
RTVSPropertyOp54
 70
     1
102
RTVSPropertyOp55
 70
     1
102
RTVSPropertyOp56
 70
     1
102
RTVSPropertyOp57
 70
     1
102
RTVSPropertyOp58
 70
     1
102
RTVSPropertyOp59
 70
     1
102
RTVSPropertyOp60
 70
     1
102
RTVSPropertyOp61
 70
     1
102
RTVSPropertyOp62
 70
     1
  0
XRECORD
  5
898
102
{ACAD_REACTORS
330
897
102
}
330
897
100
AcDbXrecord
280
     1
102
RTVSPost2010Prop28
280
     0
102
RTVSPost2010PropOp28
 70
     1
102
RTVSPost2010Prop29
280
     1
102
RTVSPost2010PropOp29
 70
     1
102
RTVSPost2010Prop30
280
     1
102
RTVSPost2010PropOp30
 70
     1
102
RTVSPost2010Prop31
280
     0
102
RTVSPost2010PropOp31
 70
     1
102
RTVSPost2010Prop32
280
     0
102
RTVSPost2010PropOp32
 70
     1
102
RTVSPost2010Prop33
280
     0
102
RTVSPost2010PropOp33
 70
     1
102
RTVSPost2010Prop34
280
     0
102
RTVSPost2010PropOp34
 70
     1
102
RTVSPost2010Prop35
280
     0
102
RTVSPost2010PropOp35
 70
     1
102
RTVSPost2010Prop36
280
     0
102
RTVSPost2010PropOp36
 70
     1
102
RTVSPost2010Prop37
 90
       50
102
RTVSPost2010PropOp37
 70
     1
102
RTVSPost2010Prop38
140
0.0
102
RTVSPost2010PropOp38
 70
     1
102
RTVSPost2010Prop39
140
1.0
102
RTVSPost2010PropOp39
 70
     1
102
RTVSPost2010Prop40
 90
        0
102
RTVSPost2010PropOp40
 70
     1
102
RTVSPost2010Prop41ColorIndex
 90
       18
102
RTVSPost2010Prop41ColorRGB
 90
        0
102
RTVSPost2010PropOp41
 70
     1
102
RTVSPost2010Prop42
 90
       50
102
RTVSPost2010PropOp42
 70
     1
102
RTVSPost2010Prop43
 90
        3
102
RTVSPost2010PropOp43
 70
     1
102
RTVSPost2010Prop44ColorIndex
 90
        5
102
RTVSPost2010Prop44ColorRGB
 90
      255
102
RTVSPost2010PropOp44
 70
     1
102
RTVSPost2010Prop45
280
     0
102
RTVSPost2010PropOp45
 70
     1
102
RTVSPost2010Prop46
 90
       50
102
RTVSPost2010PropOp46
 70
     1
102
RTVSPost2010Prop47
 90
       50
102
RTVSPost2010PropOp47
 70
     1
102
RTVSPost2010Prop48
 90
       50
102
RTVSPost2010PropOp48
 70
     1
102
RTVSPost2010Prop49
280
     0
102
RTVSPost2010PropOp49
 70
     1
102
RTVSPost2010Prop50
 90
       50
102
RTVSPost2010PropOp50
 70
     1
102
RTVSPost2010Prop51ColorIndex
 90
      256
102
RTVSPost2010Prop51ColorRGB
 90
-16777216
102
RTVSPost2010PropOp51
 70
     0
102
RTVSPost2010Prop52
140
1.0
102
RTVSPost2010PropOp52
 70
     0
102
RTVSPost2010Prop53
 90
        2
102
RTVSPost2010PropOp53
 70
     1
102
RTVSPost2010Prop54
  1
strokes_ogs.tif
102
RTVSPost2010PropOp54
 70
     1
102
RTVSPost2010Prop55
280
     0
102
RTVSPost2010PropOp55
 70
     1
102
RTVSPost2010Prop56
140
1.0
102
RTVSPost2010PropOp56
 70
     1
102
RTVSPost2010Prop57
140
1.0
102
RTVSPost2010PropOp57
 70
     1
102
RTVSPropertyOp0
 70
     1
102
RTVSPropertyOp1
 70
     1
102
RTVSPropertyOp2
 70
     1
102
RTVSPropertyOp3
 70
     1
102
RTVSPropertyOp4
 70
     1
102
RTVSPropertyOp5
 70
     1
102
RTVSPropertyOp6
 70
     1
102
RTVSPropertyOp7
 70
     1
102
RTVSPropertyOp8
 70
     1
102
RTVSPropertyOp9
 70
     1
102
RTVSPropertyOp10
 70
     1
102
RTVSPropertyOp11
 70
     1
102
RTVSPropertyOp12
 70
     1
102
RTVSPropertyOp13
 70
     1
102
RTVSPropertyOp14
 70
     1
102
RTVSPropertyOp15
 70
     1
102
RTVSPropertyOp16
 70
     1
102
RTVSPropertyOp17
 70
     1
102
RTVSPropertyOp18
 70
     1
102
RTVSPropertyOp19
 70
     1
102
RTVSPropertyOp20
 70
     1
102
RTVSPropertyOp21
 70
     1
102
RTVSPropertyOp22
 70
     1
102
RTVSPropertyOp23
 70
     1
102
RTVSPropertyOp24
 70
     1
102
RTVSPropertyOp25
 70
     1
102
RTVSPropertyOp26
 70
     1
102
RTVSPropertyOp27
 70
     1
102
RTVSPropertyOp28
 70
     1
102
RTVSPropertyOp29
 70
     1
102
RTVSPropertyOp30
 70
     1
102
RTVSPropertyOp31
 70
     1
102
RTVSPropertyOp32
 70
     1
102
RTVSPropertyOp33
 70
     1
102
RTVSPropertyOp34
 70
     1
102
RTVSPropertyOp35
 70
     1
102
RTVSPropertyOp36
 70
     1
102
RTVSPropertyOp37
 70
     1
102
RTVSPropertyOp38
 70
     1
102
RTVSPropertyOp39
 70
     1
102
RTVSPropertyOp40
 70
     1
102
RTVSPropertyOp41
 70
     1
102
RTVSPropertyOp42
 70
     1
102
RTVSPropertyOp43
 70
     1
102
RTVSPropertyOp44
 70
     1
102
RTVSPropertyOp45
 70
     1
102
RTVSPropertyOp46
 70
     1
102
RTVSPropertyOp47
 70
     1
102
RTVSPropertyOp48
 70
     1
102
RTVSPropertyOp49
 70
     1
102
RTVSPropertyOp50
 70
     1
102
RTVSPropertyOp51
 70
     0
102
RTVSPropertyOp52
 70
     0
102
RTVSPropertyOp53
 70
     1
102
RTVSPropertyOp54
 70
     1
102
RTVSPropertyOp55
 70
     1
102
RTVSPropertyOp56
 70
     1
102
RTVSPropertyOp57
 70
     1
102
RTVSPropertyOp58
 70
     1
102
RTVSPropertyOp59
 70
     1
102
RTVSPropertyOp60
 70
     1
102
RTVSPropertyOp61
 70
     1
102
RTVSPropertyOp62
 70
     1
  0
XRECORD
  5
8A0
102
{ACAD_REACTORS
330
89F
102
}
330
89F
100
AcDbXrecord
280
     1
102
RTVSPost2010Prop28
280
     0
102
RTVSPost2010PropOp28
 70
     1
102
RTVSPost2010Prop29
280
     1
102
RTVSPost2010PropOp29
 70
     1
102
RTVSPost2010Prop30
280
     1
102
RTVSPost2010PropOp30
 70
     1
102
RTVSPost2010Prop31
280
     0
102
RTVSPost2010PropOp31
 70
     1
102
RTVSPost2010Prop32
280
     0
102
RTVSPost2010PropOp32
 70
     1
102
RTVSPost2010Prop33
280
     0
102
RTVSPost2010PropOp33
 70
     1
102
RTVSPost2010Prop34
280
     0
102
RTVSPost2010PropOp34
 70
     1
102
RTVSPost2010Prop35
280
     0
102
RTVSPost2010PropOp35
 70
     1
102
RTVSPost2010Prop36
280
     0
102
RTVSPost2010PropOp36
 70
     1
102
RTVSPost2010Prop37
 90
       50
102
RTVSPost2010PropOp37
 70
     1
102
RTVSPost2010Prop38
140
0.0
102
RTVSPost2010PropOp38
 70
     1
102
RTVSPost2010Prop39
140
1.0
102
RTVSPost2010PropOp39
 70
     1
102
RTVSPost2010Prop40
 90
        0
102
RTVSPost2010PropOp40
 70
     1
102
RTVSPost2010Prop41ColorIndex
 90
       18
102
RTVSPost2010Prop41ColorRGB
 90
        0
102
RTVSPost2010PropOp41
 70
     1
102
RTVSPost2010Prop42
 90
       50
102
RTVSPost2010PropOp42
 70
     1
102
RTVSPost2010Prop43
 90
        3
102
RTVSPost2010PropOp43
 70
     1
102
RTVSPost2010Prop44ColorIndex
 90
        5
102
RTVSPost2010Prop44ColorRGB
 90
      255
102
RTVSPost2010PropOp44
 70
     1
102
RTVSPost2010Prop45
280
     0
102
RTVSPost2010PropOp45
 70
     1
102
RTVSPost2010Prop46
 90
       50
102
RTVSPost2010PropOp46
 70
     1
102
RTVSPost2010Prop47
 90
       50
102
RTVSPost2010PropOp47
 70
     1
102
RTVSPost2010Prop48
 90
       50
102
RTVSPost2010PropOp48
 70
     1
102
RTVSPost2010Prop49
280
     0
102
RTVSPost2010PropOp49
 70
     1
102
RTVSPost2010Prop50
 90
       50
102
RTVSPost2010PropOp50
 70
     1
102
RTVSPost2010Prop51ColorIndex
 90
      256
102
RTVSPost2010Prop51ColorRGB
 90
-16777216
102
RTVSPost2010PropOp51
 70
     0
102
RTVSPost2010Prop52
140
1.0
102
RTVSPost2010PropOp52
 70
     0
102
RTVSPost2010Prop53
 90
        2
102
RTVSPost2010PropOp53
 70
     1
102
RTVSPost2010Prop54
  1
strokes_ogs.tif
102
RTVSPost2010PropOp54
 70
     1
102
RTVSPost2010Prop55
280
     0
102
RTVSPost2010PropOp55
 70
     1
102
RTVSPost2010Prop56
140
1.0
102
RTVSPost2010PropOp56
 70
     1
102
RTVSPost2010Prop57
140
1.0
102
RTVSPost2010PropOp57
 70
     1
102
RTVSPropertyOp0
 70
     1
102
RTVSPropertyOp1
 70
     1
102
RTVSPropertyOp2
 70
     1
102
RTVSPropertyOp3
 70
     1
102
RTVSPropertyOp4
 70
     1
102
RTVSPropertyOp5
 70
     1
102
RTVSPropertyOp6
 70
     1
102
RTVSPropertyOp7
 70
     1
102
RTVSPropertyOp8
 70
     1
102
RTVSPropertyOp9
 70
     1
102
RTVSPropertyOp10
 70
     1
102
RTVSPropertyOp11
 70
     1
102
RTVSPropertyOp12
 70
     1
102
RTVSPropertyOp13
 70
     1
102
RTVSPropertyOp14
 70
     1
102
RTVSPropertyOp15
 70
     1
102
RTVSPropertyOp16
 70
     1
102
RTVSPropertyOp17
 70
     1
102
RTVSPropertyOp18
 70
     1
102
RTVSPropertyOp19
 70
     1
102
RTVSPropertyOp20
 70
     1
102
RTVSPropertyOp21
 70
     1
102
RTVSPropertyOp22
 70
     1
102
RTVSPropertyOp23
 70
     1
102
RTVSPropertyOp24
 70
     1
102
RTVSPropertyOp25
 70
     1
102
RTVSPropertyOp26
 70
     1
102
RTVSPropertyOp27
 70
     1
102
RTVSPropertyOp28
 70
     1
102
RTVSPropertyOp29
 70
     1
102
RTVSPropertyOp30
 70
     1
102
RTVSPropertyOp31
 70
     1
102
RTVSPropertyOp32
 70
     1
102
RTVSPropertyOp33
 70
     1
102
RTVSPropertyOp34
 70
     1
102
RTVSPropertyOp35
 70
     1
102
RTVSPropertyOp36
 70
     1
102
RTVSPropertyOp37
 70
     1
102
RTVSPropertyOp38
 70
     1
102
RTVSPropertyOp39
 70
     1
102
RTVSPropertyOp40
 70
     1
102
RTVSPropertyOp41
 70
     1
102
RTVSPropertyOp42
 70
     1
102
RTVSPropertyOp43
 70
     1
102
RTVSPropertyOp44
 70
     1
102
RTVSPropertyOp45
 70
     1
102
RTVSPropertyOp46
 70
     1
102
RTVSPropertyOp47
 70
     1
102
RTVSPropertyOp48
 70
     1
102
RTVSPropertyOp49
 70
     1
102
RTVSPropertyOp50
 70
     1
102
RTVSPropertyOp51
 70
     0
102
RTVSPropertyOp52
 70
     0
102
RTVSPropertyOp53
 70
     1
102
RTVSPropertyOp54
 70
     1
102
RTVSPropertyOp55
 70
     1
102
RTVSPropertyOp56
 70
     1
102
RTVSPropertyOp57
 70
     1
102
RTVSPropertyOp58
 70
     1
102
RTVSPropertyOp59
 70
     1
102
RTVSPropertyOp60
 70
     1
102
RTVSPropertyOp61
 70
     1
102
RTVSPropertyOp62
 70
     1
  0
XRECORD
  5
892
102
{ACAD_REACTORS
330
891
102
}
330
891
100
AcDbXrecord
280
     1
102
RTVSPost2010Prop28
280
     0
102
RTVSPost2010PropOp28
 70
     1
102
RTVSPost2010Prop29
280
     1
102
RTVSPost2010PropOp29
 70
     1
102
RTVSPost2010Prop30
280
     1
102
RTVSPost2010PropOp30
 70
     1
102
RTVSPost2010Prop31
280
     0
102
RTVSPost2010PropOp31
 70
     1
102
RTVSPost2010Prop32
280
     0
102
RTVSPost2010PropOp32
 70
     1
102
RTVSPost2010Prop33
280
     0
102
RTVSPost2010PropOp33
 70
     1
102
RTVSPost2010Prop34
280
     0
102
RTVSPost2010PropOp34
 70
     1
102
RTVSPost2010Prop35
280
     0
102
RTVSPost2010PropOp35
 70
     1
102
RTVSPost2010Prop36
280
     0
102
RTVSPost2010PropOp36
 70
     1
102
RTVSPost2010Prop37
 90
       50
102
RTVSPost2010PropOp37
 70
     1
102
RTVSPost2010Prop38
140
0.0
102
RTVSPost2010PropOp38
 70
     1
102
RTVSPost2010Prop39
140
1.0
102
RTVSPost2010PropOp39
 70
     1
102
RTVSPost2010Prop40
 90
        0
102
RTVSPost2010PropOp40
 70
     1
102
RTVSPost2010Prop41ColorIndex
 90
       18
102
RTVSPost2010Prop41ColorRGB
 90
        0
102
RTVSPost2010PropOp41
 70
     1
102
RTVSPost2010Prop42
 90
       50
102
RTVSPost2010PropOp42
 70
     1
102
RTVSPost2010Prop43
 90
        3
102
RTVSPost2010PropOp43
 70
     1
102
RTVSPost2010Prop44ColorIndex
 90
        5
102
RTVSPost2010Prop44ColorRGB
 90
      255
102
RTVSPost2010PropOp44
 70
     1
102
RTVSPost2010Prop45
280
     0
102
RTVSPost2010PropOp45
 70
     1
102
RTVSPost2010Prop46
 90
       50
102
RTVSPost2010PropOp46
 70
     1
102
RTVSPost2010Prop47
 90
       50
102
RTVSPost2010PropOp47
 70
     1
102
RTVSPost2010Prop48
 90
       50
102
RTVSPost2010PropOp48
 70
     1
102
RTVSPost2010Prop49
280
     0
102
RTVSPost2010PropOp49
 70
     1
102
RTVSPost2010Prop50
 90
       50
102
RTVSPost2010PropOp50
 70
     1
102
RTVSPost2010Prop51ColorIndex
 90
      256
102
RTVSPost2010Prop51ColorRGB
 90
-16777216
102
RTVSPost2010PropOp51
 70
     0
102
RTVSPost2010Prop52
140
1.0
102
RTVSPost2010PropOp52
 70
     0
102
RTVSPost2010Prop53
 90
        2
102
RTVSPost2010PropOp53
 70
     1
102
RTVSPost2010Prop54
  1
strokes_ogs.tif
102
RTVSPost2010PropOp54
 70
     1
102
RTVSPost2010Prop55
280
     0
102
RTVSPost2010PropOp55
 70
     1
102
RTVSPost2010Prop56
140
1.0
102
RTVSPost2010PropOp56
 70
     1
102
RTVSPost2010Prop57
140
1.0
102
RTVSPost2010PropOp57
 70
     1
102
RTVSPropertyOp0
 70
     1
102
RTVSPropertyOp1
 70
     1
102
RTVSPropertyOp2
 70
     1
102
RTVSPropertyOp3
 70
     1
102
RTVSPropertyOp4
 70
     1
102
RTVSPropertyOp5
 70
     1
102
RTVSPropertyOp6
 70
     1
102
RTVSPropertyOp7
 70
     1
102
RTVSPropertyOp8
 70
     1
102
RTVSPropertyOp9
 70
     1
102
RTVSPropertyOp10
 70
     1
102
RTVSPropertyOp11
 70
     1
102
RTVSPropertyOp12
 70
     1
102
RTVSPropertyOp13
 70
     1
102
RTVSPropertyOp14
 70
     1
102
RTVSPropertyOp15
 70
     1
102
RTVSPropertyOp16
 70
     1
102
RTVSPropertyOp17
 70
     1
102
RTVSPropertyOp18
 70
     1
102
RTVSPropertyOp19
 70
     1
102
RTVSPropertyOp20
 70
     1
102
RTVSPropertyOp21
 70
     1
102
RTVSPropertyOp22
 70
     1
102
RTVSPropertyOp23
 70
     1
102
RTVSPropertyOp24
 70
     1
102
RTVSPropertyOp25
 70
     1
102
RTVSPropertyOp26
 70
     1
102
RTVSPropertyOp27
 70
     1
102
RTVSPropertyOp28
 70
     1
102
RTVSPropertyOp29
 70
     1
102
RTVSPropertyOp30
 70
     1
102
RTVSPropertyOp31
 70
     1
102
RTVSPropertyOp32
 70
     1
102
RTVSPropertyOp33
 70
     1
102
RTVSPropertyOp34
 70
     1
102
RTVSPropertyOp35
 70
     1
102
RTVSPropertyOp36
 70
     1
102
RTVSPropertyOp37
 70
     1
102
RTVSPropertyOp38
 70
     1
102
RTVSPropertyOp39
 70
     1
102
RTVSPropertyOp40
 70
     1
102
RTVSPropertyOp41
 70
     1
102
RTVSPropertyOp42
 70
     1
102
RTVSPropertyOp43
 70
     1
102
RTVSPropertyOp44
 70
     1
102
RTVSPropertyOp45
 70
     1
102
RTVSPropertyOp46
 70
     1
102
RTVSPropertyOp47
 70
     1
102
RTVSPropertyOp48
 70
     1
102
RTVSPropertyOp49
 70
     1
102
RTVSPropertyOp50
 70
     1
102
RTVSPropertyOp51
 70
     0
102
RTVSPropertyOp52
 70
     0
102
RTVSPropertyOp53
 70
     1
102
RTVSPropertyOp54
 70
     1
102
RTVSPropertyOp55
 70
     1
102
RTVSPropertyOp56
 70
     1
102
RTVSPropertyOp57
 70
     1
102
RTVSPropertyOp58
 70
     1
102
RTVSPropertyOp59
 70
     1
102
RTVSPropertyOp60
 70
     1
102
RTVSPropertyOp61
 70
     1
102
RTVSPropertyOp62
 70
     1
  0
XRECORD
  5
896
102
{ACAD_REACTORS
330
895
102
}
330
895
100
AcDbXrecord
280
     1
102
RTVSPost2010Prop28
280
     0
102
RTVSPost2010PropOp28
 70
     1
102
RTVSPost2010Prop29
280
     1
102
RTVSPost2010PropOp29
 70
     1
102
RTVSPost2010Prop30
280
     1
102
RTVSPost2010PropOp30
 70
     1
102
RTVSPost2010Prop31
280
     0
102
RTVSPost2010PropOp31
 70
     1
102
RTVSPost2010Prop32
280
     0
102
RTVSPost2010PropOp32
 70
     1
102
RTVSPost2010Prop33
280
     0
102
RTVSPost2010PropOp33
 70
     1
102
RTVSPost2010Prop34
280
     0
102
RTVSPost2010PropOp34
 70
     1
102
RTVSPost2010Prop35
280
     0
102
RTVSPost2010PropOp35
 70
     1
102
RTVSPost2010Prop36
280
     0
102
RTVSPost2010PropOp36
 70
     1
102
RTVSPost2010Prop37
 90
       50
102
RTVSPost2010PropOp37
 70
     1
102
RTVSPost2010Prop38
140
0.0
102
RTVSPost2010PropOp38
 70
     1
102
RTVSPost2010Prop39
140
1.0
102
RTVSPost2010PropOp39
 70
     1
102
RTVSPost2010Prop40
 90
        0
102
RTVSPost2010PropOp40
 70
     1
102
RTVSPost2010Prop41ColorIndex
 90
       18
102
RTVSPost2010Prop41ColorRGB
 90
        0
102
RTVSPost2010PropOp41
 70
     1
102
RTVSPost2010Prop42
 90
       50
102
RTVSPost2010PropOp42
 70
     1
102
RTVSPost2010Prop43
 90
        3
102
RTVSPost2010PropOp43
 70
     1
102
RTVSPost2010Prop44ColorIndex
 90
        5
102
RTVSPost2010Prop44ColorRGB
 90
      255
102
RTVSPost2010PropOp44
 70
     1
102
RTVSPost2010Prop45
280
     0
102
RTVSPost2010PropOp45
 70
     1
102
RTVSPost2010Prop46
 90
       50
102
RTVSPost2010PropOp46
 70
     1
102
RTVSPost2010Prop47
 90
       50
102
RTVSPost2010PropOp47
 70
     1
102
RTVSPost2010Prop48
 90
       50
102
RTVSPost2010PropOp48
 70
     1
102
RTVSPost2010Prop49
280
     0
102
RTVSPost2010PropOp49
 70
     1
102
RTVSPost2010Prop50
 90
       50
102
RTVSPost2010PropOp50
 70
     1
102
RTVSPost2010Prop51ColorIndex
 90
      256
102
RTVSPost2010Prop51ColorRGB
 90
-16777216
102
RTVSPost2010PropOp51
 70
     0
102
RTVSPost2010Prop52
140
1.0
102
RTVSPost2010PropOp52
 70
     0
102
RTVSPost2010Prop53
 90
        2
102
RTVSPost2010PropOp53
 70
     1
102
RTVSPost2010Prop54
  1
strokes_ogs.tif
102
RTVSPost2010PropOp54
 70
     1
102
RTVSPost2010Prop55
280
     0
102
RTVSPost2010PropOp55
 70
     1
102
RTVSPost2010Prop56
140
1.0
102
RTVSPost2010PropOp56
 70
     1
102
RTVSPost2010Prop57
140
1.0
102
RTVSPost2010PropOp57
 70
     1
102
RTVSPropertyOp0
 70
     1
102
RTVSPropertyOp1
 70
     1
102
RTVSPropertyOp2
 70
     1
102
RTVSPropertyOp3
 70
     1
102
RTVSPropertyOp4
 70
     1
102
RTVSPropertyOp5
 70
     1
102
RTVSPropertyOp6
 70
     1
102
RTVSPropertyOp7
 70
     1
102
RTVSPropertyOp8
 70
     1
102
RTVSPropertyOp9
 70
     1
102
RTVSPropertyOp10
 70
     1
102
RTVSPropertyOp11
 70
     1
102
RTVSPropertyOp12
 70
     1
102
RTVSPropertyOp13
 70
     1
102
RTVSPropertyOp14
 70
     1
102
RTVSPropertyOp15
 70
     1
102
RTVSPropertyOp16
 70
     1
102
RTVSPropertyOp17
 70
     1
102
RTVSPropertyOp18
 70
     1
102
RTVSPropertyOp19
 70
     1
102
RTVSPropertyOp20
 70
     1
102
RTVSPropertyOp21
 70
     1
102
RTVSPropertyOp22
 70
     1
102
RTVSPropertyOp23
 70
     1
102
RTVSPropertyOp24
 70
     1
102
RTVSPropertyOp25
 70
     1
102
RTVSPropertyOp26
 70
     1
102
RTVSPropertyOp27
 70
     1
102
RTVSPropertyOp28
 70
     1
102
RTVSPropertyOp29
 70
     1
102
RTVSPropertyOp30
 70
     1
102
RTVSPropertyOp31
 70
     1
102
RTVSPropertyOp32
 70
     1
102
RTVSPropertyOp33
 70
     1
102
RTVSPropertyOp34
 70
     1
102
RTVSPropertyOp35
 70
     1
102
RTVSPropertyOp36
 70
     1
102
RTVSPropertyOp37
 70
     1
102
RTVSPropertyOp38
 70
     1
102
RTVSPropertyOp39
 70
     1
102
RTVSPropertyOp40
 70
     1
102
RTVSPropertyOp41
 70
     1
102
RTVSPropertyOp42
 70
     1
102
RTVSPropertyOp43
 70
     1
102
RTVSPropertyOp44
 70
     1
102
RTVSPropertyOp45
 70
     1
102
RTVSPropertyOp46
 70
     1
102
RTVSPropertyOp47
 70
     1
102
RTVSPropertyOp48
 70
     1
102
RTVSPropertyOp49
 70
     1
102
RTVSPropertyOp50
 70
     1
102
RTVSPropertyOp51
 70
     0
102
RTVSPropertyOp52
 70
     0
102
RTVSPropertyOp53
 70
     1
102
RTVSPropertyOp54
 70
     1
102
RTVSPropertyOp55
 70
     1
102
RTVSPropertyOp56
 70
     1
102
RTVSPropertyOp57
 70
     1
102
RTVSPropertyOp58
 70
     1
102
RTVSPropertyOp59
 70
     1
102
RTVSPropertyOp60
 70
     1
102
RTVSPropertyOp61
 70
     1
102
RTVSPropertyOp62
 70
     1
  0
XRECORD
  5
8B0
102
{ACAD_REACTORS
330
8AF
102
}
330
8AF
100
AcDbXrecord
280
     1
102
RTVSPost2010Prop28
280
     0
102
RTVSPost2010PropOp28
 70
     1
102
RTVSPost2010Prop29
280
     1
102
RTVSPost2010PropOp29
 70
     1
102
RTVSPost2010Prop30
280
     1
102
RTVSPost2010PropOp30
 70
     1
102
RTVSPost2010Prop31
280
     0
102
RTVSPost2010PropOp31
 70
     1
102
RTVSPost2010Prop32
280
     0
102
RTVSPost2010PropOp32
 70
     1
102
RTVSPost2010Prop33
280
     0
102
RTVSPost2010PropOp33
 70
     1
102
RTVSPost2010Prop34
280
     0
102
RTVSPost2010PropOp34
 70
     1
102
RTVSPost2010Prop35
280
     0
102
RTVSPost2010PropOp35
 70
     1
102
RTVSPost2010Prop36
280
     0
102
RTVSPost2010PropOp36
 70
     1
102
RTVSPost2010Prop37
 90
       50
102
RTVSPost2010PropOp37
 70
     0
102
RTVSPost2010Prop38
140
0.0
102
RTVSPost2010PropOp38
 70
     0
102
RTVSPost2010Prop39
140
1.0
102
RTVSPost2010PropOp39
 70
     0
102
RTVSPost2010Prop40
 90
        0
102
RTVSPost2010PropOp40
 70
     0
102
RTVSPost2010Prop41ColorIndex
 90
       18
102
RTVSPost2010Prop41ColorRGB
 90
        0
102
RTVSPost2010PropOp41
 70
     0
102
RTVSPost2010Prop42
 90
       50
102
RTVSPost2010PropOp42
 70
     0
102
RTVSPost2010Prop43
 90
        3
102
RTVSPost2010PropOp43
 70
     0
102
RTVSPost2010Prop44ColorIndex
 90
        5
102
RTVSPost2010Prop44ColorRGB
 90
      255
102
RTVSPost2010PropOp44
 70
     0
102
RTVSPost2010Prop45
280
     0
102
RTVSPost2010PropOp45
 70
     1
102
RTVSPost2010Prop46
 90
       50
102
RTVSPost2010PropOp46
 70
     0
102
RTVSPost2010Prop47
 90
       50
102
RTVSPost2010PropOp47
 70
     0
102
RTVSPost2010Prop48
 90
       50
102
RTVSPost2010PropOp48
 70
     0
102
RTVSPost2010Prop49
280
     0
102
RTVSPost2010PropOp49
 70
     1
102
RTVSPost2010Prop50
 90
       50
102
RTVSPost2010PropOp50
 70
     0
102
RTVSPost2010Prop51ColorIndex
 90
      256
102
RTVSPost2010Prop51ColorRGB
 90
-16777216
102
RTVSPost2010PropOp51
 70
     0
102
RTVSPost2010Prop52
140
1.0
102
RTVSPost2010PropOp52
 70
     0
102
RTVSPost2010Prop53
 90
        2
102
RTVSPost2010PropOp53
 70
     0
102
RTVSPost2010Prop54
  1
strokes_ogs.tif
102
RTVSPost2010PropOp54
 70
     0
102
RTVSPost2010Prop55
280
     0
102
RTVSPost2010PropOp55
 70
     1
102
RTVSPost2010Prop56
140
1.0
102
RTVSPost2010PropOp56
 70
     0
102
RTVSPost2010Prop57
140
1.0
102
RTVSPost2010PropOp57
 70
     0
102
RTVSPropertyOp0
 70
     0
102
RTVSPropertyOp1
 70
     0
102
RTVSPropertyOp2
 70
     0
102
RTVSPropertyOp3
 70
     0
102
RTVSPropertyOp4
 70
     0
102
RTVSPropertyOp5
 70
     0
102
RTVSPropertyOp6
 70
     0
102
RTVSPropertyOp7
 70
     0
102
RTVSPropertyOp8
 70
     0
102
RTVSPropertyOp9
 70
     0
102
RTVSPropertyOp10
 70
     0
102
RTVSPropertyOp11
 70
     0
102
RTVSPropertyOp12
 70
     0
102
RTVSPropertyOp13
 70
     0
102
RTVSPropertyOp14
 70
     2
102
RTVSPropertyOp15
 70
     0
102
RTVSPropertyOp16
 70
     0
102
RTVSPropertyOp17
 70
     0
102
RTVSPropertyOp18
 70
     0
102
RTVSPropertyOp19
 70
     0
102
RTVSPropertyOp20
 70
     0
102
RTVSPropertyOp21
 70
     0
102
RTVSPropertyOp22
 70
     0
102
RTVSPropertyOp23
 70
     0
102
RTVSPropertyOp24
 70
     0
102
RTVSPropertyOp25
 70
     0
102
RTVSPropertyOp26
 70
     0
102
RTVSPropertyOp27
 70
     0
102
RTVSPropertyOp28
 70
     1
102
RTVSPropertyOp29
 70
     1
102
RTVSPropertyOp30
 70
     1
102
RTVSPropertyOp31
 70
     1
102
RTVSPropertyOp32
 70
     1
102
RTVSPropertyOp33
 70
     1
102
RTVSPropertyOp34
 70
     1
102
RTVSPropertyOp35
 70
     1
102
RTVSPropertyOp36
 70
     1
102
RTVSPropertyOp37
 70
     0
102
RTVSPropertyOp38
 70
     0
102
RTVSPropertyOp39
 70
     0
102
RTVSPropertyOp40
 70
     0
102
RTVSPropertyOp41
 70
     0
102
RTVSPropertyOp42
 70
     0
102
RTVSPropertyOp43
 70
     0
102
RTVSPropertyOp44
 70
     0
102
RTVSPropertyOp45
 70
     1
102
RTVSPropertyOp46
 70
     0
102
RTVSPropertyOp47
 70
     0
102
RTVSPropertyOp48
 70
     0
102
RTVSPropertyOp49
 70
     1
102
RTVSPropertyOp50
 70
     0
102
RTVSPropertyOp51
 70
     0
102
RTVSPropertyOp52
 70
     0
102
RTVSPropertyOp53
 70
     0
102
RTVSPropertyOp54
 70
     0
102
RTVSPropertyOp55
 70
     1
102
RTVSPropertyOp56
 70
     0
102
RTVSPropertyOp57
 70
     0
102
RTVSPropertyOp58
 70
     0
102
RTVSPropertyOp59
 70
     0
102
RTVSPropertyOp60
 70
     0
102
RTVSPropertyOp61
 70
     0
102
RTVSPropertyOp62
 70
     0
  0
XRECORD
  5
89E
102
{ACAD_REACTORS
330
89D
102
}
330
89D
100
AcDbXrecord
280
     1
102
RTVSPost2010Prop28
280
     0
102
RTVSPost2010PropOp28
 70
     1
102
RTVSPost2010Prop29
280
     1
102
RTVSPost2010PropOp29
 70
     1
102
RTVSPost2010Prop30
280
     1
102
RTVSPost2010PropOp30
 70
     1
102
RTVSPost2010Prop31
280
     0
102
RTVSPost2010PropOp31
 70
     1
102
RTVSPost2010Prop32
280
     0
102
RTVSPost2010PropOp32
 70
     1
102
RTVSPost2010Prop33
280
     0
102
RTVSPost2010PropOp33
 70
     1
102
RTVSPost2010Prop34
280
     0
102
RTVSPost2010PropOp34
 70
     1
102
RTVSPost2010Prop35
280
     0
102
RTVSPost2010PropOp35
 70
     1
102
RTVSPost2010Prop36
280
     0
102
RTVSPost2010PropOp36
 70
     1
102
RTVSPost2010Prop37
 90
       50
102
RTVSPost2010PropOp37
 70
     1
102
RTVSPost2010Prop38
140
0.0
102
RTVSPost2010PropOp38
 70
     1
102
RTVSPost2010Prop39
140
1.0
102
RTVSPost2010PropOp39
 70
     1
102
RTVSPost2010Prop40
 90
        0
102
RTVSPost2010PropOp40
 70
     1
102
RTVSPost2010Prop41ColorIndex
 90
       18
102
RTVSPost2010Prop41ColorRGB
 90
        0
102
RTVSPost2010PropOp41
 70
     1
102
RTVSPost2010Prop42
 90
       50
102
RTVSPost2010PropOp42
 70
     1
102
RTVSPost2010Prop43
 90
        3
102
RTVSPost2010PropOp43
 70
     1
102
RTVSPost2010Prop44ColorIndex
 90
        5
102
RTVSPost2010Prop44ColorRGB
 90
      255
102
RTVSPost2010PropOp44
 70
     1
102
RTVSPost2010Prop45
280
     0
102
RTVSPost2010PropOp45
 70
     1
102
RTVSPost2010Prop46
 90
       50
102
RTVSPost2010PropOp46
 70
     1
102
RTVSPost2010Prop47
 90
       50
102
RTVSPost2010PropOp47
 70
     1
102
RTVSPost2010Prop48
 90
       50
102
RTVSPost2010PropOp48
 70
     1
102
RTVSPost2010Prop49
280
     0
102
RTVSPost2010PropOp49
 70
     1
102
RTVSPost2010Prop50
 90
       50
102
RTVSPost2010PropOp50
 70
     1
102
RTVSPost2010Prop51ColorIndex
 90
      256
102
RTVSPost2010Prop51ColorRGB
 90
-16777216
102
RTVSPost2010PropOp51
 70
     0
102
RTVSPost2010Prop52
140
1.0
102
RTVSPost2010PropOp52
 70
     0
102
RTVSPost2010Prop53
 90
        2
102
RTVSPost2010PropOp53
 70
     1
102
RTVSPost2010Prop54
  1
strokes_ogs.tif
102
RTVSPost2010PropOp54
 70
     1
102
RTVSPost2010Prop55
280
     0
102
RTVSPost2010PropOp55
 70
     1
102
RTVSPost2010Prop56
140
1.0
102
RTVSPost2010PropOp56
 70
     1
102
RTVSPost2010Prop57
140
1.0
102
RTVSPost2010PropOp57
 70
     1
102
RTVSPropertyOp0
 70
     1
102
RTVSPropertyOp1
 70
     1
102
RTVSPropertyOp2
 70
     1
102
RTVSPropertyOp3
 70
     1
102
RTVSPropertyOp4
 70
     1
102
RTVSPropertyOp5
 70
     1
102
RTVSPropertyOp6
 70
     1
102
RTVSPropertyOp7
 70
     1
102
RTVSPropertyOp8
 70
     1
102
RTVSPropertyOp9
 70
     1
102
RTVSPropertyOp10
 70
     1
102
RTVSPropertyOp11
 70
     1
102
RTVSPropertyOp12
 70
     1
102
RTVSPropertyOp13
 70
     1
102
RTVSPropertyOp14
 70
     1
102
RTVSPropertyOp15
 70
     1
102
RTVSPropertyOp16
 70
     1
102
RTVSPropertyOp17
 70
     1
102
RTVSPropertyOp18
 70
     1
102
RTVSPropertyOp19
 70
     1
102
RTVSPropertyOp20
 70
     1
102
RTVSPropertyOp21
 70
     1
102
RTVSPropertyOp22
 70
     1
102
RTVSPropertyOp23
 70
     1
102
RTVSPropertyOp24
 70
     1
102
RTVSPropertyOp25
 70
     1
102
RTVSPropertyOp26
 70
     1
102
RTVSPropertyOp27
 70
     1
102
RTVSPropertyOp28
 70
     1
102
RTVSPropertyOp29
 70
     1
102
RTVSPropertyOp30
 70
     1
102
RTVSPropertyOp31
 70
     1
102
RTVSPropertyOp32
 70
     1
102
RTVSPropertyOp33
 70
     1
102
RTVSPropertyOp34
 70
     1
102
RTVSPropertyOp35
 70
     1
102
RTVSPropertyOp36
 70
     1
102
RTVSPropertyOp37
 70
     1
102
RTVSPropertyOp38
 70
     1
102
RTVSPropertyOp39
 70
     1
102
RTVSPropertyOp40
 70
     1
102
RTVSPropertyOp41
 70
     1
102
RTVSPropertyOp42
 70
     1
102
RTVSPropertyOp43
 70
     1
102
RTVSPropertyOp44
 70
     1
102
RTVSPropertyOp45
 70
     1
102
RTVSPropertyOp46
 70
     1
102
RTVSPropertyOp47
 70
     1
102
RTVSPropertyOp48
 70
     1
102
RTVSPropertyOp49
 70
     1
102
RTVSPropertyOp50
 70
     1
102
RTVSPropertyOp51
 70
     0
102
RTVSPropertyOp52
 70
     0
102
RTVSPropertyOp53
 70
     1
102
RTVSPropertyOp54
 70
     1
102
RTVSPropertyOp55
 70
     1
102
RTVSPropertyOp56
 70
     1
102
RTVSPropertyOp57
 70
     1
102
RTVSPropertyOp58
 70
     1
102
RTVSPropertyOp59
 70
     1
102
RTVSPropertyOp60
 70
     1
102
RTVSPropertyOp61
 70
     1
102
RTVSPropertyOp62
 70
     1
  0
XRECORD
  5
882
102
{ACAD_REACTORS
330
881
102
}
330
881
100
AcDbXrecord
280
     1
102
RTVSPost2010Prop28
280
     0
102
RTVSPost2010PropOp28
 70
     1
102
RTVSPost2010Prop29
280
     1
102
RTVSPost2010PropOp29
 70
     1
102
RTVSPost2010Prop30
280
     1
102
RTVSPost2010PropOp30
 70
     1
102
RTVSPost2010Prop31
280
     0
102
RTVSPost2010PropOp31
 70
     1
102
RTVSPost2010Prop32
280
     0
102
RTVSPost2010PropOp32
 70
     1
102
RTVSPost2010Prop33
280
     0
102
RTVSPost2010PropOp33
 70
     1
102
RTVSPost2010Prop34
280
     0
102
RTVSPost2010PropOp34
 70
     1
102
RTVSPost2010Prop35
280
     0
102
RTVSPost2010PropOp35
 70
     1
102
RTVSPost2010Prop36
280
     0
102
RTVSPost2010PropOp36
 70
     1
102
RTVSPost2010Prop37
 90
       50
102
RTVSPost2010PropOp37
 70
     1
102
RTVSPost2010Prop38
140
0.0
102
RTVSPost2010PropOp38
 70
     1
102
RTVSPost2010Prop39
140
1.0
102
RTVSPost2010PropOp39
 70
     1
102
RTVSPost2010Prop40
 90
        0
102
RTVSPost2010PropOp40
 70
     1
102
RTVSPost2010Prop41ColorIndex
 90
       18
102
RTVSPost2010Prop41ColorRGB
 90
        0
102
RTVSPost2010PropOp41
 70
     1
102
RTVSPost2010Prop42
 90
       50
102
RTVSPost2010PropOp42
 70
     1
102
RTVSPost2010Prop43
 90
        3
102
RTVSPost2010PropOp43
 70
     1
102
RTVSPost2010Prop44ColorIndex
 90
        5
102
RTVSPost2010Prop44ColorRGB
 90
      255
102
RTVSPost2010PropOp44
 70
     1
102
RTVSPost2010Prop45
280
     0
102
RTVSPost2010PropOp45
 70
     1
102
RTVSPost2010Prop46
 90
       50
102
RTVSPost2010PropOp46
 70
     1
102
RTVSPost2010Prop47
 90
       50
102
RTVSPost2010PropOp47
 70
     1
102
RTVSPost2010Prop48
 90
       50
102
RTVSPost2010PropOp48
 70
     1
102
RTVSPost2010Prop49
280
     0
102
RTVSPost2010PropOp49
 70
     1
102
RTVSPost2010Prop50
 90
       50
102
RTVSPost2010PropOp50
 70
     1
102
RTVSPost2010Prop51ColorIndex
 90
      256
102
RTVSPost2010Prop51ColorRGB
 90
-16777216
102
RTVSPost2010PropOp51
 70
     0
102
RTVSPost2010Prop52
140
1.0
102
RTVSPost2010PropOp52
 70
     0
102
RTVSPost2010Prop53
 90
        2
102
RTVSPost2010PropOp53
 70
     1
102
RTVSPost2010Prop54
  1
strokes_ogs.tif
102
RTVSPost2010PropOp54
 70
     1
102
RTVSPost2010Prop55
280
     0
102
RTVSPost2010PropOp55
 70
     1
102
RTVSPost2010Prop56
140
1.0
102
RTVSPost2010PropOp56
 70
     1
102
RTVSPost2010Prop57
140
1.0
102
RTVSPost2010PropOp57
 70
     1
102
RTVSPropertyOp0
 70
     1
102
RTVSPropertyOp1
 70
     1
102
RTVSPropertyOp2
 70
     1
102
RTVSPropertyOp3
 70
     1
102
RTVSPropertyOp4
 70
     1
102
RTVSPropertyOp5
 70
     1
102
RTVSPropertyOp6
 70
     1
102
RTVSPropertyOp7
 70
     1
102
RTVSPropertyOp8
 70
     1
102
RTVSPropertyOp9
 70
     1
102
RTVSPropertyOp10
 70
     1
102
RTVSPropertyOp11
 70
     1
102
RTVSPropertyOp12
 70
     1
102
RTVSPropertyOp13
 70
     1
102
RTVSPropertyOp14
 70
     1
102
RTVSPropertyOp15
 70
     1
102
RTVSPropertyOp16
 70
     1
102
RTVSPropertyOp17
 70
     1
102
RTVSPropertyOp18
 70
     1
102
RTVSPropertyOp19
 70
     1
102
RTVSPropertyOp20
 70
     1
102
RTVSPropertyOp21
 70
     1
102
RTVSPropertyOp22
 70
     1
102
RTVSPropertyOp23
 70
     1
102
RTVSPropertyOp24
 70
     1
102
RTVSPropertyOp25
 70
     1
102
RTVSPropertyOp26
 70
     1
102
RTVSPropertyOp27
 70
     1
102
RTVSPropertyOp28
 70
     1
102
RTVSPropertyOp29
 70
     1
102
RTVSPropertyOp30
 70
     1
102
RTVSPropertyOp31
 70
     1
102
RTVSPropertyOp32
 70
     1
102
RTVSPropertyOp33
 70
     1
102
RTVSPropertyOp34
 70
     1
102
RTVSPropertyOp35
 70
     1
102
RTVSPropertyOp36
 70
     1
102
RTVSPropertyOp37
 70
     1
102
RTVSPropertyOp38
 70
     1
102
RTVSPropertyOp39
 70
     1
102
RTVSPropertyOp40
 70
     1
102
RTVSPropertyOp41
 70
     1
102
RTVSPropertyOp42
 70
     1
102
RTVSPropertyOp43
 70
     1
102
RTVSPropertyOp44
 70
     1
102
RTVSPropertyOp45
 70
     1
102
RTVSPropertyOp46
 70
     1
102
RTVSPropertyOp47
 70
     1
102
RTVSPropertyOp48
 70
     1
102
RTVSPropertyOp49
 70
     1
102
RTVSPropertyOp50
 70
     1
102
RTVSPropertyOp51
 70
     0
102
RTVSPropertyOp52
 70
     0
102
RTVSPropertyOp53
 70
     1
102
RTVSPropertyOp54
 70
     1
102
RTVSPropertyOp55
 70
     1
102
RTVSPropertyOp56
 70
     1
102
RTVSPropertyOp57
 70
     1
102
RTVSPropertyOp58
 70
     1
102
RTVSPropertyOp59
 70
     1
102
RTVSPropertyOp60
 70
     1
102
RTVSPropertyOp61
 70
     1
102
RTVSPropertyOp62
 70
     1
  0
XRECORD
  5
884
102
{ACAD_REACTORS
330
883
102
}
330
883
100
AcDbXrecord
280
     1
102
RTVSPost2010Prop28
280
     0
102
RTVSPost2010PropOp28
 70
     1
102
RTVSPost2010Prop29
280
     1
102
RTVSPost2010PropOp29
 70
     1
102
RTVSPost2010Prop30
280
     1
102
RTVSPost2010PropOp30
 70
     1
102
RTVSPost2010Prop31
280
     0
102
RTVSPost2010PropOp31
 70
     1
102
RTVSPost2010Prop32
280
     0
102
RTVSPost2010PropOp32
 70
     1
102
RTVSPost2010Prop33
280
     0
102
RTVSPost2010PropOp33
 70
     1
102
RTVSPost2010Prop34
280
     0
102
RTVSPost2010PropOp34
 70
     1
102
RTVSPost2010Prop35
280
     0
102
RTVSPost2010PropOp35
 70
     1
102
RTVSPost2010Prop36
280
     0
102
RTVSPost2010PropOp36
 70
     1
102
RTVSPost2010Prop37
 90
       50
102
RTVSPost2010PropOp37
 70
     1
102
RTVSPost2010Prop38
140
0.0
102
RTVSPost2010PropOp38
 70
     1
102
RTVSPost2010Prop39
140
1.0
102
RTVSPost2010PropOp39
 70
     1
102
RTVSPost2010Prop40
 90
        0
102
RTVSPost2010PropOp40
 70
     1
102
RTVSPost2010Prop41ColorIndex
 90
       18
102
RTVSPost2010Prop41ColorRGB
 90
        0
102
RTVSPost2010PropOp41
 70
     1
102
RTVSPost2010Prop42
 90
       50
102
RTVSPost2010PropOp42
 70
     1
102
RTVSPost2010Prop43
 90
        3
102
RTVSPost2010PropOp43
 70
     1
102
RTVSPost2010Prop44ColorIndex
 90
        5
102
RTVSPost2010Prop44ColorRGB
 90
      255
102
RTVSPost2010PropOp44
 70
     1
102
RTVSPost2010Prop45
280
     0
102
RTVSPost2010PropOp45
 70
     1
102
RTVSPost2010Prop46
 90
       50
102
RTVSPost2010PropOp46
 70
     1
102
RTVSPost2010Prop47
 90
       50
102
RTVSPost2010PropOp47
 70
     1
102
RTVSPost2010Prop48
 90
       50
102
RTVSPost2010PropOp48
 70
     1
102
RTVSPost2010Prop49
280
     0
102
RTVSPost2010PropOp49
 70
     1
102
RTVSPost2010Prop50
 90
       50
102
RTVSPost2010PropOp50
 70
     1
102
RTVSPost2010Prop51ColorIndex
 90
      256
102
RTVSPost2010Prop51ColorRGB
 90
-16777216
102
RTVSPost2010PropOp51
 70
     0
102
RTVSPost2010Prop52
140
1.0
102
RTVSPost2010PropOp52
 70
     0
102
RTVSPost2010Prop53
 90
        2
102
RTVSPost2010PropOp53
 70
     1
102
RTVSPost2010Prop54
  1
strokes_ogs.tif
102
RTVSPost2010PropOp54
 70
     1
102
RTVSPost2010Prop55
280
     0
102
RTVSPost2010PropOp55
 70
     1
102
RTVSPost2010Prop56
140
1.0
102
RTVSPost2010PropOp56
 70
     1
102
RTVSPost2010Prop57
140
1.0
102
RTVSPost2010PropOp57
 70
     1
102
RTVSPropertyOp0
 70
     1
102
RTVSPropertyOp1
 70
     1
102
RTVSPropertyOp2
 70
     1
102
RTVSPropertyOp3
 70
     1
102
RTVSPropertyOp4
 70
     1
102
RTVSPropertyOp5
 70
     1
102
RTVSPropertyOp6
 70
     1
102
RTVSPropertyOp7
 70
     1
102
RTVSPropertyOp8
 70
     1
102
RTVSPropertyOp9
 70
     1
102
RTVSPropertyOp10
 70
     1
102
RTVSPropertyOp11
 70
     1
102
RTVSPropertyOp12
 70
     1
102
RTVSPropertyOp13
 70
     1
102
RTVSPropertyOp14
 70
     1
102
RTVSPropertyOp15
 70
     1
102
RTVSPropertyOp16
 70
     1
102
RTVSPropertyOp17
 70
     1
102
RTVSPropertyOp18
 70
     1
102
RTVSPropertyOp19
 70
     1
102
RTVSPropertyOp20
 70
     1
102
RTVSPropertyOp21
 70
     1
102
RTVSPropertyOp22
 70
     1
102
RTVSPropertyOp23
 70
     1
102
RTVSPropertyOp24
 70
     1
102
RTVSPropertyOp25
 70
     1
102
RTVSPropertyOp26
 70
     1
102
RTVSPropertyOp27
 70
     1
102
RTVSPropertyOp28
 70
     1
102
RTVSPropertyOp29
 70
     1
102
RTVSPropertyOp30
 70
     1
102
RTVSPropertyOp31
 70
     1
102
RTVSPropertyOp32
 70
     1
102
RTVSPropertyOp33
 70
     1
102
RTVSPropertyOp34
 70
     1
102
RTVSPropertyOp35
 70
     1
102
RTVSPropertyOp36
 70
     1
102
RTVSPropertyOp37
 70
     1
102
RTVSPropertyOp38
 70
     1
102
RTVSPropertyOp39
 70
     1
102
RTVSPropertyOp40
 70
     1
102
RTVSPropertyOp41
 70
     1
102
RTVSPropertyOp42
 70
     1
102
RTVSPropertyOp43
 70
     1
102
RTVSPropertyOp44
 70
     1
102
RTVSPropertyOp45
 70
     1
102
RTVSPropertyOp46
 70
     1
102
RTVSPropertyOp47
 70
     1
102
RTVSPropertyOp48
 70
     1
102
RTVSPropertyOp49
 70
     1
102
RTVSPropertyOp50
 70
     1
102
RTVSPropertyOp51
 70
     0
102
RTVSPropertyOp52
 70
     0
102
RTVSPropertyOp53
 70
     1
102
RTVSPropertyOp54
 70
     1
102
RTVSPropertyOp55
 70
     1
102
RTVSPropertyOp56
 70
     1
102
RTVSPropertyOp57
 70
     1
102
RTVSPropertyOp58
 70
     1
102
RTVSPropertyOp59
 70
     1
102
RTVSPropertyOp60
 70
     1
102
RTVSPropertyOp61
 70
     1
102
RTVSPropertyOp62
 70
     1
  0
XRECORD
  5
886
102
{ACAD_REACTORS
330
885
102
}
330
885
100
AcDbXrecord
280
     1
102
RTVSPost2010Prop28
280
     0
102
RTVSPost2010PropOp28
 70
     1
102
RTVSPost2010Prop29
280
     1
102
RTVSPost2010PropOp29
 70
     1
102
RTVSPost2010Prop30
280
     1
102
RTVSPost2010PropOp30
 70
     1
102
RTVSPost2010Prop31
280
     0
102
RTVSPost2010PropOp31
 70
     1
102
RTVSPost2010Prop32
280
     0
102
RTVSPost2010PropOp32
 70
     1
102
RTVSPost2010Prop33
280
     0
102
RTVSPost2010PropOp33
 70
     1
102
RTVSPost2010Prop34
280
     0
102
RTVSPost2010PropOp34
 70
     1
102
RTVSPost2010Prop35
280
     0
102
RTVSPost2010PropOp35
 70
     1
102
RTVSPost2010Prop36
280
     0
102
RTVSPost2010PropOp36
 70
     1
102
RTVSPost2010Prop37
 90
       50
102
RTVSPost2010PropOp37
 70
     1
102
RTVSPost2010Prop38
140
0.0
102
RTVSPost2010PropOp38
 70
     1
102
RTVSPost2010Prop39
140
1.0
102
RTVSPost2010PropOp39
 70
     1
102
RTVSPost2010Prop40
 90
        0
102
RTVSPost2010PropOp40
 70
     1
102
RTVSPost2010Prop41ColorIndex
 90
       18
102
RTVSPost2010Prop41ColorRGB
 90
        0
102
RTVSPost2010PropOp41
 70
     1
102
RTVSPost2010Prop42
 90
       50
102
RTVSPost2010PropOp42
 70
     1
102
RTVSPost2010Prop43
 90
        3
102
RTVSPost2010PropOp43
 70
     1
102
RTVSPost2010Prop44ColorIndex
 90
        5
102
RTVSPost2010Prop44ColorRGB
 90
      255
102
RTVSPost2010PropOp44
 70
     1
102
RTVSPost2010Prop45
280
     0
102
RTVSPost2010PropOp45
 70
     1
102
RTVSPost2010Prop46
 90
       50
102
RTVSPost2010PropOp46
 70
     1
102
RTVSPost2010Prop47
 90
       50
102
RTVSPost2010PropOp47
 70
     1
102
RTVSPost2010Prop48
 90
       50
102
RTVSPost2010PropOp48
 70
     1
102
RTVSPost2010Prop49
280
     0
102
RTVSPost2010PropOp49
 70
     1
102
RTVSPost2010Prop50
 90
       50
102
RTVSPost2010PropOp50
 70
     1
102
RTVSPost2010Prop51ColorIndex
 90
      256
102
RTVSPost2010Prop51ColorRGB
 90
-16777216
102
RTVSPost2010PropOp51
 70
     0
102
RTVSPost2010Prop52
140
1.0
102
RTVSPost2010PropOp52
 70
     0
102
RTVSPost2010Prop53
 90
        2
102
RTVSPost2010PropOp53
 70
     1
102
RTVSPost2010Prop54
  1
strokes_ogs.tif
102
RTVSPost2010PropOp54
 70
     1
102
RTVSPost2010Prop55
280
     0
102
RTVSPost2010PropOp55
 70
     1
102
RTVSPost2010Prop56
140
1.0
102
RTVSPost2010PropOp56
 70
     1
102
RTVSPost2010Prop57
140
1.0
102
RTVSPost2010PropOp57
 70
     1
102
RTVSPropertyOp0
 70
     1
102
RTVSPropertyOp1
 70
     1
102
RTVSPropertyOp2
 70
     1
102
RTVSPropertyOp3
 70
     1
102
RTVSPropertyOp4
 70
     1
102
RTVSPropertyOp5
 70
     1
102
RTVSPropertyOp6
 70
     1
102
RTVSPropertyOp7
 70
     1
102
RTVSPropertyOp8
 70
     1
102
RTVSPropertyOp9
 70
     1
102
RTVSPropertyOp10
 70
     1
102
RTVSPropertyOp11
 70
     1
102
RTVSPropertyOp12
 70
     1
102
RTVSPropertyOp13
 70
     1
102
RTVSPropertyOp14
 70
     1
102
RTVSPropertyOp15
 70
     1
102
RTVSPropertyOp16
 70
     1
102
RTVSPropertyOp17
 70
     1
102
RTVSPropertyOp18
 70
     1
102
RTVSPropertyOp19
 70
     1
102
RTVSPropertyOp20
 70
     1
102
RTVSPropertyOp21
 70
     1
102
RTVSPropertyOp22
 70
     1
102
RTVSPropertyOp23
 70
     1
102
RTVSPropertyOp24
 70
     1
102
RTVSPropertyOp25
 70
     1
102
RTVSPropertyOp26
 70
     1
102
RTVSPropertyOp27
 70
     1
102
RTVSPropertyOp28
 70
     1
102
RTVSPropertyOp29
 70
     1
102
RTVSPropertyOp30
 70
     1
102
RTVSPropertyOp31
 70
     1
102
RTVSPropertyOp32
 70
     1
102
RTVSPropertyOp33
 70
     1
102
RTVSPropertyOp34
 70
     1
102
RTVSPropertyOp35
 70
     1
102
RTVSPropertyOp36
 70
     1
102
RTVSPropertyOp37
 70
     1
102
RTVSPropertyOp38
 70
     1
102
RTVSPropertyOp39
 70
     1
102
RTVSPropertyOp40
 70
     1
102
RTVSPropertyOp41
 70
     1
102
RTVSPropertyOp42
 70
     1
102
RTVSPropertyOp43
 70
     1
102
RTVSPropertyOp44
 70
     1
102
RTVSPropertyOp45
 70
     1
102
RTVSPropertyOp46
 70
     1
102
RTVSPropertyOp47
 70
     1
102
RTVSPropertyOp48
 70
     1
102
RTVSPropertyOp49
 70
     1
102
RTVSPropertyOp50
 70
     1
102
RTVSPropertyOp51
 70
     0
102
RTVSPropertyOp52
 70
     0
102
RTVSPropertyOp53
 70
     1
102
RTVSPropertyOp54
 70
     1
102
RTVSPropertyOp55
 70
     1
102
RTVSPropertyOp56
 70
     1
102
RTVSPropertyOp57
 70
     1
102
RTVSPropertyOp58
 70
     1
102
RTVSPropertyOp59
 70
     1
102
RTVSPropertyOp60
 70
     1
102
RTVSPropertyOp61
 70
     1
102
RTVSPropertyOp62
 70
     1
  0
XRECORD
  5
888
102
{ACAD_REACTORS
330
887
102
}
330
887
100
AcDbXrecord
280
     1
102
RTVSPost2010Prop28
280
     0
102
RTVSPost2010PropOp28
 70
     1
102
RTVSPost2010Prop29
280
     1
102
RTVSPost2010PropOp29
 70
     1
102
RTVSPost2010Prop30
280
     1
102
RTVSPost2010PropOp30
 70
     1
102
RTVSPost2010Prop31
280
     0
102
RTVSPost2010PropOp31
 70
     1
102
RTVSPost2010Prop32
280
     0
102
RTVSPost2010PropOp32
 70
     1
102
RTVSPost2010Prop33
280
     0
102
RTVSPost2010PropOp33
 70
     1
102
RTVSPost2010Prop34
280
     0
102
RTVSPost2010PropOp34
 70
     1
102
RTVSPost2010Prop35
280
     0
102
RTVSPost2010PropOp35
 70
     1
102
RTVSPost2010Prop36
280
     0
102
RTVSPost2010PropOp36
 70
     1
102
RTVSPost2010Prop37
 90
       50
102
RTVSPost2010PropOp37
 70
     1
102
RTVSPost2010Prop38
140
0.0
102
RTVSPost2010PropOp38
 70
     1
102
RTVSPost2010Prop39
140
1.0
102
RTVSPost2010PropOp39
 70
     1
102
RTVSPost2010Prop40
 90
        0
102
RTVSPost2010PropOp40
 70
     1
102
RTVSPost2010Prop41ColorIndex
 90
       18
102
RTVSPost2010Prop41ColorRGB
 90
        0
102
RTVSPost2010PropOp41
 70
     1
102
RTVSPost2010Prop42
 90
       50
102
RTVSPost2010PropOp42
 70
     1
102
RTVSPost2010Prop43
 90
        3
102
RTVSPost2010PropOp43
 70
     1
102
RTVSPost2010Prop44ColorIndex
 90
        5
102
RTVSPost2010Prop44ColorRGB
 90
      255
102
RTVSPost2010PropOp44
 70
     1
102
RTVSPost2010Prop45
280
     0
102
RTVSPost2010PropOp45
 70
     1
102
RTVSPost2010Prop46
 90
       50
102
RTVSPost2010PropOp46
 70
     1
102
RTVSPost2010Prop47
 90
       50
102
RTVSPost2010PropOp47
 70
     1
102
RTVSPost2010Prop48
 90
       50
102
RTVSPost2010PropOp48
 70
     1
102
RTVSPost2010Prop49
280
     0
102
RTVSPost2010PropOp49
 70
     1
102
RTVSPost2010Prop50
 90
       50
102
RTVSPost2010PropOp50
 70
     1
102
RTVSPost2010Prop51ColorIndex
 90
      256
102
RTVSPost2010Prop51ColorRGB
 90
-16777216
102
RTVSPost2010PropOp51
 70
     0
102
RTVSPost2010Prop52
140
1.0
102
RTVSPost2010PropOp52
 70
     0
102
RTVSPost2010Prop53
 90
        2
102
RTVSPost2010PropOp53
 70
     1
102
RTVSPost2010Prop54
  1
strokes_ogs.tif
102
RTVSPost2010PropOp54
 70
     1
102
RTVSPost2010Prop55
280
     0
102
RTVSPost2010PropOp55
 70
     1
102
RTVSPost2010Prop56
140
1.0
102
RTVSPost2010PropOp56
 70
     1
102
RTVSPost2010Prop57
140
1.0
102
RTVSPost2010PropOp57
 70
     1
102
RTVSPropertyOp0
 70
     1
102
RTVSPropertyOp1
 70
     1
102
RTVSPropertyOp2
 70
     1
102
RTVSPropertyOp3
 70
     1
102
RTVSPropertyOp4
 70
     1
102
RTVSPropertyOp5
 70
     1
102
RTVSPropertyOp6
 70
     1
102
RTVSPropertyOp7
 70
     1
102
RTVSPropertyOp8
 70
     1
102
RTVSPropertyOp9
 70
     1
102
RTVSPropertyOp10
 70
     1
102
RTVSPropertyOp11
 70
     1
102
RTVSPropertyOp12
 70
     1
102
RTVSPropertyOp13
 70
     1
102
RTVSPropertyOp14
 70
     1
102
RTVSPropertyOp15
 70
     1
102
RTVSPropertyOp16
 70
     1
102
RTVSPropertyOp17
 70
     1
102
RTVSPropertyOp18
 70
     1
102
RTVSPropertyOp19
 70
     1
102
RTVSPropertyOp20
 70
     1
102
RTVSPropertyOp21
 70
     1
102
RTVSPropertyOp22
 70
     1
102
RTVSPropertyOp23
 70
     1
102
RTVSPropertyOp24
 70
     1
102
RTVSPropertyOp25
 70
     1
102
RTVSPropertyOp26
 70
     1
102
RTVSPropertyOp27
 70
     1
102
RTVSPropertyOp28
 70
     1
102
RTVSPropertyOp29
 70
     1
102
RTVSPropertyOp30
 70
     1
102
RTVSPropertyOp31
 70
     1
102
RTVSPropertyOp32
 70
     1
102
RTVSPropertyOp33
 70
     1
102
RTVSPropertyOp34
 70
     1
102
RTVSPropertyOp35
 70
     1
102
RTVSPropertyOp36
 70
     1
102
RTVSPropertyOp37
 70
     1
102
RTVSPropertyOp38
 70
     1
102
RTVSPropertyOp39
 70
     1
102
RTVSPropertyOp40
 70
     1
102
RTVSPropertyOp41
 70
     1
102
RTVSPropertyOp42
 70
     1
102
RTVSPropertyOp43
 70
     1
102
RTVSPropertyOp44
 70
     1
102
RTVSPropertyOp45
 70
     1
102
RTVSPropertyOp46
 70
     1
102
RTVSPropertyOp47
 70
     1
102
RTVSPropertyOp48
 70
     1
102
RTVSPropertyOp49
 70
     1
102
RTVSPropertyOp50
 70
     1
102
RTVSPropertyOp51
 70
     0
102
RTVSPropertyOp52
 70
     0
102
RTVSPropertyOp53
 70
     1
102
RTVSPropertyOp54
 70
     1
102
RTVSPropertyOp55
 70
     1
102
RTVSPropertyOp56
 70
     1
102
RTVSPropertyOp57
 70
     1
102
RTVSPropertyOp58
 70
     1
102
RTVSPropertyOp59
 70
     1
102
RTVSPropertyOp60
 70
     1
102
RTVSPropertyOp61
 70
     1
102
RTVSPropertyOp62
 70
     1
  0
XRECORD
  5
890
102
{ACAD_REACTORS
330
88F
102
}
330
88F
100
AcDbXrecord
280
     1
102
RTVSPost2010Prop28
280
     0
102
RTVSPost2010PropOp28
 70
     1
102
RTVSPost2010Prop29
280
     1
102
RTVSPost2010PropOp29
 70
     1
102
RTVSPost2010Prop30
280
     1
102
RTVSPost2010PropOp30
 70
     1
102
RTVSPost2010Prop31
280
     0
102
RTVSPost2010PropOp31
 70
     1
102
RTVSPost2010Prop32
280
     0
102
RTVSPost2010PropOp32
 70
     1
102
RTVSPost2010Prop33
280
     0
102
RTVSPost2010PropOp33
 70
     1
102
RTVSPost2010Prop34
280
     0
102
RTVSPost2010PropOp34
 70
     1
102
RTVSPost2010Prop35
280
     0
102
RTVSPost2010PropOp35
 70
     1
102
RTVSPost2010Prop36
280
     0
102
RTVSPost2010PropOp36
 70
     1
102
RTVSPost2010Prop37
 90
       50
102
RTVSPost2010PropOp37
 70
     1
102
RTVSPost2010Prop38
140
0.0
102
RTVSPost2010PropOp38
 70
     1
102
RTVSPost2010Prop39
140
1.0
102
RTVSPost2010PropOp39
 70
     1
102
RTVSPost2010Prop40
 90
        0
102
RTVSPost2010PropOp40
 70
     1
102
RTVSPost2010Prop41ColorIndex
 90
       18
102
RTVSPost2010Prop41ColorRGB
 90
        0
102
RTVSPost2010PropOp41
 70
     1
102
RTVSPost2010Prop42
 90
       50
102
RTVSPost2010PropOp42
 70
     1
102
RTVSPost2010Prop43
 90
        3
102
RTVSPost2010PropOp43
 70
     1
102
RTVSPost2010Prop44ColorIndex
 90
        5
102
RTVSPost2010Prop44ColorRGB
 90
      255
102
RTVSPost2010PropOp44
 70
     1
102
RTVSPost2010Prop45
280
     0
102
RTVSPost2010PropOp45
 70
     1
102
RTVSPost2010Prop46
 90
       50
102
RTVSPost2010PropOp46
 70
     1
102
RTVSPost2010Prop47
 90
       50
102
RTVSPost2010PropOp47
 70
     1
102
RTVSPost2010Prop48
 90
       50
102
RTVSPost2010PropOp48
 70
     1
102
RTVSPost2010Prop49
280
     0
102
RTVSPost2010PropOp49
 70
     1
102
RTVSPost2010Prop50
 90
       50
102
RTVSPost2010PropOp50
 70
     1
102
RTVSPost2010Prop51ColorIndex
 90
      256
102
RTVSPost2010Prop51ColorRGB
 90
-16777216
102
RTVSPost2010PropOp51
 70
     0
102
RTVSPost2010Prop52
140
1.0
102
RTVSPost2010PropOp52
 70
     0
102
RTVSPost2010Prop53
 90
        2
102
RTVSPost2010PropOp53
 70
     1
102
RTVSPost2010Prop54
  1
strokes_ogs.tif
102
RTVSPost2010PropOp54
 70
     1
102
RTVSPost2010Prop55
280
     0
102
RTVSPost2010PropOp55
 70
     1
102
RTVSPost2010Prop56
140
1.0
102
RTVSPost2010PropOp56
 70
     1
102
RTVSPost2010Prop57
140
1.0
102
RTVSPost2010PropOp57
 70
     1
102
RTVSPropertyOp0
 70
     1
102
RTVSPropertyOp1
 70
     1
102
RTVSPropertyOp2
 70
     1
102
RTVSPropertyOp3
 70
     1
102
RTVSPropertyOp4
 70
     1
102
RTVSPropertyOp5
 70
     1
102
RTVSPropertyOp6
 70
     1
102
RTVSPropertyOp7
 70
     1
102
RTVSPropertyOp8
 70
     1
102
RTVSPropertyOp9
 70
     1
102
RTVSPropertyOp10
 70
     1
102
RTVSPropertyOp11
 70
     1
102
RTVSPropertyOp12
 70
     1
102
RTVSPropertyOp13
 70
     1
102
RTVSPropertyOp14
 70
     1
102
RTVSPropertyOp15
 70
     1
102
RTVSPropertyOp16
 70
     1
102
RTVSPropertyOp17
 70
     1
102
RTVSPropertyOp18
 70
     1
102
RTVSPropertyOp19
 70
     1
102
RTVSPropertyOp20
 70
     1
102
RTVSPropertyOp21
 70
     1
102
RTVSPropertyOp22
 70
     1
102
RTVSPropertyOp23
 70
     1
102
RTVSPropertyOp24
 70
     1
102
RTVSPropertyOp25
 70
     1
102
RTVSPropertyOp26
 70
     1
102
RTVSPropertyOp27
 70
     1
102
RTVSPropertyOp28
 70
     1
102
RTVSPropertyOp29
 70
     1
102
RTVSPropertyOp30
 70
     1
102
RTVSPropertyOp31
 70
     1
102
RTVSPropertyOp32
 70
     1
102
RTVSPropertyOp33
 70
     1
102
RTVSPropertyOp34
 70
     1
102
RTVSPropertyOp35
 70
     1
102
RTVSPropertyOp36
 70
     1
102
RTVSPropertyOp37
 70
     1
102
RTVSPropertyOp38
 70
     1
102
RTVSPropertyOp39
 70
     1
102
RTVSPropertyOp40
 70
     1
102
RTVSPropertyOp41
 70
     1
102
RTVSPropertyOp42
 70
     1
102
RTVSPropertyOp43
 70
     1
102
RTVSPropertyOp44
 70
     1
102
RTVSPropertyOp45
 70
     1
102
RTVSPropertyOp46
 70
     1
102
RTVSPropertyOp47
 70
     1
102
RTVSPropertyOp48
 70
     1
102
RTVSPropertyOp49
 70
     1
102
RTVSPropertyOp50
 70
     1
102
RTVSPropertyOp51
 70
     0
102
RTVSPropertyOp52
 70
     0
102
RTVSPropertyOp53
 70
     1
102
RTVSPropertyOp54
 70
     1
102
RTVSPropertyOp55
 70
     1
102
RTVSPropertyOp56
 70
     1
102
RTVSPropertyOp57
 70
     1
102
RTVSPropertyOp58
 70
     1
102
RTVSPropertyOp59
 70
     1
102
RTVSPropertyOp60
 70
     1
102
RTVSPropertyOp61
 70
     1
102
RTVSPropertyOp62
 70
     1
  0
XRECORD
  5
8AC
102
{ACAD_REACTORS
330
8AB
102
}
330
8AB
100
AcDbXrecord
280
     1
102
RTVSPost2010Prop28
280
     0
102
RTVSPost2010PropOp28
 70
     1
102
RTVSPost2010Prop29
280
     1
102
RTVSPost2010PropOp29
 70
     1
102
RTVSPost2010Prop30
280
     1
102
RTVSPost2010PropOp30
 70
     1
102
RTVSPost2010Prop31
280
     0
102
RTVSPost2010PropOp31
 70
     1
102
RTVSPost2010Prop32
280
     0
102
RTVSPost2010PropOp32
 70
     1
102
RTVSPost2010Prop33
280
     0
102
RTVSPost2010PropOp33
 70
     1
102
RTVSPost2010Prop34
280
     0
102
RTVSPost2010PropOp34
 70
     1
102
RTVSPost2010Prop35
280
     0
102
RTVSPost2010PropOp35
 70
     1
102
RTVSPost2010Prop36
280
     0
102
RTVSPost2010PropOp36
 70
     1
102
RTVSPost2010Prop37
 90
       50
102
RTVSPost2010PropOp37
 70
     0
102
RTVSPost2010Prop38
140
0.0
102
RTVSPost2010PropOp38
 70
     0
102
RTVSPost2010Prop39
140
1.0
102
RTVSPost2010PropOp39
 70
     0
102
RTVSPost2010Prop40
 90
        0
102
RTVSPost2010PropOp40
 70
     0
102
RTVSPost2010Prop41ColorIndex
 90
       18
102
RTVSPost2010Prop41ColorRGB
 90
        0
102
RTVSPost2010PropOp41
 70
     0
102
RTVSPost2010Prop42
 90
       50
102
RTVSPost2010PropOp42
 70
     0
102
RTVSPost2010Prop43
 90
        3
102
RTVSPost2010PropOp43
 70
     0
102
RTVSPost2010Prop44ColorIndex
 90
        5
102
RTVSPost2010Prop44ColorRGB
 90
      255
102
RTVSPost2010PropOp44
 70
     0
102
RTVSPost2010Prop45
280
     0
102
RTVSPost2010PropOp45
 70
     1
102
RTVSPost2010Prop46
 90
       50
102
RTVSPost2010PropOp46
 70
     0
102
RTVSPost2010Prop47
 90
       50
102
RTVSPost2010PropOp47
 70
     0
102
RTVSPost2010Prop48
 90
       50
102
RTVSPost2010PropOp48
 70
     0
102
RTVSPost2010Prop49
280
     0
102
RTVSPost2010PropOp49
 70
     1
102
RTVSPost2010Prop50
 90
       50
102
RTVSPost2010PropOp50
 70
     0
102
RTVSPost2010Prop51ColorIndex
 90
      256
102
RTVSPost2010Prop51ColorRGB
 90
-16777216
102
RTVSPost2010PropOp51
 70
     0
102
RTVSPost2010Prop52
140
1.0
102
RTVSPost2010PropOp52
 70
     0
102
RTVSPost2010Prop53
 90
        2
102
RTVSPost2010PropOp53
 70
     0
102
RTVSPost2010Prop54
  1
strokes_ogs.tif
102
RTVSPost2010PropOp54
 70
     0
102
RTVSPost2010Prop55
280
     0
102
RTVSPost2010PropOp55
 70
     1
102
RTVSPost2010Prop56
140
1.0
102
RTVSPost2010PropOp56
 70
     0
102
RTVSPost2010Prop57
140
1.0
102
RTVSPost2010PropOp57
 70
     0
102
RTVSPropertyOp0
 70
     0
102
RTVSPropertyOp1
 70
     0
102
RTVSPropertyOp2
 70
     0
102
RTVSPropertyOp3
 70
     0
102
RTVSPropertyOp4
 70
     0
102
RTVSPropertyOp5
 70
     0
102
RTVSPropertyOp6
 70
     0
102
RTVSPropertyOp7
 70
     0
102
RTVSPropertyOp8
 70
     0
102
RTVSPropertyOp9
 70
     0
102
RTVSPropertyOp10
 70
     0
102
RTVSPropertyOp11
 70
     0
102
RTVSPropertyOp12
 70
     0
102
RTVSPropertyOp13
 70
     0
102
RTVSPropertyOp14
 70
     2
102
RTVSPropertyOp15
 70
     0
102
RTVSPropertyOp16
 70
     0
102
RTVSPropertyOp17
 70
     0
102
RTVSPropertyOp18
 70
     0
102
RTVSPropertyOp19
 70
     0
102
RTVSPropertyOp20
 70
     0
102
RTVSPropertyOp21
 70
     0
102
RTVSPropertyOp22
 70
     0
102
RTVSPropertyOp23
 70
     0
102
RTVSPropertyOp24
 70
     0
102
RTVSPropertyOp25
 70
     0
102
RTVSPropertyOp26
 70
     0
102
RTVSPropertyOp27
 70
     0
102
RTVSPropertyOp28
 70
     1
102
RTVSPropertyOp29
 70
     1
102
RTVSPropertyOp30
 70
     1
102
RTVSPropertyOp31
 70
     1
102
RTVSPropertyOp32
 70
     1
102
RTVSPropertyOp33
 70
     1
102
RTVSPropertyOp34
 70
     1
102
RTVSPropertyOp35
 70
     1
102
RTVSPropertyOp36
 70
     1
102
RTVSPropertyOp37
 70
     0
102
RTVSPropertyOp38
 70
     0
102
RTVSPropertyOp39
 70
     0
102
RTVSPropertyOp40
 70
     0
102
RTVSPropertyOp41
 70
     0
102
RTVSPropertyOp42
 70
     0
102
RTVSPropertyOp43
 70
     0
102
RTVSPropertyOp44
 70
     0
102
RTVSPropertyOp45
 70
     1
102
RTVSPropertyOp46
 70
     0
102
RTVSPropertyOp47
 70
     0
102
RTVSPropertyOp48
 70
     0
102
RTVSPropertyOp49
 70
     1
102
RTVSPropertyOp50
 70
     0
102
RTVSPropertyOp51
 70
     0
102
RTVSPropertyOp52
 70
     0
102
RTVSPropertyOp53
 70
     0
102
RTVSPropertyOp54
 70
     0
102
RTVSPropertyOp55
 70
     1
102
RTVSPropertyOp56
 70
     0
102
RTVSPropertyOp57
 70
     0
102
RTVSPropertyOp58
 70
     0
102
RTVSPropertyOp59
 70
     0
102
RTVSPropertyOp60
 70
     0
102
RTVSPropertyOp61
 70
     0
102
RTVSPropertyOp62
 70
     0
  0
XRECORD
  5
89C
102
{ACAD_REACTORS
330
89B
102
}
330
89B
100
AcDbXrecord
280
     1
102
RTVSPost2010Prop28
280
     0
102
RTVSPost2010PropOp28
 70
     1
102
RTVSPost2010Prop29
280
     1
102
RTVSPost2010PropOp29
 70
     1
102
RTVSPost2010Prop30
280
     1
102
RTVSPost2010PropOp30
 70
     1
102
RTVSPost2010Prop31
280
     0
102
RTVSPost2010PropOp31
 70
     1
102
RTVSPost2010Prop32
280
     0
102
RTVSPost2010PropOp32
 70
     1
102
RTVSPost2010Prop33
280
     0
102
RTVSPost2010PropOp33
 70
     1
102
RTVSPost2010Prop34
280
     0
102
RTVSPost2010PropOp34
 70
     1
102
RTVSPost2010Prop35
280
     0
102
RTVSPost2010PropOp35
 70
     1
102
RTVSPost2010Prop36
280
     0
102
RTVSPost2010PropOp36
 70
     1
102
RTVSPost2010Prop37
 90
       50
102
RTVSPost2010PropOp37
 70
     1
102
RTVSPost2010Prop38
140
0.0
102
RTVSPost2010PropOp38
 70
     1
102
RTVSPost2010Prop39
140
1.0
102
RTVSPost2010PropOp39
 70
     1
102
RTVSPost2010Prop40
 90
        0
102
RTVSPost2010PropOp40
 70
     1
102
RTVSPost2010Prop41ColorIndex
 90
       18
102
RTVSPost2010Prop41ColorRGB
 90
        0
102
RTVSPost2010PropOp41
 70
     1
102
RTVSPost2010Prop42
 90
       50
102
RTVSPost2010PropOp42
 70
     1
102
RTVSPost2010Prop43
 90
        3
102
RTVSPost2010PropOp43
 70
     1
102
RTVSPost2010Prop44ColorIndex
 90
        5
102
RTVSPost2010Prop44ColorRGB
 90
      255
102
RTVSPost2010PropOp44
 70
     1
102
RTVSPost2010Prop45
280
     0
102
RTVSPost2010PropOp45
 70
     1
102
RTVSPost2010Prop46
 90
       50
102
RTVSPost2010PropOp46
 70
     1
102
RTVSPost2010Prop47
 90
       50
102
RTVSPost2010PropOp47
 70
     1
102
RTVSPost2010Prop48
 90
       50
102
RTVSPost2010PropOp48
 70
     1
102
RTVSPost2010Prop49
280
     0
102
RTVSPost2010PropOp49
 70
     1
102
RTVSPost2010Prop50
 90
       50
102
RTVSPost2010PropOp50
 70
     1
102
RTVSPost2010Prop51ColorIndex
 90
      256
102
RTVSPost2010Prop51ColorRGB
 90
-16777216
102
RTVSPost2010PropOp51
 70
     0
102
RTVSPost2010Prop52
140
1.0
102
RTVSPost2010PropOp52
 70
     0
102
RTVSPost2010Prop53
 90
        2
102
RTVSPost2010PropOp53
 70
     1
102
RTVSPost2010Prop54
  1
strokes_ogs.tif
102
RTVSPost2010PropOp54
 70
     1
102
RTVSPost2010Prop55
280
     0
102
RTVSPost2010PropOp55
 70
     1
102
RTVSPost2010Prop56
140
1.0
102
RTVSPost2010PropOp56
 70
     1
102
RTVSPost2010Prop57
140
1.0
102
RTVSPost2010PropOp57
 70
     1
102
RTVSPropertyOp0
 70
     1
102
RTVSPropertyOp1
 70
     1
102
RTVSPropertyOp2
 70
     1
102
RTVSPropertyOp3
 70
     1
102
RTVSPropertyOp4
 70
     1
102
RTVSPropertyOp5
 70
     1
102
RTVSPropertyOp6
 70
     1
102
RTVSPropertyOp7
 70
     1
102
RTVSPropertyOp8
 70
     1
102
RTVSPropertyOp9
 70
     1
102
RTVSPropertyOp10
 70
     1
102
RTVSPropertyOp11
 70
     1
102
RTVSPropertyOp12
 70
     1
102
RTVSPropertyOp13
 70
     1
102
RTVSPropertyOp14
 70
     1
102
RTVSPropertyOp15
 70
     1
102
RTVSPropertyOp16
 70
     1
102
RTVSPropertyOp17
 70
     1
102
RTVSPropertyOp18
 70
     1
102
RTVSPropertyOp19
 70
     1
102
RTVSPropertyOp20
 70
     1
102
RTVSPropertyOp21
 70
     1
102
RTVSPropertyOp22
 70
     1
102
RTVSPropertyOp23
 70
     1
102
RTVSPropertyOp24
 70
     1
102
RTVSPropertyOp25
 70
     1
102
RTVSPropertyOp26
 70
     1
102
RTVSPropertyOp27
 70
     1
102
RTVSPropertyOp28
 70
     1
102
RTVSPropertyOp29
 70
     1
102
RTVSPropertyOp30
 70
     1
102
RTVSPropertyOp31
 70
     1
102
RTVSPropertyOp32
 70
     1
102
RTVSPropertyOp33
 70
     1
102
RTVSPropertyOp34
 70
     1
102
RTVSPropertyOp35
 70
     1
102
RTVSPropertyOp36
 70
     1
102
RTVSPropertyOp37
 70
     1
102
RTVSPropertyOp38
 70
     1
102
RTVSPropertyOp39
 70
     1
102
RTVSPropertyOp40
 70
     1
102
RTVSPropertyOp41
 70
     1
102
RTVSPropertyOp42
 70
     1
102
RTVSPropertyOp43
 70
     1
102
RTVSPropertyOp44
 70
     1
102
RTVSPropertyOp45
 70
     1
102
RTVSPropertyOp46
 70
     1
102
RTVSPropertyOp47
 70
     1
102
RTVSPropertyOp48
 70
     1
102
RTVSPropertyOp49
 70
     1
102
RTVSPropertyOp50
 70
     1
102
RTVSPropertyOp51
 70
     0
102
RTVSPropertyOp52
 70
     0
102
RTVSPropertyOp53
 70
     1
102
RTVSPropertyOp54
 70
     1
102
RTVSPropertyOp55
 70
     1
102
RTVSPropertyOp56
 70
     1
102
RTVSPropertyOp57
 70
     1
102
RTVSPropertyOp58
 70
     1
102
RTVSPropertyOp59
 70
     1
102
RTVSPropertyOp60
 70
     1
102
RTVSPropertyOp61
 70
     1
102
RTVSPropertyOp62
 70
     1
  0
XRECORD
  5
8AE
102
{ACAD_REACTORS
330
8AD
102
}
330
8AD
100
AcDbXrecord
280
     1
102
RTVSPost2010Prop28
280
     0
102
RTVSPost2010PropOp28
 70
     1
102
RTVSPost2010Prop29
280
     1
102
RTVSPost2010PropOp29
 70
     1
102
RTVSPost2010Prop30
280
     1
102
RTVSPost2010PropOp30
 70
     1
102
RTVSPost2010Prop31
280
     0
102
RTVSPost2010PropOp31
 70
     1
102
RTVSPost2010Prop32
280
     0
102
RTVSPost2010PropOp32
 70
     1
102
RTVSPost2010Prop33
280
     0
102
RTVSPost2010PropOp33
 70
     1
102
RTVSPost2010Prop34
280
     0
102
RTVSPost2010PropOp34
 70
     1
102
RTVSPost2010Prop35
280
     0
102
RTVSPost2010PropOp35
 70
     1
102
RTVSPost2010Prop36
280
     0
102
RTVSPost2010PropOp36
 70
     1
102
RTVSPost2010Prop37
 90
       50
102
RTVSPost2010PropOp37
 70
     0
102
RTVSPost2010Prop38
140
0.0
102
RTVSPost2010PropOp38
 70
     0
102
RTVSPost2010Prop39
140
1.0
102
RTVSPost2010PropOp39
 70
     0
102
RTVSPost2010Prop40
 90
        0
102
RTVSPost2010PropOp40
 70
     0
102
RTVSPost2010Prop41ColorIndex
 90
       18
102
RTVSPost2010Prop41ColorRGB
 90
        0
102
RTVSPost2010PropOp41
 70
     0
102
RTVSPost2010Prop42
 90
       50
102
RTVSPost2010PropOp42
 70
     0
102
RTVSPost2010Prop43
 90
        3
102
RTVSPost2010PropOp43
 70
     0
102
RTVSPost2010Prop44ColorIndex
 90
        5
102
RTVSPost2010Prop44ColorRGB
 90
      255
102
RTVSPost2010PropOp44
 70
     0
102
RTVSPost2010Prop45
280
     0
102
RTVSPost2010PropOp45
 70
     1
102
RTVSPost2010Prop46
 90
       50
102
RTVSPost2010PropOp46
 70
     0
102
RTVSPost2010Prop47
 90
       50
102
RTVSPost2010PropOp47
 70
     0
102
RTVSPost2010Prop48
 90
       50
102
RTVSPost2010PropOp48
 70
     0
102
RTVSPost2010Prop49
280
     0
102
RTVSPost2010PropOp49
 70
     1
102
RTVSPost2010Prop50
 90
       50
102
RTVSPost2010PropOp50
 70
     0
102
RTVSPost2010Prop51ColorIndex
 90
      256
102
RTVSPost2010Prop51ColorRGB
 90
-16777216
102
RTVSPost2010PropOp51
 70
     0
102
RTVSPost2010Prop52
140
1.0
102
RTVSPost2010PropOp52
 70
     0
102
RTVSPost2010Prop53
 90
        2
102
RTVSPost2010PropOp53
 70
     0
102
RTVSPost2010Prop54
  1
strokes_ogs.tif
102
RTVSPost2010PropOp54
 70
     0
102
RTVSPost2010Prop55
280
     0
102
RTVSPost2010PropOp55
 70
     1
102
RTVSPost2010Prop56
140
1.0
102
RTVSPost2010PropOp56
 70
     0
102
RTVSPost2010Prop57
140
1.0
102
RTVSPost2010PropOp57
 70
     0
102
RTVSPropertyOp0
 70
     0
102
RTVSPropertyOp1
 70
     0
102
RTVSPropertyOp2
 70
     0
102
RTVSPropertyOp3
 70
     0
102
RTVSPropertyOp4
 70
     0
102
RTVSPropertyOp5
 70
     0
102
RTVSPropertyOp6
 70
     0
102
RTVSPropertyOp7
 70
     0
102
RTVSPropertyOp8
 70
     0
102
RTVSPropertyOp9
 70
     0
102
RTVSPropertyOp10
 70
     0
102
RTVSPropertyOp11
 70
     0
102
RTVSPropertyOp12
 70
     0
102
RTVSPropertyOp13
 70
     0
102
RTVSPropertyOp14
 70
     2
102
RTVSPropertyOp15
 70
     0
102
RTVSPropertyOp16
 70
     0
102
RTVSPropertyOp17
 70
     0
102
RTVSPropertyOp18
 70
     0
102
RTVSPropertyOp19
 70
     0
102
RTVSPropertyOp20
 70
     0
102
RTVSPropertyOp21
 70
     0
102
RTVSPropertyOp22
 70
     0
102
RTVSPropertyOp23
 70
     0
102
RTVSPropertyOp24
 70
     0
102
RTVSPropertyOp25
 70
     0
102
RTVSPropertyOp26
 70
     0
102
RTVSPropertyOp27
 70
     0
102
RTVSPropertyOp28
 70
     1
102
RTVSPropertyOp29
 70
     1
102
RTVSPropertyOp30
 70
     1
102
RTVSPropertyOp31
 70
     1
102
RTVSPropertyOp32
 70
     1
102
RTVSPropertyOp33
 70
     1
102
RTVSPropertyOp34
 70
     1
102
RTVSPropertyOp35
 70
     1
102
RTVSPropertyOp36
 70
     1
102
RTVSPropertyOp37
 70
     0
102
RTVSPropertyOp38
 70
     0
102
RTVSPropertyOp39
 70
     0
102
RTVSPropertyOp40
 70
     0
102
RTVSPropertyOp41
 70
     0
102
RTVSPropertyOp42
 70
     0
102
RTVSPropertyOp43
 70
     0
102
RTVSPropertyOp44
 70
     0
102
RTVSPropertyOp45
 70
     1
102
RTVSPropertyOp46
 70
     0
102
RTVSPropertyOp47
 70
     0
102
RTVSPropertyOp48
 70
     0
102
RTVSPropertyOp49
 70
     1
102
RTVSPropertyOp50
 70
     0
102
RTVSPropertyOp51
 70
     0
102
RTVSPropertyOp52
 70
     0
102
RTVSPropertyOp53
 70
     0
102
RTVSPropertyOp54
 70
     0
102
RTVSPropertyOp55
 70
     1
102
RTVSPropertyOp56
 70
     0
102
RTVSPropertyOp57
 70
     0
102
RTVSPropertyOp58
 70
     0
102
RTVSPropertyOp59
 70
     0
102
RTVSPropertyOp60
 70
     0
102
RTVSPropertyOp61
 70
     0
102
RTVSPropertyOp62
 70
     0
  0
XRECORD
  5
894
102
{ACAD_REACTORS
330
893
102
}
330
893
100
AcDbXrecord
280
     1
102
RTVSPost2010Prop28
280
     0
102
RTVSPost2010PropOp28
 70
     1
102
RTVSPost2010Prop29
280
     1
102
RTVSPost2010PropOp29
 70
     1
102
RTVSPost2010Prop30
280
     1
102
RTVSPost2010PropOp30
 70
     1
102
RTVSPost2010Prop31
280
     0
102
RTVSPost2010PropOp31
 70
     1
102
RTVSPost2010Prop32
280
     0
102
RTVSPost2010PropOp32
 70
     1
102
RTVSPost2010Prop33
280
     0
102
RTVSPost2010PropOp33
 70
     1
102
RTVSPost2010Prop34
280
     0
102
RTVSPost2010PropOp34
 70
     1
102
RTVSPost2010Prop35
280
     0
102
RTVSPost2010PropOp35
 70
     1
102
RTVSPost2010Prop36
280
     0
102
RTVSPost2010PropOp36
 70
     1
102
RTVSPost2010Prop37
 90
       50
102
RTVSPost2010PropOp37
 70
     1
102
RTVSPost2010Prop38
140
0.0
102
RTVSPost2010PropOp38
 70
     1
102
RTVSPost2010Prop39
140
1.0
102
RTVSPost2010PropOp39
 70
     1
102
RTVSPost2010Prop40
 90
        0
102
RTVSPost2010PropOp40
 70
     1
102
RTVSPost2010Prop41ColorIndex
 90
       18
102
RTVSPost2010Prop41ColorRGB
 90
        0
102
RTVSPost2010PropOp41
 70
     1
102
RTVSPost2010Prop42
 90
       50
102
RTVSPost2010PropOp42
 70
     1
102
RTVSPost2010Prop43
 90
        3
102
RTVSPost2010PropOp43
 70
     1
102
RTVSPost2010Prop44ColorIndex
 90
        5
102
RTVSPost2010Prop44ColorRGB
 90
      255
102
RTVSPost2010PropOp44
 70
     1
102
RTVSPost2010Prop45
280
     0
102
RTVSPost2010PropOp45
 70
     1
102
RTVSPost2010Prop46
 90
       50
102
RTVSPost2010PropOp46
 70
     1
102
RTVSPost2010Prop47
 90
       50
102
RTVSPost2010PropOp47
 70
     1
102
RTVSPost2010Prop48
 90
       50
102
RTVSPost2010PropOp48
 70
     1
102
RTVSPost2010Prop49
280
     0
102
RTVSPost2010PropOp49
 70
     1
102
RTVSPost2010Prop50
 90
       50
102
RTVSPost2010PropOp50
 70
     1
102
RTVSPost2010Prop51ColorIndex
 90
      256
102
RTVSPost2010Prop51ColorRGB
 90
-16777216
102
RTVSPost2010PropOp51
 70
     0
102
RTVSPost2010Prop52
140
1.0
102
RTVSPost2010PropOp52
 70
     0
102
RTVSPost2010Prop53
 90
        2
102
RTVSPost2010PropOp53
 70
     1
102
RTVSPost2010Prop54
  1
strokes_ogs.tif
102
RTVSPost2010PropOp54
 70
     1
102
RTVSPost2010Prop55
280
     0
102
RTVSPost2010PropOp55
 70
     1
102
RTVSPost2010Prop56
140
1.0
102
RTVSPost2010PropOp56
 70
     1
102
RTVSPost2010Prop57
140
1.0
102
RTVSPost2010PropOp57
 70
     1
102
RTVSPropertyOp0
 70
     1
102
RTVSPropertyOp1
 70
     1
102
RTVSPropertyOp2
 70
     1
102
RTVSPropertyOp3
 70
     1
102
RTVSPropertyOp4
 70
     1
102
RTVSPropertyOp5
 70
     1
102
RTVSPropertyOp6
 70
     1
102
RTVSPropertyOp7
 70
     1
102
RTVSPropertyOp8
 70
     1
102
RTVSPropertyOp9
 70
     1
102
RTVSPropertyOp10
 70
     1
102
RTVSPropertyOp11
 70
     1
102
RTVSPropertyOp12
 70
     1
102
RTVSPropertyOp13
 70
     1
102
RTVSPropertyOp14
 70
     1
102
RTVSPropertyOp15
 70
     1
102
RTVSPropertyOp16
 70
     1
102
RTVSPropertyOp17
 70
     1
102
RTVSPropertyOp18
 70
     1
102
RTVSPropertyOp19
 70
     1
102
RTVSPropertyOp20
 70
     1
102
RTVSPropertyOp21
 70
     1
102
RTVSPropertyOp22
 70
     1
102
RTVSPropertyOp23
 70
     1
102
RTVSPropertyOp24
 70
     1
102
RTVSPropertyOp25
 70
     1
102
RTVSPropertyOp26
 70
     1
102
RTVSPropertyOp27
 70
     1
102
RTVSPropertyOp28
 70
     1
102
RTVSPropertyOp29
 70
     1
102
RTVSPropertyOp30
 70
     1
102
RTVSPropertyOp31
 70
     1
102
RTVSPropertyOp32
 70
     1
102
RTVSPropertyOp33
 70
     1
102
RTVSPropertyOp34
 70
     1
102
RTVSPropertyOp35
 70
     1
102
RTVSPropertyOp36
 70
     1
102
RTVSPropertyOp37
 70
     1
102
RTVSPropertyOp38
 70
     1
102
RTVSPropertyOp39
 70
     1
102
RTVSPropertyOp40
 70
     1
102
RTVSPropertyOp41
 70
     1
102
RTVSPropertyOp42
 70
     1
102
RTVSPropertyOp43
 70
     1
102
RTVSPropertyOp44
 70
     1
102
RTVSPropertyOp45
 70
     1
102
RTVSPropertyOp46
 70
     1
102
RTVSPropertyOp47
 70
     1
102
RTVSPropertyOp48
 70
     1
102
RTVSPropertyOp49
 70
     1
102
RTVSPropertyOp50
 70
     1
102
RTVSPropertyOp51
 70
     0
102
RTVSPropertyOp52
 70
     0
102
RTVSPropertyOp53
 70
     1
102
RTVSPropertyOp54
 70
     1
102
RTVSPropertyOp55
 70
     1
102
RTVSPropertyOp56
 70
     1
102
RTVSPropertyOp57
 70
     1
102
RTVSPropertyOp58
 70
     1
102
RTVSPropertyOp59
 70
     1
102
RTVSPropertyOp60
 70
     1
102
RTVSPropertyOp61
 70
     1
102
RTVSPropertyOp62
 70
     1
  0
XRECORD
  5
8AA
102
{ACAD_REACTORS
330
8A9
102
}
330
8A9
100
AcDbXrecord
280
     1
102
RTVSPost2010Prop28
280
     0
102
RTVSPost2010PropOp28
 70
     1
102
RTVSPost2010Prop29
280
     1
102
RTVSPost2010PropOp29
 70
     1
102
RTVSPost2010Prop30
280
     1
102
RTVSPost2010PropOp30
 70
     1
102
RTVSPost2010Prop31
280
     0
102
RTVSPost2010PropOp31
 70
     1
102
RTVSPost2010Prop32
280
     0
102
RTVSPost2010PropOp32
 70
     1
102
RTVSPost2010Prop33
280
     0
102
RTVSPost2010PropOp33
 70
     1
102
RTVSPost2010Prop34
280
     0
102
RTVSPost2010PropOp34
 70
     1
102
RTVSPost2010Prop35
280
     0
102
RTVSPost2010PropOp35
 70
     1
102
RTVSPost2010Prop36
280
     0
102
RTVSPost2010PropOp36
 70
     1
102
RTVSPost2010Prop37
 90
       50
102
RTVSPost2010PropOp37
 70
     1
102
RTVSPost2010Prop38
140
0.0
102
RTVSPost2010PropOp38
 70
     1
102
RTVSPost2010Prop39
140
1.0
102
RTVSPost2010PropOp39
 70
     1
102
RTVSPost2010Prop40
 90
        0
102
RTVSPost2010PropOp40
 70
     1
102
RTVSPost2010Prop41ColorIndex
 90
       18
102
RTVSPost2010Prop41ColorRGB
 90
        0
102
RTVSPost2010PropOp41
 70
     1
102
RTVSPost2010Prop42
 90
       50
102
RTVSPost2010PropOp42
 70
     1
102
RTVSPost2010Prop43
 90
        3
102
RTVSPost2010PropOp43
 70
     1
102
RTVSPost2010Prop44ColorIndex
 90
        5
102
RTVSPost2010Prop44ColorRGB
 90
      255
102
RTVSPost2010PropOp44
 70
     1
102
RTVSPost2010Prop45
280
     0
102
RTVSPost2010PropOp45
 70
     1
102
RTVSPost2010Prop46
 90
       50
102
RTVSPost2010PropOp46
 70
     1
102
RTVSPost2010Prop47
 90
       50
102
RTVSPost2010PropOp47
 70
     1
102
RTVSPost2010Prop48
 90
       50
102
RTVSPost2010PropOp48
 70
     1
102
RTVSPost2010Prop49
280
     0
102
RTVSPost2010PropOp49
 70
     1
102
RTVSPost2010Prop50
 90
       50
102
RTVSPost2010PropOp50
 70
     1
102
RTVSPost2010Prop51ColorIndex
 90
      256
102
RTVSPost2010Prop51ColorRGB
 90
-16777216
102
RTVSPost2010PropOp51
 70
     0
102
RTVSPost2010Prop52
140
1.0
102
RTVSPost2010PropOp52
 70
     0
102
RTVSPost2010Prop53
 90
        2
102
RTVSPost2010PropOp53
 70
     1
102
RTVSPost2010Prop54
  1
strokes_ogs.tif
102
RTVSPost2010PropOp54
 70
     1
102
RTVSPost2010Prop55
280
     0
102
RTVSPost2010PropOp55
 70
     1
102
RTVSPost2010Prop56
140
1.0
102
RTVSPost2010PropOp56
 70
     1
102
RTVSPost2010Prop57
140
1.0
102
RTVSPost2010PropOp57
 70
     1
102
RTVSPropertyOp0
 70
     1
102
RTVSPropertyOp1
 70
     1
102
RTVSPropertyOp2
 70
     1
102
RTVSPropertyOp3
 70
     1
102
RTVSPropertyOp4
 70
     1
102
RTVSPropertyOp5
 70
     1
102
RTVSPropertyOp6
 70
     1
102
RTVSPropertyOp7
 70
     1
102
RTVSPropertyOp8
 70
     1
102
RTVSPropertyOp9
 70
     1
102
RTVSPropertyOp10
 70
     1
102
RTVSPropertyOp11
 70
     1
102
RTVSPropertyOp12
 70
     1
102
RTVSPropertyOp13
 70
     1
102
RTVSPropertyOp14
 70
     1
102
RTVSPropertyOp15
 70
     1
102
RTVSPropertyOp16
 70
     1
102
RTVSPropertyOp17
 70
     1
102
RTVSPropertyOp18
 70
     1
102
RTVSPropertyOp19
 70
     1
102
RTVSPropertyOp20
 70
     1
102
RTVSPropertyOp21
 70
     1
102
RTVSPropertyOp22
 70
     1
102
RTVSPropertyOp23
 70
     1
102
RTVSPropertyOp24
 70
     1
102
RTVSPropertyOp25
 70
     1
102
RTVSPropertyOp26
 70
     1
102
RTVSPropertyOp27
 70
     1
102
RTVSPropertyOp28
 70
     1
102
RTVSPropertyOp29
 70
     1
102
RTVSPropertyOp30
 70
     1
102
RTVSPropertyOp31
 70
     1
102
RTVSPropertyOp32
 70
     1
102
RTVSPropertyOp33
 70
     1
102
RTVSPropertyOp34
 70
     1
102
RTVSPropertyOp35
 70
     1
102
RTVSPropertyOp36
 70
     1
102
RTVSPropertyOp37
 70
     1
102
RTVSPropertyOp38
 70
     1
102
RTVSPropertyOp39
 70
     1
102
RTVSPropertyOp40
 70
     1
102
RTVSPropertyOp41
 70
     1
102
RTVSPropertyOp42
 70
     1
102
RTVSPropertyOp43
 70
     1
102
RTVSPropertyOp44
 70
     1
102
RTVSPropertyOp45
 70
     1
102
RTVSPropertyOp46
 70
     1
102
RTVSPropertyOp47
 70
     1
102
RTVSPropertyOp48
 70
     1
102
RTVSPropertyOp49
 70
     1
102
RTVSPropertyOp50
 70
     1
102
RTVSPropertyOp51
 70
     0
102
RTVSPropertyOp52
 70
     0
102
RTVSPropertyOp53
 70
     1
102
RTVSPropertyOp54
 70
     1
102
RTVSPropertyOp55
 70
     1
102
RTVSPropertyOp56
 70
     1
102
RTVSPropertyOp57
 70
     1
102
RTVSPropertyOp58
 70
     1
102
RTVSPropertyOp59
 70
     1
102
RTVSPropertyOp60
 70
     1
102
RTVSPropertyOp61
 70
     1
102
RTVSPropertyOp62
 70
     1
  0
XRECORD
  5
8A8
102
{ACAD_REACTORS
330
8A7
102
}
330
8A7
100
AcDbXrecord
280
     1
102
RTVSPost2010Prop28
280
     0
102
RTVSPost2010PropOp28
 70
     1
102
RTVSPost2010Prop29
280
     1
102
RTVSPost2010PropOp29
 70
     1
102
RTVSPost2010Prop30
280
     1
102
RTVSPost2010PropOp30
 70
     1
102
RTVSPost2010Prop31
280
     0
102
RTVSPost2010PropOp31
 70
     1
102
RTVSPost2010Prop32
280
     0
102
RTVSPost2010PropOp32
 70
     1
102
RTVSPost2010Prop33
280
     0
102
RTVSPost2010PropOp33
 70
     1
102
RTVSPost2010Prop34
280
     0
102
RTVSPost2010PropOp34
 70
     1
102
RTVSPost2010Prop35
280
     0
102
RTVSPost2010PropOp35
 70
     1
102
RTVSPost2010Prop36
280
     0
102
RTVSPost2010PropOp36
 70
     1
102
RTVSPost2010Prop37
 90
       50
102
RTVSPost2010PropOp37
 70
     1
102
RTVSPost2010Prop38
140
0.0
102
RTVSPost2010PropOp38
 70
     1
102
RTVSPost2010Prop39
140
1.0
102
RTVSPost2010PropOp39
 70
     1
102
RTVSPost2010Prop40
 90
        0
102
RTVSPost2010PropOp40
 70
     1
102
RTVSPost2010Prop41ColorIndex
 90
       18
102
RTVSPost2010Prop41ColorRGB
 90
        0
102
RTVSPost2010PropOp41
 70
     1
102
RTVSPost2010Prop42
 90
       50
102
RTVSPost2010PropOp42
 70
     1
102
RTVSPost2010Prop43
 90
        3
102
RTVSPost2010PropOp43
 70
     1
102
RTVSPost2010Prop44ColorIndex
 90
        5
102
RTVSPost2010Prop44ColorRGB
 90
      255
102
RTVSPost2010PropOp44
 70
     1
102
RTVSPost2010Prop45
280
     0
102
RTVSPost2010PropOp45
 70
     1
102
RTVSPost2010Prop46
 90
       50
102
RTVSPost2010PropOp46
 70
     1
102
RTVSPost2010Prop47
 90
       50
102
RTVSPost2010PropOp47
 70
     1
102
RTVSPost2010Prop48
 90
       50
102
RTVSPost2010PropOp48
 70
     1
102
RTVSPost2010Prop49
280
     0
102
RTVSPost2010PropOp49
 70
     1
102
RTVSPost2010Prop50
 90
       50
102
RTVSPost2010PropOp50
 70
     1
102
RTVSPost2010Prop51ColorIndex
 90
      256
102
RTVSPost2010Prop51ColorRGB
 90
-16777216
102
RTVSPost2010PropOp51
 70
     0
102
RTVSPost2010Prop52
140
1.0
102
RTVSPost2010PropOp52
 70
     0
102
RTVSPost2010Prop53
 90
        2
102
RTVSPost2010PropOp53
 70
     1
102
RTVSPost2010Prop54
  1
strokes_ogs.tif
102
RTVSPost2010PropOp54
 70
     1
102
RTVSPost2010Prop55
280
     0
102
RTVSPost2010PropOp55
 70
     1
102
RTVSPost2010Prop56
140
1.0
102
RTVSPost2010PropOp56
 70
     1
102
RTVSPost2010Prop57
140
1.0
102
RTVSPost2010PropOp57
 70
     1
102
RTVSPropertyOp0
 70
     1
102
RTVSPropertyOp1
 70
     1
102
RTVSPropertyOp2
 70
     1
102
RTVSPropertyOp3
 70
     1
102
RTVSPropertyOp4
 70
     1
102
RTVSPropertyOp5
 70
     1
102
RTVSPropertyOp6
 70
     1
102
RTVSPropertyOp7
 70
     1
102
RTVSPropertyOp8
 70
     1
102
RTVSPropertyOp9
 70
     1
102
RTVSPropertyOp10
 70
     1
102
RTVSPropertyOp11
 70
     1
102
RTVSPropertyOp12
 70
     1
102
RTVSPropertyOp13
 70
     1
102
RTVSPropertyOp14
 70
     1
102
RTVSPropertyOp15
 70
     1
102
RTVSPropertyOp16
 70
     1
102
RTVSPropertyOp17
 70
     1
102
RTVSPropertyOp18
 70
     1
102
RTVSPropertyOp19
 70
     1
102
RTVSPropertyOp20
 70
     1
102
RTVSPropertyOp21
 70
     1
102
RTVSPropertyOp22
 70
     1
102
RTVSPropertyOp23
 70
     1
102
RTVSPropertyOp24
 70
     1
102
RTVSPropertyOp25
 70
     1
102
RTVSPropertyOp26
 70
     1
102
RTVSPropertyOp27
 70
     1
102
RTVSPropertyOp28
 70
     1
102
RTVSPropertyOp29
 70
     1
102
RTVSPropertyOp30
 70
     1
102
RTVSPropertyOp31
 70
     1
102
RTVSPropertyOp32
 70
     1
102
RTVSPropertyOp33
 70
     1
102
RTVSPropertyOp34
 70
     1
102
RTVSPropertyOp35
 70
     1
102
RTVSPropertyOp36
 70
     1
102
RTVSPropertyOp37
 70
     1
102
RTVSPropertyOp38
 70
     1
102
RTVSPropertyOp39
 70
     1
102
RTVSPropertyOp40
 70
     1
102
RTVSPropertyOp41
 70
     1
102
RTVSPropertyOp42
 70
     1
102
RTVSPropertyOp43
 70
     1
102
RTVSPropertyOp44
 70
     1
102
RTVSPropertyOp45
 70
     1
102
RTVSPropertyOp46
 70
     1
102
RTVSPropertyOp47
 70
     1
102
RTVSPropertyOp48
 70
     1
102
RTVSPropertyOp49
 70
     1
102
RTVSPropertyOp50
 70
     1
102
RTVSPropertyOp51
 70
     0
102
RTVSPropertyOp52
 70
     0
102
RTVSPropertyOp53
 70
     1
102
RTVSPropertyOp54
 70
     1
102
RTVSPropertyOp55
 70
     1
102
RTVSPropertyOp56
 70
     1
102
RTVSPropertyOp57
 70
     1
102
RTVSPropertyOp58
 70
     1
102
RTVSPropertyOp59
 70
     1
102
RTVSPropertyOp60
 70
     1
102
RTVSPropertyOp61
 70
     1
102
RTVSPropertyOp62
 70
     1
  0
XRECORD
  5
8A2
102
{ACAD_REACTORS
330
8A1
102
}
330
8A1
100
AcDbXrecord
280
     1
102
RTVSPost2010Prop28
280
     0
102
RTVSPost2010PropOp28
 70
     1
102
RTVSPost2010Prop29
280
     1
102
RTVSPost2010PropOp29
 70
     1
102
RTVSPost2010Prop30
280
     1
102
RTVSPost2010PropOp30
 70
     1
102
RTVSPost2010Prop31
280
     0
102
RTVSPost2010PropOp31
 70
     1
102
RTVSPost2010Prop32
280
     0
102
RTVSPost2010PropOp32
 70
     1
102
RTVSPost2010Prop33
280
     0
102
RTVSPost2010PropOp33
 70
     1
102
RTVSPost2010Prop34
280
     0
102
RTVSPost2010PropOp34
 70
     1
102
RTVSPost2010Prop35
280
     0
102
RTVSPost2010PropOp35
 70
     1
102
RTVSPost2010Prop36
280
     0
102
RTVSPost2010PropOp36
 70
     1
102
RTVSPost2010Prop37
 90
       50
102
RTVSPost2010PropOp37
 70
     1
102
RTVSPost2010Prop38
140
0.0
102
RTVSPost2010PropOp38
 70
     1
102
RTVSPost2010Prop39
140
1.0
102
RTVSPost2010PropOp39
 70
     1
102
RTVSPost2010Prop40
 90
        0
102
RTVSPost2010PropOp40
 70
     1
102
RTVSPost2010Prop41ColorIndex
 90
       18
102
RTVSPost2010Prop41ColorRGB
 90
        0
102
RTVSPost2010PropOp41
 70
     1
102
RTVSPost2010Prop42
 90
       50
102
RTVSPost2010PropOp42
 70
     1
102
RTVSPost2010Prop43
 90
        3
102
RTVSPost2010PropOp43
 70
     1
102
RTVSPost2010Prop44ColorIndex
 90
        5
102
RTVSPost2010Prop44ColorRGB
 90
      255
102
RTVSPost2010PropOp44
 70
     1
102
RTVSPost2010Prop45
280
     0
102
RTVSPost2010PropOp45
 70
     1
102
RTVSPost2010Prop46
 90
       50
102
RTVSPost2010PropOp46
 70
     1
102
RTVSPost2010Prop47
 90
       50
102
RTVSPost2010PropOp47
 70
     1
102
RTVSPost2010Prop48
 90
       50
102
RTVSPost2010PropOp48
 70
     1
102
RTVSPost2010Prop49
280
     0
102
RTVSPost2010PropOp49
 70
     1
102
RTVSPost2010Prop50
 90
       50
102
RTVSPost2010PropOp50
 70
     1
102
RTVSPost2010Prop51ColorIndex
 90
      256
102
RTVSPost2010Prop51ColorRGB
 90
-16777216
102
RTVSPost2010PropOp51
 70
     0
102
RTVSPost2010Prop52
140
1.0
102
RTVSPost2010PropOp52
 70
     0
102
RTVSPost2010Prop53
 90
        2
102
RTVSPost2010PropOp53
 70
     1
102
RTVSPost2010Prop54
  1
strokes_ogs.tif
102
RTVSPost2010PropOp54
 70
     1
102
RTVSPost2010Prop55
280
     0
102
RTVSPost2010PropOp55
 70
     1
102
RTVSPost2010Prop56
140
1.0
102
RTVSPost2010PropOp56
 70
     1
102
RTVSPost2010Prop57
140
1.0
102
RTVSPost2010PropOp57
 70
     1
102
RTVSPropertyOp0
 70
     1
102
RTVSPropertyOp1
 70
     1
102
RTVSPropertyOp2
 70
     1
102
RTVSPropertyOp3
 70
     1
102
RTVSPropertyOp4
 70
     1
102
RTVSPropertyOp5
 70
     1
102
RTVSPropertyOp6
 70
     1
102
RTVSPropertyOp7
 70
     1
102
RTVSPropertyOp8
 70
     1
102
RTVSPropertyOp9
 70
     1
102
RTVSPropertyOp10
 70
     1
102
RTVSPropertyOp11
 70
     1
102
RTVSPropertyOp12
 70
     1
102
RTVSPropertyOp13
 70
     1
102
RTVSPropertyOp14
 70
     1
102
RTVSPropertyOp15
 70
     1
102
RTVSPropertyOp16
 70
     1
102
RTVSPropertyOp17
 70
     1
102
RTVSPropertyOp18
 70
     1
102
RTVSPropertyOp19
 70
     1
102
RTVSPropertyOp20
 70
     1
102
RTVSPropertyOp21
 70
     1
102
RTVSPropertyOp22
 70
     1
102
RTVSPropertyOp23
 70
     1
102
RTVSPropertyOp24
 70
     1
102
RTVSPropertyOp25
 70
     1
102
RTVSPropertyOp26
 70
     1
102
RTVSPropertyOp27
 70
     1
102
RTVSPropertyOp28
 70
     1
102
RTVSPropertyOp29
 70
     1
102
RTVSPropertyOp30
 70
     1
102
RTVSPropertyOp31
 70
     1
102
RTVSPropertyOp32
 70
     1
102
RTVSPropertyOp33
 70
     1
102
RTVSPropertyOp34
 70
     1
102
RTVSPropertyOp35
 70
     1
102
RTVSPropertyOp36
 70
     1
102
RTVSPropertyOp37
 70
     1
102
RTVSPropertyOp38
 70
     1
102
RTVSPropertyOp39
 70
     1
102
RTVSPropertyOp40
 70
     1
102
RTVSPropertyOp41
 70
     1
102
RTVSPropertyOp42
 70
     1
102
RTVSPropertyOp43
 70
     1
102
RTVSPropertyOp44
 70
     1
102
RTVSPropertyOp45
 70
     1
102
RTVSPropertyOp46
 70
     1
102
RTVSPropertyOp47
 70
     1
102
RTVSPropertyOp48
 70
     1
102
RTVSPropertyOp49
 70
     1
102
RTVSPropertyOp50
 70
     1
102
RTVSPropertyOp51
 70
     0
102
RTVSPropertyOp52
 70
     0
102
RTVSPropertyOp53
 70
     1
102
RTVSPropertyOp54
 70
     1
102
RTVSPropertyOp55
 70
     1
102
RTVSPropertyOp56
 70
     1
102
RTVSPropertyOp57
 70
     1
102
RTVSPropertyOp58
 70
     1
102
RTVSPropertyOp59
 70
     1
102
RTVSPropertyOp60
 70
     1
102
RTVSPropertyOp61
 70
     1
102
RTVSPropertyOp62
 70
     1
  0
XRECORD
  5
8A4
102
{ACAD_REACTORS
330
8A3
102
}
330
8A3
100
AcDbXrecord
280
     1
102
RTVSPost2010Prop28
280
     0
102
RTVSPost2010PropOp28
 70
     1
102
RTVSPost2010Prop29
280
     1
102
RTVSPost2010PropOp29
 70
     1
102
RTVSPost2010Prop30
280
     1
102
RTVSPost2010PropOp30
 70
     1
102
RTVSPost2010Prop31
280
     0
102
RTVSPost2010PropOp31
 70
     1
102
RTVSPost2010Prop32
280
     0
102
RTVSPost2010PropOp32
 70
     1
102
RTVSPost2010Prop33
280
     0
102
RTVSPost2010PropOp33
 70
     1
102
RTVSPost2010Prop34
280
     0
102
RTVSPost2010PropOp34
 70
     1
102
RTVSPost2010Prop35
280
     0
102
RTVSPost2010PropOp35
 70
     1
102
RTVSPost2010Prop36
280
     0
102
RTVSPost2010PropOp36
 70
     1
102
RTVSPost2010Prop37
 90
       50
102
RTVSPost2010PropOp37
 70
     1
102
RTVSPost2010Prop38
140
0.0
102
RTVSPost2010PropOp38
 70
     1
102
RTVSPost2010Prop39
140
1.0
102
RTVSPost2010PropOp39
 70
     1
102
RTVSPost2010Prop40
 90
        0
102
RTVSPost2010PropOp40
 70
     1
102
RTVSPost2010Prop41ColorIndex
 90
       18
102
RTVSPost2010Prop41ColorRGB
 90
        0
102
RTVSPost2010PropOp41
 70
     1
102
RTVSPost2010Prop42
 90
       50
102
RTVSPost2010PropOp42
 70
     1
102
RTVSPost2010Prop43
 90
        3
102
RTVSPost2010PropOp43
 70
     1
102
RTVSPost2010Prop44ColorIndex
 90
        5
102
RTVSPost2010Prop44ColorRGB
 90
      255
102
RTVSPost2010PropOp44
 70
     1
102
RTVSPost2010Prop45
280
     0
102
RTVSPost2010PropOp45
 70
     1
102
RTVSPost2010Prop46
 90
       50
102
RTVSPost2010PropOp46
 70
     1
102
RTVSPost2010Prop47
 90
       50
102
RTVSPost2010PropOp47
 70
     1
102
RTVSPost2010Prop48
 90
       50
102
RTVSPost2010PropOp48
 70
     1
102
RTVSPost2010Prop49
280
     0
102
RTVSPost2010PropOp49
 70
     1
102
RTVSPost2010Prop50
 90
       50
102
RTVSPost2010PropOp50
 70
     1
102
RTVSPost2010Prop51ColorIndex
 90
      256
102
RTVSPost2010Prop51ColorRGB
 90
-16777216
102
RTVSPost2010PropOp51
 70
     0
102
RTVSPost2010Prop52
140
1.0
102
RTVSPost2010PropOp52
 70
     0
102
RTVSPost2010Prop53
 90
        2
102
RTVSPost2010PropOp53
 70
     1
102
RTVSPost2010Prop54
  1
strokes_ogs.tif
102
RTVSPost2010PropOp54
 70
     1
102
RTVSPost2010Prop55
280
     0
102
RTVSPost2010PropOp55
 70
     1
102
RTVSPost2010Prop56
140
1.0
102
RTVSPost2010PropOp56
 70
     1
102
RTVSPost2010Prop57
140
1.0
102
RTVSPost2010PropOp57
 70
     1
102
RTVSPropertyOp0
 70
     1
102
RTVSPropertyOp1
 70
     1
102
RTVSPropertyOp2
 70
     1
102
RTVSPropertyOp3
 70
     1
102
RTVSPropertyOp4
 70
     1
102
RTVSPropertyOp5
 70
     1
102
RTVSPropertyOp6
 70
     1
102
RTVSPropertyOp7
 70
     1
102
RTVSPropertyOp8
 70
     1
102
RTVSPropertyOp9
 70
     1
102
RTVSPropertyOp10
 70
     1
102
RTVSPropertyOp11
 70
     1
102
RTVSPropertyOp12
 70
     1
102
RTVSPropertyOp13
 70
     1
102
RTVSPropertyOp14
 70
     1
102
RTVSPropertyOp15
 70
     1
102
RTVSPropertyOp16
 70
     1
102
RTVSPropertyOp17
 70
     1
102
RTVSPropertyOp18
 70
     1
102
RTVSPropertyOp19
 70
     1
102
RTVSPropertyOp20
 70
     1
102
RTVSPropertyOp21
 70
     1
102
RTVSPropertyOp22
 70
     1
102
RTVSPropertyOp23
 70
     1
102
RTVSPropertyOp24
 70
     1
102
RTVSPropertyOp25
 70
     1
102
RTVSPropertyOp26
 70
     1
102
RTVSPropertyOp27
 70
     1
102
RTVSPropertyOp28
 70
     1
102
RTVSPropertyOp29
 70
     1
102
RTVSPropertyOp30
 70
     1
102
RTVSPropertyOp31
 70
     1
102
RTVSPropertyOp32
 70
     1
102
RTVSPropertyOp33
 70
     1
102
RTVSPropertyOp34
 70
     1
102
RTVSPropertyOp35
 70
     1
102
RTVSPropertyOp36
 70
     1
102
RTVSPropertyOp37
 70
     1
102
RTVSPropertyOp38
 70
     1
102
RTVSPropertyOp39
 70
     1
102
RTVSPropertyOp40
 70
     1
102
RTVSPropertyOp41
 70
     1
102
RTVSPropertyOp42
 70
     1
102
RTVSPropertyOp43
 70
     1
102
RTVSPropertyOp44
 70
     1
102
RTVSPropertyOp45
 70
     1
102
RTVSPropertyOp46
 70
     1
102
RTVSPropertyOp47
 70
     1
102
RTVSPropertyOp48
 70
     1
102
RTVSPropertyOp49
 70
     1
102
RTVSPropertyOp50
 70
     1
102
RTVSPropertyOp51
 70
     0
102
RTVSPropertyOp52
 70
     0
102
RTVSPropertyOp53
 70
     1
102
RTVSPropertyOp54
 70
     1
102
RTVSPropertyOp55
 70
     1
102
RTVSPropertyOp56
 70
     1
102
RTVSPropertyOp57
 70
     1
102
RTVSPropertyOp58
 70
     1
102
RTVSPropertyOp59
 70
     1
102
RTVSPropertyOp60
 70
     1
102
RTVSPropertyOp61
 70
     1
102
RTVSPropertyOp62
 70
     1
  0
XRECORD
  5
89A
102
{ACAD_REACTORS
330
899
102
}
330
899
100
AcDbXrecord
280
     1
102
RTVSPost2010Prop28
280
     0
102
RTVSPost2010PropOp28
 70
     1
102
RTVSPost2010Prop29
280
     1
102
RTVSPost2010PropOp29
 70
     1
102
RTVSPost2010Prop30
280
     1
102
RTVSPost2010PropOp30
 70
     1
102
RTVSPost2010Prop31
280
     0
102
RTVSPost2010PropOp31
 70
     1
102
RTVSPost2010Prop32
280
     0
102
RTVSPost2010PropOp32
 70
     1
102
RTVSPost2010Prop33
280
     0
102
RTVSPost2010PropOp33
 70
     1
102
RTVSPost2010Prop34
280
     0
102
RTVSPost2010PropOp34
 70
     1
102
RTVSPost2010Prop35
280
     0
102
RTVSPost2010PropOp35
 70
     1
102
RTVSPost2010Prop36
280
     0
102
RTVSPost2010PropOp36
 70
     1
102
RTVSPost2010Prop37
 90
       50
102
RTVSPost2010PropOp37
 70
     1
102
RTVSPost2010Prop38
140
0.0
102
RTVSPost2010PropOp38
 70
     1
102
RTVSPost2010Prop39
140
1.0
102
RTVSPost2010PropOp39
 70
     1
102
RTVSPost2010Prop40
 90
        0
102
RTVSPost2010PropOp40
 70
     1
102
RTVSPost2010Prop41ColorIndex
 90
       18
102
RTVSPost2010Prop41ColorRGB
 90
        0
102
RTVSPost2010PropOp41
 70
     1
102
RTVSPost2010Prop42
 90
       50
102
RTVSPost2010PropOp42
 70
     1
102
RTVSPost2010Prop43
 90
        3
102
RTVSPost2010PropOp43
 70
     1
102
RTVSPost2010Prop44ColorIndex
 90
        5
102
RTVSPost2010Prop44ColorRGB
 90
      255
102
RTVSPost2010PropOp44
 70
     1
102
RTVSPost2010Prop45
280
     0
102
RTVSPost2010PropOp45
 70
     1
102
RTVSPost2010Prop46
 90
       50
102
RTVSPost2010PropOp46
 70
     1
102
RTVSPost2010Prop47
 90
       50
102
RTVSPost2010PropOp47
 70
     1
102
RTVSPost2010Prop48
 90
       50
102
RTVSPost2010PropOp48
 70
     1
102
RTVSPost2010Prop49
280
     0
102
RTVSPost2010PropOp49
 70
     1
102
RTVSPost2010Prop50
 90
       50
102
RTVSPost2010PropOp50
 70
     1
102
RTVSPost2010Prop51ColorIndex
 90
      256
102
RTVSPost2010Prop51ColorRGB
 90
-16777216
102
RTVSPost2010PropOp51
 70
     0
102
RTVSPost2010Prop52
140
1.0
102
RTVSPost2010PropOp52
 70
     0
102
RTVSPost2010Prop53
 90
        2
102
RTVSPost2010PropOp53
 70
     1
102
RTVSPost2010Prop54
  1
strokes_ogs.tif
102
RTVSPost2010PropOp54
 70
     1
102
RTVSPost2010Prop55
280
     0
102
RTVSPost2010PropOp55
 70
     1
102
RTVSPost2010Prop56
140
1.0
102
RTVSPost2010PropOp56
 70
     1
102
RTVSPost2010Prop57
140
1.0
102
RTVSPost2010PropOp57
 70
     1
102
RTVSPropertyOp0
 70
     1
102
RTVSPropertyOp1
 70
     1
102
RTVSPropertyOp2
 70
     1
102
RTVSPropertyOp3
 70
     1
102
RTVSPropertyOp4
 70
     1
102
RTVSPropertyOp5
 70
     1
102
RTVSPropertyOp6
 70
     1
102
RTVSPropertyOp7
 70
     1
102
RTVSPropertyOp8
 70
     1
102
RTVSPropertyOp9
 70
     1
102
RTVSPropertyOp10
 70
     1
102
RTVSPropertyOp11
 70
     1
102
RTVSPropertyOp12
 70
     1
102
RTVSPropertyOp13
 70
     1
102
RTVSPropertyOp14
 70
     1
102
RTVSPropertyOp15
 70
     1
102
RTVSPropertyOp16
 70
     1
102
RTVSPropertyOp17
 70
     1
102
RTVSPropertyOp18
 70
     1
102
RTVSPropertyOp19
 70
     1
102
RTVSPropertyOp20
 70
     1
102
RTVSPropertyOp21
 70
     1
102
RTVSPropertyOp22
 70
     1
102
RTVSPropertyOp23
 70
     1
102
RTVSPropertyOp24
 70
     1
102
RTVSPropertyOp25
 70
     1
102
RTVSPropertyOp26
 70
     1
102
RTVSPropertyOp27
 70
     1
102
RTVSPropertyOp28
 70
     1
102
RTVSPropertyOp29
 70
     1
102
RTVSPropertyOp30
 70
     1
102
RTVSPropertyOp31
 70
     1
102
RTVSPropertyOp32
 70
     1
102
RTVSPropertyOp33
 70
     1
102
RTVSPropertyOp34
 70
     1
102
RTVSPropertyOp35
 70
     1
102
RTVSPropertyOp36
 70
     1
102
RTVSPropertyOp37
 70
     1
102
RTVSPropertyOp38
 70
     1
102
RTVSPropertyOp39
 70
     1
102
RTVSPropertyOp40
 70
     1
102
RTVSPropertyOp41
 70
     1
102
RTVSPropertyOp42
 70
     1
102
RTVSPropertyOp43
 70
     1
102
RTVSPropertyOp44
 70
     1
102
RTVSPropertyOp45
 70
     1
102
RTVSPropertyOp46
 70
     1
102
RTVSPropertyOp47
 70
     1
102
RTVSPropertyOp48
 70
     1
102
RTVSPropertyOp49
 70
     1
102
RTVSPropertyOp50
 70
     1
102
RTVSPropertyOp51
 70
     0
102
RTVSPropertyOp52
 70
     0
102
RTVSPropertyOp53
 70
     1
102
RTVSPropertyOp54
 70
     1
102
RTVSPropertyOp55
 70
     1
102
RTVSPropertyOp56
 70
     1
102
RTVSPropertyOp57
 70
     1
102
RTVSPropertyOp58
 70
     1
102
RTVSPropertyOp59
 70
     1
102
RTVSPropertyOp60
 70
     1
102
RTVSPropertyOp61
 70
     1
102
RTVSPropertyOp62
 70
     1
  0
XRECORD
  5
88E
102
{ACAD_REACTORS
330
88D
102
}
330
88D
100
AcDbXrecord
280
     1
102
RTVSPost2010Prop28
280
     0
102
RTVSPost2010PropOp28
 70
     1
102
RTVSPost2010Prop29
280
     1
102
RTVSPost2010PropOp29
 70
     1
102
RTVSPost2010Prop30
280
     1
102
RTVSPost2010PropOp30
 70
     1
102
RTVSPost2010Prop31
280
     0
102
RTVSPost2010PropOp31
 70
     1
102
RTVSPost2010Prop32
280
     0
102
RTVSPost2010PropOp32
 70
     1
102
RTVSPost2010Prop33
280
     0
102
RTVSPost2010PropOp33
 70
     1
102
RTVSPost2010Prop34
280
     0
102
RTVSPost2010PropOp34
 70
     1
102
RTVSPost2010Prop35
280
     0
102
RTVSPost2010PropOp35
 70
     1
102
RTVSPost2010Prop36
280
     0
102
RTVSPost2010PropOp36
 70
     1
102
RTVSPost2010Prop37
 90
       50
102
RTVSPost2010PropOp37
 70
     1
102
RTVSPost2010Prop38
140
0.0
102
RTVSPost2010PropOp38
 70
     1
102
RTVSPost2010Prop39
140
1.0
102
RTVSPost2010PropOp39
 70
     1
102
RTVSPost2010Prop40
 90
        0
102
RTVSPost2010PropOp40
 70
     1
102
RTVSPost2010Prop41ColorIndex
 90
       18
102
RTVSPost2010Prop41ColorRGB
 90
        0
102
RTVSPost2010PropOp41
 70
     1
102
RTVSPost2010Prop42
 90
       50
102
RTVSPost2010PropOp42
 70
     1
102
RTVSPost2010Prop43
 90
        3
102
RTVSPost2010PropOp43
 70
     1
102
RTVSPost2010Prop44ColorIndex
 90
        5
102
RTVSPost2010Prop44ColorRGB
 90
      255
102
RTVSPost2010PropOp44
 70
     1
102
RTVSPost2010Prop45
280
     0
102
RTVSPost2010PropOp45
 70
     1
102
RTVSPost2010Prop46
 90
       50
102
RTVSPost2010PropOp46
 70
     1
102
RTVSPost2010Prop47
 90
       50
102
RTVSPost2010PropOp47
 70
     1
102
RTVSPost2010Prop48
 90
       50
102
RTVSPost2010PropOp48
 70
     1
102
RTVSPost2010Prop49
280
     0
102
RTVSPost2010PropOp49
 70
     1
102
RTVSPost2010Prop50
 90
       50
102
RTVSPost2010PropOp50
 70
     1
102
RTVSPost2010Prop51ColorIndex
 90
      256
102
RTVSPost2010Prop51ColorRGB
 90
-16777216
102
RTVSPost2010PropOp51
 70
     0
102
RTVSPost2010Prop52
140
1.0
102
RTVSPost2010PropOp52
 70
     0
102
RTVSPost2010Prop53
 90
        2
102
RTVSPost2010PropOp53
 70
     1
102
RTVSPost2010Prop54
  1
strokes_ogs.tif
102
RTVSPost2010PropOp54
 70
     1
102
RTVSPost2010Prop55
280
     0
102
RTVSPost2010PropOp55
 70
     1
102
RTVSPost2010Prop56
140
1.0
102
RTVSPost2010PropOp56
 70
     1
102
RTVSPost2010Prop57
140
1.0
102
RTVSPost2010PropOp57
 70
     1
102
RTVSPropertyOp0
 70
     1
102
RTVSPropertyOp1
 70
     1
102
RTVSPropertyOp2
 70
     1
102
RTVSPropertyOp3
 70
     1
102
RTVSPropertyOp4
 70
     1
102
RTVSPropertyOp5
 70
     1
102
RTVSPropertyOp6
 70
     1
102
RTVSPropertyOp7
 70
     1
102
RTVSPropertyOp8
 70
     1
102
RTVSPropertyOp9
 70
     1
102
RTVSPropertyOp10
 70
     1
102
RTVSPropertyOp11
 70
     1
102
RTVSPropertyOp12
 70
     1
102
RTVSPropertyOp13
 70
     1
102
RTVSPropertyOp14
 70
     1
102
RTVSPropertyOp15
 70
     1
102
RTVSPropertyOp16
 70
     1
102
RTVSPropertyOp17
 70
     1
102
RTVSPropertyOp18
 70
     1
102
RTVSPropertyOp19
 70
     1
102
RTVSPropertyOp20
 70
     1
102
RTVSPropertyOp21
 70
     1
102
RTVSPropertyOp22
 70
     1
102
RTVSPropertyOp23
 70
     1
102
RTVSPropertyOp24
 70
     1
102
RTVSPropertyOp25
 70
     1
102
RTVSPropertyOp26
 70
     1
102
RTVSPropertyOp27
 70
     1
102
RTVSPropertyOp28
 70
     1
102
RTVSPropertyOp29
 70
     1
102
RTVSPropertyOp30
 70
     1
102
RTVSPropertyOp31
 70
     1
102
RTVSPropertyOp32
 70
     1
102
RTVSPropertyOp33
 70
     1
102
RTVSPropertyOp34
 70
     1
102
RTVSPropertyOp35
 70
     1
102
RTVSPropertyOp36
 70
     1
102
RTVSPropertyOp37
 70
     1
102
RTVSPropertyOp38
 70
     1
102
RTVSPropertyOp39
 70
     1
102
RTVSPropertyOp40
 70
     1
102
RTVSPropertyOp41
 70
     1
102
RTVSPropertyOp42
 70
     1
102
RTVSPropertyOp43
 70
     1
102
RTVSPropertyOp44
 70
     1
102
RTVSPropertyOp45
 70
     1
102
RTVSPropertyOp46
 70
     1
102
RTVSPropertyOp47
 70
     1
102
RTVSPropertyOp48
 70
     1
102
RTVSPropertyOp49
 70
     1
102
RTVSPropertyOp50
 70
     1
102
RTVSPropertyOp51
 70
     0
102
RTVSPropertyOp52
 70
     0
102
RTVSPropertyOp53
 70
     1
102
RTVSPropertyOp54
 70
     1
102
RTVSPropertyOp55
 70
     1
102
RTVSPropertyOp56
 70
     1
102
RTVSPropertyOp57
 70
     1
102
RTVSPropertyOp58
 70
     1
102
RTVSPropertyOp59
 70
     1
102
RTVSPropertyOp60
 70
     1
102
RTVSPropertyOp61
 70
     1
102
RTVSPropertyOp62
 70
     1
  0
XRECORD
  5
8A6
102
{ACAD_REACTORS
330
8A5
102
}
330
8A5
100
AcDbXrecord
280
     1
102
RTVSPost2010Prop28
280
     0
102
RTVSPost2010PropOp28
 70
     1
102
RTVSPost2010Prop29
280
     1
102
RTVSPost2010PropOp29
 70
     1
102
RTVSPost2010Prop30
280
     1
102
RTVSPost2010PropOp30
 70
     1
102
RTVSPost2010Prop31
280
     0
102
RTVSPost2010PropOp31
 70
     1
102
RTVSPost2010Prop32
280
     0
102
RTVSPost2010PropOp32
 70
     1
102
RTVSPost2010Prop33
280
     0
102
RTVSPost2010PropOp33
 70
     1
102
RTVSPost2010Prop34
280
     0
102
RTVSPost2010PropOp34
 70
     1
102
RTVSPost2010Prop35
280
     0
102
RTVSPost2010PropOp35
 70
     1
102
RTVSPost2010Prop36
280
     0
102
RTVSPost2010PropOp36
 70
     1
102
RTVSPost2010Prop37
 90
       50
102
RTVSPost2010PropOp37
 70
     1
102
RTVSPost2010Prop38
140
0.0
102
RTVSPost2010PropOp38
 70
     1
102
RTVSPost2010Prop39
140
1.0
102
RTVSPost2010PropOp39
 70
     1
102
RTVSPost2010Prop40
 90
        0
102
RTVSPost2010PropOp40
 70
     1
102
RTVSPost2010Prop41ColorIndex
 90
       18
102
RTVSPost2010Prop41ColorRGB
 90
        0
102
RTVSPost2010PropOp41
 70
     1
102
RTVSPost2010Prop42
 90
       50
102
RTVSPost2010PropOp42
 70
     1
102
RTVSPost2010Prop43
 90
        3
102
RTVSPost2010PropOp43
 70
     1
102
RTVSPost2010Prop44ColorIndex
 90
        5
102
RTVSPost2010Prop44ColorRGB
 90
      255
102
RTVSPost2010PropOp44
 70
     1
102
RTVSPost2010Prop45
280
     0
102
RTVSPost2010PropOp45
 70
     1
102
RTVSPost2010Prop46
 90
       50
102
RTVSPost2010PropOp46
 70
     1
102
RTVSPost2010Prop47
 90
       50
102
RTVSPost2010PropOp47
 70
     1
102
RTVSPost2010Prop48
 90
       50
102
RTVSPost2010PropOp48
 70
     1
102
RTVSPost2010Prop49
280
     0
102
RTVSPost2010PropOp49
 70
     1
102
RTVSPost2010Prop50
 90
       50
102
RTVSPost2010PropOp50
 70
     1
102
RTVSPost2010Prop51ColorIndex
 90
      256
102
RTVSPost2010Prop51ColorRGB
 90
-16777216
102
RTVSPost2010PropOp51
 70
     0
102
RTVSPost2010Prop52
140
1.0
102
RTVSPost2010PropOp52
 70
     0
102
RTVSPost2010Prop53
 90
        2
102
RTVSPost2010PropOp53
 70
     1
102
RTVSPost2010Prop54
  1
strokes_ogs.tif
102
RTVSPost2010PropOp54
 70
     1
102
RTVSPost2010Prop55
280
     0
102
RTVSPost2010PropOp55
 70
     1
102
RTVSPost2010Prop56
140
1.0
102
RTVSPost2010PropOp56
 70
     1
102
RTVSPost2010Prop57
140
1.0
102
RTVSPost2010PropOp57
 70
     1
102
RTVSPropertyOp0
 70
     1
102
RTVSPropertyOp1
 70
     1
102
RTVSPropertyOp2
 70
     1
102
RTVSPropertyOp3
 70
     1
102
RTVSPropertyOp4
 70
     1
102
RTVSPropertyOp5
 70
     1
102
RTVSPropertyOp6
 70
     1
102
RTVSPropertyOp7
 70
     1
102
RTVSPropertyOp8
 70
     1
102
RTVSPropertyOp9
 70
     1
102
RTVSPropertyOp10
 70
     1
102
RTVSPropertyOp11
 70
     1
102
RTVSPropertyOp12
 70
     1
102
RTVSPropertyOp13
 70
     1
102
RTVSPropertyOp14
 70
     1
102
RTVSPropertyOp15
 70
     1
102
RTVSPropertyOp16
 70
     1
102
RTVSPropertyOp17
 70
     1
102
RTVSPropertyOp18
 70
     1
102
RTVSPropertyOp19
 70
     1
102
RTVSPropertyOp20
 70
     1
102
RTVSPropertyOp21
 70
     1
102
RTVSPropertyOp22
 70
     1
102
RTVSPropertyOp23
 70
     1
102
RTVSPropertyOp24
 70
     1
102
RTVSPropertyOp25
 70
     1
102
RTVSPropertyOp26
 70
     1
102
RTVSPropertyOp27
 70
     1
102
RTVSPropertyOp28
 70
     1
102
RTVSPropertyOp29
 70
     1
102
RTVSPropertyOp30
 70
     1
102
RTVSPropertyOp31
 70
     1
102
RTVSPropertyOp32
 70
     1
102
RTVSPropertyOp33
 70
     1
102
RTVSPropertyOp34
 70
     1
102
RTVSPropertyOp35
 70
     1
102
RTVSPropertyOp36
 70
     1
102
RTVSPropertyOp37
 70
     1
102
RTVSPropertyOp38
 70
     1
102
RTVSPropertyOp39
 70
     1
102
RTVSPropertyOp40
 70
     1
102
RTVSPropertyOp41
 70
     1
102
RTVSPropertyOp42
 70
     1
102
RTVSPropertyOp43
 70
     1
102
RTVSPropertyOp44
 70
     1
102
RTVSPropertyOp45
 70
     1
102
RTVSPropertyOp46
 70
     1
102
RTVSPropertyOp47
 70
     1
102
RTVSPropertyOp48
 70
     1
102
RTVSPropertyOp49
 70
     1
102
RTVSPropertyOp50
 70
     1
102
RTVSPropertyOp51
 70
     0
102
RTVSPropertyOp52
 70
     0
102
RTVSPropertyOp53
 70
     1
102
RTVSPropertyOp54
 70
     1
102
RTVSPropertyOp55
 70
     1
102
RTVSPropertyOp56
 70
     1
102
RTVSPropertyOp57
 70
     1
102
RTVSPropertyOp58
 70
     1
102
RTVSPropertyOp59
 70
     1
102
RTVSPropertyOp60
 70
     1
102
RTVSPropertyOp61
 70
     1
102
RTVSPropertyOp62
 70
     1
  0
ENDSEC
  0
EOF
