  0
SECTION
  2
HEADER
  9
$ACADVER
  1
AC1009
  9
$INSBASE
 10
0.0
 20
0.0
 30
0.0
  9
$EXTMIN
 10
-86.857271955823535
 20
-134.51734482579121
 30
-0.0015258207003583
  9
$EXTMAX
 10
363.1701938645208
 20
533.94655602544162
 30
0.0000000349246037
  9
$LIMMIN
 10
0.0
 20
0.0
  9
$LIMMAX
 10
0.0
 20
0.0
  9
$ORTHOMODE
 70
     0
  9
$REGENMODE
 70
     1
  9
$FILLMODE
 70
     1
  9
$QTEXTMODE
 70
     0
  9
$MIRRTEXT
 70
     1
  9
$DRAGMODE
 70
     2
  9
$LTSCALE
 40
12.699999999999999
  9
$OSMODE
 70
   167
  9
$ATTMODE
 70
     1
  9
$TEXTSIZE
 40
0.0
  9
$TRACEWID
 40
1.0
  9
$TEXTSTYLE
  7
STANDARD
  9
$CLAYER
  8
DATA
  9
$CELTYPE
  6
CONTINUOUS
  9
$CECOLOR
 62
   256
  9
$DIMSCALE
 40
1.0
  9
$DIMASZ
 40
0.18
  9
$DIMEXO
 40
0.0625
  9
$DIMDLI
 40
0.38
  9
$DIMRND
 40
0.0
  9
$DIMDLE
 40
0.0
  9
$DIMEXE
 40
0.18
  9
$DIMTP
 40
0.0
  9
$DIMTM
 40
0.0
  9
$DIMTXT
 40
0.18
  9
$DIMCEN
 40
0.09
  9
$DIMTSZ
 40
0.0
  9
$DIMTOL
 70
     0
  9
$DIMLIM
 70
     0
  9
$DIMTIH
 70
     1
  9
$DIMTOH
 70
     1
  9
$DIMSE1
 70
     0
  9
$DIMSE2
 70
     0
  9
$DIMTAD
 70
     0
  9
$DIMZIN
 70
     0
  9
$DIMBLK
  1

  9
$DIMASO
 70
     1
  9
$DIMSHO
 70
     1
  9
$DIMPOST
  1

  9
$DIMAPOST
  1

  9
$DIMALT
 70
     0
  9
$DIMALTD
 70
     2
  9
$DIMALTF
 40
25.399999999999999
  9
$DIMLFAC
 40
1.0
  9
$DIMTOFL
 70
     0
  9
$DIMTVP
 40
0.0
  9
$DIMTIX
 70
     0
  9
$DIMSOXD
 70
     0
  9
$DIMSAH
 70
     0
  9
$DIMBLK1
  1

  9
$DIMBLK2
  1

  9
$DIMSTYLE
  2
STANDARD
  9
$DIMCLRD
 70
     0
  9
$DIMCLRE
 70
     0
  9
$DIMCLRT
 70
     0
  9
$DIMTFAC
 40
1.0
  9
$DIMGAP
 40
0.09
  9
$LUNITS
 70
     2
  9
$LUPREC
 70
     4
  9
$SKETCHINC
 40
0.1
  9
$FILLETRAD
 40
0.0
  9
$AUNITS
 70
     0
  9
$AUPREC
 70
     0
  9
$MENU
  1
acad
  9
$ELEVATION
 40
0.0
  9
$PELEVATION
 40
0.0
  9
$THICKNESS
 40
0.0
  9
$LIMCHECK
 70
     0
  9
$BLIPMODE
 70
     0
  9
$CHAMFERA
 40
0.0
  9
$CHAMFERB
 40
0.0
  9
$SKPOLY
 70
     0
  9
$TDCREATE
 40
2452979.7506249999
  9
$TDUPDATE
 40
2452979.800919225
  9
$TDINDWG
 40
0.0003421528
  9
$TDUSRTIMER
 40
0.0003419792
  9
$USRTIMER
 70
     1
  9
$ANGBASE
 50
0.0
  9
$ANGDIR
 70
     0
  9
$PDMODE
 70
     1
  9
$PDSIZE
 40
-2.0
  9
$PLINEWID
 40
0.0
  9
$COORDS
 70
     2
  9
$SPLFRAME
 70
     0
  9
$SPLINETYPE
 70
     6
  9
$SPLINESEGS
 70
     8
  9
$ATTDIA
 70
     0
  9
$ATTREQ
 70
     1
  9
$HANDLING
 70
     1
  9
$HANDSEED
  5
437
  9
$SURFTAB1
 70
     6
  9
$SURFTAB2
 70
     6
  9
$SURFTYPE
 70
     6
  9
$SURFU
 70
     6
  9
$SURFV
 70
     6
  9
$UCSNAME
  2

  9
$UCSORG
 10
0.0
 20
0.0
 30
0.0
  9
$UCSXDIR
 10
1.0
 20
0.0
 30
0.0
  9
$UCSYDIR
 10
0.0
 20
1.0
 30
0.0
  9
$PUCSNAME
  2

  9
$PUCSORG
 10
0.0
 20
0.0
 30
0.0
  9
$PUCSXDIR
 10
1.0
 20
0.0
 30
0.0
  9
$PUCSYDIR
 10
0.0
 20
1.0
 30
0.0
  9
$USERI1
 70
     0
  9
$USERI2
 70
     0
  9
$USERI3
 70
     0
  9
$USERI4
 70
     0
  9
$USERI5
 70
     0
  9
$USERR1
 40
0.0
  9
$USERR2
 40
0.0
  9
$USERR3
 40
0.0
  9
$USERR4
 40
0.0
  9
$USERR5
 40
0.0
  9
$WORLDVIEW
 70
     1
  9
$SHADEDGE
 70
     3
  9
$SHADEDIF
 70
    70
  9
$TILEMODE
 70
     1
  9
$MAXACTVP
 70
    16
  9
$PLIMCHECK
 70
     0
  9
$PEXTMIN
 10
1.0000000000000000E+020
 20
1.0000000000000000E+020
 30
1.0000000000000000E+020
  9
$PEXTMAX
 10
-1.0000000000000000E+020
 20
-1.0000000000000000E+020
 30
-1.0000000000000000E+020
  9
$PLIMMIN
 10
0.0
 20
0.0
  9
$PLIMMAX
 10
12.0
 20
9.0
  9
$UNITMODE
 70
     0
  9
$VISRETAIN
 70
     0
  9
$PLINEGEN
 70
     1
  9
$PSLTSCALE
 70
     0
  0
ENDSEC
  0
SECTION
  2
TABLES
  0
TABLE
  2
VPORT
 70
     2
  0
VPORT
  2
*ACTIVE
 70
     0
 10
0.0
 20
0.0
 11
1.0
 21
1.0
 12
138.15646095434869
 22
199.71460559982521
 13
0.0
 23
0.0
 14
1.0
 24
1.0
 15
0.0
 25
0.0
 16
0.0
 26
0.0
 36
1.0
 17
0.0
 27
0.0
 37
0.0
 40
673.79030643570479
 41
1.603723404255319
 42
50.0
 43
0.0
 44
0.0
 50
0.0
 51
0.0
 71
     0
 72
   100
 73
     1
 74
     1
 75
     0
 76
     0
 77
     0
 78
     0
  0
ENDTAB
  0
TABLE
  2
LTYPE
 70
    11
  0
LTYPE
  2
CONTINUOUS
 70
     0
  3
Solid line
 72
    65
 73
     0
 40
0.0
  0
LTYPE
  2
STYLE_01
 70
     0
  3

 72
    65
 73
     2
 40
0.4166412353515625
 49
0.208282470703125
 49
-0.2083587646484375
  0
LTYPE
  2
STYLE_02
 70
     0
  3

 72
    65
 73
     2
 40
0.694427490234375
 49
0.4860687255859375
 49
-0.2083587646484375
  0
LTYPE
  2
STYLE_03
 70
     0
  3

 72
    65
 73
     2
 40
1.25
 49
1.0416412353515621
 49
-0.2083587646484375
  0
LTYPE
  2
STYLE_04
 70
     0
  3

 72
    65
 73
     2
 40
1.5277099609375
 49
1.319427490234375
 49
-0.208282470703125
  0
LTYPE
  2
STYLE_05
 70
     0
  3

 72
    65
 73
     2
 40
0.208282470703125
 49
0.069427490234375
 49
-0.13885498046875
  0
LTYPE
  2
STYLE_06
 70
     0
  3

 72
    65
 73
     4
 40
1.0416412353515621
 49
0.625
 49
-0.208282470703125
 49
0.069427490234375
 49
-0.1389312744140625
  0
LTYPE
  2
STYLE_07
 70
     0
  3

 72
    65
 73
     6
 40
1.875
 49
0.625
 49
-0.208282470703125
 49
0.625
 49
-0.2083587646484375
 49
0.069427490234375
 49
-0.1389312744140625
  0
LTYPE
  2
STYLE_08
 70
     0
  3

 72
    65
 73
     6
 40
1.25
 49
0.625
 49
-0.208282470703125
 49
0.069427490234375
 49
-0.1389312744140625
 49
0.069427490234375
 49
-0.1389312744140625
  0
LTYPE
  2
STYLE_09
 70
     0
  3

 72
    65
 73
     4
 40
5.0
 49
3.75
 49
-0.2777862548828125
 49
0.694427490234375
 49
-0.2777862548828125
  0
LTYPE
  2
STYLE_10
 70
     0
  3

 72
    65
 73
     6
 40
5.9375
 49
3.75
 49
-0.2777862548828125
 49
0.694427490234375
 49
-0.2777862548828125
 49
0.625
 49
-0.3125
  0
ENDTAB
  0
TABLE
  2
LAYER
 70
     6
  0
LAYER
  2
0
 70
     0
 62
     7
  6
CONTINUOUS
  0
LAYER
  2
DATA
 70
     0
 62
     7
  6
CONTINUOUS
  0
LAYER
  2
DEFPOINTS
 70
     0
 62
     7
  6
CONTINUOUS
  0
LAYER
  2
HIBINO-BASE
 70
     0
 62
     7
  6
CONTINUOUS
  0
LAYER
  2
SPEC
 70
     0
 62
     7
  6
CONTINUOUS
  0
LAYER
  2
DIMNSIONS
 70
     0
 62
     7
  6
CONTINUOUS
  0
ENDTAB
  0
TABLE
  2
STYLE
 70
     2
  0
STYLE
  2
STANDARD
 70
     0
 40
0.0
 41
1.0
 50
0.0
 71
     0
 42
0.0
  3
txt
  4
BIGFONT.SHX
  0
ENDTAB
  0
TABLE
  2
VIEW
 70
     0
  0
ENDTAB
  0
TABLE
  2
UCS
 70
     0
  0
ENDTAB
  0
TABLE
  2
APPID
 70
     1
  0
APPID
  2
ACAD
 70
     0
  0
ENDTAB
  0
TABLE
  2
DIMSTYLE
 70
     1
  0
DIMSTYLE
  2
STANDARD
 70
     0
  3

  4

  5

  6

  7

 40
1.0
 41
0.18
 42
0.0625
 43
0.38
 44
0.18
 45
0.0
 46
0.0
 47
0.0
 48
0.0
140
0.18
141
0.09
142
0.0
143
25.399999999999999
144
1.0
145
0.0
146
1.0
147
0.09
 71
     0
 72
     0
 73
     1
 74
     1
 75
     0
 76
     0
 77
     0
 78
     0
170
     0
171
     2
172
     0
173
     0
174
     0
175
     0
176
     0
177
     0
178
     0
  0
ENDTAB
  0
ENDSEC
  0
SECTION
  2
BLOCKS
  0
BLOCK
  8
0
  2
$MODEL_SPACE
 70
     0
 10
0.0
 20
0.0
 30
0.0
  3
$MODEL_SPACE
  1

  0
ENDBLK
  5
314
  8
0
  0
BLOCK
 67
     1
  8
0
  2
$PAPER_SPACE
 70
     0
 10
0.0
 20
0.0
 30
0.0
  3
$PAPER_SPACE
  1

  0
ENDBLK
  5
310
 67
     1
  8
0
  0
ENDSEC
  0
SECTION
  2
ENTITIES
  0
LINE
  5
2D
  8
HIBINO-BASE
 62
     7
 10
-86.843540093389095
 20
533.92617913292042
 30
0.0
 11
363.15645990661091
 21
533.92617913292042
 31
0.0
  0
LINE
  5
2E
  8
HIBINO-BASE
 62
     7
 10
363.15645990661091
 20
-116.0738208670795
 30
0.0
 11
-86.843540093389095
 21
-116.0738208670795
 31
0.0
  0
LINE
  5
2F
  8
HIBINO-BASE
 62
     7
 10
-86.843540093389095
 20
-116.0738208670795
 30
0.0
 11
-86.843540093389095
 21
533.92617913292042
 31
0.0
  0
TEXT
  5
30
  8
HIBINO-BASE
 62
     7
 10
-68.883540093389058
 20
-131.3937808670795
 30
0.0
 40
9.3564599999999984
  1
Hibino Corporation
 41
0.8
 11
-68.883540093389058
 21
-122.0373208670795
 31
0.0
 73
     3
  0
LINE
  5
31
  8
HIBINO-BASE
 62
     7
 10
363.15645990661091
 20
533.92617913292042
 30
0.0
 11
363.15645990661091
 21
-116.0738208670795
 31
0.0
  0
LINE
  5
32
  8
HIBINO-BASE
 62
     7
 10
138.15645990661091
 20
-59.823820867079462
 30
0.0
 11
363.15645990661091
 21
-59.823820867079462
 31
0.0
  0
LINE
  5
33
  8
HIBINO-BASE
 62
     7
 10
138.15645990661091
 20
-116.0738208670795
 30
0.0
 11
138.15645990661091
 21
-59.823820867079462
 31
0.0
  0
TEXT
  5
34
  8
HIBINO-BASE
 62
     7
 10
140.40645990661091
 20
-65.778054200412825
 30
0.0
 40
4.2333333333333316
  1
NOTE
 41
0.8
 11
140.40645990661091
 21
-61.544720867079498
 31
0.0
 73
     3
  0
LINE
  5
35
  8
HIBINO-BASE
 62
     7
 10
225.65645990661091
 20
-116.0738208670795
 30
0.0
 11
225.65645990661091
 21
-59.823820867079462
 31
0.0
  0
TEXT
  5
36
  8
HIBINO-BASE
 62
     7
 10
227.90645990661091
 20
-65.778054200412825
 30
0.0
 40
4.2333333333333316
  1
TITLE
 41
0.8
 11
227.90645990661091
 21
-61.544720867079498
 31
0.0
 73
     3
  0
TEXT
  5
37
  8
HIBINO-BASE
 62
     7
 10
263.3274349066109
 20
-131.3937808670795
 30
0.0
 40
9.3564599999999984
  1
ヒビノ株式会社
 41
0.8
 11
263.3274349066109
 21
-122.0373208670795
 31
0.0
 73
     3
  0
LINE
  5
38
  8
HIBINO-BASE
 62
     7
 10
138.15645990661091
 20
-91.073820867079448
 30
0.0
 11
363.15645990661091
 21
-91.073820867079448
 31
0.0
  0
TEXT
  5
39
  8
HIBINO-BASE
 62
     7
 10
259.15645990661091
 20
-96.887254200412826
 30
0.0
 40
4.2333333333333316
  1
DRAWN
 41
0.8
 11
259.15645990661091
 21
-92.653920867079492
 31
0.0
 73
     3
  0
TEXT
  5
3A
  8
HIBINO-BASE
 62
     7
 10
196.65645990661091
 20
-96.887254200412826
 30
0.0
 40
4.2333333333333316
  1
DATE
 41
0.8
 11
196.65645990661091
 21
-92.653920867079492
 31
0.0
 73
     3
  0
TEXT
  5
3B
  8
HIBINO-BASE
 62
     7
 10
140.90645990661091
 20
-97.304960867079515
 30
0.0
 40
4.2333399999999992
  1
図面サイズ
 41
0.8
 11
140.90645990661091
 21
-93.071620867079503
 31
0.0
 73
     3
  0
TEXT
  5
3C
  8
HIBINO-BASE
 62
     7
 10
171.65645990661091
 20
-96.887254200412826
 30
0.0
 40
4.2333333333333316
  1
SCALE
 41
0.8
 11
171.65645990661091
 21
-92.653920867079492
 31
0.0
 73
     3
  0
TEXT
  5
3D
  8
HIBINO-BASE
 62
     7
 10
227.90645990661091
 20
-96.887254200412826
 30
0.0
 40
4.2333333333333316
  1
DESIGN
 41
0.8
 11
227.90645990661091
 21
-92.653920867079492
 31
0.0
 73
     3
  0
TEXT
  5
3E
  8
HIBINO-BASE
 62
     7
 10
321.65645990661079
 20
-96.887254200412826
 30
0.0
 40
4.2333333333333316
  1
DRAWING NO.
 41
0.8
 11
321.65645990661079
 21
-92.653920867079492
 31
0.0
 73
     3
  0
TEXT
  5
3F
  8
HIBINO-BASE
 62
     7
 10
290.40645990661079
 20
-96.887254200412826
 30
0.0
 40
4.2333333333333316
  1
CHECK
 41
0.8
 11
290.40645990661079
 21
-92.653920867079492
 31
0.0
 73
     3
  0
LINE
  5
40
  8
HIBINO-BASE
 62
     7
 10
174.09395990661091
 20
-112.9488208670795
 30
0.0
 11
183.46895990661079
 21
-103.57382086707941
 31
0.0
  0
TEXT
  5
41
  8
HIBINO-BASE
 62
     7
 10
172.53145990661091
 20
-106.0286792004129
 30
0.0
 40
4.2333333333333316
  1
1
 41
0.8
 11
172.53145990661091
 21
-101.7953458670795
 31
0.0
 73
     3
  0
LINE
  5
42
  8
HIBINO-BASE
 62
     7
 10
169.40645990661091
 20
-116.0738208670795
 30
0.0
 11
169.40645990661091
 21
-91.073820867079448
 31
0.0
  0
LINE
  5
43
  8
HIBINO-BASE
 62
     7
 10
194.40645990661079
 20
-116.0738208670795
 30
0.0
 11
194.40645990661079
 21
-91.073820867079448
 31
0.0
  0
LINE
  5
44
  8
HIBINO-BASE
 62
     7
 10
256.90645990661091
 20
-91.073820867079448
 30
0.0
 11
256.90645990661091
 21
-116.0738208670795
 31
0.0
  0
LINE
  5
45
  8
HIBINO-BASE
 62
     7
 10
319.40645990661091
 20
-91.073820867079448
 30
0.0
 11
319.40645990661091
 21
-116.0738208670795
 31
0.0
  0
LINE
  5
46
  8
HIBINO-BASE
 62
     7
 10
288.15645990661079
 20
-116.0738208670795
 30
0.0
 11
288.15645990661079
 21
-91.073820867079448
 31
0.0
  0
TEXT
  5
47
  8
HIBINO-BASE
 62
     7
 10
196.54780990661081
 20
-108.5972042004128
 30
0.0
 40
4.2333333333333316
  1
'03.12.
 41
0.8
 11
196.54780990661081
 21
-104.3638708670795
 31
0.0
 73
     3
  0
TEXT
  5
48
  8
HIBINO-BASE
 62
     7
 10
181.90645990661079
 20
-110.7161792004129
 30
0.0
 40
4.2333333333333316
  1
2.5
 41
0.8
 11
181.90645990661079
 21
-106.4828458670795
 31
0.0
 73
     3
  0
TEXT
  5
49
  8
HIBINO-BASE
 62
     7
 10
147.86479323994431
 20
-110.4988208670795
 30
0.0
 40
8.466666666666665
  1
A4
 41
0.8
 11
147.86479323994431
 21
-102.0321542004128
 31
0.0
 73
     3
  0
TEXT
  5
4A
  8
SPEC
 62
     7
 10
-64.968540093389095
 20
512.88560413292055
 30
0.0
 40
6.3500000000000014
  1
仕様
 41
0.8
 11
-64.968540093389095
 21
519.23560413292057
 31
0.0
 73
     3
  0
LINE
  5
4B
  8
SPEC
 62
     7
 10
-68.093540093389095
 20
508.92617913292031
 30
0.0
 11
200.0
 21
508.92617913292031
 31
0.0
  0
LINE
  5
4C
  8
SPEC
 62
     7
 10
-39.968540093389073
 20
499.55117913292031
 30
0.0
 11
200.0
 21
499.55117913292031
 31
0.0
  0
LINE
  5
4D
  8
SPEC
 62
     7
 10
-39.968540093389073
 20
471.42617913292048
 30
0.0
 11
200.0
 21
471.42617913292048
 31
0.0
  0
LINE
  5
4E
  8
SPEC
 62
     7
 10
-39.968540093389073
 20
480.80117913292031
 30
0.0
 11
200.0
 21
480.80117913292031
 31
0.0
  0
LINE
  5
4F
  8
SPEC
 62
     7
 10
-68.093540093389095
 20
462.05117913292048
 30
0.0
 11
200.0
 21
462.05117913292048
 31
0.0
  0
LINE
  5
50
  8
SPEC
 62
     7
 10
-39.968540093389073
 20
443.30117913292048
 30
0.0
 11
200.0
 21
443.30117913292048
 31
0.0
  0
LINE
  5
51
  8
SPEC
 62
     7
 10
-39.968540093389073
 20
490.17617913292031
 30
0.0
 11
200.0
 21
490.17617913292031
 31
0.0
  0
TEXT
  5
52
  8
SPEC
 62
     7
 10
20.40645990661092
 20
502.38659024403148
 30
0.0
 40
4.9388888888888891
  1
1
 41
0.8
 11
20.40645990661092
 21
507.32547913292041
 31
0.0
 73
     3
  0
LINE
  5
53
  8
SPEC
 62
     7
 10
-68.093540093389095
 20
508.92617913292031
 30
0.0
 11
-68.093540093389095
 21
368.30117913292031
 31
0.0
  0
LINE
  5
54
  8
SPEC
 62
     7
 10
16.281459906610898
 20
508.92617913292031
 30
0.0
 11
16.281459906610898
 21
368.30117913292031
 31
0.0
  0
LINE
  5
55
  8
SPEC
 62
     7
 10
200.0
 20
508.92617913292031
 30
0.0
 11
200.0
 21
368.30117913292031
 31
0.0
  0
TEXT
  5
56
  8
SPEC
 62
     7
 10
20.40645990661092
 20
418.01159024403159
 30
0.0
 40
4.9388888888888891
  1
+8dBu(600Ω)
 41
0.8
 11
20.40645990661092
 21
422.95047913292052
 31
0.0
 73
     3
  0
TEXT
  5
57
  8
SPEC
 62
     7
 10
-35.093540093389102
 20
464.88659024403148
 30
0.0
 40
4.9388888888888891
  1
最大レベル
 41
0.8
 11
-35.093540093389102
 21
469.82547913292041
 31
0.0
 73
     3
  0
TEXT
  5
58
  8
SPEC
 62
     7
 10
-65.843540093389151
 20
502.38659024403148
 30
0.0
 40
4.9388888888888891
  1
入力
 41
0.8
 11
-65.843540093389151
 21
507.32547913292041
 31
0.0
 73
     3
  0
TEXT
  5
59
  8
SPEC
 62
     7
 10
-35.093540093389102
 20
446.13659024403159
 30
0.0
 40
4.9388888888888891
  1
形式
 41
0.8
 11
-35.093540093389102
 21
451.07547913292052
 31
0.0
 73
     3
  0
TEXT
  5
5A
  8
SPEC
 62
     7
 10
-35.093540093389102
 20
436.76159024403159
 30
0.0
 40
4.9388888888888891
  1
端子
 41
0.8
 11
-35.093540093389102
 21
441.70047913292052
 31
0.0
 73
     3
  0
TEXT
  5
5B
  8
SPEC
 62
     7
 10
-65.843540093389151
 20
455.51159024403159
 30
0.0
 40
4.9388888888888891
  1
出力
 41
0.8
 11
-65.843540093389151
 21
460.45047913292052
 31
0.0
 73
     3
  0
TEXT
  5
5C
  8
SPEC
 62
     7
 10
-35.093540093389102
 20
493.01159024403159
 30
0.0
 40
4.9388888888888891
  1
形式
 41
0.8
 11
-35.093540093389102
 21
497.95047913292052
 31
0.0
 73
     3
  0
TEXT
  5
5D
  8
SPEC
 62
     7
 10
-35.093540093389102
 20
483.63659024403159
 30
0.0
 40
4.9388888888888891
  1
端子
 41
0.8
 11
-35.093540093389102
 21
488.57547913292052
 31
0.0
 73
     3
  0
TEXT
  5
5E
  8
SPEC
 62
     7
 10
-35.093540093389102
 20
418.01159024403159
 30
0.0
 40
4.9388888888888891
  1
最大レベル
 41
0.8
 11
-35.093540093389102
 21
422.95047913292052
 31
0.0
 73
     3
  0
TEXT
  5
5F
  8
SPEC
 62
     7
 10
20.40645990661092
 20
464.88659024403148
 30
0.0
 40
4.9388888888888891
  1
+9dBu(pad@0dB),+29dBu(pad@-20dB,+49dBu(pad@-40dB)
 41
0.8
 11
20.40645990661092
 21
469.82547913292041
 31
0.0
 73
     3
  0
TEXT
  5
60
  8
SPEC
 62
     7
 10
20.40645990661092
 20
436.76159024403159
 30
0.0
 40
4.9388888888888891
  1
XLR3ピンオス(2-HOT)
 41
0.8
 11
20.40645990661092
 21
441.70047913292052
 31
0.0
 73
     3
  0
TEXT
  5
61
  8
SPEC
 62
     7
 10
20.40645990661092
 20
455.51159024403159
 30
0.0
 40
4.9388888888888891
  1
1
 41
0.8
 11
20.40645990661092
 21
460.45047913292052
 31
0.0
 73
     3
  0
TEXT
  5
62
  8
SPEC
 62
     7
 10
20.40645990661092
 20
483.63659024403159
 30
0.0
 40
4.9388888888888891
  1
フォーンジャック,XLR3ピンメス(2-HOT)
 41
0.8
 11
20.40645990661092
 21
488.57547913292052
 31
0.0
 73
     3
  0
TEXT
  5
63
  8
SPEC
 62
     7
 10
20.40645990661092
 20
493.01159024403159
 30
0.0
 40
4.9388888888888891
  1
アンバランス
 41
0.8
 11
20.40645990661092
 21
497.95047913292052
 31
0.0
 73
     3
  0
TEXT
  5
64
  8
SPEC
 62
     7
 10
-35.093540093389102
 20
502.38659024403148
 30
0.0
 40
4.9388888888888891
  1
チャンネル数
 41
0.8
 11
-35.093540093389102
 21
507.32547913292041
 31
0.0
 73
     3
  0
TEXT
  5
65
  8
SPEC
 62
     7
 10
-35.093540093389102
 20
455.51159024403159
 30
0.0
 40
4.9388888888888891
  1
チャンネル数
 41
0.8
 11
-35.093540093389102
 21
460.45047913292052
 31
0.0
 73
     3
  0
LINE
  5
66
  8
SPEC
 62
     7
 10
-39.968540093389073
 20
508.92617913292031
 30
0.0
 11
-39.968540093389073
 21
415.17617913292048
 31
0.0
  0
TEXT
  5
67
  8
SPEC
 62
     7
 10
-65.843540093389151
 20
399.26159024403159
 30
0.0
 40
4.9388888888888891
  1
THD
 41
0.8
 11
-65.843540093389151
 21
404.20047913292052
 31
0.0
 73
     3
  0
TEXT
  5
68
  8
SPEC
 62
     7
 10
20.40645990661092
 20
399.26159024403159
 30
0.0
 40
4.9388888888888891
  1
0.05%%%以下(1kHz,0dBu)
 41
0.8
 11
20.40645990661092
 21
404.20047913292052
 31
0.0
 73
     3
  0
TEXT
  5
69
  8
SPEC
 62
     7
 10
20.40645990661092
 20
446.13659024403159
 30
0.0
 40
4.9388888888888891
  1
トランスバランス
 41
0.8
 11
20.40645990661092
 21
451.07547913292052
 31
0.0
 73
     3
  0
LINE
  5
6A
  8
SPEC
 62
     7
 10
-39.968540093389073
 20
452.67617913292048
 30
0.0
 11
200.0
 21
452.67617913292048
 31
0.0
  0
TEXT
  5
6B
  8
SPEC
 62
     7
 10
-65.843540093389151
 20
408.63659024403159
 30
0.0
 40
4.9388888888888891
  1
周波数特性
 41
0.8
 11
-65.843540093389151
 21
413.57547913292052
 31
0.0
 73
     3
  0
TEXT
  5
6C
  8
SPEC
 62
     7
 10
20.40645990661092
 20
408.63659024403159
 30
0.0
 40
4.9388888888888891
  1
30Hz～20kHz(+0dB/-1dB)
 41
0.8
 11
20.40645990661092
 21
413.57547913292052
 31
0.0
 73
     3
  0
LINE
  5
6D
  8
SPEC
 62
     7
 10
-39.968540093389073
 20
433.92617913292048
 30
0.0
 11
200.0
 21
433.92617913292048
 31
0.0
  0
LINE
  5
6E
  8
SPEC
 62
     7
 10
-39.968540093389088
 20
424.55117913292048
 30
0.0
 11
200.0
 21
424.55117913292048
 31
0.0
  0
LINE
  5
6F
  8
SPEC
 62
     7
 10
-68.093540093389095
 20
415.17617913292048
 30
0.0
 11
200.0
 21
415.17617913292048
 31
0.0
  0
TEXT
  5
70
  8
SPEC
 62
     7
 10
-35.093540093389102
 20
474.26159024403159
 30
0.0
 40
4.9388888888888891
  1
インピーダンス
 41
0.8
 11
-35.093540093389102
 21
479.20047913292052
 31
0.0
 73
     3
  0
TEXT
  5
71
  8
SPEC
 62
     7
 10
20.40645990661092
 20
474.26159024403159
 30
0.0
 40
4.9388888888888891
  1
1MΩ(pad@0dB,47kΩ(pad@-20dB),47kΩ(pad@-40dB)
 41
0.8
 11
20.40645990661092
 21
479.20047913292052
 31
0.0
 73
     3
  0
TEXT
  5
72
  8
SPEC
 62
     7
 10
20.40645990661092
 20
427.38659024403159
 30
0.0
 40
4.9388888888888891
  1
600Ω
 41
0.8
 11
20.40645990661092
 21
432.32547913292052
 31
0.0
 73
     3
  0
TEXT
  5
73
  8
SPEC
 62
     7
 10
-35.093540093389102
 20
427.38659024403159
 30
0.0
 40
4.9388888888888891
  1
インピーダンス
 41
0.8
 11
-35.093540093389102
 21
432.32547913292052
 31
0.0
 73
     3
  0
TEXT
  5
74
  8
SPEC
 62
     7
 10
-65.843540093389151
 20
389.88659024403159
 30
0.0
 40
4.9388888888888891
  1
電源
 41
0.8
 11
-65.843540093389151
 21
394.82547913292052
 31
0.0
 73
     3
  0
TEXT
  5
75
  8
SPEC
 62
     7
 10
20.40645990661092
 20
389.88659024403159
 30
0.0
 40
4.9388888888888891
  1
DC20V～48V
 41
0.8
 11
20.40645990661092
 21
394.82547913292052
 31
0.0
 73
     3
  0
TEXT
  5
76
  8
SPEC
 62
     7
 10
20.40645990661092
 20
380.51159024403159
 30
0.0
 40
4.9388888888888891
  1
006P型アルカリ乾電池
 41
0.8
 11
20.40645990661092
 21
385.45047913292052
 31
0.0
 73
     3
  0
TEXT
  5
77
  8
SPEC
 62
     7
 10
-65.843540093389151
 20
371.13659024403159
 30
0.0
 40
4.9388888888888891
  1
寸法(W×H×D)/重量
 41
0.8
 11
-65.843540093389151
 21
376.07547913292052
 31
0.0
 73
     3
  0
TEXT
  5
78
  8
SPEC
 62
     7
 10
20.40645990661092
 20
371.13659024403159
 30
0.0
 40
4.9388888888888891
  1
142×58×124mm/0.7kg
 41
0.8
 11
20.40645990661092
 21
376.07547913292052
 31
0.0
 73
     3
  0
TEXT
  5
79
  8
SPEC
 62
     7
 10
-35.093540093389102
 20
389.88659024403159
 30
0.0
 40
4.9388888888888891
  1
ファンタム電源
 41
0.8
 11
-35.093540093389102
 21
394.82547913292052
 31
0.0
 73
     3
  0
TEXT
  5
7A
  8
SPEC
 62
     7
 10
-35.093540093389102
 20
380.51159024403159
 30
0.0
 40
4.9388888888888891
  1
電池
 41
0.8
 11
-35.093540093389102
 21
385.45047913292052
 31
0.0
 73
     3
  0
LINE
  5
7B
  8
SPEC
 62
     7
 10
-68.093540093389095
 20
405.80117913292031
 30
0.0
 11
200.0
 21
405.80117913292031
 31
0.0
  0
LINE
  5
7C
  8
SPEC
 62
     7
 10
-68.093540093389095
 20
368.30117913292031
 30
0.0
 11
200.0
 21
368.30117913292031
 31
0.0
  0
LINE
  5
7D
  8
SPEC
 62
     7
 10
-68.093540093389095
 20
377.67617913292031
 30
0.0
 11
200.0
 21
377.67617913292031
 31
0.0
  0
LINE
  5
7E
  8
SPEC
 62
     7
 10
-39.968540093389088
 20
387.05117913292042
 30
0.0
 11
200.0
 21
387.05117913292042
 31
0.0
  0
LINE
  5
7F
  8
SPEC
 62
     7
 10
-68.093540093389095
 20
396.42617913292042
 30
0.0
 11
200.0
 21
396.42617913292042
 31
0.0
  0
LINE
  5
80
  8
SPEC
 62
     7
 10
-39.968540093389088
 20
396.42617913292042
 30
0.0
 11
-39.968540093389088
 21
377.67617913292031
 31
0.0
  0
TEXT
  5
81
  8
DIMNSIONS
 62
     7
 10
88.156459906610905
 20
-82.807179200412833
 30
0.0
 40
4.2333333333333316
  1
(単位：mm)
 41
0.8
 11
88.156459906610905
 21
-78.573845867079498
 31
0.0
 73
     3
  0
LINE
  5
82
  8
DIMNSIONS
 62
     7
 10
-5.0
 20
-0.0238208670795643
 30
0.0
 11
-30.0
 21
-0.0238208670795643
 31
0.0
  0
LINE
  5
83
  8
DIMNSIONS
 62
     7
 10
45.0
 20
58.376179132920463
 30
0.0
 11
-30.0
 21
58.376179132920463
 31
0.0
  0
LINE
  5
84
  8
DIMNSIONS
 62
     7
 10
-25.0
 20
-0.0238208670795643
 30
0.0
 11
-25.0
 21
58.376179132920463
 31
0.0
  0
LINE
  5
85
  8
DIMNSIONS
 62
     7
 10
-25.0
 20
-0.0238208670795643
 30
0.0
 11
-26.675099487875599
 21
6.2277355294048098
 31
0.0
  0
LINE
  5
86
  8
DIMNSIONS
 62
     7
 10
-25.0
 20
-0.0238208670795643
 30
0.0
 11
-23.324900512124401
 21
6.2277355294048098
 31
0.0
  0
LINE
  5
87
  8
DIMNSIONS
 62
     7
 10
-25.0
 20
58.376179132920463
 30
0.0
 11
-23.324900512124401
 21
52.124622736436102
 31
0.0
  0
LINE
  5
88
  8
DIMNSIONS
 62
     7
 10
-25.0
 20
58.376179132920463
 30
0.0
 11
-26.675099487875599
 21
52.124622736436102
 31
0.0
  0
TEXT
  5
89
  8
DIMNSIONS
 62
     7
 10
-28.013888888888889
 20
24.766456910698231
 30
0.0
 40
7.0555555555555562
  1
58
 50
90.0
 41
0.8
 11
-35.06944444444445
 21
24.766456910698231
 31
0.0
 73
     3
  0
LINE
  5
8A
  8
DIMNSIONS
 62
     7
 10
-5.0
 20
89.976179132920493
 30
0.0
 11
-30.0
 21
89.976179132920493
 31
0.0
  0
LINE
  5
8B
  8
DIMNSIONS
 62
     7
 10
-5.0
 20
213.97617913292049
 30
0.0
 11
-30.0
 21
213.97617913292049
 31
0.0
  0
LINE
  5
8C
  8
DIMNSIONS
 62
     7
 10
-25.0
 20
89.976179132920493
 30
0.0
 11
-25.0
 21
213.97617913292049
 31
0.0
  0
LINE
  5
8D
  8
DIMNSIONS
 62
     7
 10
-25.0
 20
89.976179132920493
 30
0.0
 11
-26.675099487875599
 21
96.227735529404853
 31
0.0
  0
LINE
  5
8E
  8
DIMNSIONS
 62
     7
 10
-25.0
 20
89.976179132920493
 30
0.0
 11
-23.324900512124401
 21
96.227735529404853
 31
0.0
  0
LINE
  5
8F
  8
DIMNSIONS
 62
     7
 10
-25.0
 20
213.97617913292049
 30
0.0
 11
-23.324900512124401
 21
207.72462273643609
 31
0.0
  0
LINE
  5
90
  8
DIMNSIONS
 62
     7
 10
-25.0
 20
213.97617913292049
 30
0.0
 11
-26.675099487875599
 21
207.72462273643609
 31
0.0
  0
TEXT
  5
91
  8
DIMNSIONS
 62
     7
 10
-28.013888888888889
 20
145.36159579958709
 30
0.0
 40
7.0555555555555562
  1
124
 50
90.0
 41
0.8
 11
-35.06944444444445
 21
145.36159579958709
 31
0.0
 73
     3
  0
LINE
  5
92
  8
DIMNSIONS
 62
     7
 10
0.0
 20
-5.0238208670795643
 30
0.0
 11
0.0
 21
-30.0
 31
0.0
  0
LINE
  5
93
  8
DIMNSIONS
 62
     7
 10
141.5
 20
-5.0238208670795643
 30
0.0
 11
141.5
 21
-30.0
 31
0.0
  0
LINE
  5
94
  8
DIMNSIONS
 62
     7
 10
0.0
 20
-25.0
 30
0.0
 11
141.5
 21
-25.0
 31
0.0
  0
LINE
  5
95
  8
DIMNSIONS
 62
     7
 10
0.0
 20
-25.0
 30
0.0
 11
6.251556396484375
 21
-23.324900512124401
 31
0.0
  0
LINE
  5
96
  8
DIMNSIONS
 62
     7
 10
0.0
 20
-25.0
 30
0.0
 11
6.251556396484375
 21
-26.675099487875599
 31
0.0
  0
LINE
  5
97
  8
DIMNSIONS
 62
     7
 10
141.5
 20
-25.0
 30
0.0
 11
135.2484436035156
 21
-26.675099487875599
 31
0.0
  0
LINE
  5
98
  8
DIMNSIONS
 62
     7
 10
141.5
 20
-25.0
 30
0.0
 11
135.2484436035156
 21
-23.324900512124401
 31
0.0
  0
TEXT
  5
99
  8
DIMNSIONS
 62
     7
 10
64.135416666666686
 20
-21.9861111111111
 30
0.0
 40
7.0555555555555562
  1
142
 41
0.8
 11
64.135416666666686
 21
-14.930555555555539
 31
0.0
 73
     3
  0
TEXT
  5
9A
  8
DATA
 62
     7
 10
263.15645990661091
 20
-85.770345867079499
 30
0.0
 40
6.3500000000000014
  1
AR-133
 41
0.8
 11
263.15645990661091
 21
-79.42034586707949
 31
0.0
 73
     3
  0
TEXT
  5
9B
  8
DATA
 62
     7
 10
263.15645990661091
 20
-72.645345867079499
 30
0.0
 40
6.3500000000000014
  1
BSS
 41
0.8
 11
263.15645990661091
 21
-66.29534586707949
 31
0.0
 73
     3
  0
TEXT
  5
9C
  8
DATA
 62
     7
 10
-61.843540093389102
 20
-105.1613208670794
 30
0.0
 40
4.2333333333333316
  1
仕様および外観は予告なく変更されることがありますので、ご了承ください。
 41
0.8
 11
-61.843540093389102
 21
-100.9279875337461
 31
0.0
 73
     3
  0
LINE
  5
9D
  8
DATA
 62
     7
 10
7.0
 20
2.9761791329204361
 30
0.0
 11
15.990000000000061
 21
0.0761791329204584
 31
0.0
  0
LINE
  5
9E
  8
DATA
 62
     7
 10
24.0
 20
3.276179132920447
 30
0.0
 11
24.0
 21
51.276179132920447
 31
0.0
  0
ARC
  5
9F
  8
DATA
 62
     7
 10
9.7014457471126434
 20
12.295665472898181
 30
0.0
 40
9.7031249999999805
 50
178.93402717681849
 51
253.83467645485331
  0
ARC
  5
A0
  8
DATA
 62
     7
 10
15.4220869754547
 20
11.84444260253445
 30
0.0
 40
12.124179590445911
 50
283.91725130245891
 51
315.03224501471578
  0
ARC
  5
A1
  8
DATA
 62
     7
 10
17.164099183777179
 20
6.9187235996512859
 30
0.0
 40
6.9425444667308227
 50
260.26354248164807
 51
279.73645751835181
  0
ARC
  5
A2
  8
DATA
 62
     7
 10
14.20967335930783
 20
38.071174251201121
 30
0.0
 40
16.438450342343039
 50
53.446381440470603
 51
82.694443059178838
  0
ARC
  5
A3
  8
DATA
 62
     7
 10
15.864026457096029
 20
40.9790666902623
 30
0.0
 40
13.404204367710101
 50
88.136118367980401
 51
118.3449214623939
  0
LINE
  5
A4
  8
DATA
 62
     7
 10
0.0
 20
12.47617913292043
 30
0.0
 11
0.0
 21
40.476179132920471
 31
0.0
  0
ARC
  5
A5
  8
DATA
 62
     7
 10
11.59507571014842
 20
39.740411477653211
 30
0.0
 40
11.618396393935379
 50
134.85810393921511
 51
176.36915385718211
  0
LINE
  5
A6
  8
DATA
 62
     7
 10
3.4000000000000341
 20
47.976179132920457
 30
0.0
 11
9.5
 21
52.776179132920468
 31
0.0
  0
CIRCLE
  5
A7
  8
DATA
 62
     7
 10
18.0
 20
14.97617913292043
 30
0.0
 40
4.25
  0
CIRCLE
  5
A8
  8
DATA
 62
     7
 10
18.0
 20
14.97617913292043
 30
0.0
 40
4.0
  0
POLYLINE
  5
A9
  8
DATA
 62
     7
 66
     1
 10
0.0
 20
0.0
 30
0.0
  0
VERTEX
  5
331
  8
DATA
 62
     7
 10
18.5
 20
14.47617913292043
 30
0.0
  0
VERTEX
  5
332
  8
DATA
 62
     7
 10
20.0
 20
14.47617913292043
 30
0.0
  0
VERTEX
  5
333
  8
DATA
 62
     7
 10
20.0
 20
15.47617913292043
 30
0.0
  0
VERTEX
  5
334
  8
DATA
 62
     7
 10
18.5
 20
15.47617913292043
 30
0.0
  0
SEQEND
  5
335
  8
DATA
 62
     7
  0
POLYLINE
  5
AF
  8
DATA
 62
     7
 66
     1
 10
0.0
 20
0.0
 30
0.0
  0
VERTEX
  5
336
  8
DATA
 62
     7
 10
17.5
 20
14.47617913292043
 30
0.0
  0
VERTEX
  5
337
  8
DATA
 62
     7
 10
16.0
 20
14.47617913292043
 30
0.0
  0
VERTEX
  5
338
  8
DATA
 62
     7
 10
16.0
 20
15.47617913292043
 30
0.0
  0
VERTEX
  5
339
  8
DATA
 62
     7
 10
17.5
 20
15.47617913292043
 30
0.0
  0
SEQEND
  5
33A
  8
DATA
 62
     7
  0
POLYLINE
  5
B5
  8
DATA
 62
     7
 66
     1
 10
0.0
 20
0.0
 30
0.0
  0
VERTEX
  5
33B
  8
DATA
 62
     7
 10
18.5
 20
15.47617913292043
 30
0.0
  0
VERTEX
  5
33C
  8
DATA
 62
     7
 10
18.5
 20
16.976179132920429
 30
0.0
  0
VERTEX
  5
33D
  8
DATA
 62
     7
 10
17.5
 20
16.976179132920429
 30
0.0
  0
VERTEX
  5
33E
  8
DATA
 62
     7
 10
17.5
 20
15.47617913292043
 30
0.0
  0
SEQEND
  5
33F
  8
DATA
 62
     7
  0
POLYLINE
  5
BB
  8
DATA
 62
     7
 66
     1
 10
0.0
 20
0.0
 30
0.0
  0
VERTEX
  5
340
  8
DATA
 62
     7
 10
18.5
 20
14.47617913292043
 30
0.0
  0
VERTEX
  5
341
  8
DATA
 62
     7
 10
18.5
 20
12.97617913292043
 30
0.0
  0
VERTEX
  5
342
  8
DATA
 62
     7
 10
17.5
 20
12.97617913292043
 30
0.0
  0
VERTEX
  5
343
  8
DATA
 62
     7
 10
17.5
 20
14.47617913292043
 30
0.0
  0
SEQEND
  5
344
  8
DATA
 62
     7
  0
CIRCLE
  5
C1
  8
DATA
 62
     7
 10
15.0
 20
35.976179132920471
 30
0.0
 40
4.25
  0
CIRCLE
  5
C2
  8
DATA
 62
     7
 10
15.0
 20
35.976179132920471
 30
0.0
 40
4.0
  0
POLYLINE
  5
C3
  8
DATA
 62
     7
 66
     1
 10
0.0
 20
0.0
 30
0.0
  0
VERTEX
  5
345
  8
DATA
 62
     7
 10
15.5
 20
35.476179132920471
 30
0.0
  0
VERTEX
  5
346
  8
DATA
 62
     7
 10
17.0
 20
35.476179132920471
 30
0.0
  0
VERTEX
  5
347
  8
DATA
 62
     7
 10
17.0
 20
36.476179132920471
 30
0.0
  0
VERTEX
  5
348
  8
DATA
 62
     7
 10
15.5
 20
36.476179132920471
 30
0.0
  0
SEQEND
  5
349
  8
DATA
 62
     7
  0
POLYLINE
  5
C9
  8
DATA
 62
     7
 66
     1
 10
0.0
 20
0.0
 30
0.0
  0
VERTEX
  5
34A
  8
DATA
 62
     7
 10
14.5
 20
35.476179132920471
 30
0.0
  0
VERTEX
  5
34B
  8
DATA
 62
     7
 10
13.0
 20
35.476179132920471
 30
0.0
  0
VERTEX
  5
34C
  8
DATA
 62
     7
 10
13.0
 20
36.476179132920471
 30
0.0
  0
VERTEX
  5
34D
  8
DATA
 62
     7
 10
14.5
 20
36.476179132920471
 30
0.0
  0
SEQEND
  5
34E
  8
DATA
 62
     7
  0
POLYLINE
  5
CF
  8
DATA
 62
     7
 66
     1
 10
0.0
 20
0.0
 30
0.0
  0
VERTEX
  5
34F
  8
DATA
 62
     7
 10
15.5
 20
36.476179132920471
 30
0.0
  0
VERTEX
  5
350
  8
DATA
 62
     7
 10
15.5
 20
37.976179132920471
 30
0.0
  0
VERTEX
  5
351
  8
DATA
 62
     7
 10
14.5
 20
37.976179132920471
 30
0.0
  0
VERTEX
  5
352
  8
DATA
 62
     7
 10
14.5
 20
36.476179132920471
 30
0.0
  0
SEQEND
  5
353
  8
DATA
 62
     7
  0
POLYLINE
  5
D5
  8
DATA
 62
     7
 66
     1
 10
0.0
 20
0.0
 30
0.0
  0
VERTEX
  5
354
  8
DATA
 62
     7
 10
15.5
 20
35.476179132920471
 30
0.0
  0
VERTEX
  5
355
  8
DATA
 62
     7
 10
15.5
 20
33.976179132920471
 30
0.0
  0
VERTEX
  5
356
  8
DATA
 62
     7
 10
14.5
 20
33.976179132920471
 30
0.0
  0
VERTEX
  5
357
  8
DATA
 62
     7
 10
14.5
 20
35.476179132920471
 30
0.0
  0
SEQEND
  5
358
  8
DATA
 62
     7
  0
LINE
  5
DB
  8
DATA
 62
     7
 10
134.5
 20
2.9761791329204361
 30
0.0
 11
125.50999999999991
 21
0.0761791329204584
 31
0.0
  0
LINE
  5
DC
  8
DATA
 62
     7
 10
117.5
 20
3.276179132920447
 30
0.0
 11
117.5
 21
51.276179132920447
 31
0.0
  0
ARC
  5
DD
  8
DATA
 62
     7
 10
131.79855425288741
 20
12.295665472898181
 30
0.0
 40
9.703124999999984
 50
286.16532354514669
 51
1.065972823181482
  0
ARC
  5
DE
  8
DATA
 62
     7
 10
126.0779130245453
 20
11.84444260253445
 30
0.0
 40
12.12417959044593
 50
224.9677549852843
 51
256.08274869754121
  0
ARC
  5
DF
  8
DATA
 62
     7
 10
124.3359008162228
 20
6.9187235996512859
 30
0.0
 40
6.9425444667308227
 50
260.26354248164807
 51
279.73645751835181
  0
ARC
  5
E0
  8
DATA
 62
     7
 10
127.2903266406922
 20
38.071174251201121
 30
0.0
 40
16.438450342343081
 50
97.305556940821205
 51
126.5536185595295
  0
ARC
  5
E1
  8
DATA
 62
     7
 10
125.6359735429039
 20
40.9790666902623
 30
0.0
 40
13.404204367710109
 50
61.655078537606059
 51
91.863881632019485
  0
LINE
  5
E2
  8
DATA
 62
     7
 10
141.5
 20
12.47617913292043
 30
0.0
 11
141.5
 21
40.476179132920471
 31
0.0
  0
ARC
  5
E3
  8
DATA
 62
     7
 10
129.90492428985161
 20
39.740411477653211
 30
0.0
 40
11.618396393935379
 50
3.6308461428178731
 51
45.141896060784852
  0
LINE
  5
E4
  8
DATA
 62
     7
 10
138.09999999999999
 20
47.976179132920457
 30
0.0
 11
132.0
 21
52.776179132920468
 31
0.0
  0
CIRCLE
  5
E5
  8
DATA
 62
     7
 10
123.5
 20
14.97617913292043
 30
0.0
 40
4.25
  0
CIRCLE
  5
E6
  8
DATA
 62
     7
 10
123.5
 20
14.97617913292043
 30
0.0
 40
4.0
  0
POLYLINE
  5
E7
  8
DATA
 62
     7
 66
     1
 10
0.0
 20
0.0
 30
0.0
  0
VERTEX
  5
359
  8
DATA
 62
     7
 10
123.0
 20
14.47617913292043
 30
0.0
  0
VERTEX
  5
35A
  8
DATA
 62
     7
 10
121.5
 20
14.47617913292043
 30
0.0
  0
VERTEX
  5
35B
  8
DATA
 62
     7
 10
121.5
 20
15.47617913292043
 30
0.0
  0
VERTEX
  5
35C
  8
DATA
 62
     7
 10
123.0
 20
15.47617913292043
 30
0.0
  0
SEQEND
  5
35D
  8
DATA
 62
     7
  0
POLYLINE
  5
ED
  8
DATA
 62
     7
 66
     1
 10
0.0
 20
0.0
 30
0.0
  0
VERTEX
  5
35E
  8
DATA
 62
     7
 10
124.0
 20
14.47617913292043
 30
0.0
  0
VERTEX
  5
35F
  8
DATA
 62
     7
 10
125.5
 20
14.47617913292043
 30
0.0
  0
VERTEX
  5
360
  8
DATA
 62
     7
 10
125.5
 20
15.47617913292043
 30
0.0
  0
VERTEX
  5
361
  8
DATA
 62
     7
 10
124.0
 20
15.47617913292043
 30
0.0
  0
SEQEND
  5
362
  8
DATA
 62
     7
  0
POLYLINE
  5
F3
  8
DATA
 62
     7
 66
     1
 10
0.0
 20
0.0
 30
0.0
  0
VERTEX
  5
363
  8
DATA
 62
     7
 10
123.0
 20
15.47617913292043
 30
0.0
  0
VERTEX
  5
364
  8
DATA
 62
     7
 10
123.0
 20
16.976179132920429
 30
0.0
  0
VERTEX
  5
365
  8
DATA
 62
     7
 10
124.0
 20
16.976179132920429
 30
0.0
  0
VERTEX
  5
366
  8
DATA
 62
     7
 10
124.0
 20
15.47617913292043
 30
0.0
  0
SEQEND
  5
367
  8
DATA
 62
     7
  0
POLYLINE
  5
F9
  8
DATA
 62
     7
 66
     1
 10
0.0
 20
0.0
 30
0.0
  0
VERTEX
  5
368
  8
DATA
 62
     7
 10
123.0
 20
14.47617913292043
 30
0.0
  0
VERTEX
  5
369
  8
DATA
 62
     7
 10
123.0
 20
12.97617913292043
 30
0.0
  0
VERTEX
  5
36A
  8
DATA
 62
     7
 10
124.0
 20
12.97617913292043
 30
0.0
  0
VERTEX
  5
36B
  8
DATA
 62
     7
 10
124.0
 20
14.47617913292043
 30
0.0
  0
SEQEND
  5
36C
  8
DATA
 62
     7
  0
CIRCLE
  5
FF
  8
DATA
 62
     7
 10
126.5
 20
35.976179132920471
 30
0.0
 40
4.25
  0
CIRCLE
  5
100
  8
DATA
 62
     7
 10
126.5
 20
35.976179132920471
 30
0.0
 40
4.0
  0
POLYLINE
  5
101
  8
DATA
 62
     7
 66
     1
 10
0.0
 20
0.0
 30
0.0
  0
VERTEX
  5
36D
  8
DATA
 62
     7
 10
126.0
 20
35.476179132920471
 30
0.0
  0
VERTEX
  5
36E
  8
DATA
 62
     7
 10
124.5
 20
35.476179132920471
 30
0.0
  0
VERTEX
  5
36F
  8
DATA
 62
     7
 10
124.5
 20
36.476179132920471
 30
0.0
  0
VERTEX
  5
370
  8
DATA
 62
     7
 10
126.0
 20
36.476179132920471
 30
0.0
  0
SEQEND
  5
371
  8
DATA
 62
     7
  0
POLYLINE
  5
107
  8
DATA
 62
     7
 66
     1
 10
0.0
 20
0.0
 30
0.0
  0
VERTEX
  5
372
  8
DATA
 62
     7
 10
127.0
 20
35.476179132920471
 30
0.0
  0
VERTEX
  5
373
  8
DATA
 62
     7
 10
128.5
 20
35.476179132920471
 30
0.0
  0
VERTEX
  5
374
  8
DATA
 62
     7
 10
128.5
 20
36.476179132920471
 30
0.0
  0
VERTEX
  5
375
  8
DATA
 62
     7
 10
127.0
 20
36.476179132920471
 30
0.0
  0
SEQEND
  5
376
  8
DATA
 62
     7
  0
POLYLINE
  5
10D
  8
DATA
 62
     7
 66
     1
 10
0.0
 20
0.0
 30
0.0
  0
VERTEX
  5
377
  8
DATA
 62
     7
 10
126.0
 20
36.476179132920471
 30
0.0
  0
VERTEX
  5
378
  8
DATA
 62
     7
 10
126.0
 20
37.976179132920471
 30
0.0
  0
VERTEX
  5
379
  8
DATA
 62
     7
 10
127.0
 20
37.976179132920471
 30
0.0
  0
VERTEX
  5
37A
  8
DATA
 62
     7
 10
127.0
 20
36.476179132920471
 30
0.0
  0
SEQEND
  5
37B
  8
DATA
 62
     7
  0
POLYLINE
  5
113
  8
DATA
 62
     7
 66
     1
 10
0.0
 20
0.0
 30
0.0
  0
VERTEX
  5
37C
  8
DATA
 62
     7
 10
126.0
 20
35.476179132920471
 30
0.0
  0
VERTEX
  5
37D
  8
DATA
 62
     7
 10
126.0
 20
33.976179132920471
 30
0.0
  0
VERTEX
  5
37E
  8
DATA
 62
     7
 10
127.0
 20
33.976179132920471
 30
0.0
  0
VERTEX
  5
37F
  8
DATA
 62
     7
 10
127.0
 20
35.476179132920471
 30
0.0
  0
SEQEND
  5
380
  8
DATA
 62
     7
  0
ARC
  5
119
  8
DATA
 62
     7
 10
70.750000000000014
 20
-260.21913336707939
 30
0.0
 40
275.19531249999989
 50
80.219195883892283
 51
99.780804116107745
  0
ARC
  5
11A
  8
DATA
 62
     7
 10
70.750000000000014
 20
-43.181825253044451
 30
0.0
 40
101.55800438596491
 50
62.591720811435792
 51
117.40827918856419
  0
LINE
  5
11B
  8
DATA
 62
     7
 10
29.5
 20
33.476179132920457
 30
0.0
 11
29.5
 21
28.476179132920461
 31
0.0
  0
LINE
  5
11C
  8
DATA
 62
     7
 10
32.5
 20
28.476179132920461
 30
0.0
 11
32.5
 21
33.476179132920457
 31
0.0
  0
ARC
  5
11D
  8
DATA
 62
     7
 10
31.0
 20
28.476179132920461
 30
0.0
 40
1.5
 50
180.0
 51
0.0
  0
ARC
  5
11E
  8
DATA
 62
     7
 10
31.0
 20
33.476179132920457
 30
0.0
 40
1.5
 50
0.0
 51
180.0
  0
CIRCLE
  5
11F
  8
DATA
 62
     7
 10
31.0
 20
30.976179132920461
 30
0.0
 40
1.25
  0
CIRCLE
  5
120
  8
DATA
 62
     7
 10
48.0
 20
32.476179132920457
 30
0.0
 40
8.0
  0
POLYLINE
  5
121
  8
DATA
 62
     7
 66
     1
 10
0.0
 20
0.0
 30
0.0
 70
     1
  0
VERTEX
  5
381
  8
DATA
 62
     7
 10
48.0
 20
38.976179132920471
 30
0.0
  0
VERTEX
  5
382
  8
DATA
 62
     7
 10
42.370834875401172
 20
35.726179132920471
 30
0.0
  0
VERTEX
  5
383
  8
DATA
 62
     7
 10
42.370834875401172
 20
29.226179132920471
 30
0.0
  0
VERTEX
  5
384
  8
DATA
 62
     7
 10
48.0
 20
25.976179132920439
 30
0.0
  0
VERTEX
  5
385
  8
DATA
 62
     7
 10
53.629165124598863
 20
29.226179132920471
 30
0.0
  0
VERTEX
  5
386
  8
DATA
 62
     7
 10
53.629165124598863
 20
35.726179132920471
 30
0.0
  0
SEQEND
  5
387
  8
DATA
 62
     7
  0
CIRCLE
  5
129
  8
DATA
 62
     7
 10
48.0
 20
32.476179132920457
 30
0.0
 40
3.25
  0
ARC
  5
12A
  8
DATA
 62
     7
 10
70.750000000000014
 20
36.976179132920471
 30
0.0
 40
10.99999999999998
 50
108.9367465008569
 51
71.063253499142945
  0
CIRCLE
  5
12B
  8
DATA
 62
     7
 10
70.750000000000014
 20
36.976179132920471
 30
0.0
 40
9.75
  0
ARC
  5
12C
  8
DATA
 62
     7
 10
70.750000000000014
 20
36.976179132920471
 30
0.0
 40
7.9999999999999929
 50
140.37344837138281
 51
129.6265516286164
  0
CIRCLE
  5
12D
  8
DATA
 62
     7
 10
66.75
 20
36.976179132920471
 30
0.0
 40
1.250000000000014
  0
CIRCLE
  5
12E
  8
DATA
 62
     7
 10
74.750000000000014
 20
36.976179132920471
 30
0.0
 40
1.25
  0
CIRCLE
  5
12F
  8
DATA
 62
     7
 10
70.750000000000014
 20
32.976179132920471
 30
0.0
 40
1.25
  0
ARC
  5
130
  8
DATA
 62
     7
 10
65.093145750507645
 20
42.633033382412883
 30
0.0
 40
0.7499999999999967
 50
42.313275814307168
 51
227.68672418569199
  0
LINE
  5
131
  8
DATA
 62
     7
 10
73.250000000000014
 20
46.726179132920457
 30
0.0
 11
68.250000000000014
 21
46.726179132920457
 31
0.0
  0
LINE
  5
132
  8
DATA
 62
     7
 10
68.250000000000014
 20
46.726179132920457
 30
0.0
 11
68.250000000000014
 21
47.226179132920457
 31
0.0
  0
LINE
  5
133
  8
DATA
 62
     7
 10
73.250000000000014
 20
46.726179132920457
 30
0.0
 11
73.250000000000014
 21
47.226179132920457
 31
0.0
  0
ARC
  5
134
  8
DATA
 62
     7
 10
68.000000000000014
 20
49.476179132920457
 30
0.0
 40
2.2500000000000391
 50
102.79213099683029
 51
270.0000000000004
  0
ARC
  5
135
  8
DATA
 62
     7
 10
73.500000000000014
 20
49.476179132920457
 30
0.0
 40
2.25
 50
270.0
 51
77.207869003081186
  0
ARC
  5
136
  8
DATA
 62
     7
 10
70.750000000000625
 20
42.457587526837052
 30
0.0
 40
9.7685916060834082
 50
66.629238800320209
 51
113.3707611996862
  0
LINE
  5
137
  8
DATA
 62
     7
 10
68.000000000000014
 20
47.226179132920457
 30
0.0
 11
68.250000000000014
 21
47.226179132920457
 31
0.0
  0
LINE
  5
138
  8
DATA
 62
     7
 10
73.250000000000014
 20
47.226179132920457
 30
0.0
 11
73.500000000000014
 21
47.226179132920457
 31
0.0
  0
TEXT
  5
139
  8
DATA
 62
     7
 10
67.338194444444468
 20
47.756179132920458
 30
0.0
 40
2.7200000000000002
  1
PUSH
 41
0.8
 11
67.338194444444468
 21
50.476179132920471
 31
0.0
 73
     3
  0
CIRCLE
  5
13A
  8
DATA
 62
     7
 10
80.750000000000014
 20
26.976179132920471
 30
0.0
 40
2.7499999999999978
  0
POLYLINE
  5
13B
  8
DATA
 62
     7
 66
     1
 10
0.0
 20
0.0
 30
0.0
  0
VERTEX
  5
388
  8
DATA
 62
     7
 10
81.000000000000028
 20
26.726179132920471
 30
0.0
  0
VERTEX
  5
389
  8
DATA
 62
     7
 10
82.250000000000028
 20
26.726179132920471
 30
0.0
  0
VERTEX
  5
38A
  8
DATA
 62
     7
 10
82.250000000000028
 20
27.226179132920461
 30
0.0
  0
VERTEX
  5
38B
  8
DATA
 62
     7
 10
81.000000000000028
 20
27.226179132920461
 30
0.0
  0
SEQEND
  5
38C
  8
DATA
 62
     7
  0
POLYLINE
  5
141
  8
DATA
 62
     7
 66
     1
 10
0.0
 20
0.0
 30
0.0
  0
VERTEX
  5
38D
  8
DATA
 62
     7
 10
80.500000000000014
 20
26.726179132920471
 30
0.0
  0
VERTEX
  5
38E
  8
DATA
 62
     7
 10
79.250000000000014
 20
26.726179132920471
 30
0.0
  0
VERTEX
  5
38F
  8
DATA
 62
     7
 10
79.250000000000014
 20
27.226179132920461
 30
0.0
  0
VERTEX
  5
390
  8
DATA
 62
     7
 10
80.500000000000014
 20
27.226179132920461
 30
0.0
  0
SEQEND
  5
391
  8
DATA
 62
     7
  0
POLYLINE
  5
147
  8
DATA
 62
     7
 66
     1
 10
0.0
 20
0.0
 30
0.0
  0
VERTEX
  5
392
  8
DATA
 62
     7
 10
81.000000000000028
 20
27.226179132920461
 30
0.0
  0
VERTEX
  5
393
  8
DATA
 62
     7
 10
81.000000000000028
 20
28.476179132920461
 30
0.0
  0
VERTEX
  5
394
  8
DATA
 62
     7
 10
80.500000000000014
 20
28.476179132920461
 30
0.0
  0
VERTEX
  5
395
  8
DATA
 62
     7
 10
80.500000000000014
 20
27.226179132920461
 30
0.0
  0
SEQEND
  5
396
  8
DATA
 62
     7
  0
POLYLINE
  5
14D
  8
DATA
 62
     7
 66
     1
 10
0.0
 20
0.0
 30
0.0
  0
VERTEX
  5
397
  8
DATA
 62
     7
 10
81.000000000000028
 20
26.726179132920471
 30
0.0
  0
VERTEX
  5
398
  8
DATA
 62
     7
 10
81.000000000000028
 20
25.476179132920439
 30
0.0
  0
VERTEX
  5
399
  8
DATA
 62
     7
 10
80.500000000000014
 20
25.476179132920439
 30
0.0
  0
VERTEX
  5
39A
  8
DATA
 62
     7
 10
80.500000000000014
 20
26.726179132920471
 30
0.0
  0
SEQEND
  5
39B
  8
DATA
 62
     7
  0
CIRCLE
  5
153
  8
DATA
 62
     7
 10
60.75
 20
46.976179132920457
 30
0.0
 40
2.749999999999984
  0
POLYLINE
  5
154
  8
DATA
 62
     7
 66
     1
 10
0.0
 20
0.0
 30
0.0
  0
VERTEX
  5
39C
  8
DATA
 62
     7
 10
61.0
 20
46.726179132920457
 30
0.0
  0
VERTEX
  5
39D
  8
DATA
 62
     7
 10
62.25
 20
46.726179132920457
 30
0.0
  0
VERTEX
  5
39E
  8
DATA
 62
     7
 10
62.25
 20
47.226179132920457
 30
0.0
  0
VERTEX
  5
39F
  8
DATA
 62
     7
 10
61.0
 20
47.226179132920457
 30
0.0
  0
SEQEND
  5
3A0
  8
DATA
 62
     7
  0
POLYLINE
  5
15A
  8
DATA
 62
     7
 66
     1
 10
0.0
 20
0.0
 30
0.0
  0
VERTEX
  5
3A1
  8
DATA
 62
     7
 10
60.5
 20
46.726179132920457
 30
0.0
  0
VERTEX
  5
3A2
  8
DATA
 62
     7
 10
59.25
 20
46.726179132920457
 30
0.0
  0
VERTEX
  5
3A3
  8
DATA
 62
     7
 10
59.25
 20
47.226179132920457
 30
0.0
  0
VERTEX
  5
3A4
  8
DATA
 62
     7
 10
60.5
 20
47.226179132920457
 30
0.0
  0
SEQEND
  5
3A5
  8
DATA
 62
     7
  0
POLYLINE
  5
160
  8
DATA
 62
     7
 66
     1
 10
0.0
 20
0.0
 30
0.0
  0
VERTEX
  5
3A6
  8
DATA
 62
     7
 10
61.0
 20
47.226179132920457
 30
0.0
  0
VERTEX
  5
3A7
  8
DATA
 62
     7
 10
61.0
 20
48.476179132920457
 30
0.0
  0
VERTEX
  5
3A8
  8
DATA
 62
     7
 10
60.5
 20
48.476179132920457
 30
0.0
  0
VERTEX
  5
3A9
  8
DATA
 62
     7
 10
60.5
 20
47.226179132920457
 30
0.0
  0
SEQEND
  5
3AA
  8
DATA
 62
     7
  0
POLYLINE
  5
166
  8
DATA
 62
     7
 66
     1
 10
0.0
 20
0.0
 30
0.0
  0
VERTEX
  5
3AB
  8
DATA
 62
     7
 10
61.0
 20
46.726179132920457
 30
0.0
  0
VERTEX
  5
3AC
  8
DATA
 62
     7
 10
61.0
 20
45.476179132920457
 30
0.0
  0
VERTEX
  5
3AD
  8
DATA
 62
     7
 10
60.5
 20
45.476179132920457
 30
0.0
  0
VERTEX
  5
3AE
  8
DATA
 62
     7
 10
60.5
 20
46.726179132920457
 30
0.0
  0
SEQEND
  5
3AF
  8
DATA
 62
     7
  0
CIRCLE
  5
16C
  8
DATA
 62
     7
 10
93.500000000000043
 20
32.476179132920457
 30
0.0
 40
8.0
  0
POLYLINE
  5
16D
  8
DATA
 62
     7
 66
     1
 10
0.0
 20
0.0
 30
0.0
 70
     1
  0
VERTEX
  5
3B0
  8
DATA
 62
     7
 10
93.500000000000043
 20
38.976179132920471
 30
0.0
  0
VERTEX
  5
3B1
  8
DATA
 62
     7
 10
99.129165124598856
 20
35.726179132920471
 30
0.0
  0
VERTEX
  5
3B2
  8
DATA
 62
     7
 10
99.129165124598856
 20
29.226179132920471
 30
0.0
  0
VERTEX
  5
3B3
  8
DATA
 62
     7
 10
93.500000000000043
 20
25.976179132920439
 30
0.0
  0
VERTEX
  5
3B4
  8
DATA
 62
     7
 10
87.870834875401172
 20
29.226179132920471
 30
0.0
  0
VERTEX
  5
3B5
  8
DATA
 62
     7
 10
87.870834875401172
 20
35.726179132920471
 30
0.0
  0
SEQEND
  5
3B6
  8
DATA
 62
     7
  0
CIRCLE
  5
175
  8
DATA
 62
     7
 10
93.500000000000043
 20
32.476179132920457
 30
0.0
 40
3.25
  0
LINE
  5
176
  8
DATA
 62
     7
 10
48.0
 20
47.476179132920457
 30
0.0
 11
48.0
 21
49.797148641615749
 31
0.0
  0
LINE
  5
177
  8
DATA
 62
     7
 10
70.750000000000014
 20
51.476179132920457
 30
0.0
 11
70.750000000000014
 21
53.093851938319091
 31
0.0
  0
LINE
  5
178
  8
DATA
 62
     7
 10
49.653664238568652
 20
51.766933284756689
 30
0.0
 11
68.403664238568652
 21
55.063636581460003
 31
0.0
  0
ARC
  5
179
  8
DATA
 62
     7
 10
50.0
 20
49.797148641615749
 30
0.0
 40
2.0000000000000271
 50
99.972057687330391
 51
180.0
  0
ARC
  5
17A
  8
DATA
 62
     7
 10
68.750000000000014
 20
53.093851938319091
 30
0.0
 40
2.0
 50
0.0
 51
99.972057687330917
  0
LINE
  5
17B
  8
DATA
 62
     7
 10
47.0
 20
41.476179132920471
 30
0.0
 11
49.0
 21
41.476179132920471
 31
0.0
  0
LINE
  5
17C
  8
DATA
 62
     7
 10
69.750000000000014
 20
51.476179132920457
 30
0.0
 11
71.750000000000014
 21
51.476179132920457
 31
0.0
  0
TEXT
  5
17D
  8
DATA
 62
     7
 10
42.5
 20
43.589512466253787
 30
0.0
 40
3.3866666666666658
  1
INPUT
 41
0.8
 11
42.5
 21
46.976179132920457
 31
0.0
 73
     3
  0
LINE
  5
17E
  8
DATA
 62
     7
 10
48.0
 20
42.742845799587109
 30
0.0
 11
48.0
 21
41.476179132920471
 31
0.0
  0
TEXT
  5
17F
  8
DATA
 62
     7
 10
89.264583333333363
 20
43.589512466253787
 30
0.0
 40
3.3866666666666658
  1
LINK
 41
0.8
 11
89.264583333333363
 21
46.976179132920457
 31
0.0
 73
     3
  0
TEXT
  5
180
  8
DATA
 62
     7
 10
61.104111111111109
 20
22.142728594541211
 30
0.0
 40
2.5600000000000001
  1
UNBALANCED
 41
0.8
 72
     1
 11
71.00277777777778
 21
24.70272859454121
 31
0.0
 73
     3
  0
TEXT
  5
181
  8
DATA
 62
     7
 10
61.445444444444448
 20
18.942728594541219
 30
0.0
 40
2.5600000000000001
  1
PIN2:SIGNAL
 41
0.8
 72
     1
 11
71.00277777777778
 21
21.502728594541232
 31
0.0
 73
     3
  0
TEXT
  5
182
  8
DATA
 62
     7
 10
60.831044444444437
 20
15.742728594541211
 30
0.0
 40
2.5600000000000001
  1
PINS 1&3:GND
 41
0.8
 72
     1
 11
71.00277777777778
 21
18.302728594541211
 31
0.0
 73
     3
  0
TEXT
  5
183
  8
DATA
 62
     7
 10
34.699856402569488
 20
33.732568021809378
 30
0.0
 40
2.5600000000000001
  1
0dB
 41
0.8
 72
     2
 11
39.819856402569492
 21
36.29256802180938
 31
0.0
 73
     3
  0
TEXT
  5
184
  8
DATA
 62
     7
 10
32.651856402569493
 20
30.5325680218094
 30
0.0
 40
2.5600000000000001
  1
20dB
 41
0.8
 72
     2
 11
39.819856402569492
 21
33.092568021809399
 31
0.0
 73
     3
  0
TEXT
  5
185
  8
DATA
 62
     7
 10
32.651856402569493
 20
27.33256802180939
 30
0.0
 40
2.5600000000000001
  1
40dB
 41
0.8
 72
     2
 11
39.819856402569492
 21
29.892568021809389
 31
0.0
 73
     3
  0
TEXT
  5
186
  8
DATA
 62
     7
 10
28.819856402569489
 20
21.86895691069822
 30
0.0
 40
2.5600000000000001
  1
PAD
 41
0.8
 11
28.819856402569489
 21
24.428956910698219
 31
0.0
 73
     3
  0
LINE
  5
187
  8
DATA
 62
     7
 10
0.0
 20
89.976179132920493
 30
0.0
 11
0.0
 21
114.97617913292051
 31
0.0
  0
LINE
  5
188
  8
DATA
 62
     7
 10
0.0
 20
89.976179132920493
 30
0.0
 11
24.0
 21
89.976179132920493
 31
0.0
  0
LINE
  5
189
  8
DATA
 62
     7
 10
24.0
 20
89.976179132920493
 30
0.0
 11
24.0
 21
114.97617913292051
 31
0.0
  0
LINE
  5
18A
  8
DATA
 62
     7
 10
24.0
 20
125.97617913292039
 30
0.0
 11
0.0
 21
125.97617913292039
 31
0.0
  0
LINE
  5
18B
  8
DATA
 62
     7
 10
24.0
 20
125.97617913292039
 30
0.0
 11
24.0
 21
146.47617913292041
 31
0.0
  0
LINE
  5
18C
  8
DATA
 62
     7
 10
0.0
 20
125.97617913292039
 30
0.0
 11
0.0
 21
146.47617913292041
 31
0.0
  0
LINE
  5
18D
  8
DATA
 62
     7
 10
0.0
 20
146.47617913292041
 30
0.0
 11
24.0
 21
146.47617913292041
 31
0.0
  0
LINE
  5
18E
  8
DATA
 62
     7
 10
24.0
 20
157.47617913292041
 30
0.0
 11
0.0
 21
157.47617913292041
 31
0.0
  0
LINE
  5
18F
  8
DATA
 62
     7
 10
24.0
 20
157.47617913292041
 30
0.0
 11
24.0
 21
177.97617913292041
 31
0.0
  0
LINE
  5
190
  8
DATA
 62
     7
 10
0.0
 20
157.47617913292041
 30
0.0
 11
0.0
 21
177.97617913292041
 31
0.0
  0
LINE
  5
191
  8
DATA
 62
     7
 10
0.0
 20
177.97617913292041
 30
0.0
 11
24.0
 21
177.97617913292041
 31
0.0
  0
LINE
  5
192
  8
DATA
 62
     7
 10
0.0
 20
188.97617913292041
 30
0.0
 11
0.0
 21
213.97617913292049
 31
0.0
  0
LINE
  5
193
  8
DATA
 62
     7
 10
0.0
 20
188.97617913292041
 30
0.0
 11
24.0
 21
188.97617913292041
 31
0.0
  0
LINE
  5
194
  8
DATA
 62
     7
 10
24.0
 20
188.97617913292041
 30
0.0
 11
24.0
 21
213.97617913292049
 31
0.0
  0
LINE
  5
195
  8
DATA
 62
     7
 10
0.0
 20
213.97617913292049
 30
0.0
 11
24.0
 21
213.97617913292049
 31
0.0
  0
LINE
  5
196
  8
DATA
 62
     7
 10
24.0
 20
114.97617913292051
 30
0.0
 11
0.0
 21
114.97617913292051
 31
0.0
  0
LINE
  5
197
  8
DATA
 62
     7
 10
6.0
 20
114.97617913292051
 30
0.0
 11
6.0
 21
125.97617913292039
 31
0.0
  0
LINE
  5
198
  8
DATA
 62
     7
 10
6.0
 20
146.47617913292041
 30
0.0
 11
6.0
 21
157.47617913292041
 31
0.0
  0
LINE
  5
199
  8
DATA
 62
     7
 10
6.0
 20
177.97617913292041
 30
0.0
 11
6.0
 21
188.97617913292041
 31
0.0
  0
LINE
  5
19A
  8
DATA
 62
     7
 10
22.0
 20
114.97617913292051
 30
0.0
 11
22.0
 21
125.97617913292039
 31
0.0
  0
LINE
  5
19B
  8
DATA
 62
     7
 10
22.0
 20
146.47617913292041
 30
0.0
 11
22.0
 21
157.47617913292041
 31
0.0
  0
LINE
  5
19C
  8
DATA
 62
     7
 10
22.0
 20
177.97617913292041
 30
0.0
 11
22.0
 21
188.97617913292041
 31
0.0
  0
LINE
  5
19D
  8
DATA
 62
     7
 10
24.0
 20
94.976179132920478
 30
0.0
 11
117.5
 21
94.976179132920478
 31
0.0
  0
LINE
  5
19E
  8
DATA
 62
     7
 10
141.5
 20
89.976179132920493
 30
0.0
 11
141.5
 21
114.97617913292051
 31
0.0
  0
LINE
  5
19F
  8
DATA
 62
     7
 10
141.5
 20
89.976179132920493
 30
0.0
 11
117.5
 21
89.976179132920493
 31
0.0
  0
LINE
  5
1A0
  8
DATA
 62
     7
 10
117.5
 20
89.976179132920493
 30
0.0
 11
117.5
 21
114.97617913292051
 31
0.0
  0
LINE
  5
1A1
  8
DATA
 62
     7
 10
117.5
 20
125.97617913292039
 30
0.0
 11
141.5
 21
125.97617913292039
 31
0.0
  0
LINE
  5
1A2
  8
DATA
 62
     7
 10
117.5
 20
125.97617913292039
 30
0.0
 11
117.5
 21
146.47617913292041
 31
0.0
  0
LINE
  5
1A3
  8
DATA
 62
     7
 10
141.5
 20
125.97617913292039
 30
0.0
 11
141.5
 21
146.47617913292041
 31
0.0
  0
LINE
  5
1A4
  8
DATA
 62
     7
 10
141.5
 20
146.47617913292041
 30
0.0
 11
117.5
 21
146.47617913292041
 31
0.0
  0
LINE
  5
1A5
  8
DATA
 62
     7
 10
117.5
 20
157.47617913292041
 30
0.0
 11
141.5
 21
157.47617913292041
 31
0.0
  0
LINE
  5
1A6
  8
DATA
 62
     7
 10
117.5
 20
157.47617913292041
 30
0.0
 11
117.5
 21
177.97617913292041
 31
0.0
  0
LINE
  5
1A7
  8
DATA
 62
     7
 10
141.5
 20
157.47617913292041
 30
0.0
 11
141.5
 21
177.97617913292041
 31
0.0
  0
LINE
  5
1A8
  8
DATA
 62
     7
 10
141.5
 20
177.97617913292041
 30
0.0
 11
117.5
 21
177.97617913292041
 31
0.0
  0
LINE
  5
1A9
  8
DATA
 62
     7
 10
141.5
 20
188.97617913292041
 30
0.0
 11
141.5
 21
213.97617913292049
 31
0.0
  0
LINE
  5
1AA
  8
DATA
 62
     7
 10
141.5
 20
188.97617913292041
 30
0.0
 11
117.5
 21
188.97617913292041
 31
0.0
  0
LINE
  5
1AB
  8
DATA
 62
     7
 10
117.5
 20
188.97617913292041
 30
0.0
 11
117.5
 21
213.97617913292049
 31
0.0
  0
LINE
  5
1AC
  8
DATA
 62
     7
 10
141.5
 20
213.97617913292049
 30
0.0
 11
117.5
 21
213.97617913292049
 31
0.0
  0
LINE
  5
1AD
  8
DATA
 62
     7
 10
117.5
 20
114.97617913292051
 30
0.0
 11
141.5
 21
114.97617913292051
 31
0.0
  0
LINE
  5
1AE
  8
DATA
 62
     7
 10
135.5
 20
114.97617913292051
 30
0.0
 11
135.5
 21
125.97617913292039
 31
0.0
  0
LINE
  5
1AF
  8
DATA
 62
     7
 10
135.5
 20
146.47617913292041
 30
0.0
 11
135.5
 21
157.47617913292041
 31
0.0
  0
LINE
  5
1B0
  8
DATA
 62
     7
 10
135.5
 20
177.97617913292041
 30
0.0
 11
135.5
 21
188.97617913292041
 31
0.0
  0
LINE
  5
1B1
  8
DATA
 62
     7
 10
119.5
 20
114.97617913292051
 30
0.0
 11
119.5
 21
125.97617913292039
 31
0.0
  0
LINE
  5
1B2
  8
DATA
 62
     7
 10
119.5
 20
146.47617913292041
 30
0.0
 11
119.5
 21
157.47617913292041
 31
0.0
  0
LINE
  5
1B3
  8
DATA
 62
     7
 10
119.5
 20
177.97617913292041
 30
0.0
 11
119.5
 21
188.97617913292041
 31
0.0
  0
LINE
  5
1B4
  8
DATA
 62
     7
 10
24.0
 20
208.97617913292049
 30
0.0
 11
117.5
 21
208.97617913292049
 31
0.0
  0
LINE
  5
1B5
  8
DATA
 62
     7
 10
53.629165124598863
 20
93.481137876825926
 30
0.0
 11
56.0
 21
94.981137876825926
 31
0.0
  0
LINE
  5
1B6
  8
DATA
 62
     7
 10
42.370834875401172
 20
93.481137876825926
 30
0.0
 11
40.0
 21
94.981137876825926
 31
0.0
  0
LINE
  5
1B7
  8
DATA
 62
     7
 10
53.629165124598863
 20
92.481137876825926
 30
0.0
 11
53.629165124598863
 21
93.481137876825926
 31
0.0
  0
LINE
  5
1B8
  8
DATA
 62
     7
 10
42.370834875401172
 20
92.481137876825926
 30
0.0
 11
42.370834875401172
 21
93.481137876825926
 31
0.0
  0
LINE
  5
1B9
  8
DATA
 62
     7
 10
53.629165124598863
 20
93.481137876825926
 30
0.0
 11
42.370834875401172
 21
93.481137876825926
 31
0.0
  0
ARC
  5
1BA
  8
DATA
 62
     7
 10
50.814582562299393
 20
100.11863325062269
 30
0.0
 40
8.1396075203149376
 50
249.77006468309239
 51
290.22993531690798
  0
ARC
  5
1BB
  8
DATA
 62
     7
 10
45.185417437700572
 20
100.11863325062249
 30
0.0
 40
8.1396075203147227
 50
249.7700646830919
 51
290.22993531690838
  0
ARC
  5
1BC
  8
DATA
 62
     7
 10
48.0
 20
102.2936378768261
 30
0.0
 40
11.312500000000171
 50
240.15827583531629
 51
254.62155680240079
  0
ARC
  5
1BD
  8
DATA
 62
     7
 10
48.0
 20
102.2936378768261
 30
0.0
 40
11.31250000000019
 50
285.3784431975991
 51
299.8417241646838
  0
LINE
  5
1BE
  8
DATA
 62
     7
 10
51.0
 20
91.386179132920461
 30
0.0
 11
45.0
 21
91.386179132920461
 31
0.0
  0
LINE
  5
1BF
  8
DATA
 62
     7
 10
48.0
 20
92.481137876825926
 30
0.0
 11
48.0
 21
93.481137876825926
 31
0.0
  0
LINE
  5
1C0
  8
DATA
 62
     7
 10
40.0
 20
94.981137876825926
 30
0.0
 11
56.0
 21
94.981137876825926
 31
0.0
  0
LINE
  5
1C1
  8
DATA
 62
     7
 10
102.1291651245988
 20
93.481137876825926
 30
0.0
 11
104.5
 21
94.981137876825926
 31
0.0
  0
LINE
  5
1C2
  8
DATA
 62
     7
 10
90.870834875401158
 20
93.481137876825926
 30
0.0
 11
88.500000000000043
 21
94.981137876825926
 31
0.0
  0
LINE
  5
1C3
  8
DATA
 62
     7
 10
102.1291651245988
 20
92.481137876825926
 30
0.0
 11
102.1291651245988
 21
93.481137876825926
 31
0.0
  0
LINE
  5
1C4
  8
DATA
 62
     7
 10
90.870834875401158
 20
92.481137876825926
 30
0.0
 11
90.870834875401158
 21
93.481137876825926
 31
0.0
  0
LINE
  5
1C5
  8
DATA
 62
     7
 10
102.1291651245988
 20
93.481137876825926
 30
0.0
 11
90.870834875401158
 21
93.481137876825926
 31
0.0
  0
ARC
  5
1C6
  8
DATA
 62
     7
 10
99.314582562299407
 20
100.11863325062269
 30
0.0
 40
8.1396075203149376
 50
249.77006468309239
 51
290.22993531690793
  0
ARC
  5
1C7
  8
DATA
 62
     7
 10
93.685417437700551
 20
100.11863325062249
 30
0.0
 40
8.1396075203147227
 50
249.7700646830919
 51
290.22993531690861
  0
ARC
  5
1C8
  8
DATA
 62
     7
 10
96.5
 20
102.2936378768261
 30
0.0
 40
11.312500000000179
 50
240.1582758353162
 51
254.6215568024009
  0
ARC
  5
1C9
  8
DATA
 62
     7
 10
96.5
 20
102.2936378768261
 30
0.0
 40
11.31250000000019
 50
285.3784431975991
 51
299.8417241646838
  0
LINE
  5
1CA
  8
DATA
 62
     7
 10
99.500000000000014
 20
91.386179132920461
 30
0.0
 11
93.500000000000043
 21
91.386179132920461
 31
0.0
  0
LINE
  5
1CB
  8
DATA
 62
     7
 10
96.5
 20
92.481137876825926
 30
0.0
 11
96.5
 21
93.481137876825926
 31
0.0
  0
LINE
  5
1CC
  8
DATA
 62
     7
 10
88.500000000000043
 20
94.981137876825926
 30
0.0
 11
104.5
 21
94.981137876825926
 31
0.0
  0
LINE
  5
1CD
  8
DATA
 62
     7
 10
81.750000000000014
 20
93.476179132920464
 30
0.0
 11
81.750000000000014
 21
94.976179132920478
 31
0.0
  0
LINE
  5
1CE
  8
DATA
 62
     7
 10
63.36602540378442
 20
93.476179132920464
 30
0.0
 11
81.750000000000014
 21
93.476179132920464
 31
0.0
  0
LINE
  5
1CF
  8
DATA
 62
     7
 10
65.75
 20
89.976179132920493
 30
0.0
 11
75.750000000000014
 21
89.976179132920493
 31
0.0
  0
LINE
  5
1D0
  8
DATA
 62
     7
 10
65.75
 20
89.976179132920493
 30
0.0
 11
65.75
 21
90.476179132920478
 31
0.0
  0
LINE
  5
1D1
  8
DATA
 62
     7
 10
75.750000000000014
 20
89.976179132920493
 30
0.0
 11
75.750000000000014
 21
90.476179132920478
 31
0.0
  0
LINE
  5
1D2
  8
DATA
 62
     7
 10
73.250000000000014
 20
90.476179132920478
 30
0.0
 11
73.250000000000014
 21
93.476179132920464
 31
0.0
  0
LINE
  5
1D3
  8
DATA
 62
     7
 10
65.75
 20
90.476179132920478
 30
0.0
 11
75.750000000000014
 21
90.476179132920478
 31
0.0
  0
LINE
  5
1D4
  8
DATA
 62
     7
 10
68.250000000000014
 20
90.476179132920478
 30
0.0
 11
68.250000000000014
 21
93.476179132920464
 31
0.0
  0
LINE
  5
1D5
  8
DATA
 62
     7
 10
63.5
 20
93.976179132920478
 30
0.0
 11
63.5
 21
94.976179132920478
 31
0.0
  0
LINE
  5
1D6
  8
DATA
 62
     7
 10
58.000000000000021
 20
93.976179132920478
 30
0.0
 11
58.000000000000021
 21
94.976179132920478
 31
0.0
  0
LINE
  5
1D7
  8
DATA
 62
     7
 10
59.000000000000021
 20
92.976179132920478
 30
0.0
 11
62.5
 21
92.976179132920478
 31
0.0
  0
ARC
  5
1D8
  8
DATA
 62
     7
 10
59.000000000000021
 20
93.976179132920478
 30
0.0
 40
1.0
 50
180.0
 51
270.0
  0
ARC
  5
1D9
  8
DATA
 62
     7
 10
62.5
 20
93.976179132920478
 30
0.0
 40
1.0
 50
270.0
 51
0.0
  0
LINE
  5
1DA
  8
DATA
 62
     7
 10
83.500000000000028
 20
93.976179132920478
 30
0.0
 11
83.500000000000028
 21
94.976179132920478
 31
0.0
  0
LINE
  5
1DB
  8
DATA
 62
     7
 10
79.000000000000014
 20
92.976179132920478
 30
0.0
 11
82.500000000000028
 21
92.976179132920478
 31
0.0
  0
ARC
  5
1DC
  8
DATA
 62
     7
 10
82.500000000000028
 20
93.976179132920478
 30
0.0
 40
1.0
 50
270.0
 51
0.0
  0
ARC
  5
1DD
  8
DATA
 62
     7
 10
79.000000000000014
 20
93.976179132920478
 30
0.0
 40
0.999999999999996
 50
210.00000000000011
 51
270.0
  0
LINE
  5
1DE
  8
DATA
 62
     7
 10
29.75
 20
92.726179132920478
 30
0.0
 11
29.75
 21
94.976179132920478
 31
0.0
  0
LINE
  5
1DF
  8
DATA
 62
     7
 10
32.25
 20
92.726179132920478
 30
0.0
 11
32.25
 21
94.976179132920478
 31
0.0
  0
ARC
  5
1E0
  8
DATA
 62
     7
 10
31.0
 20
92.726179132920478
 30
0.0
 40
1.25
 50
180.0
 51
0.0
  0
LINE
  5
1E1
  8
DATA
 62
     7
 10
134.5
 20
305.37617913292041
 30
0.0
 11
125.50999999999991
 21
308.2761791329205
 31
0.0
  0
LINE
  5
1E2
  8
DATA
 62
     7
 10
117.5
 20
305.0761791329204
 30
0.0
 11
117.5
 21
257.0761791329204
 31
0.0
  0
ARC
  5
1E3
  8
DATA
 62
     7
 10
131.7985542528873
 20
296.05669279294273
 30
0.0
 40
9.7031249999999751
 50
358.93402717681852
 51
73.834676454853309
  0
ARC
  5
1E4
  8
DATA
 62
     7
 10
126.0779130245452
 20
296.50791566330651
 30
0.0
 40
12.12417959044587
 50
103.91725130245879
 51
135.0322450147159
  0
ARC
  5
1E5
  8
DATA
 62
     7
 10
124.3359008162228
 20
301.43363466618962
 30
0.0
 40
6.9425444667308627
 50
80.263542481648074
 51
99.736457518351926
  0
ARC
  5
1E6
  8
DATA
 62
     7
 10
127.2903266406922
 20
270.28118401463968
 30
0.0
 40
16.43845034234306
 50
233.4463814404705
 51
262.6944430591787
  0
ARC
  5
1E7
  8
DATA
 62
     7
 10
125.6359735429039
 20
267.37329157557861
 30
0.0
 40
13.404204367710101
 50
268.13611836798049
 51
298.34492146239393
  0
LINE
  5
1E8
  8
DATA
 62
     7
 10
141.5
 20
295.87617913292053
 30
0.0
 11
141.5
 21
267.87617913292041
 31
0.0
  0
ARC
  5
1E9
  8
DATA
 62
     7
 10
129.90492428985161
 20
268.61194678818782
 30
0.0
 40
11.618396393935379
 50
314.85810393921503
 51
356.36915385718208
  0
LINE
  5
1EA
  8
DATA
 62
     7
 10
138.09999999999999
 20
260.37617913292053
 30
0.0
 11
132.0
 21
255.57617913292049
 31
0.0
  0
CIRCLE
  5
1EB
  8
DATA
 62
     7
 10
123.5
 20
293.37617913292053
 30
0.0
 40
4.2500000000000044
  0
CIRCLE
  5
1EC
  8
DATA
 62
     7
 10
123.5
 20
293.37617913292053
 30
0.0
 40
4.0000000000000044
  0
POLYLINE
  5
1ED
  8
DATA
 62
     7
 66
     1
 10
0.0
 20
0.0
 30
0.0
  0
VERTEX
  5
3B7
  8
DATA
 62
     7
 10
123.0
 20
293.87617913292053
 30
0.0
  0
VERTEX
  5
3B8
  8
DATA
 62
     7
 10
121.5
 20
293.87617913292053
 30
0.0
  0
VERTEX
  5
3B9
  8
DATA
 62
     7
 10
121.5
 20
292.87617913292041
 30
0.0
  0
VERTEX
  5
3BA
  8
DATA
 62
     7
 10
123.0
 20
292.87617913292041
 30
0.0
  0
SEQEND
  5
3BB
  8
DATA
 62
     7
  0
POLYLINE
  5
1F3
  8
DATA
 62
     7
 66
     1
 10
0.0
 20
0.0
 30
0.0
  0
VERTEX
  5
3BC
  8
DATA
 62
     7
 10
124.0
 20
293.87617913292053
 30
0.0
  0
VERTEX
  5
3BD
  8
DATA
 62
     7
 10
125.5
 20
293.87617913292053
 30
0.0
  0
VERTEX
  5
3BE
  8
DATA
 62
     7
 10
125.5
 20
292.87617913292041
 30
0.0
  0
VERTEX
  5
3BF
  8
DATA
 62
     7
 10
124.0
 20
292.87617913292041
 30
0.0
  0
SEQEND
  5
3C0
  8
DATA
 62
     7
  0
POLYLINE
  5
1F9
  8
DATA
 62
     7
 66
     1
 10
0.0
 20
0.0
 30
0.0
  0
VERTEX
  5
3C1
  8
DATA
 62
     7
 10
123.0
 20
292.87617913292041
 30
0.0
  0
VERTEX
  5
3C2
  8
DATA
 62
     7
 10
123.0
 20
291.37617913292053
 30
0.0
  0
VERTEX
  5
3C3
  8
DATA
 62
     7
 10
124.0
 20
291.37617913292053
 30
0.0
  0
VERTEX
  5
3C4
  8
DATA
 62
     7
 10
124.0
 20
292.87617913292041
 30
0.0
  0
SEQEND
  5
3C5
  8
DATA
 62
     7
  0
POLYLINE
  5
1FF
  8
DATA
 62
     7
 66
     1
 10
0.0
 20
0.0
 30
0.0
  0
VERTEX
  5
3C6
  8
DATA
 62
     7
 10
123.0
 20
293.87617913292053
 30
0.0
  0
VERTEX
  5
3C7
  8
DATA
 62
     7
 10
123.0
 20
295.37617913292053
 30
0.0
  0
VERTEX
  5
3C8
  8
DATA
 62
     7
 10
124.0
 20
295.37617913292053
 30
0.0
  0
VERTEX
  5
3C9
  8
DATA
 62
     7
 10
124.0
 20
293.87617913292053
 30
0.0
  0
SEQEND
  5
3CA
  8
DATA
 62
     7
  0
CIRCLE
  5
205
  8
DATA
 62
     7
 10
126.5
 20
272.37617913292053
 30
0.0
 40
4.25
  0
CIRCLE
  5
206
  8
DATA
 62
     7
 10
126.5
 20
272.37617913292053
 30
0.0
 40
4.0
  0
POLYLINE
  5
207
  8
DATA
 62
     7
 66
     1
 10
0.0
 20
0.0
 30
0.0
  0
VERTEX
  5
3CB
  8
DATA
 62
     7
 10
126.0
 20
272.87617913292053
 30
0.0
  0
VERTEX
  5
3CC
  8
DATA
 62
     7
 10
124.5
 20
272.87617913292053
 30
0.0
  0
VERTEX
  5
3CD
  8
DATA
 62
     7
 10
124.5
 20
271.87617913292053
 30
0.0
  0
VERTEX
  5
3CE
  8
DATA
 62
     7
 10
126.0
 20
271.87617913292053
 30
0.0
  0
SEQEND
  5
3CF
  8
DATA
 62
     7
  0
POLYLINE
  5
20D
  8
DATA
 62
     7
 66
     1
 10
0.0
 20
0.0
 30
0.0
  0
VERTEX
  5
3D0
  8
DATA
 62
     7
 10
127.0
 20
272.87617913292053
 30
0.0
  0
VERTEX
  5
3D1
  8
DATA
 62
     7
 10
128.5
 20
272.87617913292053
 30
0.0
  0
VERTEX
  5
3D2
  8
DATA
 62
     7
 10
128.5
 20
271.87617913292053
 30
0.0
  0
VERTEX
  5
3D3
  8
DATA
 62
     7
 10
127.0
 20
271.87617913292053
 30
0.0
  0
SEQEND
  5
3D4
  8
DATA
 62
     7
  0
POLYLINE
  5
213
  8
DATA
 62
     7
 66
     1
 10
0.0
 20
0.0
 30
0.0
  0
VERTEX
  5
3D5
  8
DATA
 62
     7
 10
126.0
 20
271.87617913292053
 30
0.0
  0
VERTEX
  5
3D6
  8
DATA
 62
     7
 10
126.0
 20
270.37617913292053
 30
0.0
  0
VERTEX
  5
3D7
  8
DATA
 62
     7
 10
127.0
 20
270.37617913292053
 30
0.0
  0
VERTEX
  5
3D8
  8
DATA
 62
     7
 10
127.0
 20
271.87617913292053
 30
0.0
  0
SEQEND
  5
3D9
  8
DATA
 62
     7
  0
POLYLINE
  5
219
  8
DATA
 62
     7
 66
     1
 10
0.0
 20
0.0
 30
0.0
  0
VERTEX
  5
3DA
  8
DATA
 62
     7
 10
126.0
 20
272.87617913292053
 30
0.0
  0
VERTEX
  5
3DB
  8
DATA
 62
     7
 10
126.0
 20
274.37617913292053
 30
0.0
  0
VERTEX
  5
3DC
  8
DATA
 62
     7
 10
127.0
 20
274.37617913292053
 30
0.0
  0
VERTEX
  5
3DD
  8
DATA
 62
     7
 10
127.0
 20
272.87617913292053
 30
0.0
  0
SEQEND
  5
3DE
  8
DATA
 62
     7
  0
LINE
  5
21F
  8
DATA
 62
     7
 10
7.0
 20
305.37617913292041
 30
0.0
 11
15.990000000000061
 21
308.2761791329205
 31
0.0
  0
LINE
  5
220
  8
DATA
 62
     7
 10
24.0
 20
305.0761791329204
 30
0.0
 11
24.0
 21
257.0761791329204
 31
0.0
  0
ARC
  5
221
  8
DATA
 62
     7
 10
9.7014457471126434
 20
296.05669279294273
 30
0.0
 40
9.7031249999999876
 50
106.16532354514671
 51
181.06597282318151
  0
ARC
  5
222
  8
DATA
 62
     7
 10
15.4220869754547
 20
296.50791566330651
 30
0.0
 40
12.12417959044587
 50
44.967754985284003
 51
76.082748697541348
  0
ARC
  5
223
  8
DATA
 62
     7
 10
17.164099183777179
 20
301.43363466618962
 30
0.0
 40
6.9425444667308627
 50
80.263542481648074
 51
99.736457518351926
  0
ARC
  5
224
  8
DATA
 62
     7
 10
14.20967335930783
 20
270.28118401463968
 30
0.0
 40
16.438450342343032
 50
277.30555694082119
 51
306.55361855952953
  0
ARC
  5
225
  8
DATA
 62
     7
 10
15.864026457096029
 20
267.37329157557861
 30
0.0
 40
13.404204367710131
 50
241.6550785376061
 51
271.86388163201963
  0
LINE
  5
226
  8
DATA
 62
     7
 10
0.0
 20
295.87617913292053
 30
0.0
 11
0.0
 21
267.87617913292041
 31
0.0
  0
ARC
  5
227
  8
DATA
 62
     7
 10
11.595075710148359
 20
268.61194678818782
 30
0.0
 40
11.618396393935351
 50
183.63084614281789
 51
225.14189606078489
  0
LINE
  5
228
  8
DATA
 62
     7
 10
3.4000000000000341
 20
260.37617913292053
 30
0.0
 11
9.5
 21
255.57617913292049
 31
0.0
  0
CIRCLE
  5
229
  8
DATA
 62
     7
 10
18.0
 20
293.37617913292053
 30
0.0
 40
4.25
  0
CIRCLE
  5
22A
  8
DATA
 62
     7
 10
18.0
 20
293.37617913292053
 30
0.0
 40
4.0
  0
POLYLINE
  5
22B
  8
DATA
 62
     7
 66
     1
 10
0.0
 20
0.0
 30
0.0
  0
VERTEX
  5
3DF
  8
DATA
 62
     7
 10
18.5
 20
293.87617913292053
 30
0.0
  0
VERTEX
  5
3E0
  8
DATA
 62
     7
 10
20.0
 20
293.87617913292053
 30
0.0
  0
VERTEX
  5
3E1
  8
DATA
 62
     7
 10
20.0
 20
292.87617913292041
 30
0.0
  0
VERTEX
  5
3E2
  8
DATA
 62
     7
 10
18.5
 20
292.87617913292041
 30
0.0
  0
SEQEND
  5
3E3
  8
DATA
 62
     7
  0
POLYLINE
  5
231
  8
DATA
 62
     7
 66
     1
 10
0.0
 20
0.0
 30
0.0
  0
VERTEX
  5
3E4
  8
DATA
 62
     7
 10
17.5
 20
293.87617913292053
 30
0.0
  0
VERTEX
  5
3E5
  8
DATA
 62
     7
 10
16.0
 20
293.87617913292053
 30
0.0
  0
VERTEX
  5
3E6
  8
DATA
 62
     7
 10
16.0
 20
292.87617913292041
 30
0.0
  0
VERTEX
  5
3E7
  8
DATA
 62
     7
 10
17.5
 20
292.87617913292041
 30
0.0
  0
SEQEND
  5
3E8
  8
DATA
 62
     7
  0
POLYLINE
  5
237
  8
DATA
 62
     7
 66
     1
 10
0.0
 20
0.0
 30
0.0
  0
VERTEX
  5
3E9
  8
DATA
 62
     7
 10
18.5
 20
292.87617913292041
 30
0.0
  0
VERTEX
  5
3EA
  8
DATA
 62
     7
 10
18.5
 20
291.37617913292053
 30
0.0
  0
VERTEX
  5
3EB
  8
DATA
 62
     7
 10
17.5
 20
291.37617913292053
 30
0.0
  0
VERTEX
  5
3EC
  8
DATA
 62
     7
 10
17.5
 20
292.87617913292041
 30
0.0
  0
SEQEND
  5
3ED
  8
DATA
 62
     7
  0
POLYLINE
  5
23D
  8
DATA
 62
     7
 66
     1
 10
0.0
 20
0.0
 30
0.0
  0
VERTEX
  5
3EE
  8
DATA
 62
     7
 10
18.5
 20
293.87617913292053
 30
0.0
  0
VERTEX
  5
3EF
  8
DATA
 62
     7
 10
18.5
 20
295.37617913292053
 30
0.0
  0
VERTEX
  5
3F0
  8
DATA
 62
     7
 10
17.5
 20
295.37617913292053
 30
0.0
  0
VERTEX
  5
3F1
  8
DATA
 62
     7
 10
17.5
 20
293.87617913292053
 30
0.0
  0
SEQEND
  5
3F2
  8
DATA
 62
     7
  0
CIRCLE
  5
243
  8
DATA
 62
     7
 10
15.0
 20
272.37617913292053
 30
0.0
 40
4.25
  0
CIRCLE
  5
244
  8
DATA
 62
     7
 10
15.0
 20
272.37617913292053
 30
0.0
 40
4.0
  0
POLYLINE
  5
245
  8
DATA
 62
     7
 66
     1
 10
0.0
 20
0.0
 30
0.0
  0
VERTEX
  5
3F3
  8
DATA
 62
     7
 10
15.5
 20
272.87617913292053
 30
0.0
  0
VERTEX
  5
3F4
  8
DATA
 62
     7
 10
17.0
 20
272.87617913292053
 30
0.0
  0
VERTEX
  5
3F5
  8
DATA
 62
     7
 10
17.0
 20
271.87617913292053
 30
0.0
  0
VERTEX
  5
3F6
  8
DATA
 62
     7
 10
15.5
 20
271.87617913292053
 30
0.0
  0
SEQEND
  5
3F7
  8
DATA
 62
     7
  0
POLYLINE
  5
24B
  8
DATA
 62
     7
 66
     1
 10
0.0
 20
0.0
 30
0.0
  0
VERTEX
  5
3F8
  8
DATA
 62
     7
 10
14.5
 20
272.87617913292053
 30
0.0
  0
VERTEX
  5
3F9
  8
DATA
 62
     7
 10
13.0
 20
272.87617913292053
 30
0.0
  0
VERTEX
  5
3FA
  8
DATA
 62
     7
 10
13.0
 20
271.87617913292053
 30
0.0
  0
VERTEX
  5
3FB
  8
DATA
 62
     7
 10
14.5
 20
271.87617913292053
 30
0.0
  0
SEQEND
  5
3FC
  8
DATA
 62
     7
  0
POLYLINE
  5
251
  8
DATA
 62
     7
 66
     1
 10
0.0
 20
0.0
 30
0.0
  0
VERTEX
  5
3FD
  8
DATA
 62
     7
 10
15.5
 20
271.87617913292053
 30
0.0
  0
VERTEX
  5
3FE
  8
DATA
 62
     7
 10
15.5
 20
270.37617913292053
 30
0.0
  0
VERTEX
  5
3FF
  8
DATA
 62
     7
 10
14.5
 20
270.37617913292053
 30
0.0
  0
VERTEX
  5
400
  8
DATA
 62
     7
 10
14.5
 20
271.87617913292053
 30
0.0
  0
SEQEND
  5
401
  8
DATA
 62
     7
  0
POLYLINE
  5
257
  8
DATA
 62
     7
 66
     1
 10
0.0
 20
0.0
 30
0.0
  0
VERTEX
  5
402
  8
DATA
 62
     7
 10
15.5
 20
272.87617913292053
 30
0.0
  0
VERTEX
  5
403
  8
DATA
 62
     7
 10
15.5
 20
274.37617913292053
 30
0.0
  0
VERTEX
  5
404
  8
DATA
 62
     7
 10
14.5
 20
274.37617913292053
 30
0.0
  0
VERTEX
  5
405
  8
DATA
 62
     7
 10
14.5
 20
272.87617913292053
 30
0.0
  0
SEQEND
  5
406
  8
DATA
 62
     7
  0
ARC
  5
25D
  8
DATA
 62
     7
 10
70.75
 20
568.57149163292058
 30
0.0
 40
275.1953125
 50
260.21919588389238
 51
279.78080411610767
  0
LINE
  5
25E
  8
DATA
 62
     7
 10
91.25
 20
274.87617913292053
 30
0.0
 11
91.25
 21
279.87617913292053
 31
0.0
  0
LINE
  5
25F
  8
DATA
 62
     7
 10
88.250000000000014
 20
279.87617913292053
 30
0.0
 11
88.250000000000014
 21
274.87617913292053
 31
0.0
  0
ARC
  5
260
  8
DATA
 62
     7
 10
89.749999999999986
 20
279.87617913292053
 30
0.0
 40
1.5
 50
0.0
 51
180.0
  0
ARC
  5
261
  8
DATA
 62
     7
 10
89.749999999999986
 20
274.87617913292053
 30
0.0
 40
1.5
 50
180.0
 51
0.0
  0
CIRCLE
  5
262
  8
DATA
 62
     7
 10
89.749999999999986
 20
279.37617913292053
 30
0.0
 40
1.25
  0
CIRCLE
  5
263
  8
DATA
 62
     7
 10
74.75
 20
271.37617913292053
 30
0.0
 40
1.25
  0
CIRCLE
  5
264
  8
DATA
 62
     7
 10
66.75
 20
271.37617913292053
 30
0.0
 40
1.25
  0
CIRCLE
  5
265
  8
DATA
 62
     7
 10
70.75
 20
275.37617913292053
 30
0.0
 40
1.25
  0
ARC
  5
266
  8
DATA
 62
     7
 10
65.093145750507645
 20
265.7193248834281
 30
0.0
 40
0.7500000000000082
 50
151.9577633000045
 51
298.042236699998
  0
CIRCLE
  5
267
  8
DATA
 62
     7
 10
60.75
 20
281.37617913292053
 30
0.0
 40
2.7500000000000009
  0
POLYLINE
  5
268
  8
DATA
 62
     7
 66
     1
 10
0.0
 20
0.0
 30
0.0
  0
VERTEX
  5
407
  8
DATA
 62
     7
 10
60.5
 20
281.62617913292053
 30
0.0
  0
VERTEX
  5
408
  8
DATA
 62
     7
 10
59.25
 20
281.62617913292053
 30
0.0
  0
VERTEX
  5
409
  8
DATA
 62
     7
 10
59.25
 20
281.12617913292053
 30
0.0
  0
VERTEX
  5
40A
  8
DATA
 62
     7
 10
60.5
 20
281.12617913292053
 30
0.0
  0
SEQEND
  5
40B
  8
DATA
 62
     7
  0
POLYLINE
  5
26E
  8
DATA
 62
     7
 66
     1
 10
0.0
 20
0.0
 30
0.0
  0
VERTEX
  5
40C
  8
DATA
 62
     7
 10
61.0
 20
281.62617913292053
 30
0.0
  0
VERTEX
  5
40D
  8
DATA
 62
     7
 10
62.25
 20
281.62617913292053
 30
0.0
  0
VERTEX
  5
40E
  8
DATA
 62
     7
 10
62.25
 20
281.12617913292053
 30
0.0
  0
VERTEX
  5
40F
  8
DATA
 62
     7
 10
61.0
 20
281.12617913292053
 30
0.0
  0
SEQEND
  5
410
  8
DATA
 62
     7
  0
POLYLINE
  5
274
  8
DATA
 62
     7
 66
     1
 10
0.0
 20
0.0
 30
0.0
  0
VERTEX
  5
411
  8
DATA
 62
     7
 10
60.5
 20
281.12617913292053
 30
0.0
  0
VERTEX
  5
412
  8
DATA
 62
     7
 10
60.5
 20
279.87617913292053
 30
0.0
  0
VERTEX
  5
413
  8
DATA
 62
     7
 10
61.0
 20
279.87617913292053
 30
0.0
  0
VERTEX
  5
414
  8
DATA
 62
     7
 10
61.0
 20
281.12617913292053
 30
0.0
  0
SEQEND
  5
415
  8
DATA
 62
     7
  0
POLYLINE
  5
27A
  8
DATA
 62
     7
 66
     1
 10
0.0
 20
0.0
 30
0.0
  0
VERTEX
  5
416
  8
DATA
 62
     7
 10
60.5
 20
281.62617913292053
 30
0.0
  0
VERTEX
  5
417
  8
DATA
 62
     7
 10
60.5
 20
282.87617913292053
 30
0.0
  0
VERTEX
  5
418
  8
DATA
 62
     7
 10
61.0
 20
282.87617913292053
 30
0.0
  0
VERTEX
  5
419
  8
DATA
 62
     7
 10
61.0
 20
281.62617913292053
 30
0.0
  0
SEQEND
  5
41A
  8
DATA
 62
     7
  0
CIRCLE
  5
280
  8
DATA
 62
     7
 10
80.750000000000014
 20
261.37617913292053
 30
0.0
 40
2.7499999999999871
  0
POLYLINE
  5
281
  8
DATA
 62
     7
 66
     1
 10
0.0
 20
0.0
 30
0.0
  0
VERTEX
  5
41B
  8
DATA
 62
     7
 10
80.5
 20
261.62617913292041
 30
0.0
  0
VERTEX
  5
41C
  8
DATA
 62
     7
 10
79.25
 20
261.62617913292041
 30
0.0
  0
VERTEX
  5
41D
  8
DATA
 62
     7
 10
79.25
 20
261.12617913292053
 30
0.0
  0
VERTEX
  5
41E
  8
DATA
 62
     7
 10
80.5
 20
261.12617913292053
 30
0.0
  0
SEQEND
  5
41F
  8
DATA
 62
     7
  0
POLYLINE
  5
287
  8
DATA
 62
     7
 66
     1
 10
0.0
 20
0.0
 30
0.0
  0
VERTEX
  5
420
  8
DATA
 62
     7
 10
81.0
 20
261.62617913292041
 30
0.0
  0
VERTEX
  5
421
  8
DATA
 62
     7
 10
82.249999999999986
 20
261.62617913292041
 30
0.0
  0
VERTEX
  5
422
  8
DATA
 62
     7
 10
82.249999999999986
 20
261.12617913292053
 30
0.0
  0
VERTEX
  5
423
  8
DATA
 62
     7
 10
81.0
 20
261.12617913292053
 30
0.0
  0
SEQEND
  5
424
  8
DATA
 62
     7
  0
POLYLINE
  5
28D
  8
DATA
 62
     7
 66
     1
 10
0.0
 20
0.0
 30
0.0
  0
VERTEX
  5
425
  8
DATA
 62
     7
 10
80.5
 20
261.12617913292053
 30
0.0
  0
VERTEX
  5
426
  8
DATA
 62
     7
 10
80.5
 20
259.87617913292053
 30
0.0
  0
VERTEX
  5
427
  8
DATA
 62
     7
 10
81.0
 20
259.87617913292053
 30
0.0
  0
VERTEX
  5
428
  8
DATA
 62
     7
 10
81.0
 20
261.12617913292053
 30
0.0
  0
SEQEND
  5
429
  8
DATA
 62
     7
  0
POLYLINE
  5
293
  8
DATA
 62
     7
 66
     1
 10
0.0
 20
0.0
 30
0.0
  0
VERTEX
  5
42A
  8
DATA
 62
     7
 10
80.5
 20
261.62617913292041
 30
0.0
  0
VERTEX
  5
42B
  8
DATA
 62
     7
 10
80.5
 20
262.87617913292053
 30
0.0
  0
VERTEX
  5
42C
  8
DATA
 62
     7
 10
81.0
 20
262.87617913292053
 30
0.0
  0
VERTEX
  5
42D
  8
DATA
 62
     7
 10
81.0
 20
261.62617913292041
 30
0.0
  0
SEQEND
  5
42E
  8
DATA
 62
     7
  0
TEXT
  5
299
  8
DATA
 62
     7
 10
77.0
 20
257.76284579958713
 30
0.0
 40
3.3866666666666658
  1
OUTPUT
 50
180.0
 41
0.8
 11
77.0
 21
254.3761791329205
 31
0.0
 73
     3
  0
TEXT
  5
29A
  8
DATA
 62
     7
 10
93.75
 20
284.33617913292039
 30
0.0
 40
2.5600000000000001
  1
EARTH
 50
180.0
 41
0.8
 11
93.75
 21
281.77617913292039
 31
0.0
 73
     3
  0
CIRCLE
  5
29B
  8
DATA
 62
     7
 10
70.75
 20
271.37617913292053
 30
0.0
 40
11.0
  0
ARC
  5
29C
  8
DATA
 62
     7
 10
70.75
 20
271.37617913292053
 30
0.0
 40
8.2499999999999822
 50
229.98853300590571
 51
220.01146699409489
  0
CIRCLE
  5
29D
  8
DATA
 62
     7
 10
48.75
 20
275.37617913292053
 30
0.0
 40
4.9999999999999831
  0
LINE
  5
29E
  8
DATA
 62
     7
 10
52.749999999999993
 20
261.37617913292053
 30
0.0
 11
52.749999999999993
 21
272.37617913292053
 31
0.0
  0
LINE
  5
29F
  8
DATA
 62
     7
 10
52.749999999999993
 20
278.37617913292041
 30
0.0
 11
52.749999999999993
 21
289.37617913292053
 31
0.0
  0
LINE
  5
2A0
  8
DATA
 62
     7
 10
46.675526542203528
 20
279.92552632486979
 30
0.0
 11
53.29934719194938
 21
273.30170567512403
 31
0.0
  0
LINE
  5
2A1
  8
DATA
 62
     7
 10
44.200652808050613
 20
277.45065259071691
 30
0.0
 11
50.824473457796472
 21
270.82683194097109
 31
0.0
  0
LINE
  5
2A2
  8
DATA
 62
     7
 10
52.749999999999993
 20
261.37617913292053
 30
0.0
 11
29.75
 21
261.37617913292053
 31
0.0
  0
LINE
  5
2A3
  8
DATA
 62
     7
 10
29.75
 20
261.37617913292053
 30
0.0
 11
24.75
 21
263.37617913292053
 31
0.0
  0
LINE
  5
2A4
  8
DATA
 62
     7
 10
24.75
 20
263.37617913292053
 30
0.0
 11
24.75
 21
290.37617913292053
 31
0.0
  0
LINE
  5
2A5
  8
DATA
 62
     7
 10
24.75
 20
290.37617913292053
 30
0.0
 11
39.75
 21
290.37617913292053
 31
0.0
  0
LINE
  5
2A6
  8
DATA
 62
     7
 10
39.75
 20
290.37617913292053
 30
0.0
 11
52.749999999999993
 21
289.37617913292053
 31
0.0
  0
ARC
  5
2A7
  8
DATA
 62
     7
 10
70.750000000000014
 20
351.5341835188853
 30
0.0
 40
101.55800438596479
 50
242.59172081143569
 51
297.40827918856428
  0
TEXT
  5
2A8
  8
DATA
 62
     7
 10
52.176388888888901
 20
260.09979024403162
 30
0.0
 40
2.3999999999999999
  1
BATTERY
 50
180.0
 41
0.8
 11
52.176388888888901
 21
257.69979024403159
 31
0.0
 73
     3
  0
LINE
  5
2A9
  8
DATA
 62
     7
 10
102.25
 20
274.87617913292053
 30
0.0
 11
102.25
 21
279.87617913292053
 31
0.0
  0
LINE
  5
2AA
  8
DATA
 62
     7
 10
99.25
 20
279.87617913292053
 30
0.0
 11
99.25
 21
274.87617913292053
 31
0.0
  0
ARC
  5
2AB
  8
DATA
 62
     7
 10
100.75
 20
279.87617913292053
 30
0.0
 40
1.5
 50
0.0
 51
180.0
  0
ARC
  5
2AC
  8
DATA
 62
     7
 10
100.75
 20
274.87617913292053
 30
0.0
 40
1.5000000000000071
 50
180.0
 51
0.0
  0
CIRCLE
  5
2AD
  8
DATA
 62
     7
 10
100.75
 20
279.37617913292053
 30
0.0
 40
1.2500000000000071
  0
TEXT
  5
2AE
  8
DATA
 62
     7
 10
92.75
 20
272.33617913292039
 30
0.0
 40
2.5600000000000001
  1
LIFT
 50
180.0
 41
0.8
 11
92.75
 21
269.7761791329205
 31
0.0
 73
     3
  0
TEXT
  5
2AF
  8
DATA
 62
     7
 10
104.75
 20
272.33617913292039
 30
0.0
 40
2.5600000000000001
  1
POWER
 50
180.0
 41
0.8
 11
104.75
 21
269.7761791329205
 31
0.0
 73
     3
  0
TEXT
  5
2B0
  8
DATA
 62
     7
 10
102.25
 20
284.33617913292039
 30
0.0
 40
2.5600000000000001
  1
ON
 50
180.0
 41
0.8
 11
102.25
 21
281.77617913292039
 31
0.0
 73
     3
  0
CIRCLE
  5
2B1
  8
DATA
 62
     7
 10
109.75
 20
283.37617913292053
 30
0.0
 40
2.4999999999999609
  0
LINE
  5
2B2
  8
DATA
 62
     7
 10
103.25
 20
283.37617913292053
 30
0.0
 11
106.75
 21
283.37617913292053
 31
0.0
  0
LINE
  5
2B3
  8
DATA
 62
     7
 10
54.749999999999993
 20
265.37617913292053
 30
0.0
 11
54.749999999999993
 21
266.37617913292053
 31
0.0
  0
LINE
  5
2B4
  8
DATA
 62
     7
 10
54.749999999999993
 20
282.37617913292053
 30
0.0
 11
54.749999999999993
 21
283.37617913292053
 31
0.0
  0
LINE
  5
2B5
  8
DATA
 62
     7
 10
54.749999999999993
 20
265.37617913292053
 30
0.0
 11
52.749999999999993
 21
265.37617913292053
 31
0.0
  0
LINE
  5
2B6
  8
DATA
 62
     7
 10
54.749999999999993
 20
283.37617913292053
 30
0.0
 11
52.749999999999993
 21
283.37617913292053
 31
0.0
  0
LINE
  5
2B7
  8
DATA
 62
     7
 10
54.749999999999993
 20
266.37617913292053
 30
0.0
 11
52.749999999999993
 21
266.37617913292053
 31
0.0
  0
LINE
  5
2B8
  8
DATA
 62
     7
 10
54.749999999999993
 20
282.37617913292053
 30
0.0
 11
52.749999999999993
 21
282.37617913292053
 31
0.0
  0
LINE
  5
2B9
  8
DATA
 62
     7
 10
43.75
 20
212.47617913292049
 30
0.0
 11
43.75
 21
208.97617913292049
 31
0.0
  0
LINE
  5
2BA
  8
DATA
 62
     7
 10
53.75
 20
212.47617913292049
 30
0.0
 11
53.75
 21
208.97617913292049
 31
0.0
  0
LINE
  5
2BB
  8
DATA
 62
     7
 10
45.249999999999993
 20
213.97617913292049
 30
0.0
 11
52.249999999999993
 21
213.97617913292049
 31
0.0
  0
CIRCLE
  5
2BC
  8
DATA
 62
     7
 10
48.75
 20
275.37617913292053
 30
0.0
 40
3.5
  0
LINE
  5
2BD
  8
DATA
 62
     7
 10
43.75
 20
212.47617913292049
 30
0.0
 11
45.249999999999993
 21
213.97617913292049
 31
0.0
  0
LINE
  5
2BE
  8
DATA
 62
     7
 10
53.75
 20
212.47617913292049
 30
0.0
 11
52.249999999999993
 21
213.97617913292049
 31
0.0
  0
LINE
  5
2BF
  8
DATA
 62
     7
 10
50.824473457796472
 20
212.47617913292049
 30
0.0
 11
53.29934719194938
 21
212.47617913292049
 31
0.0
  0
LINE
  5
2C0
  8
DATA
 62
     7
 10
49.655866657858461
 20
213.97617913292049
 30
0.0
 11
50.824473457796472
 21
212.47617913292049
 31
0.0
  0
LINE
  5
2C1
  8
DATA
 62
     7
 10
52.13074039201156
 20
213.97617913292049
 30
0.0
 11
53.29934719194938
 21
212.47617913292049
 31
0.0
  0
LINE
  5
2C2
  8
DATA
 62
     7
 10
59.75
 20
210.47617913292049
 30
0.0
 11
59.75
 21
208.97617913292049
 31
0.0
  0
LINE
  5
2C3
  8
DATA
 62
     7
 10
83.499999999999986
 20
209.97617913292049
 30
0.0
 11
83.499999999999986
 21
208.97617913292049
 31
0.0
  0
LINE
  5
2C4
  8
DATA
 62
     7
 10
78.000000000000014
 20
209.97617913292049
 30
0.0
 11
78.000000000000014
 21
208.97617913292049
 31
0.0
  0
LINE
  5
2C5
  8
DATA
 62
     7
 10
59.75
 20
210.47617913292049
 30
0.0
 11
78.133974596215538
 21
210.47617913292049
 31
0.0
  0
LINE
  5
2C6
  8
DATA
 62
     7
 10
79.000000000000014
 20
210.97617913292049
 30
0.0
 11
82.499999999999986
 21
210.97617913292049
 31
0.0
  0
LINE
  5
2C7
  8
DATA
 62
     7
 10
58.0
 20
209.97617913292049
 30
0.0
 11
58.0
 21
208.97617913292049
 31
0.0
  0
LINE
  5
2C8
  8
DATA
 62
     7
 10
59.0
 20
210.97617913292049
 30
0.0
 11
62.5
 21
210.97617913292049
 31
0.0
  0
ARC
  5
2C9
  8
DATA
 62
     7
 10
79.000000000000014
 20
209.97617913292049
 30
0.0
 40
1.0
 50
90.0
 51
180.0
  0
ARC
  5
2CA
  8
DATA
 62
     7
 10
82.499999999999986
 20
209.97617913292049
 30
0.0
 40
1.0
 50
0.0
 51
90.0
  0
ARC
  5
2CB
  8
DATA
 62
     7
 10
59.0
 20
209.97617913292049
 30
0.0
 40
1.0
 50
90.0
 51
180.0
  0
ARC
  5
2CC
  8
DATA
 62
     7
 10
62.5
 20
209.97617913292049
 30
0.0
 40
0.9999999999999836
 50
30.000000000000551
 51
89.999999999999986
  0
LINE
  5
2CD
  8
DATA
 62
     7
 10
91.0
 20
210.72617913292049
 30
0.0
 11
91.0
 21
208.97617913292049
 31
0.0
  0
LINE
  5
2CE
  8
DATA
 62
     7
 10
88.499999999999986
 20
210.72617913292049
 30
0.0
 11
88.499999999999986
 21
208.97617913292049
 31
0.0
  0
ARC
  5
2CF
  8
DATA
 62
     7
 10
89.749999999999986
 20
210.72617913292049
 30
0.0
 40
1.25
 50
0.0
 51
180.0
  0
LINE
  5
2D0
  8
DATA
 62
     7
 10
102.0
 20
210.72617913292049
 30
0.0
 11
102.0
 21
208.97617913292049
 31
0.0
  0
LINE
  5
2D1
  8
DATA
 62
     7
 10
99.500000000000014
 20
210.72617913292049
 30
0.0
 11
99.500000000000014
 21
208.97617913292049
 31
0.0
  0
ARC
  5
2D2
  8
DATA
 62
     7
 10
100.75
 20
210.72617913292049
 30
0.0
 40
1.25
 50
0.0
 51
180.0
  0
ARC
  5
2D3
  8
DATA
 62
     7
 10
109.75
 20
206.35117913292041
 30
0.0
 40
3.625
 50
46.397181027296369
 51
133.60281897270349
  0
LINE
  5
2D4
  8
DATA
 62
     7
 10
180.75
 20
-0.0238208670795643
 30
0.0
 11
205.75
 21
-0.0238208670795643
 31
0.0
  0
LINE
  5
2D5
  8
DATA
 62
     7
 10
180.75
 20
-0.0238208670795643
 30
0.0
 11
180.75
 21
54.376179132920463
 31
0.0
  0
LINE
  5
2D6
  8
DATA
 62
     7
 10
180.75
 20
54.376179132920463
 30
0.0
 11
205.75
 21
54.376179132920463
 31
0.0
  0
LINE
  5
2D7
  8
DATA
 62
     7
 10
185.75
 20
58.376179132920463
 30
0.0
 11
299.75
 21
58.376179132920463
 31
0.0
  0
LINE
  5
2D8
  8
DATA
 62
     7
 10
205.75
 20
54.376179132920463
 30
0.0
 11
205.75
 21
-0.0238208670795643
 31
0.0
  0
LINE
  5
2D9
  8
DATA
 62
     7
 10
205.75
 20
5.9761791329204348
 30
0.0
 11
216.75
 21
5.9761791329204348
 31
0.0
  0
LINE
  5
2DA
  8
DATA
 62
     7
 10
216.75
 20
-0.0238208670795643
 30
0.0
 11
216.75
 21
54.376179132920463
 31
0.0
  0
LINE
  5
2DB
  8
DATA
 62
     7
 10
216.75
 20
-0.0238208670795643
 30
0.0
 11
237.25
 21
-0.0238208670795643
 31
0.0
  0
LINE
  5
2DC
  8
DATA
 62
     7
 10
216.75
 20
54.376179132920463
 30
0.0
 11
237.25
 21
54.376179132920463
 31
0.0
  0
LINE
  5
2DD
  8
DATA
 62
     7
 10
237.25
 20
54.376179132920463
 30
0.0
 11
237.25
 21
-0.0238208670795643
 31
0.0
  0
LINE
  5
2DE
  8
DATA
 62
     7
 10
205.75
 20
47.376179132920463
 30
0.0
 11
216.75
 21
47.376179132920463
 31
0.0
  0
LINE
  5
2DF
  8
DATA
 62
     7
 10
237.25
 20
5.9761791329204348
 30
0.0
 11
248.25
 21
5.9761791329204348
 31
0.0
  0
LINE
  5
2E0
  8
DATA
 62
     7
 10
248.25
 20
-0.0238208670795643
 30
0.0
 11
248.25
 21
54.376179132920463
 31
0.0
  0
LINE
  5
2E1
  8
DATA
 62
     7
 10
248.25
 20
-0.0238208670795643
 30
0.0
 11
268.75
 21
-0.0238208670795643
 31
0.0
  0
LINE
  5
2E2
  8
DATA
 62
     7
 10
248.25
 20
54.376179132920463
 30
0.0
 11
268.75
 21
54.376179132920463
 31
0.0
  0
LINE
  5
2E3
  8
DATA
 62
     7
 10
268.75
 20
54.376179132920463
 30
0.0
 11
268.75
 21
-0.0238208670795643
 31
0.0
  0
LINE
  5
2E4
  8
DATA
 62
     7
 10
237.25
 20
47.376179132920463
 30
0.0
 11
248.25
 21
47.376179132920463
 31
0.0
  0
LINE
  5
2E5
  8
DATA
 62
     7
 10
268.75
 20
47.376179132920463
 30
0.0
 11
279.75
 21
47.376179132920463
 31
0.0
  0
LINE
  5
2E6
  8
DATA
 62
     7
 10
268.75
 20
5.9761791329204348
 30
0.0
 11
279.75
 21
5.9761791329204348
 31
0.0
  0
LINE
  5
2E7
  8
DATA
 62
     7
 10
279.75
 20
-0.0238208670795643
 30
0.0
 11
279.75
 21
54.376179132920463
 31
0.0
  0
LINE
  5
2E8
  8
DATA
 62
     7
 10
279.75
 20
-0.0238208670795643
 30
0.0
 11
304.75
 21
-0.0238208670795643
 31
0.0
  0
LINE
  5
2E9
  8
DATA
 62
     7
 10
279.75
 20
54.376179132920463
 30
0.0
 11
304.75
 21
54.376179132920463
 31
0.0
  0
LINE
  5
2EA
  8
DATA
 62
     7
 10
304.75
 20
-0.0238208670795643
 30
0.0
 11
304.75
 21
54.376179132920463
 31
0.0
  0
LINE
  5
2EB
  8
DATA
 62
     7
 10
299.75
 20
58.376179132920463
 30
0.0
 11
299.75
 21
54.376179132920463
 31
0.0
  0
LINE
  5
2EC
  8
DATA
 62
     7
 10
185.75
 20
58.376179132920463
 30
0.0
 11
185.75
 21
54.376179132920463
 31
0.0
  0
LINE
  5
2ED
  8
DATA
 62
     7
 10
24.0
 20
96.476179132920478
 30
0.0
 11
117.5
 21
96.476179132920478
 31
0.0
  0
LINE
  5
2EE
  8
DATA
 62
     7
 10
24.0
 20
207.47617913292041
 30
0.0
 11
117.5
 21
207.47617913292041
 31
0.0
  0
LINE
  5
2EF
  8
DATA
 62
     7
 10
187.25
 20
58.376179132920463
 30
0.0
 11
187.25
 21
54.376179132920463
 31
0.0
  0
LINE
  5
2F0
  8
DATA
 62
     7
 10
298.25
 20
58.376179132920463
 30
0.0
 11
298.25
 21
54.376179132920463
 31
0.0
  0
ENDSEC
  0
EOF
