  0
SECTION
  2
HEADER
  9
$ACADVER
  1
AC1015
  9
$ACADMAINTVER
 70
    20
  9
$DWGCODEPAGE
  3
ANSI_932
  9
$INSBASE
 10
0.0
 20
0.0
 30
0.0
  9
$EXTMIN
 10
-450.0274637248687
 20
-673.9823081977779
 30
-0.0015258207003583
  9
$EXTMAX
 10
450.0274679158201
 20
664.1680137850417
 30
0.0000000349246037
  9
$LIMMIN
 10
0.0
 20
0.0
  9
$LIMMAX
 10
0.0
 20
0.0
  9
$ORTHOMODE
 70
     0
  9
$REGENMODE
 70
     1
  9
$FILLMODE
 70
     1
  9
$QTEXTMODE
 70
     0
  9
$MIRRTEXT
 70
     1
  9
$LTSCALE
 40
25.4
  9
$ATTMODE
 70
     1
  9
$TEXTSIZE
 40
0.0
  9
$TRACEWID
 40
1.0
  9
$TEXTSTYLE
  7
STANDARD
  9
$CLAYER
  8
DATA
  9
$CELTYPE
  6
ByLayer
  9
$CECOLOR
 62
   256
  9
$CELTSCALE
 40
1.0
  9
$DISPSILH
 70
     0
  9
$DIMSCALE
 40
1.0
  9
$DIMASZ
 40
0.18
  9
$DIMEXO
 40
0.0625
  9
$DIMDLI
 40
0.38
  9
$DIMRND
 40
0.0
  9
$DIMDLE
 40
0.0
  9
$DIMEXE
 40
0.18
  9
$DIMTP
 40
0.0
  9
$DIMTM
 40
0.0
  9
$DIMTXT
 40
0.18
  9
$DIMCEN
 40
0.09
  9
$DIMTSZ
 40
0.0
  9
$DIMTOL
 70
     0
  9
$DIMLIM
 70
     0
  9
$DIMTIH
 70
     1
  9
$DIMTOH
 70
     1
  9
$DIMSE1
 70
     0
  9
$DIMSE2
 70
     0
  9
$DIMTAD
 70
     0
  9
$DIMZIN
 70
     0
  9
$DIMBLK
  1

  9
$DIMASO
 70
     1
  9
$DIMSHO
 70
     1
  9
$DIMPOST
  1

  9
$DIMAPOST
  1

  9
$DIMALT
 70
     0
  9
$DIMALTD
 70
     2
  9
$DIMALTF
 40
25.4
  9
$DIMLFAC
 40
1.0
  9
$DIMTOFL
 70
     0
  9
$DIMTVP
 40
0.0
  9
$DIMTIX
 70
     0
  9
$DIMSOXD
 70
     0
  9
$DIMSAH
 70
     0
  9
$DIMBLK1
  1

  9
$DIMBLK2
  1

  9
$DIMSTYLE
  2
STANDARD
  9
$DIMCLRD
 70
     0
  9
$DIMCLRE
 70
     0
  9
$DIMCLRT
 70
     0
  9
$DIMTFAC
 40
1.0
  9
$DIMGAP
 40
0.09
  9
$DIMJUST
 70
     0
  9
$DIMSD1
 70
     0
  9
$DIMSD2
 70
     0
  9
$DIMTOLJ
 70
     1
  9
$DIMTZIN
 70
     0
  9
$DIMALTZ
 70
     0
  9
$DIMALTTZ
 70
     0
  9
$DIMUPT
 70
     0
  9
$DIMDEC
 70
     4
  9
$DIMTDEC
 70
     4
  9
$DIMALTU
 70
     2
  9
$DIMALTTD
 70
     2
  9
$DIMTXSTY
  7
STANDARD
  9
$DIMAUNIT
 70
     0
  9
$DIMADEC
 70
     0
  9
$DIMALTRND
 40
0.0
  9
$DIMAZIN
 70
     0
  9
$DIMDSEP
 70
    46
  9
$DIMATFIT
 70
     3
  9
$DIMFRAC
 70
     0
  9
$DIMLDRBLK
  1

  9
$DIMLUNIT
 70
     2
  9
$DIMLWD
 70
    -2
  9
$DIMLWE
 70
    -2
  9
$DIMTMOVE
 70
     0
  9
$LUNITS
 70
     2
  9
$LUPREC
 70
     4
  9
$SKETCHINC
 40
0.1
  9
$FILLETRAD
 40
0.0
  9
$AUNITS
 70
     0
  9
$AUPREC
 70
     0
  9
$MENU
  1
acad
  9
$ELEVATION
 40
0.0
  9
$PELEVATION
 40
0.0
  9
$THICKNESS
 40
0.0
  9
$LIMCHECK
 70
     0
  9
$CHAMFERA
 40
0.0
  9
$CHAMFERB
 40
0.0
  9
$CHAMFERC
 40
0.0
  9
$CHAMFERD
 40
0.0
  9
$SKPOLY
 70
     0
  9
$TDCREATE
 40
2458360.576481481
  9
$TDUCREATE
 40
2458360.201481482
  9
$TDUPDATE
 40
2458360.599733797
  9
$TDUUPDATE
 40
2458360.224733796
  9
$TDINDWG
 40
0.0003472222
  9
$TDUSRTIMER
 40
0.0003472222
  9
$USRTIMER
 70
     1
  9
$ANGBASE
 50
0.0
  9
$ANGDIR
 70
     0
  9
$PDMODE
 70
     1
  9
$PDSIZE
 40
-2.0
  9
$PLINEWID
 40
0.0
  9
$SPLFRAME
 70
     0
  9
$SPLINETYPE
 70
     6
  9
$SPLINESEGS
 70
     8
  9
$HANDSEED
  5
49C
  9
$SURFTAB1
 70
     6
  9
$SURFTAB2
 70
     6
  9
$SURFTYPE
 70
     6
  9
$SURFU
 70
     6
  9
$SURFV
 70
     6
  9
$UCSBASE
  2

  9
$UCSNAME
  2

  9
$UCSORG
 10
0.0
 20
0.0
 30
0.0
  9
$UCSXDIR
 10
1.0
 20
0.0
 30
0.0
  9
$UCSYDIR
 10
0.0
 20
1.0
 30
0.0
  9
$UCSORTHOREF
  2

  9
$UCSORTHOVIEW
 70
     0
  9
$UCSORGTOP
 10
0.0
 20
0.0
 30
0.0
  9
$UCSORGBOTTOM
 10
0.0
 20
0.0
 30
0.0
  9
$UCSORGLEFT
 10
0.0
 20
0.0
 30
0.0
  9
$UCSORGRIGHT
 10
0.0
 20
0.0
 30
0.0
  9
$UCSORGFRONT
 10
0.0
 20
0.0
 30
0.0
  9
$UCSORGBACK
 10
0.0
 20
0.0
 30
0.0
  9
$PUCSBASE
  2

  9
$PUCSNAME
  2

  9
$PUCSORG
 10
0.0
 20
0.0
 30
0.0
  9
$PUCSXDIR
 10
1.0
 20
0.0
 30
0.0
  9
$PUCSYDIR
 10
0.0
 20
1.0
 30
0.0
  9
$PUCSORTHOREF
  2

  9
$PUCSORTHOVIEW
 70
     0
  9
$PUCSORGTOP
 10
0.0
 20
0.0
 30
0.0
  9
$PUCSORGBOTTOM
 10
0.0
 20
0.0
 30
0.0
  9
$PUCSORGLEFT
 10
0.0
 20
0.0
 30
0.0
  9
$PUCSORGRIGHT
 10
0.0
 20
0.0
 30
0.0
  9
$PUCSORGFRONT
 10
0.0
 20
0.0
 30
0.0
  9
$PUCSORGBACK
 10
0.0
 20
0.0
 30
0.0
  9
$USERI1
 70
     0
  9
$USERI2
 70
     0
  9
$USERI3
 70
     0
  9
$USERI4
 70
     0
  9
$USERI5
 70
     0
  9
$USERR1
 40
0.0
  9
$USERR2
 40
0.0
  9
$USERR3
 40
0.0
  9
$USERR4
 40
0.0
  9
$USERR5
 40
0.0
  9
$WORLDVIEW
 70
     1
  9
$SHADEDGE
 70
     3
  9
$SHADEDIF
 70
    70
  9
$TILEMODE
 70
     1
  9
$MAXACTVP
 70
    64
  9
$PINSBASE
 10
0.0
 20
0.0
 30
0.0
  9
$PLIMCHECK
 70
     0
  9
$PEXTMIN
 10
1.000000000000000E+20
 20
1.000000000000000E+20
 30
1.000000000000000E+20
  9
$PEXTMAX
 10
-1.000000000000000E+20
 20
-1.000000000000000E+20
 30
-1.000000000000000E+20
  9
$PLIMMIN
 10
0.0
 20
0.0
  9
$PLIMMAX
 10
12.0
 20
9.0
  9
$UNITMODE
 70
     0
  9
$VISRETAIN
 70
     0
  9
$PLINEGEN
 70
     1
  9
$PSLTSCALE
 70
     0
  9
$TREEDEPTH
 70
  3020
  9
$CMLSTYLE
  2
Standard
  9
$CMLJUST
 70
     0
  9
$CMLSCALE
 40
1.0
  9
$PROXYGRAPHICS
 70
     1
  9
$MEASUREMENT
 70
     0
  9
$CELWEIGHT
370
    -1
  9
$ENDCAPS
280
     0
  9
$JOINSTYLE
280
     0
  9
$LWDISPLAY
290
     0
  9
$INSUNITS
 70
     0
  9
$HYPERLINKBASE
  1

  9
$STYLESHEET
  1

  9
$XEDIT
290
     1
  9
$CEPSNTYPE
380
     0
  9
$PSTYLEMODE
290
     1
  9
$FINGERPRINTGUID
  2
{5DF19D6F-3A91-9046-A351-701731C04440}
  9
$VERSIONGUID
  2
{3884A761-8771-BB4C-A73E-75D26065E7FA}
  9
$EXTNAMES
290
     1
  9
$PSVPSCALE
 40
0.0
  9
$OLESTARTUP
290
     0
  0
ENDSEC
  0
SECTION
  2
CLASSES
  0
CLASS
  1
ACDBDICTIONARYWDFLT
  2
AcDbDictionaryWithDefault
  3
ObjectDBX Classes
 90
        0
280
     0
281
     0
  0
CLASS
  1
MATERIAL
  2
AcDbMaterial
  3
ObjectDBX Classes
 90
     1153
280
     0
281
     0
  0
CLASS
  1
VISUALSTYLE
  2
AcDbVisualStyle
  3
ObjectDBX Classes
 90
     4095
280
     0
281
     0
  0
CLASS
  1
SCALE
  2
AcDbScale
  3
ObjectDBX Classes
 90
     1153
280
     0
281
     0
  0
CLASS
  1
TABLESTYLE
  2
AcDbTableStyle
  3
ObjectDBX Classes
 90
     4095
280
     0
281
     0
  0
CLASS
  1
MLEADERSTYLE
  2
AcDbMLeaderStyle
  3
ACDB_MLEADERSTYLE_CLASS
 90
     4095
280
     0
281
     0
  0
CLASS
  1
ACDBSECTIONVIEWSTYLE
  2
AcDbSectionViewStyle
  3
ObjectDBX Classes
 90
     1025
280
     0
281
     0
  0
CLASS
  1
ACDBDETAILVIEWSTYLE
  2
AcDbDetailViewStyle
  3
ObjectDBX Classes
 90
     1025
280
     0
281
     0
  0
CLASS
  1
DICTIONARYVAR
  2
AcDbDictionaryVar
  3
ObjectDBX Classes
 90
        0
280
     0
281
     0
  0
CLASS
  1
CELLSTYLEMAP
  2
AcDbCellStyleMap
  3
ObjectDBX Classes
 90
     1152
280
     0
281
     0
  0
CLASS
  1
ACDBPLACEHOLDER
  2
AcDbPlaceHolder
  3
ObjectDBX Classes
 90
        0
280
     0
281
     0
  0
CLASS
  1
LAYOUT
  2
AcDbLayout
  3
ObjectDBX Classes
 90
        0
280
     0
281
     0
  0
ENDSEC
  0
SECTION
  2
TABLES
  0
TABLE
  2
VPORT
  5
3C6
330
0
100
AcDbSymbolTable
 70
     1
  0
VPORT
  5
432
330
3C6
100
AcDbSymbolTableRecord
100
AcDbViewportTableRecord
  2
*ACTIVE
 70
     0
 10
0.0
 20
0.0
 11
1.0
 21
1.0
 12
0.0000020954755655
 22
-4.907147206368108
 13
0.0
 23
0.0
 14
1.0
 24
1.0
 15
0.0
 25
0.0
 16
0.0
 26
0.0
 36
1.0
 17
0.0
 27
0.0
 37
0.0
 40
1345.489354827332
 41
2.323879231473009
 42
50.0
 43
0.0
 44
0.0
 50
0.0
 51
0.0
 71
     0
 72
  2000
 73
     1
 74
     1
 75
     0
 76
     0
 77
     0
 78
     0
281
     0
 65
     1
110
0.0
120
0.0
130
0.0
111
1.0
121
0.0
131
0.0
112
0.0
122
1.0
132
0.0
 79
     0
146
0.0
1001
ACAD_NAV_VCDISPLAY
1070
     3
  0
ENDTAB
  0
TABLE
  2
LTYPE
  5
3C3
330
0
100
AcDbSymbolTable
 70
    11
  0
LTYPE
  5
418
330
3C3
100
AcDbSymbolTableRecord
100
AcDbLinetypeTableRecord
  2
ByBlock
 70
     0
  3

 72
    65
 73
     0
 40
0.0
  0
LTYPE
  5
419
330
3C3
100
AcDbSymbolTableRecord
100
AcDbLinetypeTableRecord
  2
ByLayer
 70
     0
  3

 72
    65
 73
     0
 40
0.0
  0
LTYPE
  5
41A
330
3C3
100
AcDbSymbolTableRecord
100
AcDbLinetypeTableRecord
  2
CONTINUOUS
 70
     0
  3
Solid line
 72
    65
 73
     0
 40
0.0
  0
ENDTAB
  0
TABLE
  2
LAYER
  5
3C0
330
0
100
AcDbSymbolTable
 70
     5
  0
LAYER
  5
412
102
{ACAD_XDICTIONARY
360
446
102
}
330
3C0
100
AcDbSymbolTableRecord
100
AcDbLayerTableRecord
  2
0
 70
     0
 62
     7
  6
CONTINUOUS
370
    -3
390
3CD
  0
LAYER
  5
431
102
{ACAD_XDICTIONARY
360
448
102
}
330
3C0
100
AcDbSymbolTableRecord
100
AcDbLayerTableRecord
  2
DATA
 70
     0
 62
     7
  6
CONTINUOUS
370
    -3
390
3CD
  0
LAYER
  5
43D
102
{ACAD_XDICTIONARY
360
44A
102
}
330
3C0
100
AcDbSymbolTableRecord
100
AcDbLayerTableRecord
  2
HIBINO-BASE
 70
     0
 62
     7
  6
CONTINUOUS
370
    -3
390
3CD
  0
LAYER
  5
43E
102
{ACAD_XDICTIONARY
360
44C
102
}
330
3C0
100
AcDbSymbolTableRecord
100
AcDbLayerTableRecord
  2
SPEC
 70
     0
 62
     7
  6
CONTINUOUS
370
    -3
390
3CD
  0
LAYER
  5
43F
102
{ACAD_XDICTIONARY
360
44E
102
}
330
3C0
100
AcDbSymbolTableRecord
100
AcDbLayerTableRecord
  2
DIMNSIONS
 70
     0
 62
     7
  6
CONTINUOUS
370
    -3
390
3CD
  0
ENDTAB
  0
TABLE
  2
STYLE
  5
3C1
330
0
100
AcDbSymbolTable
 70
     3
  0
STYLE
  5
413
330
3C1
100
AcDbSymbolTableRecord
100
AcDbTextStyleTableRecord
  2
STANDARD
 70
     0
 40
0.0
 41
1.0
 50
0.0
 71
     0
 42
0.0
  3
txt
  4
BIGFONT.SHX
  0
ENDTAB
  0
TABLE
  2
VIEW
  5
3C4
330
0
100
AcDbSymbolTable
 70
     0
  0
ENDTAB
  0
TABLE
  2
UCS
  5
3C5
330
0
100
AcDbSymbolTable
 70
     0
  0
ENDTAB
  0
TABLE
  2
APPID
  5
3C7
330
0
100
AcDbSymbolTable
 70
     4
  0
APPID
  5
414
330
3C7
100
AcDbSymbolTableRecord
100
AcDbRegAppTableRecord
  2
ACAD
 70
     0
  0
APPID
  5
41B
330
3C7
100
AcDbSymbolTableRecord
100
AcDbRegAppTableRecord
  2
AcadAnnotative
 70
     0
  0
APPID
  5
45A
330
3C7
100
AcDbSymbolTableRecord
100
AcDbRegAppTableRecord
  2
ACAD_NAV_VCDISPLAY
 70
     0
  0
APPID
  5
493
330
3C7
100
AcDbSymbolTableRecord
100
AcDbRegAppTableRecord
  2
ACAD_MLEADERVER
 70
     0
  0
ENDTAB
  0
TABLE
  2
DIMSTYLE
  5
3C8
330
0
100
AcDbSymbolTable
 70
     2
100
AcDbDimStyleTable
 71
     0
  0
DIMSTYLE
105
415
330
3C8
100
AcDbSymbolTableRecord
100
AcDbDimStyleTableRecord
  2
STANDARD
 70
     0
279
     2
340
413
  0
ENDTAB
  0
TABLE
  2
BLOCK_RECORD
  5
3BF
330
0
100
AcDbSymbolTable
 70
     0
  0
BLOCK_RECORD
  5
42D
330
3BF
100
AcDbSymbolTableRecord
100
AcDbBlockTableRecord
  2
*Model_Space
340
430
  0
BLOCK_RECORD
  5
429
330
3BF
100
AcDbSymbolTableRecord
100
AcDbBlockTableRecord
  2
*Paper_Space
340
42C
  0
ENDTAB
  0
ENDSEC
  0
SECTION
  2
BLOCKS
  0
BLOCK
  5
42E
330
42D
100
AcDbEntity
  8
0
100
AcDbBlockBegin
  2
*Model_Space
 70
     0
 10
0.0
 20
0.0
 30
0.0
  3
*Model_Space
  1

  0
ENDBLK
  5
42F
330
42D
100
AcDbEntity
  8
0
100
AcDbBlockEnd
  0
BLOCK
  5
42A
330
429
100
AcDbEntity
 67
     1
  8
0
100
AcDbBlockBegin
  2
*Paper_Space
 70
     0
 10
0.0
 20
0.0
 30
0.0
  3
*Paper_Space
  1

  0
ENDBLK
  5
42B
330
429
100
AcDbEntity
 67
     1
  8
0
100
AcDbBlockEnd
  0
ENDSEC
  0
SECTION
  2
ENTITIES
  0
LINE
  5
2C
330
42D
100
AcDbEntity
  8
HIBINO-BASE
  6
Continuous
 62
     7
100
AcDbLine
 10
-450.0
 20
664.1272599999999
 30
0.0
 11
450.0
 21
664.1272599999999
 31
0.0
  0
LINE
  5
2D
330
42D
100
AcDbEntity
  8
HIBINO-BASE
  6
Continuous
 62
     7
100
AcDbLine
 10
450.0
 20
-635.8727399999998
 30
0.0
 11
-450.0
 21
-635.8727399999998
 31
0.0
  0
LINE
  5
2E
330
42D
100
AcDbEntity
  8
HIBINO-BASE
  6
Continuous
 62
     7
100
AcDbLine
 10
-450.0
 20
-635.8727399999998
 30
0.0
 11
-450.0
 21
664.1272599999999
 31
0.0
  0
LINE
  5
2F
330
42D
100
AcDbEntity
  8
HIBINO-BASE
  6
Continuous
 62
     7
100
AcDbLine
 10
450.0
 20
664.1272599999999
 30
0.0
 11
450.0
 21
-635.8727399999998
 31
0.0
  0
LINE
  5
30
330
42D
100
AcDbEntity
  8
HIBINO-BASE
  6
Continuous
 62
     7
100
AcDbLine
 10
0.0000000000000711
 20
-523.3727399999998
 30
0.0
 11
450.0
 21
-523.3727399999998
 31
0.0
  0
LINE
  5
31
330
42D
100
AcDbEntity
  8
HIBINO-BASE
  6
Continuous
 62
     7
100
AcDbLine
 10
0.0000000000000711
 20
-635.8727399999998
 30
0.0
 11
0.0000000000000711
 21
-523.3727399999998
 31
0.0
  0
TEXT
  5
32
330
42D
100
AcDbEntity
  8
HIBINO-BASE
 62
     7
100
AcDbText
 10
4.500000000000099
 20
-535.9162066666664
 30
0.0
 40
8.144205729166666
  1
NOTE
 41
0.7
 11
4.5000000000001
 21
-527.7720009374998
 31
0.0
100
AcDbText
 73
     3
  0
LINE
  5
33
330
42D
100
AcDbEntity
  8
HIBINO-BASE
  6
Continuous
 62
     7
100
AcDbLine
 10
175.0000000000001
 20
-635.8727399999998
 30
0.0
 11
175.0000000000001
 21
-523.3727399999998
 31
0.0
  0
TEXT
  5
34
330
42D
100
AcDbEntity
  8
HIBINO-BASE
 62
     7
100
AcDbText
 10
179.4999999999999
 20
-535.9162066666664
 30
0.0
 40
8.144205729166666
  1
TITLE
 41
0.7
 11
179.4999999999999
 21
-527.7720009374998
 31
0.0
100
AcDbText
 73
     3
  0
LINE
  5
35
330
42D
100
AcDbEntity
  8
HIBINO-BASE
  6
Continuous
 62
     7
100
AcDbLine
 10
0.0000000000000711
 20
-585.8727399999998
 30
0.0
 11
450.0
 21
-585.8727399999998
 31
0.0
  0
TEXT
  5
36
330
42D
100
AcDbEntity
  8
HIBINO-BASE
 62
     7
100
AcDbText
 10
242.0
 20
-598.1346066666666
 30
0.0
 40
8.144205729166666
  1
DRAWN
 41
0.7
 11
242.0
 21
-589.9904009374999
 31
0.0
100
AcDbText
 73
     3
  0
TEXT
  5
37
330
42D
100
AcDbEntity
  8
HIBINO-BASE
 62
     7
100
AcDbText
 10
116.9999999999999
 20
-598.1346066666666
 30
0.0
 40
8.144205729166666
  1
DATE
 41
0.7
 11
116.9999999999999
 21
-589.9904009374999
 31
0.0
100
AcDbText
 73
     3
  0
TEXT
  5
38
330
42D
100
AcDbEntity
  8
HIBINO-BASE
 62
     7
100
AcDbText
 10
66.99999999999995
 20
-598.1346066666666
 30
0.0
 40
8.144205729166666
  1
SCALE
 41
0.7
 11
66.99999999999995
 21
-589.9904009374999
 31
0.0
100
AcDbText
 73
     3
  0
TEXT
  5
39
330
42D
100
AcDbEntity
  8
HIBINO-BASE
 62
     7
100
AcDbText
 10
179.4999999999999
 20
-598.1346066666666
 30
0.0
 40
8.144205729166666
  1
DESIGN
 41
0.7
 11
179.4999999999999
 21
-589.9904009374999
 31
0.0
100
AcDbText
 73
     3
  0
TEXT
  5
3A
330
42D
100
AcDbEntity
  8
HIBINO-BASE
 62
     7
100
AcDbText
 10
367.0
 20
-598.1346066666666
 30
0.0
 40
8.144205729166666
  1
DRAWING NO.
 41
0.7
 11
367.0
 21
-589.9904009374999
 31
0.0
100
AcDbText
 73
     3
  0
TEXT
  5
3B
330
42D
100
AcDbEntity
  8
HIBINO-BASE
 62
     7
100
AcDbText
 10
304.4999999999999
 20
-598.1346066666666
 30
0.0
 40
8.144205729166666
  1
CHECK
 41
0.7
 11
304.4999999999999
 21
-589.9904009374999
 31
0.0
100
AcDbText
 73
     3
  0
LINE
  5
3C
330
42D
100
AcDbEntity
  8
HIBINO-BASE
  6
Continuous
 62
     7
100
AcDbLine
 10
71.87500000000007
 20
-629.6227399999998
 30
0.0
 11
90.62500000000007
 21
-610.8727399999998
 31
0.0
  0
TEXT
  5
3D
330
42D
100
AcDbEntity
  8
HIBINO-BASE
 62
     7
100
AcDbText
 10
68.75000000000007
 20
-616.4174566666664
 30
0.0
 40
8.144205729166666
  1
1
 41
0.7
 11
68.75000000000007
 21
-608.2732509374998
 31
0.0
100
AcDbText
 73
     3
  0
LINE
  5
3E
330
42D
100
AcDbEntity
  8
HIBINO-BASE
  6
Continuous
 62
     7
100
AcDbLine
 10
62.50000000000007
 20
-635.8727399999998
 30
0.0
 11
62.50000000000007
 21
-585.8727399999998
 31
0.0
  0
LINE
  5
3F
330
42D
100
AcDbEntity
  8
HIBINO-BASE
  6
Continuous
 62
     7
100
AcDbLine
 10
112.4999999999999
 20
-635.8727399999998
 30
0.0
 11
112.4999999999999
 21
-585.8727399999998
 31
0.0
  0
LINE
  5
40
330
42D
100
AcDbEntity
  8
HIBINO-BASE
  6
Continuous
 62
     7
100
AcDbLine
 10
237.5
 20
-585.8727399999998
 30
0.0
 11
237.5
 21
-635.8727399999998
 31
0.0
  0
LINE
  5
41
330
42D
100
AcDbEntity
  8
HIBINO-BASE
  6
Continuous
 62
     7
100
AcDbLine
 10
362.5
 20
-585.8727399999998
 30
0.0
 11
362.5
 21
-635.8727399999998
 31
0.0
  0
LINE
  5
42
330
42D
100
AcDbEntity
  8
HIBINO-BASE
  6
Continuous
 62
     7
100
AcDbLine
 10
300.0
 20
-635.8727399999998
 30
0.0
 11
300.0
 21
-585.8727399999998
 31
0.0
  0
TEXT
  5
43
330
42D
100
AcDbEntity
  8
HIBINO-BASE
 62
     7
100
AcDbText
 10
116.7827
 20
-621.5545066666662
 30
0.0
 40
8.144205729166666
  1
'18.09.
 41
0.7
 11
116.7827
 21
-613.4103009374996
 31
0.0
100
AcDbText
 73
     3
  0
TEXT
  5
44
330
42D
100
AcDbEntity
  8
HIBINO-BASE
 62
     7
100
AcDbText
 10
87.50000000000005
 20
-625.7924566666664
 30
0.0
 40
8.144205729166666
  1
5
 41
0.7
 11
87.50000000000005
 21
-617.6482509374998
 31
0.0
100
AcDbText
 73
     3
  0
TEXT
  5
45
330
42D
100
AcDbEntity
  8
HIBINO-BASE
 62
     7
100
AcDbText
 10
245.0290500551731
 20
-621.5545066666662
 30
0.0
 40
8.144205729166666
  1
N.Sasaki
 41
0.7
 11
245.0290500551731
 21
-613.4103009374996
 31
0.0
100
AcDbText
 73
     3
  0
TEXT
  5
46
330
42D
100
AcDbEntity
  8
HIBINO-BASE
 62
     7
100
AcDbText
 10
19.41666666666684
 20
-625.9927399999999
 30
0.0
 40
16.28841145833333
  1
A4
 41
0.7
 11
19.41666666666684
 21
-609.7043285416665
 31
0.0
100
AcDbText
 73
     3
  0
TEXT
  5
47
330
42D
100
AcDbEntity
  8
HIBINO-BASE
 62
     7
100
AcDbText
 10
4.791666666666642
 20
-598.9700149999997
 30
0.0
 40
8.144205729166666
  1
PAPER SIZE
 41
0.7
 11
4.791666666666643
 21
-590.8258092708331
 31
0.0
100
AcDbText
 73
     3
  0
TEXT
  5
48
330
42D
100
AcDbEntity
  8
HIBINO-BASE
 62
     7
100
AcDbText
 10
-414.0799999999999
 20
-667.9161289999998
 30
0.0
 40
18.00022089843749
  1
Hibino Corporation
 41
0.7
 11
-414.0799999999999
 21
-649.9159081015623
 31
0.0
100
AcDbText
 73
     3
  0
TEXT
  5
49
330
42D
100
AcDbEntity
  8
HIBINO-BASE
 62
     7
100
AcDbText
 10
250.34195
 20
-667.9161289999998
 30
0.0
 40
18.00022089843749
  1
ヒビノ株式会社
 41
0.7
 11
250.34195
 21
-649.9159081015623
 31
0.0
100
AcDbText
 73
     3
  0
TEXT
  5
4A
330
42D
100
AcDbEntity
  8
SPEC
 62
     7
100
AcDbText
 10
-406.2499999999999
 20
621.0936100000005
 30
0.0
 40
12.21630859375
  1
仕様
 41
0.7
 11
-406.2499999999999
 21
633.3099185937506
 31
0.0
100
AcDbText
 73
     3
  0
LINE
  5
4B
330
42D
100
AcDbEntity
  8
SPEC
  6
Continuous
 62
     7
100
AcDbLine
 10
-412.4999999999999
 20
614.1272600000002
 30
0.0
 11
325.0
 21
614.1272600000002
 31
0.0
  0
LINE
  5
4C
330
42D
100
AcDbEntity
  8
SPEC
  6
Continuous
 62
     7
100
AcDbLine
 10
-325.0
 20
595.3772600000002
 30
0.0
 11
325.0
 21
595.3772600000002
 31
0.0
  0
LINE
  5
4D
330
42D
100
AcDbEntity
  8
SPEC
  6
Continuous
 62
     7
100
AcDbLine
 10
-325.0
 20
557.8772600000002
 30
0.0
 11
325.0
 21
557.8772600000002
 31
0.0
  0
LINE
  5
4E
330
42D
100
AcDbEntity
  8
SPEC
  6
Continuous
 62
     7
100
AcDbLine
 10
-325.0
 20
576.6272600000002
 30
0.0
 11
325.0
 21
576.6272600000002
 31
0.0
  0
TEXT
  5
4F
330
42D
100
AcDbEntity
  8
SPEC
 62
     7
100
AcDbText
 10
-195.4917500386409
 20
599.3816675130505
 30
0.0
 40
9.501573350694446
  1
8ch
 41
0.7
 11
-195.4917500386409
 21
608.883240863745
 31
0.0
100
AcDbText
 73
     3
  0
LINE
  5
50
330
42D
100
AcDbEntity
  8
SPEC
  6
Continuous
 62
     7
100
AcDbLine
 10
-412.4999999999999
 20
614.1272600000002
 30
0.0
 11
-412.4999999999999
 21
295.3772599999989
 31
0.0
  0
LINE
  5
51
330
42D
100
AcDbEntity
  8
SPEC
  6
Continuous
 62
     7
100
AcDbLine
 10
325.0
 20
614.1272600000002
 30
0.0
 11
325.0
 21
295.3772599999989
 31
0.0
  0
TEXT
  5
52
330
42D
100
AcDbEntity
  8
SPEC
 62
     7
100
AcDbText
 10
-408.3407810181187
 20
319.5851986548488
 30
0.0
 40
9.501573350694446
  1
質量
 41
0.7
 11
-408.3407810181187
 21
329.0867720055433
 31
0.0
100
AcDbText
 73
     3
  0
TEXT
  5
53
330
42D
100
AcDbEntity
  8
SPEC
 62
     7
100
AcDbText
 10
-408.6320150425812
 20
599.9041512618779
 30
0.0
 40
9.501573350694446
  1
アナログ入力
 41
0.7
 11
-408.6320150425812
 21
609.4057246125723
 31
0.0
100
AcDbText
 73
     3
  0
TEXT
  5
54
330
42D
100
AcDbEntity
  8
SPEC
 62
     7
100
AcDbText
 10
-195.7434424310654
 20
337.8734069779972
 30
0.0
 40
9.501573350694446
  1
219×42×195mm(除突起部）
 41
0.7
 11
-195.7434424310654
 21
347.3749803286917
 31
0.0
100
AcDbText
 73
     3
  0
TEXT
  5
55
330
42D
100
AcDbEntity
  8
SPEC
 62
     7
100
AcDbText
 10
-195.3796164867197
 20
319.7307996378345
 30
0.0
 40
9.501573350694446
  1
1.3kg
 41
0.7
 11
-195.3796164867197
 21
329.232372988529
 31
0.0
100
AcDbText
 73
     3
  0
TEXT
  5
56
330
42D
100
AcDbEntity
  8
SPEC
 62
     7
100
AcDbText
 10
-195.3622675810072
 20
562.3988233901399
 30
0.0
 40
9.501573350694446
  1
3.0kΩ
 41
0.7
 11
-195.3622675810072
 21
571.9003967408343
 31
0.0
100
AcDbText
 73
     3
  0
TEXT
  5
57
330
42D
100
AcDbEntity
  8
SPEC
 62
     7
100
AcDbText
 10
-195.572425039792
 20
581.0033297648269
 30
0.0
 40
9.501573350694446
  1
ユーロブロック・電子バランス
 41
0.7
 11
-195.572425039792
 21
590.5049031155214
 31
0.0
100
AcDbText
 73
     3
  0
LINE
  5
58
330
42D
100
AcDbEntity
  8
SPEC
  6
Continuous
 62
     7
100
AcDbLine
 10
-325.0
 20
539.1272600000002
 30
0.0
 11
325.0
 21
539.1272600000002
 31
0.0
  0
LINE
  5
59
330
42D
100
AcDbEntity
  8
SPEC
  6
Continuous
 62
     7
100
AcDbLine
 10
-325.0
 20
520.3772600000002
 30
0.0
 11
325.0
 21
520.3772600000002
 31
0.0
  0
LINE
  5
5A
330
42D
100
AcDbEntity
  8
SPEC
  6
Continuous
 62
     7
100
AcDbLine
 10
-325.0
 20
501.6272600000003
 30
0.0
 11
325.0
 21
501.6272600000003
 31
0.0
  0
LINE
  5
5B
330
42D
100
AcDbEntity
  8
SPEC
  6
Continuous
 62
     7
100
AcDbLine
 10
-325.0
 20
482.8772600000003
 30
0.0
 11
325.0
 21
482.8772600000003
 31
0.0
  0
LINE
  5
5C
330
42D
100
AcDbEntity
  8
SPEC
  6
Continuous
 62
     7
100
AcDbLine
 10
-412.4999999999999
 20
464.1272600000003
 30
0.0
 11
325.0
 21
464.1272600000003
 31
0.0
  0
LINE
  5
5D
330
42D
100
AcDbEntity
  8
SPEC
  6
Continuous
 62
     7
100
AcDbLine
 10
-325.0
 20
445.3772600000003
 30
0.0
 11
325.0
 21
445.3772600000003
 31
0.0
  0
LINE
  5
5E
330
42D
100
AcDbEntity
  8
SPEC
  6
Continuous
 62
     7
100
AcDbLine
 10
-325.0
 20
426.6272600000003
 30
0.0
 11
325.0
 21
426.6272600000003
 31
0.0
  0
LINE
  5
5F
330
42D
100
AcDbEntity
  8
SPEC
  6
Continuous
 62
     7
100
AcDbLine
 10
-325.0
 20
407.8772600000003
 30
0.0
 11
325.0
 21
407.8772600000003
 31
0.0
  0
LINE
  5
60
330
42D
100
AcDbEntity
  8
SPEC
  6
Continuous
 62
     7
100
AcDbLine
 10
-325.0
 20
389.1272600000003
 30
0.0
 11
325.0
 21
389.1272600000003
 31
0.0
  0
LINE
  5
61
330
42D
100
AcDbEntity
  8
SPEC
  6
Continuous
 62
     7
100
AcDbLine
 10
-412.4999999999999
 20
370.3772600000003
 30
0.0
 11
325.0
 21
370.3772600000003
 31
0.0
  0
TEXT
  5
62
330
42D
100
AcDbEntity
  8
SPEC
 62
     7
100
AcDbText
 10
-321.0556552946444
 20
600.4370912829251
 30
0.0
 40
9.501573350694446
  1
チャンネル数
 41
0.7
 11
-321.0556552946444
 21
609.9386646336195
 31
0.0
100
AcDbText
 73
     3
  0
LINE
  5
63
330
42D
100
AcDbEntity
  8
SPEC
  6
Continuous
 62
     7
100
AcDbLine
 10
-325.0
 20
614.1272600000002
 30
0.0
 11
-325.0
 21
370.3772600000003
 31
0.0
  0
LINE
  5
64
330
42D
100
AcDbEntity
  8
SPEC
  6
Continuous
 62
     7
100
AcDbLine
 10
-200.0
 20
614.1272600000002
 30
0.0
 11
-200.0
 21
295.3772599999989
 31
0.0
  0
TEXT
  5
65
330
42D
100
AcDbEntity
  8
SPEC
 62
     7
100
AcDbText
 10
-320.7075204589881
 20
580.9723783198497
 30
0.0
 40
9.501573350694446
  1
端子・形式
 41
0.7
 11
-320.7075204589881
 21
590.4739516705441
 31
0.0
100
AcDbText
 73
     3
  0
TEXT
  5
66
330
42D
100
AcDbEntity
  8
SPEC
 62
     7
100
AcDbText
 10
-321.1305857929568
 20
562.9053142283059
 30
0.0
 40
9.501573350694446
  1
インピーダンス
 41
0.7
 11
-321.1305857929568
 21
572.4068875790004
 31
0.0
100
AcDbText
 73
     3
  0
TEXT
  5
67
330
42D
100
AcDbEntity
  8
SPEC
 62
     7
100
AcDbText
 10
-320.5208271332015
 20
544.645706944746
 30
0.0
 40
9.501573350694446
  1
最大入力レベル
 41
0.7
 11
-320.5208271332015
 21
554.1472802954404
 31
0.0
100
AcDbText
 73
     3
  0
TEXT
  5
68
330
42D
100
AcDbEntity
  8
SPEC
 62
     7
100
AcDbText
 10
-321.9380490352688
 20
525.2216864750045
 30
0.0
 40
9.501573350694446
  1
ファンタム電源
 41
0.7
 11
-321.9380490352688
 21
534.7232598256989
 31
0.0
100
AcDbText
 73
     3
  0
TEXT
  5
69
330
42D
100
AcDbEntity
  8
SPEC
 62
     7
100
AcDbText
 10
-321.3795073154447
 20
506.8012260897009
 30
0.0
 40
9.501573350694446
  1
同相信号除去比
 41
0.7
 11
-321.3795073154447
 21
516.3027994403953
 31
0.0
100
AcDbText
 73
     3
  0
TEXT
  5
6A
330
42D
100
AcDbEntity
  8
SPEC
 62
     7
100
AcDbText
 10
-320.7164913430722
 20
487.8424424042473
 30
0.0
 40
9.501573350694446
  1
等価入力ノイズ
 41
0.7
 11
-320.7164913430722
 21
497.3440157549417
 31
0.0
100
AcDbText
 73
     3
  0
TEXT
  5
6B
330
42D
100
AcDbEntity
  8
SPEC
 62
     7
100
AcDbText
 10
-320.0268683768138
 20
469.797044191646
 30
0.0
 40
9.501573350694446
  1
A/Dレイテンシー
 41
0.7
 11
-320.0268683768138
 21
479.2986175423404
 31
0.0
100
AcDbText
 73
     3
  0
TEXT
  5
6C
330
42D
100
AcDbEntity
  8
SPEC
 62
     7
100
AcDbText
 10
-320.6405879444986
 20
450.3714502290448
 30
0.0
 40
9.501573350694446
  1
バス数
 41
0.7
 11
-320.6405879444986
 21
459.8730235797393
 31
0.0
100
AcDbText
 73
     3
  0
TEXT
  5
6D
330
42D
100
AcDbEntity
  8
SPEC
 62
     7
100
AcDbText
 10
-320.6222832683767
 20
431.2572782855128
 30
0.0
 40
9.501573350694446
  1
端子・形式
 41
0.7
 11
-320.6222832683767
 21
440.7588516362073
 31
0.0
100
AcDbText
 73
     3
  0
TEXT
  5
6E
330
42D
100
AcDbEntity
  8
SPEC
 62
     7
100
AcDbText
 10
-320.5876489377585
 20
412.9821271970221
 30
0.0
 40
9.501573350694446
  1
最大接続距離
 41
0.7
 11
-320.5876489377585
 21
422.4837005477166
 31
0.0
100
AcDbText
 73
     3
  0
TEXT
  5
6F
330
42D
100
AcDbEntity
  8
SPEC
 62
     7
100
AcDbText
 10
-320.5060165600281
 20
394.3414335383153
 30
0.0
 40
9.501573350694446
  1
最大ノード数
 41
0.7
 11
-320.5060165600281
 21
403.8430068890098
 31
0.0
100
AcDbText
 73
     3
  0
TEXT
  5
70
330
42D
100
AcDbEntity
  8
SPEC
 62
     7
100
AcDbText
 10
-323.1398850134809
 20
376.175254770368
 30
0.0
 40
9.501573350694446
  1
レイテンシー
 41
0.7
 11
-323.1398850134809
 21
385.6768281210624
 31
0.0
100
AcDbText
 73
     3
  0
TEXT
  5
71
330
42D
100
AcDbEntity
  8
SPEC
 62
     7
100
AcDbText
 10
-194.6528184652893
 20
543.9054712505118
 30
0.0
 40
9.501573350694446
  1
+20dBu(0dBゲイン）、+8dBu(12dBゲイン)
 41
0.7
 11
-194.6528184652893
 21
553.4070446012062
 31
0.0
100
AcDbText
 73
     3
  0
TEXT
  5
72
330
42D
100
AcDbEntity
  8
SPEC
 62
     7
100
AcDbText
 10
-195.2821318541211
 20
525.1856462510396
 30
0.0
 40
9.501573350694446
  1
48V(各チャンネルでON/OFF可能）
 41
0.7
 11
-195.2821318541211
 21
534.6872196017341
 31
0.0
100
AcDbText
 73
     3
  0
TEXT
  5
73
330
42D
100
AcDbEntity
  8
SPEC
 62
     7
100
AcDbText
 10
-195.2340959983748
 20
506.0489374291506
 30
0.0
 40
9.501573350694446
  1
40dB以上(@1kHz）
 41
0.7
 11
-195.2340959983748
 21
515.5505107798451
 31
0.0
100
AcDbText
 73
     3
  0
TEXT
  5
74
330
42D
100
AcDbEntity
  8
SPEC
 62
     7
100
AcDbText
 10
-195.2452439959069
 20
487.682536000911
 30
0.0
 40
9.501573350694446
  1
-123dBu以下(150Ω)
 41
0.7
 11
-195.2452439959069
 21
497.1841093516054
 31
0.0
100
AcDbText
 73
     3
  0
TEXT
  5
75
330
42D
100
AcDbEntity
  8
SPEC
 62
     7
100
AcDbText
 10
-195.2991406001936
 20
469.4086524388912
 30
0.0
 40
9.501573350694446
  1
0.77ms(48kHz)
 41
0.7
 11
-195.2991406001936
 21
478.9102257895856
 31
0.0
100
AcDbText
 73
     3
  0
TEXT
  5
76
330
42D
100
AcDbEntity
  8
SPEC
 62
     7
100
AcDbText
 10
-196.5743021951885
 20
450.4642196695982
 30
0.0
 40
9.501573350694446
  1
カスケードバス最大256ch
 41
0.7
 11
-196.5743021951885
 21
459.9657930202927
 31
0.0
100
AcDbText
 73
     3
  0
TEXT
  5
77
330
42D
100
AcDbEntity
  8
SPEC
 62
     7
100
AcDbText
 10
-195.5965063465924
 20
431.7114796806515
 30
0.0
 40
9.501573350694446
  1
RJ-45×2
 41
0.7
 11
-195.5965063465924
 21
441.213053031346
 31
0.0
100
AcDbText
 73
     3
  0
TEXT
  5
78
330
42D
100
AcDbEntity
  8
SPEC
 62
     7
100
AcDbText
 10
-195.9971979505103
 20
412.9573819609509
 30
0.0
 40
9.501573350694446
  1
100m(CAT5eケーブル)
 41
0.7
 11
-195.9971979505103
 21
422.4589553116453
 31
0.0
100
AcDbText
 73
     3
  0
TEXT
  5
79
330
42D
100
AcDbEntity
  8
SPEC
 62
     7
100
AcDbText
 10
-195.63763686114
 20
394.2467993901866
 30
0.0
 40
9.501573350694446
  1
60
 41
0.7
 11
-195.63763686114
 21
403.748372740881
 31
0.0
100
AcDbText
 73
     3
  0
TEXT
  5
7A
330
42D
100
AcDbEntity
  8
SPEC
 62
     7
100
AcDbText
 10
-408.0458192943616
 20
450.3533966685396
 30
0.0
 40
9.501573350694446
  1
BLU link
 41
0.7
 11
-408.0458192943616
 21
459.854970019234
 31
0.0
100
AcDbText
 73
     3
  0
LINE
  5
7B
330
42D
100
AcDbEntity
  8
SPEC
  6
Continuous
 62
     7
100
AcDbLine
 10
-412.4999999999999
 20
351.62726
 30
0.0
 11
325.0
 21
351.62726
 31
0.0
  0
LINE
  5
7C
330
42D
100
AcDbEntity
  8
SPEC
  6
Continuous
 62
     7
100
AcDbLine
 10
-412.4999999999999
 20
332.8772599999997
 30
0.0
 11
325.0
 21
332.8772599999997
 31
0.0
  0
LINE
  5
7D
330
42D
100
AcDbEntity
  8
SPEC
  6
Continuous
 62
     7
100
AcDbLine
 10
-412.4999999999999
 20
314.1272599999993
 30
0.0
 11
325.0
 21
314.1272599999993
 31
0.0
  0
TEXT
  5
7E
330
42D
100
AcDbEntity
  8
SPEC
 62
     7
100
AcDbText
 10
-408.4099161255734
 20
356.8709794258004
 30
0.0
 40
9.501573350694446
  1
電源
 41
0.7
 11
-408.4099161255734
 21
366.3725527764949
 31
0.0
100
AcDbText
 73
     3
  0
TEXT
  5
7F
330
42D
100
AcDbEntity
  8
SPEC
 62
     7
100
AcDbText
 10
-196.1385592313468
 20
356.7398830954862
 30
0.0
 40
9.501573350694446
  1
DC12V(19W)、電源アダプター(AC100V、50/60Hz)
 41
0.7
 11
-196.1385592313468
 21
366.2414564461806
 31
0.0
100
AcDbText
 73
     3
  0
TEXT
  5
80
330
42D
100
AcDbEntity
  8
SPEC
 62
     7
100
AcDbText
 10
-408.4089372217424
 20
338.3945831441263
 30
0.0
 40
9.501573350694446
  1
寸法(W×H×D)
 41
0.7
 11
-408.4089372217424
 21
347.8961564948208
 31
0.0
100
AcDbText
 73
     3
  0
TEXT
  5
81
330
42D
100
AcDbEntity
  8
SPEC
 62
     7
100
AcDbText
 10
-195.4269314144794
 20
375.3088679872878
 30
0.0
 40
9.501573350694446
  1
0.08ms(48kHz)
 41
0.7
 11
-195.4269314144794
 21
384.8104413379823
 31
0.0
100
AcDbText
 73
     3
  0
TEXT
  5
82
330
42D
100
AcDbEntity
  8
SPEC
 62
     7
100
AcDbText
 10
-408.3407810181187
 20
300.8351986548485
 30
0.0
 40
9.501573350694446
  1
付属品
 41
0.7
 11
-408.3407810181187
 21
310.336772005543
 31
0.0
100
AcDbText
 73
     3
  0
TEXT
  5
83
330
42D
100
AcDbEntity
  8
SPEC
 62
     7
100
AcDbText
 10
-195.3796164867197
 20
300.9807996378342
 30
0.0
 40
9.501573350694446
  1
電源アダプター
 41
0.7
 11
-195.3796164867197
 21
310.4823729885286
 31
0.0
100
AcDbText
 73
     3
  0
LINE
  5
84
330
42D
100
AcDbEntity
  8
SPEC
  6
Continuous
 62
     7
100
AcDbLine
 10
-412.4999999999999
 20
295.3772599999989
 30
0.0
 11
325.0
 21
295.3772599999989
 31
0.0
  0
TEXT
  5
85
330
42D
100
AcDbEntity
  8
DIMNSIONS
 62
     7
100
AcDbText
 10
-99.99999999999996
 20
-574.5252899999996
 30
0.0
 40
12.21630859375
  1
(単位：mm)
 41
0.7
 11
-99.99999999999996
 21
-562.3089814062496
 31
0.0
100
AcDbText
 73
     3
  0
LINE
  5
86
330
42D
100
AcDbEntity
  8
DIMNSIONS
  6
Continuous
 62
     7
100
AcDbLine
 10
-200.0
 20
-407.5
 30
0.0
 11
-200.0
 21
-430.0
 31
0.0
  0
LINE
  5
87
330
42D
100
AcDbEntity
  8
DIMNSIONS
  6
Continuous
 62
     7
100
AcDbLine
 10
19.0
 20
-407.5
 30
0.0
 11
19.0
 21
-430.0
 31
0.0
  0
LINE
  5
88
330
42D
100
AcDbEntity
  8
DIMNSIONS
  6
Continuous
 62
     7
100
AcDbLine
 10
-200.0
 20
-425.0
 30
0.0
 11
19.0
 21
-425.0
 31
0.0
  0
LINE
  5
89
330
42D
100
AcDbEntity
  8
DIMNSIONS
  6
Continuous
 62
     7
100
AcDbLine
 10
-200.0
 20
-425.0
 30
0.0
 11
-190.0006103515625
 21
-422.3206716188969
 31
0.0
  0
LINE
  5
8A
330
42D
100
AcDbEntity
  8
DIMNSIONS
  6
Continuous
 62
     7
100
AcDbLine
 10
-200.0
 20
-425.0
 30
0.0
 11
-190.0006103515625
 21
-427.6793283811029
 31
0.0
  0
LINE
  5
8B
330
42D
100
AcDbEntity
  8
DIMNSIONS
  6
Continuous
 62
     7
100
AcDbLine
 10
19.0
 20
-425.0
 30
0.0
 11
9.000610351562501
 21
-427.6793283811029
 31
0.0
  0
LINE
  5
8C
330
42D
100
AcDbEntity
  8
DIMNSIONS
  6
Continuous
 62
     7
100
AcDbLine
 10
19.0
 20
-425.0
 30
0.0
 11
9.0006103515625
 21
-422.3206716188969
 31
0.0
  0
TEXT
  5
8D
330
42D
100
AcDbEntity
  8
DIMNSIONS
 62
     7
100
AcDbText
 10
-103.7291666666667
 20
-420.5305555555555
 30
0.0
 40
13.57367621527778
  1
219
 41
0.7
 11
-103.7291666666667
 21
-406.9568793402777
 31
0.0
100
AcDbText
 73
     3
  0
LINE
  5
8E
330
42D
100
AcDbEntity
  8
DIMNSIONS
  6
Continuous
 62
     7
100
AcDbLine
 10
-207.5
 20
-400.0
 30
0.0
 11
-217.5
 21
-400.0
 31
0.0
  0
LINE
  5
8F
330
42D
100
AcDbEntity
  8
DIMNSIONS
  6
Continuous
 62
     7
100
AcDbLine
 10
-207.5
 20
-358.0
 30
0.0
 11
-217.5
 21
-358.0
 31
0.0
  0
LINE
  5
90
330
42D
100
AcDbEntity
  8
DIMNSIONS
  6
Continuous
 62
     7
100
AcDbLine
 10
-212.5
 20
-400.0
 30
0.0
 11
-212.5
 21
-358.0
 31
0.0
  0
LINE
  5
91
330
42D
100
AcDbEntity
  8
DIMNSIONS
  6
Continuous
 62
     7
100
AcDbLine
 10
-212.5
 20
-400.0
 30
0.0
 11
-215.1793283811029
 21
-390.0006103515623
 31
0.0
  0
LINE
  5
92
330
42D
100
AcDbEntity
  8
DIMNSIONS
  6
Continuous
 62
     7
100
AcDbLine
 10
-212.5
 20
-400.0
 30
0.0
 11
-209.820671618897
 21
-390.0006103515623
 31
0.0
  0
LINE
  5
93
330
42D
100
AcDbEntity
  8
DIMNSIONS
  6
Continuous
 62
     7
100
AcDbLine
 10
-212.5
 20
-358.0
 30
0.0
 11
-209.820671618897
 21
-367.9993896484374
 31
0.0
  0
LINE
  5
94
330
42D
100
AcDbEntity
  8
DIMNSIONS
  6
Continuous
 62
     7
100
AcDbLine
 10
-212.5
 20
-358.0
 30
0.0
 11
-215.1793283811029
 21
-367.9993896484374
 31
0.0
  0
TEXT
  5
95
330
42D
100
AcDbEntity
  8
DIMNSIONS
 62
     7
100
AcDbText
 10
-216.9694444444444
 20
-396.6388888888888
 30
0.0
 40
13.57367621527778
  1
42.0
 50
90.0
 41
0.7
 11
-230.5431206597222
 21
-396.6388888888888
 31
0.0
100
AcDbText
 73
     3
  0
LINE
  5
96
330
42D
100
AcDbEntity
  8
DIMNSIONS
  6
Continuous
 62
     7
100
AcDbLine
 10
-207.5
 20
-350.0
 30
0.0
 11
-217.5
 21
-350.0
 31
0.0
  0
LINE
  5
97
330
42D
100
AcDbEntity
  8
DIMNSIONS
  6
Continuous
 62
     7
100
AcDbLine
 10
-207.5
 20
-155.0
 30
0.0
 11
-217.5
 21
-155.0
 31
0.0
  0
LINE
  5
98
330
42D
100
AcDbEntity
  8
DIMNSIONS
  6
Continuous
 62
     7
100
AcDbLine
 10
-212.5
 20
-350.0
 30
0.0
 11
-212.5
 21
-155.0
 31
0.0
  0
LINE
  5
99
330
42D
100
AcDbEntity
  8
DIMNSIONS
  6
Continuous
 62
     7
100
AcDbLine
 10
-212.5
 20
-350.0
 30
0.0
 11
-215.1793283811029
 21
-340.0006103515624
 31
0.0
  0
LINE
  5
9A
330
42D
100
AcDbEntity
  8
DIMNSIONS
  6
Continuous
 62
     7
100
AcDbLine
 10
-212.5
 20
-350.0
 30
0.0
 11
-209.820671618897
 21
-340.0006103515624
 31
0.0
  0
LINE
  5
9B
330
42D
100
AcDbEntity
  8
DIMNSIONS
  6
Continuous
 62
     7
100
AcDbLine
 10
-212.5
 20
-155.0
 30
0.0
 11
-209.820671618897
 21
-164.9993896484375
 31
0.0
  0
LINE
  5
9C
330
42D
100
AcDbEntity
  8
DIMNSIONS
  6
Continuous
 62
     7
100
AcDbLine
 10
-212.5
 20
-155.0
 30
0.0
 11
-215.1793283811029
 21
-164.9993896484375
 31
0.0
  0
TEXT
  5
9D
330
42D
100
AcDbEntity
  8
DIMNSIONS
 62
     7
100
AcDbText
 10
-216.9694444444444
 20
-265.7291666666666
 30
0.0
 40
13.57367621527778
  1
195
 50
90.0
 41
0.7
 11
-230.5431206597222
 21
-265.7291666666666
 31
0.0
100
AcDbText
 73
     3
  0
TEXT
  5
9E
330
42D
100
AcDbEntity
  8
DATA
 62
     7
100
AcDbText
 10
-437.5
 20
-596.4913511111109
 30
0.0
 40
9.501573350694446
  1
※仕様及び外観は予告なく変更されることがあります。
 41
0.7
 11
-437.5
 21
-586.9897777604164
 31
0.0
100
AcDbText
 73
     3
  0
TEXT
  5
9F
330
42D
100
AcDbEntity
  8
DATA
 62
     7
100
AcDbText
 10
-437.5
 20
-608.8385733333328
 30
0.0
 40
9.501573350694446
  1
　また、同一商品でも若干の個体差があることがあります。ご了承ください。
 41
0.7
 11
-437.5
 21
-599.3369999826384
 31
0.0
100
AcDbText
 73
     3
  0
TEXT
  5
A0
330
42D
100
AcDbEntity
  8
DATA
 62
     7
100
AcDbText
 10
250.0
 20
-580.2182899999995
 30
0.0
 40
12.21630859375
  1
BLU-BIB
 41
0.7
 11
250.0
 21
-568.0019814062496
 31
0.0
100
AcDbText
 73
     3
  0
TEXT
  5
A1
330
42D
100
AcDbEntity
  8
DATA
 62
     7
100
AcDbText
 10
237.5
 20
-561.9880649999998
 30
0.0
 40
9.501573350694446
  1
入力エキスパンダー
 41
0.7
 11
237.5
 21
-552.4864916493054
 31
0.0
100
AcDbText
 73
     3
  0
LINE
  5
A2
330
42D
100
AcDbEntity
  8
DATA
  6
Continuous
 62
     7
100
AcDbLine
 10
-200.0
 20
-400.0
 30
0.0
 11
-200.0
 21
-358.0
 31
0.0
  0
LINE
  5
A3
330
42D
100
AcDbEntity
  8
DATA
  6
Continuous
 62
     7
100
AcDbLine
 10
19.0
 20
-400.0
 30
0.0
 11
-200.0
 21
-400.0
 31
0.0
  0
LINE
  5
A4
330
42D
100
AcDbEntity
  8
DATA
  6
Continuous
 62
     7
100
AcDbLine
 10
19.0
 20
-358.0
 30
0.0
 11
19.0
 21
-400.0
 31
0.0
  0
LINE
  5
A5
330
42D
100
AcDbEntity
  8
DATA
  6
Continuous
 62
     7
100
AcDbLine
 10
-200.0
 20
-358.0
 30
0.0
 11
19.0
 21
-358.0
 31
0.0
  0
LINE
  5
A6
330
42D
100
AcDbEntity
  8
DATA
  6
Continuous
 62
     7
100
AcDbLine
 10
-200.0
 20
-350.0
 30
0.0
 11
-200.0
 21
-155.0
 31
0.0
  0
LINE
  5
A7
330
42D
100
AcDbEntity
  8
DATA
  6
Continuous
 62
     7
100
AcDbLine
 10
19.0
 20
-350.0
 30
0.0
 11
-200.0
 21
-350.0
 31
0.0
  0
LINE
  5
A8
330
42D
100
AcDbEntity
  8
DATA
  6
Continuous
 62
     7
100
AcDbLine
 10
19.0
 20
-155.0
 30
0.0
 11
19.0
 21
-350.0
 31
0.0
  0
LINE
  5
A9
330
42D
100
AcDbEntity
  8
DATA
  6
Continuous
 62
     7
100
AcDbLine
 10
-200.0
 20
-155.0
 30
0.0
 11
19.0
 21
-155.0
 31
0.0
  0
LINE
  5
AA
330
42D
100
AcDbEntity
  8
DATA
  6
Continuous
 62
     7
100
AcDbLine
 10
-23.0
 20
-364.0
 30
0.0
 11
-114.7490157327752
 21
-364.0
 31
0.0
  0
ARC
  5
AB
330
42D
100
AcDbEntity
  8
DATA
  6
Continuous
 62
     7
100
AcDbCircle
 10
-23.0
 20
-379.0
 30
0.0
 40
15.0
100
AcDbArc
 50
270.0
 51
90.0
  0
ARC
  5
AC
330
42D
100
AcDbEntity
  8
DATA
  6
Continuous
 62
     7
100
AcDbCircle
 10
-83.0
 20
-379.0
 30
0.0
 40
38.9999999999999
100
AcDbArc
 50
164.1733798681276
 51
195.8266201318723
  0
ARC
  5
AD
330
42D
100
AcDbEntity
  8
DATA
  6
Continuous
 62
     7
100
AcDbCircle
 10
-114.7490157327752
 20
-370.0
 30
0.0
 40
6.0
100
AcDbArc
 50
90.0
 51
164.1733798681272
  0
ARC
  5
AE
330
42D
100
AcDbEntity
  8
DATA
  6
Continuous
 62
     7
100
AcDbCircle
 10
-114.7490157327752
 20
-388.0
 30
0.0
 40
5.999999999999779
100
AcDbArc
 50
195.8266201318728
 51
270.0
  0
LINE
  5
AF
330
42D
100
AcDbEntity
  8
DATA
  6
Continuous
 62
     7
100
AcDbLine
 10
-114.7490157327752
 20
-394.0
 30
0.0
 11
-23.0
 21
-394.0
 31
0.0
  0
LINE
  5
B0
330
42D
100
AcDbEntity
  8
DATA
  6
Continuous
 62
     7
100
AcDbLine
 10
19.0
 20
-385.0
 30
0.0
 11
-9.25227291513238
 21
-385.0
 31
0.0
  0
LINE
  5
B1
330
42D
100
AcDbEntity
  8
DATA
  6
Continuous
 62
     7
100
AcDbLine
 10
-121.5356977359954
 20
-385.0
 30
0.0
 11
-126.6422192294444
 21
-385.0
 31
0.0
  0
LINE
  5
B2
330
42D
100
AcDbEntity
  8
DATA
  6
Continuous
 62
     7
100
AcDbLine
 10
-172.2184956735602
 20
-385.0
 30
0.0
 11
-200.0
 21
-385.0
 31
0.0
  0
LINE
  5
B3
330
42D
100
AcDbEntity
  8
DATA
  6
Continuous
 62
     7
100
AcDbLine
 10
-200.0
 20
-373.0
 30
0.0
 11
-172.2184956735602
 21
-373.0
 31
0.0
  0
LINE
  5
B4
330
42D
100
AcDbEntity
  8
DATA
  6
Continuous
 62
     7
100
AcDbLine
 10
-126.6422192294444
 20
-373.0
 30
0.0
 11
-121.5356977359954
 21
-373.0
 31
0.0
  0
LINE
  5
B5
330
42D
100
AcDbEntity
  8
DATA
  6
Continuous
 62
     7
100
AcDbLine
 10
-9.25227291513238
 20
-373.0
 30
0.0
 11
19.0
 21
-373.0
 31
0.0
  0
TEXT
  5
B6
330
42D
100
AcDbEntity
  8
DATA
 62
     7
100
AcDbText
 10
-141.956250336435
 20
-376.9555
 30
0.0
 40
2.44326171875
  1
BLU-BIB
 41
0.7
 11
-141.956250336435
 21
-374.51223828125
 31
0.0
100
AcDbText
 73
     3
  0
CIRCLE
  5
B7
330
42D
100
AcDbEntity
  8
DATA
  6
Continuous
 62
     7
100
AcDbCircle
 10
-24.0
 20
-372.4255173027277
 30
0.0
 40
3.75
  0
LINE
  5
B8
330
42D
100
AcDbEntity
  8
DATA
  6
Continuous
 62
     7
100
AcDbLine
 10
-24.0
 20
-370.858864595816
 30
0.0
 11
-25.93353816763511
 21
-372.7924027634509
 31
0.0
  0
LINE
  5
B9
330
42D
100
AcDbEntity
  8
DATA
  6
Continuous
 62
     7
100
AcDbLine
 10
-24.0
 20
-370.858864595816
 30
0.0
 11
-22.0664618323649
 21
-372.7924027634509
 31
0.0
  0
CIRCLE
  5
BA
330
42D
100
AcDbEntity
  8
DATA
  6
Continuous
 62
     7
100
AcDbCircle
 10
-24.0
 20
-385.5744826972722
 30
0.0
 40
3.75
  0
LINE
  5
BB
330
42D
100
AcDbEntity
  8
DATA
  6
Continuous
 62
     7
100
AcDbLine
 10
-24.0
 20
-387.141135404184
 30
0.0
 11
-25.93353816763511
 21
-385.2075972365489
 31
0.0
  0
LINE
  5
BC
330
42D
100
AcDbEntity
  8
DATA
  6
Continuous
 62
     7
100
AcDbLine
 10
-24.0
 20
-387.141135404184
 30
0.0
 11
-22.0664618323649
 21
-385.2075972365489
 31
0.0
  0
CIRCLE
  5
BD
330
42D
100
AcDbEntity
  8
DATA
  6
Continuous
 62
     7
100
AcDbCircle
 10
-14.59999999999991
 20
-379.0
 30
0.0
 40
1.25
  0
TEXT
  5
BE
330
42D
100
AcDbEntity
  8
DATA
 62
     7
100
AcDbText
 10
-17.52624497490115
 20
-376.4973832376177
 30
0.0
 40
2.1891625
  1
Power
 41
0.7
 11
-17.52624497490115
 21
-375.4028019876177
 31
0.0
100
AcDbText
 73
     2
  0
TEXT
  5
BF
330
42D
100
AcDbEntity
  8
DATA
 62
     7
100
AcDbText
 10
-28.00062707014127
 20
-380.0311424326448
 30
0.0
 40
2.1891625
  1
dB Gin
 41
0.7
 11
-28.00062707014127
 21
-378.9365611826448
 31
0.0
100
AcDbText
 73
     2
  0
CIRCLE
  5
C0
330
42D
100
AcDbEntity
  8
DATA
  6
Continuous
 62
     7
100
AcDbCircle
 10
-110.0
 20
-386.2455525255277
 30
0.0
 40
3.75
  0
TEXT
  5
C1
330
42D
100
AcDbEntity
  8
DATA
 62
     7
100
AcDbText
 10
-111.1906249999999
 20
-387.9827548178767
 30
0.0
 40
3.664892578124999
  1
1
 41
0.7
 11
-111.1906249999999
 21
-384.3178622397517
 31
0.0
100
AcDbText
 73
     3
  0
CIRCLE
  5
C2
330
42D
100
AcDbEntity
  8
DATA
  6
Continuous
 62
     7
100
AcDbCircle
 10
-101.0
 20
-386.2455525255277
 30
0.0
 40
3.75
  0
TEXT
  5
C3
330
42D
100
AcDbEntity
  8
DATA
 62
     7
100
AcDbText
 10
-102.190625
 20
-387.9827548178767
 30
0.0
 40
3.664892578124999
  1
2
 41
0.7
 11
-102.190625
 21
-384.3178622397517
 31
0.0
100
AcDbText
 73
     3
  0
CIRCLE
  5
C4
330
42D
100
AcDbEntity
  8
DATA
  6
Continuous
 62
     7
100
AcDbCircle
 10
-92.0
 20
-386.2455525255277
 30
0.0
 40
3.75
  0
TEXT
  5
C5
330
42D
100
AcDbEntity
  8
DATA
 62
     7
100
AcDbText
 10
-93.19062499999997
 20
-387.9827548178767
 30
0.0
 40
3.664892578124999
  1
3
 41
0.7
 11
-93.19062499999997
 21
-384.3178622397517
 31
0.0
100
AcDbText
 73
     3
  0
CIRCLE
  5
C6
330
42D
100
AcDbEntity
  8
DATA
  6
Continuous
 62
     7
100
AcDbCircle
 10
-83.0
 20
-386.2455525255277
 30
0.0
 40
3.75
  0
TEXT
  5
C7
330
42D
100
AcDbEntity
  8
DATA
 62
     7
100
AcDbText
 10
-84.19062499999995
 20
-387.9827548178767
 30
0.0
 40
3.664892578124999
  1
4
 41
0.7
 11
-84.19062499999995
 21
-384.3178622397517
 31
0.0
100
AcDbText
 73
     3
  0
CIRCLE
  5
C8
330
42D
100
AcDbEntity
  8
DATA
  6
Continuous
 62
     7
100
AcDbCircle
 10
-74.0
 20
-386.2455525255277
 30
0.0
 40
3.75
  0
TEXT
  5
C9
330
42D
100
AcDbEntity
  8
DATA
 62
     7
100
AcDbText
 10
-75.19062499999995
 20
-387.9827548178767
 30
0.0
 40
3.664892578124999
  1
5
 41
0.7
 11
-75.19062499999995
 21
-384.3178622397517
 31
0.0
100
AcDbText
 73
     3
  0
CIRCLE
  5
CA
330
42D
100
AcDbEntity
  8
DATA
  6
Continuous
 62
     7
100
AcDbCircle
 10
-65.0
 20
-386.2455525255277
 30
0.0
 40
3.75
  0
TEXT
  5
CB
330
42D
100
AcDbEntity
  8
DATA
 62
     7
100
AcDbText
 10
-66.19062499999997
 20
-387.9827548178767
 30
0.0
 40
3.664892578124999
  1
6
 41
0.7
 11
-66.19062499999997
 21
-384.3178622397517
 31
0.0
100
AcDbText
 73
     3
  0
CIRCLE
  5
CC
330
42D
100
AcDbEntity
  8
DATA
  6
Continuous
 62
     7
100
AcDbCircle
 10
-56.0
 20
-386.2455525255277
 30
0.0
 40
3.75
  0
TEXT
  5
CD
330
42D
100
AcDbEntity
  8
DATA
 62
     7
100
AcDbText
 10
-57.19062499999996
 20
-387.9827548178767
 30
0.0
 40
3.664892578124999
  1
7
 41
0.7
 11
-57.19062499999996
 21
-384.3178622397517
 31
0.0
100
AcDbText
 73
     3
  0
CIRCLE
  5
CE
330
42D
100
AcDbEntity
  8
DATA
  6
Continuous
 62
     7
100
AcDbCircle
 10
-47.0
 20
-386.2455525255277
 30
0.0
 40
3.75
  0
TEXT
  5
CF
330
42D
100
AcDbEntity
  8
DATA
 62
     7
100
AcDbText
 10
-48.19062499999996
 20
-387.9827548178767
 30
0.0
 40
3.664892578124999
  1
8
 41
0.7
 11
-48.19062499999996
 21
-384.3178622397517
 31
0.0
100
AcDbText
 73
     3
  0
TEXT
  5
D0
330
42D
100
AcDbEntity
  8
DATA
 62
     7
100
AcDbText
 10
-118.9
 20
-387.71698125
 30
0.0
 40
2.1891625
  1
Ch.
 41
0.7
 11
-118.9
 21
-386.6224
 31
0.0
100
AcDbText
 73
     2
  0
CIRCLE
  5
D1
330
42D
100
AcDbEntity
  8
DATA
  6
Continuous
 62
     7
100
AcDbCircle
 10
-36.0
 20
-371.8774803934425
 30
0.0
 40
3.75
  0
TEXT
  5
D2
330
42D
100
AcDbEntity
  8
DATA
 62
     7
100
AcDbText
 10
-38.60218888920508
 20
-373.6146826857916
 30
0.0
 40
3.664892578124999
  1
48
 41
0.7
 11
-38.60218888920508
 21
-369.9497901076666
 31
0.0
100
AcDbText
 73
     3
  0
ARC
  5
D3
330
42D
100
AcDbEntity
  8
DATA
  6
Continuous
 62
     7
100
AcDbCircle
 10
-110.2476067236241
 20
-372.0
 30
0.0
 40
1.399999999999977
100
AcDbArc
 50
90.0
 51
270.0
  0
TEXT
  5
D4
330
42D
100
AcDbEntity
  8
DATA
 62
     7
100
AcDbText
 10
-121.5263263937004
 20
-380.1950761686349
 30
0.0
 40
2.1891625
  1
Signal
 41
0.7
 11
-121.5263263937004
 21
-379.1004949186349
 31
0.0
100
AcDbText
 73
     2
  0
TEXT
  5
D5
330
42D
100
AcDbEntity
  8
DATA
 62
     7
100
AcDbText
 10
-120.8974995235976
 20
-373.0924500893252
 30
0.0
 40
2.1891625
  1
+48V
 41
0.7
 11
-120.8974995235976
 21
-371.9978688393252
 31
0.0
100
AcDbText
 73
     2
  0
ARC
  5
D6
330
42D
100
AcDbEntity
  8
DATA
  6
Continuous
 62
     7
100
AcDbCircle
 10
-109.7523932763758
 20
-372.0
 30
0.0
 40
1.399999999999977
100
AcDbArc
 50
270.0
 51
90.0
  0
LINE
  5
D7
330
42D
100
AcDbEntity
  8
DATA
  6
Continuous
 62
     7
100
AcDbLine
 10
-110.2476067236241
 20
-370.6
 30
0.0
 11
-109.7523932763758
 21
-370.6
 31
0.0
  0
LINE
  5
D8
330
42D
100
AcDbEntity
  8
DATA
  6
Continuous
 62
     7
100
AcDbLine
 10
-110.2476067236241
 20
-373.3999999999999
 30
0.0
 11
-109.7523932763758
 21
-373.3999999999999
 31
0.0
  0
ARC
  5
D9
330
42D
100
AcDbEntity
  8
DATA
  6
Continuous
 62
     7
100
AcDbCircle
 10
-101.2476067236241
 20
-372.0
 30
0.0
 40
1.399999999999977
100
AcDbArc
 50
90.0
 51
270.0
  0
ARC
  5
DA
330
42D
100
AcDbEntity
  8
DATA
  6
Continuous
 62
     7
100
AcDbCircle
 10
-100.7523932763758
 20
-372.0
 30
0.0
 40
1.399999999999977
100
AcDbArc
 50
270.0
 51
90.0
  0
LINE
  5
DB
330
42D
100
AcDbEntity
  8
DATA
  6
Continuous
 62
     7
100
AcDbLine
 10
-101.2476067236241
 20
-370.6
 30
0.0
 11
-100.7523932763758
 21
-370.6
 31
0.0
  0
LINE
  5
DC
330
42D
100
AcDbEntity
  8
DATA
  6
Continuous
 62
     7
100
AcDbLine
 10
-101.2476067236241
 20
-373.3999999999999
 30
0.0
 11
-100.7523932763758
 21
-373.3999999999999
 31
0.0
  0
ARC
  5
DD
330
42D
100
AcDbEntity
  8
DATA
  6
Continuous
 62
     7
100
AcDbCircle
 10
-92.24760672362412
 20
-372.0
 30
0.0
 40
1.399999999999977
100
AcDbArc
 50
90.0
 51
270.0
  0
ARC
  5
DE
330
42D
100
AcDbEntity
  8
DATA
  6
Continuous
 62
     7
100
AcDbCircle
 10
-91.75239327637587
 20
-372.0
 30
0.0
 40
1.399999999999977
100
AcDbArc
 50
270.0
 51
90.0
  0
LINE
  5
DF
330
42D
100
AcDbEntity
  8
DATA
  6
Continuous
 62
     7
100
AcDbLine
 10
-92.24760672362412
 20
-370.6
 30
0.0
 11
-91.75239327637587
 21
-370.6
 31
0.0
  0
LINE
  5
E0
330
42D
100
AcDbEntity
  8
DATA
  6
Continuous
 62
     7
100
AcDbLine
 10
-92.24760672362412
 20
-373.3999999999999
 30
0.0
 11
-91.75239327637587
 21
-373.3999999999999
 31
0.0
  0
ARC
  5
E1
330
42D
100
AcDbEntity
  8
DATA
  6
Continuous
 62
     7
100
AcDbCircle
 10
-83.24760672362414
 20
-372.0
 30
0.0
 40
1.399999999999977
100
AcDbArc
 50
90.0
 51
270.0
  0
ARC
  5
E2
330
42D
100
AcDbEntity
  8
DATA
  6
Continuous
 62
     7
100
AcDbCircle
 10
-82.75239327637587
 20
-372.0
 30
0.0
 40
1.399999999999977
100
AcDbArc
 50
270.0
 51
90.0
  0
LINE
  5
E3
330
42D
100
AcDbEntity
  8
DATA
  6
Continuous
 62
     7
100
AcDbLine
 10
-83.24760672362414
 20
-370.6
 30
0.0
 11
-82.75239327637587
 21
-370.6
 31
0.0
  0
LINE
  5
E4
330
42D
100
AcDbEntity
  8
DATA
  6
Continuous
 62
     7
100
AcDbLine
 10
-83.24760672362414
 20
-373.3999999999999
 30
0.0
 11
-82.75239327637587
 21
-373.3999999999999
 31
0.0
  0
ARC
  5
E5
330
42D
100
AcDbEntity
  8
DATA
  6
Continuous
 62
     7
100
AcDbCircle
 10
-74.24760672362413
 20
-372.0
 30
0.0
 40
1.399999999999977
100
AcDbArc
 50
90.0
 51
270.0
  0
ARC
  5
E6
330
42D
100
AcDbEntity
  8
DATA
  6
Continuous
 62
     7
100
AcDbCircle
 10
-73.75239327637586
 20
-372.0
 30
0.0
 40
1.399999999999977
100
AcDbArc
 50
270.0
 51
90.0
  0
LINE
  5
E7
330
42D
100
AcDbEntity
  8
DATA
  6
Continuous
 62
     7
100
AcDbLine
 10
-74.24760672362413
 20
-370.6
 30
0.0
 11
-73.75239327637586
 21
-370.6
 31
0.0
  0
LINE
  5
E8
330
42D
100
AcDbEntity
  8
DATA
  6
Continuous
 62
     7
100
AcDbLine
 10
-74.24760672362413
 20
-373.3999999999999
 30
0.0
 11
-73.75239327637586
 21
-373.3999999999999
 31
0.0
  0
ARC
  5
E9
330
42D
100
AcDbEntity
  8
DATA
  6
Continuous
 62
     7
100
AcDbCircle
 10
-65.24760672362413
 20
-372.0
 30
0.0
 40
1.399999999999977
100
AcDbArc
 50
90.0
 51
270.0
  0
ARC
  5
EA
330
42D
100
AcDbEntity
  8
DATA
  6
Continuous
 62
     7
100
AcDbCircle
 10
-64.75239327637585
 20
-372.0
 30
0.0
 40
1.399999999999977
100
AcDbArc
 50
270.0
 51
90.0
  0
LINE
  5
EB
330
42D
100
AcDbEntity
  8
DATA
  6
Continuous
 62
     7
100
AcDbLine
 10
-65.24760672362413
 20
-370.6
 30
0.0
 11
-64.75239327637585
 21
-370.6
 31
0.0
  0
LINE
  5
EC
330
42D
100
AcDbEntity
  8
DATA
  6
Continuous
 62
     7
100
AcDbLine
 10
-65.24760672362413
 20
-373.3999999999999
 30
0.0
 11
-64.75239327637585
 21
-373.3999999999999
 31
0.0
  0
ARC
  5
ED
330
42D
100
AcDbEntity
  8
DATA
  6
Continuous
 62
     7
100
AcDbCircle
 10
-56.24760672362413
 20
-372.0
 30
0.0
 40
1.399999999999977
100
AcDbArc
 50
90.0
 51
270.0
  0
ARC
  5
EE
330
42D
100
AcDbEntity
  8
DATA
  6
Continuous
 62
     7
100
AcDbCircle
 10
-55.75239327637586
 20
-372.0
 30
0.0
 40
1.399999999999977
100
AcDbArc
 50
270.0
 51
90.0
  0
LINE
  5
EF
330
42D
100
AcDbEntity
  8
DATA
  6
Continuous
 62
     7
100
AcDbLine
 10
-56.24760672362413
 20
-370.6
 30
0.0
 11
-55.75239327637586
 21
-370.6
 31
0.0
  0
LINE
  5
F0
330
42D
100
AcDbEntity
  8
DATA
  6
Continuous
 62
     7
100
AcDbLine
 10
-56.24760672362413
 20
-373.3999999999999
 30
0.0
 11
-55.75239327637586
 21
-373.3999999999999
 31
0.0
  0
ARC
  5
F1
330
42D
100
AcDbEntity
  8
DATA
  6
Continuous
 62
     7
100
AcDbCircle
 10
-47.24760672362413
 20
-372.0
 30
0.0
 40
1.399999999999977
100
AcDbArc
 50
90.0
 51
270.0
  0
ARC
  5
F2
330
42D
100
AcDbEntity
  8
DATA
  6
Continuous
 62
     7
100
AcDbCircle
 10
-46.75239327637585
 20
-372.0
 30
0.0
 40
1.399999999999977
100
AcDbArc
 50
270.0
 51
90.0
  0
LINE
  5
F3
330
42D
100
AcDbEntity
  8
DATA
  6
Continuous
 62
     7
100
AcDbLine
 10
-47.24760672362413
 20
-370.6
 30
0.0
 11
-46.75239327637585
 21
-370.6
 31
0.0
  0
LINE
  5
F4
330
42D
100
AcDbEntity
  8
DATA
  6
Continuous
 62
     7
100
AcDbLine
 10
-47.24760672362413
 20
-373.3999999999999
 30
0.0
 11
-46.75239327637585
 21
-373.3999999999999
 31
0.0
  0
ARC
  5
F5
330
42D
100
AcDbEntity
  8
DATA
  6
Continuous
 62
     7
100
AcDbCircle
 10
-110.2476067236241
 20
-379.0
 30
0.0
 40
1.399999999999977
100
AcDbArc
 50
90.0
 51
270.0
  0
ARC
  5
F6
330
42D
100
AcDbEntity
  8
DATA
  6
Continuous
 62
     7
100
AcDbCircle
 10
-109.7523932763758
 20
-379.0
 30
0.0
 40
1.399999999999977
100
AcDbArc
 50
270.0
 51
90.0
  0
LINE
  5
F7
330
42D
100
AcDbEntity
  8
DATA
  6
Continuous
 62
     7
100
AcDbLine
 10
-110.2476067236241
 20
-377.6
 30
0.0
 11
-109.7523932763758
 21
-377.6
 31
0.0
  0
LINE
  5
F8
330
42D
100
AcDbEntity
  8
DATA
  6
Continuous
 62
     7
100
AcDbLine
 10
-110.2476067236241
 20
-380.3999999999999
 30
0.0
 11
-109.7523932763758
 21
-380.3999999999999
 31
0.0
  0
ARC
  5
F9
330
42D
100
AcDbEntity
  8
DATA
  6
Continuous
 62
     7
100
AcDbCircle
 10
-101.2476067236241
 20
-379.0
 30
0.0
 40
1.399999999999977
100
AcDbArc
 50
90.0
 51
270.0
  0
ARC
  5
FA
330
42D
100
AcDbEntity
  8
DATA
  6
Continuous
 62
     7
100
AcDbCircle
 10
-100.7523932763758
 20
-379.0
 30
0.0
 40
1.399999999999977
100
AcDbArc
 50
270.0
 51
90.0
  0
LINE
  5
FB
330
42D
100
AcDbEntity
  8
DATA
  6
Continuous
 62
     7
100
AcDbLine
 10
-101.2476067236241
 20
-377.6
 30
0.0
 11
-100.7523932763758
 21
-377.6
 31
0.0
  0
LINE
  5
FC
330
42D
100
AcDbEntity
  8
DATA
  6
Continuous
 62
     7
100
AcDbLine
 10
-101.2476067236241
 20
-380.3999999999999
 30
0.0
 11
-100.7523932763758
 21
-380.3999999999999
 31
0.0
  0
ARC
  5
FD
330
42D
100
AcDbEntity
  8
DATA
  6
Continuous
 62
     7
100
AcDbCircle
 10
-92.24760672362412
 20
-379.0
 30
0.0
 40
1.399999999999977
100
AcDbArc
 50
90.0
 51
270.0
  0
ARC
  5
FE
330
42D
100
AcDbEntity
  8
DATA
  6
Continuous
 62
     7
100
AcDbCircle
 10
-91.75239327637587
 20
-379.0
 30
0.0
 40
1.399999999999977
100
AcDbArc
 50
270.0
 51
90.0
  0
LINE
  5
FF
330
42D
100
AcDbEntity
  8
DATA
  6
Continuous
 62
     7
100
AcDbLine
 10
-92.24760672362412
 20
-377.6
 30
0.0
 11
-91.75239327637587
 21
-377.6
 31
0.0
  0
LINE
  5
100
330
42D
100
AcDbEntity
  8
DATA
  6
Continuous
 62
     7
100
AcDbLine
 10
-92.24760672362412
 20
-380.3999999999999
 30
0.0
 11
-91.75239327637587
 21
-380.3999999999999
 31
0.0
  0
ARC
  5
101
330
42D
100
AcDbEntity
  8
DATA
  6
Continuous
 62
     7
100
AcDbCircle
 10
-83.24760672362414
 20
-379.0
 30
0.0
 40
1.399999999999977
100
AcDbArc
 50
90.0
 51
270.0
  0
ARC
  5
102
330
42D
100
AcDbEntity
  8
DATA
  6
Continuous
 62
     7
100
AcDbCircle
 10
-82.75239327637587
 20
-379.0
 30
0.0
 40
1.399999999999977
100
AcDbArc
 50
270.0
 51
90.0
  0
LINE
  5
103
330
42D
100
AcDbEntity
  8
DATA
  6
Continuous
 62
     7
100
AcDbLine
 10
-83.24760672362414
 20
-377.6
 30
0.0
 11
-82.75239327637587
 21
-377.6
 31
0.0
  0
LINE
  5
104
330
42D
100
AcDbEntity
  8
DATA
  6
Continuous
 62
     7
100
AcDbLine
 10
-83.24760672362414
 20
-380.3999999999999
 30
0.0
 11
-82.75239327637587
 21
-380.3999999999999
 31
0.0
  0
ARC
  5
105
330
42D
100
AcDbEntity
  8
DATA
  6
Continuous
 62
     7
100
AcDbCircle
 10
-74.24760672362413
 20
-379.0
 30
0.0
 40
1.399999999999977
100
AcDbArc
 50
90.0
 51
270.0
  0
ARC
  5
106
330
42D
100
AcDbEntity
  8
DATA
  6
Continuous
 62
     7
100
AcDbCircle
 10
-73.75239327637586
 20
-379.0
 30
0.0
 40
1.399999999999977
100
AcDbArc
 50
270.0
 51
90.0
  0
LINE
  5
107
330
42D
100
AcDbEntity
  8
DATA
  6
Continuous
 62
     7
100
AcDbLine
 10
-74.24760672362413
 20
-377.6
 30
0.0
 11
-73.75239327637586
 21
-377.6
 31
0.0
  0
LINE
  5
108
330
42D
100
AcDbEntity
  8
DATA
  6
Continuous
 62
     7
100
AcDbLine
 10
-74.24760672362413
 20
-380.3999999999999
 30
0.0
 11
-73.75239327637586
 21
-380.3999999999999
 31
0.0
  0
ARC
  5
109
330
42D
100
AcDbEntity
  8
DATA
  6
Continuous
 62
     7
100
AcDbCircle
 10
-65.24760672362413
 20
-379.0
 30
0.0
 40
1.399999999999977
100
AcDbArc
 50
90.0
 51
270.0
  0
ARC
  5
10A
330
42D
100
AcDbEntity
  8
DATA
  6
Continuous
 62
     7
100
AcDbCircle
 10
-64.75239327637585
 20
-379.0
 30
0.0
 40
1.399999999999977
100
AcDbArc
 50
270.0
 51
90.0
  0
LINE
  5
10B
330
42D
100
AcDbEntity
  8
DATA
  6
Continuous
 62
     7
100
AcDbLine
 10
-65.24760672362413
 20
-377.6
 30
0.0
 11
-64.75239327637585
 21
-377.6
 31
0.0
  0
LINE
  5
10C
330
42D
100
AcDbEntity
  8
DATA
  6
Continuous
 62
     7
100
AcDbLine
 10
-65.24760672362413
 20
-380.3999999999999
 30
0.0
 11
-64.75239327637585
 21
-380.3999999999999
 31
0.0
  0
ARC
  5
10D
330
42D
100
AcDbEntity
  8
DATA
  6
Continuous
 62
     7
100
AcDbCircle
 10
-56.24760672362413
 20
-379.0
 30
0.0
 40
1.399999999999977
100
AcDbArc
 50
90.0
 51
270.0
  0
ARC
  5
10E
330
42D
100
AcDbEntity
  8
DATA
  6
Continuous
 62
     7
100
AcDbCircle
 10
-55.75239327637586
 20
-379.0
 30
0.0
 40
1.399999999999977
100
AcDbArc
 50
270.0
 51
90.0
  0
LINE
  5
10F
330
42D
100
AcDbEntity
  8
DATA
  6
Continuous
 62
     7
100
AcDbLine
 10
-56.24760672362413
 20
-377.6
 30
0.0
 11
-55.75239327637586
 21
-377.6
 31
0.0
  0
LINE
  5
110
330
42D
100
AcDbEntity
  8
DATA
  6
Continuous
 62
     7
100
AcDbLine
 10
-56.24760672362413
 20
-380.3999999999999
 30
0.0
 11
-55.75239327637586
 21
-380.3999999999999
 31
0.0
  0
ARC
  5
111
330
42D
100
AcDbEntity
  8
DATA
  6
Continuous
 62
     7
100
AcDbCircle
 10
-47.24760672362413
 20
-379.0
 30
0.0
 40
1.399999999999977
100
AcDbArc
 50
90.0
 51
270.0
  0
ARC
  5
112
330
42D
100
AcDbEntity
  8
DATA
  6
Continuous
 62
     7
100
AcDbCircle
 10
-46.75239327637585
 20
-379.0
 30
0.0
 40
1.399999999999977
100
AcDbArc
 50
270.0
 51
90.0
  0
LINE
  5
113
330
42D
100
AcDbEntity
  8
DATA
  6
Continuous
 62
     7
100
AcDbLine
 10
-47.24760672362413
 20
-377.6
 30
0.0
 11
-46.75239327637585
 21
-377.6
 31
0.0
  0
LINE
  5
114
330
42D
100
AcDbEntity
  8
DATA
  6
Continuous
 62
     7
100
AcDbLine
 10
-47.24760672362413
 20
-380.3999999999999
 30
0.0
 11
-46.75239327637585
 21
-380.3999999999999
 31
0.0
  0
TEXT
  5
115
330
42D
100
AcDbEntity
  8
DATA
 62
     7
100
AcDbText
 10
-30.56896000074016
 20
-392.0711610066488
 30
0.0
 40
1.751329999999999
  1
0
 41
0.7
 11
-30.56896000074016
 21
-391.1954960066487
 31
0.0
100
AcDbText
 73
     2
  0
TEXT
  5
116
330
42D
100
AcDbEntity
  8
DATA
 62
     7
100
AcDbText
 10
-30.56896000074016
 20
-389.2711610066488
 30
0.0
 40
1.751329999999999
  1
6
 41
0.7
 11
-30.56896000074016
 21
-388.3954960066487
 31
0.0
100
AcDbText
 73
     2
  0
TEXT
  5
117
330
42D
100
AcDbEntity
  8
DATA
 62
     7
100
AcDbText
 10
-31.21653421026167
 20
-386.4711610066487
 30
0.0
 40
1.751329999999999
  1
12
 41
0.7
 11
-31.21653421026167
 21
-385.5954960066487
 31
0.0
100
AcDbText
 73
     2
  0
TEXT
  5
118
330
42D
100
AcDbEntity
  8
DATA
 62
     7
100
AcDbText
 10
-31.21653421026167
 20
-383.6711610066487
 30
0.0
 40
1.751329999999999
  1
18
 41
0.7
 11
-31.21653421026167
 21
-382.7954960066487
 31
0.0
100
AcDbText
 73
     2
  0
TEXT
  5
119
330
42D
100
AcDbEntity
  8
DATA
 62
     7
100
AcDbText
 10
-31.21653421026167
 20
-380.8711610066487
 30
0.0
 40
1.751329999999999
  1
24
 41
0.7
 11
-31.21653421026167
 21
-379.9954960066487
 31
0.0
100
AcDbText
 73
     2
  0
TEXT
  5
11A
330
42D
100
AcDbEntity
  8
DATA
 62
     7
100
AcDbText
 10
-31.21653421026167
 20
-378.0711610066488
 30
0.0
 40
1.751329999999999
  1
30
 41
0.7
 11
-31.21653421026167
 21
-377.1954960066488
 31
0.0
100
AcDbText
 73
     2
  0
TEXT
  5
11B
330
42D
100
AcDbEntity
  8
DATA
 62
     7
100
AcDbText
 10
-31.21653421026167
 20
-375.2711610066488
 30
0.0
 40
1.751329999999999
  1
36
 41
0.7
 11
-31.21653421026167
 21
-374.3954960066487
 31
0.0
100
AcDbText
 73
     2
  0
TEXT
  5
11C
330
42D
100
AcDbEntity
  8
DATA
 62
     7
100
AcDbText
 10
-31.21653421026167
 20
-372.4711610066488
 30
0.0
 40
1.751329999999999
  1
42
 41
0.7
 11
-31.21653421026167
 21
-371.5954960066487
 31
0.0
100
AcDbText
 73
     2
  0
TEXT
  5
11D
330
42D
100
AcDbEntity
  8
DATA
 62
     7
100
AcDbText
 10
-31.21653421026167
 20
-369.6711610066487
 30
0.0
 40
1.751329999999999
  1
48
 41
0.7
 11
-31.21653421026167
 21
-368.7954960066487
 31
0.0
100
AcDbText
 73
     2
  0
ARC
  5
11E
330
42D
100
AcDbEntity
  8
DATA
  6
Continuous
 62
     7
100
AcDbCircle
 10
-36.00000000000046
 20
-371.8774803934425
 30
0.0
 40
4.499999999999669
100
AcDbArc
 50
213.1854586454424
 51
146.8145413545588
  0
LINE
  5
11F
330
42D
100
AcDbEntity
  8
DATA
  6
Continuous
 62
     7
100
AcDbLine
 10
-39.76606464773136
 20
-369.4144016149403
 30
0.0
 11
-112.340684446668
 21
-369.4144016149403
 31
0.0
  0
LINE
  5
120
330
42D
100
AcDbEntity
  8
DATA
  6
Continuous
 62
     7
100
AcDbLine
 10
-39.76606464773136
 20
-374.3405591719449
 30
0.0
 11
-112.340684446668
 21
-374.3405591719449
 31
0.0
  0
LINE
  5
121
330
42D
100
AcDbEntity
  8
DATA
  6
Continuous
 62
     7
100
AcDbLine
 10
-113.340684446668
 20
-370.4144016149403
 30
0.0
 11
-113.340684446668
 21
-373.3405591719449
 31
0.0
  0
ARC
  5
122
330
42D
100
AcDbEntity
  8
DATA
  6
Continuous
 62
     7
100
AcDbCircle
 10
-112.340684446668
 20
-370.4144016149403
 30
0.0
 40
1.0
100
AcDbArc
 50
90.0
 51
180.0
  0
ARC
  5
123
330
42D
100
AcDbEntity
  8
DATA
  6
Continuous
 62
     7
100
AcDbCircle
 10
-112.340684446668
 20
-373.3405591719449
 30
0.0
 40
1.0
100
AcDbArc
 50
180.0
 51
270.0
  0
LINE
  5
124
330
42D
100
AcDbEntity
  8
DATA
  6
Continuous
 62
     7
100
AcDbLine
 10
19.0
 20
-344.9999999999999
 30
0.0
 11
-200.0
 21
-344.9999999999999
 31
0.0
  0
LINE
  5
125
330
42D
100
AcDbEntity
  8
DATA
  6
Continuous
 62
     7
100
AcDbLine
 10
19.0
 20
-348.4999999999999
 30
0.0
 11
-200.0
 21
-348.4999999999999
 31
0.0
  0
CIRCLE
  5
126
330
42D
100
AcDbEntity
  8
DATA
  6
Continuous
 62
     7
100
AcDbCircle
 10
-150.5
 20
-337.9999999999999
 30
0.0
 40
2.700000000000045
  0
LINE
  5
127
330
42D
100
AcDbEntity
  8
DATA
  6
Continuous
 62
     7
100
AcDbLine
 10
-152.0390648526656
 20
-337.9999999999999
 30
0.0
 11
-148.9609351473343
 21
-337.9999999999999
 31
0.0
  0
LINE
  5
128
330
42D
100
AcDbEntity
  8
DATA
  6
Continuous
 62
     7
100
AcDbLine
 10
-150.5
 20
-339.5390648526657
 30
0.0
 11
-150.5
 21
-336.4609351473342
 31
0.0
  0
CIRCLE
  5
129
330
42D
100
AcDbEntity
  8
DATA
  6
Continuous
 62
     7
100
AcDbCircle
 10
-30.5
 20
-337.9999999999999
 30
0.0
 40
2.700000000000045
  0
LINE
  5
12A
330
42D
100
AcDbEntity
  8
DATA
  6
Continuous
 62
     7
100
AcDbLine
 10
-28.96093514733434
 20
-337.9999999999999
 30
0.0
 11
-32.03906485266566
 21
-337.9999999999999
 31
0.0
  0
LINE
  5
12B
330
42D
100
AcDbEntity
  8
DATA
  6
Continuous
 62
     7
100
AcDbLine
 10
-30.5
 20
-339.5390648526657
 30
0.0
 11
-30.5
 21
-336.4609351473342
 31
0.0
  0
LINE
  5
12C
330
42D
100
AcDbEntity
  8
DATA
  6
Continuous
 62
     7
100
AcDbLine
 10
19.02000000029284
 20
-95.49999999999995
 30
0.0
 11
19.02000000029284
 21
-137.5
 31
0.0
  0
LINE
  5
12D
330
42D
100
AcDbEntity
  8
DATA
  6
Continuous
 62
     7
100
AcDbLine
 10
-199.9799999997072
 20
-95.49999999999995
 30
0.0
 11
19.02000000029284
 21
-95.49999999999995
 31
0.0
  0
LINE
  5
12E
330
42D
100
AcDbEntity
  8
DATA
  6
Continuous
 62
     7
100
AcDbLine
 10
-199.9799999997072
 20
-137.5
 30
0.0
 11
-199.9799999997072
 21
-95.49999999999995
 31
0.0
  0
LINE
  5
12F
330
42D
100
AcDbEntity
  8
DATA
  6
Continuous
 62
     7
100
AcDbLine
 10
19.02000000029284
 20
-137.5
 30
0.0
 11
-199.9799999997072
 21
-137.5
 31
0.0
  0
LINE
  5
130
330
42D
100
AcDbEntity
  8
DATA
  6
Continuous
 62
     7
100
AcDbLine
 10
-198.9799999997072
 20
-124.4681233177313
 30
0.0
 11
-198.9799999997072
 21
-97.99999999999997
 31
0.0
  0
LINE
  5
131
330
42D
100
AcDbEntity
  8
DATA
  6
Continuous
 62
     7
100
AcDbLine
 10
-197.4799999997072
 20
-96.49999999999996
 30
0.0
 11
16.52000000029284
 21
-96.49999999999996
 31
0.0
  0
LINE
  5
132
330
42D
100
AcDbEntity
  8
DATA
  6
Continuous
 62
     7
100
AcDbLine
 10
-185.4799999997072
 20
-111.4999999999948
 30
0.0
 11
-155.4799999997071
 21
-111.4999999999948
 31
0.0
  0
LINE
  5
133
330
42D
100
AcDbEntity
  8
DATA
  6
Continuous
 62
     7
100
AcDbLine
 10
-185.4799999997072
 20
-110.4999999999948
 30
0.0
 11
-183.9799999997072
 21
-110.4999999999948
 31
0.0
  0
LINE
  5
134
330
42D
100
AcDbEntity
  8
DATA
  6
Continuous
 62
     7
100
AcDbLine
 10
-183.9799999997072
 20
-110.4999999999948
 30
0.0
 11
-184.4799999997072
 21
-111.4999999999948
 31
0.0
  0
LINE
  5
135
330
42D
100
AcDbEntity
  8
DATA
  6
Continuous
 62
     7
100
AcDbLine
 10
-181.4799999997072
 20
-111.4999999999948
 30
0.0
 11
-181.9799999997072
 21
-110.4999999999948
 31
0.0
  0
LINE
  5
136
330
42D
100
AcDbEntity
  8
DATA
  6
Continuous
 62
     7
100
AcDbLine
 10
-181.9799999997072
 20
-110.4999999999948
 30
0.0
 11
-178.9799999997071
 21
-110.4999999999948
 31
0.0
  0
LINE
  5
137
330
42D
100
AcDbEntity
  8
DATA
  6
Continuous
 62
     7
100
AcDbLine
 10
-178.9799999997071
 20
-110.4999999999948
 30
0.0
 11
-179.4799999997071
 21
-111.4999999999948
 31
0.0
  0
LINE
  5
138
330
42D
100
AcDbEntity
  8
DATA
  6
Continuous
 62
     7
100
AcDbLine
 10
-176.4799999997071
 20
-111.4999999999948
 30
0.0
 11
-176.9799999997071
 21
-110.4999999999948
 31
0.0
  0
LINE
  5
139
330
42D
100
AcDbEntity
  8
DATA
  6
Continuous
 62
     7
100
AcDbLine
 10
-176.9799999997071
 20
-110.4999999999948
 30
0.0
 11
-173.9799999997071
 21
-110.4999999999948
 31
0.0
  0
LINE
  5
13A
330
42D
100
AcDbEntity
  8
DATA
  6
Continuous
 62
     7
100
AcDbLine
 10
-173.9799999997071
 20
-110.4999999999948
 30
0.0
 11
-174.4799999997071
 21
-111.4999999999948
 31
0.0
  0
LINE
  5
13B
330
42D
100
AcDbEntity
  8
DATA
  6
Continuous
 62
     7
100
AcDbLine
 10
-171.4799999997071
 20
-111.4999999999948
 30
0.0
 11
-171.9799999997071
 21
-110.4999999999948
 31
0.0
  0
LINE
  5
13C
330
42D
100
AcDbEntity
  8
DATA
  6
Continuous
 62
     7
100
AcDbLine
 10
-171.9799999997071
 20
-110.4999999999948
 30
0.0
 11
-168.9799999997071
 21
-110.4999999999948
 31
0.0
  0
LINE
  5
13D
330
42D
100
AcDbEntity
  8
DATA
  6
Continuous
 62
     7
100
AcDbLine
 10
-168.9799999997071
 20
-110.4999999999948
 30
0.0
 11
-169.4799999997071
 21
-111.4999999999948
 31
0.0
  0
LINE
  5
13E
330
42D
100
AcDbEntity
  8
DATA
  6
Continuous
 62
     7
100
AcDbLine
 10
-166.4799999997071
 20
-111.4999999999948
 30
0.0
 11
-166.9799999997071
 21
-110.4999999999948
 31
0.0
  0
LINE
  5
13F
330
42D
100
AcDbEntity
  8
DATA
  6
Continuous
 62
     7
100
AcDbLine
 10
-166.9799999997071
 20
-110.4999999999948
 30
0.0
 11
-163.9799999997071
 21
-110.4999999999948
 31
0.0
  0
LINE
  5
140
330
42D
100
AcDbEntity
  8
DATA
  6
Continuous
 62
     7
100
AcDbLine
 10
-163.9799999997071
 20
-110.4999999999948
 30
0.0
 11
-164.4799999997071
 21
-111.4999999999948
 31
0.0
  0
LINE
  5
141
330
42D
100
AcDbEntity
  8
DATA
  6
Continuous
 62
     7
100
AcDbLine
 10
-161.4799999997071
 20
-111.4999999999948
 30
0.0
 11
-161.9799999997071
 21
-110.4999999999948
 31
0.0
  0
LINE
  5
142
330
42D
100
AcDbEntity
  8
DATA
  6
Continuous
 62
     7
100
AcDbLine
 10
-161.9799999997071
 20
-110.4999999999948
 30
0.0
 11
-158.9799999997071
 21
-110.4999999999948
 31
0.0
  0
LINE
  5
143
330
42D
100
AcDbEntity
  8
DATA
  6
Continuous
 62
     7
100
AcDbLine
 10
-158.9799999997071
 20
-110.4999999999948
 30
0.0
 11
-159.4799999997071
 21
-111.4999999999948
 31
0.0
  0
LINE
  5
144
330
42D
100
AcDbEntity
  8
DATA
  6
Continuous
 62
     7
100
AcDbLine
 10
-155.4799999997071
 20
-110.4999999999948
 30
0.0
 11
-156.9799999997071
 21
-110.4999999999948
 31
0.0
  0
LINE
  5
145
330
42D
100
AcDbEntity
  8
DATA
  6
Continuous
 62
     7
100
AcDbLine
 10
-156.9799999997071
 20
-110.4999999999948
 30
0.0
 11
-156.4799999997071
 21
-111.4999999999948
 31
0.0
  0
LWPOLYLINE
  5
146
330
42D
100
AcDbEntity
  8
DATA
  6
Continuous
 62
     7
100
AcDbPolyline
 90
        4
 70
     1
 43
0.0
 10
-183.4799999997072
 20
-106.9999999999948
 10
-182.4799999997072
 20
-106.9999999999948
 10
-182.4799999997072
 20
-107.9999999999948
 10
-183.4799999997072
 20
-107.9999999999948
  0
LWPOLYLINE
  5
14D
330
42D
100
AcDbEntity
  8
DATA
  6
Continuous
 62
     7
100
AcDbPolyline
 90
        4
 70
     1
 43
0.0
 10
-178.4799999997071
 20
-106.9999999999948
 10
-177.4799999997071
 20
-106.9999999999948
 10
-177.4799999997071
 20
-107.9999999999948
 10
-178.4799999997071
 20
-107.9999999999948
  0
LWPOLYLINE
  5
154
330
42D
100
AcDbEntity
  8
DATA
  6
Continuous
 62
     7
100
AcDbPolyline
 90
        4
 70
     1
 43
0.0
 10
-173.4799999997071
 20
-106.9999999999948
 10
-172.4799999997071
 20
-106.9999999999948
 10
-172.4799999997071
 20
-107.9999999999948
 10
-173.4799999997071
 20
-107.9999999999948
  0
LWPOLYLINE
  5
15B
330
42D
100
AcDbEntity
  8
DATA
  6
Continuous
 62
     7
100
AcDbPolyline
 90
        4
 70
     1
 43
0.0
 10
-168.4799999997074
 20
-106.9999999999948
 10
-167.4799999997071
 20
-106.9999999999948
 10
-167.4799999997071
 20
-107.9999999999948
 10
-168.4799999997074
 20
-107.9999999999948
  0
LWPOLYLINE
  5
162
330
42D
100
AcDbEntity
  8
DATA
  6
Continuous
 62
     7
100
AcDbPolyline
 90
        4
 70
     1
 43
0.0
 10
-163.4799999997074
 20
-106.9999999999948
 10
-162.4799999997071
 20
-106.9999999999948
 10
-162.4799999997071
 20
-107.9999999999948
 10
-163.4799999997074
 20
-107.9999999999948
  0
LWPOLYLINE
  5
169
330
42D
100
AcDbEntity
  8
DATA
  6
Continuous
 62
     7
100
AcDbPolyline
 90
        4
 70
     1
 43
0.0
 10
-158.4799999997074
 20
-106.9999999999948
 10
-157.4799999997071
 20
-106.9999999999948
 10
-157.4799999997071
 20
-107.9999999999948
 10
-158.4799999997074
 20
-107.9999999999948
  0
LINE
  5
170
330
42D
100
AcDbEntity
  8
DATA
  6
Continuous
 62
     7
100
AcDbLine
 10
-185.4799999997072
 20
-111.9999999999948
 30
0.0
 11
-185.4799999997072
 21
-103.4999999999948
 31
0.0
  0
ARC
  5
171
330
42D
100
AcDbEntity
  8
DATA
  6
Continuous
 62
     7
100
AcDbCircle
 10
-182.9799999997072
 20
-108.1249999999948
 30
0.0
 40
3.625
100
AcDbArc
 50
46.39718102729637
 51
133.6028189727036
  0
ARC
  5
172
330
42D
100
AcDbEntity
  8
DATA
  6
Continuous
 62
     7
100
AcDbCircle
 10
-177.9799999997071
 20
-108.1249999999948
 30
0.0
 40
3.625
100
AcDbArc
 50
46.39718102729637
 51
133.6028189727036
  0
ARC
  5
173
330
42D
100
AcDbEntity
  8
DATA
  6
Continuous
 62
     7
100
AcDbCircle
 10
-172.9799999997071
 20
-108.1249999999948
 30
0.0
 40
3.625
100
AcDbArc
 50
46.39718102729637
 51
133.6028189727036
  0
ARC
  5
174
330
42D
100
AcDbEntity
  8
DATA
  6
Continuous
 62
     7
100
AcDbCircle
 10
-167.9799999997071
 20
-108.1249999999948
 30
0.0
 40
3.625
100
AcDbArc
 50
46.39718102729637
 51
133.6028189727036
  0
ARC
  5
175
330
42D
100
AcDbEntity
  8
DATA
  6
Continuous
 62
     7
100
AcDbCircle
 10
-162.9799999997071
 20
-108.1249999999948
 30
0.0
 40
3.625
100
AcDbArc
 50
46.39718102729637
 51
133.6028189727036
  0
ARC
  5
176
330
42D
100
AcDbEntity
  8
DATA
  6
Continuous
 62
     7
100
AcDbCircle
 10
-157.9799999997071
 20
-108.1249999999948
 30
0.0
 40
3.625
100
AcDbArc
 50
46.39718102729637
 51
133.6028189727036
  0
LINE
  5
177
330
42D
100
AcDbEntity
  8
DATA
  6
Continuous
 62
     7
100
AcDbLine
 10
-155.4799999997071
 20
-103.4999999999948
 30
0.0
 11
-155.4799999997071
 21
-111.9999999999948
 31
0.0
  0
ARC
  5
178
330
42D
100
AcDbEntity
  8
DATA
  6
Continuous
 62
     7
100
AcDbCircle
 10
-182.9799999997072
 20
-107.6249999999948
 30
0.0
 40
3.625
100
AcDbArc
 50
46.39718102729637
 51
133.6028189727036
  0
ARC
  5
179
330
42D
100
AcDbEntity
  8
DATA
  6
Continuous
 62
     7
100
AcDbCircle
 10
-177.9799999997071
 20
-107.6249999999948
 30
0.0
 40
3.625
100
AcDbArc
 50
46.39718102729637
 51
133.6028189727036
  0
ARC
  5
17A
330
42D
100
AcDbEntity
  8
DATA
  6
Continuous
 62
     7
100
AcDbCircle
 10
-172.9799999997071
 20
-107.6249999999948
 30
0.0
 40
3.625
100
AcDbArc
 50
46.39718102729637
 51
133.6028189727036
  0
ARC
  5
17B
330
42D
100
AcDbEntity
  8
DATA
  6
Continuous
 62
     7
100
AcDbCircle
 10
-167.9799999997071
 20
-107.6249999999948
 30
0.0
 40
3.625
100
AcDbArc
 50
46.39718102729637
 51
133.6028189727036
  0
ARC
  5
17C
330
42D
100
AcDbEntity
  8
DATA
  6
Continuous
 62
     7
100
AcDbCircle
 10
-162.9799999997071
 20
-107.6249999999948
 30
0.0
 40
3.625
100
AcDbArc
 50
46.39718102729637
 51
133.6028189727036
  0
ARC
  5
17D
330
42D
100
AcDbEntity
  8
DATA
  6
Continuous
 62
     7
100
AcDbCircle
 10
-157.9799999997071
 20
-107.6249999999948
 30
0.0
 40
3.625
100
AcDbArc
 50
46.39718102729637
 51
133.6028189727036
  0
LINE
  5
17E
330
42D
100
AcDbEntity
  8
DATA
  6
Continuous
 62
     7
100
AcDbLine
 10
-185.4799999997072
 20
-111.9999999999948
 30
0.0
 11
-155.4799999997071
 21
-111.9999999999948
 31
0.0
  0
TEXT
  5
17F
330
42D
100
AcDbEntity
  8
DATA
 62
     7
100
AcDbText
 10
-181.9799999997072
 20
-99.14769990531807
 30
0.0
 40
2.693359375
  1
-
 50
180.0
 41
0.7
 11
-181.9799999997072
 21
-101.841059280318
 31
0.0
100
AcDbText
 73
     3
  0
TEXT
  5
180
330
42D
100
AcDbEntity
  8
DATA
 62
     7
100
AcDbText
 10
-177.1049999997071
 20
-99.14769990531807
 30
0.0
 40
2.693359375
  1
+
 50
180.0
 41
0.7
 11
-177.1049999997071
 21
-101.841059280318
 31
0.0
100
AcDbText
 73
     3
  0
TEXT
  5
181
330
42D
100
AcDbEntity
  8
DATA
 62
     7
100
AcDbText
 10
-171.9799999997071
 20
-99.14769990531807
 30
0.0
 40
2.693359375
  1
S
 50
180.0
 41
0.7
 11
-171.9799999997071
 21
-101.841059280318
 31
0.0
100
AcDbText
 73
     3
  0
TEXT
  5
182
330
42D
100
AcDbEntity
  8
DATA
 62
     7
100
AcDbText
 10
-167.1049999997071
 20
-99.14769990531807
 30
0.0
 40
2.693359375
  1
-
 50
180.0
 41
0.7
 11
-167.1049999997071
 21
-101.841059280318
 31
0.0
100
AcDbText
 73
     3
  0
TEXT
  5
183
330
42D
100
AcDbEntity
  8
DATA
 62
     7
100
AcDbText
 10
-162.2299999997071
 20
-99.14769990531807
 30
0.0
 40
2.693359375
  1
+
 50
180.0
 41
0.7
 11
-162.2299999997071
 21
-101.841059280318
 31
0.0
100
AcDbText
 73
     3
  0
TEXT
  5
184
330
42D
100
AcDbEntity
  8
DATA
 62
     7
100
AcDbText
 10
-157.1049999997071
 20
-99.14769990531807
 30
0.0
 40
2.693359375
  1
S
 50
180.0
 41
0.7
 11
-157.1049999997071
 21
-101.841059280318
 31
0.0
100
AcDbText
 73
     3
  0
LINE
  5
185
330
42D
100
AcDbEntity
  8
DATA
  6
Continuous
 62
     7
100
AcDbLine
 10
-185.4799999997072
 20
-101.782699905318
 30
0.0
 11
-185.4799999997072
 21
-98.28269990531808
 31
0.0
  0
LINE
  5
186
330
42D
100
AcDbEntity
  8
DATA
  6
Continuous
 62
     7
100
AcDbLine
 10
-185.4799999997072
 20
-98.40769990531807
 30
0.0
 11
-155.4799999997071
 21
-98.40769990531807
 31
0.0
  0
LINE
  5
187
330
42D
100
AcDbEntity
  8
DATA
  6
Continuous
 62
     7
100
AcDbLine
 10
-155.4799999997071
 20
-98.40769990531807
 30
0.0
 11
-155.4799999997071
 21
-101.907699905318
 31
0.0
  0
TEXT
  5
188
330
42D
100
AcDbEntity
  8
DATA
 62
     7
100
AcDbText
 10
-176.5251861586548
 20
-113.2927755807731
 30
0.0
 40
4.343576388888889
  1
1
 50
180.0
 41
0.7
 11
-176.5251861586548
 21
-117.636351969662
 31
0.0
100
AcDbText
 73
     3
  0
LINE
  5
189
330
42D
100
AcDbEntity
  8
DATA
  6
Continuous
 62
     7
100
AcDbLine
 10
-185.4799999997072
 20
-103.4999999999948
 30
0.0
 11
-155.4799999997071
 21
-103.4999999999948
 31
0.0
  0
LINE
  5
18A
330
42D
100
AcDbEntity
  8
DATA
  6
Continuous
 62
     7
100
AcDbLine
 10
-152.9799999997071
 20
-111.4999999999948
 30
0.0
 11
-122.9799999997071
 21
-111.4999999999948
 31
0.0
  0
LINE
  5
18B
330
42D
100
AcDbEntity
  8
DATA
  6
Continuous
 62
     7
100
AcDbLine
 10
-152.9799999997071
 20
-110.4999999999948
 30
0.0
 11
-151.4799999997071
 21
-110.4999999999948
 31
0.0
  0
LINE
  5
18C
330
42D
100
AcDbEntity
  8
DATA
  6
Continuous
 62
     7
100
AcDbLine
 10
-151.4799999997071
 20
-110.4999999999948
 30
0.0
 11
-151.9799999997071
 21
-111.4999999999948
 31
0.0
  0
LINE
  5
18D
330
42D
100
AcDbEntity
  8
DATA
  6
Continuous
 62
     7
100
AcDbLine
 10
-148.9799999997071
 20
-111.4999999999948
 30
0.0
 11
-149.4799999997071
 21
-110.4999999999948
 31
0.0
  0
LINE
  5
18E
330
42D
100
AcDbEntity
  8
DATA
  6
Continuous
 62
     7
100
AcDbLine
 10
-149.4799999997071
 20
-110.4999999999948
 30
0.0
 11
-146.4799999997071
 21
-110.4999999999948
 31
0.0
  0
LINE
  5
18F
330
42D
100
AcDbEntity
  8
DATA
  6
Continuous
 62
     7
100
AcDbLine
 10
-146.4799999997071
 20
-110.4999999999948
 30
0.0
 11
-146.9799999997071
 21
-111.4999999999948
 31
0.0
  0
LINE
  5
190
330
42D
100
AcDbEntity
  8
DATA
  6
Continuous
 62
     7
100
AcDbLine
 10
-143.9799999997071
 20
-111.4999999999948
 30
0.0
 11
-144.4799999997071
 21
-110.4999999999948
 31
0.0
  0
LINE
  5
191
330
42D
100
AcDbEntity
  8
DATA
  6
Continuous
 62
     7
100
AcDbLine
 10
-144.4799999997071
 20
-110.4999999999948
 30
0.0
 11
-141.4799999997071
 21
-110.4999999999948
 31
0.0
  0
LINE
  5
192
330
42D
100
AcDbEntity
  8
DATA
  6
Continuous
 62
     7
100
AcDbLine
 10
-141.4799999997071
 20
-110.4999999999948
 30
0.0
 11
-141.9799999997071
 21
-111.4999999999948
 31
0.0
  0
LINE
  5
193
330
42D
100
AcDbEntity
  8
DATA
  6
Continuous
 62
     7
100
AcDbLine
 10
-138.9799999997071
 20
-111.4999999999948
 30
0.0
 11
-139.4799999997071
 21
-110.4999999999948
 31
0.0
  0
LINE
  5
194
330
42D
100
AcDbEntity
  8
DATA
  6
Continuous
 62
     7
100
AcDbLine
 10
-139.4799999997071
 20
-110.4999999999948
 30
0.0
 11
-136.4799999997071
 21
-110.4999999999948
 31
0.0
  0
LINE
  5
195
330
42D
100
AcDbEntity
  8
DATA
  6
Continuous
 62
     7
100
AcDbLine
 10
-136.4799999997071
 20
-110.4999999999948
 30
0.0
 11
-136.9799999997071
 21
-111.4999999999948
 31
0.0
  0
LINE
  5
196
330
42D
100
AcDbEntity
  8
DATA
  6
Continuous
 62
     7
100
AcDbLine
 10
-133.9799999997071
 20
-111.4999999999948
 30
0.0
 11
-134.4799999997071
 21
-110.4999999999948
 31
0.0
  0
LINE
  5
197
330
42D
100
AcDbEntity
  8
DATA
  6
Continuous
 62
     7
100
AcDbLine
 10
-134.4799999997071
 20
-110.4999999999948
 30
0.0
 11
-131.4799999997071
 21
-110.4999999999948
 31
0.0
  0
LINE
  5
198
330
42D
100
AcDbEntity
  8
DATA
  6
Continuous
 62
     7
100
AcDbLine
 10
-131.4799999997071
 20
-110.4999999999948
 30
0.0
 11
-131.9799999997071
 21
-111.4999999999948
 31
0.0
  0
LINE
  5
199
330
42D
100
AcDbEntity
  8
DATA
  6
Continuous
 62
     7
100
AcDbLine
 10
-128.9799999997071
 20
-111.4999999999948
 30
0.0
 11
-129.4799999997071
 21
-110.4999999999948
 31
0.0
  0
LINE
  5
19A
330
42D
100
AcDbEntity
  8
DATA
  6
Continuous
 62
     7
100
AcDbLine
 10
-129.4799999997071
 20
-110.4999999999948
 30
0.0
 11
-126.4799999997071
 21
-110.4999999999948
 31
0.0
  0
LINE
  5
19B
330
42D
100
AcDbEntity
  8
DATA
  6
Continuous
 62
     7
100
AcDbLine
 10
-126.4799999997071
 20
-110.4999999999948
 30
0.0
 11
-126.9799999997071
 21
-111.4999999999948
 31
0.0
  0
LINE
  5
19C
330
42D
100
AcDbEntity
  8
DATA
  6
Continuous
 62
     7
100
AcDbLine
 10
-122.9799999997071
 20
-110.4999999999948
 30
0.0
 11
-124.4799999997071
 21
-110.4999999999948
 31
0.0
  0
LINE
  5
19D
330
42D
100
AcDbEntity
  8
DATA
  6
Continuous
 62
     7
100
AcDbLine
 10
-124.4799999997071
 20
-110.4999999999948
 30
0.0
 11
-123.9799999997071
 21
-111.4999999999948
 31
0.0
  0
LWPOLYLINE
  5
19E
330
42D
100
AcDbEntity
  8
DATA
  6
Continuous
 62
     7
100
AcDbPolyline
 90
        4
 70
     1
 43
0.0
 10
-150.9799999997071
 20
-106.9999999999948
 10
-149.9799999997071
 20
-106.9999999999948
 10
-149.9799999997071
 20
-107.9999999999948
 10
-150.9799999997071
 20
-107.9999999999948
  0
LWPOLYLINE
  5
1A5
330
42D
100
AcDbEntity
  8
DATA
  6
Continuous
 62
     7
100
AcDbPolyline
 90
        4
 70
     1
 43
0.0
 10
-145.9799999997071
 20
-106.9999999999948
 10
-144.9799999997071
 20
-106.9999999999948
 10
-144.9799999997071
 20
-107.9999999999948
 10
-145.9799999997071
 20
-107.9999999999948
  0
LWPOLYLINE
  5
1AC
330
42D
100
AcDbEntity
  8
DATA
  6
Continuous
 62
     7
100
AcDbPolyline
 90
        4
 70
     1
 43
0.0
 10
-140.9799999997071
 20
-106.9999999999948
 10
-139.9799999997071
 20
-106.9999999999948
 10
-139.9799999997071
 20
-107.9999999999948
 10
-140.9799999997071
 20
-107.9999999999948
  0
LWPOLYLINE
  5
1B3
330
42D
100
AcDbEntity
  8
DATA
  6
Continuous
 62
     7
100
AcDbPolyline
 90
        4
 70
     1
 43
0.0
 10
-135.9799999997074
 20
-106.9999999999948
 10
-134.9799999997071
 20
-106.9999999999948
 10
-134.9799999997071
 20
-107.9999999999948
 10
-135.9799999997074
 20
-107.9999999999948
  0
LWPOLYLINE
  5
1BA
330
42D
100
AcDbEntity
  8
DATA
  6
Continuous
 62
     7
100
AcDbPolyline
 90
        4
 70
     1
 43
0.0
 10
-130.9799999997074
 20
-106.9999999999948
 10
-129.9799999997071
 20
-106.9999999999948
 10
-129.9799999997071
 20
-107.9999999999948
 10
-130.9799999997074
 20
-107.9999999999948
  0
LWPOLYLINE
  5
1C1
330
42D
100
AcDbEntity
  8
DATA
  6
Continuous
 62
     7
100
AcDbPolyline
 90
        4
 70
     1
 43
0.0
 10
-125.9799999997074
 20
-106.9999999999948
 10
-124.9799999997071
 20
-106.9999999999948
 10
-124.9799999997071
 20
-107.9999999999948
 10
-125.9799999997074
 20
-107.9999999999948
  0
LINE
  5
1C8
330
42D
100
AcDbEntity
  8
DATA
  6
Continuous
 62
     7
100
AcDbLine
 10
-152.9799999997071
 20
-111.9999999999948
 30
0.0
 11
-152.9799999997071
 21
-103.4999999999948
 31
0.0
  0
ARC
  5
1C9
330
42D
100
AcDbEntity
  8
DATA
  6
Continuous
 62
     7
100
AcDbCircle
 10
-150.4799999997071
 20
-108.1249999999948
 30
0.0
 40
3.625
100
AcDbArc
 50
46.39718102729637
 51
133.6028189727036
  0
ARC
  5
1CA
330
42D
100
AcDbEntity
  8
DATA
  6
Continuous
 62
     7
100
AcDbCircle
 10
-145.4799999997071
 20
-108.1249999999948
 30
0.0
 40
3.625
100
AcDbArc
 50
46.39718102729637
 51
133.6028189727036
  0
ARC
  5
1CB
330
42D
100
AcDbEntity
  8
DATA
  6
Continuous
 62
     7
100
AcDbCircle
 10
-140.4799999997071
 20
-108.1249999999948
 30
0.0
 40
3.625
100
AcDbArc
 50
46.39718102729637
 51
133.6028189727036
  0
ARC
  5
1CC
330
42D
100
AcDbEntity
  8
DATA
  6
Continuous
 62
     7
100
AcDbCircle
 10
-135.4799999997071
 20
-108.1249999999948
 30
0.0
 40
3.625
100
AcDbArc
 50
46.39718102729637
 51
133.6028189727036
  0
ARC
  5
1CD
330
42D
100
AcDbEntity
  8
DATA
  6
Continuous
 62
     7
100
AcDbCircle
 10
-130.4799999997071
 20
-108.1249999999948
 30
0.0
 40
3.625
100
AcDbArc
 50
46.39718102729637
 51
133.6028189727036
  0
ARC
  5
1CE
330
42D
100
AcDbEntity
  8
DATA
  6
Continuous
 62
     7
100
AcDbCircle
 10
-125.4799999997071
 20
-108.1249999999948
 30
0.0
 40
3.625
100
AcDbArc
 50
46.39718102729637
 51
133.6028189727036
  0
LINE
  5
1CF
330
42D
100
AcDbEntity
  8
DATA
  6
Continuous
 62
     7
100
AcDbLine
 10
-122.9799999997071
 20
-103.4999999999948
 30
0.0
 11
-122.9799999997071
 21
-111.9999999999948
 31
0.0
  0
ARC
  5
1D0
330
42D
100
AcDbEntity
  8
DATA
  6
Continuous
 62
     7
100
AcDbCircle
 10
-150.4799999997071
 20
-107.6249999999948
 30
0.0
 40
3.625
100
AcDbArc
 50
46.39718102729637
 51
133.6028189727036
  0
ARC
  5
1D1
330
42D
100
AcDbEntity
  8
DATA
  6
Continuous
 62
     7
100
AcDbCircle
 10
-145.4799999997071
 20
-107.6249999999948
 30
0.0
 40
3.625
100
AcDbArc
 50
46.39718102729637
 51
133.6028189727036
  0
ARC
  5
1D2
330
42D
100
AcDbEntity
  8
DATA
  6
Continuous
 62
     7
100
AcDbCircle
 10
-140.4799999997071
 20
-107.6249999999948
 30
0.0
 40
3.625
100
AcDbArc
 50
46.39718102729637
 51
133.6028189727036
  0
ARC
  5
1D3
330
42D
100
AcDbEntity
  8
DATA
  6
Continuous
 62
     7
100
AcDbCircle
 10
-135.4799999997071
 20
-107.6249999999948
 30
0.0
 40
3.625
100
AcDbArc
 50
46.39718102729637
 51
133.6028189727036
  0
ARC
  5
1D4
330
42D
100
AcDbEntity
  8
DATA
  6
Continuous
 62
     7
100
AcDbCircle
 10
-130.4799999997071
 20
-107.6249999999948
 30
0.0
 40
3.625
100
AcDbArc
 50
46.39718102729637
 51
133.6028189727036
  0
ARC
  5
1D5
330
42D
100
AcDbEntity
  8
DATA
  6
Continuous
 62
     7
100
AcDbCircle
 10
-125.4799999997071
 20
-107.6249999999948
 30
0.0
 40
3.625
100
AcDbArc
 50
46.39718102729637
 51
133.6028189727036
  0
LINE
  5
1D6
330
42D
100
AcDbEntity
  8
DATA
  6
Continuous
 62
     7
100
AcDbLine
 10
-152.9799999997071
 20
-111.9999999999948
 30
0.0
 11
-122.9799999997071
 21
-111.9999999999948
 31
0.0
  0
TEXT
  5
1D7
330
42D
100
AcDbEntity
  8
DATA
 62
     7
100
AcDbText
 10
-149.4799999997071
 20
-99.14769990531807
 30
0.0
 40
2.693359375
  1
-
 50
180.0
 41
0.7
 11
-149.4799999997071
 21
-101.841059280318
 31
0.0
100
AcDbText
 73
     3
  0
TEXT
  5
1D8
330
42D
100
AcDbEntity
  8
DATA
 62
     7
100
AcDbText
 10
-144.6049999997071
 20
-99.14769990531807
 30
0.0
 40
2.693359375
  1
+
 50
180.0
 41
0.7
 11
-144.6049999997071
 21
-101.841059280318
 31
0.0
100
AcDbText
 73
     3
  0
TEXT
  5
1D9
330
42D
100
AcDbEntity
  8
DATA
 62
     7
100
AcDbText
 10
-139.4799999997071
 20
-99.14769990531807
 30
0.0
 40
2.693359375
  1
S
 50
180.0
 41
0.7
 11
-139.4799999997071
 21
-101.841059280318
 31
0.0
100
AcDbText
 73
     3
  0
TEXT
  5
1DA
330
42D
100
AcDbEntity
  8
DATA
 62
     7
100
AcDbText
 10
-134.6049999997071
 20
-99.14769990531807
 30
0.0
 40
2.693359375
  1
-
 50
180.0
 41
0.7
 11
-134.6049999997071
 21
-101.841059280318
 31
0.0
100
AcDbText
 73
     3
  0
TEXT
  5
1DB
330
42D
100
AcDbEntity
  8
DATA
 62
     7
100
AcDbText
 10
-129.7299999997071
 20
-99.14769990531807
 30
0.0
 40
2.693359375
  1
+
 50
180.0
 41
0.7
 11
-129.7299999997071
 21
-101.841059280318
 31
0.0
100
AcDbText
 73
     3
  0
TEXT
  5
1DC
330
42D
100
AcDbEntity
  8
DATA
 62
     7
100
AcDbText
 10
-124.6049999997071
 20
-99.14769990531807
 30
0.0
 40
2.693359375
  1
S
 50
180.0
 41
0.7
 11
-124.6049999997071
 21
-101.841059280318
 31
0.0
100
AcDbText
 73
     3
  0
LINE
  5
1DD
330
42D
100
AcDbEntity
  8
DATA
  6
Continuous
 62
     7
100
AcDbLine
 10
-152.9799999997071
 20
-101.782699905318
 30
0.0
 11
-152.9799999997071
 21
-98.28269990531808
 31
0.0
  0
LINE
  5
1DE
330
42D
100
AcDbEntity
  8
DATA
  6
Continuous
 62
     7
100
AcDbLine
 10
-152.9799999997071
 20
-98.40769990531807
 30
0.0
 11
-122.9799999997071
 21
-98.40769990531807
 31
0.0
  0
LINE
  5
1DF
330
42D
100
AcDbEntity
  8
DATA
  6
Continuous
 62
     7
100
AcDbLine
 10
-122.9799999997071
 20
-98.40769990531807
 30
0.0
 11
-122.9799999997071
 21
-101.907699905318
 31
0.0
  0
LINE
  5
1E0
330
42D
100
AcDbEntity
  8
DATA
  6
Continuous
 62
     7
100
AcDbLine
 10
-152.9799999997071
 20
-103.4999999999948
 30
0.0
 11
-122.9799999997071
 21
-103.4999999999948
 31
0.0
  0
LINE
  5
1E1
330
42D
100
AcDbEntity
  8
DATA
  6
Continuous
 62
     7
100
AcDbLine
 10
-120.4799999997071
 20
-111.4999999999948
 30
0.0
 11
-90.47999999970716
 21
-111.4999999999948
 31
0.0
  0
LINE
  5
1E2
330
42D
100
AcDbEntity
  8
DATA
  6
Continuous
 62
     7
100
AcDbLine
 10
-120.4799999997071
 20
-110.4999999999948
 30
0.0
 11
-118.9799999997071
 21
-110.4999999999948
 31
0.0
  0
LINE
  5
1E3
330
42D
100
AcDbEntity
  8
DATA
  6
Continuous
 62
     7
100
AcDbLine
 10
-118.9799999997071
 20
-110.4999999999948
 30
0.0
 11
-119.4799999997071
 21
-111.4999999999948
 31
0.0
  0
LINE
  5
1E4
330
42D
100
AcDbEntity
  8
DATA
  6
Continuous
 62
     7
100
AcDbLine
 10
-116.4799999997071
 20
-111.4999999999948
 30
0.0
 11
-116.9799999997071
 21
-110.4999999999948
 31
0.0
  0
LINE
  5
1E5
330
42D
100
AcDbEntity
  8
DATA
  6
Continuous
 62
     7
100
AcDbLine
 10
-116.9799999997071
 20
-110.4999999999948
 30
0.0
 11
-113.9799999997071
 21
-110.4999999999948
 31
0.0
  0
LINE
  5
1E6
330
42D
100
AcDbEntity
  8
DATA
  6
Continuous
 62
     7
100
AcDbLine
 10
-113.9799999997071
 20
-110.4999999999948
 30
0.0
 11
-114.4799999997071
 21
-111.4999999999948
 31
0.0
  0
LINE
  5
1E7
330
42D
100
AcDbEntity
  8
DATA
  6
Continuous
 62
     7
100
AcDbLine
 10
-111.4799999997071
 20
-111.4999999999948
 30
0.0
 11
-111.9799999997071
 21
-110.4999999999948
 31
0.0
  0
LINE
  5
1E8
330
42D
100
AcDbEntity
  8
DATA
  6
Continuous
 62
     7
100
AcDbLine
 10
-111.9799999997071
 20
-110.4999999999948
 30
0.0
 11
-108.9799999997071
 21
-110.4999999999948
 31
0.0
  0
LINE
  5
1E9
330
42D
100
AcDbEntity
  8
DATA
  6
Continuous
 62
     7
100
AcDbLine
 10
-108.9799999997071
 20
-110.4999999999948
 30
0.0
 11
-109.4799999997071
 21
-111.4999999999948
 31
0.0
  0
LINE
  5
1EA
330
42D
100
AcDbEntity
  8
DATA
  6
Continuous
 62
     7
100
AcDbLine
 10
-106.4799999997071
 20
-111.4999999999948
 30
0.0
 11
-106.9799999997071
 21
-110.4999999999948
 31
0.0
  0
LINE
  5
1EB
330
42D
100
AcDbEntity
  8
DATA
  6
Continuous
 62
     7
100
AcDbLine
 10
-106.9799999997071
 20
-110.4999999999948
 30
0.0
 11
-103.9799999997071
 21
-110.4999999999948
 31
0.0
  0
LINE
  5
1EC
330
42D
100
AcDbEntity
  8
DATA
  6
Continuous
 62
     7
100
AcDbLine
 10
-103.9799999997071
 20
-110.4999999999948
 30
0.0
 11
-104.4799999997071
 21
-111.4999999999948
 31
0.0
  0
LINE
  5
1ED
330
42D
100
AcDbEntity
  8
DATA
  6
Continuous
 62
     7
100
AcDbLine
 10
-101.4799999997071
 20
-111.4999999999948
 30
0.0
 11
-101.9799999997071
 21
-110.4999999999948
 31
0.0
  0
LINE
  5
1EE
330
42D
100
AcDbEntity
  8
DATA
  6
Continuous
 62
     7
100
AcDbLine
 10
-101.9799999997071
 20
-110.4999999999948
 30
0.0
 11
-98.97999999970716
 21
-110.4999999999948
 31
0.0
  0
LINE
  5
1EF
330
42D
100
AcDbEntity
  8
DATA
  6
Continuous
 62
     7
100
AcDbLine
 10
-98.97999999970716
 20
-110.4999999999948
 30
0.0
 11
-99.47999999970717
 21
-111.4999999999948
 31
0.0
  0
LINE
  5
1F0
330
42D
100
AcDbEntity
  8
DATA
  6
Continuous
 62
     7
100
AcDbLine
 10
-96.47999999970716
 20
-111.4999999999948
 30
0.0
 11
-96.97999999970717
 21
-110.4999999999948
 31
0.0
  0
LINE
  5
1F1
330
42D
100
AcDbEntity
  8
DATA
  6
Continuous
 62
     7
100
AcDbLine
 10
-96.97999999970717
 20
-110.4999999999948
 30
0.0
 11
-93.97999999970716
 21
-110.4999999999948
 31
0.0
  0
LINE
  5
1F2
330
42D
100
AcDbEntity
  8
DATA
  6
Continuous
 62
     7
100
AcDbLine
 10
-93.97999999970716
 20
-110.4999999999948
 30
0.0
 11
-94.47999999970717
 21
-111.4999999999948
 31
0.0
  0
LINE
  5
1F3
330
42D
100
AcDbEntity
  8
DATA
  6
Continuous
 62
     7
100
AcDbLine
 10
-90.47999999970716
 20
-110.4999999999948
 30
0.0
 11
-91.97999999970717
 21
-110.4999999999948
 31
0.0
  0
LINE
  5
1F4
330
42D
100
AcDbEntity
  8
DATA
  6
Continuous
 62
     7
100
AcDbLine
 10
-91.97999999970717
 20
-110.4999999999948
 30
0.0
 11
-91.47999999970716
 21
-111.4999999999948
 31
0.0
  0
LWPOLYLINE
  5
1F5
330
42D
100
AcDbEntity
  8
DATA
  6
Continuous
 62
     7
100
AcDbPolyline
 90
        4
 70
     1
 43
0.0
 10
-118.4799999997071
 20
-106.9999999999948
 10
-117.4799999997071
 20
-106.9999999999948
 10
-117.4799999997071
 20
-107.9999999999948
 10
-118.4799999997071
 20
-107.9999999999948
  0
LWPOLYLINE
  5
1FC
330
42D
100
AcDbEntity
  8
DATA
  6
Continuous
 62
     7
100
AcDbPolyline
 90
        4
 70
     1
 43
0.0
 10
-113.4799999997071
 20
-106.9999999999948
 10
-112.4799999997071
 20
-106.9999999999948
 10
-112.4799999997071
 20
-107.9999999999948
 10
-113.4799999997071
 20
-107.9999999999948
  0
LWPOLYLINE
  5
203
330
42D
100
AcDbEntity
  8
DATA
  6
Continuous
 62
     7
100
AcDbPolyline
 90
        4
 70
     1
 43
0.0
 10
-108.4799999997071
 20
-106.9999999999948
 10
-107.4799999997071
 20
-106.9999999999948
 10
-107.4799999997071
 20
-107.9999999999948
 10
-108.4799999997071
 20
-107.9999999999948
  0
LWPOLYLINE
  5
20A
330
42D
100
AcDbEntity
  8
DATA
  6
Continuous
 62
     7
100
AcDbPolyline
 90
        4
 70
     1
 43
0.0
 10
-103.4799999997074
 20
-106.9999999999948
 10
-102.4799999997071
 20
-106.9999999999948
 10
-102.4799999997071
 20
-107.9999999999948
 10
-103.4799999997074
 20
-107.9999999999948
  0
LWPOLYLINE
  5
211
330
42D
100
AcDbEntity
  8
DATA
  6
Continuous
 62
     7
100
AcDbPolyline
 90
        4
 70
     1
 43
0.0
 10
-98.47999999970742
 20
-106.9999999999948
 10
-97.47999999970716
 20
-106.9999999999948
 10
-97.47999999970716
 20
-107.9999999999948
 10
-98.47999999970742
 20
-107.9999999999948
  0
LWPOLYLINE
  5
218
330
42D
100
AcDbEntity
  8
DATA
  6
Continuous
 62
     7
100
AcDbPolyline
 90
        4
 70
     1
 43
0.0
 10
-93.47999999970742
 20
-106.9999999999948
 10
-92.47999999970716
 20
-106.9999999999948
 10
-92.47999999970716
 20
-107.9999999999948
 10
-93.47999999970742
 20
-107.9999999999948
  0
LINE
  5
21F
330
42D
100
AcDbEntity
  8
DATA
  6
Continuous
 62
     7
100
AcDbLine
 10
-120.4799999997071
 20
-111.9999999999948
 30
0.0
 11
-120.4799999997071
 21
-103.4999999999948
 31
0.0
  0
ARC
  5
220
330
42D
100
AcDbEntity
  8
DATA
  6
Continuous
 62
     7
100
AcDbCircle
 10
-117.9799999997071
 20
-108.1249999999948
 30
0.0
 40
3.625
100
AcDbArc
 50
46.39718102729637
 51
133.6028189727036
  0
ARC
  5
221
330
42D
100
AcDbEntity
  8
DATA
  6
Continuous
 62
     7
100
AcDbCircle
 10
-112.9799999997071
 20
-108.1249999999948
 30
0.0
 40
3.625
100
AcDbArc
 50
46.39718102729637
 51
133.6028189727036
  0
ARC
  5
222
330
42D
100
AcDbEntity
  8
DATA
  6
Continuous
 62
     7
100
AcDbCircle
 10
-107.9799999997071
 20
-108.1249999999948
 30
0.0
 40
3.625
100
AcDbArc
 50
46.39718102729637
 51
133.6028189727036
  0
ARC
  5
223
330
42D
100
AcDbEntity
  8
DATA
  6
Continuous
 62
     7
100
AcDbCircle
 10
-102.9799999997071
 20
-108.1249999999948
 30
0.0
 40
3.625
100
AcDbArc
 50
46.39718102729637
 51
133.6028189727036
  0
ARC
  5
224
330
42D
100
AcDbEntity
  8
DATA
  6
Continuous
 62
     7
100
AcDbCircle
 10
-97.97999999970716
 20
-108.1249999999948
 30
0.0
 40
3.625
100
AcDbArc
 50
46.39718102729637
 51
133.6028189727036
  0
ARC
  5
225
330
42D
100
AcDbEntity
  8
DATA
  6
Continuous
 62
     7
100
AcDbCircle
 10
-92.97999999970716
 20
-108.1249999999948
 30
0.0
 40
3.625
100
AcDbArc
 50
46.39718102729637
 51
133.6028189727036
  0
LINE
  5
226
330
42D
100
AcDbEntity
  8
DATA
  6
Continuous
 62
     7
100
AcDbLine
 10
-90.47999999970716
 20
-103.4999999999948
 30
0.0
 11
-90.47999999970716
 21
-111.9999999999948
 31
0.0
  0
ARC
  5
227
330
42D
100
AcDbEntity
  8
DATA
  6
Continuous
 62
     7
100
AcDbCircle
 10
-117.9799999997071
 20
-107.6249999999948
 30
0.0
 40
3.625
100
AcDbArc
 50
46.39718102729637
 51
133.6028189727036
  0
ARC
  5
228
330
42D
100
AcDbEntity
  8
DATA
  6
Continuous
 62
     7
100
AcDbCircle
 10
-112.9799999997071
 20
-107.6249999999948
 30
0.0
 40
3.625
100
AcDbArc
 50
46.39718102729637
 51
133.6028189727036
  0
ARC
  5
229
330
42D
100
AcDbEntity
  8
DATA
  6
Continuous
 62
     7
100
AcDbCircle
 10
-107.9799999997071
 20
-107.6249999999948
 30
0.0
 40
3.625
100
AcDbArc
 50
46.39718102729637
 51
133.6028189727036
  0
ARC
  5
22A
330
42D
100
AcDbEntity
  8
DATA
  6
Continuous
 62
     7
100
AcDbCircle
 10
-102.9799999997071
 20
-107.6249999999948
 30
0.0
 40
3.625
100
AcDbArc
 50
46.39718102729637
 51
133.6028189727036
  0
ARC
  5
22B
330
42D
100
AcDbEntity
  8
DATA
  6
Continuous
 62
     7
100
AcDbCircle
 10
-97.97999999970716
 20
-107.6249999999948
 30
0.0
 40
3.625
100
AcDbArc
 50
46.39718102729637
 51
133.6028189727036
  0
ARC
  5
22C
330
42D
100
AcDbEntity
  8
DATA
  6
Continuous
 62
     7
100
AcDbCircle
 10
-92.97999999970716
 20
-107.6249999999948
 30
0.0
 40
3.625
100
AcDbArc
 50
46.39718102729637
 51
133.6028189727036
  0
LINE
  5
22D
330
42D
100
AcDbEntity
  8
DATA
  6
Continuous
 62
     7
100
AcDbLine
 10
-120.4799999997071
 20
-111.9999999999948
 30
0.0
 11
-90.47999999970716
 21
-111.9999999999948
 31
0.0
  0
TEXT
  5
22E
330
42D
100
AcDbEntity
  8
DATA
 62
     7
100
AcDbText
 10
-116.9799999997071
 20
-99.14769990531807
 30
0.0
 40
2.693359375
  1
-
 50
180.0
 41
0.7
 11
-116.9799999997071
 21
-101.841059280318
 31
0.0
100
AcDbText
 73
     3
  0
TEXT
  5
22F
330
42D
100
AcDbEntity
  8
DATA
 62
     7
100
AcDbText
 10
-112.1049999997071
 20
-99.14769990531807
 30
0.0
 40
2.693359375
  1
+
 50
180.0
 41
0.7
 11
-112.1049999997071
 21
-101.841059280318
 31
0.0
100
AcDbText
 73
     3
  0
TEXT
  5
230
330
42D
100
AcDbEntity
  8
DATA
 62
     7
100
AcDbText
 10
-106.9799999997071
 20
-99.14769990531807
 30
0.0
 40
2.693359375
  1
S
 50
180.0
 41
0.7
 11
-106.9799999997071
 21
-101.841059280318
 31
0.0
100
AcDbText
 73
     3
  0
TEXT
  5
231
330
42D
100
AcDbEntity
  8
DATA
 62
     7
100
AcDbText
 10
-102.1049999997071
 20
-99.14769990531807
 30
0.0
 40
2.693359375
  1
-
 50
180.0
 41
0.7
 11
-102.1049999997071
 21
-101.841059280318
 31
0.0
100
AcDbText
 73
     3
  0
TEXT
  5
232
330
42D
100
AcDbEntity
  8
DATA
 62
     7
100
AcDbText
 10
-97.22999999970717
 20
-99.14769990531807
 30
0.0
 40
2.693359375
  1
+
 50
180.0
 41
0.7
 11
-97.22999999970717
 21
-101.841059280318
 31
0.0
100
AcDbText
 73
     3
  0
TEXT
  5
233
330
42D
100
AcDbEntity
  8
DATA
 62
     7
100
AcDbText
 10
-92.10499999970716
 20
-99.14769990531807
 30
0.0
 40
2.693359375
  1
S
 50
180.0
 41
0.7
 11
-92.10499999970716
 21
-101.841059280318
 31
0.0
100
AcDbText
 73
     3
  0
LINE
  5
234
330
42D
100
AcDbEntity
  8
DATA
  6
Continuous
 62
     7
100
AcDbLine
 10
-120.4799999997071
 20
-101.782699905318
 30
0.0
 11
-120.4799999997071
 21
-98.28269990531808
 31
0.0
  0
LINE
  5
235
330
42D
100
AcDbEntity
  8
DATA
  6
Continuous
 62
     7
100
AcDbLine
 10
-120.4799999997071
 20
-98.40769990531807
 30
0.0
 11
-90.47999999970716
 21
-98.40769990531807
 31
0.0
  0
LINE
  5
236
330
42D
100
AcDbEntity
  8
DATA
  6
Continuous
 62
     7
100
AcDbLine
 10
-90.47999999970716
 20
-98.40769990531807
 30
0.0
 11
-90.47999999970716
 21
-101.907699905318
 31
0.0
  0
LINE
  5
237
330
42D
100
AcDbEntity
  8
DATA
  6
Continuous
 62
     7
100
AcDbLine
 10
-120.4799999997071
 20
-103.4999999999948
 30
0.0
 11
-90.47999999970716
 21
-103.4999999999948
 31
0.0
  0
LINE
  5
238
330
42D
100
AcDbEntity
  8
DATA
  6
Continuous
 62
     7
100
AcDbLine
 10
-87.97999999970716
 20
-111.4999999999948
 30
0.0
 11
-57.97999999970715
 21
-111.4999999999948
 31
0.0
  0
LINE
  5
239
330
42D
100
AcDbEntity
  8
DATA
  6
Continuous
 62
     7
100
AcDbLine
 10
-87.97999999970716
 20
-110.4999999999948
 30
0.0
 11
-86.47999999970716
 21
-110.4999999999948
 31
0.0
  0
LINE
  5
23A
330
42D
100
AcDbEntity
  8
DATA
  6
Continuous
 62
     7
100
AcDbLine
 10
-86.47999999970716
 20
-110.4999999999948
 30
0.0
 11
-86.97999999970717
 21
-111.4999999999948
 31
0.0
  0
LINE
  5
23B
330
42D
100
AcDbEntity
  8
DATA
  6
Continuous
 62
     7
100
AcDbLine
 10
-83.97999999970718
 20
-111.4999999999948
 30
0.0
 11
-84.47999999970717
 21
-110.4999999999948
 31
0.0
  0
LINE
  5
23C
330
42D
100
AcDbEntity
  8
DATA
  6
Continuous
 62
     7
100
AcDbLine
 10
-84.47999999970717
 20
-110.4999999999948
 30
0.0
 11
-81.47999999970718
 21
-110.4999999999948
 31
0.0
  0
LINE
  5
23D
330
42D
100
AcDbEntity
  8
DATA
  6
Continuous
 62
     7
100
AcDbLine
 10
-81.47999999970718
 20
-110.4999999999948
 30
0.0
 11
-81.97999999970717
 21
-111.4999999999948
 31
0.0
  0
LINE
  5
23E
330
42D
100
AcDbEntity
  8
DATA
  6
Continuous
 62
     7
100
AcDbLine
 10
-78.97999999970718
 20
-111.4999999999948
 30
0.0
 11
-79.47999999970718
 21
-110.4999999999948
 31
0.0
  0
LINE
  5
23F
330
42D
100
AcDbEntity
  8
DATA
  6
Continuous
 62
     7
100
AcDbLine
 10
-79.47999999970718
 20
-110.4999999999948
 30
0.0
 11
-76.47999999970718
 21
-110.4999999999948
 31
0.0
  0
LINE
  5
240
330
42D
100
AcDbEntity
  8
DATA
  6
Continuous
 62
     7
100
AcDbLine
 10
-76.47999999970718
 20
-110.4999999999948
 30
0.0
 11
-76.97999999970718
 21
-111.4999999999948
 31
0.0
  0
LINE
  5
241
330
42D
100
AcDbEntity
  8
DATA
  6
Continuous
 62
     7
100
AcDbLine
 10
-73.97999999970718
 20
-111.4999999999948
 30
0.0
 11
-74.47999999970718
 21
-110.4999999999948
 31
0.0
  0
LINE
  5
242
330
42D
100
AcDbEntity
  8
DATA
  6
Continuous
 62
     7
100
AcDbLine
 10
-74.47999999970718
 20
-110.4999999999948
 30
0.0
 11
-71.47999999970716
 21
-110.4999999999948
 31
0.0
  0
LINE
  5
243
330
42D
100
AcDbEntity
  8
DATA
  6
Continuous
 62
     7
100
AcDbLine
 10
-71.47999999970716
 20
-110.4999999999948
 30
0.0
 11
-71.97999999970716
 21
-111.4999999999948
 31
0.0
  0
LINE
  5
244
330
42D
100
AcDbEntity
  8
DATA
  6
Continuous
 62
     7
100
AcDbLine
 10
-68.97999999970716
 20
-111.4999999999948
 30
0.0
 11
-69.47999999970716
 21
-110.4999999999948
 31
0.0
  0
LINE
  5
245
330
42D
100
AcDbEntity
  8
DATA
  6
Continuous
 62
     7
100
AcDbLine
 10
-69.47999999970716
 20
-110.4999999999948
 30
0.0
 11
-66.47999999970716
 21
-110.4999999999948
 31
0.0
  0
LINE
  5
246
330
42D
100
AcDbEntity
  8
DATA
  6
Continuous
 62
     7
100
AcDbLine
 10
-66.47999999970716
 20
-110.4999999999948
 30
0.0
 11
-66.97999999970716
 21
-111.4999999999948
 31
0.0
  0
LINE
  5
247
330
42D
100
AcDbEntity
  8
DATA
  6
Continuous
 62
     7
100
AcDbLine
 10
-63.97999999970715
 20
-111.4999999999948
 30
0.0
 11
-64.47999999970716
 21
-110.4999999999948
 31
0.0
  0
LINE
  5
248
330
42D
100
AcDbEntity
  8
DATA
  6
Continuous
 62
     7
100
AcDbLine
 10
-64.47999999970716
 20
-110.4999999999948
 30
0.0
 11
-61.47999999970715
 21
-110.4999999999948
 31
0.0
  0
LINE
  5
249
330
42D
100
AcDbEntity
  8
DATA
  6
Continuous
 62
     7
100
AcDbLine
 10
-61.47999999970715
 20
-110.4999999999948
 30
0.0
 11
-61.97999999970715
 21
-111.4999999999948
 31
0.0
  0
LINE
  5
24A
330
42D
100
AcDbEntity
  8
DATA
  6
Continuous
 62
     7
100
AcDbLine
 10
-57.97999999970715
 20
-110.4999999999948
 30
0.0
 11
-59.47999999970715
 21
-110.4999999999948
 31
0.0
  0
LINE
  5
24B
330
42D
100
AcDbEntity
  8
DATA
  6
Continuous
 62
     7
100
AcDbLine
 10
-59.47999999970715
 20
-110.4999999999948
 30
0.0
 11
-58.97999999970715
 21
-111.4999999999948
 31
0.0
  0
LWPOLYLINE
  5
24C
330
42D
100
AcDbEntity
  8
DATA
  6
Continuous
 62
     7
100
AcDbPolyline
 90
        4
 70
     1
 43
0.0
 10
-85.97999999970715
 20
-106.9999999999948
 10
-84.97999999970717
 20
-106.9999999999948
 10
-84.97999999970717
 20
-107.9999999999948
 10
-85.97999999970715
 20
-107.9999999999948
  0
LWPOLYLINE
  5
253
330
42D
100
AcDbEntity
  8
DATA
  6
Continuous
 62
     7
100
AcDbPolyline
 90
        4
 70
     1
 43
0.0
 10
-80.97999999970717
 20
-106.9999999999948
 10
-79.97999999970717
 20
-106.9999999999948
 10
-79.97999999970717
 20
-107.9999999999948
 10
-80.97999999970717
 20
-107.9999999999948
  0
LWPOLYLINE
  5
25A
330
42D
100
AcDbEntity
  8
DATA
  6
Continuous
 62
     7
100
AcDbPolyline
 90
        4
 70
     1
 43
0.0
 10
-75.97999999970717
 20
-106.9999999999948
 10
-74.97999999970717
 20
-106.9999999999948
 10
-74.97999999970717
 20
-107.9999999999948
 10
-75.97999999970717
 20
-107.9999999999948
  0
LWPOLYLINE
  5
261
330
42D
100
AcDbEntity
  8
DATA
  6
Continuous
 62
     7
100
AcDbPolyline
 90
        4
 70
     1
 43
0.0
 10
-70.97999999970737
 20
-106.9999999999948
 10
-69.97999999970716
 20
-106.9999999999948
 10
-69.97999999970716
 20
-107.9999999999948
 10
-70.97999999970737
 20
-107.9999999999948
  0
LWPOLYLINE
  5
268
330
42D
100
AcDbEntity
  8
DATA
  6
Continuous
 62
     7
100
AcDbPolyline
 90
        4
 70
     1
 43
0.0
 10
-65.97999999970738
 20
-106.9999999999948
 10
-64.97999999970716
 20
-106.9999999999948
 10
-64.97999999970716
 20
-107.9999999999948
 10
-65.97999999970738
 20
-107.9999999999948
  0
LWPOLYLINE
  5
26F
330
42D
100
AcDbEntity
  8
DATA
  6
Continuous
 62
     7
100
AcDbPolyline
 90
        4
 70
     1
 43
0.0
 10
-60.97999999970738
 20
-106.9999999999948
 10
-59.97999999970716
 20
-106.9999999999948
 10
-59.97999999970716
 20
-107.9999999999948
 10
-60.97999999970738
 20
-107.9999999999948
  0
LINE
  5
276
330
42D
100
AcDbEntity
  8
DATA
  6
Continuous
 62
     7
100
AcDbLine
 10
-87.97999999970716
 20
-111.9999999999948
 30
0.0
 11
-87.97999999970716
 21
-103.4999999999948
 31
0.0
  0
ARC
  5
277
330
42D
100
AcDbEntity
  8
DATA
  6
Continuous
 62
     7
100
AcDbCircle
 10
-85.47999999970718
 20
-108.1249999999948
 30
0.0
 40
3.625
100
AcDbArc
 50
46.39718102729637
 51
133.6028189727036
  0
ARC
  5
278
330
42D
100
AcDbEntity
  8
DATA
  6
Continuous
 62
     7
100
AcDbCircle
 10
-80.47999999970718
 20
-108.1249999999948
 30
0.0
 40
3.625
100
AcDbArc
 50
46.39718102729637
 51
133.6028189727036
  0
ARC
  5
279
330
42D
100
AcDbEntity
  8
DATA
  6
Continuous
 62
     7
100
AcDbCircle
 10
-75.47999999970717
 20
-108.1249999999948
 30
0.0
 40
3.625
100
AcDbArc
 50
46.39718102729637
 51
133.6028189727036
  0
ARC
  5
27A
330
42D
100
AcDbEntity
  8
DATA
  6
Continuous
 62
     7
100
AcDbCircle
 10
-70.47999999970716
 20
-108.1249999999948
 30
0.0
 40
3.625
100
AcDbArc
 50
46.39718102729637
 51
133.6028189727036
  0
ARC
  5
27B
330
42D
100
AcDbEntity
  8
DATA
  6
Continuous
 62
     7
100
AcDbCircle
 10
-65.47999999970716
 20
-108.1249999999948
 30
0.0
 40
3.625
100
AcDbArc
 50
46.39718102729637
 51
133.6028189727036
  0
ARC
  5
27C
330
42D
100
AcDbEntity
  8
DATA
  6
Continuous
 62
     7
100
AcDbCircle
 10
-60.47999999970715
 20
-108.1249999999948
 30
0.0
 40
3.625
100
AcDbArc
 50
46.39718102729637
 51
133.6028189727036
  0
LINE
  5
27D
330
42D
100
AcDbEntity
  8
DATA
  6
Continuous
 62
     7
100
AcDbLine
 10
-57.97999999970715
 20
-103.4999999999948
 30
0.0
 11
-57.97999999970715
 21
-111.9999999999948
 31
0.0
  0
ARC
  5
27E
330
42D
100
AcDbEntity
  8
DATA
  6
Continuous
 62
     7
100
AcDbCircle
 10
-85.47999999970718
 20
-107.6249999999948
 30
0.0
 40
3.625
100
AcDbArc
 50
46.39718102729637
 51
133.6028189727036
  0
ARC
  5
27F
330
42D
100
AcDbEntity
  8
DATA
  6
Continuous
 62
     7
100
AcDbCircle
 10
-80.47999999970718
 20
-107.6249999999948
 30
0.0
 40
3.625
100
AcDbArc
 50
46.39718102729637
 51
133.6028189727036
  0
ARC
  5
280
330
42D
100
AcDbEntity
  8
DATA
  6
Continuous
 62
     7
100
AcDbCircle
 10
-75.47999999970717
 20
-107.6249999999948
 30
0.0
 40
3.625
100
AcDbArc
 50
46.39718102729637
 51
133.6028189727036
  0
ARC
  5
281
330
42D
100
AcDbEntity
  8
DATA
  6
Continuous
 62
     7
100
AcDbCircle
 10
-70.47999999970716
 20
-107.6249999999948
 30
0.0
 40
3.625
100
AcDbArc
 50
46.39718102729637
 51
133.6028189727036
  0
ARC
  5
282
330
42D
100
AcDbEntity
  8
DATA
  6
Continuous
 62
     7
100
AcDbCircle
 10
-65.47999999970716
 20
-107.6249999999948
 30
0.0
 40
3.625
100
AcDbArc
 50
46.39718102729637
 51
133.6028189727036
  0
ARC
  5
283
330
42D
100
AcDbEntity
  8
DATA
  6
Continuous
 62
     7
100
AcDbCircle
 10
-60.47999999970715
 20
-107.6249999999948
 30
0.0
 40
3.625
100
AcDbArc
 50
46.39718102729637
 51
133.6028189727036
  0
LINE
  5
284
330
42D
100
AcDbEntity
  8
DATA
  6
Continuous
 62
     7
100
AcDbLine
 10
-87.97999999970716
 20
-111.9999999999948
 30
0.0
 11
-57.97999999970715
 21
-111.9999999999948
 31
0.0
  0
TEXT
  5
285
330
42D
100
AcDbEntity
  8
DATA
 62
     7
100
AcDbText
 10
-84.47999999970717
 20
-99.14769990531807
 30
0.0
 40
2.693359375
  1
-
 50
180.0
 41
0.7
 11
-84.47999999970717
 21
-101.841059280318
 31
0.0
100
AcDbText
 73
     3
  0
TEXT
  5
286
330
42D
100
AcDbEntity
  8
DATA
 62
     7
100
AcDbText
 10
-79.60499999970718
 20
-99.14769990531807
 30
0.0
 40
2.693359375
  1
+
 50
180.0
 41
0.7
 11
-79.60499999970718
 21
-101.841059280318
 31
0.0
100
AcDbText
 73
     3
  0
TEXT
  5
287
330
42D
100
AcDbEntity
  8
DATA
 62
     7
100
AcDbText
 10
-74.47999999970718
 20
-99.14769990531807
 30
0.0
 40
2.693359375
  1
S
 50
180.0
 41
0.7
 11
-74.47999999970718
 21
-101.841059280318
 31
0.0
100
AcDbText
 73
     3
  0
TEXT
  5
288
330
42D
100
AcDbEntity
  8
DATA
 62
     7
100
AcDbText
 10
-69.60499999970716
 20
-99.14769990531807
 30
0.0
 40
2.693359375
  1
-
 50
180.0
 41
0.7
 11
-69.60499999970716
 21
-101.841059280318
 31
0.0
100
AcDbText
 73
     3
  0
TEXT
  5
289
330
42D
100
AcDbEntity
  8
DATA
 62
     7
100
AcDbText
 10
-64.72999999970716
 20
-99.14769990531807
 30
0.0
 40
2.693359375
  1
+
 50
180.0
 41
0.7
 11
-64.72999999970716
 21
-101.841059280318
 31
0.0
100
AcDbText
 73
     3
  0
TEXT
  5
28A
330
42D
100
AcDbEntity
  8
DATA
 62
     7
100
AcDbText
 10
-59.60499999970715
 20
-99.14769990531807
 30
0.0
 40
2.693359375
  1
S
 50
180.0
 41
0.7
 11
-59.60499999970715
 21
-101.841059280318
 31
0.0
100
AcDbText
 73
     3
  0
LINE
  5
28B
330
42D
100
AcDbEntity
  8
DATA
  6
Continuous
 62
     7
100
AcDbLine
 10
-87.97999999970716
 20
-101.782699905318
 30
0.0
 11
-87.97999999970716
 21
-98.28269990531808
 31
0.0
  0
LINE
  5
28C
330
42D
100
AcDbEntity
  8
DATA
  6
Continuous
 62
     7
100
AcDbLine
 10
-87.97999999970716
 20
-98.40769990531807
 30
0.0
 11
-57.97999999970715
 21
-98.40769990531807
 31
0.0
  0
LINE
  5
28D
330
42D
100
AcDbEntity
  8
DATA
  6
Continuous
 62
     7
100
AcDbLine
 10
-57.97999999970715
 20
-98.40769990531807
 30
0.0
 11
-57.97999999970715
 21
-101.907699905318
 31
0.0
  0
LINE
  5
28E
330
42D
100
AcDbEntity
  8
DATA
  6
Continuous
 62
     7
100
AcDbLine
 10
-87.97999999970716
 20
-103.4999999999948
 30
0.0
 11
-57.97999999970715
 21
-103.4999999999948
 31
0.0
  0
TEXT
  5
28F
330
42D
100
AcDbEntity
  8
DATA
 62
     7
100
AcDbText
 10
-161.5251861586548
 20
-113.2927755807731
 30
0.0
 40
4.343576388888889
  1
2
 50
180.0
 41
0.7
 11
-161.5251861586548
 21
-117.636351969662
 31
0.0
100
AcDbText
 73
     3
  0
TEXT
  5
290
330
42D
100
AcDbEntity
  8
DATA
 62
     7
100
AcDbText
 10
-144.0251861586548
 20
-113.2927755807731
 30
0.0
 40
4.343576388888889
  1
3
 50
180.0
 41
0.7
 11
-144.0251861586548
 21
-117.636351969662
 31
0.0
100
AcDbText
 73
     3
  0
TEXT
  5
291
330
42D
100
AcDbEntity
  8
DATA
 62
     7
100
AcDbText
 10
-129.0251861586548
 20
-113.2927755807731
 30
0.0
 40
4.343576388888889
  1
4
 50
180.0
 41
0.7
 11
-129.0251861586548
 21
-117.636351969662
 31
0.0
100
AcDbText
 73
     3
  0
TEXT
  5
292
330
42D
100
AcDbEntity
  8
DATA
 62
     7
100
AcDbText
 10
-111.5251861586548
 20
-113.2927755807731
 30
0.0
 40
4.343576388888889
  1
5
 50
180.0
 41
0.7
 11
-111.5251861586548
 21
-117.636351969662
 31
0.0
100
AcDbText
 73
     3
  0
TEXT
  5
293
330
42D
100
AcDbEntity
  8
DATA
 62
     7
100
AcDbText
 10
-96.52518615865485
 20
-113.2927755807731
 30
0.0
 40
4.343576388888889
  1
6
 50
180.0
 41
0.7
 11
-96.52518615865485
 21
-117.636351969662
 31
0.0
100
AcDbText
 73
     3
  0
TEXT
  5
294
330
42D
100
AcDbEntity
  8
DATA
 62
     7
100
AcDbText
 10
-79.02518615865483
 20
-113.2927755807731
 30
0.0
 40
4.343576388888889
  1
7
 50
180.0
 41
0.7
 11
-79.02518615865483
 21
-117.636351969662
 31
0.0
100
AcDbText
 73
     3
  0
TEXT
  5
295
330
42D
100
AcDbEntity
  8
DATA
 62
     7
100
AcDbText
 10
-64.02518615865483
 20
-113.2927755807731
 30
0.0
 40
4.343576388888889
  1
8
 50
180.0
 41
0.7
 11
-64.02518615865483
 21
-117.636351969662
 31
0.0
100
AcDbText
 73
     3
  0
LINE
  5
296
330
42D
100
AcDbEntity
  8
DATA
  6
Continuous
 62
     7
100
AcDbLine
 10
-57.97999999970715
 20
-112.4940609666975
 30
0.0
 11
-57.97999999970715
 21
-121.4999999999948
 31
0.0
  0
LINE
  5
297
330
42D
100
AcDbEntity
  8
DATA
  6
Continuous
 62
     7
100
AcDbLine
 10
-185.4799999997072
 20
-112.4940609666975
 30
0.0
 11
-185.4799999997072
 21
-121.4999999999948
 31
0.0
  0
TEXT
  5
298
330
42D
100
AcDbEntity
  8
DATA
 62
     7
100
AcDbText
 10
-113.5876280976702
 20
-119.5844039428541
 30
0.0
 40
4.343576388888889
  1
INPUTS
 50
180.0
 41
0.7
 11
-113.5876280976702
 21
-123.9279803317429
 31
0.0
100
AcDbText
 73
     3
  0
LINE
  5
299
330
42D
100
AcDbEntity
  8
DATA
  6
Continuous
 62
     7
100
AcDbLine
 10
-57.97999999970715
 20
-121.4999999999948
 30
0.0
 11
-111.3961124094303
 21
-121.4999999999948
 31
0.0
  0
LINE
  5
29A
330
42D
100
AcDbEntity
  8
DATA
  6
Continuous
 62
     7
100
AcDbLine
 10
-185.4799999997072
 20
-121.4999999999948
 30
0.0
 11
-131.8474083808769
 21
-121.4999999999948
 31
0.0
  0
LINE
  5
29B
330
42D
100
AcDbEntity
  8
DATA
  6
Continuous
 62
     7
100
AcDbLine
 10
14.52000000029284
 20
-131.4999999999999
 30
0.0
 11
-4.47999999970716
 21
-131.4999999999999
 31
0.0
  0
LINE
  5
29C
330
42D
100
AcDbEntity
  8
DATA
  6
Continuous
 62
     7
100
AcDbLine
 10
-11.47999999970716
 20
-131.4999999999999
 30
0.0
 11
-169.4799999997071
 21
-131.4999999999999
 31
0.0
  0
LINE
  5
29D
330
42D
100
AcDbEntity
  8
DATA
  6
Continuous
 62
     7
100
AcDbLine
 10
-176.4799999997071
 20
-131.4999999999999
 30
0.0
 11
-195.4799999997072
 21
-131.4999999999999
 31
0.0
  0
LINE
  5
29E
330
42D
100
AcDbEntity
  8
DATA
  6
Continuous
 62
     7
100
AcDbLine
 10
-197.4799999997072
 20
-125.8999999999999
 30
0.0
 11
-198.9799999997072
 21
-125.8999999999999
 31
0.0
  0
ARC
  5
29F
330
42D
100
AcDbEntity
  8
DATA
  6
Continuous
 62
     7
100
AcDbCircle
 10
-195.4799999997072
 20
-133.4999999999999
 30
0.0
 40
2.0
100
AcDbArc
 50
90.0
 51
180.0
  0
LINE
  5
2A0
330
42D
100
AcDbEntity
  8
DATA
  6
Continuous
 62
     7
100
AcDbLine
 10
-197.4799999997072
 20
-125.8999999999999
 30
0.0
 11
-197.4799999997072
 21
-136.4944103301282
 31
0.0
  0
ARC
  5
2A1
330
42D
100
AcDbEntity
  8
DATA
  6
Continuous
 62
     7
100
AcDbCircle
 10
-197.4799999997072
 20
-97.99999999999997
 30
0.0
 40
1.5
100
AcDbArc
 50
90.0
 51
180.0
  0
LINE
  5
2A2
330
42D
100
AcDbEntity
  8
DATA
  6
Continuous
 62
     7
100
AcDbLine
 10
-197.9799999997072
 20
-123.9822027716754
 30
0.0
 11
-197.9799999997072
 21
-97.78187042444479
 31
0.0
  0
LINE
  5
2A3
330
42D
100
AcDbEntity
  8
DATA
  6
Continuous
 62
     7
100
AcDbLine
 10
-196.4799999997072
 20
-125.6565185583476
 30
0.0
 11
-196.4799999997072
 21
-131.7679491924311
 31
0.0
  0
LINE
  5
2A4
330
42D
100
AcDbEntity
  8
DATA
  6
Continuous
 62
     7
100
AcDbLine
 10
-197.2799999997071
 20
-132.6282202112918
 30
0.0
 11
-197.2799999997071
 21
-126.2579091642636
 31
0.0
  0
LINE
  5
2A5
330
42D
100
AcDbEntity
  8
DATA
  6
Continuous
 62
     7
100
AcDbLine
 10
-197.6300000049225
 20
-125.6516913725811
 30
0.0
 11
-198.6299999944917
 21
-125.0743411094137
 31
0.0
  0
LINE
  5
2A6
330
42D
100
AcDbEntity
  8
DATA
  6
Continuous
 62
     7
100
AcDbLine
 10
-196.8300000049225
 20
-125.0503007666651
 30
0.0
 11
-197.6299999997072
 21
-124.5884205543245
 31
0.0
  0
LINE
  5
2A7
330
42D
100
AcDbEntity
  8
DATA
  6
Continuous
 62
     7
100
AcDbLine
 10
-198.9799999997072
 20
-124.4681233177313
 30
0.0
 11
-198.9799999997072
 21
-137.5
 31
0.0
  0
LINE
  5
2A8
330
42D
100
AcDbEntity
  8
DATA
  6
Continuous
 62
     7
100
AcDbLine
 10
19.02000000029284
 20
-137.5
 30
0.0
 11
19.02000000029284
 21
-95.49999999999995
 31
0.0
  0
LINE
  5
2A9
330
42D
100
AcDbEntity
  8
DATA
  6
Continuous
 62
     7
100
AcDbLine
 10
18.02000000029284
 20
-124.4681233177313
 30
0.0
 11
18.02000000029284
 21
-97.99999999999997
 31
0.0
  0
LINE
  5
2AA
330
42D
100
AcDbEntity
  8
DATA
  6
Continuous
 62
     7
100
AcDbLine
 10
16.52000000029284
 20
-125.8999999999999
 30
0.0
 11
18.02000000029284
 21
-125.8999999999999
 31
0.0
  0
ARC
  5
2AB
330
42D
100
AcDbEntity
  8
DATA
  6
Continuous
 62
     7
100
AcDbCircle
 10
14.52000000029284
 20
-133.4999999999999
 30
0.0
 40
2.0
100
AcDbArc
 50
0.0
 51
90.0
  0
LINE
  5
2AC
330
42D
100
AcDbEntity
  8
DATA
  6
Continuous
 62
     7
100
AcDbLine
 10
16.52000000029284
 20
-125.8999999999999
 30
0.0
 11
16.52000000029284
 21
-136.4944103301282
 31
0.0
  0
ARC
  5
2AD
330
42D
100
AcDbEntity
  8
DATA
  6
Continuous
 62
     7
100
AcDbCircle
 10
16.52000000029284
 20
-97.99999999999997
 30
0.0
 40
1.5
100
AcDbArc
 50
0.0
 51
90.0
  0
LINE
  5
2AE
330
42D
100
AcDbEntity
  8
DATA
  6
Continuous
 62
     7
100
AcDbLine
 10
17.02000000029284
 20
-123.9822027656532
 30
0.0
 11
17.02000000029284
 21
-97.78187042444479
 31
0.0
  0
LINE
  5
2AF
330
42D
100
AcDbEntity
  8
DATA
  6
Continuous
 62
     7
100
AcDbLine
 10
15.52000000029284
 20
-125.6565185583476
 30
0.0
 11
15.52000000029284
 21
-131.7679491924311
 31
0.0
  0
LINE
  5
2B0
330
42D
100
AcDbEntity
  8
DATA
  6
Continuous
 62
     7
100
AcDbLine
 10
16.32000000029279
 20
-132.6282202112918
 30
0.0
 11
16.32000000029279
 21
-126.2579091642636
 31
0.0
  0
LINE
  5
2B1
330
42D
100
AcDbEntity
  8
DATA
  6
Continuous
 62
     7
100
AcDbLine
 10
16.6700000055082
 20
-125.6516913725811
 30
0.0
 11
17.66999999507743
 21
-125.0743411094137
 31
0.0
  0
LINE
  5
2B2
330
42D
100
AcDbEntity
  8
DATA
  6
Continuous
 62
     7
100
AcDbLine
 10
15.87000000550824
 20
-125.0503007666651
 30
0.0
 11
16.66999999507743
 21
-124.5884205573356
 31
0.0
  0
LINE
  5
2B3
330
42D
100
AcDbEntity
  8
DATA
  6
Continuous
 62
     7
100
AcDbLine
 10
18.02000000029284
 20
-124.4681233177313
 30
0.0
 11
18.02000000029284
 21
-137.5
 31
0.0
  0
ARC
  5
2B4
330
42D
100
AcDbEntity
  8
DATA
  6
Continuous
 62
     7
100
AcDbCircle
 10
-197.2799999997071
 20
-123.9822027716754
 30
0.0
 40
0.7000000000000455
100
AcDbArc
 50
180.0
 51
239.9999999999905
  0
ARC
  5
2B5
330
42D
100
AcDbEntity
  8
DATA
  6
Continuous
 62
     7
100
AcDbCircle
 10
-197.180000010138
 20
-125.6565185583476
 30
0.0
 40
0.7000000104308129
100
AcDbArc
 50
0.0
 51
60.00000000000108
  0
ARC
  5
2B6
330
42D
100
AcDbEntity
  8
DATA
  6
Continuous
 62
     7
100
AcDbCircle
 10
-198.2799999892764
 20
-124.4681233177313
 30
0.0
 40
0.7000000104308129
100
AcDbArc
 50
180.0
 51
240.0
  0
ARC
  5
2B7
330
42D
100
AcDbEntity
  8
DATA
  6
Continuous
 62
     7
100
AcDbCircle
 10
-197.980000010138
 20
-126.2579091642636
 30
0.0
 40
0.7000000104308129
100
AcDbArc
 50
0.0
 51
60.00000000000053
  0
ARC
  5
2B8
330
42D
100
AcDbEntity
  8
DATA
  6
Continuous
 62
     7
100
AcDbCircle
 10
16.31999998986202
 20
-123.9822027656532
 30
0.0
 40
0.7000000104308111
100
AcDbArc
 50
300.0
 51
0.0
  0
ARC
  5
2B9
330
42D
100
AcDbEntity
  8
DATA
  6
Continuous
 62
     7
100
AcDbCircle
 10
16.22000001072365
 20
-125.6565185583476
 30
0.0
 40
0.7000000104308356
100
AcDbArc
 50
119.9999999999989
 51
180.0
  0
ARC
  5
2BA
330
42D
100
AcDbEntity
  8
DATA
  6
Continuous
 62
     7
100
AcDbCircle
 10
17.31999998986202
 20
-124.4681233177313
 30
0.0
 40
0.7000000104308111
100
AcDbArc
 50
300.0
 51
0.0
  0
ARC
  5
2BB
330
42D
100
AcDbEntity
  8
DATA
  6
Continuous
 62
     7
100
AcDbCircle
 10
17.02000001072361
 20
-126.2579091642636
 30
0.0
 40
0.7000000104308234
100
AcDbArc
 50
119.9999999999995
 51
180.0
  0
LINE
  5
2BC
330
42D
100
AcDbEntity
  8
DATA
  6
Continuous
 62
     7
100
AcDbLine
 10
-6.90086436069896
 20
-110.8929307261491
 30
0.0
 11
2.940864361284411
 21
-110.8929307261491
 31
0.0
  0
LINE
  5
2BD
330
42D
100
AcDbEntity
  8
DATA
  6
Continuous
 62
     7
100
AcDbLine
 10
-6.90086436069896
 20
-109.8929307261491
 30
0.0
 11
-5.559135638715588
 21
-109.8929307261491
 31
0.0
  0
LINE
  5
2BE
330
42D
100
AcDbEntity
  8
DATA
  6
Continuous
 62
     7
100
AcDbLine
 10
-5.559135638715588
 20
-109.8929307261491
 30
0.0
 11
-6.059135638715588
 21
-110.8929307261491
 31
0.0
  0
LINE
  5
2BF
330
42D
100
AcDbEntity
  8
DATA
  6
Continuous
 62
     7
100
AcDbLine
 10
-3.059135638715588
 20
-110.8929307261491
 30
0.0
 11
-3.559135638715588
 21
-109.8929307261491
 31
0.0
  0
LINE
  5
2C0
330
42D
100
AcDbEntity
  8
DATA
  6
Continuous
 62
     7
100
AcDbLine
 10
-3.559135638715588
 20
-109.8929307261491
 30
0.0
 11
-0.5591356387155884
 21
-109.8929307261491
 31
0.0
  0
LINE
  5
2C1
330
42D
100
AcDbEntity
  8
DATA
  6
Continuous
 62
     7
100
AcDbLine
 10
-0.5591356387155884
 20
-109.8929307261491
 30
0.0
 11
-1.059135638715588
 21
-110.8929307261491
 31
0.0
  0
LINE
  5
2C2
330
42D
100
AcDbEntity
  8
DATA
  6
Continuous
 62
     7
100
AcDbLine
 10
2.940864361284411
 20
-109.8929307261491
 30
0.0
 11
1.440864361284411
 21
-109.8929307261491
 31
0.0
  0
LINE
  5
2C3
330
42D
100
AcDbEntity
  8
DATA
  6
Continuous
 62
     7
100
AcDbLine
 10
1.440864361284411
 20
-109.8929307261491
 30
0.0
 11
1.940864361284411
 21
-110.8929307261491
 31
0.0
  0
LWPOLYLINE
  5
2C4
330
42D
100
AcDbEntity
  8
DATA
  6
Continuous
 62
     7
100
AcDbPolyline
 90
        4
 70
     1
 43
0.0
 10
-5.059135638715588
 20
-106.3929307261491
 10
-4.059135638715588
 20
-106.3929307261491
 10
-4.059135638715588
 20
-107.3929307261491
 10
-5.059135638715588
 20
-107.3929307261491
  0
LWPOLYLINE
  5
2CB
330
42D
100
AcDbEntity
  8
DATA
  6
Continuous
 62
     7
100
AcDbPolyline
 90
        4
 70
     1
 43
0.0
 10
-0.0591356387155884
 20
-106.3929307261491
 10
0.9408643612844116
 20
-106.3929307261491
 10
0.9408643612844116
 20
-107.3929307261491
 10
-0.0591356387155884
 20
-107.3929307261491
  0
ARC
  5
2D2
330
42D
100
AcDbEntity
  8
DATA
  6
Continuous
 62
     7
100
AcDbCircle
 10
-4.559135638715588
 20
-107.5179307261491
 30
0.0
 40
3.625
100
AcDbArc
 50
46.39718102729637
 51
130.2402529182612
  0
ARC
  5
2D3
330
42D
100
AcDbEntity
  8
DATA
  6
Continuous
 62
     7
100
AcDbCircle
 10
0.4408643612844116
 20
-107.5179307261491
 30
0.0
 40
3.625
100
AcDbArc
 50
46.39718102729637
 51
133.6028189727036
  0
LINE
  5
2D4
330
42D
100
AcDbEntity
  8
DATA
  6
Continuous
 62
     7
100
AcDbLine
 10
2.940864361284411
 20
-102.8929307261491
 30
0.0
 11
2.940864361284411
 21
-111.3929307261491
 31
0.0
  0
ARC
  5
2D5
330
42D
100
AcDbEntity
  8
DATA
  6
Continuous
 62
     7
100
AcDbCircle
 10
-4.559135638715588
 20
-107.0179307261491
 30
0.0
 40
3.625
100
AcDbArc
 50
46.39718102729637
 51
130.2402529182612
  0
ARC
  5
2D6
330
42D
100
AcDbEntity
  8
DATA
  6
Continuous
 62
     7
100
AcDbCircle
 10
0.4408643612844116
 20
-107.0179307261491
 30
0.0
 40
3.625
100
AcDbArc
 50
46.39718102729637
 51
133.6028189727036
  0
LINE
  5
2D7
330
42D
100
AcDbEntity
  8
DATA
  6
Continuous
 62
     7
100
AcDbLine
 10
-6.90086436069896
 20
-111.3929307261491
 30
0.0
 11
2.940864361284411
 21
-111.3929307261491
 31
0.0
  0
LINE
  5
2D8
330
42D
100
AcDbEntity
  8
DATA
  6
Continuous
 62
     7
100
AcDbLine
 10
-6.90086436069896
 20
-102.8929307261491
 30
0.0
 11
2.940864361284411
 21
-102.8929307261491
 31
0.0
  0
LINE
  5
2D9
330
42D
100
AcDbEntity
  8
DATA
  6
Continuous
 62
     7
100
AcDbLine
 10
-6.90086436069896
 20
-102.8929307261491
 30
0.0
 11
-6.90086436069896
 21
-111.3929307261491
 31
0.0
  0
LWPOLYLINE
  5
2DA
330
42D
100
AcDbEntity
  8
DATA
  6
Continuous
 62
     7
100
AcDbPolyline
 90
        4
 70
     1
 43
0.0
 10
-26.64462492898588
 20
-103.5021195474217
 10
-11.14462492898588
 20
-103.5021195474217
 10
-11.14462492898588
 20
-128.5021195474216
 10
-26.64462492898588
 20
-128.5021195474216
  0
LINE
  5
2E1
330
42D
100
AcDbEntity
  8
DATA
  6
Continuous
 62
     7
100
AcDbLine
 10
-15.64462492898587
 20
-127.0021195474217
 30
0.0
 11
-15.64462492898587
 21
-126.0021195474217
 31
0.0
  0
LINE
  5
2E2
330
42D
100
AcDbEntity
  8
DATA
  6
Continuous
 62
     7
100
AcDbLine
 10
-15.64462492898587
 20
-126.0021195474217
 30
0.0
 11
-12.64462492898587
 21
-126.0021195474217
 31
0.0
  0
LINE
  5
2E3
330
42D
100
AcDbEntity
  8
DATA
  6
Continuous
 62
     7
100
AcDbLine
 10
-12.64462492898587
 20
-126.0021195474217
 30
0.0
 11
-12.64462492898587
 21
-118.5021195474217
 31
0.0
  0
LINE
  5
2E4
330
42D
100
AcDbEntity
  8
DATA
  6
Continuous
 62
     7
100
AcDbLine
 10
-22.14462492898588
 20
-127.0021195474217
 30
0.0
 11
-22.14462492898588
 21
-126.0021195474217
 31
0.0
  0
LINE
  5
2E5
330
42D
100
AcDbEntity
  8
DATA
  6
Continuous
 62
     7
100
AcDbLine
 10
-22.14462492898588
 20
-126.0021195474217
 30
0.0
 11
-25.14462492898588
 21
-126.0021195474217
 31
0.0
  0
LINE
  5
2E6
330
42D
100
AcDbEntity
  8
DATA
  6
Continuous
 62
     7
100
AcDbLine
 10
-25.14462492898588
 20
-126.0021195474217
 30
0.0
 11
-25.14462492898588
 21
-118.5021195474217
 31
0.0
  0
LINE
  5
2E7
330
42D
100
AcDbEntity
  8
DATA
  6
Continuous
 62
     7
100
AcDbLine
 10
-12.64462492898587
 20
-118.5021195474217
 30
0.0
 11
-25.14462492898588
 21
-118.5021195474217
 31
0.0
  0
LINE
  5
2E8
330
42D
100
AcDbEntity
  8
DATA
  6
Continuous
 62
     7
100
AcDbLine
 10
-22.39462492898588
 20
-126.2521195474217
 30
0.0
 11
-25.14462492898588
 21
-126.2521195474217
 31
0.0
  0
LINE
  5
2E9
330
42D
100
AcDbEntity
  8
DATA
  6
Continuous
 62
     7
100
AcDbLine
 10
-22.39462492898588
 20
-126.2521195474217
 30
0.0
 11
-22.39462492898588
 21
-127.2521195474217
 31
0.0
  0
LINE
  5
2EA
330
42D
100
AcDbEntity
  8
DATA
  6
Continuous
 62
     7
100
AcDbLine
 10
-25.14462492898588
 20
-126.2521195474217
 30
0.0
 11
-25.14462492898588
 21
-127.2521195474217
 31
0.0
  0
LINE
  5
2EB
330
42D
100
AcDbEntity
  8
DATA
  6
Continuous
 62
     7
100
AcDbLine
 10
-25.14462492898588
 20
-127.2521195474217
 30
0.0
 11
-22.39462492898588
 21
-127.2521195474217
 31
0.0
  0
LINE
  5
2EC
330
42D
100
AcDbEntity
  8
DATA
  6
Continuous
 62
     7
100
AcDbLine
 10
-15.39462492898587
 20
-126.2521195474217
 30
0.0
 11
-12.64462492898587
 21
-126.2521195474217
 31
0.0
  0
LINE
  5
2ED
330
42D
100
AcDbEntity
  8
DATA
  6
Continuous
 62
     7
100
AcDbLine
 10
-15.39462492898587
 20
-126.2521195474217
 30
0.0
 11
-15.39462492898587
 21
-127.2521195474217
 31
0.0
  0
LINE
  5
2EE
330
42D
100
AcDbEntity
  8
DATA
  6
Continuous
 62
     7
100
AcDbLine
 10
-12.64462492898587
 20
-126.2521195474217
 30
0.0
 11
-12.64462492898587
 21
-127.2521195474217
 31
0.0
  0
LINE
  5
2EF
330
42D
100
AcDbEntity
  8
DATA
  6
Continuous
 62
     7
100
AcDbLine
 10
-12.64462492898587
 20
-127.2521195474217
 30
0.0
 11
-15.39462492898587
 21
-127.2521195474217
 31
0.0
  0
LINE
  5
2F0
330
42D
100
AcDbEntity
  8
DATA
  6
Continuous
 62
     7
100
AcDbLine
 10
-22.14462492898588
 20
-127.0021195474217
 30
0.0
 11
-21.14462492898588
 21
-127.0021195474217
 31
0.0
  0
LINE
  5
2F1
330
42D
100
AcDbEntity
  8
DATA
  6
Continuous
 62
     7
100
AcDbLine
 10
-15.64462492898587
 20
-127.0021195474217
 30
0.0
 11
-16.64462492898587
 21
-127.0021195474217
 31
0.0
  0
LINE
  5
2F2
330
42D
100
AcDbEntity
  8
DATA
  6
Continuous
 62
     7
100
AcDbLine
 10
-16.64462492898587
 20
-127.0021195474217
 30
0.0
 11
-16.64462492898587
 21
-128.0021195474216
 31
0.0
  0
LINE
  5
2F3
330
42D
100
AcDbEntity
  8
DATA
  6
Continuous
 62
     7
100
AcDbLine
 10
-21.14462492898588
 20
-127.0021195474217
 30
0.0
 11
-21.14462492898588
 21
-128.0021195474216
 31
0.0
  0
LINE
  5
2F4
330
42D
100
AcDbEntity
  8
DATA
  6
Continuous
 62
     7
100
AcDbLine
 10
-21.14462492898588
 20
-128.0021195474216
 30
0.0
 11
-16.64462492898587
 21
-128.0021195474216
 31
0.0
  0
LINE
  5
2F5
330
42D
100
AcDbEntity
  8
DATA
  6
Continuous
 62
     7
100
AcDbLine
 10
-11.14462492898588
 20
-115.0021195474216
 30
0.0
 11
-26.64462492898588
 21
-115.0021195474216
 31
0.0
  0
LINE
  5
2F6
330
42D
100
AcDbEntity
  8
DATA
  6
Continuous
 62
     7
100
AcDbLine
 10
-22.14462492898588
 20
-105.0021195474217
 30
0.0
 11
-22.14462492898588
 21
-106.0021195474217
 31
0.0
  0
LINE
  5
2F7
330
42D
100
AcDbEntity
  8
DATA
  6
Continuous
 62
     7
100
AcDbLine
 10
-22.14462492898588
 20
-106.0021195474217
 30
0.0
 11
-25.14462492898588
 21
-106.0021195474217
 31
0.0
  0
LINE
  5
2F8
330
42D
100
AcDbEntity
  8
DATA
  6
Continuous
 62
     7
100
AcDbLine
 10
-25.14462492898588
 20
-106.0021195474217
 30
0.0
 11
-25.14462492898588
 21
-113.5021195474217
 31
0.0
  0
LINE
  5
2F9
330
42D
100
AcDbEntity
  8
DATA
  6
Continuous
 62
     7
100
AcDbLine
 10
-15.64462492898587
 20
-105.0021195474217
 30
0.0
 11
-15.64462492898587
 21
-106.0021195474217
 31
0.0
  0
LINE
  5
2FA
330
42D
100
AcDbEntity
  8
DATA
  6
Continuous
 62
     7
100
AcDbLine
 10
-15.64462492898587
 20
-106.0021195474217
 30
0.0
 11
-12.64462492898587
 21
-106.0021195474217
 31
0.0
  0
LINE
  5
2FB
330
42D
100
AcDbEntity
  8
DATA
  6
Continuous
 62
     7
100
AcDbLine
 10
-12.64462492898587
 20
-106.0021195474217
 30
0.0
 11
-12.64462492898587
 21
-113.5021195474217
 31
0.0
  0
LINE
  5
2FC
330
42D
100
AcDbEntity
  8
DATA
  6
Continuous
 62
     7
100
AcDbLine
 10
-25.14462492898588
 20
-113.5021195474217
 30
0.0
 11
-12.64462492898587
 21
-113.5021195474217
 31
0.0
  0
LINE
  5
2FD
330
42D
100
AcDbEntity
  8
DATA
  6
Continuous
 62
     7
100
AcDbLine
 10
-15.39462492898587
 20
-105.7521195474217
 30
0.0
 11
-12.64462492898587
 21
-105.7521195474217
 31
0.0
  0
LINE
  5
2FE
330
42D
100
AcDbEntity
  8
DATA
  6
Continuous
 62
     7
100
AcDbLine
 10
-15.39462492898587
 20
-105.7521195474217
 30
0.0
 11
-15.39462492898587
 21
-104.7521195474217
 31
0.0
  0
LINE
  5
2FF
330
42D
100
AcDbEntity
  8
DATA
  6
Continuous
 62
     7
100
AcDbLine
 10
-12.64462492898587
 20
-105.7521195474217
 30
0.0
 11
-12.64462492898587
 21
-104.7521195474217
 31
0.0
  0
LINE
  5
300
330
42D
100
AcDbEntity
  8
DATA
  6
Continuous
 62
     7
100
AcDbLine
 10
-12.64462492898587
 20
-104.7521195474217
 30
0.0
 11
-15.39462492898587
 21
-104.7521195474217
 31
0.0
  0
LINE
  5
301
330
42D
100
AcDbEntity
  8
DATA
  6
Continuous
 62
     7
100
AcDbLine
 10
-22.39462492898588
 20
-105.7521195474217
 30
0.0
 11
-25.14462492898588
 21
-105.7521195474217
 31
0.0
  0
LINE
  5
302
330
42D
100
AcDbEntity
  8
DATA
  6
Continuous
 62
     7
100
AcDbLine
 10
-22.39462492898588
 20
-105.7521195474217
 30
0.0
 11
-22.39462492898588
 21
-104.7521195474217
 31
0.0
  0
LINE
  5
303
330
42D
100
AcDbEntity
  8
DATA
  6
Continuous
 62
     7
100
AcDbLine
 10
-25.14462492898588
 20
-105.7521195474217
 30
0.0
 11
-25.14462492898588
 21
-104.7521195474217
 31
0.0
  0
LINE
  5
304
330
42D
100
AcDbEntity
  8
DATA
  6
Continuous
 62
     7
100
AcDbLine
 10
-25.14462492898588
 20
-104.7521195474217
 30
0.0
 11
-22.39462492898588
 21
-104.7521195474217
 31
0.0
  0
LINE
  5
305
330
42D
100
AcDbEntity
  8
DATA
  6
Continuous
 62
     7
100
AcDbLine
 10
-15.64462492898587
 20
-105.0021195474217
 30
0.0
 11
-16.64462492898587
 21
-105.0021195474217
 31
0.0
  0
LINE
  5
306
330
42D
100
AcDbEntity
  8
DATA
  6
Continuous
 62
     7
100
AcDbLine
 10
-22.14462492898588
 20
-105.0021195474217
 30
0.0
 11
-21.14462492898588
 21
-105.0021195474217
 31
0.0
  0
LINE
  5
307
330
42D
100
AcDbEntity
  8
DATA
  6
Continuous
 62
     7
100
AcDbLine
 10
-21.14462492898588
 20
-105.0021195474217
 30
0.0
 11
-21.14462492898588
 21
-104.0021195474217
 31
0.0
  0
LINE
  5
308
330
42D
100
AcDbEntity
  8
DATA
  6
Continuous
 62
     7
100
AcDbLine
 10
-16.64462492898587
 20
-105.0021195474217
 30
0.0
 11
-16.64462492898587
 21
-104.0021195474217
 31
0.0
  0
LINE
  5
309
330
42D
100
AcDbEntity
  8
DATA
  6
Continuous
 62
     7
100
AcDbLine
 10
-16.64462492898587
 20
-104.0021195474217
 30
0.0
 11
-21.14462492898588
 21
-104.0021195474217
 31
0.0
  0
LINE
  5
30A
330
42D
100
AcDbEntity
  8
DATA
  6
Continuous
 62
     7
100
AcDbLine
 10
-26.64462492898588
 20
-117.0021195474217
 30
0.0
 11
-11.14462492898588
 21
-117.0021195474217
 31
0.0
  0
TEXT
  5
30B
330
42D
100
AcDbEntity
  8
DATA
 62
     7
100
AcDbText
 10
6.490466272690355
 20
-125.1419999999999
 30
0.0
 40
2.1546875
  1
>BLU link>IN
 50
180.0
 41
0.7
 11
6.490466272690355
 21
-127.2966874999999
 31
0.0
100
AcDbText
 73
     3
  0
LINE
  5
30C
330
42D
100
AcDbEntity
  8
DATA
  6
Continuous
 62
     7
100
AcDbLine
 10
-33.21380292239723
 20
-103.4999999999948
 30
0.0
 11
-33.21380292239723
 21
-113.2999999999948
 31
0.0
  0
LINE
  5
30D
330
42D
100
AcDbEntity
  8
DATA
  6
Continuous
 62
     7
100
AcDbLine
 10
-49.91380292239728
 20
-103.4999999999948
 30
0.0
 11
-33.21380292239723
 21
-103.4999999999948
 31
0.0
  0
LINE
  5
30E
330
42D
100
AcDbEntity
  8
DATA
  6
Continuous
 62
     7
100
AcDbLine
 10
-49.91380292239728
 20
-113.2999999999948
 30
0.0
 11
-49.91380292239728
 21
-103.4999999999948
 31
0.0
  0
LINE
  5
30F
330
42D
100
AcDbEntity
  8
DATA
  6
Continuous
 62
     7
100
AcDbLine
 10
-33.21380292239723
 20
-113.2999999999948
 30
0.0
 11
-49.91380292239728
 21
-113.2999999999948
 31
0.0
  0
LWPOLYLINE
  5
310
330
42D
100
AcDbEntity
  8
DATA
  6
Continuous
 62
     7
100
AcDbPolyline
 90
        4
 70
     1
 43
0.0
 10
-35.90601929211834
 20
-106.9999999999948
 10
-34.50601929211848
 20
-106.9999999999948
 10
-34.50601929211848
 20
-110.3999999999948
 10
-35.90601929211834
 20
-110.3999999999948
  0
LWPOLYLINE
  5
317
330
42D
100
AcDbEntity
  8
DATA
  6
Continuous
 62
     7
100
AcDbPolyline
 90
        4
 70
     1
 43
0.0
 10
-38.40601929211834
 20
-106.9999999999948
 10
-37.00601929211848
 20
-106.9999999999948
 10
-37.00601929211848
 20
-110.3999999999948
 10
-38.40601929211834
 20
-110.3999999999948
  0
LWPOLYLINE
  5
31E
330
42D
100
AcDbEntity
  8
DATA
  6
Continuous
 62
     7
100
AcDbPolyline
 90
        4
 70
     1
 43
0.0
 10
-40.90601929211834
 20
-106.9999999999948
 10
-39.50601929211848
 20
-106.9999999999948
 10
-39.50601929211848
 20
-110.3999999999948
 10
-40.90601929211834
 20
-110.3999999999948
  0
LWPOLYLINE
  5
325
330
42D
100
AcDbEntity
  8
DATA
  6
Continuous
 62
     7
100
AcDbPolyline
 90
        4
 70
     1
 43
0.0
 10
-43.40601929211834
 20
-106.9999999999948
 10
-42.00601929211848
 20
-106.9999999999948
 10
-42.00601929211848
 20
-110.3999999999948
 10
-43.40601929211834
 20
-110.3999999999948
  0
LWPOLYLINE
  5
32C
330
42D
100
AcDbEntity
  8
DATA
  6
Continuous
 62
     7
100
AcDbPolyline
 90
        4
 70
     1
 43
0.0
 10
-45.90601929211834
 20
-106.9999999999948
 10
-44.50601929211847
 20
-106.9999999999948
 10
-44.50601929211847
 20
-110.3999999999948
 10
-45.90601929211834
 20
-110.3999999999948
  0
LWPOLYLINE
  5
333
330
42D
100
AcDbEntity
  8
DATA
  6
Continuous
 62
     7
100
AcDbPolyline
 90
        4
 70
     1
 43
0.0
 10
-48.40601929211834
 20
-106.9999999999948
 10
-47.00601929211847
 20
-106.9999999999948
 10
-47.00601929211847
 20
-110.3999999999948
 10
-48.40601929211834
 20
-110.3999999999948
  0
TEXT
  5
33A
330
42D
100
AcDbEntity
  8
DATA
 62
     7
100
AcDbText
 10
-33.75499999639578
 20
-111.5699999999999
 30
0.0
 40
1.3466796875
  1
ON
 50
180.0
 41
0.7
 11
-33.75499999639578
 21
-112.9166796874999
 31
0.0
100
AcDbText
 73
     3
  0
TEXT
  5
33B
330
42D
100
AcDbEntity
  8
DATA
 62
     7
100
AcDbText
 10
-34.76781297060052
 20
-104.6333712631581
 30
0.0
 40
1.3466796875
  1
1
 50
180.0
 41
0.7
 11
-34.76781297060052
 21
-105.9800509506581
 31
0.0
100
AcDbText
 73
     3
  0
TEXT
  5
33C
330
42D
100
AcDbEntity
  8
DATA
 62
     7
100
AcDbText
 10
-37.26781297060052
 20
-104.6333712631581
 30
0.0
 40
1.3466796875
  1
2
 50
180.0
 41
0.7
 11
-37.26781297060052
 21
-105.9800509506581
 31
0.0
100
AcDbText
 73
     3
  0
TEXT
  5
33D
330
42D
100
AcDbEntity
  8
DATA
 62
     7
100
AcDbText
 10
-39.76781297060052
 20
-104.6333712631581
 30
0.0
 40
1.3466796875
  1
3
 50
180.0
 41
0.7
 11
-39.76781297060052
 21
-105.9800509506581
 31
0.0
100
AcDbText
 73
     3
  0
TEXT
  5
33E
330
42D
100
AcDbEntity
  8
DATA
 62
     7
100
AcDbText
 10
-42.26781297060052
 20
-104.6333712631581
 30
0.0
 40
1.3466796875
  1
4
 50
180.0
 41
0.7
 11
-42.26781297060052
 21
-105.9800509506581
 31
0.0
100
AcDbText
 73
     3
  0
TEXT
  5
33F
330
42D
100
AcDbEntity
  8
DATA
 62
     7
100
AcDbText
 10
-44.76781297060052
 20
-104.6333712631581
 30
0.0
 40
1.3466796875
  1
5
 50
180.0
 41
0.7
 11
-44.76781297060052
 21
-105.9800509506581
 31
0.0
100
AcDbText
 73
     3
  0
TEXT
  5
340
330
42D
100
AcDbEntity
  8
DATA
 62
     7
100
AcDbText
 10
-47.26781297060052
 20
-104.6333712631581
 30
0.0
 40
1.3466796875
  1
6
 50
180.0
 41
0.7
 11
-47.26781297060052
 21
-105.9800509506581
 31
0.0
100
AcDbText
 73
     3
  0
TEXT
  5
341
330
42D
100
AcDbEntity
  8
DATA
 62
     7
100
AcDbText
 10
1.275582593995977
 20
-98.28999999999997
 30
0.0
 40
2.693359375
  1
+
 50
180.0
 41
0.7
 11
1.275582593995977
 21
-100.9833593749999
 31
0.0
100
AcDbText
 73
     3
  0
TEXT
  5
342
330
42D
100
AcDbEntity
  8
DATA
 62
     7
100
AcDbText
 10
-3.724417406004021
 20
-98.28999999999997
 30
0.0
 40
2.693359375
  1
-
 50
180.0
 41
0.7
 11
-3.724417406004022
 21
-100.9833593749999
 31
0.0
100
AcDbText
 73
     3
  0
TEXT
  5
343
330
42D
100
AcDbEntity
  8
DATA
 62
     7
100
AcDbText
 10
2.30629983337144
 20
-116.1735657683238
 30
0.0
 40
2.693359375
  1
12VDC
 50
180.0
 41
0.7
 11
2.30629983337144
 21
-118.8669251433238
 31
0.0
100
AcDbText
 73
     3
  0
TEXT
  5
344
330
42D
100
AcDbEntity
  8
DATA
 62
     7
100
AcDbText
 10
0.5345135804313946
 20
-112.6044022934087
 30
0.0
 40
2.693359375
  1
19W
 50
180.0
 41
0.7
 11
0.5345135804313941
 21
-115.2977616684087
 31
0.0
100
AcDbText
 73
     3
  0
TEXT
  5
345
330
42D
100
AcDbEntity
  8
DATA
 62
     7
100
AcDbText
 10
-31.82670896264335
 20
-125.250291945374
 30
0.0
 40
2.1546875
  1
<BLU link<OUT
 50
180.0
 41
0.7
 11
-31.82670896264335
 21
-127.4049794453741
 31
0.0
100
AcDbText
 73
     3
  0
LINE
  5
346
330
42D
100
AcDbEntity
  8
DATA
  6
Continuous
 62
     7
100
AcDbLine
 10
-26.934674594537
 20
-109.7521195474217
 30
0.0
 11
-28.94839642697503
 21
-109.7521195474217
 31
0.0
  0
LINE
  5
347
330
42D
100
AcDbEntity
  8
DATA
  6
Continuous
 62
     7
100
AcDbLine
 10
-28.94839642697503
 20
-109.7521195474217
 30
0.0
 11
-28.94839642697503
 21
-126.2719823192458
 31
0.0
  0
LINE
  5
348
330
42D
100
AcDbEntity
  8
DATA
  6
Continuous
 62
     7
100
AcDbLine
 10
-28.94839642697503
 20
-126.2719823192458
 30
0.0
 11
-30.97874408583243
 21
-126.2719823192458
 31
0.0
  0
TEXT
  5
349
330
42D
100
AcDbEntity
  8
DATA
 62
     7
100
AcDbText
 10
-36.40932645347926
 20
-117.6281971931871
 30
0.0
 40
2.1546875
  1
CHANNEL
 50
180.0
 41
0.7
 11
-36.40932645347926
 21
-119.7828846931871
 31
0.0
100
AcDbText
 73
     3
  0
TEXT
  5
34A
330
42D
100
AcDbEntity
  8
DATA
 62
     7
100
AcDbText
 10
-36.91570122077019
 20
-114.5176093369718
 30
0.0
 40
2.1546875
  1
SELECT
 50
180.0
 41
0.7
 11
-36.91570122077019
 21
-116.6722968369718
 31
0.0
100
AcDbText
 73
     3
  0
CIRCLE
  5
34B
330
42D
100
AcDbEntity
  8
DATA
  6
Continuous
 62
     7
100
AcDbCircle
 10
-7.979999999707161
 20
-131.4999999999999
 30
0.0
 40
2.5
  0
LINE
  5
34C
330
42D
100
AcDbEntity
  8
DATA
  6
Continuous
 62
     7
100
AcDbLine
 10
-6.750915982540391
 20
-131.4999999999999
 30
0.0
 11
-9.209084016874157
 21
-131.4999999999999
 31
0.0
  0
LINE
  5
34D
330
42D
100
AcDbEntity
  8
DATA
  6
Continuous
 62
     7
100
AcDbLine
 10
-7.979999999707161
 20
-130.2709159828331
 30
0.0
 11
-7.979999999707161
 21
-132.7290840171668
 31
0.0
  0
ARC
  5
34E
330
42D
100
AcDbEntity
  8
DATA
  6
Continuous
 62
     7
100
AcDbCircle
 10
-7.979999999707161
 20
-131.7222167102333
 30
0.0
 40
3.507047228981519
100
AcDbArc
 50
3.632860869283088
 51
176.3671391307169
  0
CIRCLE
  5
34F
330
42D
100
AcDbEntity
  8
DATA
  6
Continuous
 62
     7
100
AcDbCircle
 10
-172.9799999997071
 20
-131.4999999999999
 30
0.0
 40
2.5
  0
LINE
  5
350
330
42D
100
AcDbEntity
  8
DATA
  6
Continuous
 62
     7
100
AcDbLine
 10
-171.7509159825404
 20
-131.4999999999999
 30
0.0
 11
-174.2090840168741
 21
-131.4999999999999
 31
0.0
  0
LINE
  5
351
330
42D
100
AcDbEntity
  8
DATA
  6
Continuous
 62
     7
100
AcDbLine
 10
-172.9799999997071
 20
-130.2709159828331
 30
0.0
 11
-172.9799999997071
 21
-132.7290840171668
 31
0.0
  0
ARC
  5
352
330
42D
100
AcDbEntity
  8
DATA
  6
Continuous
 62
     7
100
AcDbCircle
 10
-172.9799999997071
 20
-131.7222167102333
 30
0.0
 40
3.507047228981519
100
AcDbArc
 50
3.632860869283088
 51
176.3671391307169
  0
LINE
  5
353
330
42D
100
AcDbEntity
  8
DATA
  6
Continuous
 62
     7
100
AcDbLine
 10
39.0
 20
-400.0
 30
0.0
 11
42.5
 21
-400.0
 31
0.0
  0
LINE
  5
354
330
42D
100
AcDbEntity
  8
DATA
  6
Continuous
 62
     7
100
AcDbLine
 10
39.0
 20
-358.0
 30
0.0
 11
230.5
 21
-358.0
 31
0.0
  0
LINE
  5
355
330
42D
100
AcDbEntity
  8
DATA
  6
Continuous
 62
     7
100
AcDbLine
 10
37.5
 20
-385.0
 30
0.0
 11
37.5
 21
-373.0
 31
0.0
  0
LINE
  5
356
330
42D
100
AcDbEntity
  8
DATA
  6
Continuous
 62
     7
100
AcDbLine
 10
232.5
 20
-364.0
 30
0.0
 11
232.5
 21
-360.0
 31
0.0
  0
LINE
  5
357
330
42D
100
AcDbEntity
  8
DATA
  6
Continuous
 62
     7
100
AcDbLine
 10
39.0
 20
-400.0
 30
0.0
 11
39.0
 21
-358.0
 31
0.0
  0
LINE
  5
358
330
42D
100
AcDbEntity
  8
DATA
  6
Continuous
 62
     7
100
AcDbLine
 10
42.5
 20
-368.0
 30
0.0
 11
42.5
 21
-358.0
 31
0.0
  0
LINE
  5
359
330
42D
100
AcDbEntity
  8
DATA
  6
Continuous
 62
     7
100
AcDbLine
 10
44.5
 20
-370.0
 30
0.0
 11
229.3000000000001
 21
-370.0
 31
0.0
  0
ARC
  5
35A
330
42D
100
AcDbEntity
  8
DATA
  6
Continuous
 62
     7
100
AcDbCircle
 10
44.5
 20
-368.0
 30
0.0
 40
2.0
100
AcDbArc
 50
180.0
 51
270.0
  0
LINE
  5
35B
330
42D
100
AcDbEntity
  8
DATA
  6
Continuous
 62
     7
100
AcDbLine
 10
42.5
 20
-368.0
 30
0.0
 11
42.5
 21
-400.0
 31
0.0
  0
LINE
  5
35C
330
42D
100
AcDbEntity
  8
DATA
  6
Continuous
 62
     7
100
AcDbLine
 10
42.5
 20
-399.0
 30
0.0
 11
230.1000000000001
 21
-399.0
 31
0.0
  0
LINE
  5
35D
330
42D
100
AcDbEntity
  8
DATA
  6
Continuous
 62
     7
100
AcDbLine
 10
231.3000000000001
 20
-359.1999999999999
 30
0.0
 11
231.3000000000001
 21
-368.0
 31
0.0
  0
ARC
  5
35E
330
42D
100
AcDbEntity
  8
DATA
  6
Continuous
 62
     7
100
AcDbCircle
 10
230.1000000000001
 20
-397.7999999999998
 30
0.0
 40
1.200000000000045
100
AcDbArc
 50
270.0
 51
359.9999999999973
  0
ARC
  5
35F
330
42D
100
AcDbEntity
  8
DATA
  6
Continuous
 62
     7
100
AcDbCircle
 10
229.3000000000001
 20
-368.0
 30
0.0
 40
2.0
100
AcDbArc
 50
270.0
 51
0.0
  0
LINE
  5
360
330
42D
100
AcDbEntity
  8
DATA
  6
Continuous
 62
     7
100
AcDbLine
 10
231.3000000000001
 20
-397.8
 30
0.0
 11
231.3000000000001
 21
-368.0
 31
0.0
  0
LINE
  5
361
330
42D
100
AcDbEntity
  8
DATA
  6
Continuous
 62
     7
100
AcDbLine
 10
231.3000000000001
 20
-364.0
 30
0.0
 11
232.5
 21
-364.0
 31
0.0
  0
ARC
  5
362
330
42D
100
AcDbEntity
  8
DATA
  6
Continuous
 62
     7
100
AcDbCircle
 10
230.5
 20
-360.0
 30
0.0
 40
2.0
100
AcDbArc
 50
0.0
 51
90.0
  0
CIRCLE
  5
363
330
42D
100
AcDbEntity
  8
DATA
  6
Continuous
 62
     7
100
AcDbCircle
 10
50.0
 20
-375.0
 30
0.0
 40
2.5
  0
LINE
  5
364
330
42D
100
AcDbEntity
  8
DATA
  6
Continuous
 62
     7
100
AcDbLine
 10
51.22908401716678
 20
-375.0
 30
0.0
 11
48.770915982833
 21
-375.0
 31
0.0
  0
LINE
  5
365
330
42D
100
AcDbEntity
  8
DATA
  6
Continuous
 62
     7
100
AcDbLine
 10
50.0
 20
-373.7709159828331
 30
0.0
 11
50.0
 21
-376.2290840171668
 31
0.0
  0
LINE
  5
366
330
42D
100
AcDbEntity
  8
DATA
  6
Continuous
 62
     7
100
AcDbLine
 10
95.0
 20
-377.5
 30
0.0
 11
107.0
 21
-377.5
 31
0.0
  0
LINE
  5
367
330
42D
100
AcDbEntity
  8
DATA
  6
Continuous
 62
     7
100
AcDbLine
 10
95.0
 20
-374.5
 30
0.0
 11
107.0
 21
-374.5
 31
0.0
  0
ARC
  5
368
330
42D
100
AcDbEntity
  8
DATA
  6
Continuous
 62
     7
100
AcDbCircle
 10
95.0
 20
-376.0
 30
0.0
 40
1.5
100
AcDbArc
 50
90.0
 51
270.0
  0
ARC
  5
369
330
42D
100
AcDbEntity
  8
DATA
  6
Continuous
 62
     7
100
AcDbCircle
 10
107.0
 20
-376.0
 30
0.0
 40
1.5
100
AcDbArc
 50
270.0
 51
90.0
  0
LINE
  5
36A
330
42D
100
AcDbEntity
  8
DATA
  6
Continuous
 62
     7
100
AcDbLine
 10
95.0
 20
-390.5
 30
0.0
 11
107.0
 21
-390.5
 31
0.0
  0
LINE
  5
36B
330
42D
100
AcDbEntity
  8
DATA
  6
Continuous
 62
     7
100
AcDbLine
 10
95.0
 20
-387.5
 30
0.0
 11
107.0
 21
-387.5
 31
0.0
  0
ARC
  5
36C
330
42D
100
AcDbEntity
  8
DATA
  6
Continuous
 62
     7
100
AcDbCircle
 10
95.0
 20
-389.0
 30
0.0
 40
1.5
100
AcDbArc
 50
90.0
 51
270.0
  0
ARC
  5
36D
330
42D
100
AcDbEntity
  8
DATA
  6
Continuous
 62
     7
100
AcDbCircle
 10
107.0
 20
-389.0
 30
0.0
 40
1.5
100
AcDbArc
 50
270.0
 51
90.0
  0
LINE
  5
36E
330
42D
100
AcDbEntity
  8
DATA
  6
Continuous
 62
     7
100
AcDbLine
 10
114.0
 20
-377.5
 30
0.0
 11
126.0
 21
-377.5
 31
0.0
  0
LINE
  5
36F
330
42D
100
AcDbEntity
  8
DATA
  6
Continuous
 62
     7
100
AcDbLine
 10
114.0
 20
-374.5
 30
0.0
 11
126.0
 21
-374.5
 31
0.0
  0
ARC
  5
370
330
42D
100
AcDbEntity
  8
DATA
  6
Continuous
 62
     7
100
AcDbCircle
 10
114.0
 20
-376.0
 30
0.0
 40
1.5
100
AcDbArc
 50
90.0
 51
270.0
  0
ARC
  5
371
330
42D
100
AcDbEntity
  8
DATA
  6
Continuous
 62
     7
100
AcDbCircle
 10
126.0
 20
-376.0
 30
0.0
 40
1.5
100
AcDbArc
 50
270.0
 51
90.0
  0
LINE
  5
372
330
42D
100
AcDbEntity
  8
DATA
  6
Continuous
 62
     7
100
AcDbLine
 10
114.0
 20
-390.5
 30
0.0
 11
126.0
 21
-390.5
 31
0.0
  0
LINE
  5
373
330
42D
100
AcDbEntity
  8
DATA
  6
Continuous
 62
     7
100
AcDbLine
 10
114.0
 20
-387.5
 30
0.0
 11
126.0
 21
-387.5
 31
0.0
  0
ARC
  5
374
330
42D
100
AcDbEntity
  8
DATA
  6
Continuous
 62
     7
100
AcDbCircle
 10
114.0
 20
-389.0
 30
0.0
 40
1.5
100
AcDbArc
 50
90.0
 51
270.0
  0
ARC
  5
375
330
42D
100
AcDbEntity
  8
DATA
  6
Continuous
 62
     7
100
AcDbCircle
 10
126.0
 20
-389.0
 30
0.0
 40
1.5
100
AcDbArc
 50
270.0
 51
90.0
  0
LINE
  5
376
330
42D
100
AcDbEntity
  8
DATA
  6
Continuous
 62
     7
100
AcDbLine
 10
133.0
 20
-377.5
 30
0.0
 11
145.0
 21
-377.5
 31
0.0
  0
LINE
  5
377
330
42D
100
AcDbEntity
  8
DATA
  6
Continuous
 62
     7
100
AcDbLine
 10
133.0
 20
-374.5
 30
0.0
 11
145.0
 21
-374.5
 31
0.0
  0
ARC
  5
378
330
42D
100
AcDbEntity
  8
DATA
  6
Continuous
 62
     7
100
AcDbCircle
 10
133.0
 20
-376.0
 30
0.0
 40
1.5
100
AcDbArc
 50
90.0
 51
270.0
  0
ARC
  5
379
330
42D
100
AcDbEntity
  8
DATA
  6
Continuous
 62
     7
100
AcDbCircle
 10
145.0
 20
-376.0
 30
0.0
 40
1.5
100
AcDbArc
 50
270.0
 51
90.0
  0
LINE
  5
37A
330
42D
100
AcDbEntity
  8
DATA
  6
Continuous
 62
     7
100
AcDbLine
 10
133.0
 20
-390.5
 30
0.0
 11
145.0
 21
-390.5
 31
0.0
  0
LINE
  5
37B
330
42D
100
AcDbEntity
  8
DATA
  6
Continuous
 62
     7
100
AcDbLine
 10
133.0
 20
-387.5
 30
0.0
 11
145.0
 21
-387.5
 31
0.0
  0
ARC
  5
37C
330
42D
100
AcDbEntity
  8
DATA
  6
Continuous
 62
     7
100
AcDbCircle
 10
133.0
 20
-389.0
 30
0.0
 40
1.5
100
AcDbArc
 50
90.0
 51
270.0
  0
ARC
  5
37D
330
42D
100
AcDbEntity
  8
DATA
  6
Continuous
 62
     7
100
AcDbCircle
 10
145.0
 20
-389.0
 30
0.0
 40
1.5
100
AcDbArc
 50
270.0
 51
90.0
  0
LINE
  5
37E
330
42D
100
AcDbEntity
  8
DATA
  6
Continuous
 62
     7
100
AcDbLine
 10
152.0
 20
-377.5
 30
0.0
 11
164.0
 21
-377.5
 31
0.0
  0
LINE
  5
37F
330
42D
100
AcDbEntity
  8
DATA
  6
Continuous
 62
     7
100
AcDbLine
 10
152.0
 20
-374.5
 30
0.0
 11
164.0
 21
-374.5
 31
0.0
  0
ARC
  5
380
330
42D
100
AcDbEntity
  8
DATA
  6
Continuous
 62
     7
100
AcDbCircle
 10
152.0
 20
-376.0
 30
0.0
 40
1.5
100
AcDbArc
 50
90.0
 51
270.0
  0
ARC
  5
381
330
42D
100
AcDbEntity
  8
DATA
  6
Continuous
 62
     7
100
AcDbCircle
 10
164.0
 20
-376.0
 30
0.0
 40
1.5
100
AcDbArc
 50
270.0
 51
90.0
  0
LINE
  5
382
330
42D
100
AcDbEntity
  8
DATA
  6
Continuous
 62
     7
100
AcDbLine
 10
152.0
 20
-390.5
 30
0.0
 11
164.0
 21
-390.5
 31
0.0
  0
LINE
  5
383
330
42D
100
AcDbEntity
  8
DATA
  6
Continuous
 62
     7
100
AcDbLine
 10
152.0
 20
-387.5
 30
0.0
 11
164.0
 21
-387.5
 31
0.0
  0
ARC
  5
384
330
42D
100
AcDbEntity
  8
DATA
  6
Continuous
 62
     7
100
AcDbCircle
 10
152.0
 20
-389.0
 30
0.0
 40
1.5
100
AcDbArc
 50
90.0
 51
270.0
  0
ARC
  5
385
330
42D
100
AcDbEntity
  8
DATA
  6
Continuous
 62
     7
100
AcDbCircle
 10
164.0
 20
-389.0
 30
0.0
 40
1.5
100
AcDbArc
 50
270.0
 51
90.0
  0
LINE
  5
386
330
42D
100
AcDbEntity
  8
DATA
  6
Continuous
 62
     7
100
AcDbLine
 10
37.5
 20
-373.0
 30
0.0
 11
39.0
 21
-358.0
 31
0.0
  0
LINE
  5
387
330
42D
100
AcDbEntity
  8
DATA
  6
Continuous
 62
     7
100
AcDbLine
 10
37.5
 20
-385.0
 30
0.0
 11
39.0
 21
-400.0
 31
0.0
  0
LINE
  5
388
330
42D
100
AcDbEntity
  8
DATA
  6
Continuous
 62
     7
100
AcDbLine
 10
236.5000000000002
 20
-384.1070692738471
 30
0.0
 11
231.3000000000001
 21
-384.1070692738471
 31
0.0
  0
LINE
  5
389
330
42D
100
AcDbEntity
  8
DATA
  6
Continuous
 62
     7
100
AcDbLine
 10
236.5000000000002
 20
-392.6070692738471
 30
0.0
 11
231.3000000000001
 21
-392.6070692738471
 31
0.0
  0
LINE
  5
38A
330
42D
100
AcDbEntity
  8
DATA
  6
Continuous
 62
     7
100
AcDbLine
 10
236.5
 20
-384.1070692738471
 30
0.0
 11
236.5
 21
-392.6070692738472
 31
0.0
  0
LINE
  5
38B
330
42D
100
AcDbEntity
  8
DATA
  6
Continuous
 62
     7
100
AcDbLine
 10
232.3000000000002
 20
-366.9978804525745
 30
0.0
 11
231.3000000000001
 21
-366.9978804525745
 31
0.0
  0
LINE
  5
38C
330
42D
100
AcDbEntity
  8
DATA
  6
Continuous
 62
     7
100
AcDbLine
 10
232.3000000000002
 20
-384.1070692738471
 30
0.0
 11
232.3000000000002
 21
-366.9978804525745
 31
0.0
  0
LINE
  5
38D
330
42D
100
AcDbEntity
  8
DATA
  6
Continuous
 62
     7
100
AcDbLine
 10
234.3000000000002
 20
-383.5000000000012
 30
0.0
 11
232.3000000000002
 21
-383.5000000000012
 31
0.0
  0
LINE
  5
38E
330
42D
100
AcDbEntity
  8
DATA
  6
Continuous
 62
     7
100
AcDbLine
 10
234.3000000000002
 20
-384.1070692738471
 30
0.0
 11
234.3000000000002
 21
-383.5000000000012
 31
0.0
  0
CIRCLE
  5
38F
330
42D
100
AcDbEntity
  8
DATA
  6
Continuous
 62
     7
100
AcDbCircle
 10
87.0
 20
-388.0
 30
0.0
 40
2.799999999999954
  0
CIRCLE
  5
390
330
42D
100
AcDbEntity
  8
DATA
  6
Continuous
 62
     7
100
AcDbCircle
 10
182.5
 20
-388.0
 30
0.0
 40
2.799999999999954
  0
LINE
  5
391
330
42D
100
AcDbEntity
  8
DATA
  6
Continuous
 62
     7
100
AcDbLine
 10
-200.0
 20
-379.0
 30
0.0
 11
-173.9989512162674
 21
-379.0
 31
0.0
  0
ARC
  5
392
330
42D
100
AcDbEntity
  8
DATA
  6
Continuous
 62
     7
100
AcDbCircle
 10
-154.3027009682053
 20
-379.0
 30
0.0
 40
28.30374975193788
100
AcDbArc
 50
341.5692238680914
 51
18.43077613190855
  0
ARC
  5
393
330
42D
100
AcDbEntity
  8
DATA
  6
Continuous
 62
     7
100
AcDbCircle
 10
-162.9989512162674
 20
-379.0
 30
0.0
 40
11.0
100
AcDbArc
 50
90.0
 51
270.0
  0
LINE
  5
394
330
42D
100
AcDbEntity
  8
DATA
  6
Continuous
 62
     7
100
AcDbLine
 10
-162.9989512162674
 20
-390.0
 30
0.0
 11
-130.2968735192564
 21
-390.0
 31
0.0
  0
LINE
  5
395
330
42D
100
AcDbEntity
  8
DATA
  6
Continuous
 62
     7
100
AcDbLine
 10
-130.2968735192564
 20
-368.0
 30
0.0
 11
-162.9989512162674
 21
-368.0
 31
0.0
  0
ARC
  5
396
330
42D
100
AcDbEntity
  8
DATA
  6
Continuous
 62
     7
100
AcDbCircle
 10
-130.2968735192564
 20
-370.9999999999998
 30
0.0
 40
2.999999999999778
100
AcDbArc
 50
18.43077613190551
 51
90.0
  0
ARC
  5
397
330
42D
100
AcDbEntity
  8
DATA
  6
Continuous
 62
     7
100
AcDbCircle
 10
-130.2968735192564
 20
-387.0
 30
0.0
 40
2.999999999999829
100
AcDbArc
 50
270.0
 51
341.5692238680945
  0
LINE
  5
398
330
42D
100
AcDbEntity
  8
DATA
  6
Continuous
 62
     7
100
AcDbLine
 10
-185.4799999997072
 20
-152.0
 30
0.0
 11
-185.4799999997072
 21
-155.0
 31
0.0
  0
LINE
  5
399
330
42D
100
AcDbEntity
  8
DATA
  6
Continuous
 62
     7
100
AcDbLine
 10
-155.4799999997071
 20
-152.0
 30
0.0
 11
-155.4799999997071
 21
-155.0
 31
0.0
  0
LINE
  5
39A
330
42D
100
AcDbEntity
  8
DATA
  6
Continuous
 62
     7
100
AcDbLine
 10
-185.4799999997072
 20
-152.0
 30
0.0
 11
-155.4799999997071
 21
-152.0
 31
0.0
  0
LINE
  5
39B
330
42D
100
AcDbEntity
  8
DATA
  6
Continuous
 62
     7
100
AcDbLine
 10
-152.9799999997071
 20
-152.0
 30
0.0
 11
-152.9799999997071
 21
-155.0
 31
0.0
  0
LINE
  5
39C
330
42D
100
AcDbEntity
  8
DATA
  6
Continuous
 62
     7
100
AcDbLine
 10
-122.9799999997071
 20
-152.0
 30
0.0
 11
-122.9799999997071
 21
-155.0
 31
0.0
  0
LINE
  5
39D
330
42D
100
AcDbEntity
  8
DATA
  6
Continuous
 62
     7
100
AcDbLine
 10
-152.9799999997071
 20
-152.0
 30
0.0
 11
-122.9799999997071
 21
-152.0
 31
0.0
  0
LINE
  5
39E
330
42D
100
AcDbEntity
  8
DATA
  6
Continuous
 62
     7
100
AcDbLine
 10
-120.4799999997071
 20
-152.0
 30
0.0
 11
-120.4799999997071
 21
-155.0
 31
0.0
  0
LINE
  5
39F
330
42D
100
AcDbEntity
  8
DATA
  6
Continuous
 62
     7
100
AcDbLine
 10
-90.47999999970716
 20
-152.0
 30
0.0
 11
-90.47999999970716
 21
-155.0
 31
0.0
  0
LINE
  5
3A0
330
42D
100
AcDbEntity
  8
DATA
  6
Continuous
 62
     7
100
AcDbLine
 10
-120.4799999997071
 20
-152.0
 30
0.0
 11
-90.47999999970716
 21
-152.0
 31
0.0
  0
LINE
  5
3A1
330
42D
100
AcDbEntity
  8
DATA
  6
Continuous
 62
     7
100
AcDbLine
 10
-87.97999999970716
 20
-152.0
 30
0.0
 11
-87.97999999970716
 21
-155.0
 31
0.0
  0
LINE
  5
3A2
330
42D
100
AcDbEntity
  8
DATA
  6
Continuous
 62
     7
100
AcDbLine
 10
-57.97999999970715
 20
-152.0
 30
0.0
 11
-57.97999999970715
 21
-155.0
 31
0.0
  0
LINE
  5
3A3
330
42D
100
AcDbEntity
  8
DATA
  6
Continuous
 62
     7
100
AcDbLine
 10
-87.97999999970716
 20
-152.0
 30
0.0
 11
-57.97999999970715
 21
-152.0
 31
0.0
  0
LINE
  5
3A4
330
42D
100
AcDbEntity
  8
DATA
  6
Continuous
 62
     7
100
AcDbLine
 10
-6.90086436069896
 20
-150.9999999999999
 30
0.0
 11
-6.90086436069896
 21
-155.0
 31
0.0
  0
LINE
  5
3A5
330
42D
100
AcDbEntity
  8
DATA
  6
Continuous
 62
     7
100
AcDbLine
 10
2.940864361284411
 20
-150.9999999999999
 30
0.0
 11
2.940864361284411
 21
-155.0
 31
0.0
  0
LINE
  5
3A6
330
42D
100
AcDbEntity
  8
DATA
  6
Continuous
 62
     7
100
AcDbLine
 10
-6.90086436069896
 20
-150.9999999999999
 30
0.0
 11
2.940864361284411
 21
-150.9999999999999
 31
0.0
  0
LINE
  5
3A7
330
42D
100
AcDbEntity
  8
DATA
  6
Continuous
 62
     7
100
AcDbLine
 10
-26.64462492898588
 20
-154.0
 30
0.0
 11
-26.64462492898588
 21
-155.0
 31
0.0
  0
LINE
  5
3A8
330
42D
100
AcDbEntity
  8
DATA
  6
Continuous
 62
     7
100
AcDbLine
 10
-11.14462492898588
 20
-154.0
 30
0.0
 11
-11.14462492898588
 21
-155.0
 31
0.0
  0
LINE
  5
3A9
330
42D
100
AcDbEntity
  8
DATA
  6
Continuous
 62
     7
100
AcDbLine
 10
-26.64462492898588
 20
-154.0
 30
0.0
 11
-11.14462492898588
 21
-154.0
 31
0.0
  0
LINE
  5
3AA
330
42D
100
AcDbEntity
  8
DATA
  6
Continuous
 62
     7
100
AcDbLine
 10
-48.40601929211834
 20
-154.4999999999999
 30
0.0
 11
-48.40601929211834
 21
-155.0
 31
0.0
  0
LINE
  5
3AB
330
42D
100
AcDbEntity
  8
DATA
  6
Continuous
 62
     7
100
AcDbLine
 10
-47.00601929211847
 20
-154.4999999999999
 30
0.0
 11
-47.00601929211847
 21
-155.0
 31
0.0
  0
LINE
  5
3AC
330
42D
100
AcDbEntity
  8
DATA
  6
Continuous
 62
     7
100
AcDbLine
 10
-48.40601929211834
 20
-154.4999999999999
 30
0.0
 11
-47.00601929211847
 21
-154.4999999999999
 31
0.0
  0
LINE
  5
3AD
330
42D
100
AcDbEntity
  8
DATA
  6
Continuous
 62
     7
100
AcDbLine
 10
-45.90601929211834
 20
-154.4999999999999
 30
0.0
 11
-45.90601929211834
 21
-155.0
 31
0.0
  0
LINE
  5
3AE
330
42D
100
AcDbEntity
  8
DATA
  6
Continuous
 62
     7
100
AcDbLine
 10
-44.50601929211847
 20
-154.4999999999999
 30
0.0
 11
-44.50601929211847
 21
-155.0
 31
0.0
  0
LINE
  5
3AF
330
42D
100
AcDbEntity
  8
DATA
  6
Continuous
 62
     7
100
AcDbLine
 10
-45.90601929211834
 20
-154.4999999999999
 30
0.0
 11
-44.50601929211847
 21
-154.4999999999999
 31
0.0
  0
LINE
  5
3B0
330
42D
100
AcDbEntity
  8
DATA
  6
Continuous
 62
     7
100
AcDbLine
 10
-43.40601929211834
 20
-154.4999999999999
 30
0.0
 11
-43.40601929211834
 21
-155.0
 31
0.0
  0
LINE
  5
3B1
330
42D
100
AcDbEntity
  8
DATA
  6
Continuous
 62
     7
100
AcDbLine
 10
-42.00601929211848
 20
-154.4999999999999
 30
0.0
 11
-42.00601929211848
 21
-155.0
 31
0.0
  0
LINE
  5
3B2
330
42D
100
AcDbEntity
  8
DATA
  6
Continuous
 62
     7
100
AcDbLine
 10
-43.40601929211834
 20
-154.4999999999999
 30
0.0
 11
-42.00601929211848
 21
-154.4999999999999
 31
0.0
  0
LINE
  5
3B3
330
42D
100
AcDbEntity
  8
DATA
  6
Continuous
 62
     7
100
AcDbLine
 10
-40.90601929211834
 20
-154.4999999999999
 30
0.0
 11
-40.90601929211834
 21
-155.0
 31
0.0
  0
LINE
  5
3B4
330
42D
100
AcDbEntity
  8
DATA
  6
Continuous
 62
     7
100
AcDbLine
 10
-39.50601929211848
 20
-154.4999999999999
 30
0.0
 11
-39.50601929211848
 21
-155.0
 31
0.0
  0
LINE
  5
3B5
330
42D
100
AcDbEntity
  8
DATA
  6
Continuous
 62
     7
100
AcDbLine
 10
-40.90601929211834
 20
-154.4999999999999
 30
0.0
 11
-39.50601929211848
 21
-154.4999999999999
 31
0.0
  0
LINE
  5
3B6
330
42D
100
AcDbEntity
  8
DATA
  6
Continuous
 62
     7
100
AcDbLine
 10
-38.40601929211834
 20
-154.4999999999999
 30
0.0
 11
-38.40601929211834
 21
-155.0
 31
0.0
  0
LINE
  5
3B7
330
42D
100
AcDbEntity
  8
DATA
  6
Continuous
 62
     7
100
AcDbLine
 10
-37.00601929211848
 20
-154.4999999999999
 30
0.0
 11
-37.00601929211848
 21
-155.0
 31
0.0
  0
LINE
  5
3B8
330
42D
100
AcDbEntity
  8
DATA
  6
Continuous
 62
     7
100
AcDbLine
 10
-38.40601929211834
 20
-154.4999999999999
 30
0.0
 11
-37.00601929211848
 21
-154.4999999999999
 31
0.0
  0
LINE
  5
3B9
330
42D
100
AcDbEntity
  8
DATA
  6
Continuous
 62
     7
100
AcDbLine
 10
-35.90601929211834
 20
-154.4999999999999
 30
0.0
 11
-35.90601929211834
 21
-155.0
 31
0.0
  0
LINE
  5
3BA
330
42D
100
AcDbEntity
  8
DATA
  6
Continuous
 62
     7
100
AcDbLine
 10
-34.50601929211848
 20
-154.4999999999999
 30
0.0
 11
-34.50601929211848
 21
-155.0
 31
0.0
  0
LINE
  5
3BB
330
42D
100
AcDbEntity
  8
DATA
  6
Continuous
 62
     7
100
AcDbLine
 10
-35.90601929211834
 20
-154.4999999999999
 30
0.0
 11
-34.50601929211848
 21
-154.4999999999999
 31
0.0
  0
TEXT
  5
3BC
330
42D
100
AcDbEntity
  8
DATA
 62
     7
100
AcDbText
 10
250.0
 20
-543.9682899999996
 30
0.0
 40
12.21630859375
  1
BSS AUDIO
 41
0.7
 11
250.0
 21
-531.7519814062497
 31
0.0
100
AcDbText
 73
     3
  0
ENDSEC
  0
SECTION
  2
OBJECTS
  0
DICTIONARY
  5
3CA
330
0
100
AcDbDictionary
281
     1
  3
ACAD_CIP_PREVIOUS_PRODUCT_INFO
350
445
  3
ACAD_COLOR
350
420
  3
ACAD_DETAILVIEWSTYLE
350
427
  3
ACAD_GROUP
350
3CB
  3
ACAD_LAYOUT
350
41F
  3
ACAD_MATERIAL
350
3CE
  3
ACAD_MLEADERSTYLE
350
423
  3
ACAD_MLINESTYLE
350
41C
  3
ACAD_PLOTSETTINGS
350
41E
  3
ACAD_PLOTSTYLENAME
350
3CC
  3
ACAD_SCALELIST
350
400
  3
ACAD_SECTIONVIEWSTYLE
350
425
  3
ACAD_TABLESTYLE
350
421
  3
ACAD_VISUALSTYLE
350
3E7
  3
ACDB_RECOMPOSE_DATA
350
45D
  3
AcDbVariableDictionary
350
450
  3
DWGPROPS
350
45E
  0
DICTIONARY
  5
446
330
412
100
AcDbDictionary
280
     1
281
     1
  3
ADSK_XREC_LAYER_RECONCILED
360
447
  0
DICTIONARY
  5
448
330
431
100
AcDbDictionary
280
     1
281
     1
  3
ADSK_XREC_LAYER_RECONCILED
360
449
  0
DICTIONARY
  5
44A
330
43D
100
AcDbDictionary
280
     1
281
     1
  3
ADSK_XREC_LAYER_RECONCILED
360
44B
  0
DICTIONARY
  5
44C
330
43E
100
AcDbDictionary
280
     1
281
     1
  3
ADSK_XREC_LAYER_RECONCILED
360
44D
  0
DICTIONARY
  5
44E
330
43F
100
AcDbDictionary
280
     1
281
     1
  3
ADSK_XREC_LAYER_RECONCILED
360
44F
  0
XRECORD
  5
445
102
{ACAD_REACTORS
330
3CA
102
}
330
3CA
100
AcDbXrecord
280
     1
300
ACDLT
300
2019
300
ACDLT_F_S
  0
DICTIONARY
  5
420
102
{ACAD_REACTORS
330
3CA
102
}
330
3CA
100
AcDbDictionary
281
     1
  0
DICTIONARY
  5
427
102
{ACAD_REACTORS
330
3CA
102
}
330
3CA
100
AcDbDictionary
281
     1
  3
Imperial24
350
428
  0
DICTIONARY
  5
3CB
102
{ACAD_REACTORS
330
3CA
102
}
330
3CA
100
AcDbDictionary
281
     1
  0
DICTIONARY
  5
41F
102
{ACAD_REACTORS
330
3CA
102
}
330
3CA
100
AcDbDictionary
281
     1
  3
Model
350
430
  3
レイアウト1
350
42C
  0
DICTIONARY
  5
3CE
102
{ACAD_REACTORS
330
3CA
102
}
330
3CA
100
AcDbDictionary
281
     1
  3
ByBlock
350
3D7
  3
ByLayer
350
3CF
  3
Global
350
3DF
  0
DICTIONARY
  5
423
102
{ACAD_REACTORS
330
3CA
102
}
330
3CA
100
AcDbDictionary
281
     1
  3
Standard
350
424
  0
DICTIONARY
  5
41C
102
{ACAD_REACTORS
330
3CA
102
}
330
3CA
100
AcDbDictionary
281
     1
  3
Standard
350
41D
  0
DICTIONARY
  5
41E
102
{ACAD_REACTORS
330
3CA
102
}
330
3CA
100
AcDbDictionary
281
     1
  0
ACDBDICTIONARYWDFLT
  5
3CC
102
{ACAD_REACTORS
330
3CA
102
}
330
3CA
100
AcDbDictionary
281
     1
  3
Normal
350
3CD
100
AcDbDictionaryWithDefault
340
3CD
  0
DICTIONARY
  5
400
102
{ACAD_REACTORS
330
3CA
102
}
330
3CA
100
AcDbDictionary
281
     1
  3
A0
350
401
  3
A1
350
402
  3
A2
350
403
  3
A3
350
404
  3
A4
350
405
  3
A5
350
406
  3
A6
350
407
  3
A7
350
408
  3
A8
350
409
  3
A9
350
40A
  3
B0
350
40B
  3
B1
350
40C
  3
B2
350
40D
  3
B3
350
40E
  3
B4
350
40F
  3
B5
350
410
  3
B6
350
411
  0
DICTIONARY
  5
425
102
{ACAD_REACTORS
330
3CA
102
}
330
3CA
100
AcDbDictionary
281
     1
  3
Imperial24
350
426
  0
DICTIONARY
  5
421
102
{ACAD_REACTORS
330
3CA
102
}
330
3CA
100
AcDbDictionary
281
     1
  3
Standard
350
422
  0
DICTIONARY
  5
3E7
102
{ACAD_REACTORS
330
3CA
102
}
330
3CA
100
AcDbDictionary
281
     1
  3
2dWireframe
350
3ED
  3
Basic
350
3EC
  3
Brighten
350
3F3
  3
ColorChange
350
3F7
  3
Conceptual
350
3F0
  3
Dim
350
3F2
  3
EdgeColorOff
350
3FF
  3
Facepattern
350
3F6
  3
Flat
350
3E8
  3
FlatWithEdges
350
3E9
  3
Gouraud
350
3EA
  3
GouraudWithEdges
350
3EB
  3
Hidden
350
3EF
  3
JitterOff
350
3FD
  3
Linepattern
350
3F5
  3
OverhangOff
350
3FE
  3
Realistic
350
3F1
  3
Shaded
350
3FC
  3
Shaded with edges
350
3FB
  3
Shades of Gray
350
3F8
  3
Sketchy
350
3F9
  3
Thicken
350
3F4
  3
Wireframe
350
3EE
  3
X-Ray
350
3FA
  0
XRECORD
  5
45D
102
{ACAD_REACTORS
330
3CA
102
}
330
3CA
100
AcDbXrecord
280
     1
 90
        1
330
422
  0
DICTIONARY
  5
450
102
{ACAD_REACTORS
330
3CA
102
}
330
3CA
100
AcDbDictionary
281
     1
  3
CANNOSCALE
350
455
  3
CMLEADERSTYLE
350
452
  3
CTABLESTYLE
350
451
  3
CVIEWDETAILSTYLE
350
453
  3
CVIEWSECTIONSTYLE
350
454
  3
DIMASSOC
350
458
  3
INDEXCTL
350
457
  3
SORTENTS
350
456
  3
XCLIPFRAME
350
459
  0
XRECORD
  5
45E
102
{ACAD_REACTORS
330
3CA
102
}
330
3CA
100
AcDbXrecord
280
     1
  1
DWGPROPS COOKIE
  2

  3

  4

  6

  7

  8
sasaki_n
  9

300
=
301
=
302
=
303
=
304
=
305
=
306
=
307
=
308
=
309
=
 40
0.0003472222222222
 41
2458360.576481481
 42
2458360.599733797
  1

 90
        0
  0
XRECORD
  5
447
102
{ACAD_REACTORS
330
446
102
}
330
446
100
AcDbXrecord
280
     1
290
     1
  0
XRECORD
  5
449
102
{ACAD_REACTORS
330
448
102
}
330
448
100
AcDbXrecord
280
     1
290
     1
  0
XRECORD
  5
44B
102
{ACAD_REACTORS
330
44A
102
}
330
44A
100
AcDbXrecord
280
     1
290
     1
  0
XRECORD
  5
44D
102
{ACAD_REACTORS
330
44C
102
}
330
44C
100
AcDbXrecord
280
     1
290
     1
  0
XRECORD
  5
44F
102
{ACAD_REACTORS
330
44E
102
}
330
44E
100
AcDbXrecord
280
     1
290
     1
  0
ACDBDETAILVIEWSTYLE
  5
428
102
{ACAD_XDICTIONARY
360
496
102
}
102
{ACAD_REACTORS
330
427
102
}
330
427
100
AcDbModelDocViewStyle
 70
     0
  3
Imperial24
290
     0
100
AcDbDetailViewStyle
 70
     0
 71
     0
 90
        3
 71
     1
340
413
 40
0.24
340
0
 40
0.24
300

 40
0.36
280
     3
 71
     2
340
41A
 90
       25
 71
     3
340
413
 40
0.24
 90
        1
 40
0.75
 90
        1
300
%<\AcVar ViewType \f "%tc1">% %<\AcVar ViewDetailId>%\PSCALE %<\AcVar ViewScale \f "%sn">%
 71
     4
340
41A
 90
       25
340
41A
 90
       25
280
     0
  0
LAYOUT
  5
430
102
{ACAD_XDICTIONARY
360
49A
102
}
102
{ACAD_REACTORS
330
41F
102
}
330
41F
100
AcDbPlotSettings
  1

  2
DocuPrint 3000-3
  4

  6

 40
0.0
 41
0.0
 42
0.0
 43
0.0
 44
0.0
 45
0.0
 46
0.0
 47
0.0
 48
0.0
 49
0.0
140
0.0
141
0.0
142
1.0
143
1.0
 70
  1712
 72
     0
 73
     0
 74
     0
  7

 75
     0
147
1.0
148
0.0
149
0.0
100
AcDbLayout
  1
Model
 70
     1
 71
     0
 10
0.0
 20
0.0
 11
12.0
 21
9.0
 12
0.0
 22
0.0
 32
0.0
 14
0.0
 24
0.0
 34
0.0
 15
0.0
 25
0.0
 35
0.0
146
0.0
 13
0.0
 23
0.0
 33
0.0
 16
1.0
 26
0.0
 36
0.0
 17
0.0
 27
1.0
 37
0.0
 76
     0
330
42D
331
432
  0
LAYOUT
  5
42C
102
{ACAD_XDICTIONARY
360
498
102
}
102
{ACAD_REACTORS
330
41F
102
}
330
41F
100
AcDbPlotSettings
  1

  2
DocuPrint 3000-3
  4

  6

 40
0.0
 41
0.0
 42
0.0
 43
0.0
 44
0.0
 45
0.0
 46
0.0
 47
0.0
 48
0.0
 49
0.0
140
0.0
141
0.0
142
1.0
143
1.0
 70
   688
 72
     0
 73
     0
 74
     5
  7

 75
    16
147
1.0
148
0.0
149
0.0
100
AcDbLayout
  1
レイアウト1
 70
     0
 71
     1
 10
0.0
 20
0.0
 11
12.0
 21
9.0
 12
0.0
 22
0.0
 32
0.0
 14
1.000000000000000E+20
 24
1.000000000000000E+20
 34
1.000000000000000E+20
 15
-1.000000000000000E+20
 25
-1.000000000000000E+20
 35
-1.000000000000000E+20
146
0.0
 13
0.0
 23
0.0
 33
0.0
 16
1.0
 26
0.0
 36
0.0
 17
0.0
 27
1.0
 37
0.0
 76
     0
330
429
  0
MATERIAL
  5
3D7
102
{ACAD_XDICTIONARY
360
3D8
102
}
102
{ACAD_REACTORS
330
3CE
102
}
330
3CE
100
AcDbMaterial
  1
ByBlock
 72
     0
 43
0.0208333333333333
 43
0.0
 43
0.0
 43
0.0
 43
0.0
 43
0.0208333333333333
 43
0.0
 43
0.0
 43
0.0
 43
0.0
 43
1.0
 43
0.0
 43
0.0
 43
0.0
 43
0.0
 43
1.0
 77
     0
 47
0.0208333333333333
 47
0.0
 47
0.0
 47
0.0
 47
0.0
 47
0.0208333333333333
 47
0.0
 47
0.0
 47
0.0
 47
0.0
 47
1.0
 47
0.0
 47
0.0
 47
0.0
 47
0.0
 47
1.0
171
     0
 49
0.0208333333333333
 49
0.0
 49
0.0
 49
0.0
 49
0.0
 49
0.0208333333333333
 49
0.0
 49
0.0
 49
0.0
 49
0.0
 49
1.0
 49
0.0
 49
0.0
 49
0.0
 49
0.0
 49
1.0
175
     0
142
0.0208333333333333
142
0.0
142
0.0
142
0.0
142
0.0
142
0.0208333333333333
142
0.0
142
0.0
142
0.0
142
0.0
142
1.0
142
0.0
142
0.0
142
0.0
142
0.0
142
1.0
179
     0
144
0.0208333333333333
144
0.0
144
0.0
144
0.0
144
0.0
144
0.0208333333333333
144
0.0
144
0.0
144
0.0
144
0.0
144
1.0
144
0.0
144
0.0
144
0.0
144
0.0
144
1.0
147
0.0208333333333333
147
0.0
147
0.0
147
0.0
147
0.0
147
0.0208333333333333
147
0.0
147
0.0
147
0.0
147
0.0
147
1.0
147
0.0
147
0.0
147
0.0
147
0.0
147
1.0
  0
MATERIAL
  5
3CF
102
{ACAD_XDICTIONARY
360
3D0
102
}
102
{ACAD_REACTORS
330
3CE
102
}
330
3CE
100
AcDbMaterial
  1
ByLayer
 72
     0
 43
0.0208333333333333
 43
0.0
 43
0.0
 43
0.0
 43
0.0
 43
0.0208333333333333
 43
0.0
 43
0.0
 43
0.0
 43
0.0
 43
1.0
 43
0.0
 43
0.0
 43
0.0
 43
0.0
 43
1.0
 77
     0
 47
0.0208333333333333
 47
0.0
 47
0.0
 47
0.0
 47
0.0
 47
0.0208333333333333
 47
0.0
 47
0.0
 47
0.0
 47
0.0
 47
1.0
 47
0.0
 47
0.0
 47
0.0
 47
0.0
 47
1.0
171
     0
 49
0.0208333333333333
 49
0.0
 49
0.0
 49
0.0
 49
0.0
 49
0.0208333333333333
 49
0.0
 49
0.0
 49
0.0
 49
0.0
 49
1.0
 49
0.0
 49
0.0
 49
0.0
 49
0.0
 49
1.0
175
     0
142
0.0208333333333333
142
0.0
142
0.0
142
0.0
142
0.0
142
0.0208333333333333
142
0.0
142
0.0
142
0.0
142
0.0
142
1.0
142
0.0
142
0.0
142
0.0
142
0.0
142
1.0
179
     0
144
0.0208333333333333
144
0.0
144
0.0
144
0.0
144
0.0
144
0.0208333333333333
144
0.0
144
0.0
144
0.0
144
0.0
144
1.0
144
0.0
144
0.0
144
0.0
144
0.0
144
1.0
147
0.0208333333333333
147
0.0
147
0.0
147
0.0
147
0.0
147
0.0208333333333333
147
0.0
147
0.0
147
0.0
147
0.0
147
1.0
147
0.0
147
0.0
147
0.0
147
0.0
147
1.0
  0
MATERIAL
  5
3DF
102
{ACAD_XDICTIONARY
360
3E0
102
}
102
{ACAD_REACTORS
330
3CE
102
}
330
3CE
100
AcDbMaterial
  1
Global
 72
     0
 43
0.0208333333333333
 43
0.0
 43
0.0
 43
0.0
 43
0.0
 43
0.0208333333333333
 43
0.0
 43
0.0
 43
0.0
 43
0.0
 43
1.0
 43
0.0
 43
0.0
 43
0.0
 43
0.0
 43
1.0
 77
     0
 47
0.0208333333333333
 47
0.0
 47
0.0
 47
0.0
 47
0.0
 47
0.0208333333333333
 47
0.0
 47
0.0
 47
0.0
 47
0.0
 47
1.0
 47
0.0
 47
0.0
 47
0.0
 47
0.0
 47
1.0
171
     0
 49
0.0208333333333333
 49
0.0
 49
0.0
 49
0.0
 49
0.0
 49
0.0208333333333333
 49
0.0
 49
0.0
 49
0.0
 49
0.0
 49
1.0
 49
0.0
 49
0.0
 49
0.0
 49
0.0
 49
1.0
175
     0
142
0.0208333333333333
142
0.0
142
0.0
142
0.0
142
0.0
142
0.0208333333333333
142
0.0
142
0.0
142
0.0
142
0.0
142
1.0
142
0.0
142
0.0
142
0.0
142
0.0
142
1.0
179
     0
144
0.0208333333333333
144
0.0
144
0.0
144
0.0
144
0.0
144
0.0208333333333333
144
0.0
144
0.0
144
0.0
144
0.0
144
1.0
144
0.0
144
0.0
144
0.0
144
0.0
144
1.0
147
0.0208333333333333
147
0.0
147
0.0
147
0.0
147
0.0
147
0.0208333333333333
147
0.0
147
0.0
147
0.0
147
0.0
147
1.0
147
0.0
147
0.0
147
0.0
147
0.0
147
1.0
  0
MLEADERSTYLE
  5
424
102
{ACAD_REACTORS
330
423
102
}
330
423
100
AcDbMLeaderStyle
170
     2
171
     1
172
     0
 90
        2
 40
0.0
 41
0.0
173
     1
 91
-1056964608
340
418
 92
       -2
290
     1
 42
0.09
291
     1
 43
0.36
  3
Standard
 44
0.18
300

342
413
174
     1
178
     6
175
     1
176
     0
 93
-1056964608
 45
0.18
292
     0
297
     0
 46
0.18
 94
-1056964608
 47
1.0
 49
1.0
140
1.0
293
     1
141
0.0
294
     1
177
     0
142
1.0
295
     0
296
     0
143
0.125
1001
ACAD_MLEADERVER
1070
     2
  0
MLINESTYLE
  5
41D
102
{ACAD_REACTORS
330
41C
102
}
330
41C
100
AcDbMlineStyle
  2
STANDARD
 70
     0
  3

 62
   256
 51
90.0
 52
90.0
 71
     2
 49
0.5
 62
   256
  6
BYLAYER
 49
-0.5
 62
   256
  6
BYLAYER
  0
ACDBPLACEHOLDER
  5
3CD
102
{ACAD_REACTORS
330
3CC
102
}
330
3CC
  0
SCALE
  5
401
102
{ACAD_REACTORS
330
400
102
}
330
400
100
AcDbScale
 70
     0
300
1:1
140
1.0
141
1.0
290
     1
  0
SCALE
  5
402
102
{ACAD_REACTORS
330
400
102
}
330
400
100
AcDbScale
 70
     0
300
1/128" = 1'-0"
140
0.0078125
141
12.0
290
     0
  0
SCALE
  5
403
102
{ACAD_REACTORS
330
400
102
}
330
400
100
AcDbScale
 70
     0
300
1/64" = 1'-0"
140
0.015625
141
12.0
290
     0
  0
SCALE
  5
404
102
{ACAD_REACTORS
330
400
102
}
330
400
100
AcDbScale
 70
     0
300
1/32" = 1'-0"
140
0.03125
141
12.0
290
     0
  0
SCALE
  5
405
102
{ACAD_REACTORS
330
400
102
}
330
400
100
AcDbScale
 70
     0
300
1/16" = 1'-0"
140
0.0625
141
12.0
290
     0
  0
SCALE
  5
406
102
{ACAD_REACTORS
330
400
102
}
330
400
100
AcDbScale
 70
     0
300
3/32" = 1'-0"
140
0.09375
141
12.0
290
     0
  0
SCALE
  5
407
102
{ACAD_REACTORS
330
400
102
}
330
400
100
AcDbScale
 70
     0
300
1/8" = 1'-0"
140
0.125
141
12.0
290
     0
  0
SCALE
  5
408
102
{ACAD_REACTORS
330
400
102
}
330
400
100
AcDbScale
 70
     0
300
3/16" = 1'-0"
140
0.1875
141
12.0
290
     0
  0
SCALE
  5
409
102
{ACAD_REACTORS
330
400
102
}
330
400
100
AcDbScale
 70
     0
300
1/4" = 1'-0"
140
0.25
141
12.0
290
     0
  0
SCALE
  5
40A
102
{ACAD_REACTORS
330
400
102
}
330
400
100
AcDbScale
 70
     0
300
3/8" = 1'-0"
140
0.375
141
12.0
290
     0
  0
SCALE
  5
40B
102
{ACAD_REACTORS
330
400
102
}
330
400
100
AcDbScale
 70
     0
300
1/2" = 1'-0"
140
0.5
141
12.0
290
     0
  0
SCALE
  5
40C
102
{ACAD_REACTORS
330
400
102
}
330
400
100
AcDbScale
 70
     0
300
3/4" = 1'-0"
140
0.75
141
12.0
290
     0
  0
SCALE
  5
40D
102
{ACAD_REACTORS
330
400
102
}
330
400
100
AcDbScale
 70
     0
300
1" = 1'-0"
140
1.0
141
12.0
290
     0
  0
SCALE
  5
40E
102
{ACAD_REACTORS
330
400
102
}
330
400
100
AcDbScale
 70
     0
300
1-1/2" = 1'-0"
140
1.5
141
12.0
290
     0
  0
SCALE
  5
40F
102
{ACAD_REACTORS
330
400
102
}
330
400
100
AcDbScale
 70
     0
300
3" = 1'-0"
140
3.0
141
12.0
290
     0
  0
SCALE
  5
410
102
{ACAD_REACTORS
330
400
102
}
330
400
100
AcDbScale
 70
     0
300
6" = 1'-0"
140
6.0
141
12.0
290
     0
  0
SCALE
  5
411
102
{ACAD_REACTORS
330
400
102
}
330
400
100
AcDbScale
 70
     0
300
1'-0" = 1'-0"
140
12.0
141
12.0
290
     0
  0
ACDBSECTIONVIEWSTYLE
  5
426
102
{ACAD_XDICTIONARY
360
494
102
}
102
{ACAD_REACTORS
330
425
102
}
330
425
100
AcDbModelDocViewStyle
 70
     0
  3
Imperial24
290
     0
100
AcDbSectionViewStyle
 70
     0
 71
     0
 90
       78
 71
     1
340
413
 40
0.24
340
0
340
0
 40
0.24
300
I, O, Q, S, X, Z
 40
0.48
 90
        3
 40
0.18
 90
        1
 71
     2
340
41A
 90
       25
340
41A
 90
       50
 40
0.24
 40
0.0
 40
0.24
 71
     3
340
413
 40
0.24
 90
        1
 40
0.75
 90
        1
300
%<\AcVar ViewType \f "%tc1">% %<\AcVar ViewSectionStartId>%-%<\AcVar ViewSectionEndId>%\PSCALE %<\AcVar ViewScale \f "%sn">%
 71
     4
300
ANSI31
 40
1.0
 90
        0
290
     0
290
     0
 90
        6
 40
0.0
 40
1.570796326794896
 40
0.2617993877991494
 40
1.308996938995747
 40
-0.2617993877991494
 40
1.832595714594046
  0
TABLESTYLE
  5
422
102
{ACAD_XDICTIONARY
360
45B
102
}
102
{ACAD_REACTORS
330
421
102
}
330
421
100
AcDbTableStyle
  3
Standard
 70
     0
 71
     0
 40
0.06
 41
0.06
280
     0
281
     0
  7
STANDARD
140
0.18
170
     2
 62
     0
 63
     7
283
     0
274
    -2
284
     1
 64
     0
275
    -2
285
     1
 65
     0
276
    -2
286
     1
 66
     0
277
    -2
287
     1
 67
     0
278
    -2
288
     1
 68
     0
279
    -2
289
     1
 69
     0
  7
STANDARD
140
0.25
170
     5
 62
     0
 63
     7
283
     0
274
    -2
284
     1
 64
     0
275
    -2
285
     1
 65
     0
276
    -2
286
     1
 66
     0
277
    -2
287
     1
 67
     0
278
    -2
288
     1
 68
     0
279
    -2
289
     1
 69
     0
  7
STANDARD
140
0.18
170
     5
 62
     0
 63
     7
283
     0
274
    -2
284
     1
 64
     0
275
    -2
285
     1
 65
     0
276
    -2
286
     1
 66
     0
277
    -2
287
     1
 67
     0
278
    -2
288
     1
 68
     0
279
    -2
289
     1
 69
     0
  0
VISUALSTYLE
  5
3ED
102
{ACAD_XDICTIONARY
360
46C
102
}
102
{ACAD_REACTORS
330
3E7
102
}
330
3E7
100
AcDbVisualStyle
  2
2dWireframe
 70
     4
 71
     0
 72
     2
 73
     0
 90
        0
 40
-0.6
 41
-30.0
 62
     5
 63
     7
 74
     1
 91
        4
 64
     7
 65
   257
 75
     1
175
     1
 42
1.0
 92
        0
 66
   257
 43
1.0
 76
     1
 77
     6
 78
     2
 67
     7
 79
     5
170
     0
171
     0
290
     0
174
     0
 93
        1
 44
0.0
173
     0
291
     0
 45
0.0
1001
ACAD
1000
AcDbSavedByObjectVersion
1070
     0
  0
VISUALSTYLE
  5
3EC
102
{ACAD_XDICTIONARY
360
46A
102
}
102
{ACAD_REACTORS
330
3E7
102
}
330
3E7
100
AcDbVisualStyle
  2
Basic
 70
     7
 71
     1
 72
     0
 73
     1
 90
        0
 40
-0.6
 41
-30.0
 62
     5
 63
     7
 74
     0
 91
        4
 64
     7
 65
   257
 75
     1
175
     1
 42
1.0
 92
        8
 66
     7
 43
1.0
 76
     1
 77
     6
 78
     2
 67
     7
 79
     5
170
     0
171
     0
290
     0
174
     0
 93
        1
 44
0.0
173
     0
291
     1
 45
0.0
1001
ACAD
1000
AcDbSavedByObjectVersion
1070
     0
  0
VISUALSTYLE
  5
3F3
102
{ACAD_XDICTIONARY
360
478
102
}
102
{ACAD_REACTORS
330
3E7
102
}
330
3E7
100
AcDbVisualStyle
  2
Brighten
 70
    12
 71
     2
 72
     2
 73
     0
 90
        0
 40
-0.6
 41
-30.0
 62
     5
 63
     7
 74
     1
 91
        4
 64
     7
 65
   257
 75
     1
175
     1
 42
1.0
 92
        8
 66
     7
 43
1.0
 76
     1
 77
     6
 78
     2
 67
     7
 79
     5
170
     0
171
     0
290
     0
174
     0
 93
        1
 44
50.0
173
     0
291
     1
 45
0.0
1001
ACAD
1000
AcDbSavedByObjectVersion
1070
     0
  0
VISUALSTYLE
  5
3F7
102
{ACAD_XDICTIONARY
360
480
102
}
102
{ACAD_REACTORS
330
3E7
102
}
330
3E7
100
AcDbVisualStyle
  2
ColorChange
 70
    16
 71
     2
 72
     2
 73
     3
 90
        0
 40
-0.6
 41
-30.0
 62
     5
 63
     8
 74
     1
 91
        4
 64
     7
 65
   257
 75
     1
175
     1
 42
1.0
 92
        8
 66
     8
 43
1.0
 76
     1
 77
     6
 78
     2
 67
     7
 79
     5
170
     0
171
     0
290
     0
174
     0
 93
        1
 44
0.0
173
     0
291
     1
 45
0.0
1001
ACAD
1000
AcDbSavedByObjectVersion
1070
     0
  0
VISUALSTYLE
  5
3F0
102
{ACAD_XDICTIONARY
360
472
102
}
102
{ACAD_REACTORS
330
3E7
102
}
330
3E7
100
AcDbVisualStyle
  2
Conceptual
 70
     9
 71
     3
 72
     2
 73
     0
 90
        0
 40
-0.6
 41
-30.0
 62
     5
 63
     7
 74
     2
 91
        2
 64
     7
 65
   257
 75
     1
175
     1
 42
179.0
 92
        8
 66
     7
 43
1.0
 76
     1
 77
     6
 78
     2
 67
     7
 79
     3
170
     0
171
     0
290
     0
174
     0
 93
        1
 44
0.0
173
     0
291
     0
 45
0.0
1001
ACAD
1000
AcDbSavedByObjectVersion
1070
     0
  0
VISUALSTYLE
  5
3F2
102
{ACAD_XDICTIONARY
360
476
102
}
102
{ACAD_REACTORS
330
3E7
102
}
330
3E7
100
AcDbVisualStyle
  2
Dim
 70
    11
 71
     2
 72
     2
 73
     0
 90
        0
 40
-0.6
 41
-30.0
 62
     5
 63
     7
 74
     1
 91
        4
 64
     7
 65
   257
 75
     1
175
     1
 42
1.0
 92
        8
 66
     7
 43
1.0
 76
     1
 77
     6
 78
     2
 67
     7
 79
     5
170
     0
171
     0
290
     0
174
     0
 93
        1
 44
-50.0
173
     0
291
     1
 45
0.0
1001
ACAD
1000
AcDbSavedByObjectVersion
1070
     0
  0
VISUALSTYLE
  5
3FF
102
{ACAD_XDICTIONARY
360
490
102
}
102
{ACAD_REACTORS
330
3E7
102
}
330
3E7
100
AcDbVisualStyle
  2
EdgeColorOff
 70
    22
 71
     2
 72
     2
 73
     0
 90
        0
 40
-0.6
 41
-30.0
 62
     5
 63
     7
 74
     1
 91
        4
 64
     7
 65
   257
 75
     1
175
     1
 42
1.0
 92
        8
 66
     7
 43
1.0
 76
     1
 77
     6
 78
     2
 67
     7
 79
     5
170
     0
171
     0
290
     0
174
     0
 93
        1
 44
0.0
173
     0
291
     1
 45
0.0
1001
ACAD
1000
AcDbSavedByObjectVersion
1070
     0
  0
VISUALSTYLE
  5
3F6
102
{ACAD_XDICTIONARY
360
47E
102
}
102
{ACAD_REACTORS
330
3E7
102
}
330
3E7
100
AcDbVisualStyle
  2
Facepattern
 70
    15
 71
     2
 72
     2
 73
     0
 90
        0
 40
-0.6
 41
-30.0
 62
     5
 63
     7
 74
     1
 91
        4
 64
     7
 65
   257
 75
     1
175
     1
 42
1.0
 92
        8
 66
     7
 43
1.0
 76
     1
 77
     6
 78
     2
 67
     7
 79
     5
170
     0
171
     0
290
     0
174
     0
 93
        1
 44
0.0
173
     0
291
     1
 45
0.0
1001
ACAD
1000
AcDbSavedByObjectVersion
1070
     0
  0
VISUALSTYLE
  5
3E8
102
{ACAD_XDICTIONARY
360
462
102
}
102
{ACAD_REACTORS
330
3E7
102
}
330
3E7
100
AcDbVisualStyle
  2
Flat
 70
     0
 71
     2
 72
     1
 73
     1
 90
        2
 40
-0.6
 41
30.0
 62
     5
 63
     7
 74
     0
 91
        0
 64
     7
 65
   257
 75
     1
175
     1
 42
1.0
 92
        8
 66
     7
 43
1.0
 76
     1
 77
     6
 78
     2
 67
     7
 79
     5
170
     0
171
     0
290
     0
174
     0
 93
       13
 44
0.0
173
     0
291
     1
 45
0.0
1001
ACAD
1000
AcDbSavedByObjectVersion
1070
     0
  0
VISUALSTYLE
  5
3E9
102
{ACAD_XDICTIONARY
360
464
102
}
102
{ACAD_REACTORS
330
3E7
102
}
330
3E7
100
AcDbVisualStyle
  2
FlatWithEdges
 70
     1
 71
     2
 72
     1
 73
     1
 90
        2
 40
-0.6
 41
30.0
 62
     5
 63
     7
 74
     1
 91
        0
 64
     7
 65
   257
 75
     1
175
     1
 42
1.0
 92
        0
 66
   257
 43
1.0
 76
     1
 77
     6
 78
     2
 67
     7
 79
     5
170
     0
171
     0
290
     0
174
     0
 93
       13
 44
0.0
173
     0
291
     1
 45
0.0
1001
ACAD
1000
AcDbSavedByObjectVersion
1070
     0
  0
VISUALSTYLE
  5
3EA
102
{ACAD_XDICTIONARY
360
466
102
}
102
{ACAD_REACTORS
330
3E7
102
}
330
3E7
100
AcDbVisualStyle
  2
Gouraud
 70
     2
 71
     2
 72
     2
 73
     1
 90
        2
 40
-0.6
 41
30.0
 62
     5
 63
     7
 74
     0
 91
        0
 64
     7
 65
   257
 75
     1
175
     1
 42
1.0
 92
        0
 66
     7
 43
1.0
 76
     1
 77
     6
 78
     2
 67
     7
 79
     5
170
     0
171
     0
290
     0
174
     0
 93
       13
 44
0.0
173
     0
291
     1
 45
0.0
1001
ACAD
1000
AcDbSavedByObjectVersion
1070
     0
  0
VISUALSTYLE
  5
3EB
102
{ACAD_XDICTIONARY
360
468
102
}
102
{ACAD_REACTORS
330
3E7
102
}
330
3E7
100
AcDbVisualStyle
  2
GouraudWithEdges
 70
     3
 71
     2
 72
     2
 73
     1
 90
        2
 40
-0.6
 41
30.0
 62
     5
 63
     7
 74
     1
 91
        0
 64
     7
 65
   257
 75
     1
175
     1
 42
1.0
 92
        0
 66
   257
 43
1.0
 76
     1
 77
     6
 78
     2
 67
     7
 79
     5
170
     0
171
     0
290
     0
174
     0
 93
       13
 44
0.0
173
     0
291
     1
 45
0.0
1001
ACAD
1000
AcDbSavedByObjectVersion
1070
     0
  0
VISUALSTYLE
  5
3EF
102
{ACAD_XDICTIONARY
360
470
102
}
102
{ACAD_REACTORS
330
3E7
102
}
330
3E7
100
AcDbVisualStyle
  2
Hidden
 70
     6
 71
     1
 72
     2
 73
     2
 90
        0
 40
-0.6
 41
-30.0
 62
     5
 63
     7
 74
     2
 91
        2
 64
     7
 65
   257
 75
     2
175
     1
 42
40.0
 92
        0
 66
   257
 43
1.0
 76
     1
 77
     6
 78
     2
 67
     7
 79
     3
170
     0
171
     0
290
     0
174
     0
 93
        1
 44
0.0
173
     0
291
     0
 45
0.0
1001
ACAD
1000
AcDbSavedByObjectVersion
1070
     0
  0
VISUALSTYLE
  5
3FD
102
{ACAD_XDICTIONARY
360
48C
102
}
102
{ACAD_REACTORS
330
3E7
102
}
330
3E7
100
AcDbVisualStyle
  2
JitterOff
 70
    20
 71
     2
 72
     2
 73
     0
 90
        0
 40
-0.6
 41
-30.0
 62
     5
 63
     7
 74
     1
 91
        4
 64
     7
 65
   257
 75
     1
175
     1
 42
1.0
 92
       10
 66
     7
 43
1.0
 76
     1
 77
     6
 78
     2
 67
     7
 79
     5
170
     0
171
     0
290
     0
174
     0
 93
        1
 44
0.0
173
     0
291
     1
 45
0.0
1001
ACAD
1000
AcDbSavedByObjectVersion
1070
     0
  0
VISUALSTYLE
  5
3F5
102
{ACAD_XDICTIONARY
360
47C
102
}
102
{ACAD_REACTORS
330
3E7
102
}
330
3E7
100
AcDbVisualStyle
  2
Linepattern
 70
    14
 71
     2
 72
     2
 73
     0
 90
        0
 40
-0.6
 41
-30.0
 62
     5
 63
     7
 74
     1
 91
        4
 64
     7
 65
   257
 75
     7
175
     7
 42
1.0
 92
        8
 66
     7
 43
1.0
 76
     1
 77
     6
 78
     2
 67
     7
 79
     5
170
     0
171
     0
290
     0
174
     0
 93
        1
 44
0.0
173
     0
291
     1
 45
0.0
1001
ACAD
1000
AcDbSavedByObjectVersion
1070
     0
  0
VISUALSTYLE
  5
3FE
102
{ACAD_XDICTIONARY
360
48E
102
}
102
{ACAD_REACTORS
330
3E7
102
}
330
3E7
100
AcDbVisualStyle
  2
OverhangOff
 70
    21
 71
     2
 72
     2
 73
     0
 90
        0
 40
-0.6
 41
-30.0
 62
     5
 63
     7
 74
     1
 91
        4
 64
     7
 65
   257
 75
     1
175
     1
 42
1.0
 92
        9
 66
     7
 43
1.0
 76
     1
 77
     6
 78
     2
 67
     7
 79
     5
170
     0
171
     0
290
     0
174
     0
 93
        1
 44
0.0
173
     0
291
     1
 45
0.0
1001
ACAD
1000
AcDbSavedByObjectVersion
1070
     0
  0
VISUALSTYLE
  5
3F1
102
{ACAD_XDICTIONARY
360
474
102
}
102
{ACAD_REACTORS
330
3E7
102
}
330
3E7
100
AcDbVisualStyle
  2
Realistic
 70
     8
 71
     2
 72
     3
 73
     0
 90
        2
 40
-0.6
 41
30.0
 62
     5
 63
     7
 74
     0
 91
        0
 64
     7
 65
   257
 75
     1
175
     1
 42
1.0
 92
        8
 66
   257
 43
1.0
 76
     1
 77
     6
 78
     2
 67
     7
 79
     3
170
     0
171
     0
290
     0
174
     0
 93
       13
 44
0.0
173
     0
291
     0
 45
0.0
1001
ACAD
1000
AcDbSavedByObjectVersion
1070
     0
  0
VISUALSTYLE
  5
3FC
102
{ACAD_XDICTIONARY
360
48A
102
}
102
{ACAD_REACTORS
330
3E7
102
}
330
3E7
100
AcDbVisualStyle
  2
Shaded
 70
    27
 71
     2
 72
     2
 73
     1
 90
        2
 40
-0.6
 41
30.0
 62
     5
 63
     7
 74
     0
 91
        4
 64
     7
 65
   257
 75
     1
175
     1
 42
1.0
 92
        8
 66
   257
 43
1.0
 76
     1
 77
     6
 78
     2
 67
     8
 79
     3
170
     0
171
     0
290
     0
174
     0
 93
        5
 44
0.0
173
     0
291
     0
 45
0.0
1001
ACAD
1000
AcDbSavedByObjectVersion
1070
     0
  0
VISUALSTYLE
  5
3FB
102
{ACAD_XDICTIONARY
360
488
102
}
102
{ACAD_REACTORS
330
3E7
102
}
330
3E7
100
AcDbVisualStyle
  2
Shaded with edges
 70
    26
 71
     2
 72
     2
 73
     1
 90
        2
 40
-0.6
 41
30.0
 62
     5
 63
     7
 74
     1
 91
        2
 64
     7
 65
   257
 75
     2
175
     1
 42
1.0
 92
        8
 66
   257
 43
1.0
 76
     1
 77
     6
 78
     2
 67
     7
 79
     3
170
     0
171
     0
290
     0
174
     0
 93
        5
 44
0.0
173
     0
291
     0
 45
0.0
1001
ACAD
1000
AcDbSavedByObjectVersion
1070
     0
  0
VISUALSTYLE
  5
3F8
102
{ACAD_XDICTIONARY
360
482
102
}
102
{ACAD_REACTORS
330
3E7
102
}
330
3E7
100
AcDbVisualStyle
  2
Shades of Gray
 70
    23
 71
     2
 72
     2
 73
     3
 90
        0
 40
-0.6
 41
-30.0
 62
     5
 63
     7
 74
     2
 91
        2
 64
     7
 65
     7
 75
     1
175
     1
 42
40.0
 92
        8
 66
     7
 43
1.0
 76
     1
 77
     6
 78
     2
 67
     7
 79
     3
170
     0
171
     0
290
     0
174
     0
 93
        1
 44
0.0
173
     0
291
     0
 45
0.0
1001
ACAD
1000
AcDbSavedByObjectVersion
1070
     0
  0
VISUALSTYLE
  5
3F9
102
{ACAD_XDICTIONARY
360
484
102
}
102
{ACAD_REACTORS
330
3E7
102
}
330
3E7
100
AcDbVisualStyle
  2
Sketchy
 70
    24
 71
     1
 72
     2
 73
     2
 90
        0
 40
-0.6
 41
-30.0
 62
     5
 63
     7
 74
     2
 91
        2
 64
     7
 65
     7
 75
     1
175
     1
 42
40.0
 92
       11
 66
     7
 43
1.0
 76
     1
 77
     6
 78
     2
 67
     7
 79
     6
170
     0
171
     0
290
     0
174
     0
 93
        1
 44
0.0
173
     0
291
     0
 45
0.0
1001
ACAD
1000
AcDbSavedByObjectVersion
1070
     0
  0
VISUALSTYLE
  5
3F4
102
{ACAD_XDICTIONARY
360
47A
102
}
102
{ACAD_REACTORS
330
3E7
102
}
330
3E7
100
AcDbVisualStyle
  2
Thicken
 70
    13
 71
     2
 72
     2
 73
     0
 90
        0
 40
-0.6
 41
-30.0
 62
     5
 63
     7
 74
     1
 91
        4
 64
     7
 65
   257
 75
     1
175
     1
 42
1.0
 92
       12
 66
     7
 43
1.0
 76
     1
 77
     6
 78
     2
 67
     7
 79
     5
170
     0
171
     0
290
     0
174
     0
 93
        1
 44
0.0
173
     0
291
     1
 45
0.0
1001
ACAD
1000
AcDbSavedByObjectVersion
1070
     0
  0
VISUALSTYLE
  5
3EE
102
{ACAD_XDICTIONARY
360
46E
102
}
102
{ACAD_REACTORS
330
3E7
102
}
330
3E7
100
AcDbVisualStyle
  2
Wireframe
 70
     5
 71
     0
 72
     2
 73
     0
 90
        0
 40
-0.6
 41
-30.0
 62
     5
 63
     7
 74
     1
 91
        4
 64
     7
 65
   257
 75
     1
175
     1
 42
1.0
 92
        0
 66
   257
 43
1.0
 76
     1
 77
     6
 78
     2
 67
     7
 79
     3
170
     0
171
     0
290
     0
174
     0
 93
        1
 44
0.0
173
     0
291
     0
 45
0.0
1001
ACAD
1000
AcDbSavedByObjectVersion
1070
     0
  0
VISUALSTYLE
  5
3FA
102
{ACAD_XDICTIONARY
360
486
102
}
102
{ACAD_REACTORS
330
3E7
102
}
330
3E7
100
AcDbVisualStyle
  2
X-Ray
 70
    25
 71
     2
 72
     2
 73
     1
 90
        1
 40
0.5
 41
-30.0
 62
     5
 63
     7
 74
     1
 91
        0
 64
     7
 65
   257
 75
     1
175
     1
 42
1.0
 92
        8
 66
     7
 43
1.0
 76
     1
 77
     6
 78
     2
 67
     7
 79
     3
170
     0
171
     0
290
     0
174
     0
 93
       13
 44
0.0
173
     0
291
     0
 45
0.0
1001
ACAD
1000
AcDbSavedByObjectVersion
1070
     0
  0
DICTIONARYVAR
  5
455
102
{ACAD_REACTORS
330
450
102
}
330
450
100
DictionaryVariables
280
     0
  1
1:1
  0
DICTIONARYVAR
  5
452
102
{ACAD_REACTORS
330
450
102
}
330
450
100
DictionaryVariables
280
     0
  1
STANDARD
  0
DICTIONARYVAR
  5
451
102
{ACAD_REACTORS
330
450
102
}
330
450
100
DictionaryVariables
280
     0
  1
STANDARD
  0
DICTIONARYVAR
  5
453
102
{ACAD_REACTORS
330
450
102
}
330
450
100
DictionaryVariables
280
     0
  1
Imperial24
  0
DICTIONARYVAR
  5
454
102
{ACAD_REACTORS
330
450
102
}
330
450
100
DictionaryVariables
280
     0
  1
Imperial24
  0
DICTIONARYVAR
  5
458
102
{ACAD_REACTORS
330
450
102
}
330
450
100
DictionaryVariables
280
     0
  1
1
  0
DICTIONARYVAR
  5
457
102
{ACAD_REACTORS
330
450
102
}
330
450
100
DictionaryVariables
280
     0
  1
0
  0
DICTIONARYVAR
  5
456
102
{ACAD_REACTORS
330
450
102
}
330
450
100
DictionaryVariables
280
     0
  1
127
  0
DICTIONARYVAR
  5
459
102
{ACAD_REACTORS
330
450
102
}
330
450
100
DictionaryVariables
280
     0
  1
2
  0
DICTIONARY
  5
496
330
428
100
AcDbDictionary
280
     1
281
     1
  3
ACAD_XREC_ROUNDTRIP
360
497
  0
DICTIONARY
  5
49A
330
430
100
AcDbDictionary
280
     1
281
     1
  3
ACAD_XREC_ROUNDTRIP
360
49B
  0
DICTIONARY
  5
498
330
42C
100
AcDbDictionary
280
     1
281
     1
  3
ACAD_XREC_ROUNDTRIP
360
499
  0
DICTIONARY
  5
3D8
330
3D7
100
AcDbDictionary
280
     1
281
     1
  3
ACAD_XREC_ROUNDTRIP
360
460
  3
BUMPTILE
360
3DA
  3
DIFFUSETILE
360
3D9
  3
OPACITYTILE
360
3DD
  3
REFLECTIONTILE
360
3DC
  3
REFRACTIONTILE
360
3DE
  3
SPECULARTILE
360
3DB
  0
DICTIONARY
  5
3D0
330
3CF
100
AcDbDictionary
280
     1
281
     1
  3
ACAD_XREC_ROUNDTRIP
360
45F
  3
BUMPTILE
360
3D2
  3
DIFFUSETILE
360
3D1
  3
OPACITYTILE
360
3D5
  3
REFLECTIONTILE
360
3D4
  3
REFRACTIONTILE
360
3D6
  3
SPECULARTILE
360
3D3
  0
DICTIONARY
  5
3E0
330
3DF
100
AcDbDictionary
280
     1
281
     1
  3
ACAD_XREC_ROUNDTRIP
360
461
  3
BUMPTILE
360
3E2
  3
DIFFUSETILE
360
3E1
  3
OPACITYTILE
360
3E5
  3
REFLECTIONTILE
360
3E4
  3
REFRACTIONTILE
360
3E6
  3
SPECULARTILE
360
3E3
  0
DICTIONARY
  5
494
330
426
100
AcDbDictionary
280
     1
281
     1
  3
ACAD_XREC_ROUNDTRIP
360
495
  0
DICTIONARY
  5
45B
330
422
100
AcDbDictionary
280
     1
281
     1
  3
ACAD_ROUNDTRIP_2008_TABLESTYLE_CELLSTYLEMAP
360
45C
  3
ACAD_XREC_ROUNDTRIP
360
492
  0
DICTIONARY
  5
46C
330
3ED
100
AcDbDictionary
280
     1
281
     1
  3
ACAD_XREC_ROUNDTRIP
360
46D
  0
DICTIONARY
  5
46A
330
3EC
100
AcDbDictionary
280
     1
281
     1
  3
ACAD_XREC_ROUNDTRIP
360
46B
  0
DICTIONARY
  5
478
330
3F3
100
AcDbDictionary
280
     1
281
     1
  3
ACAD_XREC_ROUNDTRIP
360
479
  0
DICTIONARY
  5
480
330
3F7
100
AcDbDictionary
280
     1
281
     1
  3
ACAD_XREC_ROUNDTRIP
360
481
  0
DICTIONARY
  5
472
330
3F0
100
AcDbDictionary
280
     1
281
     1
  3
ACAD_XREC_ROUNDTRIP
360
473
  0
DICTIONARY
  5
476
330
3F2
100
AcDbDictionary
280
     1
281
     1
  3
ACAD_XREC_ROUNDTRIP
360
477
  0
DICTIONARY
  5
490
330
3FF
100
AcDbDictionary
280
     1
281
     1
  3
ACAD_XREC_ROUNDTRIP
360
491
  0
DICTIONARY
  5
47E
330
3F6
100
AcDbDictionary
280
     1
281
     1
  3
ACAD_XREC_ROUNDTRIP
360
47F
  0
DICTIONARY
  5
462
330
3E8
100
AcDbDictionary
280
     1
281
     1
  3
ACAD_XREC_ROUNDTRIP
360
463
  0
DICTIONARY
  5
464
330
3E9
100
AcDbDictionary
280
     1
281
     1
  3
ACAD_XREC_ROUNDTRIP
360
465
  0
DICTIONARY
  5
466
330
3EA
100
AcDbDictionary
280
     1
281
     1
  3
ACAD_XREC_ROUNDTRIP
360
467
  0
DICTIONARY
  5
468
330
3EB
100
AcDbDictionary
280
     1
281
     1
  3
ACAD_XREC_ROUNDTRIP
360
469
  0
DICTIONARY
  5
470
330
3EF
100
AcDbDictionary
280
     1
281
     1
  3
ACAD_XREC_ROUNDTRIP
360
471
  0
DICTIONARY
  5
48C
330
3FD
100
AcDbDictionary
280
     1
281
     1
  3
ACAD_XREC_ROUNDTRIP
360
48D
  0
DICTIONARY
  5
47C
330
3F5
100
AcDbDictionary
280
     1
281
     1
  3
ACAD_XREC_ROUNDTRIP
360
47D
  0
DICTIONARY
  5
48E
330
3FE
100
AcDbDictionary
280
     1
281
     1
  3
ACAD_XREC_ROUNDTRIP
360
48F
  0
DICTIONARY
  5
474
330
3F1
100
AcDbDictionary
280
     1
281
     1
  3
ACAD_XREC_ROUNDTRIP
360
475
  0
DICTIONARY
  5
48A
330
3FC
100
AcDbDictionary
280
     1
281
     1
  3
ACAD_XREC_ROUNDTRIP
360
48B
  0
DICTIONARY
  5
488
330
3FB
100
AcDbDictionary
280
     1
281
     1
  3
ACAD_XREC_ROUNDTRIP
360
489
  0
DICTIONARY
  5
482
330
3F8
100
AcDbDictionary
280
     1
281
     1
  3
ACAD_XREC_ROUNDTRIP
360
483
  0
DICTIONARY
  5
484
330
3F9
100
AcDbDictionary
280
     1
281
     1
  3
ACAD_XREC_ROUNDTRIP
360
485
  0
DICTIONARY
  5
47A
330
3F4
100
AcDbDictionary
280
     1
281
     1
  3
ACAD_XREC_ROUNDTRIP
360
47B
  0
DICTIONARY
  5
46E
330
3EE
100
AcDbDictionary
280
     1
281
     1
  3
ACAD_XREC_ROUNDTRIP
360
46F
  0
DICTIONARY
  5
486
330
3FA
100
AcDbDictionary
280
     1
281
     1
  3
ACAD_XREC_ROUNDTRIP
360
487
  0
XRECORD
  5
497
102
{ACAD_REACTORS
330
496
102
}
330
496
100
AcDbXrecord
280
     1
102
DISPLAYNAME
  1
Imperial24
102
FLAGS
 90
        0
  0
XRECORD
  5
49B
102
{ACAD_REACTORS
330
49A
102
}
330
49A
100
AcDbXrecord
280
     1
102
SHADEPLOT
 70
     0
102
SHADEPLOTRESLEVEL
 70
     2
102
SHADEPLOTCUSTOMDPI
 70
   300
  0
XRECORD
  5
499
102
{ACAD_REACTORS
330
498
102
}
330
498
100
AcDbXrecord
280
     1
102
SHADEPLOT
 70
     0
102
SHADEPLOTRESLEVEL
 70
     2
102
SHADEPLOTCUSTOMDPI
 70
   300
  0
XRECORD
  5
460
102
{ACAD_REACTORS
330
3D8
102
}
330
3D8
100
AcDbXrecord
280
     1
102
MATERIAL
148
0.0
149
0.0
149
0.0
 93
        0
 94
      127
282
     0
 72
     0
 77
     0
171
     0
175
     0
179
     0
273
     0
  0
XRECORD
  5
3DA
102
{ACAD_REACTORS
330
3D8
102
}
330
3D8
100
AcDbXrecord
280
     1
270
     1
271
     1
  0
XRECORD
  5
3D9
102
{ACAD_REACTORS
330
3D8
102
}
330
3D8
100
AcDbXrecord
280
     1
270
     1
271
     1
  0
XRECORD
  5
3DD
102
{ACAD_REACTORS
330
3D8
102
}
330
3D8
100
AcDbXrecord
280
     1
270
     1
271
     1
  0
XRECORD
  5
3DC
102
{ACAD_REACTORS
330
3D8
102
}
330
3D8
100
AcDbXrecord
280
     1
270
     1
271
     1
  0
XRECORD
  5
3DE
102
{ACAD_REACTORS
330
3D8
102
}
330
3D8
100
AcDbXrecord
280
     1
270
     1
271
     1
  0
XRECORD
  5
3DB
102
{ACAD_REACTORS
330
3D8
102
}
330
3D8
100
AcDbXrecord
280
     1
270
     1
271
     1
  0
XRECORD
  5
45F
102
{ACAD_REACTORS
330
3D0
102
}
330
3D0
100
AcDbXrecord
280
     1
102
MATERIAL
148
0.0
149
0.0
149
0.0
 93
        0
 94
      127
282
     0
 72
     0
 77
     0
171
     0
175
     0
179
     0
273
     0
  0
XRECORD
  5
3D2
102
{ACAD_REACTORS
330
3D0
102
}
330
3D0
100
AcDbXrecord
280
     1
270
     1
271
     1
  0
XRECORD
  5
3D1
102
{ACAD_REACTORS
330
3D0
102
}
330
3D0
100
AcDbXrecord
280
     1
270
     1
271
     1
  0
XRECORD
  5
3D5
102
{ACAD_REACTORS
330
3D0
102
}
330
3D0
100
AcDbXrecord
280
     1
270
     1
271
     1
  0
XRECORD
  5
3D4
102
{ACAD_REACTORS
330
3D0
102
}
330
3D0
100
AcDbXrecord
280
     1
270
     1
271
     1
  0
XRECORD
  5
3D6
102
{ACAD_REACTORS
330
3D0
102
}
330
3D0
100
AcDbXrecord
280
     1
270
     1
271
     1
  0
XRECORD
  5
3D3
102
{ACAD_REACTORS
330
3D0
102
}
330
3D0
100
AcDbXrecord
280
     1
270
     1
271
     1
  0
XRECORD
  5
461
102
{ACAD_REACTORS
330
3E0
102
}
330
3E0
100
AcDbXrecord
280
     1
102
MATERIAL
148
0.0
149
0.0
149
0.0
 93
        0
 94
      127
282
     0
 72
     0
 77
     0
171
     0
175
     0
179
     0
273
     0
  0
XRECORD
  5
3E2
102
{ACAD_REACTORS
330
3E0
102
}
330
3E0
100
AcDbXrecord
280
     1
270
     1
271
     1
  0
XRECORD
  5
3E1
102
{ACAD_REACTORS
330
3E0
102
}
330
3E0
100
AcDbXrecord
280
     1
270
     1
271
     1
  0
XRECORD
  5
3E5
102
{ACAD_REACTORS
330
3E0
102
}
330
3E0
100
AcDbXrecord
280
     1
270
     1
271
     1
  0
XRECORD
  5
3E4
102
{ACAD_REACTORS
330
3E0
102
}
330
3E0
100
AcDbXrecord
280
     1
270
     1
271
     1
  0
XRECORD
  5
3E6
102
{ACAD_REACTORS
330
3E0
102
}
330
3E0
100
AcDbXrecord
280
     1
270
     1
271
     1
  0
XRECORD
  5
3E3
102
{ACAD_REACTORS
330
3E0
102
}
330
3E0
100
AcDbXrecord
280
     1
270
     1
271
     1
  0
XRECORD
  5
495
102
{ACAD_REACTORS
330
494
102
}
330
494
100
AcDbXrecord
280
     1
102
DISPLAYNAME
  1
Imperial24
102
FLAGS
 90
        0
  0
CELLSTYLEMAP
  5
45C
102
{ACAD_REACTORS
330
45B
102
}
330
45B
100
AcDbCellStyleMap
 90
        3
300
CELLSTYLE
  1
TABLEFORMAT_BEGIN
 90
        5
170
     1
 91
        0
 92
    32768
 62
   257
 93
        1
300
CONTENTFORMAT
  1
CONTENTFORMAT_BEGIN
 90
        0
 91
        0
 92
      512
 93
        0
300

 40
0.0
140
1.0
 94
        5
 62
     0
340
413
144
0.25
309
CONTENTFORMAT_END
171
     0
 94
        0
309
TABLEFORMAT_END
  1
CELLSTYLE_BEGIN
 90
        1
 91
        1
300
_TITLE
309
CELLSTYLE_END
300
CELLSTYLE
  1
TABLEFORMAT_BEGIN
 90
        5
170
     1
 91
        0
 92
        0
 62
   257
 93
        1
300
CONTENTFORMAT
  1
CONTENTFORMAT_BEGIN
 90
        0
 91
        0
 92
      512
 93
        0
300

 40
0.0
140
1.0
 94
        5
 62
     0
340
413
144
0.18
309
CONTENTFORMAT_END
171
     0
 94
        0
309
TABLEFORMAT_END
  1
CELLSTYLE_BEGIN
 90
        2
 91
        1
300
_HEADER
309
CELLSTYLE_END
300
CELLSTYLE
  1
TABLEFORMAT_BEGIN
 90
        5
170
     1
 91
        0
 92
        0
 62
   257
 93
        1
300
CONTENTFORMAT
  1
CONTENTFORMAT_BEGIN
 90
        0
 91
        0
 92
      512
 93
        0
300

 40
0.0
140
1.0
 94
        2
 62
     0
340
413
144
0.18
309
CONTENTFORMAT_END
171
     0
 94
        0
309
TABLEFORMAT_END
  1
CELLSTYLE_BEGIN
 90
        3
 91
        2
300
_DATA
309
CELLSTYLE_END
  0
XRECORD
  5
492
102
{ACAD_REACTORS
330
45B
102
}
330
45B
100
AcDbXrecord
280
     1
102
ACAD_ROUNDTRIP_PRE2007_TABLESTYLE
 90
      512
 91
        0
  1

 92
      512
 93
        0
  2

 94
      512
 95
        0
  3

  0
XRECORD
  5
46D
102
{ACAD_REACTORS
330
46C
102
}
330
46C
100
AcDbXrecord
280
     1
102
RTVSPost2010Prop28
280
     1
102
RTVSPost2010PropOp28
 70
     1
102
RTVSPost2010Prop29
280
     1
102
RTVSPost2010PropOp29
 70
     1
102
RTVSPost2010Prop30
280
     0
102
RTVSPost2010PropOp30
 70
     1
102
RTVSPost2010Prop31
280
     0
102
RTVSPost2010PropOp31
 70
     1
102
RTVSPost2010Prop32
280
     0
102
RTVSPost2010PropOp32
 70
     1
102
RTVSPost2010Prop33
280
     0
102
RTVSPost2010PropOp33
 70
     1
102
RTVSPost2010Prop34
280
     0
102
RTVSPost2010PropOp34
 70
     1
102
RTVSPost2010Prop35
280
     0
102
RTVSPost2010PropOp35
 70
     1
102
RTVSPost2010Prop36
280
     0
102
RTVSPost2010PropOp36
 70
     1
102
RTVSPost2010Prop37
 90
       50
102
RTVSPost2010PropOp37
 70
     1
102
RTVSPost2010Prop38
140
0.0
102
RTVSPost2010PropOp38
 70
     1
102
RTVSPost2010Prop39
140
1.0
102
RTVSPost2010PropOp39
 70
     1
102
RTVSPost2010Prop40
 90
        0
102
RTVSPost2010PropOp40
 70
     1
102
RTVSPost2010Prop41ColorIndex
 90
       18
102
RTVSPost2010Prop41ColorRGB
 90
        0
102
RTVSPost2010PropOp41
 70
     1
102
RTVSPost2010Prop42
 90
       50
102
RTVSPost2010PropOp42
 70
     1
102
RTVSPost2010Prop43
 90
        3
102
RTVSPost2010PropOp43
 70
     1
102
RTVSPost2010Prop44ColorIndex
 90
        5
102
RTVSPost2010Prop44ColorRGB
 90
      255
102
RTVSPost2010PropOp44
 70
     1
102
RTVSPost2010Prop45
280
     0
102
RTVSPost2010PropOp45
 70
     1
102
RTVSPost2010Prop46
 90
       50
102
RTVSPost2010PropOp46
 70
     1
102
RTVSPost2010Prop47
 90
       50
102
RTVSPost2010PropOp47
 70
     1
102
RTVSPost2010Prop48
 90
       50
102
RTVSPost2010PropOp48
 70
     1
102
RTVSPost2010Prop49
280
     0
102
RTVSPost2010PropOp49
 70
     1
102
RTVSPost2010Prop50
 90
       50
102
RTVSPost2010PropOp50
 70
     1
102
RTVSPost2010Prop51ColorIndex
 90
      256
102
RTVSPost2010Prop51ColorRGB
 90
-16777216
102
RTVSPost2010PropOp51
 70
     0
102
RTVSPost2010Prop52
140
1.0
102
RTVSPost2010PropOp52
 70
     0
102
RTVSPost2010Prop53
 90
        2
102
RTVSPost2010PropOp53
 70
     1
102
RTVSPost2010Prop54
  1
strokes_ogs.tif
102
RTVSPost2010PropOp54
 70
     1
102
RTVSPost2010Prop55
280
     0
102
RTVSPost2010PropOp55
 70
     1
102
RTVSPost2010Prop56
140
1.0
102
RTVSPost2010PropOp56
 70
     1
102
RTVSPost2010Prop57
140
1.0
102
RTVSPost2010PropOp57
 70
     1
102
RTVSPropertyOp0
 70
     1
102
RTVSPropertyOp1
 70
     1
102
RTVSPropertyOp2
 70
     1
102
RTVSPropertyOp3
 70
     1
102
RTVSPropertyOp4
 70
     1
102
RTVSPropertyOp5
 70
     1
102
RTVSPropertyOp6
 70
     1
102
RTVSPropertyOp7
 70
     1
102
RTVSPropertyOp8
 70
     1
102
RTVSPropertyOp9
 70
     1
102
RTVSPropertyOp10
 70
     1
102
RTVSPropertyOp11
 70
     1
102
RTVSPropertyOp12
 70
     1
102
RTVSPropertyOp13
 70
     1
102
RTVSPropertyOp14
 70
     1
102
RTVSPropertyOp15
 70
     1
102
RTVSPropertyOp16
 70
     1
102
RTVSPropertyOp17
 70
     1
102
RTVSPropertyOp18
 70
     1
102
RTVSPropertyOp19
 70
     1
102
RTVSPropertyOp20
 70
     1
102
RTVSPropertyOp21
 70
     1
102
RTVSPropertyOp22
 70
     1
102
RTVSPropertyOp23
 70
     1
102
RTVSPropertyOp24
 70
     1
102
RTVSPropertyOp25
 70
     1
102
RTVSPropertyOp26
 70
     1
102
RTVSPropertyOp27
 70
     1
102
RTVSPropertyOp28
 70
     1
102
RTVSPropertyOp29
 70
     1
102
RTVSPropertyOp30
 70
     1
102
RTVSPropertyOp31
 70
     1
102
RTVSPropertyOp32
 70
     1
102
RTVSPropertyOp33
 70
     1
102
RTVSPropertyOp34
 70
     1
102
RTVSPropertyOp35
 70
     1
102
RTVSPropertyOp36
 70
     1
102
RTVSPropertyOp37
 70
     1
102
RTVSPropertyOp38
 70
     1
102
RTVSPropertyOp39
 70
     1
102
RTVSPropertyOp40
 70
     1
102
RTVSPropertyOp41
 70
     1
102
RTVSPropertyOp42
 70
     1
102
RTVSPropertyOp43
 70
     1
102
RTVSPropertyOp44
 70
     1
102
RTVSPropertyOp45
 70
     1
102
RTVSPropertyOp46
 70
     1
102
RTVSPropertyOp47
 70
     1
102
RTVSPropertyOp48
 70
     1
102
RTVSPropertyOp49
 70
     1
102
RTVSPropertyOp50
 70
     1
102
RTVSPropertyOp51
 70
     0
102
RTVSPropertyOp52
 70
     0
102
RTVSPropertyOp53
 70
     1
102
RTVSPropertyOp54
 70
     1
102
RTVSPropertyOp55
 70
     1
102
RTVSPropertyOp56
 70
     1
102
RTVSPropertyOp57
 70
     1
102
RTVSPropertyOp58
 70
     1
102
RTVSPropertyOp59
 70
     1
102
RTVSPropertyOp60
 70
     1
102
RTVSPropertyOp61
 70
     1
102
RTVSPropertyOp62
 70
     1
  0
XRECORD
  5
46B
102
{ACAD_REACTORS
330
46A
102
}
330
46A
100
AcDbXrecord
280
     1
102
RTVSPost2010Prop28
280
     0
102
RTVSPost2010PropOp28
 70
     1
102
RTVSPost2010Prop29
280
     1
102
RTVSPost2010PropOp29
 70
     1
102
RTVSPost2010Prop30
280
     1
102
RTVSPost2010PropOp30
 70
     1
102
RTVSPost2010Prop31
280
     0
102
RTVSPost2010PropOp31
 70
     1
102
RTVSPost2010Prop32
280
     0
102
RTVSPost2010PropOp32
 70
     1
102
RTVSPost2010Prop33
280
     0
102
RTVSPost2010PropOp33
 70
     1
102
RTVSPost2010Prop34
280
     0
102
RTVSPost2010PropOp34
 70
     1
102
RTVSPost2010Prop35
280
     0
102
RTVSPost2010PropOp35
 70
     1
102
RTVSPost2010Prop36
280
     0
102
RTVSPost2010PropOp36
 70
     1
102
RTVSPost2010Prop37
 90
       50
102
RTVSPost2010PropOp37
 70
     1
102
RTVSPost2010Prop38
140
0.0
102
RTVSPost2010PropOp38
 70
     1
102
RTVSPost2010Prop39
140
1.0
102
RTVSPost2010PropOp39
 70
     1
102
RTVSPost2010Prop40
 90
        0
102
RTVSPost2010PropOp40
 70
     1
102
RTVSPost2010Prop41ColorIndex
 90
       18
102
RTVSPost2010Prop41ColorRGB
 90
        0
102
RTVSPost2010PropOp41
 70
     1
102
RTVSPost2010Prop42
 90
       50
102
RTVSPost2010PropOp42
 70
     1
102
RTVSPost2010Prop43
 90
        3
102
RTVSPost2010PropOp43
 70
     1
102
RTVSPost2010Prop44ColorIndex
 90
        5
102
RTVSPost2010Prop44ColorRGB
 90
      255
102
RTVSPost2010PropOp44
 70
     1
102
RTVSPost2010Prop45
280
     0
102
RTVSPost2010PropOp45
 70
     1
102
RTVSPost2010Prop46
 90
       50
102
RTVSPost2010PropOp46
 70
     1
102
RTVSPost2010Prop47
 90
       50
102
RTVSPost2010PropOp47
 70
     1
102
RTVSPost2010Prop48
 90
       50
102
RTVSPost2010PropOp48
 70
     1
102
RTVSPost2010Prop49
280
     0
102
RTVSPost2010PropOp49
 70
     1
102
RTVSPost2010Prop50
 90
       50
102
RTVSPost2010PropOp50
 70
     1
102
RTVSPost2010Prop51ColorIndex
 90
      256
102
RTVSPost2010Prop51ColorRGB
 90
-16777216
102
RTVSPost2010PropOp51
 70
     0
102
RTVSPost2010Prop52
140
1.0
102
RTVSPost2010PropOp52
 70
     0
102
RTVSPost2010Prop53
 90
        2
102
RTVSPost2010PropOp53
 70
     1
102
RTVSPost2010Prop54
  1
strokes_ogs.tif
102
RTVSPost2010PropOp54
 70
     1
102
RTVSPost2010Prop55
280
     0
102
RTVSPost2010PropOp55
 70
     1
102
RTVSPost2010Prop56
140
1.0
102
RTVSPost2010PropOp56
 70
     1
102
RTVSPost2010Prop57
140
1.0
102
RTVSPost2010PropOp57
 70
     1
102
RTVSPropertyOp0
 70
     1
102
RTVSPropertyOp1
 70
     1
102
RTVSPropertyOp2
 70
     1
102
RTVSPropertyOp3
 70
     1
102
RTVSPropertyOp4
 70
     1
102
RTVSPropertyOp5
 70
     1
102
RTVSPropertyOp6
 70
     1
102
RTVSPropertyOp7
 70
     1
102
RTVSPropertyOp8
 70
     1
102
RTVSPropertyOp9
 70
     1
102
RTVSPropertyOp10
 70
     1
102
RTVSPropertyOp11
 70
     1
102
RTVSPropertyOp12
 70
     1
102
RTVSPropertyOp13
 70
     1
102
RTVSPropertyOp14
 70
     1
102
RTVSPropertyOp15
 70
     1
102
RTVSPropertyOp16
 70
     1
102
RTVSPropertyOp17
 70
     1
102
RTVSPropertyOp18
 70
     1
102
RTVSPropertyOp19
 70
     1
102
RTVSPropertyOp20
 70
     1
102
RTVSPropertyOp21
 70
     1
102
RTVSPropertyOp22
 70
     1
102
RTVSPropertyOp23
 70
     1
102
RTVSPropertyOp24
 70
     1
102
RTVSPropertyOp25
 70
     1
102
RTVSPropertyOp26
 70
     1
102
RTVSPropertyOp27
 70
     1
102
RTVSPropertyOp28
 70
     1
102
RTVSPropertyOp29
 70
     1
102
RTVSPropertyOp30
 70
     1
102
RTVSPropertyOp31
 70
     1
102
RTVSPropertyOp32
 70
     1
102
RTVSPropertyOp33
 70
     1
102
RTVSPropertyOp34
 70
     1
102
RTVSPropertyOp35
 70
     1
102
RTVSPropertyOp36
 70
     1
102
RTVSPropertyOp37
 70
     1
102
RTVSPropertyOp38
 70
     1
102
RTVSPropertyOp39
 70
     1
102
RTVSPropertyOp40
 70
     1
102
RTVSPropertyOp41
 70
     1
102
RTVSPropertyOp42
 70
     1
102
RTVSPropertyOp43
 70
     1
102
RTVSPropertyOp44
 70
     1
102
RTVSPropertyOp45
 70
     1
102
RTVSPropertyOp46
 70
     1
102
RTVSPropertyOp47
 70
     1
102
RTVSPropertyOp48
 70
     1
102
RTVSPropertyOp49
 70
     1
102
RTVSPropertyOp50
 70
     1
102
RTVSPropertyOp51
 70
     0
102
RTVSPropertyOp52
 70
     0
102
RTVSPropertyOp53
 70
     1
102
RTVSPropertyOp54
 70
     1
102
RTVSPropertyOp55
 70
     1
102
RTVSPropertyOp56
 70
     1
102
RTVSPropertyOp57
 70
     1
102
RTVSPropertyOp58
 70
     1
102
RTVSPropertyOp59
 70
     1
102
RTVSPropertyOp60
 70
     1
102
RTVSPropertyOp61
 70
     1
102
RTVSPropertyOp62
 70
     1
  0
XRECORD
  5
479
102
{ACAD_REACTORS
330
478
102
}
330
478
100
AcDbXrecord
280
     1
102
RTVSPost2010Prop28
280
     0
102
RTVSPost2010PropOp28
 70
     1
102
RTVSPost2010Prop29
280
     1
102
RTVSPost2010PropOp29
 70
     1
102
RTVSPost2010Prop30
280
     1
102
RTVSPost2010PropOp30
 70
     1
102
RTVSPost2010Prop31
280
     0
102
RTVSPost2010PropOp31
 70
     1
102
RTVSPost2010Prop32
280
     0
102
RTVSPost2010PropOp32
 70
     1
102
RTVSPost2010Prop33
280
     0
102
RTVSPost2010PropOp33
 70
     1
102
RTVSPost2010Prop34
280
     0
102
RTVSPost2010PropOp34
 70
     1
102
RTVSPost2010Prop35
280
     0
102
RTVSPost2010PropOp35
 70
     1
102
RTVSPost2010Prop36
280
     0
102
RTVSPost2010PropOp36
 70
     1
102
RTVSPost2010Prop37
 90
       50
102
RTVSPost2010PropOp37
 70
     1
102
RTVSPost2010Prop38
140
0.0
102
RTVSPost2010PropOp38
 70
     1
102
RTVSPost2010Prop39
140
1.0
102
RTVSPost2010PropOp39
 70
     1
102
RTVSPost2010Prop40
 90
        0
102
RTVSPost2010PropOp40
 70
     1
102
RTVSPost2010Prop41ColorIndex
 90
       18
102
RTVSPost2010Prop41ColorRGB
 90
        0
102
RTVSPost2010PropOp41
 70
     1
102
RTVSPost2010Prop42
 90
       50
102
RTVSPost2010PropOp42
 70
     1
102
RTVSPost2010Prop43
 90
        3
102
RTVSPost2010PropOp43
 70
     1
102
RTVSPost2010Prop44ColorIndex
 90
        5
102
RTVSPost2010Prop44ColorRGB
 90
      255
102
RTVSPost2010PropOp44
 70
     1
102
RTVSPost2010Prop45
280
     0
102
RTVSPost2010PropOp45
 70
     1
102
RTVSPost2010Prop46
 90
       50
102
RTVSPost2010PropOp46
 70
     1
102
RTVSPost2010Prop47
 90
       50
102
RTVSPost2010PropOp47
 70
     1
102
RTVSPost2010Prop48
 90
       50
102
RTVSPost2010PropOp48
 70
     1
102
RTVSPost2010Prop49
280
     0
102
RTVSPost2010PropOp49
 70
     1
102
RTVSPost2010Prop50
 90
       50
102
RTVSPost2010PropOp50
 70
     1
102
RTVSPost2010Prop51ColorIndex
 90
      256
102
RTVSPost2010Prop51ColorRGB
 90
-16777216
102
RTVSPost2010PropOp51
 70
     0
102
RTVSPost2010Prop52
140
1.0
102
RTVSPost2010PropOp52
 70
     0
102
RTVSPost2010Prop53
 90
        2
102
RTVSPost2010PropOp53
 70
     1
102
RTVSPost2010Prop54
  1
strokes_ogs.tif
102
RTVSPost2010PropOp54
 70
     1
102
RTVSPost2010Prop55
280
     0
102
RTVSPost2010PropOp55
 70
     1
102
RTVSPost2010Prop56
140
1.0
102
RTVSPost2010PropOp56
 70
     1
102
RTVSPost2010Prop57
140
1.0
102
RTVSPost2010PropOp57
 70
     1
102
RTVSPropertyOp0
 70
     1
102
RTVSPropertyOp1
 70
     1
102
RTVSPropertyOp2
 70
     1
102
RTVSPropertyOp3
 70
     1
102
RTVSPropertyOp4
 70
     1
102
RTVSPropertyOp5
 70
     1
102
RTVSPropertyOp6
 70
     1
102
RTVSPropertyOp7
 70
     1
102
RTVSPropertyOp8
 70
     1
102
RTVSPropertyOp9
 70
     1
102
RTVSPropertyOp10
 70
     1
102
RTVSPropertyOp11
 70
     1
102
RTVSPropertyOp12
 70
     1
102
RTVSPropertyOp13
 70
     1
102
RTVSPropertyOp14
 70
     1
102
RTVSPropertyOp15
 70
     1
102
RTVSPropertyOp16
 70
     1
102
RTVSPropertyOp17
 70
     1
102
RTVSPropertyOp18
 70
     1
102
RTVSPropertyOp19
 70
     1
102
RTVSPropertyOp20
 70
     1
102
RTVSPropertyOp21
 70
     1
102
RTVSPropertyOp22
 70
     1
102
RTVSPropertyOp23
 70
     1
102
RTVSPropertyOp24
 70
     1
102
RTVSPropertyOp25
 70
     1
102
RTVSPropertyOp26
 70
     1
102
RTVSPropertyOp27
 70
     1
102
RTVSPropertyOp28
 70
     1
102
RTVSPropertyOp29
 70
     1
102
RTVSPropertyOp30
 70
     1
102
RTVSPropertyOp31
 70
     1
102
RTVSPropertyOp32
 70
     1
102
RTVSPropertyOp33
 70
     1
102
RTVSPropertyOp34
 70
     1
102
RTVSPropertyOp35
 70
     1
102
RTVSPropertyOp36
 70
     1
102
RTVSPropertyOp37
 70
     1
102
RTVSPropertyOp38
 70
     1
102
RTVSPropertyOp39
 70
     1
102
RTVSPropertyOp40
 70
     1
102
RTVSPropertyOp41
 70
     1
102
RTVSPropertyOp42
 70
     1
102
RTVSPropertyOp43
 70
     1
102
RTVSPropertyOp44
 70
     1
102
RTVSPropertyOp45
 70
     1
102
RTVSPropertyOp46
 70
     1
102
RTVSPropertyOp47
 70
     1
102
RTVSPropertyOp48
 70
     1
102
RTVSPropertyOp49
 70
     1
102
RTVSPropertyOp50
 70
     1
102
RTVSPropertyOp51
 70
     0
102
RTVSPropertyOp52
 70
     0
102
RTVSPropertyOp53
 70
     1
102
RTVSPropertyOp54
 70
     1
102
RTVSPropertyOp55
 70
     1
102
RTVSPropertyOp56
 70
     1
102
RTVSPropertyOp57
 70
     1
102
RTVSPropertyOp58
 70
     1
102
RTVSPropertyOp59
 70
     1
102
RTVSPropertyOp60
 70
     1
102
RTVSPropertyOp61
 70
     1
102
RTVSPropertyOp62
 70
     1
  0
XRECORD
  5
481
102
{ACAD_REACTORS
330
480
102
}
330
480
100
AcDbXrecord
280
     1
102
RTVSPost2010Prop28
280
     0
102
RTVSPost2010PropOp28
 70
     1
102
RTVSPost2010Prop29
280
     1
102
RTVSPost2010PropOp29
 70
     1
102
RTVSPost2010Prop30
280
     1
102
RTVSPost2010PropOp30
 70
     1
102
RTVSPost2010Prop31
280
     0
102
RTVSPost2010PropOp31
 70
     1
102
RTVSPost2010Prop32
280
     0
102
RTVSPost2010PropOp32
 70
     1
102
RTVSPost2010Prop33
280
     0
102
RTVSPost2010PropOp33
 70
     1
102
RTVSPost2010Prop34
280
     0
102
RTVSPost2010PropOp34
 70
     1
102
RTVSPost2010Prop35
280
     0
102
RTVSPost2010PropOp35
 70
     1
102
RTVSPost2010Prop36
280
     0
102
RTVSPost2010PropOp36
 70
     1
102
RTVSPost2010Prop37
 90
       50
102
RTVSPost2010PropOp37
 70
     1
102
RTVSPost2010Prop38
140
0.0
102
RTVSPost2010PropOp38
 70
     1
102
RTVSPost2010Prop39
140
1.0
102
RTVSPost2010PropOp39
 70
     1
102
RTVSPost2010Prop40
 90
        0
102
RTVSPost2010PropOp40
 70
     1
102
RTVSPost2010Prop41ColorIndex
 90
       18
102
RTVSPost2010Prop41ColorRGB
 90
        0
102
RTVSPost2010PropOp41
 70
     1
102
RTVSPost2010Prop42
 90
       50
102
RTVSPost2010PropOp42
 70
     1
102
RTVSPost2010Prop43
 90
        3
102
RTVSPost2010PropOp43
 70
     1
102
RTVSPost2010Prop44ColorIndex
 90
        5
102
RTVSPost2010Prop44ColorRGB
 90
      255
102
RTVSPost2010PropOp44
 70
     1
102
RTVSPost2010Prop45
280
     0
102
RTVSPost2010PropOp45
 70
     1
102
RTVSPost2010Prop46
 90
       50
102
RTVSPost2010PropOp46
 70
     1
102
RTVSPost2010Prop47
 90
       50
102
RTVSPost2010PropOp47
 70
     1
102
RTVSPost2010Prop48
 90
       50
102
RTVSPost2010PropOp48
 70
     1
102
RTVSPost2010Prop49
280
     0
102
RTVSPost2010PropOp49
 70
     1
102
RTVSPost2010Prop50
 90
       50
102
RTVSPost2010PropOp50
 70
     1
102
RTVSPost2010Prop51ColorIndex
 90
      256
102
RTVSPost2010Prop51ColorRGB
 90
-16777216
102
RTVSPost2010PropOp51
 70
     0
102
RTVSPost2010Prop52
140
1.0
102
RTVSPost2010PropOp52
 70
     0
102
RTVSPost2010Prop53
 90
        2
102
RTVSPost2010PropOp53
 70
     1
102
RTVSPost2010Prop54
  1
strokes_ogs.tif
102
RTVSPost2010PropOp54
 70
     1
102
RTVSPost2010Prop55
280
     0
102
RTVSPost2010PropOp55
 70
     1
102
RTVSPost2010Prop56
140
1.0
102
RTVSPost2010PropOp56
 70
     1
102
RTVSPost2010Prop57
140
1.0
102
RTVSPost2010PropOp57
 70
     1
102
RTVSPropertyOp0
 70
     1
102
RTVSPropertyOp1
 70
     1
102
RTVSPropertyOp2
 70
     1
102
RTVSPropertyOp3
 70
     1
102
RTVSPropertyOp4
 70
     1
102
RTVSPropertyOp5
 70
     1
102
RTVSPropertyOp6
 70
     1
102
RTVSPropertyOp7
 70
     1
102
RTVSPropertyOp8
 70
     1
102
RTVSPropertyOp9
 70
     1
102
RTVSPropertyOp10
 70
     1
102
RTVSPropertyOp11
 70
     1
102
RTVSPropertyOp12
 70
     1
102
RTVSPropertyOp13
 70
     1
102
RTVSPropertyOp14
 70
     1
102
RTVSPropertyOp15
 70
     1
102
RTVSPropertyOp16
 70
     1
102
RTVSPropertyOp17
 70
     1
102
RTVSPropertyOp18
 70
     1
102
RTVSPropertyOp19
 70
     1
102
RTVSPropertyOp20
 70
     1
102
RTVSPropertyOp21
 70
     1
102
RTVSPropertyOp22
 70
     1
102
RTVSPropertyOp23
 70
     1
102
RTVSPropertyOp24
 70
     1
102
RTVSPropertyOp25
 70
     1
102
RTVSPropertyOp26
 70
     1
102
RTVSPropertyOp27
 70
     1
102
RTVSPropertyOp28
 70
     1
102
RTVSPropertyOp29
 70
     1
102
RTVSPropertyOp30
 70
     1
102
RTVSPropertyOp31
 70
     1
102
RTVSPropertyOp32
 70
     1
102
RTVSPropertyOp33
 70
     1
102
RTVSPropertyOp34
 70
     1
102
RTVSPropertyOp35
 70
     1
102
RTVSPropertyOp36
 70
     1
102
RTVSPropertyOp37
 70
     1
102
RTVSPropertyOp38
 70
     1
102
RTVSPropertyOp39
 70
     1
102
RTVSPropertyOp40
 70
     1
102
RTVSPropertyOp41
 70
     1
102
RTVSPropertyOp42
 70
     1
102
RTVSPropertyOp43
 70
     1
102
RTVSPropertyOp44
 70
     1
102
RTVSPropertyOp45
 70
     1
102
RTVSPropertyOp46
 70
     1
102
RTVSPropertyOp47
 70
     1
102
RTVSPropertyOp48
 70
     1
102
RTVSPropertyOp49
 70
     1
102
RTVSPropertyOp50
 70
     1
102
RTVSPropertyOp51
 70
     0
102
RTVSPropertyOp52
 70
     0
102
RTVSPropertyOp53
 70
     1
102
RTVSPropertyOp54
 70
     1
102
RTVSPropertyOp55
 70
     1
102
RTVSPropertyOp56
 70
     1
102
RTVSPropertyOp57
 70
     1
102
RTVSPropertyOp58
 70
     1
102
RTVSPropertyOp59
 70
     1
102
RTVSPropertyOp60
 70
     1
102
RTVSPropertyOp61
 70
     1
102
RTVSPropertyOp62
 70
     1
  0
XRECORD
  5
473
102
{ACAD_REACTORS
330
472
102
}
330
472
100
AcDbXrecord
280
     1
102
RTVSPost2010Prop28
280
     0
102
RTVSPost2010PropOp28
 70
     1
102
RTVSPost2010Prop29
280
     1
102
RTVSPost2010PropOp29
 70
     1
102
RTVSPost2010Prop30
280
     1
102
RTVSPost2010PropOp30
 70
     1
102
RTVSPost2010Prop31
280
     0
102
RTVSPost2010PropOp31
 70
     1
102
RTVSPost2010Prop32
280
     0
102
RTVSPost2010PropOp32
 70
     1
102
RTVSPost2010Prop33
280
     0
102
RTVSPost2010PropOp33
 70
     1
102
RTVSPost2010Prop34
280
     0
102
RTVSPost2010PropOp34
 70
     1
102
RTVSPost2010Prop35
280
     0
102
RTVSPost2010PropOp35
 70
     1
102
RTVSPost2010Prop36
280
     0
102
RTVSPost2010PropOp36
 70
     1
102
RTVSPost2010Prop37
 90
       50
102
RTVSPost2010PropOp37
 70
     1
102
RTVSPost2010Prop38
140
0.0
102
RTVSPost2010PropOp38
 70
     1
102
RTVSPost2010Prop39
140
1.0
102
RTVSPost2010PropOp39
 70
     1
102
RTVSPost2010Prop40
 90
        0
102
RTVSPost2010PropOp40
 70
     1
102
RTVSPost2010Prop41ColorIndex
 90
       18
102
RTVSPost2010Prop41ColorRGB
 90
        0
102
RTVSPost2010PropOp41
 70
     1
102
RTVSPost2010Prop42
 90
       50
102
RTVSPost2010PropOp42
 70
     1
102
RTVSPost2010Prop43
 90
        3
102
RTVSPost2010PropOp43
 70
     1
102
RTVSPost2010Prop44ColorIndex
 90
        5
102
RTVSPost2010Prop44ColorRGB
 90
      255
102
RTVSPost2010PropOp44
 70
     1
102
RTVSPost2010Prop45
280
     0
102
RTVSPost2010PropOp45
 70
     1
102
RTVSPost2010Prop46
 90
       50
102
RTVSPost2010PropOp46
 70
     1
102
RTVSPost2010Prop47
 90
       50
102
RTVSPost2010PropOp47
 70
     1
102
RTVSPost2010Prop48
 90
       50
102
RTVSPost2010PropOp48
 70
     1
102
RTVSPost2010Prop49
280
     0
102
RTVSPost2010PropOp49
 70
     1
102
RTVSPost2010Prop50
 90
       50
102
RTVSPost2010PropOp50
 70
     1
102
RTVSPost2010Prop51ColorIndex
 90
      256
102
RTVSPost2010Prop51ColorRGB
 90
-16777216
102
RTVSPost2010PropOp51
 70
     0
102
RTVSPost2010Prop52
140
1.0
102
RTVSPost2010PropOp52
 70
     0
102
RTVSPost2010Prop53
 90
        2
102
RTVSPost2010PropOp53
 70
     1
102
RTVSPost2010Prop54
  1
strokes_ogs.tif
102
RTVSPost2010PropOp54
 70
     1
102
RTVSPost2010Prop55
280
     0
102
RTVSPost2010PropOp55
 70
     1
102
RTVSPost2010Prop56
140
1.0
102
RTVSPost2010PropOp56
 70
     1
102
RTVSPost2010Prop57
140
1.0
102
RTVSPost2010PropOp57
 70
     1
102
RTVSPropertyOp0
 70
     1
102
RTVSPropertyOp1
 70
     1
102
RTVSPropertyOp2
 70
     1
102
RTVSPropertyOp3
 70
     1
102
RTVSPropertyOp4
 70
     1
102
RTVSPropertyOp5
 70
     1
102
RTVSPropertyOp6
 70
     1
102
RTVSPropertyOp7
 70
     1
102
RTVSPropertyOp8
 70
     1
102
RTVSPropertyOp9
 70
     1
102
RTVSPropertyOp10
 70
     1
102
RTVSPropertyOp11
 70
     1
102
RTVSPropertyOp12
 70
     1
102
RTVSPropertyOp13
 70
     1
102
RTVSPropertyOp14
 70
     1
102
RTVSPropertyOp15
 70
     1
102
RTVSPropertyOp16
 70
     1
102
RTVSPropertyOp17
 70
     1
102
RTVSPropertyOp18
 70
     1
102
RTVSPropertyOp19
 70
     1
102
RTVSPropertyOp20
 70
     1
102
RTVSPropertyOp21
 70
     1
102
RTVSPropertyOp22
 70
     1
102
RTVSPropertyOp23
 70
     1
102
RTVSPropertyOp24
 70
     1
102
RTVSPropertyOp25
 70
     1
102
RTVSPropertyOp26
 70
     1
102
RTVSPropertyOp27
 70
     1
102
RTVSPropertyOp28
 70
     1
102
RTVSPropertyOp29
 70
     1
102
RTVSPropertyOp30
 70
     1
102
RTVSPropertyOp31
 70
     1
102
RTVSPropertyOp32
 70
     1
102
RTVSPropertyOp33
 70
     1
102
RTVSPropertyOp34
 70
     1
102
RTVSPropertyOp35
 70
     1
102
RTVSPropertyOp36
 70
     1
102
RTVSPropertyOp37
 70
     1
102
RTVSPropertyOp38
 70
     1
102
RTVSPropertyOp39
 70
     1
102
RTVSPropertyOp40
 70
     1
102
RTVSPropertyOp41
 70
     1
102
RTVSPropertyOp42
 70
     1
102
RTVSPropertyOp43
 70
     1
102
RTVSPropertyOp44
 70
     1
102
RTVSPropertyOp45
 70
     1
102
RTVSPropertyOp46
 70
     1
102
RTVSPropertyOp47
 70
     1
102
RTVSPropertyOp48
 70
     1
102
RTVSPropertyOp49
 70
     1
102
RTVSPropertyOp50
 70
     1
102
RTVSPropertyOp51
 70
     0
102
RTVSPropertyOp52
 70
     0
102
RTVSPropertyOp53
 70
     1
102
RTVSPropertyOp54
 70
     1
102
RTVSPropertyOp55
 70
     1
102
RTVSPropertyOp56
 70
     1
102
RTVSPropertyOp57
 70
     1
102
RTVSPropertyOp58
 70
     1
102
RTVSPropertyOp59
 70
     1
102
RTVSPropertyOp60
 70
     1
102
RTVSPropertyOp61
 70
     1
102
RTVSPropertyOp62
 70
     1
  0
XRECORD
  5
477
102
{ACAD_REACTORS
330
476
102
}
330
476
100
AcDbXrecord
280
     1
102
RTVSPost2010Prop28
280
     0
102
RTVSPost2010PropOp28
 70
     1
102
RTVSPost2010Prop29
280
     1
102
RTVSPost2010PropOp29
 70
     1
102
RTVSPost2010Prop30
280
     1
102
RTVSPost2010PropOp30
 70
     1
102
RTVSPost2010Prop31
280
     0
102
RTVSPost2010PropOp31
 70
     1
102
RTVSPost2010Prop32
280
     0
102
RTVSPost2010PropOp32
 70
     1
102
RTVSPost2010Prop33
280
     0
102
RTVSPost2010PropOp33
 70
     1
102
RTVSPost2010Prop34
280
     0
102
RTVSPost2010PropOp34
 70
     1
102
RTVSPost2010Prop35
280
     0
102
RTVSPost2010PropOp35
 70
     1
102
RTVSPost2010Prop36
280
     0
102
RTVSPost2010PropOp36
 70
     1
102
RTVSPost2010Prop37
 90
       50
102
RTVSPost2010PropOp37
 70
     1
102
RTVSPost2010Prop38
140
0.0
102
RTVSPost2010PropOp38
 70
     1
102
RTVSPost2010Prop39
140
1.0
102
RTVSPost2010PropOp39
 70
     1
102
RTVSPost2010Prop40
 90
        0
102
RTVSPost2010PropOp40
 70
     1
102
RTVSPost2010Prop41ColorIndex
 90
       18
102
RTVSPost2010Prop41ColorRGB
 90
        0
102
RTVSPost2010PropOp41
 70
     1
102
RTVSPost2010Prop42
 90
       50
102
RTVSPost2010PropOp42
 70
     1
102
RTVSPost2010Prop43
 90
        3
102
RTVSPost2010PropOp43
 70
     1
102
RTVSPost2010Prop44ColorIndex
 90
        5
102
RTVSPost2010Prop44ColorRGB
 90
      255
102
RTVSPost2010PropOp44
 70
     1
102
RTVSPost2010Prop45
280
     0
102
RTVSPost2010PropOp45
 70
     1
102
RTVSPost2010Prop46
 90
       50
102
RTVSPost2010PropOp46
 70
     1
102
RTVSPost2010Prop47
 90
       50
102
RTVSPost2010PropOp47
 70
     1
102
RTVSPost2010Prop48
 90
       50
102
RTVSPost2010PropOp48
 70
     1
102
RTVSPost2010Prop49
280
     0
102
RTVSPost2010PropOp49
 70
     1
102
RTVSPost2010Prop50
 90
       50
102
RTVSPost2010PropOp50
 70
     1
102
RTVSPost2010Prop51ColorIndex
 90
      256
102
RTVSPost2010Prop51ColorRGB
 90
-16777216
102
RTVSPost2010PropOp51
 70
     0
102
RTVSPost2010Prop52
140
1.0
102
RTVSPost2010PropOp52
 70
     0
102
RTVSPost2010Prop53
 90
        2
102
RTVSPost2010PropOp53
 70
     1
102
RTVSPost2010Prop54
  1
strokes_ogs.tif
102
RTVSPost2010PropOp54
 70
     1
102
RTVSPost2010Prop55
280
     0
102
RTVSPost2010PropOp55
 70
     1
102
RTVSPost2010Prop56
140
1.0
102
RTVSPost2010PropOp56
 70
     1
102
RTVSPost2010Prop57
140
1.0
102
RTVSPost2010PropOp57
 70
     1
102
RTVSPropertyOp0
 70
     1
102
RTVSPropertyOp1
 70
     1
102
RTVSPropertyOp2
 70
     1
102
RTVSPropertyOp3
 70
     1
102
RTVSPropertyOp4
 70
     1
102
RTVSPropertyOp5
 70
     1
102
RTVSPropertyOp6
 70
     1
102
RTVSPropertyOp7
 70
     1
102
RTVSPropertyOp8
 70
     1
102
RTVSPropertyOp9
 70
     1
102
RTVSPropertyOp10
 70
     1
102
RTVSPropertyOp11
 70
     1
102
RTVSPropertyOp12
 70
     1
102
RTVSPropertyOp13
 70
     1
102
RTVSPropertyOp14
 70
     1
102
RTVSPropertyOp15
 70
     1
102
RTVSPropertyOp16
 70
     1
102
RTVSPropertyOp17
 70
     1
102
RTVSPropertyOp18
 70
     1
102
RTVSPropertyOp19
 70
     1
102
RTVSPropertyOp20
 70
     1
102
RTVSPropertyOp21
 70
     1
102
RTVSPropertyOp22
 70
     1
102
RTVSPropertyOp23
 70
     1
102
RTVSPropertyOp24
 70
     1
102
RTVSPropertyOp25
 70
     1
102
RTVSPropertyOp26
 70
     1
102
RTVSPropertyOp27
 70
     1
102
RTVSPropertyOp28
 70
     1
102
RTVSPropertyOp29
 70
     1
102
RTVSPropertyOp30
 70
     1
102
RTVSPropertyOp31
 70
     1
102
RTVSPropertyOp32
 70
     1
102
RTVSPropertyOp33
 70
     1
102
RTVSPropertyOp34
 70
     1
102
RTVSPropertyOp35
 70
     1
102
RTVSPropertyOp36
 70
     1
102
RTVSPropertyOp37
 70
     1
102
RTVSPropertyOp38
 70
     1
102
RTVSPropertyOp39
 70
     1
102
RTVSPropertyOp40
 70
     1
102
RTVSPropertyOp41
 70
     1
102
RTVSPropertyOp42
 70
     1
102
RTVSPropertyOp43
 70
     1
102
RTVSPropertyOp44
 70
     1
102
RTVSPropertyOp45
 70
     1
102
RTVSPropertyOp46
 70
     1
102
RTVSPropertyOp47
 70
     1
102
RTVSPropertyOp48
 70
     1
102
RTVSPropertyOp49
 70
     1
102
RTVSPropertyOp50
 70
     1
102
RTVSPropertyOp51
 70
     0
102
RTVSPropertyOp52
 70
     0
102
RTVSPropertyOp53
 70
     1
102
RTVSPropertyOp54
 70
     1
102
RTVSPropertyOp55
 70
     1
102
RTVSPropertyOp56
 70
     1
102
RTVSPropertyOp57
 70
     1
102
RTVSPropertyOp58
 70
     1
102
RTVSPropertyOp59
 70
     1
102
RTVSPropertyOp60
 70
     1
102
RTVSPropertyOp61
 70
     1
102
RTVSPropertyOp62
 70
     1
  0
XRECORD
  5
491
102
{ACAD_REACTORS
330
490
102
}
330
490
100
AcDbXrecord
280
     1
102
RTVSPost2010Prop28
280
     0
102
RTVSPost2010PropOp28
 70
     1
102
RTVSPost2010Prop29
280
     1
102
RTVSPost2010PropOp29
 70
     1
102
RTVSPost2010Prop30
280
     1
102
RTVSPost2010PropOp30
 70
     1
102
RTVSPost2010Prop31
280
     0
102
RTVSPost2010PropOp31
 70
     1
102
RTVSPost2010Prop32
280
     0
102
RTVSPost2010PropOp32
 70
     1
102
RTVSPost2010Prop33
280
     0
102
RTVSPost2010PropOp33
 70
     1
102
RTVSPost2010Prop34
280
     0
102
RTVSPost2010PropOp34
 70
     1
102
RTVSPost2010Prop35
280
     0
102
RTVSPost2010PropOp35
 70
     1
102
RTVSPost2010Prop36
280
     0
102
RTVSPost2010PropOp36
 70
     1
102
RTVSPost2010Prop37
 90
       50
102
RTVSPost2010PropOp37
 70
     0
102
RTVSPost2010Prop38
140
0.0
102
RTVSPost2010PropOp38
 70
     0
102
RTVSPost2010Prop39
140
1.0
102
RTVSPost2010PropOp39
 70
     0
102
RTVSPost2010Prop40
 90
        0
102
RTVSPost2010PropOp40
 70
     0
102
RTVSPost2010Prop41ColorIndex
 90
       18
102
RTVSPost2010Prop41ColorRGB
 90
        0
102
RTVSPost2010PropOp41
 70
     0
102
RTVSPost2010Prop42
 90
       50
102
RTVSPost2010PropOp42
 70
     0
102
RTVSPost2010Prop43
 90
        3
102
RTVSPost2010PropOp43
 70
     0
102
RTVSPost2010Prop44ColorIndex
 90
        5
102
RTVSPost2010Prop44ColorRGB
 90
      255
102
RTVSPost2010PropOp44
 70
     0
102
RTVSPost2010Prop45
280
     0
102
RTVSPost2010PropOp45
 70
     1
102
RTVSPost2010Prop46
 90
       50
102
RTVSPost2010PropOp46
 70
     0
102
RTVSPost2010Prop47
 90
       50
102
RTVSPost2010PropOp47
 70
     0
102
RTVSPost2010Prop48
 90
       50
102
RTVSPost2010PropOp48
 70
     0
102
RTVSPost2010Prop49
280
     0
102
RTVSPost2010PropOp49
 70
     1
102
RTVSPost2010Prop50
 90
       50
102
RTVSPost2010PropOp50
 70
     0
102
RTVSPost2010Prop51ColorIndex
 90
      256
102
RTVSPost2010Prop51ColorRGB
 90
-16777216
102
RTVSPost2010PropOp51
 70
     0
102
RTVSPost2010Prop52
140
1.0
102
RTVSPost2010PropOp52
 70
     0
102
RTVSPost2010Prop53
 90
        2
102
RTVSPost2010PropOp53
 70
     0
102
RTVSPost2010Prop54
  1
strokes_ogs.tif
102
RTVSPost2010PropOp54
 70
     0
102
RTVSPost2010Prop55
280
     0
102
RTVSPost2010PropOp55
 70
     1
102
RTVSPost2010Prop56
140
1.0
102
RTVSPost2010PropOp56
 70
     0
102
RTVSPost2010Prop57
140
1.0
102
RTVSPost2010PropOp57
 70
     0
102
RTVSPropertyOp0
 70
     0
102
RTVSPropertyOp1
 70
     0
102
RTVSPropertyOp2
 70
     0
102
RTVSPropertyOp3
 70
     0
102
RTVSPropertyOp4
 70
     0
102
RTVSPropertyOp5
 70
     0
102
RTVSPropertyOp6
 70
     0
102
RTVSPropertyOp7
 70
     0
102
RTVSPropertyOp8
 70
     0
102
RTVSPropertyOp9
 70
     0
102
RTVSPropertyOp10
 70
     0
102
RTVSPropertyOp11
 70
     0
102
RTVSPropertyOp12
 70
     0
102
RTVSPropertyOp13
 70
     0
102
RTVSPropertyOp14
 70
     2
102
RTVSPropertyOp15
 70
     0
102
RTVSPropertyOp16
 70
     0
102
RTVSPropertyOp17
 70
     0
102
RTVSPropertyOp18
 70
     0
102
RTVSPropertyOp19
 70
     0
102
RTVSPropertyOp20
 70
     0
102
RTVSPropertyOp21
 70
     0
102
RTVSPropertyOp22
 70
     0
102
RTVSPropertyOp23
 70
     0
102
RTVSPropertyOp24
 70
     0
102
RTVSPropertyOp25
 70
     0
102
RTVSPropertyOp26
 70
     0
102
RTVSPropertyOp27
 70
     0
102
RTVSPropertyOp28
 70
     1
102
RTVSPropertyOp29
 70
     1
102
RTVSPropertyOp30
 70
     1
102
RTVSPropertyOp31
 70
     1
102
RTVSPropertyOp32
 70
     1
102
RTVSPropertyOp33
 70
     1
102
RTVSPropertyOp34
 70
     1
102
RTVSPropertyOp35
 70
     1
102
RTVSPropertyOp36
 70
     1
102
RTVSPropertyOp37
 70
     0
102
RTVSPropertyOp38
 70
     0
102
RTVSPropertyOp39
 70
     0
102
RTVSPropertyOp40
 70
     0
102
RTVSPropertyOp41
 70
     0
102
RTVSPropertyOp42
 70
     0
102
RTVSPropertyOp43
 70
     0
102
RTVSPropertyOp44
 70
     0
102
RTVSPropertyOp45
 70
     1
102
RTVSPropertyOp46
 70
     0
102
RTVSPropertyOp47
 70
     0
102
RTVSPropertyOp48
 70
     0
102
RTVSPropertyOp49
 70
     1
102
RTVSPropertyOp50
 70
     0
102
RTVSPropertyOp51
 70
     0
102
RTVSPropertyOp52
 70
     0
102
RTVSPropertyOp53
 70
     0
102
RTVSPropertyOp54
 70
     0
102
RTVSPropertyOp55
 70
     1
102
RTVSPropertyOp56
 70
     0
102
RTVSPropertyOp57
 70
     0
102
RTVSPropertyOp58
 70
     0
102
RTVSPropertyOp59
 70
     0
102
RTVSPropertyOp60
 70
     0
102
RTVSPropertyOp61
 70
     0
102
RTVSPropertyOp62
 70
     0
  0
XRECORD
  5
47F
102
{ACAD_REACTORS
330
47E
102
}
330
47E
100
AcDbXrecord
280
     1
102
RTVSPost2010Prop28
280
     0
102
RTVSPost2010PropOp28
 70
     1
102
RTVSPost2010Prop29
280
     1
102
RTVSPost2010PropOp29
 70
     1
102
RTVSPost2010Prop30
280
     1
102
RTVSPost2010PropOp30
 70
     1
102
RTVSPost2010Prop31
280
     0
102
RTVSPost2010PropOp31
 70
     1
102
RTVSPost2010Prop32
280
     0
102
RTVSPost2010PropOp32
 70
     1
102
RTVSPost2010Prop33
280
     0
102
RTVSPost2010PropOp33
 70
     1
102
RTVSPost2010Prop34
280
     0
102
RTVSPost2010PropOp34
 70
     1
102
RTVSPost2010Prop35
280
     0
102
RTVSPost2010PropOp35
 70
     1
102
RTVSPost2010Prop36
280
     0
102
RTVSPost2010PropOp36
 70
     1
102
RTVSPost2010Prop37
 90
       50
102
RTVSPost2010PropOp37
 70
     1
102
RTVSPost2010Prop38
140
0.0
102
RTVSPost2010PropOp38
 70
     1
102
RTVSPost2010Prop39
140
1.0
102
RTVSPost2010PropOp39
 70
     1
102
RTVSPost2010Prop40
 90
        0
102
RTVSPost2010PropOp40
 70
     1
102
RTVSPost2010Prop41ColorIndex
 90
       18
102
RTVSPost2010Prop41ColorRGB
 90
        0
102
RTVSPost2010PropOp41
 70
     1
102
RTVSPost2010Prop42
 90
       50
102
RTVSPost2010PropOp42
 70
     1
102
RTVSPost2010Prop43
 90
        3
102
RTVSPost2010PropOp43
 70
     1
102
RTVSPost2010Prop44ColorIndex
 90
        5
102
RTVSPost2010Prop44ColorRGB
 90
      255
102
RTVSPost2010PropOp44
 70
     1
102
RTVSPost2010Prop45
280
     0
102
RTVSPost2010PropOp45
 70
     1
102
RTVSPost2010Prop46
 90
       50
102
RTVSPost2010PropOp46
 70
     1
102
RTVSPost2010Prop47
 90
       50
102
RTVSPost2010PropOp47
 70
     1
102
RTVSPost2010Prop48
 90
       50
102
RTVSPost2010PropOp48
 70
     1
102
RTVSPost2010Prop49
280
     0
102
RTVSPost2010PropOp49
 70
     1
102
RTVSPost2010Prop50
 90
       50
102
RTVSPost2010PropOp50
 70
     1
102
RTVSPost2010Prop51ColorIndex
 90
      256
102
RTVSPost2010Prop51ColorRGB
 90
-16777216
102
RTVSPost2010PropOp51
 70
     0
102
RTVSPost2010Prop52
140
1.0
102
RTVSPost2010PropOp52
 70
     0
102
RTVSPost2010Prop53
 90
        2
102
RTVSPost2010PropOp53
 70
     1
102
RTVSPost2010Prop54
  1
strokes_ogs.tif
102
RTVSPost2010PropOp54
 70
     1
102
RTVSPost2010Prop55
280
     0
102
RTVSPost2010PropOp55
 70
     1
102
RTVSPost2010Prop56
140
1.0
102
RTVSPost2010PropOp56
 70
     1
102
RTVSPost2010Prop57
140
1.0
102
RTVSPost2010PropOp57
 70
     1
102
RTVSPropertyOp0
 70
     1
102
RTVSPropertyOp1
 70
     1
102
RTVSPropertyOp2
 70
     1
102
RTVSPropertyOp3
 70
     1
102
RTVSPropertyOp4
 70
     1
102
RTVSPropertyOp5
 70
     1
102
RTVSPropertyOp6
 70
     1
102
RTVSPropertyOp7
 70
     1
102
RTVSPropertyOp8
 70
     1
102
RTVSPropertyOp9
 70
     1
102
RTVSPropertyOp10
 70
     1
102
RTVSPropertyOp11
 70
     1
102
RTVSPropertyOp12
 70
     1
102
RTVSPropertyOp13
 70
     1
102
RTVSPropertyOp14
 70
     1
102
RTVSPropertyOp15
 70
     1
102
RTVSPropertyOp16
 70
     1
102
RTVSPropertyOp17
 70
     1
102
RTVSPropertyOp18
 70
     1
102
RTVSPropertyOp19
 70
     1
102
RTVSPropertyOp20
 70
     1
102
RTVSPropertyOp21
 70
     1
102
RTVSPropertyOp22
 70
     1
102
RTVSPropertyOp23
 70
     1
102
RTVSPropertyOp24
 70
     1
102
RTVSPropertyOp25
 70
     1
102
RTVSPropertyOp26
 70
     1
102
RTVSPropertyOp27
 70
     1
102
RTVSPropertyOp28
 70
     1
102
RTVSPropertyOp29
 70
     1
102
RTVSPropertyOp30
 70
     1
102
RTVSPropertyOp31
 70
     1
102
RTVSPropertyOp32
 70
     1
102
RTVSPropertyOp33
 70
     1
102
RTVSPropertyOp34
 70
     1
102
RTVSPropertyOp35
 70
     1
102
RTVSPropertyOp36
 70
     1
102
RTVSPropertyOp37
 70
     1
102
RTVSPropertyOp38
 70
     1
102
RTVSPropertyOp39
 70
     1
102
RTVSPropertyOp40
 70
     1
102
RTVSPropertyOp41
 70
     1
102
RTVSPropertyOp42
 70
     1
102
RTVSPropertyOp43
 70
     1
102
RTVSPropertyOp44
 70
     1
102
RTVSPropertyOp45
 70
     1
102
RTVSPropertyOp46
 70
     1
102
RTVSPropertyOp47
 70
     1
102
RTVSPropertyOp48
 70
     1
102
RTVSPropertyOp49
 70
     1
102
RTVSPropertyOp50
 70
     1
102
RTVSPropertyOp51
 70
     0
102
RTVSPropertyOp52
 70
     0
102
RTVSPropertyOp53
 70
     1
102
RTVSPropertyOp54
 70
     1
102
RTVSPropertyOp55
 70
     1
102
RTVSPropertyOp56
 70
     1
102
RTVSPropertyOp57
 70
     1
102
RTVSPropertyOp58
 70
     1
102
RTVSPropertyOp59
 70
     1
102
RTVSPropertyOp60
 70
     1
102
RTVSPropertyOp61
 70
     1
102
RTVSPropertyOp62
 70
     1
  0
XRECORD
  5
463
102
{ACAD_REACTORS
330
462
102
}
330
462
100
AcDbXrecord
280
     1
102
RTVSPost2010Prop28
280
     0
102
RTVSPost2010PropOp28
 70
     1
102
RTVSPost2010Prop29
280
     1
102
RTVSPost2010PropOp29
 70
     1
102
RTVSPost2010Prop30
280
     1
102
RTVSPost2010PropOp30
 70
     1
102
RTVSPost2010Prop31
280
     0
102
RTVSPost2010PropOp31
 70
     1
102
RTVSPost2010Prop32
280
     0
102
RTVSPost2010PropOp32
 70
     1
102
RTVSPost2010Prop33
280
     0
102
RTVSPost2010PropOp33
 70
     1
102
RTVSPost2010Prop34
280
     0
102
RTVSPost2010PropOp34
 70
     1
102
RTVSPost2010Prop35
280
     0
102
RTVSPost2010PropOp35
 70
     1
102
RTVSPost2010Prop36
280
     0
102
RTVSPost2010PropOp36
 70
     1
102
RTVSPost2010Prop37
 90
       50
102
RTVSPost2010PropOp37
 70
     1
102
RTVSPost2010Prop38
140
0.0
102
RTVSPost2010PropOp38
 70
     1
102
RTVSPost2010Prop39
140
1.0
102
RTVSPost2010PropOp39
 70
     1
102
RTVSPost2010Prop40
 90
        0
102
RTVSPost2010PropOp40
 70
     1
102
RTVSPost2010Prop41ColorIndex
 90
       18
102
RTVSPost2010Prop41ColorRGB
 90
        0
102
RTVSPost2010PropOp41
 70
     1
102
RTVSPost2010Prop42
 90
       50
102
RTVSPost2010PropOp42
 70
     1
102
RTVSPost2010Prop43
 90
        3
102
RTVSPost2010PropOp43
 70
     1
102
RTVSPost2010Prop44ColorIndex
 90
        5
102
RTVSPost2010Prop44ColorRGB
 90
      255
102
RTVSPost2010PropOp44
 70
     1
102
RTVSPost2010Prop45
280
     0
102
RTVSPost2010PropOp45
 70
     1
102
RTVSPost2010Prop46
 90
       50
102
RTVSPost2010PropOp46
 70
     1
102
RTVSPost2010Prop47
 90
       50
102
RTVSPost2010PropOp47
 70
     1
102
RTVSPost2010Prop48
 90
       50
102
RTVSPost2010PropOp48
 70
     1
102
RTVSPost2010Prop49
280
     0
102
RTVSPost2010PropOp49
 70
     1
102
RTVSPost2010Prop50
 90
       50
102
RTVSPost2010PropOp50
 70
     1
102
RTVSPost2010Prop51ColorIndex
 90
      256
102
RTVSPost2010Prop51ColorRGB
 90
-16777216
102
RTVSPost2010PropOp51
 70
     0
102
RTVSPost2010Prop52
140
1.0
102
RTVSPost2010PropOp52
 70
     0
102
RTVSPost2010Prop53
 90
        2
102
RTVSPost2010PropOp53
 70
     1
102
RTVSPost2010Prop54
  1
strokes_ogs.tif
102
RTVSPost2010PropOp54
 70
     1
102
RTVSPost2010Prop55
280
     0
102
RTVSPost2010PropOp55
 70
     1
102
RTVSPost2010Prop56
140
1.0
102
RTVSPost2010PropOp56
 70
     1
102
RTVSPost2010Prop57
140
1.0
102
RTVSPost2010PropOp57
 70
     1
102
RTVSPropertyOp0
 70
     1
102
RTVSPropertyOp1
 70
     1
102
RTVSPropertyOp2
 70
     1
102
RTVSPropertyOp3
 70
     1
102
RTVSPropertyOp4
 70
     1
102
RTVSPropertyOp5
 70
     1
102
RTVSPropertyOp6
 70
     1
102
RTVSPropertyOp7
 70
     1
102
RTVSPropertyOp8
 70
     1
102
RTVSPropertyOp9
 70
     1
102
RTVSPropertyOp10
 70
     1
102
RTVSPropertyOp11
 70
     1
102
RTVSPropertyOp12
 70
     1
102
RTVSPropertyOp13
 70
     1
102
RTVSPropertyOp14
 70
     1
102
RTVSPropertyOp15
 70
     1
102
RTVSPropertyOp16
 70
     1
102
RTVSPropertyOp17
 70
     1
102
RTVSPropertyOp18
 70
     1
102
RTVSPropertyOp19
 70
     1
102
RTVSPropertyOp20
 70
     1
102
RTVSPropertyOp21
 70
     1
102
RTVSPropertyOp22
 70
     1
102
RTVSPropertyOp23
 70
     1
102
RTVSPropertyOp24
 70
     1
102
RTVSPropertyOp25
 70
     1
102
RTVSPropertyOp26
 70
     1
102
RTVSPropertyOp27
 70
     1
102
RTVSPropertyOp28
 70
     1
102
RTVSPropertyOp29
 70
     1
102
RTVSPropertyOp30
 70
     1
102
RTVSPropertyOp31
 70
     1
102
RTVSPropertyOp32
 70
     1
102
RTVSPropertyOp33
 70
     1
102
RTVSPropertyOp34
 70
     1
102
RTVSPropertyOp35
 70
     1
102
RTVSPropertyOp36
 70
     1
102
RTVSPropertyOp37
 70
     1
102
RTVSPropertyOp38
 70
     1
102
RTVSPropertyOp39
 70
     1
102
RTVSPropertyOp40
 70
     1
102
RTVSPropertyOp41
 70
     1
102
RTVSPropertyOp42
 70
     1
102
RTVSPropertyOp43
 70
     1
102
RTVSPropertyOp44
 70
     1
102
RTVSPropertyOp45
 70
     1
102
RTVSPropertyOp46
 70
     1
102
RTVSPropertyOp47
 70
     1
102
RTVSPropertyOp48
 70
     1
102
RTVSPropertyOp49
 70
     1
102
RTVSPropertyOp50
 70
     1
102
RTVSPropertyOp51
 70
     0
102
RTVSPropertyOp52
 70
     0
102
RTVSPropertyOp53
 70
     1
102
RTVSPropertyOp54
 70
     1
102
RTVSPropertyOp55
 70
     1
102
RTVSPropertyOp56
 70
     1
102
RTVSPropertyOp57
 70
     1
102
RTVSPropertyOp58
 70
     1
102
RTVSPropertyOp59
 70
     1
102
RTVSPropertyOp60
 70
     1
102
RTVSPropertyOp61
 70
     1
102
RTVSPropertyOp62
 70
     1
  0
XRECORD
  5
465
102
{ACAD_REACTORS
330
464
102
}
330
464
100
AcDbXrecord
280
     1
102
RTVSPost2010Prop28
280
     0
102
RTVSPost2010PropOp28
 70
     1
102
RTVSPost2010Prop29
280
     1
102
RTVSPost2010PropOp29
 70
     1
102
RTVSPost2010Prop30
280
     1
102
RTVSPost2010PropOp30
 70
     1
102
RTVSPost2010Prop31
280
     0
102
RTVSPost2010PropOp31
 70
     1
102
RTVSPost2010Prop32
280
     0
102
RTVSPost2010PropOp32
 70
     1
102
RTVSPost2010Prop33
280
     0
102
RTVSPost2010PropOp33
 70
     1
102
RTVSPost2010Prop34
280
     0
102
RTVSPost2010PropOp34
 70
     1
102
RTVSPost2010Prop35
280
     0
102
RTVSPost2010PropOp35
 70
     1
102
RTVSPost2010Prop36
280
     0
102
RTVSPost2010PropOp36
 70
     1
102
RTVSPost2010Prop37
 90
       50
102
RTVSPost2010PropOp37
 70
     1
102
RTVSPost2010Prop38
140
0.0
102
RTVSPost2010PropOp38
 70
     1
102
RTVSPost2010Prop39
140
1.0
102
RTVSPost2010PropOp39
 70
     1
102
RTVSPost2010Prop40
 90
        0
102
RTVSPost2010PropOp40
 70
     1
102
RTVSPost2010Prop41ColorIndex
 90
       18
102
RTVSPost2010Prop41ColorRGB
 90
        0
102
RTVSPost2010PropOp41
 70
     1
102
RTVSPost2010Prop42
 90
       50
102
RTVSPost2010PropOp42
 70
     1
102
RTVSPost2010Prop43
 90
        3
102
RTVSPost2010PropOp43
 70
     1
102
RTVSPost2010Prop44ColorIndex
 90
        5
102
RTVSPost2010Prop44ColorRGB
 90
      255
102
RTVSPost2010PropOp44
 70
     1
102
RTVSPost2010Prop45
280
     0
102
RTVSPost2010PropOp45
 70
     1
102
RTVSPost2010Prop46
 90
       50
102
RTVSPost2010PropOp46
 70
     1
102
RTVSPost2010Prop47
 90
       50
102
RTVSPost2010PropOp47
 70
     1
102
RTVSPost2010Prop48
 90
       50
102
RTVSPost2010PropOp48
 70
     1
102
RTVSPost2010Prop49
280
     0
102
RTVSPost2010PropOp49
 70
     1
102
RTVSPost2010Prop50
 90
       50
102
RTVSPost2010PropOp50
 70
     1
102
RTVSPost2010Prop51ColorIndex
 90
      256
102
RTVSPost2010Prop51ColorRGB
 90
-16777216
102
RTVSPost2010PropOp51
 70
     0
102
RTVSPost2010Prop52
140
1.0
102
RTVSPost2010PropOp52
 70
     0
102
RTVSPost2010Prop53
 90
        2
102
RTVSPost2010PropOp53
 70
     1
102
RTVSPost2010Prop54
  1
strokes_ogs.tif
102
RTVSPost2010PropOp54
 70
     1
102
RTVSPost2010Prop55
280
     0
102
RTVSPost2010PropOp55
 70
     1
102
RTVSPost2010Prop56
140
1.0
102
RTVSPost2010PropOp56
 70
     1
102
RTVSPost2010Prop57
140
1.0
102
RTVSPost2010PropOp57
 70
     1
102
RTVSPropertyOp0
 70
     1
102
RTVSPropertyOp1
 70
     1
102
RTVSPropertyOp2
 70
     1
102
RTVSPropertyOp3
 70
     1
102
RTVSPropertyOp4
 70
     1
102
RTVSPropertyOp5
 70
     1
102
RTVSPropertyOp6
 70
     1
102
RTVSPropertyOp7
 70
     1
102
RTVSPropertyOp8
 70
     1
102
RTVSPropertyOp9
 70
     1
102
RTVSPropertyOp10
 70
     1
102
RTVSPropertyOp11
 70
     1
102
RTVSPropertyOp12
 70
     1
102
RTVSPropertyOp13
 70
     1
102
RTVSPropertyOp14
 70
     1
102
RTVSPropertyOp15
 70
     1
102
RTVSPropertyOp16
 70
     1
102
RTVSPropertyOp17
 70
     1
102
RTVSPropertyOp18
 70
     1
102
RTVSPropertyOp19
 70
     1
102
RTVSPropertyOp20
 70
     1
102
RTVSPropertyOp21
 70
     1
102
RTVSPropertyOp22
 70
     1
102
RTVSPropertyOp23
 70
     1
102
RTVSPropertyOp24
 70
     1
102
RTVSPropertyOp25
 70
     1
102
RTVSPropertyOp26
 70
     1
102
RTVSPropertyOp27
 70
     1
102
RTVSPropertyOp28
 70
     1
102
RTVSPropertyOp29
 70
     1
102
RTVSPropertyOp30
 70
     1
102
RTVSPropertyOp31
 70
     1
102
RTVSPropertyOp32
 70
     1
102
RTVSPropertyOp33
 70
     1
102
RTVSPropertyOp34
 70
     1
102
RTVSPropertyOp35
 70
     1
102
RTVSPropertyOp36
 70
     1
102
RTVSPropertyOp37
 70
     1
102
RTVSPropertyOp38
 70
     1
102
RTVSPropertyOp39
 70
     1
102
RTVSPropertyOp40
 70
     1
102
RTVSPropertyOp41
 70
     1
102
RTVSPropertyOp42
 70
     1
102
RTVSPropertyOp43
 70
     1
102
RTVSPropertyOp44
 70
     1
102
RTVSPropertyOp45
 70
     1
102
RTVSPropertyOp46
 70
     1
102
RTVSPropertyOp47
 70
     1
102
RTVSPropertyOp48
 70
     1
102
RTVSPropertyOp49
 70
     1
102
RTVSPropertyOp50
 70
     1
102
RTVSPropertyOp51
 70
     0
102
RTVSPropertyOp52
 70
     0
102
RTVSPropertyOp53
 70
     1
102
RTVSPropertyOp54
 70
     1
102
RTVSPropertyOp55
 70
     1
102
RTVSPropertyOp56
 70
     1
102
RTVSPropertyOp57
 70
     1
102
RTVSPropertyOp58
 70
     1
102
RTVSPropertyOp59
 70
     1
102
RTVSPropertyOp60
 70
     1
102
RTVSPropertyOp61
 70
     1
102
RTVSPropertyOp62
 70
     1
  0
XRECORD
  5
467
102
{ACAD_REACTORS
330
466
102
}
330
466
100
AcDbXrecord
280
     1
102
RTVSPost2010Prop28
280
     0
102
RTVSPost2010PropOp28
 70
     1
102
RTVSPost2010Prop29
280
     1
102
RTVSPost2010PropOp29
 70
     1
102
RTVSPost2010Prop30
280
     1
102
RTVSPost2010PropOp30
 70
     1
102
RTVSPost2010Prop31
280
     0
102
RTVSPost2010PropOp31
 70
     1
102
RTVSPost2010Prop32
280
     0
102
RTVSPost2010PropOp32
 70
     1
102
RTVSPost2010Prop33
280
     0
102
RTVSPost2010PropOp33
 70
     1
102
RTVSPost2010Prop34
280
     0
102
RTVSPost2010PropOp34
 70
     1
102
RTVSPost2010Prop35
280
     0
102
RTVSPost2010PropOp35
 70
     1
102
RTVSPost2010Prop36
280
     0
102
RTVSPost2010PropOp36
 70
     1
102
RTVSPost2010Prop37
 90
       50
102
RTVSPost2010PropOp37
 70
     1
102
RTVSPost2010Prop38
140
0.0
102
RTVSPost2010PropOp38
 70
     1
102
RTVSPost2010Prop39
140
1.0
102
RTVSPost2010PropOp39
 70
     1
102
RTVSPost2010Prop40
 90
        0
102
RTVSPost2010PropOp40
 70
     1
102
RTVSPost2010Prop41ColorIndex
 90
       18
102
RTVSPost2010Prop41ColorRGB
 90
        0
102
RTVSPost2010PropOp41
 70
     1
102
RTVSPost2010Prop42
 90
       50
102
RTVSPost2010PropOp42
 70
     1
102
RTVSPost2010Prop43
 90
        3
102
RTVSPost2010PropOp43
 70
     1
102
RTVSPost2010Prop44ColorIndex
 90
        5
102
RTVSPost2010Prop44ColorRGB
 90
      255
102
RTVSPost2010PropOp44
 70
     1
102
RTVSPost2010Prop45
280
     0
102
RTVSPost2010PropOp45
 70
     1
102
RTVSPost2010Prop46
 90
       50
102
RTVSPost2010PropOp46
 70
     1
102
RTVSPost2010Prop47
 90
       50
102
RTVSPost2010PropOp47
 70
     1
102
RTVSPost2010Prop48
 90
       50
102
RTVSPost2010PropOp48
 70
     1
102
RTVSPost2010Prop49
280
     0
102
RTVSPost2010PropOp49
 70
     1
102
RTVSPost2010Prop50
 90
       50
102
RTVSPost2010PropOp50
 70
     1
102
RTVSPost2010Prop51ColorIndex
 90
      256
102
RTVSPost2010Prop51ColorRGB
 90
-16777216
102
RTVSPost2010PropOp51
 70
     0
102
RTVSPost2010Prop52
140
1.0
102
RTVSPost2010PropOp52
 70
     0
102
RTVSPost2010Prop53
 90
        2
102
RTVSPost2010PropOp53
 70
     1
102
RTVSPost2010Prop54
  1
strokes_ogs.tif
102
RTVSPost2010PropOp54
 70
     1
102
RTVSPost2010Prop55
280
     0
102
RTVSPost2010PropOp55
 70
     1
102
RTVSPost2010Prop56
140
1.0
102
RTVSPost2010PropOp56
 70
     1
102
RTVSPost2010Prop57
140
1.0
102
RTVSPost2010PropOp57
 70
     1
102
RTVSPropertyOp0
 70
     1
102
RTVSPropertyOp1
 70
     1
102
RTVSPropertyOp2
 70
     1
102
RTVSPropertyOp3
 70
     1
102
RTVSPropertyOp4
 70
     1
102
RTVSPropertyOp5
 70
     1
102
RTVSPropertyOp6
 70
     1
102
RTVSPropertyOp7
 70
     1
102
RTVSPropertyOp8
 70
     1
102
RTVSPropertyOp9
 70
     1
102
RTVSPropertyOp10
 70
     1
102
RTVSPropertyOp11
 70
     1
102
RTVSPropertyOp12
 70
     1
102
RTVSPropertyOp13
 70
     1
102
RTVSPropertyOp14
 70
     1
102
RTVSPropertyOp15
 70
     1
102
RTVSPropertyOp16
 70
     1
102
RTVSPropertyOp17
 70
     1
102
RTVSPropertyOp18
 70
     1
102
RTVSPropertyOp19
 70
     1
102
RTVSPropertyOp20
 70
     1
102
RTVSPropertyOp21
 70
     1
102
RTVSPropertyOp22
 70
     1
102
RTVSPropertyOp23
 70
     1
102
RTVSPropertyOp24
 70
     1
102
RTVSPropertyOp25
 70
     1
102
RTVSPropertyOp26
 70
     1
102
RTVSPropertyOp27
 70
     1
102
RTVSPropertyOp28
 70
     1
102
RTVSPropertyOp29
 70
     1
102
RTVSPropertyOp30
 70
     1
102
RTVSPropertyOp31
 70
     1
102
RTVSPropertyOp32
 70
     1
102
RTVSPropertyOp33
 70
     1
102
RTVSPropertyOp34
 70
     1
102
RTVSPropertyOp35
 70
     1
102
RTVSPropertyOp36
 70
     1
102
RTVSPropertyOp37
 70
     1
102
RTVSPropertyOp38
 70
     1
102
RTVSPropertyOp39
 70
     1
102
RTVSPropertyOp40
 70
     1
102
RTVSPropertyOp41
 70
     1
102
RTVSPropertyOp42
 70
     1
102
RTVSPropertyOp43
 70
     1
102
RTVSPropertyOp44
 70
     1
102
RTVSPropertyOp45
 70
     1
102
RTVSPropertyOp46
 70
     1
102
RTVSPropertyOp47
 70
     1
102
RTVSPropertyOp48
 70
     1
102
RTVSPropertyOp49
 70
     1
102
RTVSPropertyOp50
 70
     1
102
RTVSPropertyOp51
 70
     0
102
RTVSPropertyOp52
 70
     0
102
RTVSPropertyOp53
 70
     1
102
RTVSPropertyOp54
 70
     1
102
RTVSPropertyOp55
 70
     1
102
RTVSPropertyOp56
 70
     1
102
RTVSPropertyOp57
 70
     1
102
RTVSPropertyOp58
 70
     1
102
RTVSPropertyOp59
 70
     1
102
RTVSPropertyOp60
 70
     1
102
RTVSPropertyOp61
 70
     1
102
RTVSPropertyOp62
 70
     1
  0
XRECORD
  5
469
102
{ACAD_REACTORS
330
468
102
}
330
468
100
AcDbXrecord
280
     1
102
RTVSPost2010Prop28
280
     0
102
RTVSPost2010PropOp28
 70
     1
102
RTVSPost2010Prop29
280
     1
102
RTVSPost2010PropOp29
 70
     1
102
RTVSPost2010Prop30
280
     1
102
RTVSPost2010PropOp30
 70
     1
102
RTVSPost2010Prop31
280
     0
102
RTVSPost2010PropOp31
 70
     1
102
RTVSPost2010Prop32
280
     0
102
RTVSPost2010PropOp32
 70
     1
102
RTVSPost2010Prop33
280
     0
102
RTVSPost2010PropOp33
 70
     1
102
RTVSPost2010Prop34
280
     0
102
RTVSPost2010PropOp34
 70
     1
102
RTVSPost2010Prop35
280
     0
102
RTVSPost2010PropOp35
 70
     1
102
RTVSPost2010Prop36
280
     0
102
RTVSPost2010PropOp36
 70
     1
102
RTVSPost2010Prop37
 90
       50
102
RTVSPost2010PropOp37
 70
     1
102
RTVSPost2010Prop38
140
0.0
102
RTVSPost2010PropOp38
 70
     1
102
RTVSPost2010Prop39
140
1.0
102
RTVSPost2010PropOp39
 70
     1
102
RTVSPost2010Prop40
 90
        0
102
RTVSPost2010PropOp40
 70
     1
102
RTVSPost2010Prop41ColorIndex
 90
       18
102
RTVSPost2010Prop41ColorRGB
 90
        0
102
RTVSPost2010PropOp41
 70
     1
102
RTVSPost2010Prop42
 90
       50
102
RTVSPost2010PropOp42
 70
     1
102
RTVSPost2010Prop43
 90
        3
102
RTVSPost2010PropOp43
 70
     1
102
RTVSPost2010Prop44ColorIndex
 90
        5
102
RTVSPost2010Prop44ColorRGB
 90
      255
102
RTVSPost2010PropOp44
 70
     1
102
RTVSPost2010Prop45
280
     0
102
RTVSPost2010PropOp45
 70
     1
102
RTVSPost2010Prop46
 90
       50
102
RTVSPost2010PropOp46
 70
     1
102
RTVSPost2010Prop47
 90
       50
102
RTVSPost2010PropOp47
 70
     1
102
RTVSPost2010Prop48
 90
       50
102
RTVSPost2010PropOp48
 70
     1
102
RTVSPost2010Prop49
280
     0
102
RTVSPost2010PropOp49
 70
     1
102
RTVSPost2010Prop50
 90
       50
102
RTVSPost2010PropOp50
 70
     1
102
RTVSPost2010Prop51ColorIndex
 90
      256
102
RTVSPost2010Prop51ColorRGB
 90
-16777216
102
RTVSPost2010PropOp51
 70
     0
102
RTVSPost2010Prop52
140
1.0
102
RTVSPost2010PropOp52
 70
     0
102
RTVSPost2010Prop53
 90
        2
102
RTVSPost2010PropOp53
 70
     1
102
RTVSPost2010Prop54
  1
strokes_ogs.tif
102
RTVSPost2010PropOp54
 70
     1
102
RTVSPost2010Prop55
280
     0
102
RTVSPost2010PropOp55
 70
     1
102
RTVSPost2010Prop56
140
1.0
102
RTVSPost2010PropOp56
 70
     1
102
RTVSPost2010Prop57
140
1.0
102
RTVSPost2010PropOp57
 70
     1
102
RTVSPropertyOp0
 70
     1
102
RTVSPropertyOp1
 70
     1
102
RTVSPropertyOp2
 70
     1
102
RTVSPropertyOp3
 70
     1
102
RTVSPropertyOp4
 70
     1
102
RTVSPropertyOp5
 70
     1
102
RTVSPropertyOp6
 70
     1
102
RTVSPropertyOp7
 70
     1
102
RTVSPropertyOp8
 70
     1
102
RTVSPropertyOp9
 70
     1
102
RTVSPropertyOp10
 70
     1
102
RTVSPropertyOp11
 70
     1
102
RTVSPropertyOp12
 70
     1
102
RTVSPropertyOp13
 70
     1
102
RTVSPropertyOp14
 70
     1
102
RTVSPropertyOp15
 70
     1
102
RTVSPropertyOp16
 70
     1
102
RTVSPropertyOp17
 70
     1
102
RTVSPropertyOp18
 70
     1
102
RTVSPropertyOp19
 70
     1
102
RTVSPropertyOp20
 70
     1
102
RTVSPropertyOp21
 70
     1
102
RTVSPropertyOp22
 70
     1
102
RTVSPropertyOp23
 70
     1
102
RTVSPropertyOp24
 70
     1
102
RTVSPropertyOp25
 70
     1
102
RTVSPropertyOp26
 70
     1
102
RTVSPropertyOp27
 70
     1
102
RTVSPropertyOp28
 70
     1
102
RTVSPropertyOp29
 70
     1
102
RTVSPropertyOp30
 70
     1
102
RTVSPropertyOp31
 70
     1
102
RTVSPropertyOp32
 70
     1
102
RTVSPropertyOp33
 70
     1
102
RTVSPropertyOp34
 70
     1
102
RTVSPropertyOp35
 70
     1
102
RTVSPropertyOp36
 70
     1
102
RTVSPropertyOp37
 70
     1
102
RTVSPropertyOp38
 70
     1
102
RTVSPropertyOp39
 70
     1
102
RTVSPropertyOp40
 70
     1
102
RTVSPropertyOp41
 70
     1
102
RTVSPropertyOp42
 70
     1
102
RTVSPropertyOp43
 70
     1
102
RTVSPropertyOp44
 70
     1
102
RTVSPropertyOp45
 70
     1
102
RTVSPropertyOp46
 70
     1
102
RTVSPropertyOp47
 70
     1
102
RTVSPropertyOp48
 70
     1
102
RTVSPropertyOp49
 70
     1
102
RTVSPropertyOp50
 70
     1
102
RTVSPropertyOp51
 70
     0
102
RTVSPropertyOp52
 70
     0
102
RTVSPropertyOp53
 70
     1
102
RTVSPropertyOp54
 70
     1
102
RTVSPropertyOp55
 70
     1
102
RTVSPropertyOp56
 70
     1
102
RTVSPropertyOp57
 70
     1
102
RTVSPropertyOp58
 70
     1
102
RTVSPropertyOp59
 70
     1
102
RTVSPropertyOp60
 70
     1
102
RTVSPropertyOp61
 70
     1
102
RTVSPropertyOp62
 70
     1
  0
XRECORD
  5
471
102
{ACAD_REACTORS
330
470
102
}
330
470
100
AcDbXrecord
280
     1
102
RTVSPost2010Prop28
280
     0
102
RTVSPost2010PropOp28
 70
     1
102
RTVSPost2010Prop29
280
     1
102
RTVSPost2010PropOp29
 70
     1
102
RTVSPost2010Prop30
280
     1
102
RTVSPost2010PropOp30
 70
     1
102
RTVSPost2010Prop31
280
     0
102
RTVSPost2010PropOp31
 70
     1
102
RTVSPost2010Prop32
280
     0
102
RTVSPost2010PropOp32
 70
     1
102
RTVSPost2010Prop33
280
     0
102
RTVSPost2010PropOp33
 70
     1
102
RTVSPost2010Prop34
280
     0
102
RTVSPost2010PropOp34
 70
     1
102
RTVSPost2010Prop35
280
     0
102
RTVSPost2010PropOp35
 70
     1
102
RTVSPost2010Prop36
280
     0
102
RTVSPost2010PropOp36
 70
     1
102
RTVSPost2010Prop37
 90
       50
102
RTVSPost2010PropOp37
 70
     1
102
RTVSPost2010Prop38
140
0.0
102
RTVSPost2010PropOp38
 70
     1
102
RTVSPost2010Prop39
140
1.0
102
RTVSPost2010PropOp39
 70
     1
102
RTVSPost2010Prop40
 90
        0
102
RTVSPost2010PropOp40
 70
     1
102
RTVSPost2010Prop41ColorIndex
 90
       18
102
RTVSPost2010Prop41ColorRGB
 90
        0
102
RTVSPost2010PropOp41
 70
     1
102
RTVSPost2010Prop42
 90
       50
102
RTVSPost2010PropOp42
 70
     1
102
RTVSPost2010Prop43
 90
        3
102
RTVSPost2010PropOp43
 70
     1
102
RTVSPost2010Prop44ColorIndex
 90
        5
102
RTVSPost2010Prop44ColorRGB
 90
      255
102
RTVSPost2010PropOp44
 70
     1
102
RTVSPost2010Prop45
280
     0
102
RTVSPost2010PropOp45
 70
     1
102
RTVSPost2010Prop46
 90
       50
102
RTVSPost2010PropOp46
 70
     1
102
RTVSPost2010Prop47
 90
       50
102
RTVSPost2010PropOp47
 70
     1
102
RTVSPost2010Prop48
 90
       50
102
RTVSPost2010PropOp48
 70
     1
102
RTVSPost2010Prop49
280
     0
102
RTVSPost2010PropOp49
 70
     1
102
RTVSPost2010Prop50
 90
       50
102
RTVSPost2010PropOp50
 70
     1
102
RTVSPost2010Prop51ColorIndex
 90
      256
102
RTVSPost2010Prop51ColorRGB
 90
-16777216
102
RTVSPost2010PropOp51
 70
     0
102
RTVSPost2010Prop52
140
1.0
102
RTVSPost2010PropOp52
 70
     0
102
RTVSPost2010Prop53
 90
        2
102
RTVSPost2010PropOp53
 70
     1
102
RTVSPost2010Prop54
  1
strokes_ogs.tif
102
RTVSPost2010PropOp54
 70
     1
102
RTVSPost2010Prop55
280
     0
102
RTVSPost2010PropOp55
 70
     1
102
RTVSPost2010Prop56
140
1.0
102
RTVSPost2010PropOp56
 70
     1
102
RTVSPost2010Prop57
140
1.0
102
RTVSPost2010PropOp57
 70
     1
102
RTVSPropertyOp0
 70
     1
102
RTVSPropertyOp1
 70
     1
102
RTVSPropertyOp2
 70
     1
102
RTVSPropertyOp3
 70
     1
102
RTVSPropertyOp4
 70
     1
102
RTVSPropertyOp5
 70
     1
102
RTVSPropertyOp6
 70
     1
102
RTVSPropertyOp7
 70
     1
102
RTVSPropertyOp8
 70
     1
102
RTVSPropertyOp9
 70
     1
102
RTVSPropertyOp10
 70
     1
102
RTVSPropertyOp11
 70
     1
102
RTVSPropertyOp12
 70
     1
102
RTVSPropertyOp13
 70
     1
102
RTVSPropertyOp14
 70
     1
102
RTVSPropertyOp15
 70
     1
102
RTVSPropertyOp16
 70
     1
102
RTVSPropertyOp17
 70
     1
102
RTVSPropertyOp18
 70
     1
102
RTVSPropertyOp19
 70
     1
102
RTVSPropertyOp20
 70
     1
102
RTVSPropertyOp21
 70
     1
102
RTVSPropertyOp22
 70
     1
102
RTVSPropertyOp23
 70
     1
102
RTVSPropertyOp24
 70
     1
102
RTVSPropertyOp25
 70
     1
102
RTVSPropertyOp26
 70
     1
102
RTVSPropertyOp27
 70
     1
102
RTVSPropertyOp28
 70
     1
102
RTVSPropertyOp29
 70
     1
102
RTVSPropertyOp30
 70
     1
102
RTVSPropertyOp31
 70
     1
102
RTVSPropertyOp32
 70
     1
102
RTVSPropertyOp33
 70
     1
102
RTVSPropertyOp34
 70
     1
102
RTVSPropertyOp35
 70
     1
102
RTVSPropertyOp36
 70
     1
102
RTVSPropertyOp37
 70
     1
102
RTVSPropertyOp38
 70
     1
102
RTVSPropertyOp39
 70
     1
102
RTVSPropertyOp40
 70
     1
102
RTVSPropertyOp41
 70
     1
102
RTVSPropertyOp42
 70
     1
102
RTVSPropertyOp43
 70
     1
102
RTVSPropertyOp44
 70
     1
102
RTVSPropertyOp45
 70
     1
102
RTVSPropertyOp46
 70
     1
102
RTVSPropertyOp47
 70
     1
102
RTVSPropertyOp48
 70
     1
102
RTVSPropertyOp49
 70
     1
102
RTVSPropertyOp50
 70
     1
102
RTVSPropertyOp51
 70
     0
102
RTVSPropertyOp52
 70
     0
102
RTVSPropertyOp53
 70
     1
102
RTVSPropertyOp54
 70
     1
102
RTVSPropertyOp55
 70
     1
102
RTVSPropertyOp56
 70
     1
102
RTVSPropertyOp57
 70
     1
102
RTVSPropertyOp58
 70
     1
102
RTVSPropertyOp59
 70
     1
102
RTVSPropertyOp60
 70
     1
102
RTVSPropertyOp61
 70
     1
102
RTVSPropertyOp62
 70
     1
  0
XRECORD
  5
48D
102
{ACAD_REACTORS
330
48C
102
}
330
48C
100
AcDbXrecord
280
     1
102
RTVSPost2010Prop28
280
     0
102
RTVSPost2010PropOp28
 70
     1
102
RTVSPost2010Prop29
280
     1
102
RTVSPost2010PropOp29
 70
     1
102
RTVSPost2010Prop30
280
     1
102
RTVSPost2010PropOp30
 70
     1
102
RTVSPost2010Prop31
280
     0
102
RTVSPost2010PropOp31
 70
     1
102
RTVSPost2010Prop32
280
     0
102
RTVSPost2010PropOp32
 70
     1
102
RTVSPost2010Prop33
280
     0
102
RTVSPost2010PropOp33
 70
     1
102
RTVSPost2010Prop34
280
     0
102
RTVSPost2010PropOp34
 70
     1
102
RTVSPost2010Prop35
280
     0
102
RTVSPost2010PropOp35
 70
     1
102
RTVSPost2010Prop36
280
     0
102
RTVSPost2010PropOp36
 70
     1
102
RTVSPost2010Prop37
 90
       50
102
RTVSPost2010PropOp37
 70
     0
102
RTVSPost2010Prop38
140
0.0
102
RTVSPost2010PropOp38
 70
     0
102
RTVSPost2010Prop39
140
1.0
102
RTVSPost2010PropOp39
 70
     0
102
RTVSPost2010Prop40
 90
        0
102
RTVSPost2010PropOp40
 70
     0
102
RTVSPost2010Prop41ColorIndex
 90
       18
102
RTVSPost2010Prop41ColorRGB
 90
        0
102
RTVSPost2010PropOp41
 70
     0
102
RTVSPost2010Prop42
 90
       50
102
RTVSPost2010PropOp42
 70
     0
102
RTVSPost2010Prop43
 90
        3
102
RTVSPost2010PropOp43
 70
     0
102
RTVSPost2010Prop44ColorIndex
 90
        5
102
RTVSPost2010Prop44ColorRGB
 90
      255
102
RTVSPost2010PropOp44
 70
     0
102
RTVSPost2010Prop45
280
     0
102
RTVSPost2010PropOp45
 70
     1
102
RTVSPost2010Prop46
 90
       50
102
RTVSPost2010PropOp46
 70
     0
102
RTVSPost2010Prop47
 90
       50
102
RTVSPost2010PropOp47
 70
     0
102
RTVSPost2010Prop48
 90
       50
102
RTVSPost2010PropOp48
 70
     0
102
RTVSPost2010Prop49
280
     0
102
RTVSPost2010PropOp49
 70
     1
102
RTVSPost2010Prop50
 90
       50
102
RTVSPost2010PropOp50
 70
     0
102
RTVSPost2010Prop51ColorIndex
 90
      256
102
RTVSPost2010Prop51ColorRGB
 90
-16777216
102
RTVSPost2010PropOp51
 70
     0
102
RTVSPost2010Prop52
140
1.0
102
RTVSPost2010PropOp52
 70
     0
102
RTVSPost2010Prop53
 90
        2
102
RTVSPost2010PropOp53
 70
     0
102
RTVSPost2010Prop54
  1
strokes_ogs.tif
102
RTVSPost2010PropOp54
 70
     0
102
RTVSPost2010Prop55
280
     0
102
RTVSPost2010PropOp55
 70
     1
102
RTVSPost2010Prop56
140
1.0
102
RTVSPost2010PropOp56
 70
     0
102
RTVSPost2010Prop57
140
1.0
102
RTVSPost2010PropOp57
 70
     0
102
RTVSPropertyOp0
 70
     0
102
RTVSPropertyOp1
 70
     0
102
RTVSPropertyOp2
 70
     0
102
RTVSPropertyOp3
 70
     0
102
RTVSPropertyOp4
 70
     0
102
RTVSPropertyOp5
 70
     0
102
RTVSPropertyOp6
 70
     0
102
RTVSPropertyOp7
 70
     0
102
RTVSPropertyOp8
 70
     0
102
RTVSPropertyOp9
 70
     0
102
RTVSPropertyOp10
 70
     0
102
RTVSPropertyOp11
 70
     0
102
RTVSPropertyOp12
 70
     0
102
RTVSPropertyOp13
 70
     0
102
RTVSPropertyOp14
 70
     2
102
RTVSPropertyOp15
 70
     0
102
RTVSPropertyOp16
 70
     0
102
RTVSPropertyOp17
 70
     0
102
RTVSPropertyOp18
 70
     0
102
RTVSPropertyOp19
 70
     0
102
RTVSPropertyOp20
 70
     0
102
RTVSPropertyOp21
 70
     0
102
RTVSPropertyOp22
 70
     0
102
RTVSPropertyOp23
 70
     0
102
RTVSPropertyOp24
 70
     0
102
RTVSPropertyOp25
 70
     0
102
RTVSPropertyOp26
 70
     0
102
RTVSPropertyOp27
 70
     0
102
RTVSPropertyOp28
 70
     1
102
RTVSPropertyOp29
 70
     1
102
RTVSPropertyOp30
 70
     1
102
RTVSPropertyOp31
 70
     1
102
RTVSPropertyOp32
 70
     1
102
RTVSPropertyOp33
 70
     1
102
RTVSPropertyOp34
 70
     1
102
RTVSPropertyOp35
 70
     1
102
RTVSPropertyOp36
 70
     1
102
RTVSPropertyOp37
 70
     0
102
RTVSPropertyOp38
 70
     0
102
RTVSPropertyOp39
 70
     0
102
RTVSPropertyOp40
 70
     0
102
RTVSPropertyOp41
 70
     0
102
RTVSPropertyOp42
 70
     0
102
RTVSPropertyOp43
 70
     0
102
RTVSPropertyOp44
 70
     0
102
RTVSPropertyOp45
 70
     1
102
RTVSPropertyOp46
 70
     0
102
RTVSPropertyOp47
 70
     0
102
RTVSPropertyOp48
 70
     0
102
RTVSPropertyOp49
 70
     1
102
RTVSPropertyOp50
 70
     0
102
RTVSPropertyOp51
 70
     0
102
RTVSPropertyOp52
 70
     0
102
RTVSPropertyOp53
 70
     0
102
RTVSPropertyOp54
 70
     0
102
RTVSPropertyOp55
 70
     1
102
RTVSPropertyOp56
 70
     0
102
RTVSPropertyOp57
 70
     0
102
RTVSPropertyOp58
 70
     0
102
RTVSPropertyOp59
 70
     0
102
RTVSPropertyOp60
 70
     0
102
RTVSPropertyOp61
 70
     0
102
RTVSPropertyOp62
 70
     0
  0
XRECORD
  5
47D
102
{ACAD_REACTORS
330
47C
102
}
330
47C
100
AcDbXrecord
280
     1
102
RTVSPost2010Prop28
280
     0
102
RTVSPost2010PropOp28
 70
     1
102
RTVSPost2010Prop29
280
     1
102
RTVSPost2010PropOp29
 70
     1
102
RTVSPost2010Prop30
280
     1
102
RTVSPost2010PropOp30
 70
     1
102
RTVSPost2010Prop31
280
     0
102
RTVSPost2010PropOp31
 70
     1
102
RTVSPost2010Prop32
280
     0
102
RTVSPost2010PropOp32
 70
     1
102
RTVSPost2010Prop33
280
     0
102
RTVSPost2010PropOp33
 70
     1
102
RTVSPost2010Prop34
280
     0
102
RTVSPost2010PropOp34
 70
     1
102
RTVSPost2010Prop35
280
     0
102
RTVSPost2010PropOp35
 70
     1
102
RTVSPost2010Prop36
280
     0
102
RTVSPost2010PropOp36
 70
     1
102
RTVSPost2010Prop37
 90
       50
102
RTVSPost2010PropOp37
 70
     1
102
RTVSPost2010Prop38
140
0.0
102
RTVSPost2010PropOp38
 70
     1
102
RTVSPost2010Prop39
140
1.0
102
RTVSPost2010PropOp39
 70
     1
102
RTVSPost2010Prop40
 90
        0
102
RTVSPost2010PropOp40
 70
     1
102
RTVSPost2010Prop41ColorIndex
 90
       18
102
RTVSPost2010Prop41ColorRGB
 90
        0
102
RTVSPost2010PropOp41
 70
     1
102
RTVSPost2010Prop42
 90
       50
102
RTVSPost2010PropOp42
 70
     1
102
RTVSPost2010Prop43
 90
        3
102
RTVSPost2010PropOp43
 70
     1
102
RTVSPost2010Prop44ColorIndex
 90
        5
102
RTVSPost2010Prop44ColorRGB
 90
      255
102
RTVSPost2010PropOp44
 70
     1
102
RTVSPost2010Prop45
280
     0
102
RTVSPost2010PropOp45
 70
     1
102
RTVSPost2010Prop46
 90
       50
102
RTVSPost2010PropOp46
 70
     1
102
RTVSPost2010Prop47
 90
       50
102
RTVSPost2010PropOp47
 70
     1
102
RTVSPost2010Prop48
 90
       50
102
RTVSPost2010PropOp48
 70
     1
102
RTVSPost2010Prop49
280
     0
102
RTVSPost2010PropOp49
 70
     1
102
RTVSPost2010Prop50
 90
       50
102
RTVSPost2010PropOp50
 70
     1
102
RTVSPost2010Prop51ColorIndex
 90
      256
102
RTVSPost2010Prop51ColorRGB
 90
-16777216
102
RTVSPost2010PropOp51
 70
     0
102
RTVSPost2010Prop52
140
1.0
102
RTVSPost2010PropOp52
 70
     0
102
RTVSPost2010Prop53
 90
        2
102
RTVSPost2010PropOp53
 70
     1
102
RTVSPost2010Prop54
  1
strokes_ogs.tif
102
RTVSPost2010PropOp54
 70
     1
102
RTVSPost2010Prop55
280
     0
102
RTVSPost2010PropOp55
 70
     1
102
RTVSPost2010Prop56
140
1.0
102
RTVSPost2010PropOp56
 70
     1
102
RTVSPost2010Prop57
140
1.0
102
RTVSPost2010PropOp57
 70
     1
102
RTVSPropertyOp0
 70
     1
102
RTVSPropertyOp1
 70
     1
102
RTVSPropertyOp2
 70
     1
102
RTVSPropertyOp3
 70
     1
102
RTVSPropertyOp4
 70
     1
102
RTVSPropertyOp5
 70
     1
102
RTVSPropertyOp6
 70
     1
102
RTVSPropertyOp7
 70
     1
102
RTVSPropertyOp8
 70
     1
102
RTVSPropertyOp9
 70
     1
102
RTVSPropertyOp10
 70
     1
102
RTVSPropertyOp11
 70
     1
102
RTVSPropertyOp12
 70
     1
102
RTVSPropertyOp13
 70
     1
102
RTVSPropertyOp14
 70
     1
102
RTVSPropertyOp15
 70
     1
102
RTVSPropertyOp16
 70
     1
102
RTVSPropertyOp17
 70
     1
102
RTVSPropertyOp18
 70
     1
102
RTVSPropertyOp19
 70
     1
102
RTVSPropertyOp20
 70
     1
102
RTVSPropertyOp21
 70
     1
102
RTVSPropertyOp22
 70
     1
102
RTVSPropertyOp23
 70
     1
102
RTVSPropertyOp24
 70
     1
102
RTVSPropertyOp25
 70
     1
102
RTVSPropertyOp26
 70
     1
102
RTVSPropertyOp27
 70
     1
102
RTVSPropertyOp28
 70
     1
102
RTVSPropertyOp29
 70
     1
102
RTVSPropertyOp30
 70
     1
102
RTVSPropertyOp31
 70
     1
102
RTVSPropertyOp32
 70
     1
102
RTVSPropertyOp33
 70
     1
102
RTVSPropertyOp34
 70
     1
102
RTVSPropertyOp35
 70
     1
102
RTVSPropertyOp36
 70
     1
102
RTVSPropertyOp37
 70
     1
102
RTVSPropertyOp38
 70
     1
102
RTVSPropertyOp39
 70
     1
102
RTVSPropertyOp40
 70
     1
102
RTVSPropertyOp41
 70
     1
102
RTVSPropertyOp42
 70
     1
102
RTVSPropertyOp43
 70
     1
102
RTVSPropertyOp44
 70
     1
102
RTVSPropertyOp45
 70
     1
102
RTVSPropertyOp46
 70
     1
102
RTVSPropertyOp47
 70
     1
102
RTVSPropertyOp48
 70
     1
102
RTVSPropertyOp49
 70
     1
102
RTVSPropertyOp50
 70
     1
102
RTVSPropertyOp51
 70
     0
102
RTVSPropertyOp52
 70
     0
102
RTVSPropertyOp53
 70
     1
102
RTVSPropertyOp54
 70
     1
102
RTVSPropertyOp55
 70
     1
102
RTVSPropertyOp56
 70
     1
102
RTVSPropertyOp57
 70
     1
102
RTVSPropertyOp58
 70
     1
102
RTVSPropertyOp59
 70
     1
102
RTVSPropertyOp60
 70
     1
102
RTVSPropertyOp61
 70
     1
102
RTVSPropertyOp62
 70
     1
  0
XRECORD
  5
48F
102
{ACAD_REACTORS
330
48E
102
}
330
48E
100
AcDbXrecord
280
     1
102
RTVSPost2010Prop28
280
     0
102
RTVSPost2010PropOp28
 70
     1
102
RTVSPost2010Prop29
280
     1
102
RTVSPost2010PropOp29
 70
     1
102
RTVSPost2010Prop30
280
     1
102
RTVSPost2010PropOp30
 70
     1
102
RTVSPost2010Prop31
280
     0
102
RTVSPost2010PropOp31
 70
     1
102
RTVSPost2010Prop32
280
     0
102
RTVSPost2010PropOp32
 70
     1
102
RTVSPost2010Prop33
280
     0
102
RTVSPost2010PropOp33
 70
     1
102
RTVSPost2010Prop34
280
     0
102
RTVSPost2010PropOp34
 70
     1
102
RTVSPost2010Prop35
280
     0
102
RTVSPost2010PropOp35
 70
     1
102
RTVSPost2010Prop36
280
     0
102
RTVSPost2010PropOp36
 70
     1
102
RTVSPost2010Prop37
 90
       50
102
RTVSPost2010PropOp37
 70
     0
102
RTVSPost2010Prop38
140
0.0
102
RTVSPost2010PropOp38
 70
     0
102
RTVSPost2010Prop39
140
1.0
102
RTVSPost2010PropOp39
 70
     0
102
RTVSPost2010Prop40
 90
        0
102
RTVSPost2010PropOp40
 70
     0
102
RTVSPost2010Prop41ColorIndex
 90
       18
102
RTVSPost2010Prop41ColorRGB
 90
        0
102
RTVSPost2010PropOp41
 70
     0
102
RTVSPost2010Prop42
 90
       50
102
RTVSPost2010PropOp42
 70
     0
102
RTVSPost2010Prop43
 90
        3
102
RTVSPost2010PropOp43
 70
     0
102
RTVSPost2010Prop44ColorIndex
 90
        5
102
RTVSPost2010Prop44ColorRGB
 90
      255
102
RTVSPost2010PropOp44
 70
     0
102
RTVSPost2010Prop45
280
     0
102
RTVSPost2010PropOp45
 70
     1
102
RTVSPost2010Prop46
 90
       50
102
RTVSPost2010PropOp46
 70
     0
102
RTVSPost2010Prop47
 90
       50
102
RTVSPost2010PropOp47
 70
     0
102
RTVSPost2010Prop48
 90
       50
102
RTVSPost2010PropOp48
 70
     0
102
RTVSPost2010Prop49
280
     0
102
RTVSPost2010PropOp49
 70
     1
102
RTVSPost2010Prop50
 90
       50
102
RTVSPost2010PropOp50
 70
     0
102
RTVSPost2010Prop51ColorIndex
 90
      256
102
RTVSPost2010Prop51ColorRGB
 90
-16777216
102
RTVSPost2010PropOp51
 70
     0
102
RTVSPost2010Prop52
140
1.0
102
RTVSPost2010PropOp52
 70
     0
102
RTVSPost2010Prop53
 90
        2
102
RTVSPost2010PropOp53
 70
     0
102
RTVSPost2010Prop54
  1
strokes_ogs.tif
102
RTVSPost2010PropOp54
 70
     0
102
RTVSPost2010Prop55
280
     0
102
RTVSPost2010PropOp55
 70
     1
102
RTVSPost2010Prop56
140
1.0
102
RTVSPost2010PropOp56
 70
     0
102
RTVSPost2010Prop57
140
1.0
102
RTVSPost2010PropOp57
 70
     0
102
RTVSPropertyOp0
 70
     0
102
RTVSPropertyOp1
 70
     0
102
RTVSPropertyOp2
 70
     0
102
RTVSPropertyOp3
 70
     0
102
RTVSPropertyOp4
 70
     0
102
RTVSPropertyOp5
 70
     0
102
RTVSPropertyOp6
 70
     0
102
RTVSPropertyOp7
 70
     0
102
RTVSPropertyOp8
 70
     0
102
RTVSPropertyOp9
 70
     0
102
RTVSPropertyOp10
 70
     0
102
RTVSPropertyOp11
 70
     0
102
RTVSPropertyOp12
 70
     0
102
RTVSPropertyOp13
 70
     0
102
RTVSPropertyOp14
 70
     2
102
RTVSPropertyOp15
 70
     0
102
RTVSPropertyOp16
 70
     0
102
RTVSPropertyOp17
 70
     0
102
RTVSPropertyOp18
 70
     0
102
RTVSPropertyOp19
 70
     0
102
RTVSPropertyOp20
 70
     0
102
RTVSPropertyOp21
 70
     0
102
RTVSPropertyOp22
 70
     0
102
RTVSPropertyOp23
 70
     0
102
RTVSPropertyOp24
 70
     0
102
RTVSPropertyOp25
 70
     0
102
RTVSPropertyOp26
 70
     0
102
RTVSPropertyOp27
 70
     0
102
RTVSPropertyOp28
 70
     1
102
RTVSPropertyOp29
 70
     1
102
RTVSPropertyOp30
 70
     1
102
RTVSPropertyOp31
 70
     1
102
RTVSPropertyOp32
 70
     1
102
RTVSPropertyOp33
 70
     1
102
RTVSPropertyOp34
 70
     1
102
RTVSPropertyOp35
 70
     1
102
RTVSPropertyOp36
 70
     1
102
RTVSPropertyOp37
 70
     0
102
RTVSPropertyOp38
 70
     0
102
RTVSPropertyOp39
 70
     0
102
RTVSPropertyOp40
 70
     0
102
RTVSPropertyOp41
 70
     0
102
RTVSPropertyOp42
 70
     0
102
RTVSPropertyOp43
 70
     0
102
RTVSPropertyOp44
 70
     0
102
RTVSPropertyOp45
 70
     1
102
RTVSPropertyOp46
 70
     0
102
RTVSPropertyOp47
 70
     0
102
RTVSPropertyOp48
 70
     0
102
RTVSPropertyOp49
 70
     1
102
RTVSPropertyOp50
 70
     0
102
RTVSPropertyOp51
 70
     0
102
RTVSPropertyOp52
 70
     0
102
RTVSPropertyOp53
 70
     0
102
RTVSPropertyOp54
 70
     0
102
RTVSPropertyOp55
 70
     1
102
RTVSPropertyOp56
 70
     0
102
RTVSPropertyOp57
 70
     0
102
RTVSPropertyOp58
 70
     0
102
RTVSPropertyOp59
 70
     0
102
RTVSPropertyOp60
 70
     0
102
RTVSPropertyOp61
 70
     0
102
RTVSPropertyOp62
 70
     0
  0
XRECORD
  5
475
102
{ACAD_REACTORS
330
474
102
}
330
474
100
AcDbXrecord
280
     1
102
RTVSPost2010Prop28
280
     0
102
RTVSPost2010PropOp28
 70
     1
102
RTVSPost2010Prop29
280
     1
102
RTVSPost2010PropOp29
 70
     1
102
RTVSPost2010Prop30
280
     1
102
RTVSPost2010PropOp30
 70
     1
102
RTVSPost2010Prop31
280
     0
102
RTVSPost2010PropOp31
 70
     1
102
RTVSPost2010Prop32
280
     0
102
RTVSPost2010PropOp32
 70
     1
102
RTVSPost2010Prop33
280
     0
102
RTVSPost2010PropOp33
 70
     1
102
RTVSPost2010Prop34
280
     0
102
RTVSPost2010PropOp34
 70
     1
102
RTVSPost2010Prop35
280
     0
102
RTVSPost2010PropOp35
 70
     1
102
RTVSPost2010Prop36
280
     0
102
RTVSPost2010PropOp36
 70
     1
102
RTVSPost2010Prop37
 90
       50
102
RTVSPost2010PropOp37
 70
     1
102
RTVSPost2010Prop38
140
0.0
102
RTVSPost2010PropOp38
 70
     1
102
RTVSPost2010Prop39
140
1.0
102
RTVSPost2010PropOp39
 70
     1
102
RTVSPost2010Prop40
 90
        0
102
RTVSPost2010PropOp40
 70
     1
102
RTVSPost2010Prop41ColorIndex
 90
       18
102
RTVSPost2010Prop41ColorRGB
 90
        0
102
RTVSPost2010PropOp41
 70
     1
102
RTVSPost2010Prop42
 90
       50
102
RTVSPost2010PropOp42
 70
     1
102
RTVSPost2010Prop43
 90
        3
102
RTVSPost2010PropOp43
 70
     1
102
RTVSPost2010Prop44ColorIndex
 90
        5
102
RTVSPost2010Prop44ColorRGB
 90
      255
102
RTVSPost2010PropOp44
 70
     1
102
RTVSPost2010Prop45
280
     0
102
RTVSPost2010PropOp45
 70
     1
102
RTVSPost2010Prop46
 90
       50
102
RTVSPost2010PropOp46
 70
     1
102
RTVSPost2010Prop47
 90
       50
102
RTVSPost2010PropOp47
 70
     1
102
RTVSPost2010Prop48
 90
       50
102
RTVSPost2010PropOp48
 70
     1
102
RTVSPost2010Prop49
280
     0
102
RTVSPost2010PropOp49
 70
     1
102
RTVSPost2010Prop50
 90
       50
102
RTVSPost2010PropOp50
 70
     1
102
RTVSPost2010Prop51ColorIndex
 90
      256
102
RTVSPost2010Prop51ColorRGB
 90
-16777216
102
RTVSPost2010PropOp51
 70
     0
102
RTVSPost2010Prop52
140
1.0
102
RTVSPost2010PropOp52
 70
     0
102
RTVSPost2010Prop53
 90
        2
102
RTVSPost2010PropOp53
 70
     1
102
RTVSPost2010Prop54
  1
strokes_ogs.tif
102
RTVSPost2010PropOp54
 70
     1
102
RTVSPost2010Prop55
280
     0
102
RTVSPost2010PropOp55
 70
     1
102
RTVSPost2010Prop56
140
1.0
102
RTVSPost2010PropOp56
 70
     1
102
RTVSPost2010Prop57
140
1.0
102
RTVSPost2010PropOp57
 70
     1
102
RTVSPropertyOp0
 70
     1
102
RTVSPropertyOp1
 70
     1
102
RTVSPropertyOp2
 70
     1
102
RTVSPropertyOp3
 70
     1
102
RTVSPropertyOp4
 70
     1
102
RTVSPropertyOp5
 70
     1
102
RTVSPropertyOp6
 70
     1
102
RTVSPropertyOp7
 70
     1
102
RTVSPropertyOp8
 70
     1
102
RTVSPropertyOp9
 70
     1
102
RTVSPropertyOp10
 70
     1
102
RTVSPropertyOp11
 70
     1
102
RTVSPropertyOp12
 70
     1
102
RTVSPropertyOp13
 70
     1
102
RTVSPropertyOp14
 70
     1
102
RTVSPropertyOp15
 70
     1
102
RTVSPropertyOp16
 70
     1
102
RTVSPropertyOp17
 70
     1
102
RTVSPropertyOp18
 70
     1
102
RTVSPropertyOp19
 70
     1
102
RTVSPropertyOp20
 70
     1
102
RTVSPropertyOp21
 70
     1
102
RTVSPropertyOp22
 70
     1
102
RTVSPropertyOp23
 70
     1
102
RTVSPropertyOp24
 70
     1
102
RTVSPropertyOp25
 70
     1
102
RTVSPropertyOp26
 70
     1
102
RTVSPropertyOp27
 70
     1
102
RTVSPropertyOp28
 70
     1
102
RTVSPropertyOp29
 70
     1
102
RTVSPropertyOp30
 70
     1
102
RTVSPropertyOp31
 70
     1
102
RTVSPropertyOp32
 70
     1
102
RTVSPropertyOp33
 70
     1
102
RTVSPropertyOp34
 70
     1
102
RTVSPropertyOp35
 70
     1
102
RTVSPropertyOp36
 70
     1
102
RTVSPropertyOp37
 70
     1
102
RTVSPropertyOp38
 70
     1
102
RTVSPropertyOp39
 70
     1
102
RTVSPropertyOp40
 70
     1
102
RTVSPropertyOp41
 70
     1
102
RTVSPropertyOp42
 70
     1
102
RTVSPropertyOp43
 70
     1
102
RTVSPropertyOp44
 70
     1
102
RTVSPropertyOp45
 70
     1
102
RTVSPropertyOp46
 70
     1
102
RTVSPropertyOp47
 70
     1
102
RTVSPropertyOp48
 70
     1
102
RTVSPropertyOp49
 70
     1
102
RTVSPropertyOp50
 70
     1
102
RTVSPropertyOp51
 70
     0
102
RTVSPropertyOp52
 70
     0
102
RTVSPropertyOp53
 70
     1
102
RTVSPropertyOp54
 70
     1
102
RTVSPropertyOp55
 70
     1
102
RTVSPropertyOp56
 70
     1
102
RTVSPropertyOp57
 70
     1
102
RTVSPropertyOp58
 70
     1
102
RTVSPropertyOp59
 70
     1
102
RTVSPropertyOp60
 70
     1
102
RTVSPropertyOp61
 70
     1
102
RTVSPropertyOp62
 70
     1
  0
XRECORD
  5
48B
102
{ACAD_REACTORS
330
48A
102
}
330
48A
100
AcDbXrecord
280
     1
102
RTVSPost2010Prop28
280
     0
102
RTVSPost2010PropOp28
 70
     1
102
RTVSPost2010Prop29
280
     1
102
RTVSPost2010PropOp29
 70
     1
102
RTVSPost2010Prop30
280
     1
102
RTVSPost2010PropOp30
 70
     1
102
RTVSPost2010Prop31
280
     0
102
RTVSPost2010PropOp31
 70
     1
102
RTVSPost2010Prop32
280
     0
102
RTVSPost2010PropOp32
 70
     1
102
RTVSPost2010Prop33
280
     0
102
RTVSPost2010PropOp33
 70
     1
102
RTVSPost2010Prop34
280
     0
102
RTVSPost2010PropOp34
 70
     1
102
RTVSPost2010Prop35
280
     0
102
RTVSPost2010PropOp35
 70
     1
102
RTVSPost2010Prop36
280
     0
102
RTVSPost2010PropOp36
 70
     1
102
RTVSPost2010Prop37
 90
       50
102
RTVSPost2010PropOp37
 70
     1
102
RTVSPost2010Prop38
140
0.0
102
RTVSPost2010PropOp38
 70
     1
102
RTVSPost2010Prop39
140
1.0
102
RTVSPost2010PropOp39
 70
     1
102
RTVSPost2010Prop40
 90
        0
102
RTVSPost2010PropOp40
 70
     1
102
RTVSPost2010Prop41ColorIndex
 90
       18
102
RTVSPost2010Prop41ColorRGB
 90
        0
102
RTVSPost2010PropOp41
 70
     1
102
RTVSPost2010Prop42
 90
       50
102
RTVSPost2010PropOp42
 70
     1
102
RTVSPost2010Prop43
 90
        3
102
RTVSPost2010PropOp43
 70
     1
102
RTVSPost2010Prop44ColorIndex
 90
        5
102
RTVSPost2010Prop44ColorRGB
 90
      255
102
RTVSPost2010PropOp44
 70
     1
102
RTVSPost2010Prop45
280
     0
102
RTVSPost2010PropOp45
 70
     1
102
RTVSPost2010Prop46
 90
       50
102
RTVSPost2010PropOp46
 70
     1
102
RTVSPost2010Prop47
 90
       50
102
RTVSPost2010PropOp47
 70
     1
102
RTVSPost2010Prop48
 90
       50
102
RTVSPost2010PropOp48
 70
     1
102
RTVSPost2010Prop49
280
     0
102
RTVSPost2010PropOp49
 70
     1
102
RTVSPost2010Prop50
 90
       50
102
RTVSPost2010PropOp50
 70
     1
102
RTVSPost2010Prop51ColorIndex
 90
      256
102
RTVSPost2010Prop51ColorRGB
 90
-16777216
102
RTVSPost2010PropOp51
 70
     0
102
RTVSPost2010Prop52
140
1.0
102
RTVSPost2010PropOp52
 70
     0
102
RTVSPost2010Prop53
 90
        2
102
RTVSPost2010PropOp53
 70
     1
102
RTVSPost2010Prop54
  1
strokes_ogs.tif
102
RTVSPost2010PropOp54
 70
     1
102
RTVSPost2010Prop55
280
     0
102
RTVSPost2010PropOp55
 70
     1
102
RTVSPost2010Prop56
140
1.0
102
RTVSPost2010PropOp56
 70
     1
102
RTVSPost2010Prop57
140
1.0
102
RTVSPost2010PropOp57
 70
     1
102
RTVSPropertyOp0
 70
     1
102
RTVSPropertyOp1
 70
     1
102
RTVSPropertyOp2
 70
     1
102
RTVSPropertyOp3
 70
     1
102
RTVSPropertyOp4
 70
     1
102
RTVSPropertyOp5
 70
     1
102
RTVSPropertyOp6
 70
     1
102
RTVSPropertyOp7
 70
     1
102
RTVSPropertyOp8
 70
     1
102
RTVSPropertyOp9
 70
     1
102
RTVSPropertyOp10
 70
     1
102
RTVSPropertyOp11
 70
     1
102
RTVSPropertyOp12
 70
     1
102
RTVSPropertyOp13
 70
     1
102
RTVSPropertyOp14
 70
     1
102
RTVSPropertyOp15
 70
     1
102
RTVSPropertyOp16
 70
     1
102
RTVSPropertyOp17
 70
     1
102
RTVSPropertyOp18
 70
     1
102
RTVSPropertyOp19
 70
     1
102
RTVSPropertyOp20
 70
     1
102
RTVSPropertyOp21
 70
     1
102
RTVSPropertyOp22
 70
     1
102
RTVSPropertyOp23
 70
     1
102
RTVSPropertyOp24
 70
     1
102
RTVSPropertyOp25
 70
     1
102
RTVSPropertyOp26
 70
     1
102
RTVSPropertyOp27
 70
     1
102
RTVSPropertyOp28
 70
     1
102
RTVSPropertyOp29
 70
     1
102
RTVSPropertyOp30
 70
     1
102
RTVSPropertyOp31
 70
     1
102
RTVSPropertyOp32
 70
     1
102
RTVSPropertyOp33
 70
     1
102
RTVSPropertyOp34
 70
     1
102
RTVSPropertyOp35
 70
     1
102
RTVSPropertyOp36
 70
     1
102
RTVSPropertyOp37
 70
     1
102
RTVSPropertyOp38
 70
     1
102
RTVSPropertyOp39
 70
     1
102
RTVSPropertyOp40
 70
     1
102
RTVSPropertyOp41
 70
     1
102
RTVSPropertyOp42
 70
     1
102
RTVSPropertyOp43
 70
     1
102
RTVSPropertyOp44
 70
     1
102
RTVSPropertyOp45
 70
     1
102
RTVSPropertyOp46
 70
     1
102
RTVSPropertyOp47
 70
     1
102
RTVSPropertyOp48
 70
     1
102
RTVSPropertyOp49
 70
     1
102
RTVSPropertyOp50
 70
     1
102
RTVSPropertyOp51
 70
     0
102
RTVSPropertyOp52
 70
     0
102
RTVSPropertyOp53
 70
     1
102
RTVSPropertyOp54
 70
     1
102
RTVSPropertyOp55
 70
     1
102
RTVSPropertyOp56
 70
     1
102
RTVSPropertyOp57
 70
     1
102
RTVSPropertyOp58
 70
     1
102
RTVSPropertyOp59
 70
     1
102
RTVSPropertyOp60
 70
     1
102
RTVSPropertyOp61
 70
     1
102
RTVSPropertyOp62
 70
     1
  0
XRECORD
  5
489
102
{ACAD_REACTORS
330
488
102
}
330
488
100
AcDbXrecord
280
     1
102
RTVSPost2010Prop28
280
     0
102
RTVSPost2010PropOp28
 70
     1
102
RTVSPost2010Prop29
280
     1
102
RTVSPost2010PropOp29
 70
     1
102
RTVSPost2010Prop30
280
     1
102
RTVSPost2010PropOp30
 70
     1
102
RTVSPost2010Prop31
280
     0
102
RTVSPost2010PropOp31
 70
     1
102
RTVSPost2010Prop32
280
     0
102
RTVSPost2010PropOp32
 70
     1
102
RTVSPost2010Prop33
280
     0
102
RTVSPost2010PropOp33
 70
     1
102
RTVSPost2010Prop34
280
     0
102
RTVSPost2010PropOp34
 70
     1
102
RTVSPost2010Prop35
280
     0
102
RTVSPost2010PropOp35
 70
     1
102
RTVSPost2010Prop36
280
     0
102
RTVSPost2010PropOp36
 70
     1
102
RTVSPost2010Prop37
 90
       50
102
RTVSPost2010PropOp37
 70
     1
102
RTVSPost2010Prop38
140
0.0
102
RTVSPost2010PropOp38
 70
     1
102
RTVSPost2010Prop39
140
1.0
102
RTVSPost2010PropOp39
 70
     1
102
RTVSPost2010Prop40
 90
        0
102
RTVSPost2010PropOp40
 70
     1
102
RTVSPost2010Prop41ColorIndex
 90
       18
102
RTVSPost2010Prop41ColorRGB
 90
        0
102
RTVSPost2010PropOp41
 70
     1
102
RTVSPost2010Prop42
 90
       50
102
RTVSPost2010PropOp42
 70
     1
102
RTVSPost2010Prop43
 90
        3
102
RTVSPost2010PropOp43
 70
     1
102
RTVSPost2010Prop44ColorIndex
 90
        5
102
RTVSPost2010Prop44ColorRGB
 90
      255
102
RTVSPost2010PropOp44
 70
     1
102
RTVSPost2010Prop45
280
     0
102
RTVSPost2010PropOp45
 70
     1
102
RTVSPost2010Prop46
 90
       50
102
RTVSPost2010PropOp46
 70
     1
102
RTVSPost2010Prop47
 90
       50
102
RTVSPost2010PropOp47
 70
     1
102
RTVSPost2010Prop48
 90
       50
102
RTVSPost2010PropOp48
 70
     1
102
RTVSPost2010Prop49
280
     0
102
RTVSPost2010PropOp49
 70
     1
102
RTVSPost2010Prop50
 90
       50
102
RTVSPost2010PropOp50
 70
     1
102
RTVSPost2010Prop51ColorIndex
 90
      256
102
RTVSPost2010Prop51ColorRGB
 90
-16777216
102
RTVSPost2010PropOp51
 70
     0
102
RTVSPost2010Prop52
140
1.0
102
RTVSPost2010PropOp52
 70
     0
102
RTVSPost2010Prop53
 90
        2
102
RTVSPost2010PropOp53
 70
     1
102
RTVSPost2010Prop54
  1
strokes_ogs.tif
102
RTVSPost2010PropOp54
 70
     1
102
RTVSPost2010Prop55
280
     0
102
RTVSPost2010PropOp55
 70
     1
102
RTVSPost2010Prop56
140
1.0
102
RTVSPost2010PropOp56
 70
     1
102
RTVSPost2010Prop57
140
1.0
102
RTVSPost2010PropOp57
 70
     1
102
RTVSPropertyOp0
 70
     1
102
RTVSPropertyOp1
 70
     1
102
RTVSPropertyOp2
 70
     1
102
RTVSPropertyOp3
 70
     1
102
RTVSPropertyOp4
 70
     1
102
RTVSPropertyOp5
 70
     1
102
RTVSPropertyOp6
 70
     1
102
RTVSPropertyOp7
 70
     1
102
RTVSPropertyOp8
 70
     1
102
RTVSPropertyOp9
 70
     1
102
RTVSPropertyOp10
 70
     1
102
RTVSPropertyOp11
 70
     1
102
RTVSPropertyOp12
 70
     1
102
RTVSPropertyOp13
 70
     1
102
RTVSPropertyOp14
 70
     1
102
RTVSPropertyOp15
 70
     1
102
RTVSPropertyOp16
 70
     1
102
RTVSPropertyOp17
 70
     1
102
RTVSPropertyOp18
 70
     1
102
RTVSPropertyOp19
 70
     1
102
RTVSPropertyOp20
 70
     1
102
RTVSPropertyOp21
 70
     1
102
RTVSPropertyOp22
 70
     1
102
RTVSPropertyOp23
 70
     1
102
RTVSPropertyOp24
 70
     1
102
RTVSPropertyOp25
 70
     1
102
RTVSPropertyOp26
 70
     1
102
RTVSPropertyOp27
 70
     1
102
RTVSPropertyOp28
 70
     1
102
RTVSPropertyOp29
 70
     1
102
RTVSPropertyOp30
 70
     1
102
RTVSPropertyOp31
 70
     1
102
RTVSPropertyOp32
 70
     1
102
RTVSPropertyOp33
 70
     1
102
RTVSPropertyOp34
 70
     1
102
RTVSPropertyOp35
 70
     1
102
RTVSPropertyOp36
 70
     1
102
RTVSPropertyOp37
 70
     1
102
RTVSPropertyOp38
 70
     1
102
RTVSPropertyOp39
 70
     1
102
RTVSPropertyOp40
 70
     1
102
RTVSPropertyOp41
 70
     1
102
RTVSPropertyOp42
 70
     1
102
RTVSPropertyOp43
 70
     1
102
RTVSPropertyOp44
 70
     1
102
RTVSPropertyOp45
 70
     1
102
RTVSPropertyOp46
 70
     1
102
RTVSPropertyOp47
 70
     1
102
RTVSPropertyOp48
 70
     1
102
RTVSPropertyOp49
 70
     1
102
RTVSPropertyOp50
 70
     1
102
RTVSPropertyOp51
 70
     0
102
RTVSPropertyOp52
 70
     0
102
RTVSPropertyOp53
 70
     1
102
RTVSPropertyOp54
 70
     1
102
RTVSPropertyOp55
 70
     1
102
RTVSPropertyOp56
 70
     1
102
RTVSPropertyOp57
 70
     1
102
RTVSPropertyOp58
 70
     1
102
RTVSPropertyOp59
 70
     1
102
RTVSPropertyOp60
 70
     1
102
RTVSPropertyOp61
 70
     1
102
RTVSPropertyOp62
 70
     1
  0
XRECORD
  5
483
102
{ACAD_REACTORS
330
482
102
}
330
482
100
AcDbXrecord
280
     1
102
RTVSPost2010Prop28
280
     0
102
RTVSPost2010PropOp28
 70
     1
102
RTVSPost2010Prop29
280
     1
102
RTVSPost2010PropOp29
 70
     1
102
RTVSPost2010Prop30
280
     1
102
RTVSPost2010PropOp30
 70
     1
102
RTVSPost2010Prop31
280
     0
102
RTVSPost2010PropOp31
 70
     1
102
RTVSPost2010Prop32
280
     0
102
RTVSPost2010PropOp32
 70
     1
102
RTVSPost2010Prop33
280
     0
102
RTVSPost2010PropOp33
 70
     1
102
RTVSPost2010Prop34
280
     0
102
RTVSPost2010PropOp34
 70
     1
102
RTVSPost2010Prop35
280
     0
102
RTVSPost2010PropOp35
 70
     1
102
RTVSPost2010Prop36
280
     0
102
RTVSPost2010PropOp36
 70
     1
102
RTVSPost2010Prop37
 90
       50
102
RTVSPost2010PropOp37
 70
     1
102
RTVSPost2010Prop38
140
0.0
102
RTVSPost2010PropOp38
 70
     1
102
RTVSPost2010Prop39
140
1.0
102
RTVSPost2010PropOp39
 70
     1
102
RTVSPost2010Prop40
 90
        0
102
RTVSPost2010PropOp40
 70
     1
102
RTVSPost2010Prop41ColorIndex
 90
       18
102
RTVSPost2010Prop41ColorRGB
 90
        0
102
RTVSPost2010PropOp41
 70
     1
102
RTVSPost2010Prop42
 90
       50
102
RTVSPost2010PropOp42
 70
     1
102
RTVSPost2010Prop43
 90
        3
102
RTVSPost2010PropOp43
 70
     1
102
RTVSPost2010Prop44ColorIndex
 90
        5
102
RTVSPost2010Prop44ColorRGB
 90
      255
102
RTVSPost2010PropOp44
 70
     1
102
RTVSPost2010Prop45
280
     0
102
RTVSPost2010PropOp45
 70
     1
102
RTVSPost2010Prop46
 90
       50
102
RTVSPost2010PropOp46
 70
     1
102
RTVSPost2010Prop47
 90
       50
102
RTVSPost2010PropOp47
 70
     1
102
RTVSPost2010Prop48
 90
       50
102
RTVSPost2010PropOp48
 70
     1
102
RTVSPost2010Prop49
280
     0
102
RTVSPost2010PropOp49
 70
     1
102
RTVSPost2010Prop50
 90
       50
102
RTVSPost2010PropOp50
 70
     1
102
RTVSPost2010Prop51ColorIndex
 90
      256
102
RTVSPost2010Prop51ColorRGB
 90
-16777216
102
RTVSPost2010PropOp51
 70
     0
102
RTVSPost2010Prop52
140
1.0
102
RTVSPost2010PropOp52
 70
     0
102
RTVSPost2010Prop53
 90
        2
102
RTVSPost2010PropOp53
 70
     1
102
RTVSPost2010Prop54
  1
strokes_ogs.tif
102
RTVSPost2010PropOp54
 70
     1
102
RTVSPost2010Prop55
280
     0
102
RTVSPost2010PropOp55
 70
     1
102
RTVSPost2010Prop56
140
1.0
102
RTVSPost2010PropOp56
 70
     1
102
RTVSPost2010Prop57
140
1.0
102
RTVSPost2010PropOp57
 70
     1
102
RTVSPropertyOp0
 70
     1
102
RTVSPropertyOp1
 70
     1
102
RTVSPropertyOp2
 70
     1
102
RTVSPropertyOp3
 70
     1
102
RTVSPropertyOp4
 70
     1
102
RTVSPropertyOp5
 70
     1
102
RTVSPropertyOp6
 70
     1
102
RTVSPropertyOp7
 70
     1
102
RTVSPropertyOp8
 70
     1
102
RTVSPropertyOp9
 70
     1
102
RTVSPropertyOp10
 70
     1
102
RTVSPropertyOp11
 70
     1
102
RTVSPropertyOp12
 70
     1
102
RTVSPropertyOp13
 70
     1
102
RTVSPropertyOp14
 70
     1
102
RTVSPropertyOp15
 70
     1
102
RTVSPropertyOp16
 70
     1
102
RTVSPropertyOp17
 70
     1
102
RTVSPropertyOp18
 70
     1
102
RTVSPropertyOp19
 70
     1
102
RTVSPropertyOp20
 70
     1
102
RTVSPropertyOp21
 70
     1
102
RTVSPropertyOp22
 70
     1
102
RTVSPropertyOp23
 70
     1
102
RTVSPropertyOp24
 70
     1
102
RTVSPropertyOp25
 70
     1
102
RTVSPropertyOp26
 70
     1
102
RTVSPropertyOp27
 70
     1
102
RTVSPropertyOp28
 70
     1
102
RTVSPropertyOp29
 70
     1
102
RTVSPropertyOp30
 70
     1
102
RTVSPropertyOp31
 70
     1
102
RTVSPropertyOp32
 70
     1
102
RTVSPropertyOp33
 70
     1
102
RTVSPropertyOp34
 70
     1
102
RTVSPropertyOp35
 70
     1
102
RTVSPropertyOp36
 70
     1
102
RTVSPropertyOp37
 70
     1
102
RTVSPropertyOp38
 70
     1
102
RTVSPropertyOp39
 70
     1
102
RTVSPropertyOp40
 70
     1
102
RTVSPropertyOp41
 70
     1
102
RTVSPropertyOp42
 70
     1
102
RTVSPropertyOp43
 70
     1
102
RTVSPropertyOp44
 70
     1
102
RTVSPropertyOp45
 70
     1
102
RTVSPropertyOp46
 70
     1
102
RTVSPropertyOp47
 70
     1
102
RTVSPropertyOp48
 70
     1
102
RTVSPropertyOp49
 70
     1
102
RTVSPropertyOp50
 70
     1
102
RTVSPropertyOp51
 70
     0
102
RTVSPropertyOp52
 70
     0
102
RTVSPropertyOp53
 70
     1
102
RTVSPropertyOp54
 70
     1
102
RTVSPropertyOp55
 70
     1
102
RTVSPropertyOp56
 70
     1
102
RTVSPropertyOp57
 70
     1
102
RTVSPropertyOp58
 70
     1
102
RTVSPropertyOp59
 70
     1
102
RTVSPropertyOp60
 70
     1
102
RTVSPropertyOp61
 70
     1
102
RTVSPropertyOp62
 70
     1
  0
XRECORD
  5
485
102
{ACAD_REACTORS
330
484
102
}
330
484
100
AcDbXrecord
280
     1
102
RTVSPost2010Prop28
280
     0
102
RTVSPost2010PropOp28
 70
     1
102
RTVSPost2010Prop29
280
     1
102
RTVSPost2010PropOp29
 70
     1
102
RTVSPost2010Prop30
280
     1
102
RTVSPost2010PropOp30
 70
     1
102
RTVSPost2010Prop31
280
     0
102
RTVSPost2010PropOp31
 70
     1
102
RTVSPost2010Prop32
280
     0
102
RTVSPost2010PropOp32
 70
     1
102
RTVSPost2010Prop33
280
     0
102
RTVSPost2010PropOp33
 70
     1
102
RTVSPost2010Prop34
280
     0
102
RTVSPost2010PropOp34
 70
     1
102
RTVSPost2010Prop35
280
     0
102
RTVSPost2010PropOp35
 70
     1
102
RTVSPost2010Prop36
280
     0
102
RTVSPost2010PropOp36
 70
     1
102
RTVSPost2010Prop37
 90
       50
102
RTVSPost2010PropOp37
 70
     1
102
RTVSPost2010Prop38
140
0.0
102
RTVSPost2010PropOp38
 70
     1
102
RTVSPost2010Prop39
140
1.0
102
RTVSPost2010PropOp39
 70
     1
102
RTVSPost2010Prop40
 90
        0
102
RTVSPost2010PropOp40
 70
     1
102
RTVSPost2010Prop41ColorIndex
 90
       18
102
RTVSPost2010Prop41ColorRGB
 90
        0
102
RTVSPost2010PropOp41
 70
     1
102
RTVSPost2010Prop42
 90
       50
102
RTVSPost2010PropOp42
 70
     1
102
RTVSPost2010Prop43
 90
        3
102
RTVSPost2010PropOp43
 70
     1
102
RTVSPost2010Prop44ColorIndex
 90
        5
102
RTVSPost2010Prop44ColorRGB
 90
      255
102
RTVSPost2010PropOp44
 70
     1
102
RTVSPost2010Prop45
280
     0
102
RTVSPost2010PropOp45
 70
     1
102
RTVSPost2010Prop46
 90
       50
102
RTVSPost2010PropOp46
 70
     1
102
RTVSPost2010Prop47
 90
       50
102
RTVSPost2010PropOp47
 70
     1
102
RTVSPost2010Prop48
 90
       50
102
RTVSPost2010PropOp48
 70
     1
102
RTVSPost2010Prop49
280
     0
102
RTVSPost2010PropOp49
 70
     1
102
RTVSPost2010Prop50
 90
       50
102
RTVSPost2010PropOp50
 70
     1
102
RTVSPost2010Prop51ColorIndex
 90
      256
102
RTVSPost2010Prop51ColorRGB
 90
-16777216
102
RTVSPost2010PropOp51
 70
     0
102
RTVSPost2010Prop52
140
1.0
102
RTVSPost2010PropOp52
 70
     0
102
RTVSPost2010Prop53
 90
        2
102
RTVSPost2010PropOp53
 70
     1
102
RTVSPost2010Prop54
  1
strokes_ogs.tif
102
RTVSPost2010PropOp54
 70
     1
102
RTVSPost2010Prop55
280
     0
102
RTVSPost2010PropOp55
 70
     1
102
RTVSPost2010Prop56
140
1.0
102
RTVSPost2010PropOp56
 70
     1
102
RTVSPost2010Prop57
140
1.0
102
RTVSPost2010PropOp57
 70
     1
102
RTVSPropertyOp0
 70
     1
102
RTVSPropertyOp1
 70
     1
102
RTVSPropertyOp2
 70
     1
102
RTVSPropertyOp3
 70
     1
102
RTVSPropertyOp4
 70
     1
102
RTVSPropertyOp5
 70
     1
102
RTVSPropertyOp6
 70
     1
102
RTVSPropertyOp7
 70
     1
102
RTVSPropertyOp8
 70
     1
102
RTVSPropertyOp9
 70
     1
102
RTVSPropertyOp10
 70
     1
102
RTVSPropertyOp11
 70
     1
102
RTVSPropertyOp12
 70
     1
102
RTVSPropertyOp13
 70
     1
102
RTVSPropertyOp14
 70
     1
102
RTVSPropertyOp15
 70
     1
102
RTVSPropertyOp16
 70
     1
102
RTVSPropertyOp17
 70
     1
102
RTVSPropertyOp18
 70
     1
102
RTVSPropertyOp19
 70
     1
102
RTVSPropertyOp20
 70
     1
102
RTVSPropertyOp21
 70
     1
102
RTVSPropertyOp22
 70
     1
102
RTVSPropertyOp23
 70
     1
102
RTVSPropertyOp24
 70
     1
102
RTVSPropertyOp25
 70
     1
102
RTVSPropertyOp26
 70
     1
102
RTVSPropertyOp27
 70
     1
102
RTVSPropertyOp28
 70
     1
102
RTVSPropertyOp29
 70
     1
102
RTVSPropertyOp30
 70
     1
102
RTVSPropertyOp31
 70
     1
102
RTVSPropertyOp32
 70
     1
102
RTVSPropertyOp33
 70
     1
102
RTVSPropertyOp34
 70
     1
102
RTVSPropertyOp35
 70
     1
102
RTVSPropertyOp36
 70
     1
102
RTVSPropertyOp37
 70
     1
102
RTVSPropertyOp38
 70
     1
102
RTVSPropertyOp39
 70
     1
102
RTVSPropertyOp40
 70
     1
102
RTVSPropertyOp41
 70
     1
102
RTVSPropertyOp42
 70
     1
102
RTVSPropertyOp43
 70
     1
102
RTVSPropertyOp44
 70
     1
102
RTVSPropertyOp45
 70
     1
102
RTVSPropertyOp46
 70
     1
102
RTVSPropertyOp47
 70
     1
102
RTVSPropertyOp48
 70
     1
102
RTVSPropertyOp49
 70
     1
102
RTVSPropertyOp50
 70
     1
102
RTVSPropertyOp51
 70
     0
102
RTVSPropertyOp52
 70
     0
102
RTVSPropertyOp53
 70
     1
102
RTVSPropertyOp54
 70
     1
102
RTVSPropertyOp55
 70
     1
102
RTVSPropertyOp56
 70
     1
102
RTVSPropertyOp57
 70
     1
102
RTVSPropertyOp58
 70
     1
102
RTVSPropertyOp59
 70
     1
102
RTVSPropertyOp60
 70
     1
102
RTVSPropertyOp61
 70
     1
102
RTVSPropertyOp62
 70
     1
  0
XRECORD
  5
47B
102
{ACAD_REACTORS
330
47A
102
}
330
47A
100
AcDbXrecord
280
     1
102
RTVSPost2010Prop28
280
     0
102
RTVSPost2010PropOp28
 70
     1
102
RTVSPost2010Prop29
280
     1
102
RTVSPost2010PropOp29
 70
     1
102
RTVSPost2010Prop30
280
     1
102
RTVSPost2010PropOp30
 70
     1
102
RTVSPost2010Prop31
280
     0
102
RTVSPost2010PropOp31
 70
     1
102
RTVSPost2010Prop32
280
     0
102
RTVSPost2010PropOp32
 70
     1
102
RTVSPost2010Prop33
280
     0
102
RTVSPost2010PropOp33
 70
     1
102
RTVSPost2010Prop34
280
     0
102
RTVSPost2010PropOp34
 70
     1
102
RTVSPost2010Prop35
280
     0
102
RTVSPost2010PropOp35
 70
     1
102
RTVSPost2010Prop36
280
     0
102
RTVSPost2010PropOp36
 70
     1
102
RTVSPost2010Prop37
 90
       50
102
RTVSPost2010PropOp37
 70
     1
102
RTVSPost2010Prop38
140
0.0
102
RTVSPost2010PropOp38
 70
     1
102
RTVSPost2010Prop39
140
1.0
102
RTVSPost2010PropOp39
 70
     1
102
RTVSPost2010Prop40
 90
        0
102
RTVSPost2010PropOp40
 70
     1
102
RTVSPost2010Prop41ColorIndex
 90
       18
102
RTVSPost2010Prop41ColorRGB
 90
        0
102
RTVSPost2010PropOp41
 70
     1
102
RTVSPost2010Prop42
 90
       50
102
RTVSPost2010PropOp42
 70
     1
102
RTVSPost2010Prop43
 90
        3
102
RTVSPost2010PropOp43
 70
     1
102
RTVSPost2010Prop44ColorIndex
 90
        5
102
RTVSPost2010Prop44ColorRGB
 90
      255
102
RTVSPost2010PropOp44
 70
     1
102
RTVSPost2010Prop45
280
     0
102
RTVSPost2010PropOp45
 70
     1
102
RTVSPost2010Prop46
 90
       50
102
RTVSPost2010PropOp46
 70
     1
102
RTVSPost2010Prop47
 90
       50
102
RTVSPost2010PropOp47
 70
     1
102
RTVSPost2010Prop48
 90
       50
102
RTVSPost2010PropOp48
 70
     1
102
RTVSPost2010Prop49
280
     0
102
RTVSPost2010PropOp49
 70
     1
102
RTVSPost2010Prop50
 90
       50
102
RTVSPost2010PropOp50
 70
     1
102
RTVSPost2010Prop51ColorIndex
 90
      256
102
RTVSPost2010Prop51ColorRGB
 90
-16777216
102
RTVSPost2010PropOp51
 70
     0
102
RTVSPost2010Prop52
140
1.0
102
RTVSPost2010PropOp52
 70
     0
102
RTVSPost2010Prop53
 90
        2
102
RTVSPost2010PropOp53
 70
     1
102
RTVSPost2010Prop54
  1
strokes_ogs.tif
102
RTVSPost2010PropOp54
 70
     1
102
RTVSPost2010Prop55
280
     0
102
RTVSPost2010PropOp55
 70
     1
102
RTVSPost2010Prop56
140
1.0
102
RTVSPost2010PropOp56
 70
     1
102
RTVSPost2010Prop57
140
1.0
102
RTVSPost2010PropOp57
 70
     1
102
RTVSPropertyOp0
 70
     1
102
RTVSPropertyOp1
 70
     1
102
RTVSPropertyOp2
 70
     1
102
RTVSPropertyOp3
 70
     1
102
RTVSPropertyOp4
 70
     1
102
RTVSPropertyOp5
 70
     1
102
RTVSPropertyOp6
 70
     1
102
RTVSPropertyOp7
 70
     1
102
RTVSPropertyOp8
 70
     1
102
RTVSPropertyOp9
 70
     1
102
RTVSPropertyOp10
 70
     1
102
RTVSPropertyOp11
 70
     1
102
RTVSPropertyOp12
 70
     1
102
RTVSPropertyOp13
 70
     1
102
RTVSPropertyOp14
 70
     1
102
RTVSPropertyOp15
 70
     1
102
RTVSPropertyOp16
 70
     1
102
RTVSPropertyOp17
 70
     1
102
RTVSPropertyOp18
 70
     1
102
RTVSPropertyOp19
 70
     1
102
RTVSPropertyOp20
 70
     1
102
RTVSPropertyOp21
 70
     1
102
RTVSPropertyOp22
 70
     1
102
RTVSPropertyOp23
 70
     1
102
RTVSPropertyOp24
 70
     1
102
RTVSPropertyOp25
 70
     1
102
RTVSPropertyOp26
 70
     1
102
RTVSPropertyOp27
 70
     1
102
RTVSPropertyOp28
 70
     1
102
RTVSPropertyOp29
 70
     1
102
RTVSPropertyOp30
 70
     1
102
RTVSPropertyOp31
 70
     1
102
RTVSPropertyOp32
 70
     1
102
RTVSPropertyOp33
 70
     1
102
RTVSPropertyOp34
 70
     1
102
RTVSPropertyOp35
 70
     1
102
RTVSPropertyOp36
 70
     1
102
RTVSPropertyOp37
 70
     1
102
RTVSPropertyOp38
 70
     1
102
RTVSPropertyOp39
 70
     1
102
RTVSPropertyOp40
 70
     1
102
RTVSPropertyOp41
 70
     1
102
RTVSPropertyOp42
 70
     1
102
RTVSPropertyOp43
 70
     1
102
RTVSPropertyOp44
 70
     1
102
RTVSPropertyOp45
 70
     1
102
RTVSPropertyOp46
 70
     1
102
RTVSPropertyOp47
 70
     1
102
RTVSPropertyOp48
 70
     1
102
RTVSPropertyOp49
 70
     1
102
RTVSPropertyOp50
 70
     1
102
RTVSPropertyOp51
 70
     0
102
RTVSPropertyOp52
 70
     0
102
RTVSPropertyOp53
 70
     1
102
RTVSPropertyOp54
 70
     1
102
RTVSPropertyOp55
 70
     1
102
RTVSPropertyOp56
 70
     1
102
RTVSPropertyOp57
 70
     1
102
RTVSPropertyOp58
 70
     1
102
RTVSPropertyOp59
 70
     1
102
RTVSPropertyOp60
 70
     1
102
RTVSPropertyOp61
 70
     1
102
RTVSPropertyOp62
 70
     1
  0
XRECORD
  5
46F
102
{ACAD_REACTORS
330
46E
102
}
330
46E
100
AcDbXrecord
280
     1
102
RTVSPost2010Prop28
280
     0
102
RTVSPost2010PropOp28
 70
     1
102
RTVSPost2010Prop29
280
     1
102
RTVSPost2010PropOp29
 70
     1
102
RTVSPost2010Prop30
280
     1
102
RTVSPost2010PropOp30
 70
     1
102
RTVSPost2010Prop31
280
     0
102
RTVSPost2010PropOp31
 70
     1
102
RTVSPost2010Prop32
280
     0
102
RTVSPost2010PropOp32
 70
     1
102
RTVSPost2010Prop33
280
     0
102
RTVSPost2010PropOp33
 70
     1
102
RTVSPost2010Prop34
280
     0
102
RTVSPost2010PropOp34
 70
     1
102
RTVSPost2010Prop35
280
     0
102
RTVSPost2010PropOp35
 70
     1
102
RTVSPost2010Prop36
280
     0
102
RTVSPost2010PropOp36
 70
     1
102
RTVSPost2010Prop37
 90
       50
102
RTVSPost2010PropOp37
 70
     1
102
RTVSPost2010Prop38
140
0.0
102
RTVSPost2010PropOp38
 70
     1
102
RTVSPost2010Prop39
140
1.0
102
RTVSPost2010PropOp39
 70
     1
102
RTVSPost2010Prop40
 90
        0
102
RTVSPost2010PropOp40
 70
     1
102
RTVSPost2010Prop41ColorIndex
 90
       18
102
RTVSPost2010Prop41ColorRGB
 90
        0
102
RTVSPost2010PropOp41
 70
     1
102
RTVSPost2010Prop42
 90
       50
102
RTVSPost2010PropOp42
 70
     1
102
RTVSPost2010Prop43
 90
        3
102
RTVSPost2010PropOp43
 70
     1
102
RTVSPost2010Prop44ColorIndex
 90
        5
102
RTVSPost2010Prop44ColorRGB
 90
      255
102
RTVSPost2010PropOp44
 70
     1
102
RTVSPost2010Prop45
280
     0
102
RTVSPost2010PropOp45
 70
     1
102
RTVSPost2010Prop46
 90
       50
102
RTVSPost2010PropOp46
 70
     1
102
RTVSPost2010Prop47
 90
       50
102
RTVSPost2010PropOp47
 70
     1
102
RTVSPost2010Prop48
 90
       50
102
RTVSPost2010PropOp48
 70
     1
102
RTVSPost2010Prop49
280
     0
102
RTVSPost2010PropOp49
 70
     1
102
RTVSPost2010Prop50
 90
       50
102
RTVSPost2010PropOp50
 70
     1
102
RTVSPost2010Prop51ColorIndex
 90
      256
102
RTVSPost2010Prop51ColorRGB
 90
-16777216
102
RTVSPost2010PropOp51
 70
     0
102
RTVSPost2010Prop52
140
1.0
102
RTVSPost2010PropOp52
 70
     0
102
RTVSPost2010Prop53
 90
        2
102
RTVSPost2010PropOp53
 70
     1
102
RTVSPost2010Prop54
  1
strokes_ogs.tif
102
RTVSPost2010PropOp54
 70
     1
102
RTVSPost2010Prop55
280
     0
102
RTVSPost2010PropOp55
 70
     1
102
RTVSPost2010Prop56
140
1.0
102
RTVSPost2010PropOp56
 70
     1
102
RTVSPost2010Prop57
140
1.0
102
RTVSPost2010PropOp57
 70
     1
102
RTVSPropertyOp0
 70
     1
102
RTVSPropertyOp1
 70
     1
102
RTVSPropertyOp2
 70
     1
102
RTVSPropertyOp3
 70
     1
102
RTVSPropertyOp4
 70
     1
102
RTVSPropertyOp5
 70
     1
102
RTVSPropertyOp6
 70
     1
102
RTVSPropertyOp7
 70
     1
102
RTVSPropertyOp8
 70
     1
102
RTVSPropertyOp9
 70
     1
102
RTVSPropertyOp10
 70
     1
102
RTVSPropertyOp11
 70
     1
102
RTVSPropertyOp12
 70
     1
102
RTVSPropertyOp13
 70
     1
102
RTVSPropertyOp14
 70
     1
102
RTVSPropertyOp15
 70
     1
102
RTVSPropertyOp16
 70
     1
102
RTVSPropertyOp17
 70
     1
102
RTVSPropertyOp18
 70
     1
102
RTVSPropertyOp19
 70
     1
102
RTVSPropertyOp20
 70
     1
102
RTVSPropertyOp21
 70
     1
102
RTVSPropertyOp22
 70
     1
102
RTVSPropertyOp23
 70
     1
102
RTVSPropertyOp24
 70
     1
102
RTVSPropertyOp25
 70
     1
102
RTVSPropertyOp26
 70
     1
102
RTVSPropertyOp27
 70
     1
102
RTVSPropertyOp28
 70
     1
102
RTVSPropertyOp29
 70
     1
102
RTVSPropertyOp30
 70
     1
102
RTVSPropertyOp31
 70
     1
102
RTVSPropertyOp32
 70
     1
102
RTVSPropertyOp33
 70
     1
102
RTVSPropertyOp34
 70
     1
102
RTVSPropertyOp35
 70
     1
102
RTVSPropertyOp36
 70
     1
102
RTVSPropertyOp37
 70
     1
102
RTVSPropertyOp38
 70
     1
102
RTVSPropertyOp39
 70
     1
102
RTVSPropertyOp40
 70
     1
102
RTVSPropertyOp41
 70
     1
102
RTVSPropertyOp42
 70
     1
102
RTVSPropertyOp43
 70
     1
102
RTVSPropertyOp44
 70
     1
102
RTVSPropertyOp45
 70
     1
102
RTVSPropertyOp46
 70
     1
102
RTVSPropertyOp47
 70
     1
102
RTVSPropertyOp48
 70
     1
102
RTVSPropertyOp49
 70
     1
102
RTVSPropertyOp50
 70
     1
102
RTVSPropertyOp51
 70
     0
102
RTVSPropertyOp52
 70
     0
102
RTVSPropertyOp53
 70
     1
102
RTVSPropertyOp54
 70
     1
102
RTVSPropertyOp55
 70
     1
102
RTVSPropertyOp56
 70
     1
102
RTVSPropertyOp57
 70
     1
102
RTVSPropertyOp58
 70
     1
102
RTVSPropertyOp59
 70
     1
102
RTVSPropertyOp60
 70
     1
102
RTVSPropertyOp61
 70
     1
102
RTVSPropertyOp62
 70
     1
  0
XRECORD
  5
487
102
{ACAD_REACTORS
330
486
102
}
330
486
100
AcDbXrecord
280
     1
102
RTVSPost2010Prop28
280
     0
102
RTVSPost2010PropOp28
 70
     1
102
RTVSPost2010Prop29
280
     1
102
RTVSPost2010PropOp29
 70
     1
102
RTVSPost2010Prop30
280
     1
102
RTVSPost2010PropOp30
 70
     1
102
RTVSPost2010Prop31
280
     0
102
RTVSPost2010PropOp31
 70
     1
102
RTVSPost2010Prop32
280
     0
102
RTVSPost2010PropOp32
 70
     1
102
RTVSPost2010Prop33
280
     0
102
RTVSPost2010PropOp33
 70
     1
102
RTVSPost2010Prop34
280
     0
102
RTVSPost2010PropOp34
 70
     1
102
RTVSPost2010Prop35
280
     0
102
RTVSPost2010PropOp35
 70
     1
102
RTVSPost2010Prop36
280
     0
102
RTVSPost2010PropOp36
 70
     1
102
RTVSPost2010Prop37
 90
       50
102
RTVSPost2010PropOp37
 70
     1
102
RTVSPost2010Prop38
140
0.0
102
RTVSPost2010PropOp38
 70
     1
102
RTVSPost2010Prop39
140
1.0
102
RTVSPost2010PropOp39
 70
     1
102
RTVSPost2010Prop40
 90
        0
102
RTVSPost2010PropOp40
 70
     1
102
RTVSPost2010Prop41ColorIndex
 90
       18
102
RTVSPost2010Prop41ColorRGB
 90
        0
102
RTVSPost2010PropOp41
 70
     1
102
RTVSPost2010Prop42
 90
       50
102
RTVSPost2010PropOp42
 70
     1
102
RTVSPost2010Prop43
 90
        3
102
RTVSPost2010PropOp43
 70
     1
102
RTVSPost2010Prop44ColorIndex
 90
        5
102
RTVSPost2010Prop44ColorRGB
 90
      255
102
RTVSPost2010PropOp44
 70
     1
102
RTVSPost2010Prop45
280
     0
102
RTVSPost2010PropOp45
 70
     1
102
RTVSPost2010Prop46
 90
       50
102
RTVSPost2010PropOp46
 70
     1
102
RTVSPost2010Prop47
 90
       50
102
RTVSPost2010PropOp47
 70
     1
102
RTVSPost2010Prop48
 90
       50
102
RTVSPost2010PropOp48
 70
     1
102
RTVSPost2010Prop49
280
     0
102
RTVSPost2010PropOp49
 70
     1
102
RTVSPost2010Prop50
 90
       50
102
RTVSPost2010PropOp50
 70
     1
102
RTVSPost2010Prop51ColorIndex
 90
      256
102
RTVSPost2010Prop51ColorRGB
 90
-16777216
102
RTVSPost2010PropOp51
 70
     0
102
RTVSPost2010Prop52
140
1.0
102
RTVSPost2010PropOp52
 70
     0
102
RTVSPost2010Prop53
 90
        2
102
RTVSPost2010PropOp53
 70
     1
102
RTVSPost2010Prop54
  1
strokes_ogs.tif
102
RTVSPost2010PropOp54
 70
     1
102
RTVSPost2010Prop55
280
     0
102
RTVSPost2010PropOp55
 70
     1
102
RTVSPost2010Prop56
140
1.0
102
RTVSPost2010PropOp56
 70
     1
102
RTVSPost2010Prop57
140
1.0
102
RTVSPost2010PropOp57
 70
     1
102
RTVSPropertyOp0
 70
     1
102
RTVSPropertyOp1
 70
     1
102
RTVSPropertyOp2
 70
     1
102
RTVSPropertyOp3
 70
     1
102
RTVSPropertyOp4
 70
     1
102
RTVSPropertyOp5
 70
     1
102
RTVSPropertyOp6
 70
     1
102
RTVSPropertyOp7
 70
     1
102
RTVSPropertyOp8
 70
     1
102
RTVSPropertyOp9
 70
     1
102
RTVSPropertyOp10
 70
     1
102
RTVSPropertyOp11
 70
     1
102
RTVSPropertyOp12
 70
     1
102
RTVSPropertyOp13
 70
     1
102
RTVSPropertyOp14
 70
     1
102
RTVSPropertyOp15
 70
     1
102
RTVSPropertyOp16
 70
     1
102
RTVSPropertyOp17
 70
     1
102
RTVSPropertyOp18
 70
     1
102
RTVSPropertyOp19
 70
     1
102
RTVSPropertyOp20
 70
     1
102
RTVSPropertyOp21
 70
     1
102
RTVSPropertyOp22
 70
     1
102
RTVSPropertyOp23
 70
     1
102
RTVSPropertyOp24
 70
     1
102
RTVSPropertyOp25
 70
     1
102
RTVSPropertyOp26
 70
     1
102
RTVSPropertyOp27
 70
     1
102
RTVSPropertyOp28
 70
     1
102
RTVSPropertyOp29
 70
     1
102
RTVSPropertyOp30
 70
     1
102
RTVSPropertyOp31
 70
     1
102
RTVSPropertyOp32
 70
     1
102
RTVSPropertyOp33
 70
     1
102
RTVSPropertyOp34
 70
     1
102
RTVSPropertyOp35
 70
     1
102
RTVSPropertyOp36
 70
     1
102
RTVSPropertyOp37
 70
     1
102
RTVSPropertyOp38
 70
     1
102
RTVSPropertyOp39
 70
     1
102
RTVSPropertyOp40
 70
     1
102
RTVSPropertyOp41
 70
     1
102
RTVSPropertyOp42
 70
     1
102
RTVSPropertyOp43
 70
     1
102
RTVSPropertyOp44
 70
     1
102
RTVSPropertyOp45
 70
     1
102
RTVSPropertyOp46
 70
     1
102
RTVSPropertyOp47
 70
     1
102
RTVSPropertyOp48
 70
     1
102
RTVSPropertyOp49
 70
     1
102
RTVSPropertyOp50
 70
     1
102
RTVSPropertyOp51
 70
     0
102
RTVSPropertyOp52
 70
     0
102
RTVSPropertyOp53
 70
     1
102
RTVSPropertyOp54
 70
     1
102
RTVSPropertyOp55
 70
     1
102
RTVSPropertyOp56
 70
     1
102
RTVSPropertyOp57
 70
     1
102
RTVSPropertyOp58
 70
     1
102
RTVSPropertyOp59
 70
     1
102
RTVSPropertyOp60
 70
     1
102
RTVSPropertyOp61
 70
     1
102
RTVSPropertyOp62
 70
     1
  0
ENDSEC
  0
EOF
