  0
SECTION
  2
HEADER
  9
$ACADVER
  1
AC1004
  9
$INSBASE
 10
0.0
 20
0.0
  9
$EXTMIN
 10
-6.617333
 20
-6.895
  9
$EXTMAX
 10
203.382667
 20
290.105
  9
$LIMMIN
 10
-6.617333
 20
-6.895
  9
$LIMMAX
 10
203.382667
 20
290.105
  9
$VIEWCTR
 10
6.0
 20
4.5
  9
$VIEWSIZE
 40
9.0
  9
$SNAPMODE
 70
     0
  9
$SNAPUNIT
 10
2.5
 20
2.5
  9
$SNAPBASE
 10
0.0
 20
0.0
  9
$SNAPANG
 50
0.0
  9
$SNAPSTYLE
 70
     0
  9
$SNAPISOPAIR
 70
     0
  9
$GRIDMODE
 70
     1
  9
$GRIDUNIT
 10
10.0
 20
10.0
  9
$ORTHOMODE
 70
     0
  9
$REGENMODE
 70
     1
  9
$FILLMODE
 70
     1
  9
$QTEXTMODE
 70
     0
  9
$DRAGMODE
 70
     2
  9
$LTSCALE
 40
1.0
  9
$OSMODE
 70
     1
  9
$ATTMODE
 70
     1
  9
$TEXTSIZE
 40
0.2
  9
$TRACEWID
 40
0.05
  9
$TEXTSTYLE
  7
STANDARD
  9
$CLAYER
  8
DATA
  9
$CELTYPE
  6
CONTINUOUS
  9
$CECOLOR
 62
     7
  9
$DIMSCALE
 40
1.0
  9
$DIMASZ
 40
0.18
  9
$DIMEXO
 40
0.0625
  9
$DIMDLI
 40
0.38
  9
$DIMRND
 40
0.0
  9
$DIMDLE
 40
0.0
  9
$DIMEXE
 40
0.18
  9
$DIMTP
 40
0.0
  9
$DIMTM
 40
0.0
  9
$DIMTXT
 40
0.18
  9
$DIMCEN
 40
0.09
  9
$DIMTSZ
 40
0.0
  9
$DIMTOL
 70
     0
  9
$DIMLIM
 70
     0
  9
$DIMTIH
 70
     1
  9
$DIMTOH
 70
     1
  9
$DIMSE1
 70
     0
  9
$DIMSE2
 70
     0
  9
$DIMTAD
 70
     0
  9
$DIMZIN
 70
     0
  9
$DIMBLK
  1

  9
$DIMASO
 70
     1
  9
$DIMSHO
 70
     1
  9
$DIMPOST
  1

  9
$DIMAPOST
  1

  9
$DIMALT
 70
     0
  9
$DIMALTD
 70
     2
  9
$DIMALTF
 40
25.4
  9
$DIMLFAC
 40
1.0
  9
$LUNITS
 70
     2
  9
$LUPREC
 70
     4
  9
$AXISMODE
 70
     0
  9
$AXISUNIT
 10
0.0
 20
0.0
  9
$SKETCHINC
 40
0.1
  9
$FILLETRAD
 40
5.0
  9
$AUNITS
 70
     0
  9
$AUPREC
 70
     0
  9
$MENU
  1
acad
  9
$ELEVATION
 40
0.0
  9
$THICKNESS
 40
0.0
  9
$VIEWDIR
 10
0.0
 20
0.0
 30
1.0
  9
$LIMCHECK
 70
     0
  9
$BLIPMODE
 70
     1
  9
$CHAMFERA
 40
0.0
  9
$CHAMFERB
 40
0.0
  9
$FASTZOOM
 70
     1
  9
$SKPOLY
 70
     0
  9
$TDCREATE
 40
0.0
  9
$TDUPDATE
 40
0.0
  9
$TDINDWG
 40
0.0
  9
$TDUSRTIMER
 40
0.0
  9
$USRTIMER
 70
     1
  9
$ANGBASE
 50
0.0
  9
$ANGDIR
 70
     0
  9
$PDMODE
 70
     0
  9
$PDSIZE
 40
0.0
  9
$PLINEWID
 40
0.0
  9
$COORDS
 70
     1
  9
$SPLFRAME
 70
     0
  9
$SPLINESEGS
 70
    10
  9
$ATTDIA
 70
     0
  9
$ATTREQ
 70
     1
  9
$USERI1
 70
     0
  9
$USERI2
 70
     0
  9
$USERI3
 70
     0
  9
$USERI4
 70
     0
  9
$USERI5
 70
     0
  9
$USERR1
 40
0.0
  9
$USERR2
 40
0.0
  9
$USERR3
 40
0.0
  9
$USERR4
 40
0.0
  9
$USERR5
 40
0.0
  0
ENDSEC
  0
SECTION
  2
TABLES
  0
TABLE
  2
LTYPE
 70
    11
  0
LTYPE
  2
CONTINUOUS
 70
     0
  3
Solid line
 72
    65
 73
     0
 40
0.0
  0
LTYPE
  2
DASHED
 70
     0
  3
__ __ __ __ __ __ __ __ __ __ __ __ __ __ __
 72
    65
 73
     2
 40
0.75
 49
0.5
 49
-0.25
  0
LTYPE
  2
HIDDEN
 70
     0
  3
_ _ _ _ _ _ _ _ _ _ _ _ _ _ _ _ _ _ _ _ _ _ 
 72
    65
 73
     2
 40
0.25
 49
0.125
 49
-0.125
  0
LTYPE
  2
CENTER
 70
     0
  3
____ _ ____ _ ____ _ ____ _ ____ _ ____ _ __
 72
    65
 73
     4
 40
2.0
 49
1.25
 49
-0.25
 49
0.25
 49
-0.25
  0
LTYPE
  2
PHANTOM
 70
     0
  3
_____ _ _ _____ _ _ _____ _ _ _____ _ _ ____
 72
    65
 73
     6
 40
2.5
 49
1.25
 49
-0.25
 49
0.25
 49
-0.25
 49
0.25
 49
-0.25
  0
LTYPE
  2
DOT
 70
     0
  3
............................................
 72
    65
 73
     2
 40
0.25
 49
0.0
 49
-0.25
  0
LTYPE
  2
DASHDOT
 70
     0
  3
__ . __ . __ . __ . __ . __ . __ . __ . __ .
 72
    65
 73
     4
 40
1.0
 49
0.5
 49
-0.25
 49
0.0
 49
-0.25
  0
LTYPE
  2
BORDER
 70
     0
  3
__ __ . __ __ . __ __ . __ __ . __ __ . __ _
 72
    65
 73
     6
 40
1.75
 49
0.5
 49
-0.25
 49
0.5
 49
-0.25
 49
0.0
 49
-0.25
  0
LTYPE
  2
DIVIDE
 70
     0
  3
__ . . __ . . __ . . __ . . __ . . __ . . __
 72
    65
 73
     6
 40
1.25
 49
0.5
 49
-0.25
 49
0.0
 49
-0.25
 49
0.0
 49
-0.25
  0
LTYPE
  2
DOTS
 70
     0
  3
close                                       
 72
    65
 73
     2
 40
0.1
 49
0.05
 49
-0.05
  0
LTYPE
  2
CLOSE
 70
     0
  3
                                            
 72
    65
 73
     0
 40
0.0
  0
ENDTAB
  0
TABLE
  2
LAYER
 70
     6
  0
LAYER
  2
0
 70
     0
 62
     7
  6
CONTINUOUS
  0
LAYER
  2
LAYER01
 70
     0
 62
     7
  6
CONTINUOUS
  0
LAYER
  2
DATA
 70
     0
 62
     7
  6
CONTINUOUS
  0
LAYER
  2
DIMENSIONS
 70
     0
 62
     7
  6
CONTINUOUS
  0
LAYER
  2
SPEC
 70
     0
 62
     7
  6
CONTINUOUS
  0
LAYER
  2
HIBINO-BASE
 70
     0
 62
     7
  6
CONTINUOUS
  0
ENDTAB
  0
TABLE
  2
STYLE
 70
     2
  0
STYLE
  2
STANDARD
 70
     0
 40
0.0
 41
1.0
 50
0.0
 71
     0
 42
0.2
  3
txt
  4

  0
STYLE
  2
TTF_DEFAULT
 70
     0
 40
0.0
 41
1.0
 50
0.0
 71
     0
 42
0.0
  3
txt
  4
BIGFONT
  0
ENDTAB
  0
TABLE
  2
VIEW
 70
     0
  0
ENDTAB
  0
ENDSEC
  0
SECTION
  2
BLOCKS
  0
ENDSEC
  0
SECTION
  2
ENTITIES
  0
LINE
  8
SPEC
  6
CONTINUOUS
 62
     7
 10
17.5
 20
265.0
 11
130.0
 21
265.0
  0
LINE
  8
SPEC
  6
CONTINUOUS
 62
     7
 10
17.5
 20
257.5
 11
130.0
 21
257.5
  0
LINE
  8
SPEC
  6
CONTINUOUS
 62
     7
 10
17.5
 20
227.5
 11
130.0
 21
227.5
  0
LINE
  8
SPEC
  6
CONTINUOUS
 62
     7
 10
17.5
 20
231.25
 11
130.0
 21
231.25
  0
LINE
  8
SPEC
  6
CONTINUOUS
 62
     7
 10
17.5
 20
238.75
 11
130.0
 21
238.75
  0
LINE
  8
SPEC
  6
CONTINUOUS
 62
     7
 10
17.5
 20
235.0
 11
130.0
 21
235.0
  0
LINE
  8
SPEC
  6
CONTINUOUS
 62
     7
 10
17.5
 20
242.5
 11
130.0
 21
242.5
  0
LINE
  8
SPEC
  6
CONTINUOUS
 62
     7
 10
17.5
 20
253.75
 11
130.0
 21
253.75
  0
LINE
  8
SPEC
  6
CONTINUOUS
 62
     7
 10
17.5
 20
250.0
 11
130.0
 21
250.0
  0
LINE
  8
SPEC
  6
CONTINUOUS
 62
     7
 10
17.5
 20
246.25
 11
130.0
 21
246.25
  0
LINE
  8
SPEC
  6
CONTINUOUS
 62
     7
 10
17.5
 20
261.25
 11
130.0
 21
261.25
  0
LINE
  8
SPEC
  6
CONTINUOUS
 62
     7
 10
17.5
 20
223.75
 11
130.0
 21
223.75
  0
LINE
  8
DATA
  6
CONTINUOUS
 62
     7
 10
68.454575
 20
64.45662
 11
100.499985
 21
63.00001
  0
LINE
  8
DATA
  6
CONTINUOUS
 62
     7
 10
68.454575
 20
75.54341
 11
100.499985
 21
77.00001
  0
LINE
  8
DATA
  6
CONTINUOUS
 62
     7
 10
96.349375
 20
76.81132
 11
98.724375
 21
63.08076
  0
LINE
  8
DATA
  6
CONTINUOUS
 62
     7
 10
97.525615
 20
63.13518
 11
99.977705
 21
76.97621
  0
LINE
  8
DATA
  6
CONTINUOUS
 62
     7
 10
98.724375
 20
63.08076
 11
97.525615
 21
63.13518
  0
LINE
  8
DATA
  6
CONTINUOUS
 62
     7
 10
98.724375
 20
63.08076
 11
97.525615
 21
63.13518
  0
POLYLINE
  8
HIBINO-BASE
  6
CONTINUOUS
 62
     7
 66
     1
 70
     1
 40
0.3
 41
0.3
  0
VERTEX
  8
HIBINO-BASE
 10
10.0
 20
15.0
  0
VERTEX
  8
HIBINO-BASE
 10
10.0
 20
275.0
  0
VERTEX
  8
HIBINO-BASE
 10
190.0
 20
275.0
  0
VERTEX
  8
HIBINO-BASE
 10
190.0
 20
15.0
  0
SEQEND
  8
HIBINO-BASE
  0
LINE
  8
SPEC
  6
CONTINUOUS
 62
     7
 10
17.5
 20
216.25
 11
130.0
 21
216.25
  0
LINE
  8
SPEC
  6
CONTINUOUS
 62
     7
 10
17.5
 20
220.0
 11
130.0
 21
220.0
  0
LINE
  8
SPEC
  6
CONTINUOUS
 62
     7
 10
17.5
 20
212.5
 11
130.0
 21
212.5
  0
LINE
  8
DATA
  6
CONTINUOUS
 62
     7
 10
71.999985
 20
71.30001
 11
100.500015
 21
71.30001
  0
LINE
  8
DATA
  6
CONTINUOUS
 62
     7
 10
100.500015
 20
68.70001
 11
71.999985
 21
68.70001
  0
LINE
  8
DATA
  6
CONTINUOUS
 62
     7
 10
40.0
 20
147.173
 11
41.5875
 21
140.823
  0
LINE
  8
DATA
  6
CONTINUOUS
 62
     7
 10
46.2865
 20
140.823
 11
47.874
 21
147.173
  0
LINE
  8
DIMENSIONS
  6
CONTINUOUS
 62
     7
 10
30.0
 20
160.0
 11
30.0
 21
140.823
  0
LINE
  8
DIMENSIONS
  6
CONTINUOUS
 62
     7
 10
29.66668
 20
142.823
 11
30.0
 21
140.823
  0
LINE
  8
DIMENSIONS
  6
CONTINUOUS
 62
     7
 10
30.33332
 20
142.823
 11
30.0
 21
140.823
  0
LINE
  8
DIMENSIONS
  6
CONTINUOUS
 62
     7
 10
20.0
 20
160.0
 11
20.0
 21
123.551
  0
TEXT
  8
DIMENSIONS
  6
CONTINUOUS
 62
     7
 10
18.75
 20
139.088406
 40
2.5
  1
36.5
 50
90.0
  7
TTF_DEFAULT
  0
LINE
  8
DATA
  6
CONTINUOUS
 62
     7
 10
80.0
 20
160.0
 11
80.0
 21
140.823
  0
LINE
  8
DATA
  6
CONTINUOUS
 62
     7
 10
84.5
 20
160.0
 11
84.5
 21
140.823
  0
TEXT
  8
HIBINO-BASE
  6
CONTINUOUS
 62
     7
 10
17.184
 20
8.59132
 40
4.0
  1
Hibino Corporation
  7
TTF_DEFAULT
  0
ARC
  8
DATA
  6
CONTINUOUS
 62
     7
 10
48.937
 20
105.0
 40
7.071068
 50
225.0
 51
315.0
  0
LINE
  8
DATA
  6
CONTINUOUS
 62
     7
 10
41.5875
 20
123.551
 11
46.2865
 21
123.551
  0
LINE
  8
DATA
  6
CONTINUOUS
 62
     7
 10
41.5875
 20
140.823
 11
46.2865
 21
140.823
  0
ARC
  8
DATA
  6
CONTINUOUS
 62
     7
 10
48.937
 20
101.25
 40
7.071068
 50
225.0
 51
315.0
  0
LINE
  8
DIMENSIONS
  6
CONTINUOUS
 62
     7
 10
37.5
 20
115.0
 11
50.374
 21
115.0
  0
LINE
  8
DATA
  6
CONTINUOUS
 62
     7
 10
41.5875
 20
133.051
 11
46.2865
 21
133.051
  0
LINE
  8
DATA
  6
CONTINUOUS
 62
     7
 10
41.837
 20
139.623
 11
46.037
 21
139.623
  0
LINE
  8
DATA
  6
CONTINUOUS
 62
     7
 10
41.837
 20
137.051
 11
46.037
 21
137.051
  0
LINE
  8
DATA
  6
CONTINUOUS
 62
     7
 10
41.837
 20
138.551
 11
46.037
 21
138.551
  0
ARC
  8
DATA
  6
CONTINUOUS
 62
     7
 10
47.637
 20
73.70001
 40
5.0
 50
180.0
 51
270.0
  0
ARC
  8
DATA
  6
CONTINUOUS
 62
     7
 10
47.637
 20
73.70001
 40
2.4
 50
180.0
 51
270.0
  0
LINE
  8
DIMENSIONS
  6
CONTINUOUS
 62
     7
 10
40.5875
 20
123.551
 11
18.75
 21
123.551
  0
LINE
  8
DATA
  6
CONTINUOUS
 62
     7
 10
42.637
 20
101.025778
 11
42.637
 21
123.551
  0
LINE
  8
DATA
  6
CONTINUOUS
 62
     7
 10
45.237
 20
98.974222
 11
45.237
 21
123.551
  0
ARC
  8
DATA
  6
CONTINUOUS
 62
     7
 10
38.937
 20
95.0
 40
7.071068
 50
45.0
 51
135.0
  0
ARC
  8
DATA
  6
CONTINUOUS
 62
     7
 10
38.937
 20
91.25
 40
7.071068
 50
45.0
 51
135.0
  0
LINE
  8
DATA
  6
CONTINUOUS
 62
     7
 10
42.637
 20
73.70001
 11
42.637
 21
97.275778
  0
LINE
  8
DATA
  6
CONTINUOUS
 62
     7
 10
45.237
 20
73.70001
 11
45.237
 21
95.224222
  0
LINE
  8
DATA
  6
CONTINUOUS
 62
     7
 10
42.637
 20
139.623
 11
42.637
 21
140.823
  0
LINE
  8
DATA
  6
CONTINUOUS
 62
     7
 10
45.237
 20
139.623
 11
45.237
 21
140.823
  0
LINE
  8
DIMENSIONS
  6
CONTINUOUS
 62
     7
 10
30.0
 20
140.823
 11
30.0
 21
123.551
  0
LINE
  8
DIMENSIONS
  6
CONTINUOUS
 62
     7
 10
29.66668
 20
138.823
 11
30.0
 21
140.823
  0
LINE
  8
DIMENSIONS
  6
CONTINUOUS
 62
     7
 10
30.33332
 20
138.823
 11
30.0
 21
140.823
  0
LINE
  8
DIMENSIONS
  6
CONTINUOUS
 62
     7
 10
29.66668
 20
125.551
 11
30.0
 21
123.551
  0
LINE
  8
DIMENSIONS
  6
CONTINUOUS
 62
     7
 10
30.33332
 20
125.551
 11
30.0
 21
123.551
  0
LINE
  8
DIMENSIONS
  6
CONTINUOUS
 62
     7
 10
40.5875
 20
140.823
 11
28.75
 21
140.823
  0
LINE
  8
DIMENSIONS
  6
CONTINUOUS
 62
     7
 10
19.66668
 20
125.551
 11
20.0
 21
123.551
  0
LINE
  8
DIMENSIONS
  6
CONTINUOUS
 62
     7
 10
20.33332
 20
125.551
 11
20.0
 21
123.551
  0
TEXT
  8
DIMENSIONS
  6
CONTINUOUS
 62
     7
 10
28.75
 20
129.499906
 40
2.5
  1
17.3
 50
90.0
  7
TTF_DEFAULT
  0
LINE
  8
DIMENSIONS
  6
CONTINUOUS
 62
     7
 10
41.5875
 20
122.551
 11
41.5875
 21
113.75
  0
LINE
  8
DIMENSIONS
  6
CONTINUOUS
 62
     7
 10
39.5875
 20
114.66668
 11
41.5875
 21
115.0
  0
LINE
  8
DIMENSIONS
  6
CONTINUOUS
 62
     7
 10
39.5875
 20
115.33332
 11
41.5875
 21
115.0
  0
LINE
  8
DATA
  6
CONTINUOUS
 62
     7
 10
41.5875
 20
123.551
 11
41.5875
 21
133.051
  0
LINE
  8
DATA
  6
CONTINUOUS
 62
     7
 10
41.837
 20
133.051
 11
41.837
 21
139.623
  0
CIRCLE
  8
DATA
  6
CONTINUOUS
 62
     7
 10
43.037
 20
125.551
 40
0.35
  0
CIRCLE
  8
DATA
  6
CONTINUOUS
 62
     7
 10
44.837
 20
125.551
 40
0.35
  0
CIRCLE
  8
DATA
  6
CONTINUOUS
 62
     7
 10
43.037
 20
131.051
 40
0.35
  0
CIRCLE
  8
DATA
  6
CONTINUOUS
 62
     7
 10
44.837
 20
131.051
 40
0.35
  0
LINE
  8
DATA
  6
CONTINUOUS
 62
     7
 10
45.237
 20
137.051
 11
45.237
 21
138.551
  0
LINE
  8
DATA
  6
CONTINUOUS
 62
     7
 10
42.637
 20
137.051
 11
42.637
 21
138.551
  0
LINE
  8
DATA
  6
CONTINUOUS
 62
     7
 10
73.775585
 20
64.21467
 11
71.999985
 21
73.10731
  0
LINE
  8
DATA
  6
CONTINUOUS
 62
     7
 10
71.999985
 20
64.29545
 11
71.999985
 21
75.70454
  0
LINE
  8
DATA
  6
CONTINUOUS
 62
     7
 10
67.499965
 20
74.54442
 11
67.499965
 21
65.45558
  0
LINE
  8
DATA
  6
CONTINUOUS
 62
     7
 10
65.499985
 20
66.75001
 11
65.499985
 21
73.25001
  0
LINE
  8
DATA
  6
CONTINUOUS
 62
     7
 10
97.525615
 20
63.13518
 11
95.150615
 21
76.75688
  0
LINE
  8
DATA
  6
CONTINUOUS
 62
     7
 10
96.349375
 20
76.81132
 11
93.974375
 21
63.29664
  0
LINE
  8
DATA
  6
CONTINUOUS
 62
     7
 10
89.224345
 20
63.51268
 11
86.849375
 21
76.3795
  0
LINE
  8
DATA
  6
CONTINUOUS
 62
     7
 10
88.025585
 20
63.56712
 11
90.400615
 21
76.54097
  0
LINE
  8
DATA
  6
CONTINUOUS
 62
     7
 10
82.099345
 20
76.16359
 11
84.474375
 21
63.72838
  0
LINE
  8
DATA
  6
CONTINUOUS
 62
     7
 10
83.275615
 20
63.78279
 11
80.900585
 21
76.10918
  0
LINE
  8
DATA
  6
CONTINUOUS
 62
     7
 10
78.525585
 20
63.99888
 11
76.150585
 21
75.89326
  0
LINE
  8
DATA
  6
CONTINUOUS
 62
     7
 10
72.684025
 20
75.73564
 11
74.974375
 21
64.16026
  0
LINE
  8
DATA
  6
CONTINUOUS
 62
     7
 10
77.349345
 20
75.94768
 11
79.724345
 21
63.94444
  0
LINE
  8
DATA
  6
CONTINUOUS
 62
     7
 10
78.525585
 20
63.99888
 11
80.900585
 21
76.10918
  0
LINE
  8
DATA
  6
CONTINUOUS
 62
     7
 10
82.099345
 20
76.16359
 11
79.724345
 21
63.94444
  0
LINE
  8
DATA
  6
CONTINUOUS
 62
     7
 10
73.775585
 20
64.21467
 11
76.150585
 21
75.89326
  0
LINE
  8
DATA
  6
CONTINUOUS
 62
     7
 10
77.349345
 20
75.94768
 11
74.974375
 21
64.16026
  0
LINE
  8
DATA
  6
CONTINUOUS
 62
     7
 10
85.650615
 20
76.32506
 11
88.025585
 21
63.56712
  0
LINE
  8
DATA
  6
CONTINUOUS
 62
     7
 10
86.849375
 20
76.3795
 11
84.474375
 21
63.72838
  0
LINE
  8
DATA
  6
CONTINUOUS
 62
     7
 10
83.275615
 20
63.78279
 11
85.650615
 21
76.32506
  0
LINE
  8
DATA
  6
CONTINUOUS
 62
     7
 10
91.599375
 20
76.59541
 11
93.974375
 21
63.29664
  0
LINE
  8
DATA
  6
CONTINUOUS
 62
     7
 10
92.775615
 20
63.35109
 11
90.400615
 21
76.54097
  0
LINE
  8
DATA
  6
CONTINUOUS
 62
     7
 10
91.599375
 20
76.59541
 11
89.224345
 21
63.51268
  0
LINE
  8
DATA
  6
CONTINUOUS
 62
     7
 10
92.775615
 20
63.35109
 11
95.150615
 21
76.75688
  0
ARC
  8
DATA
  6
CONTINUOUS
 62
     7
 10
66.499995
 20
66.75001
 40
1.0
 50
180.0
 51
270.0
  0
LINE
  8
DATA
  6
CONTINUOUS
 62
     7
 10
66.499995
 20
65.75001
 11
67.499965
 21
65.75001
  0
ARC
  8
DATA
  6
CONTINUOUS
 62
     7
 10
68.499985
 20
65.45558
 40
1.0
 50
180.0
 51
267.397282
  0
TEXT
  8
DIMENSIONS
  6
CONTINUOUS
 62
     7
 10
85.0
 20
27.5
 40
2.5
  1
(単位 : mm)
  7
TTF_DEFAULT
  0
LINE
  8
DATA
  6
CONTINUOUS
 62
     7
 10
88.025585
 20
63.56712
 11
89.224345
 21
63.51268
  0
LINE
  8
DATA
  6
CONTINUOUS
 62
     7
 10
89.224345
 20
63.51268
 11
88.025585
 21
63.56712
  0
LINE
  8
DATA
  6
CONTINUOUS
 62
     7
 10
74.974375
 20
64.16026
 11
73.775585
 21
64.21467
  0
LINE
  8
DATA
  6
CONTINUOUS
 62
     7
 10
79.724345
 20
63.94444
 11
78.525585
 21
63.99888
  0
LINE
  8
DATA
  6
CONTINUOUS
 62
     7
 10
79.724345
 20
63.94444
 11
78.525585
 21
63.99888
  0
LINE
  8
DATA
  6
CONTINUOUS
 62
     7
 10
74.974375
 20
64.16026
 11
73.775585
 21
64.21467
  0
LINE
  8
DATA
  6
CONTINUOUS
 62
     7
 10
84.474375
 20
63.72838
 11
83.275615
 21
63.78279
  0
LINE
  8
DATA
  6
CONTINUOUS
 62
     7
 10
84.474375
 20
63.72838
 11
83.275615
 21
63.78279
  0
LINE
  8
DATA
  6
CONTINUOUS
 62
     7
 10
93.974375
 20
63.29664
 11
92.775615
 21
63.35109
  0
LINE
  8
DATA
  6
CONTINUOUS
 62
     7
 10
93.974375
 20
63.29664
 11
92.775615
 21
63.35109
  0
LINE
  8
DATA
  6
CONTINUOUS
 62
     7
 10
71.999985
 20
75.70454
 11
72.684025
 21
75.73564
  0
LINE
  8
DATA
  6
CONTINUOUS
 62
     7
 10
71.999985
 20
68.75001
 11
71.999985
 21
71.25001
  0
ARC
  8
DATA
  6
CONTINUOUS
 62
     7
 10
66.499995
 20
73.25001
 40
1.0
 50
90.0
 51
180.0
  0
LINE
  8
DATA
  6
CONTINUOUS
 62
     7
 10
66.499985
 20
74.25001
 11
67.499985
 21
74.25001
  0
ARC
  8
DATA
  6
CONTINUOUS
 62
     7
 10
68.499985
 20
74.54442
 40
0.999992
 50
92.602718
 51
180.0
  0
LINE
  8
DATA
  6
CONTINUOUS
 62
     7
 10
71.999985
 20
73.10731
 11
71.999985
 21
75.70454
  0
LINE
  8
DATA
  6
CONTINUOUS
 62
     7
 10
47.637
 20
68.70001
 11
65.499985
 21
68.70001
  0
LINE
  8
DATA
  6
CONTINUOUS
 62
     7
 10
47.637
 20
71.30001
 11
65.499985
 21
71.30001
  0
LINE
  8
DIMENSIONS
  6
CONTINUOUS
 62
     7
 10
46.2865
 20
122.551
 11
46.2865
 21
113.75
  0
TEXT
  8
DIMENSIONS
  6
CONTINUOUS
 62
     7
 10
49.370033
 20
116.25
 40
2.5
  1
φ4.7
  7
TTF_DEFAULT
  0
LINE
  8
DIMENSIONS
  6
CONTINUOUS
 62
     7
 10
48.2865
 20
114.66668
 11
46.2865
 21
115.0
  0
LINE
  8
DIMENSIONS
  6
CONTINUOUS
 62
     7
 10
48.2865
 20
115.33332
 11
46.2865
 21
115.0
  0
LINE
  8
DATA
  6
CONTINUOUS
 62
     7
 10
46.2865
 20
123.551
 11
46.2865
 21
133.051
  0
LINE
  8
DATA
  6
CONTINUOUS
 62
     7
 10
46.037
 20
133.051
 11
46.037
 21
139.623
  0
LINE
  8
DATA
  6
CONTINUOUS
 62
     7
 10
80.95
 20
101.025778
 11
80.95
 21
123.551
  0
LINE
  8
DATA
  6
CONTINUOUS
 62
     7
 10
83.55
 20
98.974222
 11
83.55
 21
123.551
  0
LINE
  8
DATA
  6
CONTINUOUS
 62
     7
 10
95.150615
 20
76.75688
 11
96.349375
 21
76.81132
  0
LINE
  8
DATA
  6
CONTINUOUS
 62
     7
 10
95.150615
 20
76.75688
 11
96.349375
 21
76.81132
  0
LINE
  8
DATA
  6
CONTINUOUS
 62
     7
 10
76.150585
 20
75.89326
 11
77.349345
 21
75.94768
  0
LINE
  8
DATA
  6
CONTINUOUS
 62
     7
 10
80.900585
 20
76.10918
 11
82.099345
 21
76.16359
  0
LINE
  8
DATA
  6
CONTINUOUS
 62
     7
 10
76.150585
 20
75.89326
 11
77.349345
 21
75.94768
  0
LINE
  8
DATA
  6
CONTINUOUS
 62
     7
 10
80.900585
 20
76.10918
 11
82.099345
 21
76.16359
  0
LINE
  8
DATA
  6
CONTINUOUS
 62
     7
 10
86.849375
 20
76.3795
 11
85.650615
 21
76.32506
  0
LINE
  8
DATA
  6
CONTINUOUS
 62
     7
 10
85.650615
 20
76.32506
 11
86.849375
 21
76.3795
  0
LINE
  8
DATA
  6
CONTINUOUS
 62
     7
 10
90.400615
 20
76.54097
 11
91.599375
 21
76.59541
  0
LINE
  8
DATA
  6
CONTINUOUS
 62
     7
 10
90.400615
 20
76.54097
 11
91.599375
 21
76.59541
  0
ARC
  8
DATA
  6
CONTINUOUS
 62
     7
 10
77.25
 20
95.0
 40
7.071068
 50
45.0
 51
135.0
  0
ARC
  8
DATA
  6
CONTINUOUS
 62
     7
 10
87.25
 20
105.0
 40
7.071068
 50
225.0
 51
315.0
  0
LINE
  8
DATA
  6
CONTINUOUS
 62
     7
 10
80.0
 20
140.823
 11
84.5
 21
140.823
  0
LINE
  8
DATA
  6
CONTINUOUS
 62
     7
 10
79.9005
 20
123.551
 11
84.5995
 21
123.551
  0
LINE
  8
DATA
  6
CONTINUOUS
 62
     7
 10
80.95
 20
139.623
 11
80.95
 21
140.823
  0
LINE
  8
DATA
  6
CONTINUOUS
 62
     7
 10
83.55
 20
139.623
 11
83.55
 21
140.823
  0
TEXT
  8
DIMENSIONS
  6
CONTINUOUS
 62
     7
 10
87.683033
 20
116.25
 40
2.5
  1
φ4.7
  7
TTF_DEFAULT
  0
LINE
  8
DIMENSIONS
  6
CONTINUOUS
 62
     7
 10
75.813
 20
115.0
 11
88.687
 21
115.0
  0
LINE
  8
DIMENSIONS
  6
CONTINUOUS
 62
     7
 10
79.9005
 20
122.551
 11
79.9005
 21
113.75
  0
LINE
  8
DIMENSIONS
  6
CONTINUOUS
 62
     7
 10
77.9005
 20
114.66668
 11
79.9005
 21
115.0
  0
LINE
  8
DIMENSIONS
  6
CONTINUOUS
 62
     7
 10
77.9005
 20
115.33332
 11
79.9005
 21
115.0
  0
LINE
  8
DIMENSIONS
  6
CONTINUOUS
 62
     7
 10
84.5995
 20
122.551
 11
84.5995
 21
113.75
  0
LINE
  8
DIMENSIONS
  6
CONTINUOUS
 62
     7
 10
86.5995
 20
114.66668
 11
84.5995
 21
115.0
  0
LINE
  8
DIMENSIONS
  6
CONTINUOUS
 62
     7
 10
86.5995
 20
115.33332
 11
84.5995
 21
115.0
  0
LINE
  8
DATA
  6
CONTINUOUS
 62
     7
 10
79.9005
 20
133.051
 11
84.5995
 21
133.051
  0
LINE
  8
DATA
  6
CONTINUOUS
 62
     7
 10
84.5995
 20
123.551
 11
84.5995
 21
133.051
  0
LINE
  8
DATA
  6
CONTINUOUS
 62
     7
 10
79.9005
 20
123.551
 11
79.9005
 21
133.051
  0
LINE
  8
DATA
  6
CONTINUOUS
 62
     7
 10
80.15
 20
139.623
 11
84.35
 21
139.623
  0
LINE
  8
DATA
  6
CONTINUOUS
 62
     7
 10
80.15
 20
133.051
 11
80.15
 21
137.051
  0
LINE
  8
DATA
  6
CONTINUOUS
 62
     7
 10
80.15
 20
138.551
 11
80.15
 21
139.623
  0
LINE
  8
DATA
  6
CONTINUOUS
 62
     7
 10
84.35
 20
133.051
 11
84.35
 21
137.051
  0
LINE
  8
DATA
  6
CONTINUOUS
 62
     7
 10
84.35
 20
138.551
 11
84.35
 21
139.623
  0
LINE
  8
DATA
  6
CONTINUOUS
 62
     7
 10
80.15
 20
138.551
 11
80.95
 21
138.551
  0
LINE
  8
DATA
  6
CONTINUOUS
 62
     7
 10
83.55
 20
138.551
 11
84.35
 21
138.551
  0
LINE
  8
DATA
  6
CONTINUOUS
 62
     7
 10
80.15
 20
137.051
 11
80.95
 21
137.051
  0
LINE
  8
DATA
  6
CONTINUOUS
 62
     7
 10
83.55
 20
137.051
 11
84.35
 21
137.051
  0
LINE
  8
DATA
  6
CONTINUOUS
 62
     7
 10
83.55
 20
138.551
 11
83.55
 21
137.051
  0
LINE
  8
DATA
  6
CONTINUOUS
 62
     7
 10
80.95
 20
138.551
 11
80.95
 21
137.051
  0
LINE
  8
DATA
  6
CONTINUOUS
 62
     7
 10
40.0
 20
160.0
 11
47.874
 21
160.0
  0
LINE
  8
DATA
  6
CONTINUOUS
 62
     7
 10
41.437
 20
151.71
 11
46.437
 21
151.71
  0
LINE
  8
DATA
  6
CONTINUOUS
 62
     7
 10
41.437
 20
158.21
 11
46.437
 21
158.21
  0
LINE
  8
DIMENSIONS
  6
CONTINUOUS
 62
     7
 10
40.0
 20
170.0
 11
47.874
 21
170.0
  0
LINE
  8
DIMENSIONS
  6
CONTINUOUS
 62
     7
 10
45.874
 20
169.66668
 11
47.874
 21
170.0
  0
LINE
  8
DIMENSIONS
  6
CONTINUOUS
 62
     7
 10
45.874
 20
170.33332
 11
47.874
 21
170.0
  0
TEXT
  8
DATA
  6
CONTINUOUS
 62
     7
 10
41.450069
 20
147.173
 40
2.0
  1
FRONT
  7
TTF_DEFAULT
  0
LINE
  8
SPEC
  6
CONTINUOUS
 62
     7
 10
17.5
 20
265.0
 11
17.5
 21
212.5
  0
TEXT
  8
SPEC
  6
CONTINUOUS
 62
     7
 10
18.4
 20
213.4
 40
2.5
  1
付属品
  7
TTF_DEFAULT
  0
LINE
  8
DIMENSIONS
  6
CONTINUOUS
 62
     7
 10
39.0
 20
160.0
 11
18.75
 21
160.0
  0
LINE
  8
DATA
  6
CONTINUOUS
 62
     7
 10
40.0
 20
147.173
 11
40.0
 21
160.0
  0
LINE
  8
DATA
  6
CONTINUOUS
 62
     7
 10
42.187
 20
157.46
 11
45.687
 21
157.46
  0
LINE
  8
DATA
  6
CONTINUOUS
 62
     7
 10
42.187
 20
152.46
 11
42.187
 21
157.46
  0
LINE
  8
DATA
  6
CONTINUOUS
 62
     7
 10
42.187
 20
152.46
 11
45.687
 21
152.46
  0
LINE
  8
DATA
  6
CONTINUOUS
 62
     7
 10
41.437
 20
151.71
 11
41.437
 21
158.21
  0
CIRCLE
  8
DATA
  6
CONTINUOUS
 62
     7
 10
43.937
 20
159.105
 40
0.35
  0
CIRCLE
  8
DATA
  6
CONTINUOUS
 62
     7
 10
40.7185
 20
157.46
 40
0.35
  0
CIRCLE
  8
DATA
  6
CONTINUOUS
 62
     7
 10
40.7185
 20
152.46
 40
0.35
  0
LINE
  8
DIMENSIONS
  6
CONTINUOUS
 62
     7
 10
29.66668
 20
158.0
 11
30.0
 21
160.0
  0
LINE
  8
DIMENSIONS
  6
CONTINUOUS
 62
     7
 10
30.33332
 20
158.0
 11
30.0
 21
160.0
  0
LINE
  8
DIMENSIONS
  6
CONTINUOUS
 62
     7
 10
19.66668
 20
158.0
 11
20.0
 21
160.0
  0
LINE
  8
DIMENSIONS
  6
CONTINUOUS
 62
     7
 10
20.33332
 20
158.0
 11
20.0
 21
160.0
  0
LINE
  8
DIMENSIONS
  6
CONTINUOUS
 62
     7
 10
40.0
 20
161.0
 11
40.0
 21
171.25
  0
LINE
  8
DIMENSIONS
  6
CONTINUOUS
 62
     7
 10
42.0
 20
169.66668
 11
40.0
 21
170.0
  0
LINE
  8
DIMENSIONS
  6
CONTINUOUS
 62
     7
 10
42.0
 20
170.33332
 11
40.0
 21
170.0
  0
TEXT
  8
DIMENSIONS
  6
CONTINUOUS
 62
     7
 10
41.92168
 20
171.25
 40
2.5
  1
7.9
  7
TTF_DEFAULT
  0
TEXT
  8
DIMENSIONS
  6
CONTINUOUS
 62
     7
 10
28.75
 20
147.724406
 40
2.5
  1
19.2
 50
90.0
  7
TTF_DEFAULT
  0
LINE
  8
DATA
  6
CONTINUOUS
 62
     7
 10
42.187
 20
152.46
 11
45.687
 21
155.96
  0
LINE
  8
DATA
  6
CONTINUOUS
 62
     7
 10
42.187
 20
153.96
 11
45.687
 21
157.46
  0
LINE
  8
DATA
  6
CONTINUOUS
 62
     7
 10
42.187
 20
155.46
 11
44.187
 21
157.46
  0
LINE
  8
DATA
  6
CONTINUOUS
 62
     7
 10
42.187
 20
156.96
 11
42.687
 21
157.46
  0
LINE
  8
DATA
  6
CONTINUOUS
 62
     7
 10
43.687
 20
152.46
 11
45.687
 21
154.46
  0
LINE
  8
DATA
  6
CONTINUOUS
 62
     7
 10
45.187
 20
152.46
 11
45.687
 21
152.96
  0
LINE
  8
DATA
  6
CONTINUOUS
 62
     7
 10
45.687
 20
152.46
 11
45.687
 21
157.46
  0
LINE
  8
DATA
  6
CONTINUOUS
 62
     7
 10
42.187
 20
156.96
 11
45.687
 21
153.46
  0
LINE
  8
DATA
  6
CONTINUOUS
 62
     7
 10
43.187
 20
157.46
 11
45.687
 21
154.96
  0
LINE
  8
DATA
  6
CONTINUOUS
 62
     7
 10
44.687
 20
157.46
 11
45.687
 21
156.46
  0
LINE
  8
DATA
  6
CONTINUOUS
 62
     7
 10
42.187
 20
153.96
 11
43.687
 21
152.46
  0
LINE
  8
DATA
  6
CONTINUOUS
 62
     7
 10
42.187
 20
155.46
 11
45.187
 21
152.46
  0
TEXT
  8
SPEC
  6
CONTINUOUS
 62
     7
 10
18.75
 20
266.25
 40
3.0
  1
仕様
  7
TTF_DEFAULT
  0
TEXT
  8
SPEC
  6
CONTINUOUS
 62
     7
 10
18.4
 20
262.15
 40
2.5
  1
形式
  7
TTF_DEFAULT
  0
TEXT
  8
SPEC
  6
CONTINUOUS
 62
     7
 10
18.4
 20
258.4
 40
2.5
  1
指向特性
  7
TTF_DEFAULT
  0
TEXT
  8
SPEC
  6
CONTINUOUS
 62
     7
 10
18.4
 20
254.65
 40
2.5
  1
周波数特性
  7
TTF_DEFAULT
  0
TEXT
  8
SPEC
  6
CONTINUOUS
 62
     7
 10
18.4
 20
250.9
 40
2.5
  1
インピーダンス
  7
TTF_DEFAULT
  0
TEXT
  8
SPEC
  6
CONTINUOUS
 62
     7
 10
18.4
 20
247.15
 40
2.5
  1
開回路感度
  7
TTF_DEFAULT
  0
TEXT
  8
SPEC
  6
CONTINUOUS
 62
     7
 10
18.4
 20
243.4
 40
2.5
  1
等価雑音レベル
  7
TTF_DEFAULT
  0
TEXT
  8
SPEC
  6
CONTINUOUS
 62
     7
 10
18.4
 20
239.65
 40
2.5
  1
最大音圧レベル
  7
TTF_DEFAULT
  0
TEXT
  8
SPEC
  6
CONTINUOUS
 62
     7
 10
18.4
 20
235.9
 40
2.5
  1
電源
  7
TTF_DEFAULT
  0
TEXT
  8
SPEC
  6
CONTINUOUS
 62
     7
 10
18.4
 20
232.15
 40
2.5
  1
コネクタ 
  7
TTF_DEFAULT
  0
TEXT
  8
SPEC
  6
CONTINUOUS
 62
     7
 10
18.4
 20
228.4
 40
2.5
  1
色
  7
TTF_DEFAULT
  0
TEXT
  8
SPEC
  6
CONTINUOUS
 62
     7
 10
18.4
 20
224.65
 40
2.5
  1
寸法
  7
TTF_DEFAULT
  0
TEXT
  8
SPEC
  6
CONTINUOUS
 62
     7
 10
18.4
 20
220.9
 40
2.5
  1
重量
  7
TTF_DEFAULT
  0
TEXT
  8
SPEC
  6
CONTINUOUS
 62
     7
 10
18.4
 20
217.15
 40
2.5
  1
ケーブル長
  7
TTF_DEFAULT
  0
TEXT
  8
SPEC
  6
CONTINUOUS
 62
     7
 10
50.9
 20
213.4
 40
2.5
  1
タ イパー、ベルトクリップ、ウインドスクリーン
  7
TTF_DEFAULT
  0
LINE
  8
SPEC
  6
CONTINUOUS
 62
     7
 10
50.0
 20
265.0
 11
50.0
 21
212.5
  0
LINE
  8
DATA
  6
CONTINUOUS
 62
     7
 10
47.874
 20
160.0
 11
47.874
 21
147.173
  0
LINE
  8
DATA
  6
CONTINUOUS
 62
     7
 10
46.437
 20
151.71
 11
46.437
 21
158.21
  0
CIRCLE
  8
DATA
  6
CONTINUOUS
 62
     7
 10
47.1555
 20
157.46
 40
0.35
  0
CIRCLE
  8
DATA
  6
CONTINUOUS
 62
     7
 10
47.1555
 20
152.46
 40
0.35
  0
LINE
  8
DIMENSIONS
  6
CONTINUOUS
 62
     7
 10
47.874
 20
161.0
 11
47.874
 21
171.25
  0
LINE
  8
DIMENSIONS
  6
CONTINUOUS
 62
     7
 10
60.0
 20
160.0
 11
60.0
 21
147.173
  0
LINE
  8
DIMENSIONS
  6
CONTINUOUS
 62
     7
 10
48.874
 20
160.0
 11
61.25
 21
160.0
  0
LINE
  8
DIMENSIONS
  6
CONTINUOUS
 62
     7
 10
48.874
 20
147.173
 11
61.25
 21
147.173
  0
LINE
  8
DIMENSIONS
  6
CONTINUOUS
 62
     7
 10
59.66668
 20
158.0
 11
60.0
 21
160.0
  0
LINE
  8
DIMENSIONS
  6
CONTINUOUS
 62
     7
 10
60.33332
 20
158.0
 11
60.0
 21
160.0
  0
LINE
  8
DIMENSIONS
  6
CONTINUOUS
 62
     7
 10
59.66668
 20
149.173
 11
60.0
 21
147.173
  0
LINE
  8
DIMENSIONS
  6
CONTINUOUS
 62
     7
 10
60.33332
 20
149.173
 11
60.0
 21
147.173
  0
TEXT
  8
DIMENSIONS
  6
CONTINUOUS
 62
     7
 10
58.75
 20
150.899406
 40
2.5
  1
12.8
 50
90.0
  7
TTF_DEFAULT
  0
LINE
  8
DATA
  6
CONTINUOUS
 62
     7
 10
80.0
 20
160.0
 11
84.5
 21
160.0
  0
LINE
  8
DIMENSIONS
  6
CONTINUOUS
 62
     7
 10
80.0
 20
170.0
 11
84.5
 21
170.0
  0
LINE
  8
DIMENSIONS
  6
CONTINUOUS
 62
     7
 10
80.0
 20
161.0
 11
80.0
 21
171.25
  0
LINE
  8
DIMENSIONS
  6
CONTINUOUS
 62
     7
 10
84.5
 20
161.0
 11
84.5
 21
171.25
  0
LINE
  8
DIMENSIONS
  6
CONTINUOUS
 62
     7
 10
82.0
 20
169.66668
 11
80.0
 21
170.0
  0
LINE
  8
DIMENSIONS
  6
CONTINUOUS
 62
     7
 10
82.0
 20
170.33332
 11
80.0
 21
170.0
  0
LINE
  8
DIMENSIONS
  6
CONTINUOUS
 62
     7
 10
82.5
 20
169.66668
 11
84.5
 21
170.0
  0
LINE
  8
DIMENSIONS
  6
CONTINUOUS
 62
     7
 10
82.5
 20
170.33332
 11
84.5
 21
170.0
  0
TEXT
  8
DIMENSIONS
  6
CONTINUOUS
 62
     7
 10
80.183033
 20
171.25
 40
2.5
  1
4.5
  7
TTF_DEFAULT
  0
TEXT
  8
SPEC
  6
CONTINUOUS
 62
     7
 10
50.9
 20
224.65
 40
2.5
  1
7.9(W)×36.5(H)×4.7(D)mm（マイク部のみ）
  7
TTF_DEFAULT
  0
TEXT
  8
SPEC
  6
CONTINUOUS
 62
     7
 10
50.9
 20
262.15
 40
2.5
  1
エレクトレットコンデンサ
  7
TTF_DEFAULT
  0
TEXT
  8
SPEC
  6
CONTINUOUS
 62
     7
 10
50.9
 20
239.65
 40
2.5
  1
150dB SPL(3%THD)
  7
TTF_DEFAULT
  0
TEXT
  8
SPEC
  6
CONTINUOUS
 62
     7
 10
50.9
 20
235.9
 40
2.5
  1
ファンタ ム12V～48V/1.1mA
  7
TTF_DEFAULT
  0
TEXT
  8
SPEC
  6
CONTINUOUS
 62
     7
 10
50.9
 20
220.9
 40
2.5
  1
約27.5g（コネクタ 部を除く）
  7
TTF_DEFAULT
  0
TEXT
  8
SPEC
  6
CONTINUOUS
 62
     7
 10
50.9
 20
250.9
 40
2.5
  1
240Ω
  7
TTF_DEFAULT
  0
TEXT
  8
SPEC
  6
CONTINUOUS
 62
     7
 10
50.9
 20
243.4
 40
2.5
  1
28dB SPL(Aウェイト)
  7
TTF_DEFAULT
  0
TEXT
  8
SPEC
  6
CONTINUOUS
 62
     7
 10
50.9
 20
247.15
 40
2.5
  1
-50dB re 1V/Pa
  7
TTF_DEFAULT
  0
TEXT
  8
SPEC
  6
CONTINUOUS
 62
     7
 10
50.9
 20
228.4
 40
2.5
  1
黒
  7
TTF_DEFAULT
  0
TEXT
  8
SPEC
  6
CONTINUOUS
 62
     7
 10
50.9
 20
232.15
 40
2.5
  1
XLR-オス(2-HOT)
  7
TTF_DEFAULT
  0
TEXT
  8
SPEC
  6
CONTINUOUS
 62
     7
 10
50.9
 20
217.15
 40
2.5
  1
約2.4m
  7
TTF_DEFAULT
  0
TEXT
  8
SPEC
  6
CONTINUOUS
 62
     7
 10
50.9
 20
258.4
 40
2.5
  1
全指向性
  7
TTF_DEFAULT
  0
TEXT
  8
SPEC
  6
CONTINUOUS
 62
     7
 10
50.9
 20
254.65
 40
2.5
  1
20Hz～20kHz
  7
TTF_DEFAULT
  0
TEXT
  8
HIBINO-BASE
  6
CONTINUOUS
 62
     7
 10
148.75
 20
17.5
 40
2.5
  1
N.Sasaki
  7
TTF_DEFAULT
  0
LINE
  8
HIBINO-BASE
  6
CONTINUOUS
 62
     7
 10
100.0
 20
25.0
 11
190.0
 21
25.0
  0
TEXT
  8
HIBINO-BASE
  6
CONTINUOUS
 62
     7
 10
148.0
 20
22.5
 40
2.5
  1
DRAWN
  7
TTF_DEFAULT
  0
LINE
  8
DATA
  6
CONTINUOUS
 62
     7
 10
180.000015
 20
60.40001
 11
131.999985
 21
60.40001
  0
LINE
  8
DATA
  6
CONTINUOUS
 62
     7
 10
180.000015
 20
79.60002
 11
131.999985
 21
79.60002
  0
LINE
  8
0
  6
CONTINUOUS
 62
     7
 10
100.0
 20
37.65
 11
190.0
 21
37.65
  0
LINE
  8
0
  6
CONTINUOUS
 62
     7
 10
100.0
 20
37.35
 11
190.0
 21
37.35
  0
LINE
  8
0
  6
CONTINUOUS
 62
     7
 10
100.0
 20
37.65
 11
100.0
 21
37.35
  0
LINE
  8
0
  6
CONTINUOUS
 62
     7
 10
190.0
 20
37.65
 11
190.0
 21
37.35
  0
SOLID
  8
HIBINO-BASE
  6
CONTINUOUS
 62
     7
 10
100.0
 20
37.65
 11
190.0
 21
37.65
 12
100.0
 22
37.35
 13
190.0
 23
37.35
  0
TEXT
  8
DATA
  6
CONTINUOUS
 62
     7
 10
150.0
 20
30.0
 40
2.0
  1
小型 マイクロホン
  7
TTF_DEFAULT
  0
TEXT
  8
DATA
  6
CONTINUOUS
 62
     7
 10
150.0
 20
33.125
 40
3.0
  1
Amcron
  7
TTF_DEFAULT
  0
TEXT
  8
DATA
  6
CONTINUOUS
 62
     7
 10
150.0
 20
26.875
 40
3.0
  1
GLM-100
  7
TTF_DEFAULT
  0
LINE
  8
DATA
  6
CONTINUOUS
 62
     7
 10
109.899975
 20
77.65001
 11
109.899975
 21
62.34999
  0
LINE
  8
DATA
  6
CONTINUOUS
 62
     7
 10
110.099995
 20
77.65001
 11
110.099995
 21
62.34999
  0
LINE
  8
DATA
  6
CONTINUOUS
 62
     7
 10
115.499985
 20
78.25001
 11
115.499985
 21
61.75001
  0
LINE
  8
DATA
  6
CONTINUOUS
 62
     7
 10
135.500015
 20
60.40001
 11
135.500015
 21
79.59999
  0
LINE
  8
DATA
  6
CONTINUOUS
 62
     7
 10
142.000015
 20
60.40001
 11
142.000015
 21
79.59999
  0
LINE
  8
DATA
  6
CONTINUOUS
 62
     7
 10
103.499985
 20
77.00001
 11
103.499985
 21
63.00001
  0
LINE
  8
DATA
  6
CONTINUOUS
 62
     7
 10
100.499985
 20
76.99998
 11
100.499985
 21
63.00001
  0
LINE
  8
DATA
  6
CONTINUOUS
 62
     7
 10
100.500015
 20
73.07442
 11
98.724375
 21
63.08076
  0
POLYLINE
  8
DATA
  6
CONTINUOUS
 62
     7
 66
     1
  0
VERTEX
  8
DATA
 10
104.999985
 20
69.0
  0
VERTEX
  8
DATA
 10
104.73951
 20
68.957082
  0
VERTEX
  8
DATA
 10
104.486949
 20
68.829632
  0
VERTEX
  8
DATA
 10
104.249977
 20
68.621522
  0
VERTEX
  8
DATA
 10
104.035793
 20
68.339075
  0
VERTEX
  8
DATA
 10
103.850906
 20
67.990875
  0
VERTEX
  8
DATA
 10
103.700933
 20
67.5875
  0
VERTEX
  8
DATA
 10
103.590431
 20
67.141207
  0
VERTEX
  8
DATA
 10
103.522758
 20
66.665556
  0
VERTEX
  8
DATA
 10
103.499969
 20
66.175
  0
VERTEX
  8
DATA
 10
103.522758
 20
65.684444
  0
VERTEX
  8
DATA
 10
103.590431
 20
65.208793
  0
VERTEX
  8
DATA
 10
103.700933
 20
64.7625
  0
VERTEX
  8
DATA
 10
103.850906
 20
64.359125
  0
VERTEX
  8
DATA
 10
104.035793
 20
64.010925
  0
VERTEX
  8
DATA
 10
104.249977
 20
63.728478
  0
VERTEX
  8
DATA
 10
104.486949
 20
63.520369
  0
VERTEX
  8
DATA
 10
104.73951
 20
63.392918
  0
VERTEX
  8
DATA
 10
104.999985
 20
63.35
  0
SEQEND
  8
DATA
  0
TEXT
  8
HIBINO-BASE
  6
CONTINUOUS
 62
     7
 10
123.0
 20
22.5
 40
2.5
  1
DATE
  7
TTF_DEFAULT
  0
LINE
  8
DATA
  6
CONTINUOUS
 62
     7
 10
115.499985
 20
61.75001
 11
131.999985
 21
60.40001
  0
TEXT
  8
HIBINO-BASE
  6
CONTINUOUS
 62
     7
 10
123.75
 20
17.5
 40
2.5
  1
'00.05.
  7
TTF_DEFAULT
  0
LINE
  8
0
  6
CONTINUOUS
 62
     7
 10
99.85
 20
15.0
 11
99.85
 21
37.5
  0
LINE
  8
0
  6
CONTINUOUS
 62
     7
 10
100.15
 20
15.0
 11
100.15
 21
37.5
  0
LINE
  8
0
  6
CONTINUOUS
 62
     7
 10
99.85
 20
15.0
 11
100.15
 21
15.0
  0
LINE
  8
0
  6
CONTINUOUS
 62
     7
 10
99.85
 20
37.5
 11
100.15
 21
37.5
  0
SOLID
  8
HIBINO-BASE
  6
CONTINUOUS
 62
     7
 10
99.85
 20
15.0
 11
99.85
 21
37.5
 12
100.15
 22
15.0
 13
100.15
 23
37.5
  0
TEXT
  8
HIBINO-BASE
  6
CONTINUOUS
 62
     7
 10
103.75
 20
16.25
 40
4.0
  1
A4
  7
TTF_DEFAULT
  0
LINE
  8
HIBINO-BASE
  6
CONTINUOUS
 62
     7
 10
114.375
 20
16.25
 11
118.125
 21
20.0
  0
TEXT
  8
HIBINO-BASE
  6
CONTINUOUS
 62
     7
 10
113.75
 20
18.125
 40
3.0
  1
1
  7
TTF_DEFAULT
  0
TEXT
  8
HIBINO-BASE
  6
CONTINUOUS
 62
     7
 10
100.5
 20
22.5
 40
2.25
  1
図面サイズ
  7
TTF_DEFAULT
  0
TEXT
  8
HIBINO-BASE
  6
CONTINUOUS
 62
     7
 10
113.0
 20
22.5
 40
2.5
  1
SCALE
  7
TTF_DEFAULT
  0
LINE
  8
HIBINO-BASE
  6
CONTINUOUS
 62
     7
 10
122.5
 20
15.0
 11
122.5
 21
25.0
  0
LINE
  8
HIBINO-BASE
  6
CONTINUOUS
 62
     7
 10
112.5
 20
15.0
 11
112.5
 21
25.0
  0
TEXT
  8
HIBINO-BASE
  6
CONTINUOUS
 62
     7
 10
117.5
 20
16.25
 40
3.0
  1
1
  7
TTF_DEFAULT
  0
TEXT
  8
HIBINO-BASE
  6
CONTINUOUS
 62
     7
 10
100.5
 20
35.0
 40
2.5
  1
NOTE
  7
TTF_DEFAULT
  0
LINE
  8
DATA
  6
CONTINUOUS
 62
     7
 10
105.000015
 20
62.35002
 11
115.499985
 21
62.35002
  0
LINE
  8
DATA
  6
CONTINUOUS
 62
     7
 10
104.999985
 20
63.35008
 11
109.899975
 21
63.35008
  0
LINE
  8
DATA
  6
CONTINUOUS
 62
     7
 10
103.499985
 20
63.00001
 11
100.499985
 21
63.00001
  0
LINE
  8
DATA
  6
CONTINUOUS
 62
     7
 10
104.999985
 20
63.35008
 11
104.999985
 21
62.34999
  0
LINE
  8
DATA
  6
CONTINUOUS
 62
     7
 10
103.499985
 20
63.00001
 11
105.000015
 21
62.35002
  0
LINE
  8
DATA
  6
CONTINUOUS
 62
     7
 10
110.099995
 20
63.34999
 11
115.499985
 21
63.34999
  0
LINE
  8
HIBINO-BASE
  6
CONTINUOUS
 62
     7
 10
135.0
 20
15.0
 11
135.0
 21
37.5
  0
TEXT
  8
HIBINO-BASE
  6
CONTINUOUS
 62
     7
 10
135.5
 20
22.5
 40
2.5
  1
DESIGN
  7
TTF_DEFAULT
  0
LINE
  8
HIBINO-BASE
  6
CONTINUOUS
 62
     7
 10
147.5
 20
25.0
 11
147.5
 21
15.0
  0
TEXT
  8
HIBINO-BASE
  6
CONTINUOUS
 62
     7
 10
135.5
 20
35.0
 40
2.5
  1
TITLE
  7
TTF_DEFAULT
  0
LINE
  8
DATA
  6
CONTINUOUS
 62
     7
 10
115.499985
 20
78.25001
 11
131.999985
 21
79.60002
  0
LINE
  8
DATA
  6
CONTINUOUS
 62
     7
 10
104.999985
 20
76.64995
 11
104.999985
 21
77.65001
  0
LINE
  8
DATA
  6
CONTINUOUS
 62
     7
 10
103.499985
 20
77.00001
 11
104.999985
 21
77.65001
  0
POLYLINE
  8
DATA
  6
CONTINUOUS
 62
     7
 66
     1
  0
VERTEX
  8
DATA
 10
104.999985
 20
76.64997
  0
VERTEX
  8
DATA
 10
104.73951
 20
76.607052
  0
VERTEX
  8
DATA
 10
104.486949
 20
76.479602
  0
VERTEX
  8
DATA
 10
104.249977
 20
76.271492
  0
VERTEX
  8
DATA
 10
104.035793
 20
75.989045
  0
VERTEX
  8
DATA
 10
103.850906
 20
75.640845
  0
VERTEX
  8
DATA
 10
103.700933
 20
75.23747
  0
VERTEX
  8
DATA
 10
103.590431
 20
74.791177
  0
VERTEX
  8
DATA
 10
103.522758
 20
74.315526
  0
VERTEX
  8
DATA
 10
103.499969
 20
73.82497
  0
VERTEX
  8
DATA
 10
103.522758
 20
73.334414
  0
VERTEX
  8
DATA
 10
103.590431
 20
72.858763
  0
VERTEX
  8
DATA
 10
103.700933
 20
72.41247
  0
VERTEX
  8
DATA
 10
103.850906
 20
72.009095
  0
VERTEX
  8
DATA
 10
104.035793
 20
71.660895
  0
VERTEX
  8
DATA
 10
104.249977
 20
71.378448
  0
VERTEX
  8
DATA
 10
104.486949
 20
71.170339
  0
VERTEX
  8
DATA
 10
104.73951
 20
71.042888
  0
VERTEX
  8
DATA
 10
104.999985
 20
70.99997
  0
SEQEND
  8
DATA
  0
LINE
  8
DATA
  6
CONTINUOUS
 62
     7
 10
104.999985
 20
70.99995
 11
109.899975
 21
70.99995
  0
LINE
  8
DATA
  6
CONTINUOUS
 62
     7
 10
104.999985
 20
69.00001
 11
109.899975
 21
69.00001
  0
LINE
  8
DATA
  6
CONTINUOUS
 62
     7
 10
100.500015
 20
71.25001
 11
100.500015
 21
68.75001
  0
LINE
  8
DATA
  6
CONTINUOUS
 62
     7
 10
104.999985
 20
71.00001
 11
104.999985
 21
69.00001
  0
LINE
  8
DATA
  6
CONTINUOUS
 62
     7
 10
115.499985
 20
69.00001
 11
110.099995
 21
69.00001
  0
LINE
  8
DATA
  6
CONTINUOUS
 62
     7
 10
115.499985
 20
71.00001
 11
110.099995
 21
71.00001
  0
LINE
  8
DATA
  6
CONTINUOUS
 62
     7
 10
104.999985
 20
76.64995
 11
109.899975
 21
76.64995
  0
LINE
  8
DATA
  6
CONTINUOUS
 62
     7
 10
103.499985
 20
77.00001
 11
100.499985
 21
77.00001
  0
LINE
  8
DATA
  6
CONTINUOUS
 62
     7
 10
99.977705
 20
76.97621
 11
100.499985
 21
77.00001
  0
LINE
  8
DATA
  6
CONTINUOUS
 62
     7
 10
100.499985
 20
77.00001
 11
100.500015
 21
73.07442
  0
LINE
  8
DATA
  6
CONTINUOUS
 62
     7
 10
115.499985
 20
76.64995
 11
110.099995
 21
76.64995
  0
LINE
  8
DATA
  6
CONTINUOUS
 62
     7
 10
104.999985
 20
77.65001
 11
115.499985
 21
77.65001
  0
LINE
  8
DATA
  6
CONTINUOUS
 62
     7
 10
179.999985
 20
60.40001
 11
180.000015
 21
79.59999
  0
TEXT
  8
HIBINO-BASE
  6
CONTINUOUS
 62
     7
 10
173.0
 20
22.5
 40
2.5
  1
DRAWING NO.
  7
TTF_DEFAULT
  0
TEXT
  8
HIBINO-BASE
  6
CONTINUOUS
 62
     7
 10
156.230026
 20
8.59132
 40
4.0
  1
ヒビノ株式会社
  7
TTF_DEFAULT
  0
TEXT
  8
HIBINO-BASE
  6
CONTINUOUS
 62
     7
 10
160.5
 20
22.5
 40
2.5
  1
CHECK
  7
TTF_DEFAULT
  0
LINE
  8
HIBINO-BASE
  6
CONTINUOUS
 62
     7
 10
172.5
 20
25.0
 11
172.5
 21
15.0
  0
LINE
  8
HIBINO-BASE
  6
CONTINUOUS
 62
     7
 10
160.0
 20
15.0
 11
160.0
 21
25.0
  0
LINE
  8
SPEC
  6
CONTINUOUS
 62
     7
 10
130.0
 20
265.0
 11
130.0
 21
212.5
  0
ENDSEC
  0
EOF
