  0
SECTION
  2
HEADER
  9
$ACADVER
  1
AC1009
  9
$INSBASE
 10
0.0
 20
0.0
 30
0.0
  9
$EXTMIN
 10
-175.04119558730321
 20
-369.2075547966665
 30
-0.0015258207003583
  9
$EXTMAX
 10
1175.04120187373
 20
1638.0179281775629
 30
0.0000000349246037
  9
$LIMMIN
 10
0.0
 20
0.0
  9
$LIMMAX
 10
0.0
 20
0.0
  9
$ORTHOMODE
 70
     0
  9
$REGENMODE
 70
     1
  9
$FILLMODE
 70
     1
  9
$QTEXTMODE
 70
     0
  9
$MIRRTEXT
 70
     1
  9
$DRAGMODE
 70
     2
  9
$LTSCALE
 40
38.100000000000001
  9
$OSMODE
 70
   231
  9
$ATTMODE
 70
     1
  9
$TEXTSIZE
 40
0.0
  9
$TRACEWID
 40
1.0
  9
$TEXTSTYLE
  7
STANDARD
  9
$CLAYER
  8
DATA
  9
$CELTYPE
  6
CONTINUOUS
  9
$CECOLOR
 62
   256
  9
$DIMSCALE
 40
1.0
  9
$DIMASZ
 40
0.18
  9
$DIMEXO
 40
0.0625
  9
$DIMDLI
 40
0.38
  9
$DIMRND
 40
0.0
  9
$DIMDLE
 40
0.0
  9
$DIMEXE
 40
0.18
  9
$DIMTP
 40
0.0
  9
$DIMTM
 40
0.0
  9
$DIMTXT
 40
0.18
  9
$DIMCEN
 40
0.09
  9
$DIMTSZ
 40
0.0
  9
$DIMTOL
 70
     0
  9
$DIMLIM
 70
     0
  9
$DIMTIH
 70
     1
  9
$DIMTOH
 70
     1
  9
$DIMSE1
 70
     0
  9
$DIMSE2
 70
     0
  9
$DIMTAD
 70
     0
  9
$DIMZIN
 70
     0
  9
$DIMBLK
  1

  9
$DIMASO
 70
     1
  9
$DIMSHO
 70
     1
  9
$DIMPOST
  1

  9
$DIMAPOST
  1

  9
$DIMALT
 70
     0
  9
$DIMALTD
 70
     2
  9
$DIMALTF
 40
25.399999999999999
  9
$DIMLFAC
 40
1.0
  9
$DIMTOFL
 70
     0
  9
$DIMTVP
 40
0.0
  9
$DIMTIX
 70
     0
  9
$DIMSOXD
 70
     0
  9
$DIMSAH
 70
     0
  9
$DIMBLK1
  1

  9
$DIMBLK2
  1

  9
$DIMSTYLE
  2
STANDARD
  9
$DIMCLRD
 70
     0
  9
$DIMCLRE
 70
     0
  9
$DIMCLRT
 70
     0
  9
$DIMTFAC
 40
1.0
  9
$DIMGAP
 40
0.09
  9
$LUNITS
 70
     2
  9
$LUPREC
 70
     4
  9
$SKETCHINC
 40
0.1
  9
$FILLETRAD
 40
0.0
  9
$AUNITS
 70
     0
  9
$AUPREC
 70
     0
  9
$MENU
  1
acad
  9
$ELEVATION
 40
0.0
  9
$PELEVATION
 40
0.0
  9
$THICKNESS
 40
0.0
  9
$LIMCHECK
 70
     0
  9
$BLIPMODE
 70
     0
  9
$CHAMFERA
 40
0.0
  9
$CHAMFERB
 40
0.0
  9
$SKPOLY
 70
     0
  9
$TDCREATE
 40
2453783.6369328699
  9
$TDUPDATE
 40
2453783.6383160641
  9
$TDINDWG
 40
0.0002221065
  9
$TDUSRTIMER
 40
0.0002219444
  9
$USRTIMER
 70
     1
  9
$ANGBASE
 50
0.0
  9
$ANGDIR
 70
     0
  9
$PDMODE
 70
     1
  9
$PDSIZE
 40
-2.0
  9
$PLINEWID
 40
0.0
  9
$COORDS
 70
     2
  9
$SPLFRAME
 70
     0
  9
$SPLINETYPE
 70
     6
  9
$SPLINESEGS
 70
     8
  9
$ATTDIA
 70
     0
  9
$ATTREQ
 70
     1
  9
$HANDLING
 70
     1
  9
$HANDSEED
  5
B0B
  9
$SURFTAB1
 70
     6
  9
$SURFTAB2
 70
     6
  9
$SURFTYPE
 70
     6
  9
$SURFU
 70
     6
  9
$SURFV
 70
     6
  9
$UCSNAME
  2

  9
$UCSORG
 10
0.0
 20
0.0
 30
0.0
  9
$UCSXDIR
 10
1.0
 20
0.0
 30
0.0
  9
$UCSYDIR
 10
0.0
 20
1.0
 30
0.0
  9
$PUCSNAME
  2

  9
$PUCSORG
 10
0.0
 20
0.0
 30
0.0
  9
$PUCSXDIR
 10
1.0
 20
0.0
 30
0.0
  9
$PUCSYDIR
 10
0.0
 20
1.0
 30
0.0
  9
$USERI1
 70
     0
  9
$USERI2
 70
     0
  9
$USERI3
 70
     0
  9
$USERI4
 70
     0
  9
$USERI5
 70
     0
  9
$USERR1
 40
0.0
  9
$USERR2
 40
0.0
  9
$USERR3
 40
0.0
  9
$USERR4
 40
0.0
  9
$USERR5
 40
0.0
  9
$WORLDVIEW
 70
     1
  9
$SHADEDGE
 70
     3
  9
$SHADEDIF
 70
    70
  9
$TILEMODE
 70
     1
  9
$MAXACTVP
 70
    64
  9
$PLIMCHECK
 70
     0
  9
$PEXTMIN
 10
1.0000000000000000E+020
 20
1.0000000000000000E+020
 30
1.0000000000000000E+020
  9
$PEXTMAX
 10
-1.0000000000000000E+020
 20
-1.0000000000000000E+020
 30
-1.0000000000000000E+020
  9
$PLIMMIN
 10
0.0
 20
0.0
  9
$PLIMMAX
 10
12.0
 20
9.0
  9
$UNITMODE
 70
     0
  9
$VISRETAIN
 70
     0
  9
$PLINEGEN
 70
     1
  9
$PSLTSCALE
 70
     0
  0
ENDSEC
  0
SECTION
  2
TABLES
  0
TABLE
  2
VPORT
 70
     2
  0
VPORT
  2
*ACTIVE
 70
     0
 10
0.0
 20
0.0
 11
1.0
 21
1.0
 12
500.00000314321352
 22
634.40518669044855
 13
0.0
 23
0.0
 14
1.0
 24
1.0
 15
0.0
 25
0.0
 16
0.0
 26
0.0
 36
1.0
 17
0.0
 27
0.0
 37
0.0
 40
2023.837004212638
 41
1.665745856353591
 42
50.0
 43
0.0
 44
0.0
 50
0.0
 51
0.0
 71
     0
 72
  2000
 73
     1
 74
     1
 75
     0
 76
     0
 77
     0
 78
     0
  0
ENDTAB
  0
TABLE
  2
LTYPE
 70
    11
  0
LTYPE
  2
CONTINUOUS
 70
     0
  3
Solid line
 72
    65
 73
     0
 40
0.0
  0
ENDTAB
  0
TABLE
  2
LAYER
 70
     5
  0
LAYER
  2
0
 70
     0
 62
     7
  6
CONTINUOUS
  0
LAYER
  2
DATA
 70
     0
 62
     7
  6
CONTINUOUS
  0
LAYER
  2
HIBINO-BASE
 70
     0
 62
     7
  6
CONTINUOUS
  0
LAYER
  2
SPEC
 70
     0
 62
     7
  6
CONTINUOUS
  0
LAYER
  2
DIMNSIONS
 70
     0
 62
     7
  6
CONTINUOUS
  0
ENDTAB
  0
TABLE
  2
STYLE
 70
     2
  0
STYLE
  2
STANDARD
 70
     0
 40
0.0
 41
1.0
 50
0.0
 71
     0
 42
0.0
  3
txt
  4
BIGFONT.SHX
  0
ENDTAB
  0
TABLE
  2
VIEW
 70
     0
  0
ENDTAB
  0
TABLE
  2
UCS
 70
     0
  0
ENDTAB
  0
TABLE
  2
APPID
 70
     1
  0
APPID
  2
ACAD
 70
     0
  0
ENDTAB
  0
TABLE
  2
DIMSTYLE
 70
     1
  0
DIMSTYLE
  2
STANDARD
 70
     0
  3

  4

  5

  6

  7

 40
1.0
 41
0.18
 42
0.0625
 43
0.38
 44
0.18
 45
0.0
 46
0.0
 47
0.0
 48
0.0
140
0.18
141
0.09
142
0.0
143
25.399999999999999
144
1.0
145
0.0
146
1.0
147
0.09
 71
     0
 72
     0
 73
     1
 74
     1
 75
     0
 76
     0
 77
     0
 78
     0
170
     0
171
     2
172
     0
173
     0
174
     0
175
     0
176
     0
177
     0
178
     0
  0
ENDTAB
  0
ENDSEC
  0
SECTION
  2
BLOCKS
  0
BLOCK
  8
0
  2
$MODEL_SPACE
 70
     0
 10
0.0
 20
0.0
 30
0.0
  3
$MODEL_SPACE
  1

  0
ENDBLK
  5
8AD
  8
0
  0
BLOCK
 67
     1
  8
0
  2
$PAPER_SPACE
 70
     0
 10
0.0
 20
0.0
 30
0.0
  3
$PAPER_SPACE
  1

  0
ENDBLK
  5
8A9
 67
     1
  8
0
  0
ENDSEC
  0
SECTION
  2
ENTITIES
  0
LINE
  5
2C
  8
HIBINO-BASE
  6
CONTINUOUS
 62
     7
 10
-174.99999999999989
 20
1637.9567975
 30
0.0
 11
1175.0
 21
1637.9567975
 31
0.0
  0
LINE
  5
2D
  8
HIBINO-BASE
  6
CONTINUOUS
 62
     7
 10
1175.0
 20
-312.04320250000012
 30
0.0
 11
-174.99999999999989
 21
-312.04320250000012
 31
0.0
  0
LINE
  5
2E
  8
HIBINO-BASE
  6
CONTINUOUS
 62
     7
 10
-174.99999999999989
 20
-312.04320250000012
 30
0.0
 11
-174.99999999999989
 21
1637.9567975
 31
0.0
  0
TEXT
  5
2F
  8
HIBINO-BASE
 62
     7
 10
-121.11999999999981
 20
-360.10828599999991
 30
0.0
 40
27.00033134765625
  1
Hibino Corporation
 41
0.8
 11
-121.11999999999981
 21
-333.10795465234372
 31
0.0
 73
     3
  0
LINE
  5
30
  8
HIBINO-BASE
  6
CONTINUOUS
 62
     7
 10
1175.0
 20
1637.9567975
 30
0.0
 11
1175.0
 21
-312.04320250000012
 31
0.0
  0
TEXT
  5
31
  8
HIBINO-BASE
 62
     7
 10
875.51292499999988
 20
-360.10828599999991
 30
0.0
 40
27.00033134765625
  1
ヒビノ株式会社
 41
0.8
 11
875.51292499999988
 21
-333.10795465234372
 31
0.0
 73
     3
  0
LINE
  5
32
  8
HIBINO-BASE
  6
CONTINUOUS
 62
     7
 10
490.625
 20
-143.29320250000001
 30
0.0
 11
1175.0
 21
-143.29320250000001
 31
0.0
  0
LINE
  5
33
  8
HIBINO-BASE
  6
CONTINUOUS
 62
     7
 10
490.625
 20
-237.04320250000001
 30
0.0
 11
1175.0
 21
-237.04320250000001
 31
0.0
  0
TEXT
  5
34
  8
HIBINO-BASE
 62
     7
 10
863.0
 20
-255.43600250000009
 30
0.0
 40
12.21630859375
  1
DRAWN
 41
0.8
 11
863.0
 21
-243.21969390625009
 31
0.0
 73
     3
  0
TEXT
  5
35
  8
HIBINO-BASE
 62
     7
 10
1050.5
 20
-255.43600250000009
 30
0.0
 40
12.21630859375
  1
DRAWING NO.
 41
0.8
 11
1050.5
 21
-243.21969390625009
 31
0.0
 73
     3
  0
TEXT
  5
36
  8
HIBINO-BASE
 62
     7
 10
956.75
 20
-255.43600250000009
 30
0.0
 40
12.21630859375
  1
CHECK
 41
0.8
 11
956.75
 21
-243.21969390625009
 31
0.0
 73
     3
  0
LINE
  5
37
  8
HIBINO-BASE
  6
CONTINUOUS
 62
     7
 10
856.25
 20
-237.04320250000001
 30
0.0
 11
856.25
 21
-312.04320250000012
 31
0.0
  0
LINE
  5
38
  8
HIBINO-BASE
  6
CONTINUOUS
 62
     7
 10
1043.75
 20
-237.04320250000001
 30
0.0
 11
1043.75
 21
-312.04320250000012
 31
0.0
  0
LINE
  5
39
  8
HIBINO-BASE
  6
CONTINUOUS
 62
     7
 10
950.0
 20
-312.04320250000012
 30
0.0
 11
950.0
 21
-237.04320250000001
 31
0.0
  0
TEXT
  5
3A
  8
HIBINO-BASE
 62
     7
 10
529.12500000000011
 20
-297.22320249999979
 30
0.0
 40
24.4326171875
  1
A4
 41
0.8
 11
529.12500000000011
 21
-272.79058531249979
 31
0.0
 73
     3
  0
TEXT
  5
3B
  8
HIBINO-BASE
 62
     7
 10
684.87500000000011
 20
-255.43600250000009
 30
0.0
 40
12.21630859375
  1
DATE
 41
0.8
 11
684.87500000000011
 21
-243.21969390625009
 31
0.0
 73
     3
  0
TEXT
  5
3C
  8
HIBINO-BASE
 62
     7
 10
609.87500000000011
 20
-255.43600250000009
 30
0.0
 40
12.21630859375
  1
SCALE
 41
0.8
 11
609.87500000000011
 21
-243.21969390625009
 31
0.0
 73
     3
  0
LINE
  5
3D
  8
HIBINO-BASE
  6
CONTINUOUS
 62
     7
 10
617.1875
 20
-302.66820250000012
 30
0.0
 11
645.3125
 21
-274.54320250000001
 31
0.0
  0
TEXT
  5
3E
  8
HIBINO-BASE
 62
     7
 10
612.5
 20
-282.86027750000011
 30
0.0
 40
12.21630859375
  1
1
 41
0.8
 11
612.5
 21
-270.64396890625
 31
0.0
 73
     3
  0
LINE
  5
3F
  8
HIBINO-BASE
  6
CONTINUOUS
 62
     7
 10
603.125
 20
-312.04320250000012
 30
0.0
 11
603.125
 21
-237.04320250000001
 31
0.0
  0
LINE
  5
40
  8
HIBINO-BASE
  6
CONTINUOUS
 62
     7
 10
678.125
 20
-312.04320250000012
 30
0.0
 11
678.125
 21
-237.04320250000001
 31
0.0
  0
TEXT
  5
41
  8
HIBINO-BASE
 62
     7
 10
684.54905000000019
 20
-290.56585250000012
 30
0.0
 40
12.21630859375
  1
'06.02.
 41
0.8
 11
684.54905000000019
 21
-278.34954390625012
 31
0.0
 73
     3
  0
TEXT
  5
42
  8
HIBINO-BASE
 62
     7
 10
640.625
 20
-296.92277750000011
 30
0.0
 40
12.21630859375
  1
7.5
 41
0.8
 11
640.625
 21
-284.70646890625
 31
0.0
 73
     3
  0
LINE
  5
43
  8
HIBINO-BASE
  6
CONTINUOUS
 62
     7
 10
771.875
 20
-312.04320250000012
 30
0.0
 11
771.875
 21
-143.29320250000001
 31
0.0
  0
TEXT
  5
44
  8
HIBINO-BASE
 62
     7
 10
778.62500000000011
 20
-162.1084024999999
 30
0.0
 40
12.21630859375
  1
TITLE
 41
0.8
 11
778.62500000000011
 21
-149.8920939062499
 31
0.0
 73
     3
  0
TEXT
  5
45
  8
HIBINO-BASE
 62
     7
 10
778.62500000000011
 20
-255.43600250000009
 30
0.0
 40
12.21630859375
  1
DESIGN
 41
0.8
 11
778.62500000000011
 21
-243.21969390625009
 31
0.0
 73
     3
  0
LINE
  5
46
  8
HIBINO-BASE
  6
CONTINUOUS
 62
     7
 10
490.625
 20
-312.04320250000012
 30
0.0
 11
490.625
 21
-143.29320250000001
 31
0.0
  0
TEXT
  5
47
  8
HIBINO-BASE
 62
     7
 10
497.375
 20
-162.1084024999999
 30
0.0
 40
12.21630859375
  1
NOTE
 41
0.8
 11
497.375
 21
-149.8920939062499
 31
0.0
 73
     3
  0
TEXT
  5
48
  8
HIBINO-BASE
 62
     7
 10
497.8125
 20
-256.68911500000007
 30
0.0
 40
12.21630859375
  1
PAPER SIZE
 41
0.8
 11
497.8125
 21
-244.4728064062501
 31
0.0
 73
     3
  0
TEXT
  5
49
  8
HIBINO-BASE
 62
     7
 10
867.5435750827595
 20
-290.56585250000001
 30
0.0
 40
12.21630859375
  1
N.Sasaki
 41
0.8
 11
867.5435750827595
 21
-278.34954390625001
 31
0.0
 73
     3
  0
TEXT
  5
4A
  8
HIBINO-BASE
 62
     7
 10
961.2935750827595
 20
-290.56585250000001
 30
0.0
 40
12.21630859375
  1
T.Taki
 41
0.8
 11
961.2935750827595
 21
-278.34954390625001
 31
0.0
 73
     3
  0
LINE
  5
4B
  8
SPEC
  6
CONTINUOUS
 62
     7
 10
-118.7499999999998
 20
1562.9567975
 30
0.0
 11
555.0
 21
1562.9567975
 31
0.0
  0
LINE
  5
4C
  8
SPEC
  6
CONTINUOUS
 62
     7
 10
-118.7499999999998
 20
1534.8317975
 30
0.0
 11
554.99999999999977
 21
1534.8317975
 31
0.0
  0
LINE
  5
4D
  8
SPEC
  6
CONTINUOUS
 62
     7
 10
-118.7499999999998
 20
1405.8317975
 30
0.0
 11
555.0
 21
1405.8317975
 31
0.0
  0
LINE
  5
4E
  8
SPEC
  6
CONTINUOUS
 62
     7
 10
-118.7499999999998
 20
1377.7067975
 30
0.0
 11
555.0
 21
1377.7067975
 31
0.0
  0
LINE
  5
4F
  8
SPEC
  6
CONTINUOUS
 62
     7
 10
-118.7499999999998
 20
1562.9567975
 30
0.0
 11
-118.7499999999998
 21
899.58199999999999
 31
0.0
  0
TEXT
  5
50
  8
SPEC
 62
     7
 10
-109.3749999999998
 20
1573.4063225
 30
0.0
 40
18.324462890625
  1
仕様
 41
0.8
 11
-109.3749999999998
 21
1591.730785390625
 31
0.0
 73
     3
  0
LINE
  5
51
  8
SPEC
  6
CONTINUOUS
 62
     7
 10
125.0
 20
1562.9567975
 30
0.0
 11
125.0
 21
899.58199999999999
 31
0.0
  0
TEXT
  5
52
  8
SPEC
 62
     7
 10
-112.0
 20
1512.6162108333331
 30
0.0
 40
14.252360026041661
  1
出力
 41
0.8
 11
-112.0
 21
1526.868570859375
 31
0.0
 73
     3
  0
TEXT
  5
53
  8
SPEC
 62
     7
 10
-112.0
 20
1383.6162108333331
 30
0.0
 40
14.252360026041661
  1
周波数特性
 41
0.8
 11
-112.0
 21
1397.8685708593739
 31
0.0
 73
     3
  0
TEXT
  5
54
  8
SPEC
 62
     7
 10
-112.0
 20
1355.4912108333331
 30
0.0
 40
14.252360026041661
  1
SN比
 41
0.8
 11
-112.0
 21
1369.7435708593739
 31
0.0
 73
     3
  0
TEXT
  5
55
  8
SPEC
 62
     7
 10
-112.0
 20
1327.3662108333331
 30
0.0
 40
14.252360026041661
  1
THD
 41
0.8
 11
-112.0
 21
1341.6185708593739
 31
0.0
 73
     3
  0
TEXT
  5
56
  8
SPEC
 62
     7
 10
131.75
 20
1383.6162108333331
 30
0.0
 40
14.252360026041661
  1
+/-0.25dB(20Hz～20kHz,1W)
 41
0.8
 11
131.75
 21
1397.8685708593739
 31
0.0
 73
     3
  0
TEXT
  5
57
  8
SPEC
 62
     7
 10
131.75
 20
1355.4912108333331
 30
0.0
 40
14.252360026041661
  1
105dB以上(20Hz～20kHz,Aウエイト)
 41
0.8
 11
131.75
 21
1369.7435708593739
 31
0.0
 73
     3
  0
TEXT
  5
58
  8
SPEC
 62
     7
 10
131.75
 20
1327.3662108333331
 30
0.0
 40
14.252360026041661
  1
0.35%%%以下(20Hz～20kHz)
 41
0.8
 11
131.75
 21
1341.6185708593739
 31
0.0
 73
     3
  0
LINE
  5
59
  8
SPEC
  6
CONTINUOUS
 62
     7
 10
-118.7499999999998
 20
1349.5817975
 30
0.0
 11
555.0
 21
1349.5817975
 31
0.0
  0
TEXT
  5
5A
  8
SPEC
 62
     7
 10
131.75
 20
1488.6162108333331
 30
0.0
 40
14.252360026041661
  1
 　　　　　 :4000W+4000W(4Ω)
 41
0.8
 11
131.75
 21
1502.868570859375
 31
0.0
 73
     3
  0
TEXT
  5
5B
  8
SPEC
 62
     7
 10
131.75
 20
1464.6162108333331
 30
0.0
 40
14.252360026041661
  1
 　　　　　 :2100W+2100W(8Ω)
 41
0.8
 11
131.75
 21
1478.8685708593739
 31
0.0
 73
     3
  0
TEXT
  5
5C
  8
SPEC
 62
     7
 10
131.75
 20
1512.6162108333331
 30
0.0
 40
14.252360026041661
  1
ステレオ　　:3500W+3500W(2Ω)
 41
0.8
 11
131.75
 21
1526.868570859375
 31
0.0
 73
     3
  0
TEXT
  5
5D
  8
SPEC
 62
     7
 10
131.75
 20
1540.7412108333331
 30
0.0
 40
14.252360026041661
  1
I-T8000
 41
0.8
 11
131.75
 21
1554.9935708593739
 31
0.0
 73
     3
  0
TEXT
  5
5E
  8
SPEC
 62
     7
 10
131.75
 20
1440.6162108333331
 30
0.0
 40
14.252360026041661
  1
ブリッジモノ:7000W(4Ω)
 41
0.8
 11
131.75
 21
1454.8685708593739
 31
0.0
 73
     3
  0
TEXT
  5
5F
  8
SPEC
 62
     7
 10
131.75
 20
1416.6162108333331
 30
0.0
 40
14.252360026041661
  1
 　　　　　 :8000W(8Ω)
 41
0.8
 11
131.75
 21
1430.8685708593739
 31
0.0
 73
     3
  0
LINE
  5
60
  8
SPEC
  6
CONTINUOUS
 62
     7
 10
555.0
 20
1562.9567975
 30
0.0
 11
555.0
 21
899.58199999999999
 31
0.0
  0
LINE
  5
61
  8
SPEC
  6
CONTINUOUS
 62
     7
 10
-118.7499999999998
 20
1293.3320000000001
 30
0.0
 11
555.0
 21
1293.3320000000001
 31
0.0
  0
LINE
  5
62
  8
SPEC
  6
CONTINUOUS
 62
     7
 10
-118.7499999999998
 20
1152.7070000000001
 30
0.0
 11
555.0
 21
1152.7070000000001
 31
0.0
  0
LINE
  5
63
  8
SPEC
  6
CONTINUOUS
 62
     7
 10
-118.7499999999998
 20
1124.5820000000001
 30
0.0
 11
555.0
 21
1124.5820000000001
 31
0.0
  0
LINE
  5
64
  8
SPEC
  6
CONTINUOUS
 62
     7
 10
-118.7499999999998
 20
983.95699999999999
 30
0.0
 11
555.0
 21
983.95699999999999
 31
0.0
  0
LINE
  5
65
  8
SPEC
  6
CONTINUOUS
 62
     7
 10
-118.7499999999998
 20
955.83200000000011
 30
0.0
 11
555.0
 21
955.83200000000011
 31
0.0
  0
TEXT
  5
66
  8
SPEC
 62
     7
 10
-112.0
 20
1242.991413333333
 30
0.0
 40
14.252360026041661
  1
入力
 41
0.8
 11
-112.0
 21
1257.243773359374
 31
0.0
 73
     3
  0
TEXT
  5
67
  8
SPEC
 62
     7
 10
-112.0
 20
1271.116413333333
 30
0.0
 40
14.252360026041661
  1
ダンピングファクタ 
 41
0.8
 11
-112.0
 21
1285.3687733593749
 31
0.0
 73
     3
  0
TEXT
  5
68
  8
SPEC
 62
     7
 10
131.75000000000011
 20
1242.991413333333
 30
0.0
 40
14.252360026041661
  1
20kΩ(バランス)
 41
0.8
 11
131.75000000000011
 21
1257.243773359374
 31
0.0
 73
     3
  0
TEXT
  5
69
  8
SPEC
 62
     7
 10
131.75000000000011
 20
1271.116413333333
 30
0.0
 40
14.252360026041661
  1
5000以上(20Hz～100Hz)
 41
0.8
 11
131.75000000000011
 21
1285.3687733593749
 31
0.0
 73
     3
  0
TEXT
  5
6A
  8
SPEC
 62
     7
 10
-112.0
 20
1186.741413333333
 30
0.0
 40
14.252360026041661
  1
入力感度
 41
0.8
 11
-112.0
 21
1200.993773359374
 31
0.0
 73
     3
  0
TEXT
  5
6B
  8
SPEC
 62
     7
 10
-112.0
 20
1158.616413333333
 30
0.0
 40
14.252360026041661
  1
入力コネクタ 
 41
0.8
 11
-112.0
 21
1172.8687733593749
 31
0.0
 73
     3
  0
TEXT
  5
6C
  8
SPEC
 62
     7
 10
131.75000000000011
 20
1158.616413333333
 30
0.0
 40
14.252360026041661
  1
XLR(アナログ、デジタル:AES/EBU)
 41
0.8
 11
131.75000000000011
 21
1172.8687733593749
 31
0.0
 73
     3
  0
TEXT
  5
6D
  8
SPEC
 62
     7
 10
131.75000000000011
 20
1186.741413333333
 30
0.0
 40
14.252360026041661
  1
1.4V～7.75V(0.1V刻みで変更可能)
 41
0.8
 11
131.75000000000011
 21
1200.993773359374
 31
0.0
 73
     3
  0
TEXT
  5
6E
  8
SPEC
 62
     7
 10
131.75000000000011
 20
1218.991413333333
 30
0.0
 40
14.252360026041661
  1
10kΩ(アンバランス)
 41
0.8
 11
131.75000000000011
 21
1233.2437733593749
 31
0.0
 73
     3
  0
TEXT
  5
6F
  8
SPEC
 62
     7
 10
-112.0
 20
1218.991413333333
 30
0.0
 40
14.252360026041661
  1
 インピーダンス
 41
0.8
 11
-112.0
 21
1233.2437733593749
 31
0.0
 73
     3
  0
TEXT
  5
70
  8
SPEC
 62
     7
 10
-112.0
 20
1130.491413333333
 30
0.0
 40
14.252360026041661
  1
出力コネクタ 
 41
0.8
 11
-112.0
 21
1144.743773359374
 31
0.0
 73
     3
  0
TEXT
  5
71
  8
SPEC
 62
     7
 10
-112.0
 20
1074.241413333333
 30
0.0
 40
14.252360026041661
  1
インジケータ 
 41
0.8
 11
-112.0
 21
1088.493773359374
 31
0.0
 73
     3
  0
TEXT
  5
72
  8
SPEC
 62
     7
 10
131.75000000000011
 20
1130.491413333333
 30
0.0
 40
14.252360026041661
  1
4Pスピコン(NL4MLP)、バインディングポスト
 41
0.8
 11
131.75000000000011
 21
1144.743773359374
 31
0.0
 73
     3
  0
TEXT
  5
73
  8
SPEC
 62
     7
 10
131.75000000000011
 20
1074.241413333333
 30
0.0
 40
14.252360026041661
  1
Fault,Thermal,Clip,-10,-20,Signal,Ready,
 41
0.8
 11
131.75000000000011
 21
1088.493773359374
 31
0.0
 73
     3
  0
TEXT
  5
74
  8
SPEC
 62
     7
 10
-112.0
 20
961.74141333333296
 30
0.0
 40
14.252360026041661
  1
消費電力(IEC-J60065)
 41
0.8
 11
-112.0
 21
975.99377335937459
 31
0.0
 73
     3
  0
TEXT
  5
75
  8
SPEC
 62
     7
 10
-112.0
 20
989.86641333333296
 30
0.0
 40
14.252360026041661
  1
電源
 41
0.8
 11
-112.0
 21
1004.118773359374
 31
0.0
 73
     3
  0
TEXT
  5
76
  8
SPEC
 62
     7
 10
131.75000000000011
 20
961.74141333333296
 30
0.0
 40
14.252360026041661
  1
1950W
 41
0.8
 11
131.75000000000011
 21
975.99377335937459
 31
0.0
 73
     3
  0
TEXT
  5
77
  8
SPEC
 62
     7
 10
131.75000000000011
 20
989.86641333333296
 30
0.0
 40
14.252360026041661
  1
AC100V,50/60Hz
 41
0.8
 11
131.75000000000011
 21
1004.118773359374
 31
0.0
 73
     3
  0
TEXT
  5
78
  8
SPEC
 62
     7
 10
131.75000000000011
 20
1050.241413333333
 30
0.0
 40
14.252360026041661
  1
Power,Brige,Data
 41
0.8
 11
131.75000000000011
 21
1064.4937733593749
 31
0.0
 73
     3
  0
TEXT
  5
79
  8
SPEC
 62
     7
 10
-112.0
 20
933.61641333333296
 30
0.0
 40
14.252360026041661
  1
寸法
 41
0.8
 11
-112.0
 21
947.86877335937459
 31
0.0
 73
     3
  0
TEXT
  5
7A
  8
SPEC
 62
     7
 10
131.75000000000011
 20
933.61641333333296
 30
0.0
 40
14.252360026041661
  1
483(W)×89(H)×411(D)mm (マウント面から)
 41
0.8
 11
131.75000000000011
 21
947.86877335937459
 31
0.0
 73
     3
  0
TEXT
  5
7B
  8
SPEC
 62
     7
 10
-112.0
 20
905.49141333333296
 30
0.0
 40
14.252360026041661
  1
重量
 41
0.8
 11
-112.0
 21
919.74377335937459
 31
0.0
 73
     3
  0
TEXT
  5
7C
  8
SPEC
 62
     7
 10
131.75000000000011
 20
905.49141333333296
 30
0.0
 40
14.252360026041661
  1
約12.7kg
 41
0.8
 11
131.75000000000011
 21
919.74377335937459
 31
0.0
 73
     3
  0
TEXT
  5
7D
  8
SPEC
 62
     7
 10
131.75000000000011
 20
909.61641333333296
 30
0.0
 40
14.252360026041661
  1
     
 41
0.8
 11
131.75000000000011
 21
923.86877335937481
 31
0.0
 73
     3
  0
LINE
  5
7E
  8
SPEC
  6
CONTINUOUS
 62
     7
 10
-118.7499999999998
 20
1265.2070000000001
 30
0.0
 11
555.0
 21
1265.2070000000001
 31
0.0
  0
LINE
  5
7F
  8
SPEC
  6
CONTINUOUS
 62
     7
 10
-118.7499999999998
 20
1208.9570000000001
 30
0.0
 11
555.0
 21
1208.9570000000001
 31
0.0
  0
LINE
  5
80
  8
SPEC
  6
CONTINUOUS
 62
     7
 10
-118.7499999999998
 20
1180.8320000000001
 30
0.0
 11
555.0
 21
1180.8320000000001
 31
0.0
  0
LINE
  5
81
  8
SPEC
  6
CONTINUOUS
 62
     7
 10
-118.7499999999998
 20
1012.082
 30
0.0
 11
555.0
 21
1012.082
 31
0.0
  0
LINE
  5
82
  8
SPEC
  6
CONTINUOUS
 62
     7
 10
-118.7499999999998
 20
927.70700000000011
 30
0.0
 11
555.0
 21
927.70700000000011
 31
0.0
  0
LINE
  5
83
  8
SPEC
  6
CONTINUOUS
 62
     7
 10
-118.7499999999998
 20
899.58199999999999
 30
0.0
 11
555.0
 21
899.58199999999999
 31
0.0
  0
TEXT
  5
84
  8
SPEC
 62
     7
 10
-112.0
 20
1299.2412108333331
 30
0.0
 40
14.252360026041661
  1
IMD
 41
0.8
 11
-112.0
 21
1313.4935708593739
 31
0.0
 73
     3
  0
TEXT
  5
85
  8
SPEC
 62
     7
 10
131.75
 20
1299.2412108333331
 30
0.0
 40
14.252360026041661
  1
0.35%%%以下(60Hz and 7kHz at 4:1)
 41
0.8
 11
131.75
 21
1313.4935708593739
 31
0.0
 73
     3
  0
LINE
  5
86
  8
SPEC
  6
CONTINUOUS
 62
     7
 10
-118.7499999999998
 20
1321.4567975
 30
0.0
 11
555.0
 21
1321.4567975
 31
0.0
  0
TEXT
  5
87
  8
SPEC
 62
     7
 10
-112.0
 20
1017.991413333333
 30
0.0
 40
14.252360026041661
  1
AD-DA変換
 41
0.8
 11
-112.0
 21
1032.2437733593749
 31
0.0
 73
     3
  0
TEXT
  5
88
  8
SPEC
 62
     7
 10
131.75000000000011
 20
1017.991413333333
 30
0.0
 40
14.252360026041661
  1
24bit/96kHz、内部処理32bit
 41
0.8
 11
131.75000000000011
 21
1032.2437733593749
 31
0.0
 73
     3
  0
LINE
  5
89
  8
SPEC
  6
CONTINUOUS
 62
     7
 10
-118.7499999999998
 20
1040.2070000000001
 30
0.0
 11
555.0
 21
1040.2070000000001
 31
0.0
  0
LINE
  5
8A
  8
SPEC
  6
CONTINUOUS
 62
     7
 10
-118.7499999999998
 20
1096.4570000000001
 30
0.0
 11
555.0
 21
1096.4570000000001
 31
0.0
  0
TEXT
  5
8B
  8
SPEC
 62
     7
 10
-112.0
 20
1102.366413333333
 30
0.0
 40
14.252360026041661
  1
ネットワークコネクタ 
 41
0.8
 11
-112.0
 21
1116.618773359374
 31
0.0
 73
     3
  0
TEXT
  5
8C
  8
SPEC
 62
     7
 10
131.75000000000011
 20
1102.366413333333
 30
0.0
 40
14.252360026041661
  1
RJ-45
 41
0.8
 11
131.75000000000011
 21
1116.618773359374
 31
0.0
 73
     3
  0
TEXT
  5
8D
  8
SPEC
 62
     7
 10
-80.0
 20
1488.6160833333331
 30
0.0
 40
14.252360026041661
  1
(20～20kHz,THD 0.35%%%
 41
0.8
 11
-80.0
 21
1502.8684433593751
 31
0.0
 73
     3
  0
TEXT
  5
8E
  8
SPEC
 62
     7
 10
-80.0
 20
1460.8348333333331
 30
0.0
 40
14.252360026041661
  1
 瞬間出力値)
 41
0.8
 11
-80.0
 21
1475.0871933593751
 31
0.0
 73
     3
  0
TEXT
  5
8F
  8
DIMNSIONS
 62
     7
 10
350.0
 20
-220.02202750000001
 30
0.0
 40
18.324462890625
  1
(単位：mm)
 41
0.8
 11
350.0
 21
-201.69756460937501
 31
0.0
 73
     3
  0
LINE
  5
90
  8
DIMNSIONS
  6
CONTINUOUS
 62
     7
 10
7.5
 20
611.0
 30
0.0
 11
-95.0
 21
611.0
 31
0.0
  0
LINE
  5
91
  8
DIMNSIONS
  6
CONTINUOUS
 62
     7
 10
-15.0
 20
200.0
 30
0.0
 11
-95.0
 21
200.0
 31
0.0
  0
LINE
  5
92
  8
DIMNSIONS
  6
CONTINUOUS
 62
     7
 10
-80.0
 20
611.0
 30
0.0
 11
-80.0
 21
200.0
 31
0.0
  0
LINE
  5
93
  8
DIMNSIONS
  6
CONTINUOUS
 62
     7
 10
-80.0
 20
611.0
 30
0.0
 11
-74.974701536373232
 21
592.24533081054687
 31
0.0
  0
LINE
  5
94
  8
DIMNSIONS
  6
CONTINUOUS
 62
     7
 10
-80.0
 20
611.0
 30
0.0
 11
-85.025298463626754
 21
592.24533081054687
 31
0.0
  0
LINE
  5
95
  8
DIMNSIONS
  6
CONTINUOUS
 62
     7
 10
-80.0
 20
200.0
 30
0.0
 11
-85.025298463626754
 21
218.75466918945321
 31
0.0
  0
LINE
  5
96
  8
DIMNSIONS
  6
CONTINUOUS
 62
     7
 10
-80.0
 20
200.0
 30
0.0
 11
-74.974701536373232
 21
218.75466918945321
 31
0.0
  0
TEXT
  5
97
  8
DIMNSIONS
 62
     7
 10
-87.454166666666609
 20
385.65625
 30
0.0
 40
20.360514322916671
  1
411
 50
90.0
 41
0.8
 11
-107.81468098958329
 21
385.65625
 31
0.0
 73
     3
  0
LINE
  5
98
  8
DIMNSIONS
  6
CONTINUOUS
 62
     7
 10
-15.0
 20
200.0
 30
0.0
 11
-95.0
 21
200.0
 31
0.0
  0
LINE
  5
99
  8
DIMNSIONS
  6
CONTINUOUS
 62
     7
 10
-15.0
 20
195.0
 30
0.0
 11
-95.0
 21
195.0
 31
0.0
  0
LINE
  5
9A
  8
DIMNSIONS
  6
CONTINUOUS
 62
     7
 10
-80.0
 20
195.0
 30
0.0
 11
-80.0
 21
200.0
 31
0.0
  0
LINE
  5
9B
  8
DIMNSIONS
  6
CONTINUOUS
 62
     7
 10
-80.0
 20
200.0
 30
0.0
 11
-80.0
 21
237.5
 31
0.0
  0
LINE
  5
9C
  8
DIMNSIONS
  6
CONTINUOUS
 62
     7
 10
-80.0
 20
200.0
 30
0.0
 11
-85.025298463626754
 21
218.75466918945321
 31
0.0
  0
LINE
  5
9D
  8
DIMNSIONS
  6
CONTINUOUS
 62
     7
 10
-80.0
 20
200.0
 30
0.0
 11
-74.974701536373232
 21
218.75466918945321
 31
0.0
  0
LINE
  5
9E
  8
DIMNSIONS
  6
CONTINUOUS
 62
     7
 10
-80.0
 20
195.0
 30
0.0
 11
-80.0
 21
157.5
 31
0.0
  0
LINE
  5
9F
  8
DIMNSIONS
  6
CONTINUOUS
 62
     7
 10
-80.0
 20
195.0
 30
0.0
 11
-74.974701536373232
 21
176.24533081054679
 31
0.0
  0
LINE
  5
A0
  8
DIMNSIONS
  6
CONTINUOUS
 62
     7
 10
-80.0
 20
195.0
 30
0.0
 11
-85.025298463626754
 21
176.24533081054679
 31
0.0
  0
TEXT
  5
A1
  8
DIMNSIONS
 62
     7
 10
-87.454166666666723
 20
190.8854166666666
 30
0.0
 40
20.360514322916671
  1
5
 50
90.0
 41
0.8
 11
-107.81468098958339
 21
190.8854166666666
 31
0.0
 73
     3
  0
LINE
  5
A2
  8
DIMNSIONS
  6
CONTINUOUS
 62
     7
 10
-15.0
 20
200.0
 30
0.0
 11
-55.0
 21
200.0
 31
0.0
  0
LINE
  5
A3
  8
DIMNSIONS
  6
CONTINUOUS
 62
     7
 10
226.5
 20
165.0
 30
0.0
 11
-55.0
 21
165.0
 31
0.0
  0
LINE
  5
A4
  8
DIMNSIONS
  6
CONTINUOUS
 62
     7
 10
-40.0
 20
165.0
 30
0.0
 11
-40.0
 21
200.0
 31
0.0
  0
LINE
  5
A5
  8
DIMNSIONS
  6
CONTINUOUS
 62
     7
 10
-40.0
 20
200.0
 30
0.0
 11
-40.0
 21
237.5
 31
0.0
  0
LINE
  5
A6
  8
DIMNSIONS
  6
CONTINUOUS
 62
     7
 10
-40.0
 20
200.0
 30
0.0
 11
-45.025298463626768
 21
218.75466918945321
 31
0.0
  0
LINE
  5
A7
  8
DIMNSIONS
  6
CONTINUOUS
 62
     7
 10
-40.0
 20
200.0
 30
0.0
 11
-34.974701536373232
 21
218.75466918945321
 31
0.0
  0
LINE
  5
A8
  8
DIMNSIONS
  6
CONTINUOUS
 62
     7
 10
-40.0
 20
165.0
 30
0.0
 11
-40.0
 21
105.0416666666666
 31
0.0
  0
LINE
  5
A9
  8
DIMNSIONS
  6
CONTINUOUS
 62
     7
 10
-40.0
 20
165.0
 30
0.0
 11
-34.974701536373232
 21
146.24533081054679
 31
0.0
  0
LINE
  5
AA
  8
DIMNSIONS
  6
CONTINUOUS
 62
     7
 10
-40.0
 20
165.0
 30
0.0
 11
-45.025298463626768
 21
146.24533081054679
 31
0.0
  0
TEXT
  5
AB
  8
DIMNSIONS
 62
     7
 10
-47.454166666666609
 20
105.0416666666667
 30
0.0
 40
20.360514322916671
  1
35
 50
90.0
 41
0.8
 11
-67.81468098958328
 21
105.0416666666667
 31
0.0
 73
     3
  0
LINE
  5
AC
  8
DIMNSIONS
  6
CONTINUOUS
 62
     7
 10
-15.0
 20
88.0
 30
0.0
 11
-95.0
 21
88.0
 31
0.0
  0
LINE
  5
AD
  8
DIMNSIONS
  6
CONTINUOUS
 62
     7
 10
5.5
 20
-0.5
 30
0.0
 11
-95.0
 21
-0.5
 31
0.0
  0
LINE
  5
AE
  8
DIMNSIONS
  6
CONTINUOUS
 62
     7
 10
-80.0
 20
88.0
 30
0.0
 11
-80.0
 21
-0.5
 31
0.0
  0
LINE
  5
AF
  8
DIMNSIONS
  6
CONTINUOUS
 62
     7
 10
-80.0
 20
88.0
 30
0.0
 11
-74.974701536373232
 21
69.245330810546889
 31
0.0
  0
LINE
  5
B0
  8
DIMNSIONS
  6
CONTINUOUS
 62
     7
 10
-80.0
 20
88.0
 30
0.0
 11
-85.025298463626754
 21
69.245330810546889
 31
0.0
  0
LINE
  5
B1
  8
DIMNSIONS
  6
CONTINUOUS
 62
     7
 10
-80.0
 20
-0.5
 30
0.0
 11
-85.025298463626754
 21
18.254669189453121
 31
0.0
  0
LINE
  5
B2
  8
DIMNSIONS
  6
CONTINUOUS
 62
     7
 10
-80.0
 20
-0.5
 30
0.0
 11
-74.974701536373232
 21
18.254669189453121
 31
0.0
  0
TEXT
  5
B3
  8
DIMNSIONS
 62
     7
 10
-87.454166666666609
 20
30.520833333333371
 30
0.0
 40
20.360514322916671
  1
89
 50
90.0
 41
0.8
 11
-107.81468098958329
 21
30.520833333333371
 31
0.0
 73
     3
  0
LINE
  5
B4
  8
DIMNSIONS
  6
CONTINUOUS
 62
     7
 10
-7.499954999999999
 20
82.100000000000023
 30
0.0
 11
-55.0
 21
82.100000000000023
 31
0.0
  0
LINE
  5
B5
  8
DIMNSIONS
  6
CONTINUOUS
 62
     7
 10
-7.499954999999999
 20
5.8999999999999764
 30
0.0
 11
-55.0
 21
5.8999999999999764
 31
0.0
  0
LINE
  5
B6
  8
DIMNSIONS
  6
CONTINUOUS
 62
     7
 10
-40.0
 20
82.100000000000023
 30
0.0
 11
-40.0
 21
5.8999999999999764
 31
0.0
  0
LINE
  5
B7
  8
DIMNSIONS
  6
CONTINUOUS
 62
     7
 10
-40.0
 20
82.100000000000023
 30
0.0
 11
-34.974701536373232
 21
63.345330810546891
 31
0.0
  0
LINE
  5
B8
  8
DIMNSIONS
  6
CONTINUOUS
 62
     7
 10
-40.0
 20
82.100000000000023
 30
0.0
 11
-45.025298463626768
 21
63.345330810546891
 31
0.0
  0
LINE
  5
B9
  8
DIMNSIONS
  6
CONTINUOUS
 62
     7
 10
-40.0
 20
5.8999999999999764
 30
0.0
 11
-45.025298463626768
 21
24.654669189453109
 31
0.0
  0
LINE
  5
BA
  8
DIMNSIONS
  6
CONTINUOUS
 62
     7
 10
-40.0
 20
5.8999999999999764
 30
0.0
 11
-34.974701536373232
 21
24.654669189453109
 31
0.0
  0
TEXT
  5
BB
  8
DIMNSIONS
 62
     7
 10
-47.454166666666609
 20
30.770833333333371
 30
0.0
 40
20.360514322916671
  1
76
 50
90.0
 41
0.8
 11
-67.81468098958328
 21
30.770833333333378
 31
0.0
 73
     3
  0
LINE
  5
BC
  8
DIMNSIONS
  6
CONTINUOUS
 62
     7
 10
0.0
 20
-15.0
 30
0.0
 11
0.0
 21
-105.0
 31
0.0
  0
LINE
  5
BD
  8
DIMNSIONS
  6
CONTINUOUS
 62
     7
 10
483.0
 20
-15.0
 30
0.0
 11
483.0
 21
-105.0
 31
0.0
  0
LINE
  5
BE
  8
DIMNSIONS
  6
CONTINUOUS
 62
     7
 10
0.0
 20
-90.0
 30
0.0
 11
483.0
 21
-90.0
 31
0.0
  0
LINE
  5
BF
  8
DIMNSIONS
  6
CONTINUOUS
 62
     7
 10
0.0
 20
-90.0
 30
0.0
 11
18.754669189453121
 21
-84.974701536373232
 31
0.0
  0
LINE
  5
C0
  8
DIMNSIONS
  6
CONTINUOUS
 62
     7
 10
0.0
 20
-90.0
 30
0.0
 11
18.754669189453121
 21
-95.025298463626754
 31
0.0
  0
LINE
  5
C1
  8
DIMNSIONS
  6
CONTINUOUS
 62
     7
 10
483.0
 20
-90.0
 30
0.0
 11
464.24533081054682
 21
-95.025298463626754
 31
0.0
  0
LINE
  5
C2
  8
DIMNSIONS
  6
CONTINUOUS
 62
     7
 10
483.0
 20
-90.0
 30
0.0
 11
464.24533081054682
 21
-84.974701536373146
 31
0.0
  0
TEXT
  5
C3
  8
DIMNSIONS
 62
     7
 10
221.65625
 20
-82.545833333333292
 30
0.0
 40
20.360514322916671
  1
483
 41
0.8
 11
221.65625
 21
-62.185319010416613
 31
0.0
 73
     3
  0
LINE
  5
C4
  8
DIMNSIONS
  6
CONTINUOUS
 62
     7
 10
9.0
 20
-12.600000000000019
 30
0.0
 11
9.0
 21
-65.0
 31
0.0
  0
LINE
  5
C5
  8
DIMNSIONS
  6
CONTINUOUS
 62
     7
 10
474.00000000000011
 20
-12.600000000000019
 30
0.0
 11
474.00000000000011
 21
-65.0
 31
0.0
  0
LINE
  5
C6
  8
DIMNSIONS
  6
CONTINUOUS
 62
     7
 10
9.0
 20
-50.0
 30
0.0
 11
474.00000000000011
 21
-50.0
 31
0.0
  0
LINE
  5
C7
  8
DIMNSIONS
  6
CONTINUOUS
 62
     7
 10
9.0
 20
-50.0
 30
0.0
 11
27.754669189453121
 21
-44.974701536373217
 31
0.0
  0
LINE
  5
C8
  8
DIMNSIONS
  6
CONTINUOUS
 62
     7
 10
9.0
 20
-50.0
 30
0.0
 11
27.754669189453121
 21
-55.025298463626768
 31
0.0
  0
LINE
  5
C9
  8
DIMNSIONS
  6
CONTINUOUS
 62
     7
 10
474.00000000000011
 20
-50.0
 30
0.0
 11
455.24533081054682
 21
-55.025298463626768
 31
0.0
  0
LINE
  5
CA
  8
DIMNSIONS
  6
CONTINUOUS
 62
     7
 10
474.00000000000011
 20
-50.0
 30
0.0
 11
455.24533081054682
 21
-44.974701536373111
 31
0.0
  0
TEXT
  5
CB
  8
DIMNSIONS
 62
     7
 10
221.65625000000011
 20
-42.545833333333277
 30
0.0
 40
20.360514322916671
  1
465
 41
0.8
 11
221.65625000000011
 21
-22.18531901041661
 31
0.0
 73
     3
  0
LINE
  5
CC
  8
DIMNSIONS
  6
CONTINUOUS
 62
     7
 10
993.00000000000011
 20
-12.600000000000019
 30
0.0
 11
993.00000000000011
 21
-65.0
 31
0.0
  0
LINE
  5
CD
  8
DIMNSIONS
  6
CONTINUOUS
 62
     7
 10
600.0
 20
-15.0
 30
0.0
 11
600.0
 21
-65.0
 31
0.0
  0
LINE
  5
CE
  8
DIMNSIONS
  6
CONTINUOUS
 62
     7
 10
993.00000000000011
 20
-50.0
 30
0.0
 11
600.0
 21
-50.0
 31
0.0
  0
LINE
  5
CF
  8
DIMNSIONS
  6
CONTINUOUS
 62
     7
 10
993.00000000000011
 20
-50.0
 30
0.0
 11
974.24533081054722
 21
-55.025298463626768
 31
0.0
  0
LINE
  5
D0
  8
DIMNSIONS
  6
CONTINUOUS
 62
     7
 10
993.00000000000011
 20
-50.0
 30
0.0
 11
974.24533081054722
 21
-44.974701536373111
 31
0.0
  0
LINE
  5
D1
  8
DIMNSIONS
  6
CONTINUOUS
 62
     7
 10
600.0
 20
-50.0
 30
0.0
 11
618.75466918945313
 21
-44.974701536373217
 31
0.0
  0
LINE
  5
D2
  8
DIMNSIONS
  6
CONTINUOUS
 62
     7
 10
600.0
 20
-50.0
 30
0.0
 11
618.75466918945313
 21
-55.025298463626768
 31
0.0
  0
TEXT
  5
D3
  8
DIMNSIONS
 62
     7
 10
776.65625
 20
-42.545833333333277
 30
0.0
 40
20.360514322916671
  1
393
 41
0.8
 11
776.65625
 21
-22.18531901041661
 31
0.0
 73
     3
  0
LINE
  5
D4
  8
DIMNSIONS
  6
CONTINUOUS
 62
     7
 10
1019.499880000001
 20
53.5
 30
0.0
 11
1064.5
 21
53.5
 31
0.0
  0
LINE
  5
D5
  8
DIMNSIONS
  6
CONTINUOUS
 62
     7
 10
1019.499880000001
 20
34.5
 30
0.0
 11
1064.5
 21
34.5
 31
0.0
  0
LINE
  5
D6
  8
DIMNSIONS
  6
CONTINUOUS
 62
     7
 10
1049.5
 20
34.5
 30
0.0
 11
1049.5
 21
53.5
 31
0.0
  0
LINE
  5
D7
  8
DIMNSIONS
  6
CONTINUOUS
 62
     7
 10
1049.5
 20
53.5
 30
0.0
 11
1049.5
 21
133.45833333333329
 31
0.0
  0
LINE
  5
D8
  8
DIMNSIONS
  6
CONTINUOUS
 62
     7
 10
1049.5
 20
53.5
 30
0.0
 11
1044.474701536373
 21
72.254669189453125
 31
0.0
  0
LINE
  5
D9
  8
DIMNSIONS
  6
CONTINUOUS
 62
     7
 10
1049.5
 20
53.5
 30
0.0
 11
1054.525298463627
 21
72.254669189453125
 31
0.0
  0
LINE
  5
DA
  8
DIMNSIONS
  6
CONTINUOUS
 62
     7
 10
1049.5
 20
34.5
 30
0.0
 11
1049.5
 21
-3.0
 31
0.0
  0
LINE
  5
DB
  8
DIMNSIONS
  6
CONTINUOUS
 62
     7
 10
1049.5
 20
34.5
 30
0.0
 11
1054.525298463627
 21
15.74533081054687
 31
0.0
  0
LINE
  5
DC
  8
DIMNSIONS
  6
CONTINUOUS
 62
     7
 10
1049.5
 20
34.5
 30
0.0
 11
1044.474701536373
 21
15.74533081054687
 31
0.0
  0
TEXT
  5
DD
  8
DIMNSIONS
 62
     7
 10
1042.0458333333329
 20
107.0
 30
0.0
 40
20.360514322916671
  1
19
 50
90.0
 41
0.8
 11
1021.685319010416
 21
107.0
 31
0.0
 73
     3
  0
LINE
  5
DE
  8
DIMNSIONS
  6
CONTINUOUS
 62
     7
 10
1009.499955
 20
5.8999999999999764
 30
0.0
 11
1115.0
 21
5.8999999999999764
 31
0.0
  0
LINE
  5
DF
  8
DIMNSIONS
  6
CONTINUOUS
 62
     7
 10
1015.0
 20
81.5
 30
0.0
 11
1115.0
 21
81.5
 31
0.0
  0
LINE
  5
E0
  8
DIMNSIONS
  6
CONTINUOUS
 62
     7
 10
1100.0
 20
5.8999999999999764
 30
0.0
 11
1100.0
 21
81.5
 31
0.0
  0
LINE
  5
E1
  8
DIMNSIONS
  6
CONTINUOUS
 62
     7
 10
1100.0
 20
5.8999999999999764
 30
0.0
 11
1094.974701536373
 21
24.654669189453109
 31
0.0
  0
LINE
  5
E2
  8
DIMNSIONS
  6
CONTINUOUS
 62
     7
 10
1100.0
 20
5.8999999999999764
 30
0.0
 11
1105.025298463627
 21
24.654669189453109
 31
0.0
  0
LINE
  5
E3
  8
DIMNSIONS
  6
CONTINUOUS
 62
     7
 10
1100.0
 20
81.5
 30
0.0
 11
1105.025298463627
 21
62.745330810546882
 31
0.0
  0
LINE
  5
E4
  8
DIMNSIONS
  6
CONTINUOUS
 62
     7
 10
1100.0
 20
81.5
 30
0.0
 11
1094.974701536373
 21
62.745330810546882
 31
0.0
  0
TEXT
  5
E5
  8
DIMNSIONS
 62
     7
 10
1092.5458333333329
 20
30.47083333333342
 30
0.0
 40
20.360514322916671
  1
76
 50
90.0
 41
0.8
 11
1072.1853190104159
 21
30.47083333333342
 31
0.0
 73
     3
  0
LINE
  5
E6
  8
DIMNSIONS
  6
CONTINUOUS
 62
     7
 10
20.5
 20
597.0
 30
0.0
 11
20.5
 21
655.0
 31
0.0
  0
LINE
  5
E7
  8
DIMNSIONS
  6
CONTINUOUS
 62
     7
 10
462.5
 20
597.0
 30
0.0
 11
462.5
 21
655.0
 31
0.0
  0
LINE
  5
E8
  8
DIMNSIONS
  6
CONTINUOUS
 62
     7
 10
20.5
 20
640.0
 30
0.0
 11
462.5
 21
640.0
 31
0.0
  0
LINE
  5
E9
  8
DIMNSIONS
  6
CONTINUOUS
 62
     7
 10
20.5
 20
640.0
 30
0.0
 11
39.254669189453132
 21
645.02529846362665
 31
0.0
  0
LINE
  5
EA
  8
DIMNSIONS
  6
CONTINUOUS
 62
     7
 10
20.5
 20
640.0
 30
0.0
 11
39.254669189453132
 21
634.97470153637323
 31
0.0
  0
LINE
  5
EB
  8
DIMNSIONS
  6
CONTINUOUS
 62
     7
 10
462.5
 20
640.0
 30
0.0
 11
443.74533081054682
 21
634.97470153637323
 31
0.0
  0
LINE
  5
EC
  8
DIMNSIONS
  6
CONTINUOUS
 62
     7
 10
462.5
 20
640.0
 30
0.0
 11
443.74533081054682
 21
645.02529846362688
 31
0.0
  0
TEXT
  5
ED
  8
DIMNSIONS
 62
     7
 10
221.65625
 20
647.45416666666665
 30
0.0
 40
20.360514322916671
  1
442
 41
0.8
 11
221.65625
 21
667.81468098958328
 31
0.0
 73
     3
  0
TEXT
  5
EE
  8
DATA
 62
     7
 10
-99.999999999999872
 20
-280.25820249999998
 30
0.0
 40
12.21630859375
  1
仕様および外観は予告なく変更されることがありますので、ご了承ください。
 41
0.8
 11
-99.999999999999872
 21
-268.0418939062501
 31
0.0
 73
     3
  0
POLYLINE
  5
EF
  8
DATA
  6
CONTINUOUS
 62
     7
 66
     1
 10
0.0
 20
0.0
 30
0.0
 70
   129
  0
VERTEX
  5
8CA
  8
DATA
  6
CONTINUOUS
 62
     7
 10
421.25
 20
28.0
 30
0.0
 42
-0.4142135623730951
  0
VERTEX
  5
8CB
  8
DATA
  6
CONTINUOUS
 62
     7
 10
429.0
 20
35.75
 30
0.0
 42
-0.4142135623730951
  0
VERTEX
  5
8CC
  8
DATA
  6
CONTINUOUS
 62
     7
 10
436.74999999999989
 20
28.0
 30
0.0
 42
-0.4142135623730951
  0
VERTEX
  5
8CD
  8
DATA
  6
CONTINUOUS
 62
     7
 10
429.0
 20
20.25
 30
0.0
 42
-0.4142135623730951
  0
VERTEX
  5
8CE
  8
DATA
  6
CONTINUOUS
 62
     7
 10
421.25
 20
28.0
 30
0.0
  0
SEQEND
  5
8CF
  8
DATA
  6
CONTINUOUS
 62
     7
  0
TEXT
  5
F6
  8
DATA
 62
     7
 10
875.0
 20
-220.47874999999999
 30
0.0
 40
18.324462890625
  1
I-T8000
 41
0.8
 11
875.0
 21
-202.15428710937499
 31
0.0
 73
     3
  0
TEXT
  5
F7
  8
DATA
 62
     7
 10
875.0
 20
-174.18652750000001
 30
0.0
 40
18.324462890625
  1
Amcron
 41
0.8
 11
875.0
 21
-155.86206460937501
 31
0.0
 73
     3
  0
TEXT
  5
F8
  8
DATA
 62
     7
 10
399.8919447796269
 20
31.806458333333008
 30
0.0
 40
2.30859375
  1
Power
 41
0.8
 11
399.8919447796269
 21
34.115052083333012
 31
0.0
 73
     3
  0
TEXT
  5
F9
  8
DATA
 62
     7
 10
399.711944638364
 20
27.306458333333008
 30
0.0
 40
2.30859375
  1
Bridge
 41
0.8
 11
399.711944638364
 21
29.615052083333008
 31
0.0
 73
     3
  0
TEXT
  5
FA
  8
DATA
 62
     7
 10
402.0219442433837
 20
22.806458333333008
 30
0.0
 40
2.30859375
  1
Data
 41
0.8
 11
402.0219442433837
 21
25.115052083333008
 31
0.0
 73
     3
  0
TEXT
  5
FB
  8
DATA
 62
     7
 10
326.6550000558297
 20
38.894999999999989
 30
0.0
 40
2.30859375
  1
Fault
 41
0.8
 11
326.6550000558297
 21
41.203593749999982
 31
0.0
 73
     3
  0
TEXT
  5
FC
  8
DATA
 62
     7
 10
324.46499991416931
 20
34.894999999999989
 30
0.0
 40
2.30859375
  1
Thermal
 41
0.8
 11
324.46499991416931
 21
37.203593749999989
 31
0.0
 73
     3
  0
TEXT
  5
FD
  8
DATA
 62
     7
 10
327.42000002538163
 20
26.894999999999989
 30
0.0
 40
2.30859375
  1
Clip
 41
0.8
 11
327.42000002538163
 21
29.203593749999978
 31
0.0
 73
     3
  0
TEXT
  5
FE
  8
DATA
 62
     7
 10
328.06531940059648
 20
22.852049667688
 30
0.0
 40
2.30859375
  1
-10
 41
0.8
 11
328.06531940059648
 21
25.160643417688
 31
0.0
 73
     3
  0
TEXT
  5
FF
  8
DATA
 62
     7
 10
327.75000012665993
 20
18.669999999999959
 30
0.0
 40
2.30859375
  1
-20
 41
0.8
 11
327.75000012665993
 21
20.978593749999959
 31
0.0
 73
     3
  0
TEXT
  5
100
  8
DATA
 62
     7
 10
325.83000019689399
 20
14.89499999999998
 30
0.0
 40
2.30859375
  1
Signal
 41
0.8
 11
325.83000019689399
 21
17.203593749999978
 31
0.0
 73
     3
  0
TEXT
  5
101
  8
DATA
 62
     7
 10
325.66500022510689
 20
10.89499999999998
 30
0.0
 40
2.30859375
  1
Ready
 41
0.8
 11
325.66500022510689
 21
13.20359374999998
 31
0.0
 73
     3
  0
LINE
  5
102
  8
DATA
  6
CONTINUOUS
 62
     7
 10
0.0
 20
0.0
 30
0.0
 11
483.0
 21
0.0
 31
0.0
  0
LINE
  5
103
  8
DATA
  6
CONTINUOUS
 62
     7
 10
0.0
 20
0.0
 30
0.0
 11
0.0
 21
88.0
 31
0.0
  0
LINE
  5
104
  8
DATA
  6
CONTINUOUS
 62
     7
 10
0.0
 20
88.0
 30
0.0
 11
483.0
 21
88.0
 31
0.0
  0
ARC
  5
105
  8
DATA
  6
CONTINUOUS
 62
     7
 10
7.5000450000000001
 20
5.8999999999999764
 30
0.0
 40
3.5
 50
90.0
 51
270.0
  0
ARC
  5
106
  8
DATA
  6
CONTINUOUS
 62
     7
 10
10.499955
 20
5.8999999999999764
 30
0.0
 40
3.5
 50
270.0
 51
90.0
  0
LINE
  5
107
  8
DATA
  6
CONTINUOUS
 62
     7
 10
7.4999850000001498
 20
2.3999999999999768
 30
0.0
 11
10.50001499999984
 21
2.3999999999999768
 31
0.0
  0
LINE
  5
108
  8
DATA
  6
CONTINUOUS
 62
     7
 10
7.4999850000001498
 20
9.399970000000053
 30
0.0
 11
10.50001499999984
 21
9.399970000000053
 31
0.0
  0
ARC
  5
109
  8
DATA
  6
CONTINUOUS
 62
     7
 10
7.5000450000000001
 20
82.100000000000023
 30
0.0
 40
3.5
 50
90.0
 51
270.0
  0
ARC
  5
10A
  8
DATA
  6
CONTINUOUS
 62
     7
 10
10.499955
 20
82.100000000000023
 30
0.0
 40
3.5
 50
270.0
 51
90.0
  0
LINE
  5
10B
  8
DATA
  6
CONTINUOUS
 62
     7
 10
7.4999850000001498
 20
78.600000000000023
 30
0.0
 11
10.50001499999984
 21
78.600000000000023
 31
0.0
  0
LINE
  5
10C
  8
DATA
  6
CONTINUOUS
 62
     7
 10
7.4999850000001498
 20
85.599970000000084
 30
0.0
 11
10.50001499999984
 21
85.599970000000084
 31
0.0
  0
ARC
  5
10D
  8
DATA
  6
CONTINUOUS
 62
     7
 10
472.50004499999972
 20
82.100000000000023
 30
0.0
 40
3.5
 50
90.0
 51
270.0
  0
ARC
  5
10E
  8
DATA
  6
CONTINUOUS
 62
     7
 10
475.49995499999989
 20
82.100000000000023
 30
0.0
 40
3.5
 50
270.0
 51
90.0
  0
LINE
  5
10F
  8
DATA
  6
CONTINUOUS
 62
     7
 10
472.49998500000009
 20
78.600000000000023
 30
0.0
 11
475.50001500000002
 21
78.600000000000023
 31
0.0
  0
LINE
  5
110
  8
DATA
  6
CONTINUOUS
 62
     7
 10
472.49998500000009
 20
85.599970000000084
 30
0.0
 11
475.50001500000002
 21
85.599970000000084
 31
0.0
  0
LINE
  5
111
  8
DATA
  6
CONTINUOUS
 62
     7
 10
22.5
 20
0.0
 30
0.0
 11
22.5
 21
88.0
 31
0.0
  0
LINE
  5
112
  8
DATA
  6
CONTINUOUS
 62
     7
 10
16.0
 20
81.25
 30
0.0
 11
16.0
 21
88.0
 31
0.0
  0
LINE
  5
113
  8
DATA
  6
CONTINUOUS
 62
     7
 10
2.0
 20
14.75
 30
0.0
 11
2.0
 21
73.25
 31
0.0
  0
LINE
  5
114
  8
DATA
  6
CONTINUOUS
 62
     7
 10
27.5
 20
0.0
 30
0.0
 11
27.5
 21
88.0
 31
0.0
  0
LINE
  5
115
  8
DATA
  6
CONTINUOUS
 62
     7
 10
33.0
 20
70.002272820946033
 30
0.0
 11
33.0
 21
82.0
 31
0.0
  0
LINE
  5
116
  8
DATA
  6
CONTINUOUS
 62
     7
 10
33.0
 20
50.123414717698793
 30
0.0
 11
33.0
 21
61.997724592276413
 31
0.0
  0
LINE
  5
117
  8
DATA
  6
CONTINUOUS
 62
     7
 10
33.0
 20
0.0
 30
0.0
 11
33.0
 21
42.105719820769067
 31
0.0
  0
LINE
  5
118
  8
DATA
  6
CONTINUOUS
 62
     7
 10
4.0
 20
75.25
 30
0.0
 11
10.0
 21
75.25
 31
0.0
  0
LINE
  5
119
  8
DATA
  6
CONTINUOUS
 62
     7
 10
4.0
 20
12.75
 30
0.0
 11
10.0
 21
12.75
 31
0.0
  0
ARC
  5
11A
  8
DATA
  6
CONTINUOUS
 62
     7
 10
10.0
 20
81.25
 30
0.0
 40
6.0
 50
270.0
 51
0.0
  0
LINE
  5
11B
  8
DATA
  6
CONTINUOUS
 62
     7
 10
16.0
 20
6.75
 30
0.0
 11
16.0
 21
0.0
 31
0.0
  0
ARC
  5
11C
  8
DATA
  6
CONTINUOUS
 62
     7
 10
10.0
 20
6.75
 30
0.0
 40
6.0
 50
0.0
 51
90.0
  0
ARC
  5
11D
  8
DATA
  6
CONTINUOUS
 62
     7
 10
4.0
 20
73.25
 30
0.0
 40
2.0
 50
90.0
 51
180.0
  0
ARC
  5
11E
  8
DATA
  6
CONTINUOUS
 62
     7
 10
4.0
 20
14.75
 30
0.0
 40
2.0
 50
180.0
 51
270.0
  0
LINE
  5
11F
  8
DATA
  6
CONTINUOUS
 62
     7
 10
483.0
 20
0.0
 30
0.0
 11
483.0
 21
88.0
 31
0.0
  0
LINE
  5
120
  8
DATA
  6
CONTINUOUS
 62
     7
 10
460.5
 20
0.0
 30
0.0
 11
460.5
 21
88.0
 31
0.0
  0
LINE
  5
121
  8
DATA
  6
CONTINUOUS
 62
     7
 10
467.0
 20
81.25
 30
0.0
 11
467.0
 21
88.0
 31
0.0
  0
LINE
  5
122
  8
DATA
  6
CONTINUOUS
 62
     7
 10
481.0
 20
14.75
 30
0.0
 11
481.0
 21
73.25
 31
0.0
  0
LINE
  5
123
  8
DATA
  6
CONTINUOUS
 62
     7
 10
455.49999999999989
 20
0.0
 30
0.0
 11
455.49999999999989
 21
88.0
 31
0.0
  0
LINE
  5
124
  8
DATA
  6
CONTINUOUS
 62
     7
 10
450.0
 20
70.002272820946033
 30
0.0
 11
450.0
 21
82.0
 31
0.0
  0
LINE
  5
125
  8
DATA
  6
CONTINUOUS
 62
     7
 10
450.0
 20
50.123414717698793
 30
0.0
 11
450.0
 21
61.997724592276413
 31
0.0
  0
LINE
  5
126
  8
DATA
  6
CONTINUOUS
 62
     7
 10
450.0
 20
0.0
 30
0.0
 11
450.0
 21
42.105719820769067
 31
0.0
  0
LINE
  5
127
  8
DATA
  6
CONTINUOUS
 62
     7
 10
479.0
 20
75.25
 30
0.0
 11
473.0
 21
75.25
 31
0.0
  0
LINE
  5
128
  8
DATA
  6
CONTINUOUS
 62
     7
 10
479.0
 20
12.75
 30
0.0
 11
473.0
 21
12.75
 31
0.0
  0
ARC
  5
129
  8
DATA
  6
CONTINUOUS
 62
     7
 10
473.0
 20
81.25
 30
0.0
 40
6.0
 50
180.0
 51
270.0
  0
LINE
  5
12A
  8
DATA
  6
CONTINUOUS
 62
     7
 10
467.0
 20
6.75
 30
0.0
 11
467.0
 21
0.0
 31
0.0
  0
ARC
  5
12B
  8
DATA
  6
CONTINUOUS
 62
     7
 10
473.0
 20
6.75
 30
0.0
 40
6.0
 50
90.0
 51
180.0
  0
ARC
  5
12C
  8
DATA
  6
CONTINUOUS
 62
     7
 10
479.0
 20
73.25
 30
0.0
 40
2.0
 50
0.0
 51
90.0
  0
ARC
  5
12D
  8
DATA
  6
CONTINUOUS
 62
     7
 10
479.0
 20
14.75
 30
0.0
 40
2.0
 50
270.0
 51
0.0
  0
LINE
  5
12E
  8
DATA
  6
CONTINUOUS
 62
     7
 10
36.0
 20
85.0
 30
0.0
 11
447.0
 21
85.0
 31
0.0
  0
ARC
  5
12F
  8
DATA
  6
CONTINUOUS
 62
     7
 10
447.0
 20
82.0
 30
0.0
 40
3.0
 50
0.0
 51
90.0
  0
ARC
  5
130
  8
DATA
  6
CONTINUOUS
 62
     7
 10
36.0
 20
82.0
 30
0.0
 40
3.0
 50
90.0
 51
180.0
  0
ARC
  5
131
  8
DATA
  6
CONTINUOUS
 62
     7
 10
35.999999999999773
 20
70.002272820946033
 30
0.0
 40
2.9999999999997722
 50
180.0
 51
272.2289441063869
  0
ARC
  5
132
  8
DATA
  6
CONTINUOUS
 62
     7
 10
447.00000000000011
 20
70.002272820946033
 30
0.0
 40
2.9999999999998188
 50
267.7710558936144
 51
0.0
  0
ARC
  5
133
  8
DATA
  6
CONTINUOUS
 62
     7
 10
241.5
 20
-5209.78125
 30
0.0
 40
5280.78125
 50
87.771055893618524
 51
92.228944106381434
  0
ARC
  5
134
  8
DATA
  6
CONTINUOUS
 62
     7
 10
35.999999999999609
 20
61.997724592276413
 30
0.0
 40
2.999999999999706
 50
92.231479343470113
 51
180.0
  0
ARC
  5
135
  8
DATA
  6
CONTINUOUS
 62
     7
 10
35.999999999999432
 20
50.123414717698793
 30
0.0
 40
2.9999999999994311
 50
180.0
 51
274.39001740691702
  0
ARC
  5
136
  8
DATA
  6
CONTINUOUS
 62
     7
 10
36.000000000000341
 20
42.105719820769067
 30
0.0
 40
3.0000000000002811
 50
94.399869984228076
 51
180.0
  0
ARC
  5
137
  8
DATA
  6
CONTINUOUS
 62
     7
 10
447.00000000000023
 20
61.997724592276413
 30
0.0
 40
2.9999999999997149
 50
0.0
 51
87.768520656527727
  0
ARC
  5
138
  8
DATA
  6
CONTINUOUS
 62
     7
 10
241.5
 20
-5211.78125
 30
0.0
 40
5280.78125
 50
87.768520656522554
 51
92.23147934347746
  0
ARC
  5
139
  8
DATA
  6
CONTINUOUS
 62
     7
 10
447.00000000000051
 20
50.123414717698793
 30
0.0
 40
2.9999999999994151
 50
265.60998259308337
 51
0.0
  0
ARC
  5
13A
  8
DATA
  6
CONTINUOUS
 62
     7
 10
241.5
 20
-2626.6843574932209
 30
0.0
 40
2681.68435749322
 50
85.6099825930946
 51
94.390017406905415
  0
ARC
  5
13B
  8
DATA
  6
CONTINUOUS
 62
     7
 10
446.99999999999972
 20
42.105719820769067
 30
0.0
 40
3.00000000000027
 50
0.0
 51
85.600130015773289
  0
ARC
  5
13C
  8
DATA
  6
CONTINUOUS
 62
     7
 10
241.5
 20
-2628.6843574932209
 30
0.0
 40
2681.68435749322
 50
85.600130015777637
 51
94.399869984222406
  0
CIRCLE
  5
13D
  8
DATA
  6
CONTINUOUS
 62
     7
 10
429.0
 20
28.0
 30
0.0
 40
4.0000000000000204
  0
CIRCLE
  5
13E
  8
DATA
  6
CONTINUOUS
 62
     7
 10
429.0
 20
28.0
 30
0.0
 40
4.5
  0
ARC
  5
13F
  8
DATA
  6
CONTINUOUS
 62
     7
 10
411.98831459593561
 20
26.416906928881421
 30
0.0
 40
2.4831205666469658
 50
89.730368788770363
 51
110.15979210981421
  0
ARC
  5
140
  8
DATA
  6
CONTINUOUS
 62
     7
 10
411.52227756193679
 20
27.585258509100541
 30
0.0
 40
1.226227763633698
 50
108.5323576055408
 51
141.8006064841241
  0
ARC
  5
141
  8
DATA
  6
CONTINUOUS
 62
     7
 10
411.0099310951552
 20
27.997376872945331
 30
0.0
 40
0.5687828707006715
 50
142.5091533474075
 51
179.7357609557663
  0
ARC
  5
142
  8
DATA
  6
CONTINUOUS
 62
     7
 10
411.98831459593561
 20
29.583093071118579
 30
0.0
 40
2.483120566646972
 50
249.84020789018581
 51
270.26963121122958
  0
ARC
  5
143
  8
DATA
  6
CONTINUOUS
 62
     7
 10
411.52227756193679
 20
28.41474149089948
 30
0.0
 40
1.226227763633674
 50
218.19939351587669
 51
251.4676423944598
  0
ARC
  5
144
  8
DATA
  6
CONTINUOUS
 62
     7
 10
411.0099310951552
 20
28.00262312705469
 30
0.0
 40
0.5687828707007996
 50
180.26423904423359
 51
217.4908466525963
  0
ARC
  5
145
  8
DATA
  6
CONTINUOUS
 62
     7
 10
412.01168540406428
 20
26.416906928881421
 30
0.0
 40
2.483120566646972
 50
69.840207890185823
 51
90.269631211229637
  0
ARC
  5
146
  8
DATA
  6
CONTINUOUS
 62
     7
 10
412.47772243806321
 20
27.585258509100541
 30
0.0
 40
1.226227763633674
 50
38.199393515876693
 51
71.46764239445983
  0
ARC
  5
147
  8
DATA
  6
CONTINUOUS
 62
     7
 10
412.99006890484469
 20
27.997376872945331
 30
0.0
 40
0.5687828707007996
 50
0.2642390442335958
 51
37.490846652596296
  0
ARC
  5
148
  8
DATA
  6
CONTINUOUS
 62
     7
 10
412.01168540406428
 20
29.583093071118579
 30
0.0
 40
2.4831205666469658
 50
269.73036878877042
 51
290.15979210981419
  0
ARC
  5
149
  8
DATA
  6
CONTINUOUS
 62
     7
 10
412.47772243806321
 20
28.41474149089948
 30
0.0
 40
1.226227763633698
 50
288.53235760554082
 51
321.80060648412422
  0
ARC
  5
14A
  8
DATA
  6
CONTINUOUS
 62
     7
 10
412.99006890484469
 20
28.00262312705469
 30
0.0
 40
0.5687828707006715
 50
322.50915334740762
 51
359.7357609557663
  0
ARC
  5
14B
  8
DATA
  6
CONTINUOUS
 62
     7
 10
411.98831459593561
 20
21.916906928881421
 30
0.0
 40
2.4831205666469658
 50
89.730368788770363
 51
110.15979210981421
  0
ARC
  5
14C
  8
DATA
  6
CONTINUOUS
 62
     7
 10
411.52227756193679
 20
23.08525850910053
 30
0.0
 40
1.226227763633698
 50
108.5323576055408
 51
141.8006064841241
  0
ARC
  5
14D
  8
DATA
  6
CONTINUOUS
 62
     7
 10
411.0099310951552
 20
23.497376872945331
 30
0.0
 40
0.5687828707006715
 50
142.5091533474075
 51
179.7357609557663
  0
ARC
  5
14E
  8
DATA
  6
CONTINUOUS
 62
     7
 10
411.98831459593561
 20
25.083093071118579
 30
0.0
 40
2.483120566646972
 50
249.84020789018581
 51
270.26963121122958
  0
ARC
  5
14F
  8
DATA
  6
CONTINUOUS
 62
     7
 10
411.52227756193679
 20
23.91474149089948
 30
0.0
 40
1.226227763633674
 50
218.19939351587669
 51
251.4676423944598
  0
ARC
  5
150
  8
DATA
  6
CONTINUOUS
 62
     7
 10
411.0099310951552
 20
23.502623127054679
 30
0.0
 40
0.5687828707007996
 50
180.26423904423359
 51
217.4908466525963
  0
ARC
  5
151
  8
DATA
  6
CONTINUOUS
 62
     7
 10
412.01168540406428
 20
21.916906928881421
 30
0.0
 40
2.483120566646972
 50
69.840207890185823
 51
90.269631211229637
  0
ARC
  5
152
  8
DATA
  6
CONTINUOUS
 62
     7
 10
412.47772243806321
 20
23.08525850910053
 30
0.0
 40
1.226227763633674
 50
38.199393515876693
 51
71.46764239445983
  0
ARC
  5
153
  8
DATA
  6
CONTINUOUS
 62
     7
 10
412.99006890484469
 20
23.497376872945331
 30
0.0
 40
0.5687828707007996
 50
0.2642390442335958
 51
37.490846652596296
  0
ARC
  5
154
  8
DATA
  6
CONTINUOUS
 62
     7
 10
412.01168540406428
 20
25.083093071118579
 30
0.0
 40
2.4831205666469658
 50
269.73036878877042
 51
290.15979210981419
  0
ARC
  5
155
  8
DATA
  6
CONTINUOUS
 62
     7
 10
412.47772243806321
 20
23.91474149089948
 30
0.0
 40
1.226227763633698
 50
288.53235760554082
 51
321.80060648412422
  0
ARC
  5
156
  8
DATA
  6
CONTINUOUS
 62
     7
 10
412.99006890484469
 20
23.502623127054679
 30
0.0
 40
0.5687828707006715
 50
322.50915334740762
 51
359.7357609557663
  0
ARC
  5
157
  8
DATA
  6
CONTINUOUS
 62
     7
 10
411.98831459593561
 20
30.916906928881421
 30
0.0
 40
2.4831205666469658
 50
89.730368788770363
 51
110.15979210981421
  0
ARC
  5
158
  8
DATA
  6
CONTINUOUS
 62
     7
 10
411.52227756193679
 20
32.085258509100527
 30
0.0
 40
1.226227763633698
 50
108.5323576055408
 51
141.8006064841241
  0
ARC
  5
159
  8
DATA
  6
CONTINUOUS
 62
     7
 10
411.0099310951552
 20
32.497376872945317
 30
0.0
 40
0.5687828707006715
 50
142.5091533474075
 51
179.7357609557663
  0
ARC
  5
15A
  8
DATA
  6
CONTINUOUS
 62
     7
 10
411.98831459593561
 20
34.08309307111859
 30
0.0
 40
2.483120566646972
 50
249.84020789018581
 51
270.26963121122958
  0
ARC
  5
15B
  8
DATA
  6
CONTINUOUS
 62
     7
 10
411.52227756193679
 20
32.91474149089948
 30
0.0
 40
1.226227763633674
 50
218.19939351587669
 51
251.4676423944598
  0
ARC
  5
15C
  8
DATA
  6
CONTINUOUS
 62
     7
 10
411.0099310951552
 20
32.502623127054683
 30
0.0
 40
0.5687828707007996
 50
180.26423904423359
 51
217.4908466525963
  0
ARC
  5
15D
  8
DATA
  6
CONTINUOUS
 62
     7
 10
412.01168540406428
 20
30.916906928881421
 30
0.0
 40
2.483120566646972
 50
69.840207890185823
 51
90.269631211229637
  0
ARC
  5
15E
  8
DATA
  6
CONTINUOUS
 62
     7
 10
412.47772243806321
 20
32.085258509100527
 30
0.0
 40
1.226227763633674
 50
38.199393515876693
 51
71.46764239445983
  0
ARC
  5
15F
  8
DATA
  6
CONTINUOUS
 62
     7
 10
412.99006890484469
 20
32.497376872945317
 30
0.0
 40
0.5687828707007996
 50
0.2642390442335958
 51
37.490846652596296
  0
ARC
  5
160
  8
DATA
  6
CONTINUOUS
 62
     7
 10
412.01168540406428
 20
34.08309307111859
 30
0.0
 40
2.4831205666469658
 50
269.73036878877042
 51
290.15979210981419
  0
ARC
  5
161
  8
DATA
  6
CONTINUOUS
 62
     7
 10
412.47772243806321
 20
32.91474149089948
 30
0.0
 40
1.226227763633698
 50
288.53235760554082
 51
321.80060648412422
  0
ARC
  5
162
  8
DATA
  6
CONTINUOUS
 62
     7
 10
412.99006890484469
 20
32.502623127054683
 30
0.0
 40
0.5687828707006715
 50
322.50915334740762
 51
359.7357609557663
  0
ARC
  5
163
  8
DATA
  6
CONTINUOUS
 62
     7
 10
320.98831459593561
 20
10.166906928881421
 30
0.0
 40
2.4831205666469658
 50
89.730368788770363
 51
110.15979210981421
  0
ARC
  5
164
  8
DATA
  6
CONTINUOUS
 62
     7
 10
320.52227756193679
 20
11.33525850910053
 30
0.0
 40
1.226227763633698
 50
108.5323576055408
 51
141.8006064841241
  0
ARC
  5
165
  8
DATA
  6
CONTINUOUS
 62
     7
 10
320.00993109515531
 20
11.747376872945321
 30
0.0
 40
0.5687828707006715
 50
142.5091533474075
 51
179.7357609557663
  0
ARC
  5
166
  8
DATA
  6
CONTINUOUS
 62
     7
 10
320.98831459593561
 20
13.333093071118579
 30
0.0
 40
2.483120566646972
 50
249.84020789018581
 51
270.26963121122958
  0
ARC
  5
167
  8
DATA
  6
CONTINUOUS
 62
     7
 10
320.52227756193679
 20
12.16474149089947
 30
0.0
 40
1.226227763633674
 50
218.19939351587669
 51
251.4676423944592
  0
ARC
  5
168
  8
DATA
  6
CONTINUOUS
 62
     7
 10
320.00993109515531
 20
11.752623127054671
 30
0.0
 40
0.5687828707007996
 50
180.26423904423359
 51
217.4908466525963
  0
ARC
  5
169
  8
DATA
  6
CONTINUOUS
 62
     7
 10
321.01168540406439
 20
10.166906928881421
 30
0.0
 40
2.483120566646972
 50
69.840207890185823
 51
90.269631211229637
  0
ARC
  5
16A
  8
DATA
  6
CONTINUOUS
 62
     7
 10
321.47772243806321
 20
11.33525850910053
 30
0.0
 40
1.226227763633674
 50
38.199393515876693
 51
71.467642394459205
  0
ARC
  5
16B
  8
DATA
  6
CONTINUOUS
 62
     7
 10
321.9900689048448
 20
11.747376872945321
 30
0.0
 40
0.5687828707007996
 50
0.2642390442335958
 51
37.490846652596296
  0
ARC
  5
16C
  8
DATA
  6
CONTINUOUS
 62
     7
 10
321.01168540406439
 20
13.333093071118579
 30
0.0
 40
2.4831205666469658
 50
269.73036878877042
 51
290.15979210981419
  0
ARC
  5
16D
  8
DATA
  6
CONTINUOUS
 62
     7
 10
321.47772243806321
 20
12.16474149089947
 30
0.0
 40
1.226227763633698
 50
288.53235760554082
 51
321.80060648412422
  0
ARC
  5
16E
  8
DATA
  6
CONTINUOUS
 62
     7
 10
321.9900689048448
 20
11.752623127054671
 30
0.0
 40
0.5687828707006715
 50
322.50915334740762
 51
359.7357609557663
  0
ARC
  5
16F
  8
DATA
  6
CONTINUOUS
 62
     7
 10
320.98831459593561
 20
14.16690692888141
 30
0.0
 40
2.4831205666469658
 50
89.730368788770363
 51
110.15979210981421
  0
ARC
  5
170
  8
DATA
  6
CONTINUOUS
 62
     7
 10
320.52227756193679
 20
15.33525850910053
 30
0.0
 40
1.226227763633698
 50
108.5323576055408
 51
141.8006064841241
  0
ARC
  5
171
  8
DATA
  6
CONTINUOUS
 62
     7
 10
320.00993109515531
 20
15.747376872945321
 30
0.0
 40
0.5687828707006715
 50
142.5091533474075
 51
179.7357609557663
  0
ARC
  5
172
  8
DATA
  6
CONTINUOUS
 62
     7
 10
320.98831459593561
 20
17.333093071118579
 30
0.0
 40
2.483120566646972
 50
249.84020789018581
 51
270.26963121122958
  0
ARC
  5
173
  8
DATA
  6
CONTINUOUS
 62
     7
 10
320.52227756193679
 20
16.16474149089947
 30
0.0
 40
1.226227763633674
 50
218.19939351587669
 51
251.4676423944592
  0
ARC
  5
174
  8
DATA
  6
CONTINUOUS
 62
     7
 10
320.00993109515531
 20
15.752623127054671
 30
0.0
 40
0.5687828707007996
 50
180.26423904423359
 51
217.4908466525963
  0
ARC
  5
175
  8
DATA
  6
CONTINUOUS
 62
     7
 10
321.01168540406439
 20
14.16690692888141
 30
0.0
 40
2.483120566646972
 50
69.840207890185823
 51
90.269631211229637
  0
ARC
  5
176
  8
DATA
  6
CONTINUOUS
 62
     7
 10
321.47772243806321
 20
15.33525850910053
 30
0.0
 40
1.226227763633674
 50
38.199393515876693
 51
71.467642394459205
  0
ARC
  5
177
  8
DATA
  6
CONTINUOUS
 62
     7
 10
321.9900689048448
 20
15.747376872945321
 30
0.0
 40
0.5687828707007996
 50
0.2642390442335958
 51
37.490846652596296
  0
ARC
  5
178
  8
DATA
  6
CONTINUOUS
 62
     7
 10
321.01168540406439
 20
17.333093071118579
 30
0.0
 40
2.4831205666469658
 50
269.73036878877042
 51
290.15979210981419
  0
ARC
  5
179
  8
DATA
  6
CONTINUOUS
 62
     7
 10
321.47772243806321
 20
16.16474149089947
 30
0.0
 40
1.226227763633698
 50
288.53235760554082
 51
321.80060648412422
  0
ARC
  5
17A
  8
DATA
  6
CONTINUOUS
 62
     7
 10
321.9900689048448
 20
15.752623127054671
 30
0.0
 40
0.5687828707006715
 50
322.50915334740762
 51
359.7357609557663
  0
ARC
  5
17B
  8
DATA
  6
CONTINUOUS
 62
     7
 10
320.98831459593561
 20
18.16690692888141
 30
0.0
 40
2.4831205666469658
 50
89.730368788770363
 51
110.15979210981421
  0
ARC
  5
17C
  8
DATA
  6
CONTINUOUS
 62
     7
 10
320.52227756193679
 20
19.33525850910053
 30
0.0
 40
1.226227763633698
 50
108.5323576055408
 51
141.8006064841241
  0
ARC
  5
17D
  8
DATA
  6
CONTINUOUS
 62
     7
 10
320.00993109515531
 20
19.747376872945321
 30
0.0
 40
0.5687828707006715
 50
142.5091533474075
 51
179.7357609557663
  0
ARC
  5
17E
  8
DATA
  6
CONTINUOUS
 62
     7
 10
320.98831459593561
 20
21.33309307111859
 30
0.0
 40
2.483120566646972
 50
249.84020789018581
 51
270.26963121122958
  0
ARC
  5
17F
  8
DATA
  6
CONTINUOUS
 62
     7
 10
320.52227756193679
 20
20.16474149089948
 30
0.0
 40
1.226227763633674
 50
218.19939351587669
 51
251.4676423944592
  0
ARC
  5
180
  8
DATA
  6
CONTINUOUS
 62
     7
 10
320.00993109515531
 20
19.752623127054679
 30
0.0
 40
0.5687828707007996
 50
180.26423904423359
 51
217.4908466525963
  0
ARC
  5
181
  8
DATA
  6
CONTINUOUS
 62
     7
 10
321.01168540406439
 20
18.16690692888141
 30
0.0
 40
2.483120566646972
 50
69.840207890185823
 51
90.269631211229637
  0
ARC
  5
182
  8
DATA
  6
CONTINUOUS
 62
     7
 10
321.47772243806321
 20
19.33525850910053
 30
0.0
 40
1.226227763633674
 50
38.199393515876693
 51
71.467642394459205
  0
ARC
  5
183
  8
DATA
  6
CONTINUOUS
 62
     7
 10
321.9900689048448
 20
19.747376872945321
 30
0.0
 40
0.5687828707007996
 50
0.2642390442335958
 51
37.490846652596296
  0
ARC
  5
184
  8
DATA
  6
CONTINUOUS
 62
     7
 10
321.01168540406439
 20
21.33309307111859
 30
0.0
 40
2.4831205666469658
 50
269.73036878877042
 51
290.15979210981419
  0
ARC
  5
185
  8
DATA
  6
CONTINUOUS
 62
     7
 10
321.47772243806321
 20
20.16474149089948
 30
0.0
 40
1.226227763633698
 50
288.53235760554082
 51
321.80060648412422
  0
ARC
  5
186
  8
DATA
  6
CONTINUOUS
 62
     7
 10
321.9900689048448
 20
19.752623127054679
 30
0.0
 40
0.5687828707006715
 50
322.50915334740762
 51
359.7357609557663
  0
ARC
  5
187
  8
DATA
  6
CONTINUOUS
 62
     7
 10
320.98831459593561
 20
22.166906928881421
 30
0.0
 40
2.4831205666469658
 50
89.730368788770363
 51
110.15979210981421
  0
ARC
  5
188
  8
DATA
  6
CONTINUOUS
 62
     7
 10
320.52227756193679
 20
23.33525850910053
 30
0.0
 40
1.226227763633698
 50
108.5323576055408
 51
141.8006064841241
  0
ARC
  5
189
  8
DATA
  6
CONTINUOUS
 62
     7
 10
320.00993109515531
 20
23.747376872945321
 30
0.0
 40
0.5687828707006715
 50
142.5091533474075
 51
179.7357609557663
  0
ARC
  5
18A
  8
DATA
  6
CONTINUOUS
 62
     7
 10
320.98831459593561
 20
25.33309307111859
 30
0.0
 40
2.483120566646972
 50
249.84020789018581
 51
270.26963121122958
  0
ARC
  5
18B
  8
DATA
  6
CONTINUOUS
 62
     7
 10
320.52227756193679
 20
24.16474149089948
 30
0.0
 40
1.226227763633674
 50
218.19939351587669
 51
251.4676423944592
  0
ARC
  5
18C
  8
DATA
  6
CONTINUOUS
 62
     7
 10
320.00993109515531
 20
23.752623127054679
 30
0.0
 40
0.5687828707007996
 50
180.26423904423359
 51
217.4908466525963
  0
ARC
  5
18D
  8
DATA
  6
CONTINUOUS
 62
     7
 10
321.01168540406439
 20
22.166906928881421
 30
0.0
 40
2.483120566646972
 50
69.840207890185823
 51
90.269631211229637
  0
ARC
  5
18E
  8
DATA
  6
CONTINUOUS
 62
     7
 10
321.47772243806321
 20
23.33525850910053
 30
0.0
 40
1.226227763633674
 50
38.199393515876693
 51
71.467642394459205
  0
ARC
  5
18F
  8
DATA
  6
CONTINUOUS
 62
     7
 10
321.9900689048448
 20
23.747376872945321
 30
0.0
 40
0.5687828707007996
 50
0.2642390442335958
 51
37.490846652596296
  0
ARC
  5
190
  8
DATA
  6
CONTINUOUS
 62
     7
 10
321.01168540406439
 20
25.33309307111859
 30
0.0
 40
2.4831205666469658
 50
269.73036878877042
 51
290.15979210981419
  0
ARC
  5
191
  8
DATA
  6
CONTINUOUS
 62
     7
 10
321.47772243806321
 20
24.16474149089948
 30
0.0
 40
1.226227763633698
 50
288.53235760554082
 51
321.80060648412422
  0
ARC
  5
192
  8
DATA
  6
CONTINUOUS
 62
     7
 10
321.9900689048448
 20
23.752623127054679
 30
0.0
 40
0.5687828707006715
 50
322.50915334740762
 51
359.7357609557663
  0
ARC
  5
193
  8
DATA
  6
CONTINUOUS
 62
     7
 10
320.98831459593561
 20
26.166906928881421
 30
0.0
 40
2.4831205666469658
 50
89.730368788770363
 51
110.15979210981421
  0
ARC
  5
194
  8
DATA
  6
CONTINUOUS
 62
     7
 10
320.52227756193679
 20
27.335258509100541
 30
0.0
 40
1.226227763633698
 50
108.5323576055408
 51
141.8006064841241
  0
ARC
  5
195
  8
DATA
  6
CONTINUOUS
 62
     7
 10
320.00993109515531
 20
27.747376872945321
 30
0.0
 40
0.5687828707006715
 50
142.5091533474075
 51
179.7357609557663
  0
ARC
  5
196
  8
DATA
  6
CONTINUOUS
 62
     7
 10
320.98831459593561
 20
29.333093071118579
 30
0.0
 40
2.483120566646972
 50
249.84020789018581
 51
270.26963121122958
  0
ARC
  5
197
  8
DATA
  6
CONTINUOUS
 62
     7
 10
320.52227756193679
 20
28.16474149089948
 30
0.0
 40
1.226227763633674
 50
218.19939351587669
 51
251.4676423944592
  0
ARC
  5
198
  8
DATA
  6
CONTINUOUS
 62
     7
 10
320.00993109515531
 20
27.752623127054679
 30
0.0
 40
0.5687828707007996
 50
180.26423904423359
 51
217.4908466525963
  0
ARC
  5
199
  8
DATA
  6
CONTINUOUS
 62
     7
 10
321.01168540406439
 20
26.166906928881421
 30
0.0
 40
2.483120566646972
 50
69.840207890185823
 51
90.269631211229637
  0
ARC
  5
19A
  8
DATA
  6
CONTINUOUS
 62
     7
 10
321.47772243806321
 20
27.335258509100541
 30
0.0
 40
1.226227763633674
 50
38.199393515876693
 51
71.467642394459205
  0
ARC
  5
19B
  8
DATA
  6
CONTINUOUS
 62
     7
 10
321.9900689048448
 20
27.747376872945321
 30
0.0
 40
0.5687828707007996
 50
0.2642390442335958
 51
37.490846652596296
  0
ARC
  5
19C
  8
DATA
  6
CONTINUOUS
 62
     7
 10
321.01168540406439
 20
29.333093071118579
 30
0.0
 40
2.4831205666469658
 50
269.73036878877042
 51
290.15979210981419
  0
ARC
  5
19D
  8
DATA
  6
CONTINUOUS
 62
     7
 10
321.47772243806321
 20
28.16474149089948
 30
0.0
 40
1.226227763633698
 50
288.53235760554082
 51
321.80060648412422
  0
ARC
  5
19E
  8
DATA
  6
CONTINUOUS
 62
     7
 10
321.9900689048448
 20
27.752623127054679
 30
0.0
 40
0.5687828707006715
 50
322.50915334740762
 51
359.7357609557663
  0
ARC
  5
19F
  8
DATA
  6
CONTINUOUS
 62
     7
 10
320.98831459593561
 20
34.166906928881417
 30
0.0
 40
2.4831205666469658
 50
89.730368788770363
 51
110.15979210981421
  0
ARC
  5
1A0
  8
DATA
  6
CONTINUOUS
 62
     7
 10
320.52227756193679
 20
35.335258509100541
 30
0.0
 40
1.226227763633698
 50
108.5323576055408
 51
141.8006064841241
  0
ARC
  5
1A1
  8
DATA
  6
CONTINUOUS
 62
     7
 10
320.00993109515531
 20
35.747376872945331
 30
0.0
 40
0.5687828707006715
 50
142.5091533474075
 51
179.7357609557663
  0
ARC
  5
1A2
  8
DATA
  6
CONTINUOUS
 62
     7
 10
320.98831459593561
 20
37.333093071118583
 30
0.0
 40
2.483120566646972
 50
249.84020789018581
 51
270.26963121122958
  0
ARC
  5
1A3
  8
DATA
  6
CONTINUOUS
 62
     7
 10
320.52227756193679
 20
36.164741490899473
 30
0.0
 40
1.226227763633674
 50
218.19939351587669
 51
251.4676423944592
  0
ARC
  5
1A4
  8
DATA
  6
CONTINUOUS
 62
     7
 10
320.00993109515531
 20
35.75262312705469
 30
0.0
 40
0.5687828707007996
 50
180.26423904423359
 51
217.4908466525963
  0
ARC
  5
1A5
  8
DATA
  6
CONTINUOUS
 62
     7
 10
321.01168540406439
 20
34.166906928881417
 30
0.0
 40
2.483120566646972
 50
69.840207890185823
 51
90.269631211229637
  0
ARC
  5
1A6
  8
DATA
  6
CONTINUOUS
 62
     7
 10
321.47772243806321
 20
35.335258509100541
 30
0.0
 40
1.226227763633674
 50
38.199393515876693
 51
71.467642394459205
  0
ARC
  5
1A7
  8
DATA
  6
CONTINUOUS
 62
     7
 10
321.9900689048448
 20
35.747376872945331
 30
0.0
 40
0.5687828707007996
 50
0.2642390442335958
 51
37.490846652596296
  0
ARC
  5
1A8
  8
DATA
  6
CONTINUOUS
 62
     7
 10
321.01168540406439
 20
37.333093071118583
 30
0.0
 40
2.4831205666469658
 50
269.73036878877042
 51
290.15979210981419
  0
ARC
  5
1A9
  8
DATA
  6
CONTINUOUS
 62
     7
 10
321.47772243806321
 20
36.164741490899473
 30
0.0
 40
1.226227763633698
 50
288.53235760554082
 51
321.80060648412422
  0
ARC
  5
1AA
  8
DATA
  6
CONTINUOUS
 62
     7
 10
321.9900689048448
 20
35.75262312705469
 30
0.0
 40
0.5687828707006715
 50
322.50915334740762
 51
359.7357609557663
  0
ARC
  5
1AB
  8
DATA
  6
CONTINUOUS
 62
     7
 10
320.98831459593561
 20
38.166906928881417
 30
0.0
 40
2.4831205666469658
 50
89.730368788770363
 51
110.15979210981421
  0
ARC
  5
1AC
  8
DATA
  6
CONTINUOUS
 62
     7
 10
320.52227756193679
 20
39.335258509100527
 30
0.0
 40
1.226227763633698
 50
108.5323576055408
 51
141.8006064841241
  0
ARC
  5
1AD
  8
DATA
  6
CONTINUOUS
 62
     7
 10
320.00993109515531
 20
39.747376872945331
 30
0.0
 40
0.5687828707006715
 50
142.5091533474075
 51
179.7357609557663
  0
ARC
  5
1AE
  8
DATA
  6
CONTINUOUS
 62
     7
 10
320.98831459593561
 20
41.333093071118569
 30
0.0
 40
2.483120566646972
 50
249.84020789018581
 51
270.26963121122958
  0
ARC
  5
1AF
  8
DATA
  6
CONTINUOUS
 62
     7
 10
320.52227756193679
 20
40.164741490899473
 30
0.0
 40
1.226227763633674
 50
218.19939351587669
 51
251.4676423944592
  0
ARC
  5
1B0
  8
DATA
  6
CONTINUOUS
 62
     7
 10
320.00993109515531
 20
39.75262312705469
 30
0.0
 40
0.5687828707007996
 50
180.26423904423359
 51
217.4908466525963
  0
ARC
  5
1B1
  8
DATA
  6
CONTINUOUS
 62
     7
 10
321.01168540406439
 20
38.166906928881417
 30
0.0
 40
2.483120566646972
 50
69.840207890185823
 51
90.269631211229637
  0
ARC
  5
1B2
  8
DATA
  6
CONTINUOUS
 62
     7
 10
321.47772243806321
 20
39.335258509100527
 30
0.0
 40
1.226227763633674
 50
38.199393515876693
 51
71.467642394459205
  0
ARC
  5
1B3
  8
DATA
  6
CONTINUOUS
 62
     7
 10
321.9900689048448
 20
39.747376872945331
 30
0.0
 40
0.5687828707007996
 50
0.2642390442335958
 51
37.490846652596296
  0
ARC
  5
1B4
  8
DATA
  6
CONTINUOUS
 62
     7
 10
321.01168540406439
 20
41.333093071118569
 30
0.0
 40
2.4831205666469658
 50
269.73036878877042
 51
290.15979210981419
  0
ARC
  5
1B5
  8
DATA
  6
CONTINUOUS
 62
     7
 10
321.47772243806321
 20
40.164741490899473
 30
0.0
 40
1.226227763633698
 50
288.53235760554082
 51
321.80060648412422
  0
ARC
  5
1B6
  8
DATA
  6
CONTINUOUS
 62
     7
 10
321.9900689048448
 20
39.75262312705469
 30
0.0
 40
0.5687828707006715
 50
322.50915334740762
 51
359.7357609557663
  0
LINE
  5
1B7
  8
DATA
  6
CONTINUOUS
 62
     7
 10
211.0
 20
20.0
 30
0.0
 11
272.0
 21
20.0
 31
0.0
  0
LINE
  5
1B8
  8
DATA
  6
CONTINUOUS
 62
     7
 10
211.0
 20
20.0
 30
0.0
 11
211.0
 21
43.0
 31
0.0
  0
LINE
  5
1B9
  8
DATA
  6
CONTINUOUS
 62
     7
 10
211.0
 20
43.0
 30
0.0
 11
272.0
 21
43.0
 31
0.0
  0
LINE
  5
1BA
  8
DATA
  6
CONTINUOUS
 62
     7
 10
272.0
 20
20.0
 30
0.0
 11
272.0
 21
43.0
 31
0.0
  0
LINE
  5
1BB
  8
DATA
  6
CONTINUOUS
 62
     7
 10
191.5
 20
2.0
 30
0.0
 11
291.5
 21
2.0
 31
0.0
  0
LINE
  5
1BC
  8
DATA
  6
CONTINUOUS
 62
     7
 10
191.5
 20
46.0
 30
0.0
 11
291.5
 21
46.0
 31
0.0
  0
LINE
  5
1BD
  8
DATA
  6
CONTINUOUS
 62
     7
 10
291.5
 20
46.0
 30
0.0
 11
291.5
 21
37.649110640673491
 31
0.0
  0
LINE
  5
1BE
  8
DATA
  6
CONTINUOUS
 62
     7
 10
291.5
 20
12.35088935932651
 30
0.0
 11
291.5
 21
2.0
 31
0.0
  0
CIRCLE
  5
1BF
  8
DATA
  6
CONTINUOUS
 62
     7
 10
297.5
 20
25.0
 30
0.0
 40
11.0
  0
ARC
  5
1C0
  8
DATA
  6
CONTINUOUS
 62
     7
 10
297.49999999999989
 20
25.0
 30
0.0
 40
14.00000000000006
 50
115.376933525152
 51
244.623066474848
  0
CIRCLE
  5
1C1
  8
DATA
  6
CONTINUOUS
 62
     7
 10
297.49999999999989
 20
25.0
 30
0.0
 40
10.5
  0
CIRCLE
  5
1C2
  8
DATA
  6
CONTINUOUS
 62
     7
 10
185.5
 20
25.0
 30
0.0
 40
11.0
  0
CIRCLE
  5
1C3
  8
DATA
  6
CONTINUOUS
 62
     7
 10
185.50000000000011
 20
25.0
 30
0.0
 40
10.5
  0
LINE
  5
1C4
  8
DATA
  6
CONTINUOUS
 62
     7
 10
191.5
 20
46.0
 30
0.0
 11
191.5
 21
37.649110640673491
 31
0.0
  0
LINE
  5
1C5
  8
DATA
  6
CONTINUOUS
 62
     7
 10
191.5
 20
12.35088935932651
 30
0.0
 11
191.5
 21
2.0
 31
0.0
  0
ARC
  5
1C6
  8
DATA
  6
CONTINUOUS
 62
     7
 10
185.50000000000011
 20
25.0
 30
0.0
 40
14.000000000000041
 50
295.37693352515191
 51
64.623066474848059
  0
TEXT
  5
1C7
  8
DATA
 62
     7
 10
149.6550000558297
 20
38.894999999999989
 30
0.0
 40
2.30859375
  1
Fault
 41
0.8
 11
149.6550000558297
 21
41.203593749999982
 31
0.0
 73
     3
  0
TEXT
  5
1C8
  8
DATA
 62
     7
 10
147.46499991416931
 20
34.894999999999989
 30
0.0
 40
2.30859375
  1
Thermal
 41
0.8
 11
147.46499991416931
 21
37.203593749999989
 31
0.0
 73
     3
  0
TEXT
  5
1C9
  8
DATA
 62
     7
 10
150.4200000253816
 20
26.894999999999989
 30
0.0
 40
2.30859375
  1
Clip
 41
0.8
 11
150.4200000253816
 21
29.203593749999978
 31
0.0
 73
     3
  0
TEXT
  5
1CA
  8
DATA
 62
     7
 10
151.06531940059651
 20
22.852049667688
 30
0.0
 40
2.30859375
  1
-10
 41
0.8
 11
151.06531940059651
 21
25.160643417688
 31
0.0
 73
     3
  0
TEXT
  5
1CB
  8
DATA
 62
     7
 10
150.75000012665981
 20
18.669999999999959
 30
0.0
 40
2.30859375
  1
-20
 41
0.8
 11
150.75000012665981
 21
20.978593749999959
 31
0.0
 73
     3
  0
TEXT
  5
1CC
  8
DATA
 62
     7
 10
148.83000019689399
 20
14.89499999999998
 30
0.0
 40
2.30859375
  1
Signal
 41
0.8
 11
148.83000019689399
 21
17.203593749999978
 31
0.0
 73
     3
  0
TEXT
  5
1CD
  8
DATA
 62
     7
 10
148.66500022510681
 20
10.89499999999998
 30
0.0
 40
2.30859375
  1
Ready
 41
0.8
 11
148.66500022510681
 21
13.20359374999998
 31
0.0
 73
     3
  0
ARC
  5
1CE
  8
DATA
  6
CONTINUOUS
 62
     7
 10
162.01168540406439
 20
10.166906928881421
 30
0.0
 40
2.483120566646972
 50
69.840207890185823
 51
90.269631211229637
  0
ARC
  5
1CF
  8
DATA
  6
CONTINUOUS
 62
     7
 10
162.47772243806321
 20
11.33525850910053
 30
0.0
 40
1.2262277636336969
 50
38.199393515875869
 51
71.467642394457954
  0
ARC
  5
1D0
  8
DATA
  6
CONTINUOUS
 62
     7
 10
162.99006890484469
 20
11.747376872945321
 30
0.0
 40
0.5687828707006575
 50
0.2642390442336619
 51
37.490846652594172
  0
ARC
  5
1D1
  8
DATA
  6
CONTINUOUS
 62
     7
 10
162.01168540406439
 20
13.333093071118579
 30
0.0
 40
2.4831205666469658
 50
269.73036878877042
 51
290.15979210981419
  0
ARC
  5
1D2
  8
DATA
  6
CONTINUOUS
 62
     7
 10
162.47772243806321
 20
12.16474149089947
 30
0.0
 40
1.226227763633708
 50
288.53235760554202
 51
321.8006064841241
  0
ARC
  5
1D3
  8
DATA
  6
CONTINUOUS
 62
     7
 10
162.99006890484469
 20
11.752623127054671
 30
0.0
 40
0.5687828707008084
 50
322.5091533474037
 51
359.73576095576641
  0
ARC
  5
1D4
  8
DATA
  6
CONTINUOUS
 62
     7
 10
161.98831459593561
 20
10.166906928881421
 30
0.0
 40
2.4831205666469658
 50
89.730368788770363
 51
110.15979210981421
  0
ARC
  5
1D5
  8
DATA
  6
CONTINUOUS
 62
     7
 10
161.52227756193679
 20
11.33525850910053
 30
0.0
 40
1.226227763633708
 50
108.532357605542
 51
141.8006064841241
  0
ARC
  5
1D6
  8
DATA
  6
CONTINUOUS
 62
     7
 10
161.0099310951552
 20
11.747376872945321
 30
0.0
 40
0.5687828707008084
 50
142.5091533474037
 51
179.73576095576641
  0
ARC
  5
1D7
  8
DATA
  6
CONTINUOUS
 62
     7
 10
161.98831459593561
 20
13.333093071118579
 30
0.0
 40
2.483120566646972
 50
249.84020789018581
 51
270.26963121122958
  0
ARC
  5
1D8
  8
DATA
  6
CONTINUOUS
 62
     7
 10
161.52227756193679
 20
12.16474149089947
 30
0.0
 40
1.2262277636336969
 50
218.1993935158759
 51
251.46764239445801
  0
ARC
  5
1D9
  8
DATA
  6
CONTINUOUS
 62
     7
 10
161.0099310951552
 20
11.752623127054671
 30
0.0
 40
0.5687828707006575
 50
180.26423904423359
 51
217.49084665259409
  0
ARC
  5
1DA
  8
DATA
  6
CONTINUOUS
 62
     7
 10
162.01168540406439
 20
14.16690692888141
 30
0.0
 40
2.483120566646972
 50
69.840207890185823
 51
90.269631211229637
  0
ARC
  5
1DB
  8
DATA
  6
CONTINUOUS
 62
     7
 10
162.47772243806321
 20
15.33525850910053
 30
0.0
 40
1.2262277636336969
 50
38.199393515875869
 51
71.467642394457954
  0
ARC
  5
1DC
  8
DATA
  6
CONTINUOUS
 62
     7
 10
162.99006890484469
 20
15.747376872945321
 30
0.0
 40
0.5687828707006575
 50
0.2642390442336619
 51
37.490846652594172
  0
ARC
  5
1DD
  8
DATA
  6
CONTINUOUS
 62
     7
 10
162.01168540406439
 20
17.333093071118579
 30
0.0
 40
2.4831205666469658
 50
269.73036878877042
 51
290.15979210981419
  0
ARC
  5
1DE
  8
DATA
  6
CONTINUOUS
 62
     7
 10
162.47772243806321
 20
16.16474149089947
 30
0.0
 40
1.226227763633708
 50
288.53235760554202
 51
321.8006064841241
  0
ARC
  5
1DF
  8
DATA
  6
CONTINUOUS
 62
     7
 10
162.99006890484469
 20
15.752623127054671
 30
0.0
 40
0.5687828707008084
 50
322.5091533474037
 51
359.73576095576641
  0
ARC
  5
1E0
  8
DATA
  6
CONTINUOUS
 62
     7
 10
161.98831459593561
 20
14.16690692888141
 30
0.0
 40
2.4831205666469658
 50
89.730368788770363
 51
110.15979210981421
  0
ARC
  5
1E1
  8
DATA
  6
CONTINUOUS
 62
     7
 10
161.52227756193679
 20
15.33525850910053
 30
0.0
 40
1.226227763633708
 50
108.532357605542
 51
141.8006064841241
  0
ARC
  5
1E2
  8
DATA
  6
CONTINUOUS
 62
     7
 10
161.0099310951552
 20
15.747376872945321
 30
0.0
 40
0.5687828707008084
 50
142.5091533474037
 51
179.73576095576641
  0
ARC
  5
1E3
  8
DATA
  6
CONTINUOUS
 62
     7
 10
161.98831459593561
 20
17.333093071118579
 30
0.0
 40
2.483120566646972
 50
249.84020789018581
 51
270.26963121122958
  0
ARC
  5
1E4
  8
DATA
  6
CONTINUOUS
 62
     7
 10
161.52227756193679
 20
16.16474149089947
 30
0.0
 40
1.2262277636336969
 50
218.1993935158759
 51
251.46764239445801
  0
ARC
  5
1E5
  8
DATA
  6
CONTINUOUS
 62
     7
 10
161.0099310951552
 20
15.752623127054671
 30
0.0
 40
0.5687828707006575
 50
180.26423904423359
 51
217.49084665259409
  0
ARC
  5
1E6
  8
DATA
  6
CONTINUOUS
 62
     7
 10
162.01168540406439
 20
18.16690692888141
 30
0.0
 40
2.483120566646972
 50
69.840207890185823
 51
90.269631211229637
  0
ARC
  5
1E7
  8
DATA
  6
CONTINUOUS
 62
     7
 10
162.47772243806321
 20
19.33525850910053
 30
0.0
 40
1.2262277636336969
 50
38.199393515875869
 51
71.467642394457954
  0
ARC
  5
1E8
  8
DATA
  6
CONTINUOUS
 62
     7
 10
162.99006890484469
 20
19.747376872945321
 30
0.0
 40
0.5687828707006575
 50
0.2642390442336619
 51
37.490846652594172
  0
ARC
  5
1E9
  8
DATA
  6
CONTINUOUS
 62
     7
 10
162.01168540406439
 20
21.33309307111859
 30
0.0
 40
2.4831205666469658
 50
269.73036878877042
 51
290.15979210981419
  0
ARC
  5
1EA
  8
DATA
  6
CONTINUOUS
 62
     7
 10
162.47772243806321
 20
20.16474149089948
 30
0.0
 40
1.226227763633708
 50
288.53235760554202
 51
321.8006064841241
  0
ARC
  5
1EB
  8
DATA
  6
CONTINUOUS
 62
     7
 10
162.99006890484469
 20
19.752623127054679
 30
0.0
 40
0.5687828707008084
 50
322.5091533474037
 51
359.73576095576641
  0
ARC
  5
1EC
  8
DATA
  6
CONTINUOUS
 62
     7
 10
161.98831459593561
 20
18.16690692888141
 30
0.0
 40
2.4831205666469658
 50
89.730368788770363
 51
110.15979210981421
  0
ARC
  5
1ED
  8
DATA
  6
CONTINUOUS
 62
     7
 10
161.52227756193679
 20
19.33525850910053
 30
0.0
 40
1.226227763633708
 50
108.532357605542
 51
141.8006064841241
  0
ARC
  5
1EE
  8
DATA
  6
CONTINUOUS
 62
     7
 10
161.0099310951552
 20
19.747376872945321
 30
0.0
 40
0.5687828707008084
 50
142.5091533474037
 51
179.73576095576641
  0
ARC
  5
1EF
  8
DATA
  6
CONTINUOUS
 62
     7
 10
161.98831459593561
 20
21.33309307111859
 30
0.0
 40
2.483120566646972
 50
249.84020789018581
 51
270.26963121122958
  0
ARC
  5
1F0
  8
DATA
  6
CONTINUOUS
 62
     7
 10
161.52227756193679
 20
20.16474149089948
 30
0.0
 40
1.2262277636336969
 50
218.1993935158759
 51
251.46764239445801
  0
ARC
  5
1F1
  8
DATA
  6
CONTINUOUS
 62
     7
 10
161.0099310951552
 20
19.752623127054679
 30
0.0
 40
0.5687828707006575
 50
180.26423904423359
 51
217.49084665259409
  0
ARC
  5
1F2
  8
DATA
  6
CONTINUOUS
 62
     7
 10
162.01168540406439
 20
22.166906928881421
 30
0.0
 40
2.483120566646972
 50
69.840207890185823
 51
90.269631211229637
  0
ARC
  5
1F3
  8
DATA
  6
CONTINUOUS
 62
     7
 10
162.47772243806321
 20
23.33525850910053
 30
0.0
 40
1.2262277636336969
 50
38.199393515875869
 51
71.467642394457954
  0
ARC
  5
1F4
  8
DATA
  6
CONTINUOUS
 62
     7
 10
162.99006890484469
 20
23.747376872945321
 30
0.0
 40
0.5687828707006575
 50
0.2642390442336619
 51
37.490846652594172
  0
ARC
  5
1F5
  8
DATA
  6
CONTINUOUS
 62
     7
 10
162.01168540406439
 20
25.33309307111859
 30
0.0
 40
2.4831205666469658
 50
269.73036878877042
 51
290.15979210981419
  0
ARC
  5
1F6
  8
DATA
  6
CONTINUOUS
 62
     7
 10
162.47772243806321
 20
24.16474149089948
 30
0.0
 40
1.226227763633708
 50
288.53235760554202
 51
321.8006064841241
  0
ARC
  5
1F7
  8
DATA
  6
CONTINUOUS
 62
     7
 10
162.99006890484469
 20
23.752623127054679
 30
0.0
 40
0.5687828707008084
 50
322.5091533474037
 51
359.73576095576641
  0
ARC
  5
1F8
  8
DATA
  6
CONTINUOUS
 62
     7
 10
161.98831459593561
 20
22.166906928881421
 30
0.0
 40
2.4831205666469658
 50
89.730368788770363
 51
110.15979210981421
  0
ARC
  5
1F9
  8
DATA
  6
CONTINUOUS
 62
     7
 10
161.52227756193679
 20
23.33525850910053
 30
0.0
 40
1.226227763633708
 50
108.532357605542
 51
141.8006064841241
  0
ARC
  5
1FA
  8
DATA
  6
CONTINUOUS
 62
     7
 10
161.0099310951552
 20
23.747376872945321
 30
0.0
 40
0.5687828707008084
 50
142.5091533474037
 51
179.73576095576641
  0
ARC
  5
1FB
  8
DATA
  6
CONTINUOUS
 62
     7
 10
161.98831459593561
 20
25.33309307111859
 30
0.0
 40
2.483120566646972
 50
249.84020789018581
 51
270.26963121122958
  0
ARC
  5
1FC
  8
DATA
  6
CONTINUOUS
 62
     7
 10
161.52227756193679
 20
24.16474149089948
 30
0.0
 40
1.2262277636336969
 50
218.1993935158759
 51
251.46764239445801
  0
ARC
  5
1FD
  8
DATA
  6
CONTINUOUS
 62
     7
 10
161.0099310951552
 20
23.752623127054679
 30
0.0
 40
0.5687828707006575
 50
180.26423904423359
 51
217.49084665259409
  0
ARC
  5
1FE
  8
DATA
  6
CONTINUOUS
 62
     7
 10
162.01168540406439
 20
26.166906928881421
 30
0.0
 40
2.483120566646972
 50
69.840207890185823
 51
90.269631211229637
  0
ARC
  5
1FF
  8
DATA
  6
CONTINUOUS
 62
     7
 10
162.47772243806321
 20
27.335258509100541
 30
0.0
 40
1.2262277636336969
 50
38.199393515875869
 51
71.467642394457954
  0
ARC
  5
200
  8
DATA
  6
CONTINUOUS
 62
     7
 10
162.99006890484469
 20
27.747376872945321
 30
0.0
 40
0.5687828707006575
 50
0.2642390442336619
 51
37.490846652594172
  0
ARC
  5
201
  8
DATA
  6
CONTINUOUS
 62
     7
 10
162.01168540406439
 20
29.333093071118579
 30
0.0
 40
2.4831205666469658
 50
269.73036878877042
 51
290.15979210981419
  0
ARC
  5
202
  8
DATA
  6
CONTINUOUS
 62
     7
 10
162.47772243806321
 20
28.16474149089948
 30
0.0
 40
1.226227763633708
 50
288.53235760554202
 51
321.8006064841241
  0
ARC
  5
203
  8
DATA
  6
CONTINUOUS
 62
     7
 10
162.99006890484469
 20
27.752623127054679
 30
0.0
 40
0.5687828707008084
 50
322.5091533474037
 51
359.73576095576641
  0
ARC
  5
204
  8
DATA
  6
CONTINUOUS
 62
     7
 10
161.98831459593561
 20
26.166906928881421
 30
0.0
 40
2.4831205666469658
 50
89.730368788770363
 51
110.15979210981421
  0
ARC
  5
205
  8
DATA
  6
CONTINUOUS
 62
     7
 10
161.52227756193679
 20
27.335258509100541
 30
0.0
 40
1.226227763633708
 50
108.532357605542
 51
141.8006064841241
  0
ARC
  5
206
  8
DATA
  6
CONTINUOUS
 62
     7
 10
161.0099310951552
 20
27.747376872945321
 30
0.0
 40
0.5687828707008084
 50
142.5091533474037
 51
179.73576095576641
  0
ARC
  5
207
  8
DATA
  6
CONTINUOUS
 62
     7
 10
161.98831459593561
 20
29.333093071118579
 30
0.0
 40
2.483120566646972
 50
249.84020789018581
 51
270.26963121122958
  0
ARC
  5
208
  8
DATA
  6
CONTINUOUS
 62
     7
 10
161.52227756193679
 20
28.16474149089948
 30
0.0
 40
1.2262277636336969
 50
218.1993935158759
 51
251.46764239445801
  0
ARC
  5
209
  8
DATA
  6
CONTINUOUS
 62
     7
 10
161.0099310951552
 20
27.752623127054679
 30
0.0
 40
0.5687828707006575
 50
180.26423904423359
 51
217.49084665259409
  0
ARC
  5
20A
  8
DATA
  6
CONTINUOUS
 62
     7
 10
162.01168540406439
 20
34.166906928881417
 30
0.0
 40
2.483120566646972
 50
69.840207890185823
 51
90.269631211229637
  0
ARC
  5
20B
  8
DATA
  6
CONTINUOUS
 62
     7
 10
162.47772243806321
 20
35.335258509100541
 30
0.0
 40
1.2262277636336969
 50
38.199393515875869
 51
71.467642394457954
  0
ARC
  5
20C
  8
DATA
  6
CONTINUOUS
 62
     7
 10
162.99006890484469
 20
35.747376872945331
 30
0.0
 40
0.5687828707006575
 50
0.2642390442336619
 51
37.490846652594172
  0
ARC
  5
20D
  8
DATA
  6
CONTINUOUS
 62
     7
 10
162.01168540406439
 20
37.333093071118583
 30
0.0
 40
2.4831205666469658
 50
269.73036878877042
 51
290.15979210981419
  0
ARC
  5
20E
  8
DATA
  6
CONTINUOUS
 62
     7
 10
162.47772243806321
 20
36.164741490899473
 30
0.0
 40
1.226227763633708
 50
288.53235760554202
 51
321.8006064841241
  0
ARC
  5
20F
  8
DATA
  6
CONTINUOUS
 62
     7
 10
162.99006890484469
 20
35.75262312705469
 30
0.0
 40
0.5687828707008084
 50
322.5091533474037
 51
359.73576095576641
  0
ARC
  5
210
  8
DATA
  6
CONTINUOUS
 62
     7
 10
161.98831459593561
 20
34.166906928881417
 30
0.0
 40
2.4831205666469658
 50
89.730368788770363
 51
110.15979210981421
  0
ARC
  5
211
  8
DATA
  6
CONTINUOUS
 62
     7
 10
161.52227756193679
 20
35.335258509100541
 30
0.0
 40
1.226227763633708
 50
108.532357605542
 51
141.8006064841241
  0
ARC
  5
212
  8
DATA
  6
CONTINUOUS
 62
     7
 10
161.0099310951552
 20
35.747376872945331
 30
0.0
 40
0.5687828707008084
 50
142.5091533474037
 51
179.73576095576641
  0
ARC
  5
213
  8
DATA
  6
CONTINUOUS
 62
     7
 10
161.98831459593561
 20
37.333093071118583
 30
0.0
 40
2.483120566646972
 50
249.84020789018581
 51
270.26963121122958
  0
ARC
  5
214
  8
DATA
  6
CONTINUOUS
 62
     7
 10
161.52227756193679
 20
36.164741490899473
 30
0.0
 40
1.2262277636336969
 50
218.1993935158759
 51
251.46764239445801
  0
ARC
  5
215
  8
DATA
  6
CONTINUOUS
 62
     7
 10
161.0099310951552
 20
35.75262312705469
 30
0.0
 40
0.5687828707006575
 50
180.26423904423359
 51
217.49084665259409
  0
ARC
  5
216
  8
DATA
  6
CONTINUOUS
 62
     7
 10
162.01168540406439
 20
38.166906928881417
 30
0.0
 40
2.483120566646972
 50
69.840207890185823
 51
90.269631211229637
  0
ARC
  5
217
  8
DATA
  6
CONTINUOUS
 62
     7
 10
162.47772243806321
 20
39.335258509100527
 30
0.0
 40
1.2262277636336969
 50
38.199393515875869
 51
71.467642394457954
  0
ARC
  5
218
  8
DATA
  6
CONTINUOUS
 62
     7
 10
162.99006890484469
 20
39.747376872945331
 30
0.0
 40
0.5687828707006575
 50
0.2642390442336619
 51
37.490846652594172
  0
ARC
  5
219
  8
DATA
  6
CONTINUOUS
 62
     7
 10
162.01168540406439
 20
41.333093071118569
 30
0.0
 40
2.4831205666469658
 50
269.73036878877042
 51
290.15979210981419
  0
ARC
  5
21A
  8
DATA
  6
CONTINUOUS
 62
     7
 10
162.47772243806321
 20
40.164741490899473
 30
0.0
 40
1.226227763633708
 50
288.53235760554202
 51
321.8006064841241
  0
ARC
  5
21B
  8
DATA
  6
CONTINUOUS
 62
     7
 10
162.99006890484469
 20
39.75262312705469
 30
0.0
 40
0.5687828707008084
 50
322.5091533474037
 51
359.73576095576641
  0
ARC
  5
21C
  8
DATA
  6
CONTINUOUS
 62
     7
 10
161.98831459593561
 20
38.166906928881417
 30
0.0
 40
2.4831205666469658
 50
89.730368788770363
 51
110.15979210981421
  0
ARC
  5
21D
  8
DATA
  6
CONTINUOUS
 62
     7
 10
161.52227756193679
 20
39.335258509100527
 30
0.0
 40
1.226227763633708
 50
108.532357605542
 51
141.8006064841241
  0
ARC
  5
21E
  8
DATA
  6
CONTINUOUS
 62
     7
 10
161.0099310951552
 20
39.747376872945331
 30
0.0
 40
0.5687828707008084
 50
142.5091533474037
 51
179.73576095576641
  0
ARC
  5
21F
  8
DATA
  6
CONTINUOUS
 62
     7
 10
161.98831459593561
 20
41.333093071118569
 30
0.0
 40
2.483120566646972
 50
249.84020789018581
 51
270.26963121122958
  0
ARC
  5
220
  8
DATA
  6
CONTINUOUS
 62
     7
 10
161.52227756193679
 20
40.164741490899473
 30
0.0
 40
1.2262277636336969
 50
218.1993935158759
 51
251.46764239445801
  0
ARC
  5
221
  8
DATA
  6
CONTINUOUS
 62
     7
 10
161.0099310951552
 20
39.75262312705469
 30
0.0
 40
0.5687828707006575
 50
180.26423904423359
 51
217.49084665259409
  0
TEXT
  5
222
  8
DATA
 62
     7
 10
183.6575520833332
 20
4.1841145833330966
 30
0.0
 40
5.771484375
  1
1
 41
0.8
 11
183.6575520833332
 21
9.9555989583330984
 31
0.0
 73
     3
  0
TEXT
  5
223
  8
DATA
 62
     7
 10
295.75781239569199
 20
4.1841145833330966
 30
0.0
 40
5.771484375
  1
2
 41
0.8
 11
295.75781239569199
 21
9.9555989583330984
 31
0.0
 73
     3
  0
LINE
  5
224
  8
DATA
  6
CONTINUOUS
 62
     7
 10
236.5
 20
7.0
 30
0.0
 11
246.5
 21
7.0
 31
0.0
  0
LINE
  5
225
  8
DATA
  6
CONTINUOUS
 62
     7
 10
236.5
 20
7.0
 30
0.0
 11
236.5
 21
13.0
 31
0.0
  0
LINE
  5
226
  8
DATA
  6
CONTINUOUS
 62
     7
 10
236.5
 20
13.0
 30
0.0
 11
246.5
 21
13.0
 31
0.0
  0
LINE
  5
227
  8
DATA
  6
CONTINUOUS
 62
     7
 10
246.5
 20
13.0
 30
0.0
 11
246.5
 21
7.0
 31
0.0
  0
LINE
  5
228
  8
DATA
  6
CONTINUOUS
 62
     7
 10
237.0
 20
11.0
 30
0.0
 11
240.0
 21
11.0
 31
0.0
  0
LINE
  5
229
  8
DATA
  6
CONTINUOUS
 62
     7
 10
237.0
 20
11.0
 30
0.0
 11
237.0
 21
12.5
 31
0.0
  0
LINE
  5
22A
  8
DATA
  6
CONTINUOUS
 62
     7
 10
237.0
 20
12.5
 30
0.0
 11
240.0
 21
12.5
 31
0.0
  0
LINE
  5
22B
  8
DATA
  6
CONTINUOUS
 62
     7
 10
240.0
 20
12.5
 30
0.0
 11
240.0
 21
11.0
 31
0.0
  0
LINE
  5
22C
  8
DATA
  6
CONTINUOUS
 62
     7
 10
213.5
 20
7.0
 30
0.0
 11
223.5
 21
7.0
 31
0.0
  0
LINE
  5
22D
  8
DATA
  6
CONTINUOUS
 62
     7
 10
213.5
 20
7.0
 30
0.0
 11
213.5
 21
13.0
 31
0.0
  0
LINE
  5
22E
  8
DATA
  6
CONTINUOUS
 62
     7
 10
213.5
 20
13.0
 30
0.0
 11
223.5
 21
13.0
 31
0.0
  0
LINE
  5
22F
  8
DATA
  6
CONTINUOUS
 62
     7
 10
223.5
 20
13.0
 30
0.0
 11
223.5
 21
7.0
 31
0.0
  0
LINE
  5
230
  8
DATA
  6
CONTINUOUS
 62
     7
 10
214.0
 20
11.0
 30
0.0
 11
217.0
 21
11.0
 31
0.0
  0
LINE
  5
231
  8
DATA
  6
CONTINUOUS
 62
     7
 10
214.0
 20
11.0
 30
0.0
 11
214.0
 21
12.5
 31
0.0
  0
LINE
  5
232
  8
DATA
  6
CONTINUOUS
 62
     7
 10
214.0
 20
12.5
 30
0.0
 11
217.0
 21
12.5
 31
0.0
  0
LINE
  5
233
  8
DATA
  6
CONTINUOUS
 62
     7
 10
217.0
 20
12.5
 30
0.0
 11
217.0
 21
11.0
 31
0.0
  0
LINE
  5
234
  8
DATA
  6
CONTINUOUS
 62
     7
 10
259.5
 20
7.0
 30
0.0
 11
269.5
 21
7.0
 31
0.0
  0
LINE
  5
235
  8
DATA
  6
CONTINUOUS
 62
     7
 10
259.5
 20
7.0
 30
0.0
 11
259.5
 21
13.0
 31
0.0
  0
LINE
  5
236
  8
DATA
  6
CONTINUOUS
 62
     7
 10
259.5
 20
13.0
 30
0.0
 11
269.5
 21
13.0
 31
0.0
  0
LINE
  5
237
  8
DATA
  6
CONTINUOUS
 62
     7
 10
269.5
 20
13.0
 30
0.0
 11
269.5
 21
7.0
 31
0.0
  0
LINE
  5
238
  8
DATA
  6
CONTINUOUS
 62
     7
 10
260.0
 20
11.0
 30
0.0
 11
263.0
 21
11.0
 31
0.0
  0
LINE
  5
239
  8
DATA
  6
CONTINUOUS
 62
     7
 10
260.0
 20
11.0
 30
0.0
 11
260.0
 21
12.5
 31
0.0
  0
LINE
  5
23A
  8
DATA
  6
CONTINUOUS
 62
     7
 10
260.0
 20
12.5
 30
0.0
 11
263.0
 21
12.5
 31
0.0
  0
LINE
  5
23B
  8
DATA
  6
CONTINUOUS
 62
     7
 10
263.0
 20
12.5
 30
0.0
 11
263.0
 21
11.0
 31
0.0
  0
TEXT
  5
23C
  8
DATA
 62
     7
 10
210.0
 20
14.774999999999981
 30
0.0
 40
2.8857421875
  1
Menu/Exit
 41
0.8
 11
210.0
 21
17.660742187499981
 31
0.0
 73
     3
  0
TEXT
  5
23D
  8
DATA
 62
     7
 10
238.0
 20
14.774999999999981
 30
0.0
 40
2.8857421875
  1
Prev
 41
0.8
 11
238.0
 21
17.660742187499981
 31
0.0
 73
     3
  0
TEXT
  5
23E
  8
DATA
 62
     7
 10
261.0
 20
14.774999999999981
 30
0.0
 40
2.8857421875
  1
Next
 41
0.8
 11
261.0
 21
17.660742187499981
 31
0.0
 73
     3
  0
LINE
  5
23F
  8
DATA
  6
CONTINUOUS
 62
     7
 10
20.5
 20
761.5
 30
0.0
 11
20.5
 21
788.0
 31
0.0
  0
LINE
  5
240
  8
DATA
  6
CONTINUOUS
 62
     7
 10
22.5
 20
700.0
 30
0.0
 11
22.5
 21
788.0
 31
0.0
  0
LINE
  5
241
  8
DATA
  6
CONTINUOUS
 62
     7
 10
24.5
 20
700.0
 30
0.0
 11
24.5
 21
788.0
 31
0.0
  0
LINE
  5
242
  8
DATA
  6
CONTINUOUS
 62
     7
 10
20.5
 20
761.5
 30
0.0
 11
22.5
 21
761.5
 31
0.0
  0
ARC
  5
243
  8
DATA
  6
CONTINUOUS
 62
     7
 10
10.499955
 20
782.10000000000002
 30
0.0
 40
3.5
 50
270.0
 51
90.0
  0
ARC
  5
244
  8
DATA
  6
CONTINUOUS
 62
     7
 10
7.5000450000000001
 20
782.10000000000002
 30
0.0
 40
3.5
 50
90.0
 51
270.0
  0
LINE
  5
245
  8
DATA
  6
CONTINUOUS
 62
     7
 10
10.50001499999984
 20
785.60000000000002
 30
0.0
 11
7.4999850000001498
 21
785.60000000000002
 31
0.0
  0
LINE
  5
246
  8
DATA
  6
CONTINUOUS
 62
     7
 10
10.50001499999984
 20
778.60002999999983
 30
0.0
 11
7.4999850000001498
 21
778.60002999999983
 31
0.0
  0
ARC
  5
247
  8
DATA
  6
CONTINUOUS
 62
     7
 10
10.499955
 20
705.89999999999998
 30
0.0
 40
3.5
 50
270.0
 51
90.0
  0
ARC
  5
248
  8
DATA
  6
CONTINUOUS
 62
     7
 10
7.5000450000000001
 20
705.89999999999998
 30
0.0
 40
3.5
 50
90.0
 51
270.0
  0
LINE
  5
249
  8
DATA
  6
CONTINUOUS
 62
     7
 10
10.50001499999984
 20
709.39999999999998
 30
0.0
 11
7.4999850000001498
 21
709.39999999999998
 31
0.0
  0
LINE
  5
24A
  8
DATA
  6
CONTINUOUS
 62
     7
 10
10.50001499999984
 20
702.4000299999999
 30
0.0
 11
7.4999850000001498
 21
702.4000299999999
 31
0.0
  0
ARC
  5
24B
  8
DATA
  6
CONTINUOUS
 62
     7
 10
475.49995499999989
 20
782.10000000000002
 30
0.0
 40
3.5
 50
270.0
 51
90.0
  0
ARC
  5
24C
  8
DATA
  6
CONTINUOUS
 62
     7
 10
472.500045
 20
782.10000000000002
 30
0.0
 40
3.5
 50
90.0
 51
270.0
  0
LINE
  5
24D
  8
DATA
  6
CONTINUOUS
 62
     7
 10
475.50001499999979
 20
785.60000000000002
 30
0.0
 11
472.49998500000009
 21
785.60000000000002
 31
0.0
  0
LINE
  5
24E
  8
DATA
  6
CONTINUOUS
 62
     7
 10
475.50001499999979
 20
778.60002999999983
 30
0.0
 11
472.49998500000009
 21
778.60002999999983
 31
0.0
  0
ARC
  5
24F
  8
DATA
  6
CONTINUOUS
 62
     7
 10
475.49995499999989
 20
705.89999999999998
 30
0.0
 40
3.5
 50
270.0
 51
90.0
  0
ARC
  5
250
  8
DATA
  6
CONTINUOUS
 62
     7
 10
472.500045
 20
705.89999999999998
 30
0.0
 40
3.5
 50
90.0
 51
270.0
  0
LINE
  5
251
  8
DATA
  6
CONTINUOUS
 62
     7
 10
475.50001499999979
 20
709.39999999999998
 30
0.0
 11
472.49998500000009
 21
709.39999999999998
 31
0.0
  0
LINE
  5
252
  8
DATA
  6
CONTINUOUS
 62
     7
 10
475.50001499999979
 20
702.4000299999999
 30
0.0
 11
472.49998500000009
 21
702.4000299999999
 31
0.0
  0
LINE
  5
253
  8
DATA
  6
CONTINUOUS
 62
     7
 10
0.0
 20
700.0
 30
0.0
 11
0.0
 21
788.0
 31
0.0
  0
LINE
  5
254
  8
DATA
  6
CONTINUOUS
 62
     7
 10
483.0
 20
700.0
 30
0.0
 11
483.0
 21
788.0
 31
0.0
  0
LINE
  5
255
  8
DATA
  6
CONTINUOUS
 62
     7
 10
0.0
 20
700.0
 30
0.0
 11
483.0
 21
700.0
 31
0.0
  0
LINE
  5
256
  8
DATA
  6
CONTINUOUS
 62
     7
 10
0.0
 20
788.0
 30
0.0
 11
483.0
 21
788.0
 31
0.0
  0
POLYLINE
  5
257
  8
DATA
  6
CONTINUOUS
 62
     7
 66
     1
 10
0.0
 20
0.0
 30
0.0
 70
     1
  0
VERTEX
  5
8D0
  8
DATA
  6
CONTINUOUS
 62
     7
 10
66.5
 20
768.5
 30
0.0
  0
VERTEX
  5
8D1
  8
DATA
  6
CONTINUOUS
 62
     7
 10
73.0
 20
768.5
 30
0.0
  0
VERTEX
  5
8D2
  8
DATA
  6
CONTINUOUS
 62
     7
 10
73.0
 20
762.0
 30
0.0
  0
VERTEX
  5
8D3
  8
DATA
  6
CONTINUOUS
 62
     7
 10
66.5
 20
762.0
 30
0.0
  0
SEQEND
  5
8D4
  8
DATA
  6
CONTINUOUS
 62
     7
  0
POLYLINE
  5
25D
  8
DATA
  6
CONTINUOUS
 62
     7
 66
     1
 10
0.0
 20
0.0
 30
0.0
 70
     1
  0
VERTEX
  5
8D5
  8
DATA
  6
CONTINUOUS
 62
     7
 10
66.5
 20
777.0
 30
0.0
  0
VERTEX
  5
8D6
  8
DATA
  6
CONTINUOUS
 62
     7
 10
73.0
 20
777.0
 30
0.0
  0
VERTEX
  5
8D7
  8
DATA
  6
CONTINUOUS
 62
     7
 10
73.0
 20
770.5
 30
0.0
  0
VERTEX
  5
8D8
  8
DATA
  6
CONTINUOUS
 62
     7
 10
66.5
 20
770.5
 30
0.0
  0
SEQEND
  5
8D9
  8
DATA
  6
CONTINUOUS
 62
     7
  0
POLYLINE
  5
263
  8
DATA
  6
CONTINUOUS
 62
     7
 66
     1
 10
0.0
 20
0.0
 30
0.0
 70
     1
  0
VERTEX
  5
8DA
  8
DATA
  6
CONTINUOUS
 62
     7
 10
75.0
 20
760.0
 30
0.0
  0
VERTEX
  5
8DB
  8
DATA
  6
CONTINUOUS
 62
     7
 10
81.5
 20
760.0
 30
0.0
  0
VERTEX
  5
8DC
  8
DATA
  6
CONTINUOUS
 62
     7
 10
81.5
 20
753.5
 30
0.0
  0
VERTEX
  5
8DD
  8
DATA
  6
CONTINUOUS
 62
     7
 10
75.0
 20
753.5
 30
0.0
  0
SEQEND
  5
8DE
  8
DATA
  6
CONTINUOUS
 62
     7
  0
POLYLINE
  5
269
  8
DATA
  6
CONTINUOUS
 62
     7
 66
     1
 10
0.0
 20
0.0
 30
0.0
 70
     1
  0
VERTEX
  5
8DF
  8
DATA
  6
CONTINUOUS
 62
     7
 10
75.0
 20
768.5
 30
0.0
  0
VERTEX
  5
8E0
  8
DATA
  6
CONTINUOUS
 62
     7
 10
81.5
 20
768.5
 30
0.0
  0
VERTEX
  5
8E1
  8
DATA
  6
CONTINUOUS
 62
     7
 10
81.5
 20
762.0
 30
0.0
  0
VERTEX
  5
8E2
  8
DATA
  6
CONTINUOUS
 62
     7
 10
75.0
 20
762.0
 30
0.0
  0
SEQEND
  5
8E3
  8
DATA
  6
CONTINUOUS
 62
     7
  0
POLYLINE
  5
26F
  8
DATA
  6
CONTINUOUS
 62
     7
 66
     1
 10
0.0
 20
0.0
 30
0.0
 70
     1
  0
VERTEX
  5
8E4
  8
DATA
  6
CONTINUOUS
 62
     7
 10
75.0
 20
777.0
 30
0.0
  0
VERTEX
  5
8E5
  8
DATA
  6
CONTINUOUS
 62
     7
 10
81.5
 20
777.0
 30
0.0
  0
VERTEX
  5
8E6
  8
DATA
  6
CONTINUOUS
 62
     7
 10
81.5
 20
770.5
 30
0.0
  0
VERTEX
  5
8E7
  8
DATA
  6
CONTINUOUS
 62
     7
 10
75.0
 20
770.5
 30
0.0
  0
SEQEND
  5
8E8
  8
DATA
  6
CONTINUOUS
 62
     7
  0
POLYLINE
  5
275
  8
DATA
  6
CONTINUOUS
 62
     7
 66
     1
 10
0.0
 20
0.0
 30
0.0
 70
     1
  0
VERTEX
  5
8E9
  8
DATA
  6
CONTINUOUS
 62
     7
 10
83.499999999999986
 20
751.5
 30
0.0
  0
VERTEX
  5
8EA
  8
DATA
  6
CONTINUOUS
 62
     7
 10
90.0
 20
751.5
 30
0.0
  0
VERTEX
  5
8EB
  8
DATA
  6
CONTINUOUS
 62
     7
 10
90.0
 20
745.0
 30
0.0
  0
VERTEX
  5
8EC
  8
DATA
  6
CONTINUOUS
 62
     7
 10
83.499999999999986
 20
745.0
 30
0.0
  0
SEQEND
  5
8ED
  8
DATA
  6
CONTINUOUS
 62
     7
  0
POLYLINE
  5
27B
  8
DATA
  6
CONTINUOUS
 62
     7
 66
     1
 10
0.0
 20
0.0
 30
0.0
 70
     1
  0
VERTEX
  5
8EE
  8
DATA
  6
CONTINUOUS
 62
     7
 10
83.499999999999986
 20
743.0
 30
0.0
  0
VERTEX
  5
8EF
  8
DATA
  6
CONTINUOUS
 62
     7
 10
90.0
 20
743.0
 30
0.0
  0
VERTEX
  5
8F0
  8
DATA
  6
CONTINUOUS
 62
     7
 10
90.0
 20
736.5
 30
0.0
  0
VERTEX
  5
8F1
  8
DATA
  6
CONTINUOUS
 62
     7
 10
83.499999999999986
 20
736.5
 30
0.0
  0
SEQEND
  5
8F2
  8
DATA
  6
CONTINUOUS
 62
     7
  0
POLYLINE
  5
281
  8
DATA
  6
CONTINUOUS
 62
     7
 66
     1
 10
0.0
 20
0.0
 30
0.0
 70
     1
  0
VERTEX
  5
8F3
  8
DATA
  6
CONTINUOUS
 62
     7
 10
83.499999999999986
 20
760.0
 30
0.0
  0
VERTEX
  5
8F4
  8
DATA
  6
CONTINUOUS
 62
     7
 10
90.0
 20
760.0
 30
0.0
  0
VERTEX
  5
8F5
  8
DATA
  6
CONTINUOUS
 62
     7
 10
90.0
 20
753.5
 30
0.0
  0
VERTEX
  5
8F6
  8
DATA
  6
CONTINUOUS
 62
     7
 10
83.499999999999986
 20
753.5
 30
0.0
  0
SEQEND
  5
8F7
  8
DATA
  6
CONTINUOUS
 62
     7
  0
POLYLINE
  5
287
  8
DATA
  6
CONTINUOUS
 62
     7
 66
     1
 10
0.0
 20
0.0
 30
0.0
 70
     1
  0
VERTEX
  5
8F8
  8
DATA
  6
CONTINUOUS
 62
     7
 10
83.499999999999986
 20
768.5
 30
0.0
  0
VERTEX
  5
8F9
  8
DATA
  6
CONTINUOUS
 62
     7
 10
90.0
 20
768.5
 30
0.0
  0
VERTEX
  5
8FA
  8
DATA
  6
CONTINUOUS
 62
     7
 10
90.0
 20
762.0
 30
0.0
  0
VERTEX
  5
8FB
  8
DATA
  6
CONTINUOUS
 62
     7
 10
83.499999999999986
 20
762.0
 30
0.0
  0
SEQEND
  5
8FC
  8
DATA
  6
CONTINUOUS
 62
     7
  0
POLYLINE
  5
28D
  8
DATA
  6
CONTINUOUS
 62
     7
 66
     1
 10
0.0
 20
0.0
 30
0.0
 70
     1
  0
VERTEX
  5
8FD
  8
DATA
  6
CONTINUOUS
 62
     7
 10
83.499999999999986
 20
777.0
 30
0.0
  0
VERTEX
  5
8FE
  8
DATA
  6
CONTINUOUS
 62
     7
 10
90.0
 20
777.0
 30
0.0
  0
VERTEX
  5
8FF
  8
DATA
  6
CONTINUOUS
 62
     7
 10
90.0
 20
770.5
 30
0.0
  0
VERTEX
  5
900
  8
DATA
  6
CONTINUOUS
 62
     7
 10
83.499999999999986
 20
770.5
 30
0.0
  0
SEQEND
  5
901
  8
DATA
  6
CONTINUOUS
 62
     7
  0
POLYLINE
  5
293
  8
DATA
  6
CONTINUOUS
 62
     7
 66
     1
 10
0.0
 20
0.0
 30
0.0
 70
     1
  0
VERTEX
  5
902
  8
DATA
  6
CONTINUOUS
 62
     7
 10
92.0
 20
751.5
 30
0.0
  0
VERTEX
  5
903
  8
DATA
  6
CONTINUOUS
 62
     7
 10
98.500000000000014
 20
751.5
 30
0.0
  0
VERTEX
  5
904
  8
DATA
  6
CONTINUOUS
 62
     7
 10
98.500000000000014
 20
745.0
 30
0.0
  0
VERTEX
  5
905
  8
DATA
  6
CONTINUOUS
 62
     7
 10
92.0
 20
745.0
 30
0.0
  0
SEQEND
  5
906
  8
DATA
  6
CONTINUOUS
 62
     7
  0
POLYLINE
  5
299
  8
DATA
  6
CONTINUOUS
 62
     7
 66
     1
 10
0.0
 20
0.0
 30
0.0
 70
     1
  0
VERTEX
  5
907
  8
DATA
  6
CONTINUOUS
 62
     7
 10
92.0
 20
743.0
 30
0.0
  0
VERTEX
  5
908
  8
DATA
  6
CONTINUOUS
 62
     7
 10
98.500000000000014
 20
743.0
 30
0.0
  0
VERTEX
  5
909
  8
DATA
  6
CONTINUOUS
 62
     7
 10
98.500000000000014
 20
736.5
 30
0.0
  0
VERTEX
  5
90A
  8
DATA
  6
CONTINUOUS
 62
     7
 10
92.0
 20
736.5
 30
0.0
  0
SEQEND
  5
90B
  8
DATA
  6
CONTINUOUS
 62
     7
  0
POLYLINE
  5
29F
  8
DATA
  6
CONTINUOUS
 62
     7
 66
     1
 10
0.0
 20
0.0
 30
0.0
 70
     1
  0
VERTEX
  5
90C
  8
DATA
  6
CONTINUOUS
 62
     7
 10
92.0
 20
760.0
 30
0.0
  0
VERTEX
  5
90D
  8
DATA
  6
CONTINUOUS
 62
     7
 10
98.500000000000014
 20
760.0
 30
0.0
  0
VERTEX
  5
90E
  8
DATA
  6
CONTINUOUS
 62
     7
 10
98.500000000000014
 20
753.5
 30
0.0
  0
VERTEX
  5
90F
  8
DATA
  6
CONTINUOUS
 62
     7
 10
92.0
 20
753.5
 30
0.0
  0
SEQEND
  5
910
  8
DATA
  6
CONTINUOUS
 62
     7
  0
POLYLINE
  5
2A5
  8
DATA
  6
CONTINUOUS
 62
     7
 66
     1
 10
0.0
 20
0.0
 30
0.0
 70
     1
  0
VERTEX
  5
911
  8
DATA
  6
CONTINUOUS
 62
     7
 10
92.0
 20
768.5
 30
0.0
  0
VERTEX
  5
912
  8
DATA
  6
CONTINUOUS
 62
     7
 10
98.500000000000014
 20
768.5
 30
0.0
  0
VERTEX
  5
913
  8
DATA
  6
CONTINUOUS
 62
     7
 10
98.500000000000014
 20
762.0
 30
0.0
  0
VERTEX
  5
914
  8
DATA
  6
CONTINUOUS
 62
     7
 10
92.0
 20
762.0
 30
0.0
  0
SEQEND
  5
915
  8
DATA
  6
CONTINUOUS
 62
     7
  0
POLYLINE
  5
2AB
  8
DATA
  6
CONTINUOUS
 62
     7
 66
     1
 10
0.0
 20
0.0
 30
0.0
 70
     1
  0
VERTEX
  5
916
  8
DATA
  6
CONTINUOUS
 62
     7
 10
92.0
 20
777.0
 30
0.0
  0
VERTEX
  5
917
  8
DATA
  6
CONTINUOUS
 62
     7
 10
98.500000000000014
 20
777.0
 30
0.0
  0
VERTEX
  5
918
  8
DATA
  6
CONTINUOUS
 62
     7
 10
98.500000000000014
 20
770.5
 30
0.0
  0
VERTEX
  5
919
  8
DATA
  6
CONTINUOUS
 62
     7
 10
92.0
 20
770.5
 30
0.0
  0
SEQEND
  5
91A
  8
DATA
  6
CONTINUOUS
 62
     7
  0
POLYLINE
  5
2B1
  8
DATA
  6
CONTINUOUS
 62
     7
 66
     1
 10
0.0
 20
0.0
 30
0.0
 70
     1
  0
VERTEX
  5
91B
  8
DATA
  6
CONTINUOUS
 62
     7
 10
58.0
 20
768.5
 30
0.0
  0
VERTEX
  5
91C
  8
DATA
  6
CONTINUOUS
 62
     7
 10
64.5
 20
768.5
 30
0.0
  0
VERTEX
  5
91D
  8
DATA
  6
CONTINUOUS
 62
     7
 10
64.5
 20
762.0
 30
0.0
  0
VERTEX
  5
91E
  8
DATA
  6
CONTINUOUS
 62
     7
 10
58.0
 20
762.0
 30
0.0
  0
SEQEND
  5
91F
  8
DATA
  6
CONTINUOUS
 62
     7
  0
POLYLINE
  5
2B7
  8
DATA
  6
CONTINUOUS
 62
     7
 66
     1
 10
0.0
 20
0.0
 30
0.0
 70
     1
  0
VERTEX
  5
920
  8
DATA
  6
CONTINUOUS
 62
     7
 10
58.0
 20
777.0
 30
0.0
  0
VERTEX
  5
921
  8
DATA
  6
CONTINUOUS
 62
     7
 10
64.5
 20
777.0
 30
0.0
  0
VERTEX
  5
922
  8
DATA
  6
CONTINUOUS
 62
     7
 10
64.5
 20
770.5
 30
0.0
  0
VERTEX
  5
923
  8
DATA
  6
CONTINUOUS
 62
     7
 10
58.0
 20
770.5
 30
0.0
  0
SEQEND
  5
924
  8
DATA
  6
CONTINUOUS
 62
     7
  0
POLYLINE
  5
2BD
  8
DATA
  6
CONTINUOUS
 62
     7
 66
     1
 10
0.0
 20
0.0
 30
0.0
 70
     1
  0
VERTEX
  5
925
  8
DATA
  6
CONTINUOUS
 62
     7
 10
49.5
 20
760.0
 30
0.0
  0
VERTEX
  5
926
  8
DATA
  6
CONTINUOUS
 62
     7
 10
56.0
 20
760.0
 30
0.0
  0
VERTEX
  5
927
  8
DATA
  6
CONTINUOUS
 62
     7
 10
56.0
 20
753.5
 30
0.0
  0
VERTEX
  5
928
  8
DATA
  6
CONTINUOUS
 62
     7
 10
49.5
 20
753.5
 30
0.0
  0
SEQEND
  5
929
  8
DATA
  6
CONTINUOUS
 62
     7
  0
POLYLINE
  5
2C3
  8
DATA
  6
CONTINUOUS
 62
     7
 66
     1
 10
0.0
 20
0.0
 30
0.0
 70
     1
  0
VERTEX
  5
92A
  8
DATA
  6
CONTINUOUS
 62
     7
 10
49.5
 20
768.5
 30
0.0
  0
VERTEX
  5
92B
  8
DATA
  6
CONTINUOUS
 62
     7
 10
56.0
 20
768.5
 30
0.0
  0
VERTEX
  5
92C
  8
DATA
  6
CONTINUOUS
 62
     7
 10
56.0
 20
762.0
 30
0.0
  0
VERTEX
  5
92D
  8
DATA
  6
CONTINUOUS
 62
     7
 10
49.5
 20
762.0
 30
0.0
  0
SEQEND
  5
92E
  8
DATA
  6
CONTINUOUS
 62
     7
  0
POLYLINE
  5
2C9
  8
DATA
  6
CONTINUOUS
 62
     7
 66
     1
 10
0.0
 20
0.0
 30
0.0
 70
     1
  0
VERTEX
  5
92F
  8
DATA
  6
CONTINUOUS
 62
     7
 10
49.5
 20
777.0
 30
0.0
  0
VERTEX
  5
930
  8
DATA
  6
CONTINUOUS
 62
     7
 10
56.0
 20
777.0
 30
0.0
  0
VERTEX
  5
931
  8
DATA
  6
CONTINUOUS
 62
     7
 10
56.0
 20
770.5
 30
0.0
  0
VERTEX
  5
932
  8
DATA
  6
CONTINUOUS
 62
     7
 10
49.5
 20
770.5
 30
0.0
  0
SEQEND
  5
933
  8
DATA
  6
CONTINUOUS
 62
     7
  0
POLYLINE
  5
2CF
  8
DATA
  6
CONTINUOUS
 62
     7
 66
     1
 10
0.0
 20
0.0
 30
0.0
 70
     1
  0
VERTEX
  5
934
  8
DATA
  6
CONTINUOUS
 62
     7
 10
41.0
 20
751.5
 30
0.0
  0
VERTEX
  5
935
  8
DATA
  6
CONTINUOUS
 62
     7
 10
47.5
 20
751.5
 30
0.0
  0
VERTEX
  5
936
  8
DATA
  6
CONTINUOUS
 62
     7
 10
47.5
 20
745.0
 30
0.0
  0
VERTEX
  5
937
  8
DATA
  6
CONTINUOUS
 62
     7
 10
41.0
 20
745.0
 30
0.0
  0
SEQEND
  5
938
  8
DATA
  6
CONTINUOUS
 62
     7
  0
POLYLINE
  5
2D5
  8
DATA
  6
CONTINUOUS
 62
     7
 66
     1
 10
0.0
 20
0.0
 30
0.0
 70
     1
  0
VERTEX
  5
939
  8
DATA
  6
CONTINUOUS
 62
     7
 10
41.0
 20
743.0
 30
0.0
  0
VERTEX
  5
93A
  8
DATA
  6
CONTINUOUS
 62
     7
 10
47.5
 20
743.0
 30
0.0
  0
VERTEX
  5
93B
  8
DATA
  6
CONTINUOUS
 62
     7
 10
47.5
 20
736.5
 30
0.0
  0
VERTEX
  5
93C
  8
DATA
  6
CONTINUOUS
 62
     7
 10
41.0
 20
736.5
 30
0.0
  0
SEQEND
  5
93D
  8
DATA
  6
CONTINUOUS
 62
     7
  0
POLYLINE
  5
2DB
  8
DATA
  6
CONTINUOUS
 62
     7
 66
     1
 10
0.0
 20
0.0
 30
0.0
 70
     1
  0
VERTEX
  5
93E
  8
DATA
  6
CONTINUOUS
 62
     7
 10
41.0
 20
760.0
 30
0.0
  0
VERTEX
  5
93F
  8
DATA
  6
CONTINUOUS
 62
     7
 10
47.5
 20
760.0
 30
0.0
  0
VERTEX
  5
940
  8
DATA
  6
CONTINUOUS
 62
     7
 10
47.5
 20
753.5
 30
0.0
  0
VERTEX
  5
941
  8
DATA
  6
CONTINUOUS
 62
     7
 10
41.0
 20
753.5
 30
0.0
  0
SEQEND
  5
942
  8
DATA
  6
CONTINUOUS
 62
     7
  0
POLYLINE
  5
2E1
  8
DATA
  6
CONTINUOUS
 62
     7
 66
     1
 10
0.0
 20
0.0
 30
0.0
 70
     1
  0
VERTEX
  5
943
  8
DATA
  6
CONTINUOUS
 62
     7
 10
41.0
 20
768.5
 30
0.0
  0
VERTEX
  5
944
  8
DATA
  6
CONTINUOUS
 62
     7
 10
47.5
 20
768.5
 30
0.0
  0
VERTEX
  5
945
  8
DATA
  6
CONTINUOUS
 62
     7
 10
47.5
 20
762.0
 30
0.0
  0
VERTEX
  5
946
  8
DATA
  6
CONTINUOUS
 62
     7
 10
41.0
 20
762.0
 30
0.0
  0
SEQEND
  5
947
  8
DATA
  6
CONTINUOUS
 62
     7
  0
POLYLINE
  5
2E7
  8
DATA
  6
CONTINUOUS
 62
     7
 66
     1
 10
0.0
 20
0.0
 30
0.0
 70
     1
  0
VERTEX
  5
948
  8
DATA
  6
CONTINUOUS
 62
     7
 10
41.0
 20
777.0
 30
0.0
  0
VERTEX
  5
949
  8
DATA
  6
CONTINUOUS
 62
     7
 10
47.5
 20
777.0
 30
0.0
  0
VERTEX
  5
94A
  8
DATA
  6
CONTINUOUS
 62
     7
 10
47.5
 20
770.5
 30
0.0
  0
VERTEX
  5
94B
  8
DATA
  6
CONTINUOUS
 62
     7
 10
41.0
 20
770.5
 30
0.0
  0
SEQEND
  5
94C
  8
DATA
  6
CONTINUOUS
 62
     7
  0
POLYLINE
  5
2ED
  8
DATA
  6
CONTINUOUS
 62
     7
 66
     1
 10
0.0
 20
0.0
 30
0.0
 70
     1
  0
VERTEX
  5
94D
  8
DATA
  6
CONTINUOUS
 62
     7
 10
32.5
 20
751.5
 30
0.0
  0
VERTEX
  5
94E
  8
DATA
  6
CONTINUOUS
 62
     7
 10
39.0
 20
751.5
 30
0.0
  0
VERTEX
  5
94F
  8
DATA
  6
CONTINUOUS
 62
     7
 10
39.0
 20
745.0
 30
0.0
  0
VERTEX
  5
950
  8
DATA
  6
CONTINUOUS
 62
     7
 10
32.5
 20
745.0
 30
0.0
  0
SEQEND
  5
951
  8
DATA
  6
CONTINUOUS
 62
     7
  0
POLYLINE
  5
2F3
  8
DATA
  6
CONTINUOUS
 62
     7
 66
     1
 10
0.0
 20
0.0
 30
0.0
 70
     1
  0
VERTEX
  5
952
  8
DATA
  6
CONTINUOUS
 62
     7
 10
32.5
 20
743.0
 30
0.0
  0
VERTEX
  5
953
  8
DATA
  6
CONTINUOUS
 62
     7
 10
39.0
 20
743.0
 30
0.0
  0
VERTEX
  5
954
  8
DATA
  6
CONTINUOUS
 62
     7
 10
39.0
 20
736.5
 30
0.0
  0
VERTEX
  5
955
  8
DATA
  6
CONTINUOUS
 62
     7
 10
32.5
 20
736.5
 30
0.0
  0
SEQEND
  5
956
  8
DATA
  6
CONTINUOUS
 62
     7
  0
POLYLINE
  5
2F9
  8
DATA
  6
CONTINUOUS
 62
     7
 66
     1
 10
0.0
 20
0.0
 30
0.0
 70
     1
  0
VERTEX
  5
957
  8
DATA
  6
CONTINUOUS
 62
     7
 10
32.5
 20
760.0
 30
0.0
  0
VERTEX
  5
958
  8
DATA
  6
CONTINUOUS
 62
     7
 10
39.0
 20
760.0
 30
0.0
  0
VERTEX
  5
959
  8
DATA
  6
CONTINUOUS
 62
     7
 10
39.0
 20
753.5
 30
0.0
  0
VERTEX
  5
95A
  8
DATA
  6
CONTINUOUS
 62
     7
 10
32.5
 20
753.5
 30
0.0
  0
SEQEND
  5
95B
  8
DATA
  6
CONTINUOUS
 62
     7
  0
POLYLINE
  5
2FF
  8
DATA
  6
CONTINUOUS
 62
     7
 66
     1
 10
0.0
 20
0.0
 30
0.0
 70
     1
  0
VERTEX
  5
95C
  8
DATA
  6
CONTINUOUS
 62
     7
 10
32.5
 20
768.5
 30
0.0
  0
VERTEX
  5
95D
  8
DATA
  6
CONTINUOUS
 62
     7
 10
39.0
 20
768.5
 30
0.0
  0
VERTEX
  5
95E
  8
DATA
  6
CONTINUOUS
 62
     7
 10
39.0
 20
762.0
 30
0.0
  0
VERTEX
  5
95F
  8
DATA
  6
CONTINUOUS
 62
     7
 10
32.5
 20
762.0
 30
0.0
  0
SEQEND
  5
960
  8
DATA
  6
CONTINUOUS
 62
     7
  0
POLYLINE
  5
305
  8
DATA
  6
CONTINUOUS
 62
     7
 66
     1
 10
0.0
 20
0.0
 30
0.0
 70
     1
  0
VERTEX
  5
961
  8
DATA
  6
CONTINUOUS
 62
     7
 10
32.5
 20
777.0
 30
0.0
  0
VERTEX
  5
962
  8
DATA
  6
CONTINUOUS
 62
     7
 10
39.0
 20
777.0
 30
0.0
  0
VERTEX
  5
963
  8
DATA
  6
CONTINUOUS
 62
     7
 10
39.0
 20
770.5
 30
0.0
  0
VERTEX
  5
964
  8
DATA
  6
CONTINUOUS
 62
     7
 10
32.5
 20
770.5
 30
0.0
  0
SEQEND
  5
965
  8
DATA
  6
CONTINUOUS
 62
     7
  0
POLYLINE
  5
30B
  8
DATA
  6
CONTINUOUS
 62
     7
 66
     1
 10
0.0
 20
0.0
 30
0.0
 70
     1
  0
VERTEX
  5
966
  8
DATA
  6
CONTINUOUS
 62
     7
 10
49.5
 20
734.49999999999989
 30
0.0
  0
VERTEX
  5
967
  8
DATA
  6
CONTINUOUS
 62
     7
 10
56.0
 20
734.49999999999989
 30
0.0
  0
VERTEX
  5
968
  8
DATA
  6
CONTINUOUS
 62
     7
 10
56.0
 20
728.0
 30
0.0
  0
VERTEX
  5
969
  8
DATA
  6
CONTINUOUS
 62
     7
 10
49.5
 20
728.0
 30
0.0
  0
SEQEND
  5
96A
  8
DATA
  6
CONTINUOUS
 62
     7
  0
POLYLINE
  5
311
  8
DATA
  6
CONTINUOUS
 62
     7
 66
     1
 10
0.0
 20
0.0
 30
0.0
 70
     1
  0
VERTEX
  5
96B
  8
DATA
  6
CONTINUOUS
 62
     7
 10
41.0
 20
734.49999999999989
 30
0.0
  0
VERTEX
  5
96C
  8
DATA
  6
CONTINUOUS
 62
     7
 10
47.5
 20
734.49999999999989
 30
0.0
  0
VERTEX
  5
96D
  8
DATA
  6
CONTINUOUS
 62
     7
 10
47.5
 20
728.0
 30
0.0
  0
VERTEX
  5
96E
  8
DATA
  6
CONTINUOUS
 62
     7
 10
41.0
 20
728.0
 30
0.0
  0
SEQEND
  5
96F
  8
DATA
  6
CONTINUOUS
 62
     7
  0
POLYLINE
  5
317
  8
DATA
  6
CONTINUOUS
 62
     7
 66
     1
 10
0.0
 20
0.0
 30
0.0
 70
     1
  0
VERTEX
  5
970
  8
DATA
  6
CONTINUOUS
 62
     7
 10
32.5
 20
734.49999999999989
 30
0.0
  0
VERTEX
  5
971
  8
DATA
  6
CONTINUOUS
 62
     7
 10
39.0
 20
734.49999999999989
 30
0.0
  0
VERTEX
  5
972
  8
DATA
  6
CONTINUOUS
 62
     7
 10
39.0
 20
728.0
 30
0.0
  0
VERTEX
  5
973
  8
DATA
  6
CONTINUOUS
 62
     7
 10
32.5
 20
728.0
 30
0.0
  0
SEQEND
  5
974
  8
DATA
  6
CONTINUOUS
 62
     7
  0
POLYLINE
  5
31D
  8
DATA
  6
CONTINUOUS
 62
     7
 66
     1
 10
0.0
 20
0.0
 30
0.0
 70
     1
  0
VERTEX
  5
975
  8
DATA
  6
CONTINUOUS
 62
     7
 10
58.0
 20
726.0
 30
0.0
  0
VERTEX
  5
976
  8
DATA
  6
CONTINUOUS
 62
     7
 10
64.5
 20
726.0
 30
0.0
  0
VERTEX
  5
977
  8
DATA
  6
CONTINUOUS
 62
     7
 10
64.5
 20
719.5
 30
0.0
  0
VERTEX
  5
978
  8
DATA
  6
CONTINUOUS
 62
     7
 10
58.0
 20
719.5
 30
0.0
  0
SEQEND
  5
979
  8
DATA
  6
CONTINUOUS
 62
     7
  0
POLYLINE
  5
323
  8
DATA
  6
CONTINUOUS
 62
     7
 66
     1
 10
0.0
 20
0.0
 30
0.0
 70
     1
  0
VERTEX
  5
97A
  8
DATA
  6
CONTINUOUS
 62
     7
 10
49.5
 20
726.0
 30
0.0
  0
VERTEX
  5
97B
  8
DATA
  6
CONTINUOUS
 62
     7
 10
56.0
 20
726.0
 30
0.0
  0
VERTEX
  5
97C
  8
DATA
  6
CONTINUOUS
 62
     7
 10
56.0
 20
719.5
 30
0.0
  0
VERTEX
  5
97D
  8
DATA
  6
CONTINUOUS
 62
     7
 10
49.5
 20
719.5
 30
0.0
  0
SEQEND
  5
97E
  8
DATA
  6
CONTINUOUS
 62
     7
  0
POLYLINE
  5
329
  8
DATA
  6
CONTINUOUS
 62
     7
 66
     1
 10
0.0
 20
0.0
 30
0.0
 70
     1
  0
VERTEX
  5
97F
  8
DATA
  6
CONTINUOUS
 62
     7
 10
41.0
 20
726.0
 30
0.0
  0
VERTEX
  5
980
  8
DATA
  6
CONTINUOUS
 62
     7
 10
47.5
 20
726.0
 30
0.0
  0
VERTEX
  5
981
  8
DATA
  6
CONTINUOUS
 62
     7
 10
47.5
 20
719.5
 30
0.0
  0
VERTEX
  5
982
  8
DATA
  6
CONTINUOUS
 62
     7
 10
41.0
 20
719.5
 30
0.0
  0
SEQEND
  5
983
  8
DATA
  6
CONTINUOUS
 62
     7
  0
POLYLINE
  5
32F
  8
DATA
  6
CONTINUOUS
 62
     7
 66
     1
 10
0.0
 20
0.0
 30
0.0
 70
     1
  0
VERTEX
  5
984
  8
DATA
  6
CONTINUOUS
 62
     7
 10
32.5
 20
726.0
 30
0.0
  0
VERTEX
  5
985
  8
DATA
  6
CONTINUOUS
 62
     7
 10
39.0
 20
726.0
 30
0.0
  0
VERTEX
  5
986
  8
DATA
  6
CONTINUOUS
 62
     7
 10
39.0
 20
719.5
 30
0.0
  0
VERTEX
  5
987
  8
DATA
  6
CONTINUOUS
 62
     7
 10
32.5
 20
719.5
 30
0.0
  0
SEQEND
  5
988
  8
DATA
  6
CONTINUOUS
 62
     7
  0
POLYLINE
  5
335
  8
DATA
  6
CONTINUOUS
 62
     7
 66
     1
 10
0.0
 20
0.0
 30
0.0
 70
     1
  0
VERTEX
  5
989
  8
DATA
  6
CONTINUOUS
 62
     7
 10
58.0
 20
717.49999999999989
 30
0.0
  0
VERTEX
  5
98A
  8
DATA
  6
CONTINUOUS
 62
     7
 10
64.5
 20
717.49999999999989
 30
0.0
  0
VERTEX
  5
98B
  8
DATA
  6
CONTINUOUS
 62
     7
 10
64.5
 20
711.0
 30
0.0
  0
VERTEX
  5
98C
  8
DATA
  6
CONTINUOUS
 62
     7
 10
58.0
 20
711.0
 30
0.0
  0
SEQEND
  5
98D
  8
DATA
  6
CONTINUOUS
 62
     7
  0
POLYLINE
  5
33B
  8
DATA
  6
CONTINUOUS
 62
     7
 66
     1
 10
0.0
 20
0.0
 30
0.0
 70
     1
  0
VERTEX
  5
98E
  8
DATA
  6
CONTINUOUS
 62
     7
 10
49.5
 20
717.49999999999989
 30
0.0
  0
VERTEX
  5
98F
  8
DATA
  6
CONTINUOUS
 62
     7
 10
56.0
 20
717.49999999999989
 30
0.0
  0
VERTEX
  5
990
  8
DATA
  6
CONTINUOUS
 62
     7
 10
56.0
 20
711.0
 30
0.0
  0
VERTEX
  5
991
  8
DATA
  6
CONTINUOUS
 62
     7
 10
49.5
 20
711.0
 30
0.0
  0
SEQEND
  5
992
  8
DATA
  6
CONTINUOUS
 62
     7
  0
POLYLINE
  5
341
  8
DATA
  6
CONTINUOUS
 62
     7
 66
     1
 10
0.0
 20
0.0
 30
0.0
 70
     1
  0
VERTEX
  5
993
  8
DATA
  6
CONTINUOUS
 62
     7
 10
41.0
 20
717.49999999999989
 30
0.0
  0
VERTEX
  5
994
  8
DATA
  6
CONTINUOUS
 62
     7
 10
47.5
 20
717.49999999999989
 30
0.0
  0
VERTEX
  5
995
  8
DATA
  6
CONTINUOUS
 62
     7
 10
47.5
 20
711.0
 30
0.0
  0
VERTEX
  5
996
  8
DATA
  6
CONTINUOUS
 62
     7
 10
41.0
 20
711.0
 30
0.0
  0
SEQEND
  5
997
  8
DATA
  6
CONTINUOUS
 62
     7
  0
POLYLINE
  5
347
  8
DATA
  6
CONTINUOUS
 62
     7
 66
     1
 10
0.0
 20
0.0
 30
0.0
 70
     1
  0
VERTEX
  5
998
  8
DATA
  6
CONTINUOUS
 62
     7
 10
32.5
 20
717.49999999999989
 30
0.0
  0
VERTEX
  5
999
  8
DATA
  6
CONTINUOUS
 62
     7
 10
39.0
 20
717.49999999999989
 30
0.0
  0
VERTEX
  5
99A
  8
DATA
  6
CONTINUOUS
 62
     7
 10
39.0
 20
711.0
 30
0.0
  0
VERTEX
  5
99B
  8
DATA
  6
CONTINUOUS
 62
     7
 10
32.5
 20
711.0
 30
0.0
  0
SEQEND
  5
99C
  8
DATA
  6
CONTINUOUS
 62
     7
  0
POLYLINE
  5
34D
  8
DATA
  6
CONTINUOUS
 62
     7
 66
     1
 10
0.0
 20
0.0
 30
0.0
 70
     1
  0
VERTEX
  5
99D
  8
DATA
  6
CONTINUOUS
 62
     7
 10
41.0
 20
709.0
 30
0.0
  0
VERTEX
  5
99E
  8
DATA
  6
CONTINUOUS
 62
     7
 10
56.0
 20
709.0
 30
0.0
  0
VERTEX
  5
99F
  8
DATA
  6
CONTINUOUS
 62
     7
 10
56.0
 20
706.0
 30
0.0
  0
VERTEX
  5
9A0
  8
DATA
  6
CONTINUOUS
 62
     7
 10
41.0
 20
706.0
 30
0.0
  0
SEQEND
  5
9A1
  8
DATA
  6
CONTINUOUS
 62
     7
  0
POLYLINE
  5
353
  8
DATA
  6
CONTINUOUS
 62
     7
 66
     1
 10
0.0
 20
0.0
 30
0.0
 70
     1
  0
VERTEX
  5
9A2
  8
DATA
  6
CONTINUOUS
 62
     7
 10
75.0
 20
734.49999999999989
 30
0.0
  0
VERTEX
  5
9A3
  8
DATA
  6
CONTINUOUS
 62
     7
 10
81.5
 20
734.49999999999989
 30
0.0
  0
VERTEX
  5
9A4
  8
DATA
  6
CONTINUOUS
 62
     7
 10
81.5
 20
728.0
 30
0.0
  0
VERTEX
  5
9A5
  8
DATA
  6
CONTINUOUS
 62
     7
 10
75.0
 20
728.0
 30
0.0
  0
SEQEND
  5
9A6
  8
DATA
  6
CONTINUOUS
 62
     7
  0
POLYLINE
  5
359
  8
DATA
  6
CONTINUOUS
 62
     7
 66
     1
 10
0.0
 20
0.0
 30
0.0
 70
     1
  0
VERTEX
  5
9A7
  8
DATA
  6
CONTINUOUS
 62
     7
 10
83.499999999999986
 20
734.49999999999989
 30
0.0
  0
VERTEX
  5
9A8
  8
DATA
  6
CONTINUOUS
 62
     7
 10
90.0
 20
734.49999999999989
 30
0.0
  0
VERTEX
  5
9A9
  8
DATA
  6
CONTINUOUS
 62
     7
 10
90.0
 20
728.0
 30
0.0
  0
VERTEX
  5
9AA
  8
DATA
  6
CONTINUOUS
 62
     7
 10
83.499999999999986
 20
728.0
 30
0.0
  0
SEQEND
  5
9AB
  8
DATA
  6
CONTINUOUS
 62
     7
  0
POLYLINE
  5
35F
  8
DATA
  6
CONTINUOUS
 62
     7
 66
     1
 10
0.0
 20
0.0
 30
0.0
 70
     1
  0
VERTEX
  5
9AC
  8
DATA
  6
CONTINUOUS
 62
     7
 10
92.0
 20
734.49999999999989
 30
0.0
  0
VERTEX
  5
9AD
  8
DATA
  6
CONTINUOUS
 62
     7
 10
98.500000000000014
 20
734.49999999999989
 30
0.0
  0
VERTEX
  5
9AE
  8
DATA
  6
CONTINUOUS
 62
     7
 10
98.500000000000014
 20
728.0
 30
0.0
  0
VERTEX
  5
9AF
  8
DATA
  6
CONTINUOUS
 62
     7
 10
92.0
 20
728.0
 30
0.0
  0
SEQEND
  5
9B0
  8
DATA
  6
CONTINUOUS
 62
     7
  0
POLYLINE
  5
365
  8
DATA
  6
CONTINUOUS
 62
     7
 66
     1
 10
0.0
 20
0.0
 30
0.0
 70
     1
  0
VERTEX
  5
9B1
  8
DATA
  6
CONTINUOUS
 62
     7
 10
66.5
 20
726.0
 30
0.0
  0
VERTEX
  5
9B2
  8
DATA
  6
CONTINUOUS
 62
     7
 10
73.0
 20
726.0
 30
0.0
  0
VERTEX
  5
9B3
  8
DATA
  6
CONTINUOUS
 62
     7
 10
73.0
 20
719.5
 30
0.0
  0
VERTEX
  5
9B4
  8
DATA
  6
CONTINUOUS
 62
     7
 10
66.5
 20
719.5
 30
0.0
  0
SEQEND
  5
9B5
  8
DATA
  6
CONTINUOUS
 62
     7
  0
POLYLINE
  5
36B
  8
DATA
  6
CONTINUOUS
 62
     7
 66
     1
 10
0.0
 20
0.0
 30
0.0
 70
     1
  0
VERTEX
  5
9B6
  8
DATA
  6
CONTINUOUS
 62
     7
 10
75.0
 20
726.0
 30
0.0
  0
VERTEX
  5
9B7
  8
DATA
  6
CONTINUOUS
 62
     7
 10
81.5
 20
726.0
 30
0.0
  0
VERTEX
  5
9B8
  8
DATA
  6
CONTINUOUS
 62
     7
 10
81.5
 20
719.5
 30
0.0
  0
VERTEX
  5
9B9
  8
DATA
  6
CONTINUOUS
 62
     7
 10
75.0
 20
719.5
 30
0.0
  0
SEQEND
  5
9BA
  8
DATA
  6
CONTINUOUS
 62
     7
  0
POLYLINE
  5
371
  8
DATA
  6
CONTINUOUS
 62
     7
 66
     1
 10
0.0
 20
0.0
 30
0.0
 70
     1
  0
VERTEX
  5
9BB
  8
DATA
  6
CONTINUOUS
 62
     7
 10
83.499999999999986
 20
726.0
 30
0.0
  0
VERTEX
  5
9BC
  8
DATA
  6
CONTINUOUS
 62
     7
 10
90.0
 20
726.0
 30
0.0
  0
VERTEX
  5
9BD
  8
DATA
  6
CONTINUOUS
 62
     7
 10
90.0
 20
719.5
 30
0.0
  0
VERTEX
  5
9BE
  8
DATA
  6
CONTINUOUS
 62
     7
 10
83.499999999999986
 20
719.5
 30
0.0
  0
SEQEND
  5
9BF
  8
DATA
  6
CONTINUOUS
 62
     7
  0
POLYLINE
  5
377
  8
DATA
  6
CONTINUOUS
 62
     7
 66
     1
 10
0.0
 20
0.0
 30
0.0
 70
     1
  0
VERTEX
  5
9C0
  8
DATA
  6
CONTINUOUS
 62
     7
 10
92.0
 20
726.0
 30
0.0
  0
VERTEX
  5
9C1
  8
DATA
  6
CONTINUOUS
 62
     7
 10
98.500000000000014
 20
726.0
 30
0.0
  0
VERTEX
  5
9C2
  8
DATA
  6
CONTINUOUS
 62
     7
 10
98.500000000000014
 20
719.5
 30
0.0
  0
VERTEX
  5
9C3
  8
DATA
  6
CONTINUOUS
 62
     7
 10
92.0
 20
719.5
 30
0.0
  0
SEQEND
  5
9C4
  8
DATA
  6
CONTINUOUS
 62
     7
  0
POLYLINE
  5
37D
  8
DATA
  6
CONTINUOUS
 62
     7
 66
     1
 10
0.0
 20
0.0
 30
0.0
 70
     1
  0
VERTEX
  5
9C5
  8
DATA
  6
CONTINUOUS
 62
     7
 10
66.5
 20
717.49999999999989
 30
0.0
  0
VERTEX
  5
9C6
  8
DATA
  6
CONTINUOUS
 62
     7
 10
73.0
 20
717.49999999999989
 30
0.0
  0
VERTEX
  5
9C7
  8
DATA
  6
CONTINUOUS
 62
     7
 10
73.0
 20
711.0
 30
0.0
  0
VERTEX
  5
9C8
  8
DATA
  6
CONTINUOUS
 62
     7
 10
66.5
 20
711.0
 30
0.0
  0
SEQEND
  5
9C9
  8
DATA
  6
CONTINUOUS
 62
     7
  0
POLYLINE
  5
383
  8
DATA
  6
CONTINUOUS
 62
     7
 66
     1
 10
0.0
 20
0.0
 30
0.0
 70
     1
  0
VERTEX
  5
9CA
  8
DATA
  6
CONTINUOUS
 62
     7
 10
75.0
 20
717.49999999999989
 30
0.0
  0
VERTEX
  5
9CB
  8
DATA
  6
CONTINUOUS
 62
     7
 10
81.5
 20
717.49999999999989
 30
0.0
  0
VERTEX
  5
9CC
  8
DATA
  6
CONTINUOUS
 62
     7
 10
81.5
 20
711.0
 30
0.0
  0
VERTEX
  5
9CD
  8
DATA
  6
CONTINUOUS
 62
     7
 10
75.0
 20
711.0
 30
0.0
  0
SEQEND
  5
9CE
  8
DATA
  6
CONTINUOUS
 62
     7
  0
POLYLINE
  5
389
  8
DATA
  6
CONTINUOUS
 62
     7
 66
     1
 10
0.0
 20
0.0
 30
0.0
 70
     1
  0
VERTEX
  5
9CF
  8
DATA
  6
CONTINUOUS
 62
     7
 10
83.499999999999986
 20
717.49999999999989
 30
0.0
  0
VERTEX
  5
9D0
  8
DATA
  6
CONTINUOUS
 62
     7
 10
90.0
 20
717.49999999999989
 30
0.0
  0
VERTEX
  5
9D1
  8
DATA
  6
CONTINUOUS
 62
     7
 10
90.0
 20
711.0
 30
0.0
  0
VERTEX
  5
9D2
  8
DATA
  6
CONTINUOUS
 62
     7
 10
83.499999999999986
 20
711.0
 30
0.0
  0
SEQEND
  5
9D3
  8
DATA
  6
CONTINUOUS
 62
     7
  0
POLYLINE
  5
38F
  8
DATA
  6
CONTINUOUS
 62
     7
 66
     1
 10
0.0
 20
0.0
 30
0.0
 70
     1
  0
VERTEX
  5
9D4
  8
DATA
  6
CONTINUOUS
 62
     7
 10
92.0
 20
717.49999999999989
 30
0.0
  0
VERTEX
  5
9D5
  8
DATA
  6
CONTINUOUS
 62
     7
 10
98.500000000000014
 20
717.49999999999989
 30
0.0
  0
VERTEX
  5
9D6
  8
DATA
  6
CONTINUOUS
 62
     7
 10
98.500000000000014
 20
711.0
 30
0.0
  0
VERTEX
  5
9D7
  8
DATA
  6
CONTINUOUS
 62
     7
 10
92.0
 20
711.0
 30
0.0
  0
SEQEND
  5
9D8
  8
DATA
  6
CONTINUOUS
 62
     7
  0
POLYLINE
  5
395
  8
DATA
  6
CONTINUOUS
 62
     7
 66
     1
 10
0.0
 20
0.0
 30
0.0
 70
     1
  0
VERTEX
  5
9D9
  8
DATA
  6
CONTINUOUS
 62
     7
 10
41.0
 20
781.5
 30
0.0
  0
VERTEX
  5
9DA
  8
DATA
  6
CONTINUOUS
 62
     7
 10
56.0
 20
781.5
 30
0.0
  0
VERTEX
  5
9DB
  8
DATA
  6
CONTINUOUS
 62
     7
 10
56.0
 20
779.0
 30
0.0
  0
VERTEX
  5
9DC
  8
DATA
  6
CONTINUOUS
 62
     7
 10
41.0
 20
779.0
 30
0.0
  0
SEQEND
  5
9DD
  8
DATA
  6
CONTINUOUS
 62
     7
  0
POLYLINE
  5
39B
  8
DATA
  6
CONTINUOUS
 62
     7
 66
     1
 10
0.0
 20
0.0
 30
0.0
 70
     1
  0
VERTEX
  5
9DE
  8
DATA
  6
CONTINUOUS
 62
     7
 10
58.0
 20
781.5
 30
0.0
  0
VERTEX
  5
9DF
  8
DATA
  6
CONTINUOUS
 62
     7
 10
73.0
 20
781.5
 30
0.0
  0
VERTEX
  5
9E0
  8
DATA
  6
CONTINUOUS
 62
     7
 10
73.0
 20
779.0
 30
0.0
  0
VERTEX
  5
9E1
  8
DATA
  6
CONTINUOUS
 62
     7
 10
58.0
 20
779.0
 30
0.0
  0
SEQEND
  5
9E2
  8
DATA
  6
CONTINUOUS
 62
     7
  0
POLYLINE
  5
3A1
  8
DATA
  6
CONTINUOUS
 62
     7
 66
     1
 10
0.0
 20
0.0
 30
0.0
 70
     1
  0
VERTEX
  5
9E3
  8
DATA
  6
CONTINUOUS
 62
     7
 10
75.0
 20
781.5
 30
0.0
  0
VERTEX
  5
9E4
  8
DATA
  6
CONTINUOUS
 62
     7
 10
90.0
 20
781.5
 30
0.0
  0
VERTEX
  5
9E5
  8
DATA
  6
CONTINUOUS
 62
     7
 10
90.0
 20
779.0
 30
0.0
  0
VERTEX
  5
9E6
  8
DATA
  6
CONTINUOUS
 62
     7
 10
75.0
 20
779.0
 30
0.0
  0
SEQEND
  5
9E7
  8
DATA
  6
CONTINUOUS
 62
     7
  0
POLYLINE
  5
3A7
  8
DATA
  6
CONTINUOUS
 62
     7
 66
     1
 10
0.0
 20
0.0
 30
0.0
 70
     1
  0
VERTEX
  5
9E8
  8
DATA
  6
CONTINUOUS
 62
     7
 10
58.0
 20
709.0
 30
0.0
  0
VERTEX
  5
9E9
  8
DATA
  6
CONTINUOUS
 62
     7
 10
73.0
 20
709.0
 30
0.0
  0
VERTEX
  5
9EA
  8
DATA
  6
CONTINUOUS
 62
     7
 10
73.0
 20
706.0
 30
0.0
  0
VERTEX
  5
9EB
  8
DATA
  6
CONTINUOUS
 62
     7
 10
58.0
 20
706.0
 30
0.0
  0
SEQEND
  5
9EC
  8
DATA
  6
CONTINUOUS
 62
     7
  0
POLYLINE
  5
3AD
  8
DATA
  6
CONTINUOUS
 62
     7
 66
     1
 10
0.0
 20
0.0
 30
0.0
 70
     1
  0
VERTEX
  5
9ED
  8
DATA
  6
CONTINUOUS
 62
     7
 10
75.0
 20
709.0
 30
0.0
  0
VERTEX
  5
9EE
  8
DATA
  6
CONTINUOUS
 62
     7
 10
90.0
 20
709.0
 30
0.0
  0
VERTEX
  5
9EF
  8
DATA
  6
CONTINUOUS
 62
     7
 10
90.0
 20
706.0
 30
0.0
  0
VERTEX
  5
9F0
  8
DATA
  6
CONTINUOUS
 62
     7
 10
75.0
 20
706.0
 30
0.0
  0
SEQEND
  5
9F1
  8
DATA
  6
CONTINUOUS
 62
     7
  0
POLYLINE
  5
3B3
  8
DATA
  6
CONTINUOUS
 62
     7
 66
     1
 10
0.0
 20
0.0
 30
0.0
 70
     1
  0
VERTEX
  5
9F2
  8
DATA
  6
CONTINUOUS
 62
     7
 10
27.5
 20
768.5
 30
0.0
  0
VERTEX
  5
9F3
  8
DATA
  6
CONTINUOUS
 62
     7
 10
30.5
 20
768.5
 30
0.0
  0
VERTEX
  5
9F4
  8
DATA
  6
CONTINUOUS
 62
     7
 10
30.5
 20
753.5
 30
0.0
  0
VERTEX
  5
9F5
  8
DATA
  6
CONTINUOUS
 62
     7
 10
27.5
 20
753.5
 30
0.0
  0
SEQEND
  5
9F6
  8
DATA
  6
CONTINUOUS
 62
     7
  0
POLYLINE
  5
3B9
  8
DATA
  6
CONTINUOUS
 62
     7
 66
     1
 10
0.0
 20
0.0
 30
0.0
 70
     1
  0
VERTEX
  5
9F7
  8
DATA
  6
CONTINUOUS
 62
     7
 10
27.5
 20
751.5
 30
0.0
  0
VERTEX
  5
9F8
  8
DATA
  6
CONTINUOUS
 62
     7
 10
30.5
 20
751.5
 30
0.0
  0
VERTEX
  5
9F9
  8
DATA
  6
CONTINUOUS
 62
     7
 10
30.5
 20
736.5
 30
0.0
  0
VERTEX
  5
9FA
  8
DATA
  6
CONTINUOUS
 62
     7
 10
27.5
 20
736.5
 30
0.0
  0
SEQEND
  5
9FB
  8
DATA
  6
CONTINUOUS
 62
     7
  0
POLYLINE
  5
3BF
  8
DATA
  6
CONTINUOUS
 62
     7
 66
     1
 10
0.0
 20
0.0
 30
0.0
 70
     1
  0
VERTEX
  5
9FC
  8
DATA
  6
CONTINUOUS
 62
     7
 10
27.5
 20
734.49999999999989
 30
0.0
  0
VERTEX
  5
9FD
  8
DATA
  6
CONTINUOUS
 62
     7
 10
30.5
 20
734.49999999999989
 30
0.0
  0
VERTEX
  5
9FE
  8
DATA
  6
CONTINUOUS
 62
     7
 10
30.5
 20
719.5
 30
0.0
  0
VERTEX
  5
9FF
  8
DATA
  6
CONTINUOUS
 62
     7
 10
27.5
 20
719.5
 30
0.0
  0
SEQEND
  5
A00
  8
DATA
  6
CONTINUOUS
 62
     7
  0
POLYLINE
  5
3C5
  8
DATA
  6
CONTINUOUS
 62
     7
 66
     1
 10
0.0
 20
0.0
 30
0.0
 70
     1
  0
VERTEX
  5
A01
  8
DATA
  6
CONTINUOUS
 62
     7
 10
100.5
 20
751.5
 30
0.0
  0
VERTEX
  5
A02
  8
DATA
  6
CONTINUOUS
 62
     7
 10
107.0
 20
751.5
 30
0.0
  0
VERTEX
  5
A03
  8
DATA
  6
CONTINUOUS
 62
     7
 10
107.0
 20
745.0
 30
0.0
  0
VERTEX
  5
A04
  8
DATA
  6
CONTINUOUS
 62
     7
 10
100.5
 20
745.0
 30
0.0
  0
SEQEND
  5
A05
  8
DATA
  6
CONTINUOUS
 62
     7
  0
POLYLINE
  5
3CB
  8
DATA
  6
CONTINUOUS
 62
     7
 66
     1
 10
0.0
 20
0.0
 30
0.0
 70
     1
  0
VERTEX
  5
A06
  8
DATA
  6
CONTINUOUS
 62
     7
 10
100.5
 20
743.0
 30
0.0
  0
VERTEX
  5
A07
  8
DATA
  6
CONTINUOUS
 62
     7
 10
107.0
 20
743.0
 30
0.0
  0
VERTEX
  5
A08
  8
DATA
  6
CONTINUOUS
 62
     7
 10
107.0
 20
736.5
 30
0.0
  0
VERTEX
  5
A09
  8
DATA
  6
CONTINUOUS
 62
     7
 10
100.5
 20
736.5
 30
0.0
  0
SEQEND
  5
A0A
  8
DATA
  6
CONTINUOUS
 62
     7
  0
POLYLINE
  5
3D1
  8
DATA
  6
CONTINUOUS
 62
     7
 66
     1
 10
0.0
 20
0.0
 30
0.0
 70
     1
  0
VERTEX
  5
A0B
  8
DATA
  6
CONTINUOUS
 62
     7
 10
100.5
 20
760.0
 30
0.0
  0
VERTEX
  5
A0C
  8
DATA
  6
CONTINUOUS
 62
     7
 10
107.0
 20
760.0
 30
0.0
  0
VERTEX
  5
A0D
  8
DATA
  6
CONTINUOUS
 62
     7
 10
107.0
 20
753.5
 30
0.0
  0
VERTEX
  5
A0E
  8
DATA
  6
CONTINUOUS
 62
     7
 10
100.5
 20
753.5
 30
0.0
  0
SEQEND
  5
A0F
  8
DATA
  6
CONTINUOUS
 62
     7
  0
POLYLINE
  5
3D7
  8
DATA
  6
CONTINUOUS
 62
     7
 66
     1
 10
0.0
 20
0.0
 30
0.0
 70
     1
  0
VERTEX
  5
A10
  8
DATA
  6
CONTINUOUS
 62
     7
 10
100.5
 20
768.5
 30
0.0
  0
VERTEX
  5
A11
  8
DATA
  6
CONTINUOUS
 62
     7
 10
107.0
 20
768.5
 30
0.0
  0
VERTEX
  5
A12
  8
DATA
  6
CONTINUOUS
 62
     7
 10
107.0
 20
762.0
 30
0.0
  0
VERTEX
  5
A13
  8
DATA
  6
CONTINUOUS
 62
     7
 10
100.5
 20
762.0
 30
0.0
  0
SEQEND
  5
A14
  8
DATA
  6
CONTINUOUS
 62
     7
  0
POLYLINE
  5
3DD
  8
DATA
  6
CONTINUOUS
 62
     7
 66
     1
 10
0.0
 20
0.0
 30
0.0
 70
     1
  0
VERTEX
  5
A15
  8
DATA
  6
CONTINUOUS
 62
     7
 10
100.5
 20
734.49999999999989
 30
0.0
  0
VERTEX
  5
A16
  8
DATA
  6
CONTINUOUS
 62
     7
 10
107.0
 20
734.49999999999989
 30
0.0
  0
VERTEX
  5
A17
  8
DATA
  6
CONTINUOUS
 62
     7
 10
107.0
 20
728.0
 30
0.0
  0
VERTEX
  5
A18
  8
DATA
  6
CONTINUOUS
 62
     7
 10
100.5
 20
728.0
 30
0.0
  0
SEQEND
  5
A19
  8
DATA
  6
CONTINUOUS
 62
     7
  0
POLYLINE
  5
3E3
  8
DATA
  6
CONTINUOUS
 62
     7
 66
     1
 10
0.0
 20
0.0
 30
0.0
 70
     1
  0
VERTEX
  5
A1A
  8
DATA
  6
CONTINUOUS
 62
     7
 10
100.5
 20
726.0
 30
0.0
  0
VERTEX
  5
A1B
  8
DATA
  6
CONTINUOUS
 62
     7
 10
107.0
 20
726.0
 30
0.0
  0
VERTEX
  5
A1C
  8
DATA
  6
CONTINUOUS
 62
     7
 10
107.0
 20
719.5
 30
0.0
  0
VERTEX
  5
A1D
  8
DATA
  6
CONTINUOUS
 62
     7
 10
100.5
 20
719.5
 30
0.0
  0
SEQEND
  5
A1E
  8
DATA
  6
CONTINUOUS
 62
     7
  0
LINE
  5
3E9
  8
DATA
  6
CONTINUOUS
 62
     7
 10
117.0
 20
705.25
 30
0.0
 11
136.5
 21
705.25
 31
0.0
  0
LINE
  5
3EA
  8
DATA
  6
CONTINUOUS
 62
     7
 10
136.5
 20
705.25
 30
0.0
 11
136.5
 21
724.24999999999989
 31
0.0
  0
LINE
  5
3EB
  8
DATA
  6
CONTINUOUS
 62
     7
 10
136.5
 20
724.24999999999989
 30
0.0
 11
117.0
 21
724.24999999999989
 31
0.0
  0
LINE
  5
3EC
  8
DATA
  6
CONTINUOUS
 62
     7
 10
117.0
 20
724.24999999999989
 30
0.0
 11
117.0
 21
705.25
 31
0.0
  0
LINE
  5
3ED
  8
DATA
  6
CONTINUOUS
 62
     7
 10
112.0
 20
722.25
 30
0.0
 11
112.0
 21
707.24999999999989
 31
0.0
  0
LINE
  5
3EE
  8
DATA
  6
CONTINUOUS
 62
     7
 10
112.0
 20
722.25
 30
0.0
 11
117.0
 21
722.25
 31
0.0
  0
LINE
  5
3EF
  8
DATA
  6
CONTINUOUS
 62
     7
 10
112.0
 20
707.24999999999989
 30
0.0
 11
117.0
 21
707.24999999999989
 31
0.0
  0
ARC
  5
3F0
  8
DATA
  6
CONTINUOUS
 62
     7
 10
126.7499999999998
 20
714.74999999999955
 30
0.0
 40
7.7500000000002851
 50
99.281799086675505
 51
140.71820091331861
  0
ARC
  5
3F1
  8
DATA
  6
CONTINUOUS
 62
     7
 10
126.7499999999998
 20
714.74999999999955
 30
0.0
 40
7.7500000000002691
 50
159.2817990866769
 51
200.71820091332049
  0
ARC
  5
3F2
  8
DATA
  6
CONTINUOUS
 62
     7
 10
126.7499999999998
 20
714.74999999999955
 30
0.0
 40
7.7500000000002833
 50
219.28179908667479
 51
260.71820091332461
  0
ARC
  5
3F3
  8
DATA
  6
CONTINUOUS
 62
     7
 10
126.7499999999998
 20
714.74999999999955
 30
0.0
 40
7.7500000000002851
 50
279.28179908667551
 51
320.71820091332518
  0
ARC
  5
3F4
  8
DATA
  6
CONTINUOUS
 62
     7
 10
126.7499999999998
 20
714.74999999999955
 30
0.0
 40
7.7500000000003046
 50
339.28179908668329
 51
20.718200913324829
  0
ARC
  5
3F5
  8
DATA
  6
CONTINUOUS
 62
     7
 10
126.7499999999998
 20
714.74999999999955
 30
0.0
 40
7.7500000000002753
 50
39.281799086681403
 51
80.718200913321098
  0
CIRCLE
  5
3F6
  8
DATA
  6
CONTINUOUS
 62
     7
 10
126.75
 20
714.74999999999989
 30
0.0
 40
3.25
  0
LINE
  5
3F7
  8
DATA
  6
CONTINUOUS
 62
     7
 10
128.0
 20
722.49999999999761
 30
0.0
 11
128.0
 21
717.75
 31
0.0
  0
LINE
  5
3F8
  8
DATA
  6
CONTINUOUS
 62
     7
 10
128.0
 20
711.74999999999989
 30
0.0
 11
128.0
 21
707.00000000000239
 31
0.0
  0
LINE
  5
3F9
  8
DATA
  6
CONTINUOUS
 62
     7
 10
125.5
 20
707.00000000000239
 30
0.0
 11
125.5
 21
711.74999999999989
 31
0.0
  0
LINE
  5
3FA
  8
DATA
  6
CONTINUOUS
 62
     7
 10
125.5
 20
717.75
 30
0.0
 11
125.5
 21
722.49999999999761
 31
0.0
  0
LINE
  5
3FB
  8
DATA
  6
CONTINUOUS
 62
     7
 10
120.66330312067289
 20
719.7075317547293
 30
0.0
 11
124.77692378865029
 21
717.33253175472851
 31
0.0
  0
LINE
  5
3FC
  8
DATA
  6
CONTINUOUS
 62
     7
 10
129.97307621134971
 20
714.33253175473283
 30
0.0
 11
134.08669687932709
 21
711.95753175473192
 31
0.0
  0
LINE
  5
3FD
  8
DATA
  6
CONTINUOUS
 62
     7
 10
132.83669687932709
 20
709.79246824527058
 30
0.0
 11
128.72307621135329
 21
712.16746824526945
 31
0.0
  0
LINE
  5
3FE
  8
DATA
  6
CONTINUOUS
 62
     7
 10
123.5269237886467
 20
715.16746824526945
 30
0.0
 11
119.41330312067289
 21
717.54246824526797
 31
0.0
  0
LINE
  5
3FF
  8
DATA
  6
CONTINUOUS
 62
     7
 10
134.08669687932709
 20
717.54246824526797
 30
0.0
 11
129.9730762113569
 21
715.16746824527138
 31
0.0
  0
LINE
  5
400
  8
DATA
  6
CONTINUOUS
 62
     7
 10
124.7769237886467
 20
712.16746824526945
 30
0.0
 11
120.66330312067289
 21
709.79246824527058
 31
0.0
  0
LINE
  5
401
  8
DATA
  6
CONTINUOUS
 62
     7
 10
119.41330312067289
 20
711.95753175473192
 30
0.0
 11
123.5269237886467
 21
714.33253175473055
 31
0.0
  0
LINE
  5
402
  8
DATA
  6
CONTINUOUS
 62
     7
 10
128.72307621135329
 20
717.33253175473055
 30
0.0
 11
132.83669687932709
 21
719.7075317547293
 31
0.0
  0
ARC
  5
403
  8
DATA
  6
CONTINUOUS
 62
     7
 10
126.75
 20
714.74999999999989
 30
0.0
 40
6.250000000000056
 50
138.46304096718461
 51
161.53695903282031
  0
ARC
  5
404
  8
DATA
  6
CONTINUOUS
 62
     7
 10
126.75
 20
714.74999999999989
 30
0.0
 40
6.2500000000000568
 50
198.46304096717989
 51
221.53695903282011
  0
ARC
  5
405
  8
DATA
  6
CONTINUOUS
 62
     7
 10
126.75
 20
714.74999999999989
 30
0.0
 40
6.2500000000000711
 50
258.4630409671841
 51
281.53695903281488
  0
ARC
  5
406
  8
DATA
  6
CONTINUOUS
 62
     7
 10
126.75
 20
714.74999999999989
 30
0.0
 40
6.250000000000056
 50
318.4630409671845
 51
341.53695903282011
  0
ARC
  5
407
  8
DATA
  6
CONTINUOUS
 62
     7
 10
126.75
 20
714.74999999999989
 30
0.0
 40
6.2500000000000568
 50
18.463040967179921
 51
41.536959032820079
  0
ARC
  5
408
  8
DATA
  6
CONTINUOUS
 62
     7
 10
126.75
 20
714.74999999999989
 30
0.0
 40
6.2500000000000488
 50
78.463040967185151
 51
101.5369590328159
  0
POLYLINE
  5
409
  8
DATA
  6
CONTINUOUS
 62
     7
 66
     1
 10
0.0
 20
0.0
 30
0.0
 70
     1
  0
VERTEX
  5
A1F
  8
DATA
  6
CONTINUOUS
 62
     7
 10
131.22446458621809
 20
722.49999999999761
 30
0.0
  0
VERTEX
  5
A20
  8
DATA
  6
CONTINUOUS
 62
     7
 10
122.27553541378199
 20
722.49999999999761
 30
0.0
  0
VERTEX
  5
A21
  8
DATA
  6
CONTINUOUS
 62
     7
 10
117.8010708275639
 20
714.74999999999989
 30
0.0
  0
VERTEX
  5
A22
  8
DATA
  6
CONTINUOUS
 62
     7
 10
122.2755354137819
 20
707.00000000000239
 30
0.0
  0
VERTEX
  5
A23
  8
DATA
  6
CONTINUOUS
 62
     7
 10
131.22446458621809
 20
707.00000000000239
 30
0.0
  0
VERTEX
  5
A24
  8
DATA
  6
CONTINUOUS
 62
     7
 10
135.69892917243621
 20
714.74999999999989
 30
0.0
  0
SEQEND
  5
A25
  8
DATA
  6
CONTINUOUS
 62
     7
  0
LINE
  5
411
  8
DATA
  6
CONTINUOUS
 62
     7
 10
117.0
 20
724.75
 30
0.0
 11
136.5
 21
724.75
 31
0.0
  0
LINE
  5
412
  8
DATA
  6
CONTINUOUS
 62
     7
 10
136.5
 20
724.75
 30
0.0
 11
136.5
 21
743.75
 31
0.0
  0
LINE
  5
413
  8
DATA
  6
CONTINUOUS
 62
     7
 10
136.5
 20
743.75
 30
0.0
 11
117.0
 21
743.75
 31
0.0
  0
LINE
  5
414
  8
DATA
  6
CONTINUOUS
 62
     7
 10
117.0
 20
743.75
 30
0.0
 11
117.0
 21
724.75
 31
0.0
  0
LINE
  5
415
  8
DATA
  6
CONTINUOUS
 62
     7
 10
112.0
 20
741.75
 30
0.0
 11
112.0
 21
726.75
 31
0.0
  0
LINE
  5
416
  8
DATA
  6
CONTINUOUS
 62
     7
 10
112.0
 20
741.75
 30
0.0
 11
117.0
 21
741.75
 31
0.0
  0
LINE
  5
417
  8
DATA
  6
CONTINUOUS
 62
     7
 10
112.0
 20
726.75
 30
0.0
 11
117.0
 21
726.75
 31
0.0
  0
ARC
  5
418
  8
DATA
  6
CONTINUOUS
 62
     7
 10
126.7499999999998
 20
734.24999999999955
 30
0.0
 40
7.7500000000002851
 50
99.281799086675505
 51
140.71820091331861
  0
ARC
  5
419
  8
DATA
  6
CONTINUOUS
 62
     7
 10
126.7499999999998
 20
734.24999999999955
 30
0.0
 40
7.7500000000002691
 50
159.2817990866769
 51
200.71820091332049
  0
ARC
  5
41A
  8
DATA
  6
CONTINUOUS
 62
     7
 10
126.7499999999998
 20
734.24999999999955
 30
0.0
 40
7.7500000000002913
 50
219.28179908667491
 51
260.71820091332461
  0
ARC
  5
41B
  8
DATA
  6
CONTINUOUS
 62
     7
 10
126.7499999999998
 20
734.24999999999955
 30
0.0
 40
7.7500000000002851
 50
279.28179908667551
 51
320.71820091332512
  0
ARC
  5
41C
  8
DATA
  6
CONTINUOUS
 62
     7
 10
126.7499999999998
 20
734.24999999999955
 30
0.0
 40
7.7500000000003046
 50
339.28179908668329
 51
20.718200913324718
  0
ARC
  5
41D
  8
DATA
  6
CONTINUOUS
 62
     7
 10
126.7499999999998
 20
734.24999999999955
 30
0.0
 40
7.7500000000002647
 50
39.281799086681332
 51
80.718200913321098
  0
CIRCLE
  5
41E
  8
DATA
  6
CONTINUOUS
 62
     7
 10
126.75
 20
734.25
 30
0.0
 40
3.25
  0
LINE
  5
41F
  8
DATA
  6
CONTINUOUS
 62
     7
 10
128.0
 20
741.9999999999975
 30
0.0
 11
128.0
 21
737.25
 31
0.0
  0
LINE
  5
420
  8
DATA
  6
CONTINUOUS
 62
     7
 10
128.0
 20
731.25
 30
0.0
 11
128.0
 21
726.50000000000227
 31
0.0
  0
LINE
  5
421
  8
DATA
  6
CONTINUOUS
 62
     7
 10
125.5
 20
726.50000000000227
 30
0.0
 11
125.5
 21
731.25
 31
0.0
  0
LINE
  5
422
  8
DATA
  6
CONTINUOUS
 62
     7
 10
125.5
 20
737.25
 30
0.0
 11
125.5
 21
741.9999999999975
 31
0.0
  0
LINE
  5
423
  8
DATA
  6
CONTINUOUS
 62
     7
 10
120.66330312067289
 20
739.2075317547293
 30
0.0
 11
124.77692378865029
 21
736.83253175472839
 31
0.0
  0
LINE
  5
424
  8
DATA
  6
CONTINUOUS
 62
     7
 10
129.97307621134971
 20
733.83253175473271
 30
0.0
 11
134.08669687932709
 21
731.45753175473169
 31
0.0
  0
LINE
  5
425
  8
DATA
  6
CONTINUOUS
 62
     7
 10
132.83669687932709
 20
729.29246824527058
 30
0.0
 11
128.72307621135329
 21
731.66746824526945
 31
0.0
  0
LINE
  5
426
  8
DATA
  6
CONTINUOUS
 62
     7
 10
123.5269237886467
 20
734.66746824526945
 30
0.0
 11
119.41330312067289
 21
737.04246824526797
 31
0.0
  0
LINE
  5
427
  8
DATA
  6
CONTINUOUS
 62
     7
 10
134.08669687932709
 20
737.04246824526797
 30
0.0
 11
129.9730762113569
 21
734.66746824527138
 31
0.0
  0
LINE
  5
428
  8
DATA
  6
CONTINUOUS
 62
     7
 10
124.7769237886467
 20
731.66746824526945
 30
0.0
 11
120.66330312067289
 21
729.29246824527058
 31
0.0
  0
LINE
  5
429
  8
DATA
  6
CONTINUOUS
 62
     7
 10
119.41330312067289
 20
731.45753175473192
 30
0.0
 11
123.5269237886467
 21
733.83253175473055
 31
0.0
  0
LINE
  5
42A
  8
DATA
  6
CONTINUOUS
 62
     7
 10
128.72307621135329
 20
736.83253175473055
 30
0.0
 11
132.83669687932709
 21
739.2075317547293
 31
0.0
  0
ARC
  5
42B
  8
DATA
  6
CONTINUOUS
 62
     7
 10
126.75
 20
734.25
 30
0.0
 40
6.250000000000056
 50
138.46304096718461
 51
161.53695903282031
  0
ARC
  5
42C
  8
DATA
  6
CONTINUOUS
 62
     7
 10
126.75
 20
734.25
 30
0.0
 40
6.2500000000000524
 50
198.46304096717981
 51
221.53695903281999
  0
ARC
  5
42D
  8
DATA
  6
CONTINUOUS
 62
     7
 10
126.75
 20
734.25
 30
0.0
 40
6.2500000000000577
 50
258.4630409671841
 51
281.53695903281488
  0
ARC
  5
42E
  8
DATA
  6
CONTINUOUS
 62
     7
 10
126.75
 20
734.25
 30
0.0
 40
6.250000000000056
 50
318.4630409671845
 51
341.53695903281999
  0
ARC
  5
42F
  8
DATA
  6
CONTINUOUS
 62
     7
 10
126.75
 20
734.25
 30
0.0
 40
6.2500000000000568
 50
18.463040967179921
 51
41.536959032820079
  0
ARC
  5
430
  8
DATA
  6
CONTINUOUS
 62
     7
 10
126.75
 20
734.25
 30
0.0
 40
6.2500000000000488
 50
78.463040967185151
 51
101.5369590328159
  0
POLYLINE
  5
431
  8
DATA
  6
CONTINUOUS
 62
     7
 66
     1
 10
0.0
 20
0.0
 30
0.0
 70
     1
  0
VERTEX
  5
A26
  8
DATA
  6
CONTINUOUS
 62
     7
 10
131.22446458621809
 20
741.9999999999975
 30
0.0
  0
VERTEX
  5
A27
  8
DATA
  6
CONTINUOUS
 62
     7
 10
122.27553541378199
 20
741.9999999999975
 30
0.0
  0
VERTEX
  5
A28
  8
DATA
  6
CONTINUOUS
 62
     7
 10
117.8010708275639
 20
734.25
 30
0.0
  0
VERTEX
  5
A29
  8
DATA
  6
CONTINUOUS
 62
     7
 10
122.2755354137819
 20
726.50000000000227
 30
0.0
  0
VERTEX
  5
A2A
  8
DATA
  6
CONTINUOUS
 62
     7
 10
131.22446458621809
 20
726.50000000000227
 30
0.0
  0
VERTEX
  5
A2B
  8
DATA
  6
CONTINUOUS
 62
     7
 10
135.69892917243621
 20
734.25
 30
0.0
  0
SEQEND
  5
A2C
  8
DATA
  6
CONTINUOUS
 62
     7
  0
LINE
  5
439
  8
DATA
  6
CONTINUOUS
 62
     7
 10
117.0
 20
744.24999999999989
 30
0.0
 11
136.5
 21
744.24999999999989
 31
0.0
  0
LINE
  5
43A
  8
DATA
  6
CONTINUOUS
 62
     7
 10
136.5
 20
744.24999999999989
 30
0.0
 11
136.5
 21
763.25
 31
0.0
  0
LINE
  5
43B
  8
DATA
  6
CONTINUOUS
 62
     7
 10
136.5
 20
763.25
 30
0.0
 11
117.0
 21
763.25
 31
0.0
  0
LINE
  5
43C
  8
DATA
  6
CONTINUOUS
 62
     7
 10
117.0
 20
763.25
 30
0.0
 11
117.0
 21
744.24999999999989
 31
0.0
  0
LINE
  5
43D
  8
DATA
  6
CONTINUOUS
 62
     7
 10
112.0
 20
761.24999999999989
 30
0.0
 11
112.0
 21
746.25
 31
0.0
  0
LINE
  5
43E
  8
DATA
  6
CONTINUOUS
 62
     7
 10
112.0
 20
761.24999999999989
 30
0.0
 11
117.0
 21
761.24999999999989
 31
0.0
  0
LINE
  5
43F
  8
DATA
  6
CONTINUOUS
 62
     7
 10
112.0
 20
746.25
 30
0.0
 11
117.0
 21
746.25
 31
0.0
  0
ARC
  5
440
  8
DATA
  6
CONTINUOUS
 62
     7
 10
126.7499999999998
 20
753.74999999999955
 30
0.0
 40
7.7500000000002851
 50
99.281799086675505
 51
140.71820091331861
  0
ARC
  5
441
  8
DATA
  6
CONTINUOUS
 62
     7
 10
126.7499999999998
 20
753.74999999999955
 30
0.0
 40
7.7500000000002691
 50
159.2817990866769
 51
200.71820091332049
  0
ARC
  5
442
  8
DATA
  6
CONTINUOUS
 62
     7
 10
126.7499999999998
 20
753.74999999999955
 30
0.0
 40
7.7500000000002913
 50
219.28179908667491
 51
260.71820091332461
  0
ARC
  5
443
  8
DATA
  6
CONTINUOUS
 62
     7
 10
126.7499999999998
 20
753.74999999999955
 30
0.0
 40
7.7500000000002851
 50
279.28179908667551
 51
320.71820091332512
  0
ARC
  5
444
  8
DATA
  6
CONTINUOUS
 62
     7
 10
126.7499999999998
 20
753.74999999999955
 30
0.0
 40
7.7500000000003046
 50
339.28179908668329
 51
20.718200913324718
  0
ARC
  5
445
  8
DATA
  6
CONTINUOUS
 62
     7
 10
126.7499999999998
 20
753.74999999999955
 30
0.0
 40
7.7500000000002647
 50
39.281799086681332
 51
80.718200913321098
  0
CIRCLE
  5
446
  8
DATA
  6
CONTINUOUS
 62
     7
 10
126.75
 20
753.75
 30
0.0
 40
3.25
  0
LINE
  5
447
  8
DATA
  6
CONTINUOUS
 62
     7
 10
128.0
 20
761.49999999999761
 30
0.0
 11
128.0
 21
756.74999999999989
 31
0.0
  0
LINE
  5
448
  8
DATA
  6
CONTINUOUS
 62
     7
 10
128.0
 20
750.75
 30
0.0
 11
128.0
 21
746.00000000000227
 31
0.0
  0
LINE
  5
449
  8
DATA
  6
CONTINUOUS
 62
     7
 10
125.5
 20
746.00000000000227
 30
0.0
 11
125.5
 21
750.75
 31
0.0
  0
LINE
  5
44A
  8
DATA
  6
CONTINUOUS
 62
     7
 10
125.5
 20
756.74999999999989
 30
0.0
 11
125.5
 21
761.49999999999761
 31
0.0
  0
LINE
  5
44B
  8
DATA
  6
CONTINUOUS
 62
     7
 10
120.66330312067289
 20
758.70753175472919
 30
0.0
 11
124.77692378865029
 21
756.33253175472851
 31
0.0
  0
LINE
  5
44C
  8
DATA
  6
CONTINUOUS
 62
     7
 10
129.97307621134971
 20
753.33253175473271
 30
0.0
 11
134.08669687932709
 21
750.9575317547318
 31
0.0
  0
LINE
  5
44D
  8
DATA
  6
CONTINUOUS
 62
     7
 10
132.83669687932709
 20
748.7924682452707
 30
0.0
 11
128.72307621135329
 21
751.16746824526945
 31
0.0
  0
LINE
  5
44E
  8
DATA
  6
CONTINUOUS
 62
     7
 10
123.5269237886467
 20
754.16746824526945
 30
0.0
 11
119.41330312067289
 21
756.54246824526808
 31
0.0
  0
LINE
  5
44F
  8
DATA
  6
CONTINUOUS
 62
     7
 10
134.08669687932709
 20
756.54246824526808
 30
0.0
 11
129.9730762113569
 21
754.16746824527149
 31
0.0
  0
LINE
  5
450
  8
DATA
  6
CONTINUOUS
 62
     7
 10
124.7769237886467
 20
751.16746824526945
 30
0.0
 11
120.66330312067289
 21
748.7924682452707
 31
0.0
  0
LINE
  5
451
  8
DATA
  6
CONTINUOUS
 62
     7
 10
119.41330312067289
 20
750.9575317547318
 30
0.0
 11
123.5269237886467
 21
753.33253175473055
 31
0.0
  0
LINE
  5
452
  8
DATA
  6
CONTINUOUS
 62
     7
 10
128.72307621135329
 20
756.33253175473055
 30
0.0
 11
132.83669687932709
 21
758.70753175472919
 31
0.0
  0
ARC
  5
453
  8
DATA
  6
CONTINUOUS
 62
     7
 10
126.75
 20
753.75
 30
0.0
 40
6.250000000000056
 50
138.46304096718461
 51
161.53695903282031
  0
ARC
  5
454
  8
DATA
  6
CONTINUOUS
 62
     7
 10
126.75
 20
753.75
 30
0.0
 40
6.2500000000000524
 50
198.46304096717981
 51
221.53695903281999
  0
ARC
  5
455
  8
DATA
  6
CONTINUOUS
 62
     7
 10
126.75
 20
753.75
 30
0.0
 40
6.2500000000000577
 50
258.4630409671841
 51
281.53695903281488
  0
ARC
  5
456
  8
DATA
  6
CONTINUOUS
 62
     7
 10
126.75
 20
753.75
 30
0.0
 40
6.250000000000056
 50
318.4630409671845
 51
341.53695903281999
  0
ARC
  5
457
  8
DATA
  6
CONTINUOUS
 62
     7
 10
126.75
 20
753.75
 30
0.0
 40
6.2500000000000568
 50
18.463040967179921
 51
41.536959032820079
  0
ARC
  5
458
  8
DATA
  6
CONTINUOUS
 62
     7
 10
126.75
 20
753.75
 30
0.0
 40
6.2500000000000488
 50
78.463040967185151
 51
101.5369590328159
  0
POLYLINE
  5
459
  8
DATA
  6
CONTINUOUS
 62
     7
 66
     1
 10
0.0
 20
0.0
 30
0.0
 70
     1
  0
VERTEX
  5
A2D
  8
DATA
  6
CONTINUOUS
 62
     7
 10
131.22446458621809
 20
761.49999999999761
 30
0.0
  0
VERTEX
  5
A2E
  8
DATA
  6
CONTINUOUS
 62
     7
 10
122.27553541378199
 20
761.49999999999761
 30
0.0
  0
VERTEX
  5
A2F
  8
DATA
  6
CONTINUOUS
 62
     7
 10
117.8010708275639
 20
753.75
 30
0.0
  0
VERTEX
  5
A30
  8
DATA
  6
CONTINUOUS
 62
     7
 10
122.2755354137819
 20
746.00000000000227
 30
0.0
  0
VERTEX
  5
A31
  8
DATA
  6
CONTINUOUS
 62
     7
 10
131.22446458621809
 20
746.00000000000227
 30
0.0
  0
VERTEX
  5
A32
  8
DATA
  6
CONTINUOUS
 62
     7
 10
135.69892917243621
 20
753.75
 30
0.0
  0
SEQEND
  5
A33
  8
DATA
  6
CONTINUOUS
 62
     7
  0
LINE
  5
461
  8
DATA
  6
CONTINUOUS
 62
     7
 10
117.0
 20
763.75
 30
0.0
 11
136.5
 21
763.75
 31
0.0
  0
LINE
  5
462
  8
DATA
  6
CONTINUOUS
 62
     7
 10
136.5
 20
763.75
 30
0.0
 11
136.5
 21
782.75
 31
0.0
  0
LINE
  5
463
  8
DATA
  6
CONTINUOUS
 62
     7
 10
136.5
 20
782.75
 30
0.0
 11
117.0
 21
782.75
 31
0.0
  0
LINE
  5
464
  8
DATA
  6
CONTINUOUS
 62
     7
 10
117.0
 20
782.75
 30
0.0
 11
117.0
 21
763.75
 31
0.0
  0
LINE
  5
465
  8
DATA
  6
CONTINUOUS
 62
     7
 10
112.0
 20
780.75
 30
0.0
 11
112.0
 21
765.74999999999989
 31
0.0
  0
LINE
  5
466
  8
DATA
  6
CONTINUOUS
 62
     7
 10
112.0
 20
780.75
 30
0.0
 11
117.0
 21
780.75
 31
0.0
  0
LINE
  5
467
  8
DATA
  6
CONTINUOUS
 62
     7
 10
112.0
 20
765.74999999999989
 30
0.0
 11
117.0
 21
765.74999999999989
 31
0.0
  0
ARC
  5
468
  8
DATA
  6
CONTINUOUS
 62
     7
 10
126.7499999999998
 20
773.24999999999955
 30
0.0
 40
7.7500000000002851
 50
99.281799086675505
 51
140.71820091331861
  0
ARC
  5
469
  8
DATA
  6
CONTINUOUS
 62
     7
 10
126.7499999999998
 20
773.24999999999955
 30
0.0
 40
7.7500000000002691
 50
159.2817990866769
 51
200.71820091332049
  0
ARC
  5
46A
  8
DATA
  6
CONTINUOUS
 62
     7
 10
126.7499999999998
 20
773.24999999999955
 30
0.0
 40
7.7500000000002833
 50
219.28179908667479
 51
260.71820091332461
  0
ARC
  5
46B
  8
DATA
  6
CONTINUOUS
 62
     7
 10
126.7499999999998
 20
773.24999999999955
 30
0.0
 40
7.7500000000002851
 50
279.28179908667551
 51
320.71820091332518
  0
ARC
  5
46C
  8
DATA
  6
CONTINUOUS
 62
     7
 10
126.7499999999998
 20
773.24999999999955
 30
0.0
 40
7.7500000000003046
 50
339.28179908668329
 51
20.718200913324829
  0
ARC
  5
46D
  8
DATA
  6
CONTINUOUS
 62
     7
 10
126.7499999999998
 20
773.24999999999955
 30
0.0
 40
7.7500000000002753
 50
39.281799086681403
 51
80.718200913321098
  0
CIRCLE
  5
46E
  8
DATA
  6
CONTINUOUS
 62
     7
 10
126.75
 20
773.24999999999989
 30
0.0
 40
3.25
  0
LINE
  5
46F
  8
DATA
  6
CONTINUOUS
 62
     7
 10
128.0
 20
780.99999999999704
 30
0.0
 11
128.0
 21
776.25
 31
0.0
  0
LINE
  5
470
  8
DATA
  6
CONTINUOUS
 62
     7
 10
128.0
 20
770.25
 30
0.0
 11
128.0
 21
765.50000000000239
 31
0.0
  0
LINE
  5
471
  8
DATA
  6
CONTINUOUS
 62
     7
 10
125.5
 20
765.50000000000239
 30
0.0
 11
125.5
 21
770.25
 31
0.0
  0
LINE
  5
472
  8
DATA
  6
CONTINUOUS
 62
     7
 10
125.5
 20
776.25
 30
0.0
 11
125.5
 21
780.99999999999704
 31
0.0
  0
LINE
  5
473
  8
DATA
  6
CONTINUOUS
 62
     7
 10
120.66330312067289
 20
778.2075317547293
 30
0.0
 11
124.77692378865029
 21
775.83253175472851
 31
0.0
  0
LINE
  5
474
  8
DATA
  6
CONTINUOUS
 62
     7
 10
129.97307621134971
 20
772.8325317547326
 30
0.0
 11
134.08669687932709
 21
770.45753175473192
 31
0.0
  0
LINE
  5
475
  8
DATA
  6
CONTINUOUS
 62
     7
 10
132.83669687932709
 20
768.2924682452707
 30
0.0
 11
128.72307621135329
 21
770.66746824526945
 31
0.0
  0
LINE
  5
476
  8
DATA
  6
CONTINUOUS
 62
     7
 10
123.5269237886467
 20
773.66746824526945
 30
0.0
 11
119.41330312067289
 21
776.04246824526797
 31
0.0
  0
LINE
  5
477
  8
DATA
  6
CONTINUOUS
 62
     7
 10
134.08669687932709
 20
776.04246824526797
 30
0.0
 11
129.9730762113569
 21
773.66746824527149
 31
0.0
  0
LINE
  5
478
  8
DATA
  6
CONTINUOUS
 62
     7
 10
124.7769237886467
 20
770.66746824526945
 30
0.0
 11
120.66330312067289
 21
768.2924682452707
 31
0.0
  0
LINE
  5
479
  8
DATA
  6
CONTINUOUS
 62
     7
 10
119.41330312067289
 20
770.45753175473192
 30
0.0
 11
123.5269237886467
 21
772.83253175473055
 31
0.0
  0
LINE
  5
47A
  8
DATA
  6
CONTINUOUS
 62
     7
 10
128.72307621135329
 20
775.83253175473055
 30
0.0
 11
132.83669687932709
 21
778.2075317547293
 31
0.0
  0
ARC
  5
47B
  8
DATA
  6
CONTINUOUS
 62
     7
 10
126.75
 20
773.24999999999989
 30
0.0
 40
6.250000000000056
 50
138.46304096718461
 51
161.53695903282031
  0
ARC
  5
47C
  8
DATA
  6
CONTINUOUS
 62
     7
 10
126.75
 20
773.24999999999989
 30
0.0
 40
6.2500000000000568
 50
198.46304096717989
 51
221.53695903282011
  0
ARC
  5
47D
  8
DATA
  6
CONTINUOUS
 62
     7
 10
126.75
 20
773.24999999999989
 30
0.0
 40
6.2500000000000711
 50
258.4630409671841
 51
281.53695903281488
  0
ARC
  5
47E
  8
DATA
  6
CONTINUOUS
 62
     7
 10
126.75
 20
773.24999999999989
 30
0.0
 40
6.250000000000056
 50
318.4630409671845
 51
341.53695903282011
  0
ARC
  5
47F
  8
DATA
  6
CONTINUOUS
 62
     7
 10
126.75
 20
773.24999999999989
 30
0.0
 40
6.2500000000000568
 50
18.463040967179921
 51
41.536959032820079
  0
ARC
  5
480
  8
DATA
  6
CONTINUOUS
 62
     7
 10
126.75
 20
773.24999999999989
 30
0.0
 40
6.2500000000000488
 50
78.463040967185151
 51
101.5369590328158
  0
POLYLINE
  5
481
  8
DATA
  6
CONTINUOUS
 62
     7
 66
     1
 10
0.0
 20
0.0
 30
0.0
 70
     1
  0
VERTEX
  5
A34
  8
DATA
  6
CONTINUOUS
 62
     7
 10
131.22446458621809
 20
780.99999999999704
 30
0.0
  0
VERTEX
  5
A35
  8
DATA
  6
CONTINUOUS
 62
     7
 10
122.27553541378199
 20
780.99999999999761
 30
0.0
  0
VERTEX
  5
A36
  8
DATA
  6
CONTINUOUS
 62
     7
 10
117.8010708275639
 20
773.24999999999989
 30
0.0
  0
VERTEX
  5
A37
  8
DATA
  6
CONTINUOUS
 62
     7
 10
122.2755354137819
 20
765.50000000000239
 30
0.0
  0
VERTEX
  5
A38
  8
DATA
  6
CONTINUOUS
 62
     7
 10
131.22446458621809
 20
765.50000000000239
 30
0.0
  0
VERTEX
  5
A39
  8
DATA
  6
CONTINUOUS
 62
     7
 10
135.69892917243621
 20
773.24999999999989
 30
0.0
  0
SEQEND
  5
A3A
  8
DATA
  6
CONTINUOUS
 62
     7
  0
LINE
  5
489
  8
DATA
  6
CONTINUOUS
 62
     7
 10
185.25
 20
704.49999999999989
 30
0.0
 11
188.25
 21
704.0
 31
0.0
  0
LINE
  5
48A
  8
DATA
  6
CONTINUOUS
 62
     7
 10
188.25
 20
704.0
 30
0.0
 11
189.75
 21
709.49999999999989
 31
0.0
  0
LINE
  5
48B
  8
DATA
  6
CONTINUOUS
 62
     7
 10
185.25
 20
704.49999999999989
 30
0.0
 11
187.75
 21
708.49999999999989
 31
0.0
  0
LINE
  5
48C
  8
DATA
  6
CONTINUOUS
 62
     7
 10
187.75
 20
708.49999999999989
 30
0.0
 11
185.75
 21
708.49999999999989
 31
0.0
  0
LINE
  5
48D
  8
DATA
  6
CONTINUOUS
 62
     7
 10
189.75
 20
709.49999999999989
 30
0.0
 11
187.75
 21
709.49999999999989
 31
0.0
  0
LINE
  5
48E
  8
DATA
  6
CONTINUOUS
 62
     7
 10
187.75
 20
709.49999999999989
 30
0.0
 11
188.75
 21
712.5
 31
0.0
  0
LINE
  5
48F
  8
DATA
  6
CONTINUOUS
 62
     7
 10
185.75
 20
708.49999999999989
 30
0.0
 11
187.75
 21
712.5
 31
0.0
  0
LINE
  5
490
  8
DATA
  6
CONTINUOUS
 62
     7
 10
188.75
 20
712.5
 30
0.0
 11
189.75
 21
712.5
 31
0.0
  0
LINE
  5
491
  8
DATA
  6
CONTINUOUS
 62
     7
 10
187.75
 20
712.5
 30
0.0
 11
186.75
 21
712.5
 31
0.0
  0
LINE
  5
492
  8
DATA
  6
CONTINUOUS
 62
     7
 10
189.75
 20
712.5
 30
0.0
 11
188.75
 21
714.5
 31
0.0
  0
LINE
  5
493
  8
DATA
  6
CONTINUOUS
 62
     7
 10
188.75
 20
714.5
 30
0.0
 11
186.75
 21
712.5
 31
0.0
  0
CIRCLE
  5
494
  8
DATA
  6
CONTINUOUS
 62
     7
 10
159.5
 20
725.0
 30
0.0
 40
15.5
  0
CIRCLE
  5
495
  8
DATA
  6
CONTINUOUS
 62
     7
 10
145.0
 20
710.5
 30
0.0
 40
3.999999999999996
  0
ARC
  5
496
  8
DATA
  6
CONTINUOUS
 62
     7
 10
145.0
 20
710.5
 30
0.0
 40
2.000000000000012
 50
32.769854247895651
 51
33.690067527283702
  0
LINE
  5
497
  8
DATA
  6
CONTINUOUS
 62
     7
 10
146.62379763219491
 20
711.58253175479649
 30
0.0
 11
146.66410058866359
 21
711.60940039244235
 31
0.0
  0
LINE
  5
498
  8
DATA
  6
CONTINUOUS
 62
     7
 10
144.375
 20
711.58253175473055
 30
0.0
 11
144.3749999999618
 21
711.58253175479638
 31
0.0
  0
LINE
  5
499
  8
DATA
  6
CONTINUOUS
 62
     7
 10
145.625
 20
711.58253175473055
 30
0.0
 11
145.6250000000382
 21
711.58253175479649
 31
0.0
  0
LINE
  5
49A
  8
DATA
  6
CONTINUOUS
 62
     7
 10
146.73205080755631
 20
709.50000000000716
 30
0.0
 11
145.6250000000382
 21
709.41746824520339
 31
0.0
  0
LINE
  5
49B
  8
DATA
  6
CONTINUOUS
 62
     7
 10
145.6250000000382
 20
709.41746824520339
 30
0.0
 11
145.0
 21
708.49999999999989
 31
0.0
  0
LINE
  5
49C
  8
DATA
  6
CONTINUOUS
 62
     7
 10
145.0
 20
708.49999999999989
 30
0.0
 11
144.44647459623451
 21
709.45873412260175
 31
0.0
  0
LINE
  5
49D
  8
DATA
  6
CONTINUOUS
 62
     7
 10
144.44647459623451
 20
709.45873412260175
 30
0.0
 11
143.26794919244369
 21
709.50000000000716
 31
0.0
  0
LINE
  5
49E
  8
DATA
  6
CONTINUOUS
 62
     7
 10
143.26794919244369
 20
709.50000000000716
 30
0.0
 11
143.75
 21
710.5
 31
0.0
  0
LINE
  5
49F
  8
DATA
  6
CONTINUOUS
 62
     7
 10
143.75
 20
710.5
 30
0.0
 11
143.26794919244369
 21
711.49999999999272
 31
0.0
  0
LINE
  5
4A0
  8
DATA
  6
CONTINUOUS
 62
     7
 10
143.26794919244369
 20
711.49999999999272
 30
0.0
 11
144.3749999999618
 21
711.58253175479638
 31
0.0
  0
LINE
  5
4A1
  8
DATA
  6
CONTINUOUS
 62
     7
 10
144.3749999999618
 20
711.58253175479638
 30
0.0
 11
145.0
 21
712.5
 31
0.0
  0
LINE
  5
4A2
  8
DATA
  6
CONTINUOUS
 62
     7
 10
145.0
 20
712.5
 30
0.0
 11
145.6250000000382
 21
711.58253175479649
 31
0.0
  0
LINE
  5
4A3
  8
DATA
  6
CONTINUOUS
 62
     7
 10
145.6250000000382
 20
711.58253175479649
 30
0.0
 11
146.6817030058323
 21
711.58253175479649
 31
0.0
  0
LINE
  5
4A4
  8
DATA
  6
CONTINUOUS
 62
     7
 10
146.66410058866359
 20
711.60940039244235
 30
0.0
 11
146.25
 21
710.5
 31
0.0
  0
LINE
  5
4A5
  8
DATA
  6
CONTINUOUS
 62
     7
 10
146.25
 20
710.5
 30
0.0
 11
146.73205080755631
 21
709.50000000000716
 31
0.0
  0
CIRCLE
  5
4A6
  8
DATA
  6
CONTINUOUS
 62
     7
 10
174.0
 20
710.5
 30
0.0
 40
3.999999999999996
  0
ARC
  5
4A7
  8
DATA
  6
CONTINUOUS
 62
     7
 10
174.0
 20
710.5
 30
0.0
 40
2.000000000000012
 50
32.769854247895651
 51
33.690067527283702
  0
LINE
  5
4A8
  8
DATA
  6
CONTINUOUS
 62
     7
 10
175.62379763219499
 20
711.58253175479649
 30
0.0
 11
175.66410058866359
 21
711.60940039244235
 31
0.0
  0
LINE
  5
4A9
  8
DATA
  6
CONTINUOUS
 62
     7
 10
173.375
 20
711.58253175473055
 30
0.0
 11
173.3749999999618
 21
711.58253175479638
 31
0.0
  0
LINE
  5
4AA
  8
DATA
  6
CONTINUOUS
 62
     7
 10
174.625
 20
711.58253175473055
 30
0.0
 11
174.6250000000382
 21
711.58253175479649
 31
0.0
  0
LINE
  5
4AB
  8
DATA
  6
CONTINUOUS
 62
     7
 10
175.73205080755631
 20
709.50000000000716
 30
0.0
 11
174.6250000000382
 21
709.41746824520339
 31
0.0
  0
LINE
  5
4AC
  8
DATA
  6
CONTINUOUS
 62
     7
 10
174.6250000000382
 20
709.41746824520339
 30
0.0
 11
174.0
 21
708.49999999999989
 31
0.0
  0
LINE
  5
4AD
  8
DATA
  6
CONTINUOUS
 62
     7
 10
174.0
 20
708.49999999999989
 30
0.0
 11
173.44647459623451
 21
709.45873412260175
 31
0.0
  0
LINE
  5
4AE
  8
DATA
  6
CONTINUOUS
 62
     7
 10
173.44647459623451
 20
709.45873412260175
 30
0.0
 11
172.26794919244369
 21
709.50000000000716
 31
0.0
  0
LINE
  5
4AF
  8
DATA
  6
CONTINUOUS
 62
     7
 10
172.26794919244369
 20
709.50000000000716
 30
0.0
 11
172.75
 21
710.5
 31
0.0
  0
LINE
  5
4B0
  8
DATA
  6
CONTINUOUS
 62
     7
 10
172.75
 20
710.5
 30
0.0
 11
172.26794919244369
 21
711.49999999999272
 31
0.0
  0
LINE
  5
4B1
  8
DATA
  6
CONTINUOUS
 62
     7
 10
172.26794919244369
 20
711.49999999999272
 30
0.0
 11
173.3749999999618
 21
711.58253175479638
 31
0.0
  0
LINE
  5
4B2
  8
DATA
  6
CONTINUOUS
 62
     7
 10
173.3749999999618
 20
711.58253175479638
 30
0.0
 11
174.0
 21
712.5
 31
0.0
  0
LINE
  5
4B3
  8
DATA
  6
CONTINUOUS
 62
     7
 10
174.0
 20
712.5
 30
0.0
 11
174.6250000000382
 21
711.58253175479649
 31
0.0
  0
LINE
  5
4B4
  8
DATA
  6
CONTINUOUS
 62
     7
 10
174.6250000000382
 20
711.58253175479649
 30
0.0
 11
175.6817030058323
 21
711.58253175479649
 31
0.0
  0
LINE
  5
4B5
  8
DATA
  6
CONTINUOUS
 62
     7
 10
175.66410058866359
 20
711.60940039244235
 30
0.0
 11
175.25
 21
710.5
 31
0.0
  0
LINE
  5
4B6
  8
DATA
  6
CONTINUOUS
 62
     7
 10
175.25
 20
710.5
 30
0.0
 11
175.73205080755631
 21
709.50000000000716
 31
0.0
  0
CIRCLE
  5
4B7
  8
DATA
  6
CONTINUOUS
 62
     7
 10
145.0
 20
739.5
 30
0.0
 40
4.0000000000000098
  0
ARC
  5
4B8
  8
DATA
  6
CONTINUOUS
 62
     7
 10
145.0
 20
739.5
 30
0.0
 40
2.000000000000012
 50
32.769854247895651
 51
33.690067527283702
  0
LINE
  5
4B9
  8
DATA
  6
CONTINUOUS
 62
     7
 10
146.62379763219491
 20
740.58253175479649
 30
0.0
 11
146.66410058866359
 21
740.60940039244235
 31
0.0
  0
LINE
  5
4BA
  8
DATA
  6
CONTINUOUS
 62
     7
 10
144.375
 20
740.58253175473055
 30
0.0
 11
144.3749999999618
 21
740.58253175479649
 31
0.0
  0
LINE
  5
4BB
  8
DATA
  6
CONTINUOUS
 62
     7
 10
145.625
 20
740.58253175473055
 30
0.0
 11
145.6250000000382
 21
740.58253175479649
 31
0.0
  0
LINE
  5
4BC
  8
DATA
  6
CONTINUOUS
 62
     7
 10
146.73205080755631
 20
738.50000000000716
 30
0.0
 11
145.6250000000382
 21
738.41746824520351
 31
0.0
  0
LINE
  5
4BD
  8
DATA
  6
CONTINUOUS
 62
     7
 10
145.6250000000382
 20
738.41746824520351
 30
0.0
 11
145.0
 21
737.5
 31
0.0
  0
LINE
  5
4BE
  8
DATA
  6
CONTINUOUS
 62
     7
 10
145.0
 20
737.5
 30
0.0
 11
144.44647459623451
 21
738.45873412260175
 31
0.0
  0
LINE
  5
4BF
  8
DATA
  6
CONTINUOUS
 62
     7
 10
144.44647459623451
 20
738.45873412260175
 30
0.0
 11
143.26794919244369
 21
738.50000000000716
 31
0.0
  0
LINE
  5
4C0
  8
DATA
  6
CONTINUOUS
 62
     7
 10
143.26794919244369
 20
738.50000000000716
 30
0.0
 11
143.75
 21
739.5
 31
0.0
  0
LINE
  5
4C1
  8
DATA
  6
CONTINUOUS
 62
     7
 10
143.75
 20
739.5
 30
0.0
 11
143.26794919244369
 21
740.49999999999272
 31
0.0
  0
LINE
  5
4C2
  8
DATA
  6
CONTINUOUS
 62
     7
 10
143.26794919244369
 20
740.49999999999272
 30
0.0
 11
144.3749999999618
 21
740.58253175479649
 31
0.0
  0
LINE
  5
4C3
  8
DATA
  6
CONTINUOUS
 62
     7
 10
144.3749999999618
 20
740.58253175479649
 30
0.0
 11
145.0
 21
741.5
 31
0.0
  0
LINE
  5
4C4
  8
DATA
  6
CONTINUOUS
 62
     7
 10
145.0
 20
741.5
 30
0.0
 11
145.6250000000382
 21
740.58253175479649
 31
0.0
  0
LINE
  5
4C5
  8
DATA
  6
CONTINUOUS
 62
     7
 10
145.6250000000382
 20
740.58253175479649
 30
0.0
 11
146.6817030058323
 21
740.58253175479649
 31
0.0
  0
LINE
  5
4C6
  8
DATA
  6
CONTINUOUS
 62
     7
 10
146.66410058866359
 20
740.60940039244235
 30
0.0
 11
146.25
 21
739.5
 31
0.0
  0
LINE
  5
4C7
  8
DATA
  6
CONTINUOUS
 62
     7
 10
146.25
 20
739.5
 30
0.0
 11
146.73205080755631
 21
738.50000000000716
 31
0.0
  0
CIRCLE
  5
4C8
  8
DATA
  6
CONTINUOUS
 62
     7
 10
174.0
 20
739.5
 30
0.0
 40
4.0000000000000098
  0
ARC
  5
4C9
  8
DATA
  6
CONTINUOUS
 62
     7
 10
174.0
 20
739.5
 30
0.0
 40
2.000000000000012
 50
32.769854247895651
 51
33.690067527283702
  0
LINE
  5
4CA
  8
DATA
  6
CONTINUOUS
 62
     7
 10
175.62379763219499
 20
740.58253175479649
 30
0.0
 11
175.66410058866359
 21
740.60940039244235
 31
0.0
  0
LINE
  5
4CB
  8
DATA
  6
CONTINUOUS
 62
     7
 10
173.375
 20
740.58253175473055
 30
0.0
 11
173.3749999999618
 21
740.58253175479649
 31
0.0
  0
LINE
  5
4CC
  8
DATA
  6
CONTINUOUS
 62
     7
 10
174.625
 20
740.58253175473055
 30
0.0
 11
174.6250000000382
 21
740.58253175479649
 31
0.0
  0
LINE
  5
4CD
  8
DATA
  6
CONTINUOUS
 62
     7
 10
175.73205080755631
 20
738.50000000000716
 30
0.0
 11
174.6250000000382
 21
738.41746824520351
 31
0.0
  0
LINE
  5
4CE
  8
DATA
  6
CONTINUOUS
 62
     7
 10
174.6250000000382
 20
738.41746824520351
 30
0.0
 11
174.0
 21
737.5
 31
0.0
  0
LINE
  5
4CF
  8
DATA
  6
CONTINUOUS
 62
     7
 10
174.0
 20
737.5
 30
0.0
 11
173.44647459623451
 21
738.45873412260175
 31
0.0
  0
LINE
  5
4D0
  8
DATA
  6
CONTINUOUS
 62
     7
 10
173.44647459623451
 20
738.45873412260175
 30
0.0
 11
172.26794919244369
 21
738.50000000000716
 31
0.0
  0
LINE
  5
4D1
  8
DATA
  6
CONTINUOUS
 62
     7
 10
172.26794919244369
 20
738.50000000000716
 30
0.0
 11
172.75
 21
739.5
 31
0.0
  0
LINE
  5
4D2
  8
DATA
  6
CONTINUOUS
 62
     7
 10
172.75
 20
739.5
 30
0.0
 11
172.26794919244369
 21
740.49999999999272
 31
0.0
  0
LINE
  5
4D3
  8
DATA
  6
CONTINUOUS
 62
     7
 10
172.26794919244369
 20
740.49999999999272
 30
0.0
 11
173.3749999999618
 21
740.58253175479649
 31
0.0
  0
LINE
  5
4D4
  8
DATA
  6
CONTINUOUS
 62
     7
 10
173.3749999999618
 20
740.58253175479649
 30
0.0
 11
174.0
 21
741.5
 31
0.0
  0
LINE
  5
4D5
  8
DATA
  6
CONTINUOUS
 62
     7
 10
174.0
 20
741.5
 30
0.0
 11
174.6250000000382
 21
740.58253175479649
 31
0.0
  0
LINE
  5
4D6
  8
DATA
  6
CONTINUOUS
 62
     7
 10
174.6250000000382
 20
740.58253175479649
 30
0.0
 11
175.6817030058323
 21
740.58253175479649
 31
0.0
  0
LINE
  5
4D7
  8
DATA
  6
CONTINUOUS
 62
     7
 10
175.66410058866359
 20
740.60940039244235
 30
0.0
 11
175.25
 21
739.5
 31
0.0
  0
LINE
  5
4D8
  8
DATA
  6
CONTINUOUS
 62
     7
 10
175.25
 20
739.5
 30
0.0
 11
175.73205080755631
 21
738.50000000000716
 31
0.0
  0
ARC
  5
4D9
  8
DATA
  6
CONTINUOUS
 62
     7
 10
159.49999999999989
 20
725.00000000000034
 30
0.0
 40
8.7500000000000444
 50
189.8708896061425
 51
339.94895743349122
  0
ARC
  5
4DA
  8
DATA
  6
CONTINUOUS
 62
     7
 10
159.49999999999989
 20
725.00000000000034
 30
0.0
 40
8.7500000000000462
 50
20.05104256650333
 51
170.12911039386319
  0
ARC
  5
4DB
  8
DATA
  6
CONTINUOUS
 62
     7
 10
159.5
 20
725.0
 30
0.0
 40
10.00000000000005
 50
171.37307344132111
 51
188.62692655867841
  0
ARC
  5
4DC
  8
DATA
  6
CONTINUOUS
 62
     7
 10
159.5
 20
725.0
 30
0.0
 40
10.00000000000003
 50
342.54239687627802
 51
17.457603123722489
  0
LINE
  5
4DD
  8
DATA
  6
CONTINUOUS
 62
     7
 10
149.61314003335741
 20
726.5
 30
0.0
 11
150.8795301752167
 21
726.5
 31
0.0
  0
LINE
  5
4DE
  8
DATA
  6
CONTINUOUS
 62
     7
 10
150.8795301752167
 20
723.5
 30
0.0
 11
149.61314003335741
 21
723.5
 31
0.0
  0
LINE
  5
4DF
  8
DATA
  6
CONTINUOUS
 62
     7
 10
167.71964111138681
 20
728.0
 30
0.0
 11
169.03939201416941
 21
728.0
 31
0.0
  0
LINE
  5
4E0
  8
DATA
  6
CONTINUOUS
 62
     7
 10
169.03939201416941
 20
722.0
 30
0.0
 11
167.71964111138681
 21
722.0
 31
0.0
  0
CIRCLE
  5
4E1
  8
DATA
  6
CONTINUOUS
 62
     7
 10
159.5
 20
763.0
 30
0.0
 40
15.5
  0
CIRCLE
  5
4E2
  8
DATA
  6
CONTINUOUS
 62
     7
 10
145.0
 20
748.5
 30
0.0
 40
4.0000000000000098
  0
ARC
  5
4E3
  8
DATA
  6
CONTINUOUS
 62
     7
 10
145.0
 20
748.5
 30
0.0
 40
2.000000000000012
 50
32.769854247895651
 51
33.690067527283702
  0
LINE
  5
4E4
  8
DATA
  6
CONTINUOUS
 62
     7
 10
146.62379763219491
 20
749.58253175479661
 30
0.0
 11
146.66410058866359
 21
749.60940039244235
 31
0.0
  0
LINE
  5
4E5
  8
DATA
  6
CONTINUOUS
 62
     7
 10
144.375
 20
749.58253175473055
 30
0.0
 11
144.3749999999618
 21
749.58253175479661
 31
0.0
  0
LINE
  5
4E6
  8
DATA
  6
CONTINUOUS
 62
     7
 10
145.625
 20
749.58253175473055
 30
0.0
 11
145.6250000000382
 21
749.58253175479661
 31
0.0
  0
LINE
  5
4E7
  8
DATA
  6
CONTINUOUS
 62
     7
 10
146.73205080755631
 20
747.50000000000716
 30
0.0
 11
145.6250000000382
 21
747.41746824520339
 31
0.0
  0
LINE
  5
4E8
  8
DATA
  6
CONTINUOUS
 62
     7
 10
145.6250000000382
 20
747.41746824520339
 30
0.0
 11
145.0
 21
746.49999999999989
 31
0.0
  0
LINE
  5
4E9
  8
DATA
  6
CONTINUOUS
 62
     7
 10
145.0
 20
746.49999999999989
 30
0.0
 11
144.44647459623451
 21
747.45873412260175
 31
0.0
  0
LINE
  5
4EA
  8
DATA
  6
CONTINUOUS
 62
     7
 10
144.44647459623451
 20
747.45873412260175
 30
0.0
 11
143.26794919244369
 21
747.50000000000716
 31
0.0
  0
LINE
  5
4EB
  8
DATA
  6
CONTINUOUS
 62
     7
 10
143.26794919244369
 20
747.50000000000716
 30
0.0
 11
143.75
 21
748.5
 31
0.0
  0
LINE
  5
4EC
  8
DATA
  6
CONTINUOUS
 62
     7
 10
143.75
 20
748.5
 30
0.0
 11
143.26794919244369
 21
749.49999999999272
 31
0.0
  0
LINE
  5
4ED
  8
DATA
  6
CONTINUOUS
 62
     7
 10
143.26794919244369
 20
749.49999999999272
 30
0.0
 11
144.3749999999618
 21
749.58253175479661
 31
0.0
  0
LINE
  5
4EE
  8
DATA
  6
CONTINUOUS
 62
     7
 10
144.3749999999618
 20
749.58253175479661
 30
0.0
 11
145.0
 21
750.49999999999989
 31
0.0
  0
LINE
  5
4EF
  8
DATA
  6
CONTINUOUS
 62
     7
 10
145.0
 20
750.49999999999989
 30
0.0
 11
145.6250000000382
 21
749.58253175479661
 31
0.0
  0
LINE
  5
4F0
  8
DATA
  6
CONTINUOUS
 62
     7
 10
145.6250000000382
 20
749.58253175479661
 30
0.0
 11
146.6817030058323
 21
749.58253175479661
 31
0.0
  0
LINE
  5
4F1
  8
DATA
  6
CONTINUOUS
 62
     7
 10
146.66410058866359
 20
749.60940039244235
 30
0.0
 11
146.25
 21
748.5
 31
0.0
  0
LINE
  5
4F2
  8
DATA
  6
CONTINUOUS
 62
     7
 10
146.25
 20
748.5
 30
0.0
 11
146.73205080755631
 21
747.50000000000716
 31
0.0
  0
CIRCLE
  5
4F3
  8
DATA
  6
CONTINUOUS
 62
     7
 10
174.0
 20
748.5
 30
0.0
 40
4.0000000000000098
  0
ARC
  5
4F4
  8
DATA
  6
CONTINUOUS
 62
     7
 10
174.0
 20
748.5
 30
0.0
 40
2.000000000000012
 50
32.769854247895651
 51
33.690067527283702
  0
LINE
  5
4F5
  8
DATA
  6
CONTINUOUS
 62
     7
 10
175.62379763219499
 20
749.58253175479661
 30
0.0
 11
175.66410058866359
 21
749.60940039244235
 31
0.0
  0
LINE
  5
4F6
  8
DATA
  6
CONTINUOUS
 62
     7
 10
173.375
 20
749.58253175473055
 30
0.0
 11
173.3749999999618
 21
749.58253175479661
 31
0.0
  0
LINE
  5
4F7
  8
DATA
  6
CONTINUOUS
 62
     7
 10
174.625
 20
749.58253175473055
 30
0.0
 11
174.6250000000382
 21
749.58253175479661
 31
0.0
  0
LINE
  5
4F8
  8
DATA
  6
CONTINUOUS
 62
     7
 10
175.73205080755631
 20
747.50000000000716
 30
0.0
 11
174.6250000000382
 21
747.41746824520339
 31
0.0
  0
LINE
  5
4F9
  8
DATA
  6
CONTINUOUS
 62
     7
 10
174.6250000000382
 20
747.41746824520339
 30
0.0
 11
174.0
 21
746.49999999999989
 31
0.0
  0
LINE
  5
4FA
  8
DATA
  6
CONTINUOUS
 62
     7
 10
174.0
 20
746.49999999999989
 30
0.0
 11
173.44647459623451
 21
747.45873412260175
 31
0.0
  0
LINE
  5
4FB
  8
DATA
  6
CONTINUOUS
 62
     7
 10
173.44647459623451
 20
747.45873412260175
 30
0.0
 11
172.26794919244369
 21
747.50000000000716
 31
0.0
  0
LINE
  5
4FC
  8
DATA
  6
CONTINUOUS
 62
     7
 10
172.26794919244369
 20
747.50000000000716
 30
0.0
 11
172.75
 21
748.5
 31
0.0
  0
LINE
  5
4FD
  8
DATA
  6
CONTINUOUS
 62
     7
 10
172.75
 20
748.5
 30
0.0
 11
172.26794919244369
 21
749.49999999999272
 31
0.0
  0
LINE
  5
4FE
  8
DATA
  6
CONTINUOUS
 62
     7
 10
172.26794919244369
 20
749.49999999999272
 30
0.0
 11
173.3749999999618
 21
749.58253175479661
 31
0.0
  0
LINE
  5
4FF
  8
DATA
  6
CONTINUOUS
 62
     7
 10
173.3749999999618
 20
749.58253175479661
 30
0.0
 11
174.0
 21
750.49999999999989
 31
0.0
  0
LINE
  5
500
  8
DATA
  6
CONTINUOUS
 62
     7
 10
174.0
 20
750.49999999999989
 30
0.0
 11
174.6250000000382
 21
749.58253175479661
 31
0.0
  0
LINE
  5
501
  8
DATA
  6
CONTINUOUS
 62
     7
 10
174.6250000000382
 20
749.58253175479661
 30
0.0
 11
175.6817030058323
 21
749.58253175479661
 31
0.0
  0
LINE
  5
502
  8
DATA
  6
CONTINUOUS
 62
     7
 10
175.66410058866359
 20
749.60940039244235
 30
0.0
 11
175.25
 21
748.5
 31
0.0
  0
LINE
  5
503
  8
DATA
  6
CONTINUOUS
 62
     7
 10
175.25
 20
748.5
 30
0.0
 11
175.73205080755631
 21
747.50000000000716
 31
0.0
  0
CIRCLE
  5
504
  8
DATA
  6
CONTINUOUS
 62
     7
 10
145.0
 20
777.5
 30
0.0
 40
3.999999999999996
  0
ARC
  5
505
  8
DATA
  6
CONTINUOUS
 62
     7
 10
145.0
 20
777.5
 30
0.0
 40
2.000000000000012
 50
32.769854247895651
 51
33.690067527283702
  0
LINE
  5
506
  8
DATA
  6
CONTINUOUS
 62
     7
 10
146.62379763219491
 20
778.58253175479661
 30
0.0
 11
146.66410058866359
 21
778.60940039244235
 31
0.0
  0
LINE
  5
507
  8
DATA
  6
CONTINUOUS
 62
     7
 10
144.375
 20
778.58253175473055
 30
0.0
 11
144.3749999999618
 21
778.58253175479661
 31
0.0
  0
LINE
  5
508
  8
DATA
  6
CONTINUOUS
 62
     7
 10
145.625
 20
778.58253175473055
 30
0.0
 11
145.6250000000382
 21
778.58253175479661
 31
0.0
  0
LINE
  5
509
  8
DATA
  6
CONTINUOUS
 62
     7
 10
146.73205080755631
 20
776.50000000000716
 30
0.0
 11
145.6250000000382
 21
776.41746824520351
 31
0.0
  0
LINE
  5
50A
  8
DATA
  6
CONTINUOUS
 62
     7
 10
145.6250000000382
 20
776.41746824520351
 30
0.0
 11
145.0
 21
775.49999999999989
 31
0.0
  0
LINE
  5
50B
  8
DATA
  6
CONTINUOUS
 62
     7
 10
145.0
 20
775.49999999999989
 30
0.0
 11
144.44647459623451
 21
776.45873412260175
 31
0.0
  0
LINE
  5
50C
  8
DATA
  6
CONTINUOUS
 62
     7
 10
144.44647459623451
 20
776.45873412260175
 30
0.0
 11
143.26794919244369
 21
776.50000000000716
 31
0.0
  0
LINE
  5
50D
  8
DATA
  6
CONTINUOUS
 62
     7
 10
143.26794919244369
 20
776.50000000000716
 30
0.0
 11
143.75
 21
777.5
 31
0.0
  0
LINE
  5
50E
  8
DATA
  6
CONTINUOUS
 62
     7
 10
143.75
 20
777.5
 30
0.0
 11
143.26794919244369
 21
778.49999999999272
 31
0.0
  0
LINE
  5
50F
  8
DATA
  6
CONTINUOUS
 62
     7
 10
143.26794919244369
 20
778.49999999999272
 30
0.0
 11
144.3749999999618
 21
778.58253175479661
 31
0.0
  0
LINE
  5
510
  8
DATA
  6
CONTINUOUS
 62
     7
 10
144.3749999999618
 20
778.58253175479661
 30
0.0
 11
145.0
 21
779.49999999999989
 31
0.0
  0
LINE
  5
511
  8
DATA
  6
CONTINUOUS
 62
     7
 10
145.0
 20
779.49999999999989
 30
0.0
 11
145.6250000000382
 21
778.58253175479661
 31
0.0
  0
LINE
  5
512
  8
DATA
  6
CONTINUOUS
 62
     7
 10
145.6250000000382
 20
778.58253175479661
 30
0.0
 11
146.6817030058323
 21
778.58253175479661
 31
0.0
  0
LINE
  5
513
  8
DATA
  6
CONTINUOUS
 62
     7
 10
146.66410058866359
 20
778.60940039244235
 30
0.0
 11
146.25
 21
777.5
 31
0.0
  0
LINE
  5
514
  8
DATA
  6
CONTINUOUS
 62
     7
 10
146.25
 20
777.5
 30
0.0
 11
146.73205080755631
 21
776.50000000000716
 31
0.0
  0
CIRCLE
  5
515
  8
DATA
  6
CONTINUOUS
 62
     7
 10
174.0
 20
777.5
 30
0.0
 40
3.999999999999996
  0
ARC
  5
516
  8
DATA
  6
CONTINUOUS
 62
     7
 10
174.0
 20
777.5
 30
0.0
 40
2.000000000000012
 50
32.769854247895651
 51
33.690067527283702
  0
LINE
  5
517
  8
DATA
  6
CONTINUOUS
 62
     7
 10
175.62379763219499
 20
778.58253175479661
 30
0.0
 11
175.66410058866359
 21
778.60940039244235
 31
0.0
  0
LINE
  5
518
  8
DATA
  6
CONTINUOUS
 62
     7
 10
173.375
 20
778.58253175473055
 30
0.0
 11
173.3749999999618
 21
778.58253175479661
 31
0.0
  0
LINE
  5
519
  8
DATA
  6
CONTINUOUS
 62
     7
 10
174.625
 20
778.58253175473055
 30
0.0
 11
174.6250000000382
 21
778.58253175479661
 31
0.0
  0
LINE
  5
51A
  8
DATA
  6
CONTINUOUS
 62
     7
 10
175.73205080755631
 20
776.50000000000716
 30
0.0
 11
174.6250000000382
 21
776.41746824520351
 31
0.0
  0
LINE
  5
51B
  8
DATA
  6
CONTINUOUS
 62
     7
 10
174.6250000000382
 20
776.41746824520351
 30
0.0
 11
174.0
 21
775.49999999999989
 31
0.0
  0
LINE
  5
51C
  8
DATA
  6
CONTINUOUS
 62
     7
 10
174.0
 20
775.49999999999989
 30
0.0
 11
173.44647459623451
 21
776.45873412260175
 31
0.0
  0
LINE
  5
51D
  8
DATA
  6
CONTINUOUS
 62
     7
 10
173.44647459623451
 20
776.45873412260175
 30
0.0
 11
172.26794919244369
 21
776.50000000000716
 31
0.0
  0
LINE
  5
51E
  8
DATA
  6
CONTINUOUS
 62
     7
 10
172.26794919244369
 20
776.50000000000716
 30
0.0
 11
172.75
 21
777.5
 31
0.0
  0
LINE
  5
51F
  8
DATA
  6
CONTINUOUS
 62
     7
 10
172.75
 20
777.5
 30
0.0
 11
172.26794919244369
 21
778.49999999999272
 31
0.0
  0
LINE
  5
520
  8
DATA
  6
CONTINUOUS
 62
     7
 10
172.26794919244369
 20
778.49999999999272
 30
0.0
 11
173.3749999999618
 21
778.58253175479661
 31
0.0
  0
LINE
  5
521
  8
DATA
  6
CONTINUOUS
 62
     7
 10
173.3749999999618
 20
778.58253175479661
 30
0.0
 11
174.0
 21
779.49999999999989
 31
0.0
  0
LINE
  5
522
  8
DATA
  6
CONTINUOUS
 62
     7
 10
174.0
 20
779.49999999999989
 30
0.0
 11
174.6250000000382
 21
778.58253175479661
 31
0.0
  0
LINE
  5
523
  8
DATA
  6
CONTINUOUS
 62
     7
 10
174.6250000000382
 20
778.58253175479661
 30
0.0
 11
175.6817030058323
 21
778.58253175479661
 31
0.0
  0
LINE
  5
524
  8
DATA
  6
CONTINUOUS
 62
     7
 10
175.66410058866359
 20
778.60940039244235
 30
0.0
 11
175.25
 21
777.5
 31
0.0
  0
LINE
  5
525
  8
DATA
  6
CONTINUOUS
 62
     7
 10
175.25
 20
777.5
 30
0.0
 11
175.73205080755631
 21
776.50000000000716
 31
0.0
  0
ARC
  5
526
  8
DATA
  6
CONTINUOUS
 62
     7
 10
159.49999999999989
 20
763.00000000000034
 30
0.0
 40
8.7500000000000444
 50
189.8708896061425
 51
339.94895743349122
  0
ARC
  5
527
  8
DATA
  6
CONTINUOUS
 62
     7
 10
159.49999999999989
 20
763.00000000000034
 30
0.0
 40
8.7500000000000462
 50
20.05104256650333
 51
170.12911039386319
  0
ARC
  5
528
  8
DATA
  6
CONTINUOUS
 62
     7
 10
159.5
 20
763.0
 30
0.0
 40
10.00000000000005
 50
171.37307344132111
 51
188.62692655867841
  0
ARC
  5
529
  8
DATA
  6
CONTINUOUS
 62
     7
 10
159.5
 20
763.0
 30
0.0
 40
10.00000000000003
 50
342.54239687627802
 51
17.457603123722489
  0
LINE
  5
52A
  8
DATA
  6
CONTINUOUS
 62
     7
 10
149.61314003335741
 20
764.5
 30
0.0
 11
150.8795301752167
 21
764.5
 31
0.0
  0
LINE
  5
52B
  8
DATA
  6
CONTINUOUS
 62
     7
 10
150.8795301752167
 20
761.5
 30
0.0
 11
149.61314003335741
 21
761.5
 31
0.0
  0
LINE
  5
52C
  8
DATA
  6
CONTINUOUS
 62
     7
 10
167.71964111138681
 20
766.0
 30
0.0
 11
169.03939201416941
 21
766.0
 31
0.0
  0
LINE
  5
52D
  8
DATA
  6
CONTINUOUS
 62
     7
 10
169.03939201416941
 20
760.0
 30
0.0
 11
167.71964111138681
 21
760.0
 31
0.0
  0
LINE
  5
52E
  8
DATA
  6
CONTINUOUS
 62
     7
 10
191.0
 20
732.0
 30
0.0
 11
191.0
 21
718.0
 31
0.0
  0
LINE
  5
52F
  8
DATA
  6
CONTINUOUS
 62
     7
 10
191.0
 20
732.0
 30
0.0
 11
184.0
 21
732.0
 31
0.0
  0
LINE
  5
530
  8
DATA
  6
CONTINUOUS
 62
     7
 10
184.0
 20
732.0
 30
0.0
 11
184.0
 21
718.0
 31
0.0
  0
LINE
  5
531
  8
DATA
  6
CONTINUOUS
 62
     7
 10
191.0
 20
718.0
 30
0.0
 11
184.0
 21
718.0
 31
0.0
  0
LINE
  5
532
  8
DATA
  6
CONTINUOUS
 62
     7
 10
191.0
 20
725.0
 30
0.0
 11
184.0
 21
725.0
 31
0.0
  0
LINE
  5
533
  8
DATA
  6
CONTINUOUS
 62
     7
 10
187.5
 20
718.0
 30
0.0
 11
187.5
 21
732.0
 31
0.0
  0
LINE
  5
534
  8
DATA
  6
CONTINUOUS
 62
     7
 10
191.0
 20
728.5
 30
0.0
 11
184.0
 21
728.5
 31
0.0
  0
LINE
  5
535
  8
DATA
  6
CONTINUOUS
 62
     7
 10
191.0
 20
721.49999999999989
 30
0.0
 11
184.0
 21
721.49999999999989
 31
0.0
  0
TEXT
  5
536
  8
DATA
 62
     7
 10
190.7893880208332
 20
720.8693880208333
 30
0.0
 40
2.30859375
  1
1+
 50
180.0
 41
0.8
 11
190.7893880208332
 21
718.56079427083318
 31
0.0
 73
     3
  0
TEXT
  5
537
  8
DATA
 62
     7
 10
190.7893880208332
 20
724.3693880208333
 30
0.0
 40
2.30859375
  1
1-
 50
180.0
 41
0.8
 11
190.7893880208332
 21
722.06079427083318
 31
0.0
 73
     3
  0
TEXT
  5
538
  8
DATA
 62
     7
 10
190.7893880208332
 20
727.8693880208333
 30
0.0
 40
2.30859375
  1
2+
 50
180.0
 41
0.8
 11
190.7893880208332
 21
725.5607942708333
 31
0.0
 73
     3
  0
TEXT
  5
539
  8
DATA
 62
     7
 10
190.7893880208332
 20
731.3693880208333
 30
0.0
 40
2.30859375
  1
2-
 50
180.0
 41
0.8
 11
190.7893880208332
 21
729.0607942708333
 31
0.0
 73
     3
  0
TEXT
  5
53A
  8
DATA
 62
     7
 10
186.44270837555479
 20
720.8693880208333
 30
0.0
 40
2.30859375
  1
1
 50
180.0
 41
0.8
 11
186.44270837555479
 21
718.56079427083318
 31
0.0
 73
     3
  0
TEXT
  5
53B
  8
DATA
 62
     7
 10
186.44270837555479
 20
724.3693880208333
 30
0.0
 40
2.30859375
  1
1
 50
180.0
 41
0.8
 11
186.44270837555479
 21
722.06079427083318
 31
0.0
 73
     3
  0
TEXT
  5
53C
  8
DATA
 62
     7
 10
186.44270837555479
 20
727.8693880208333
 30
0.0
 40
2.30859375
  1
2
 50
180.0
 41
0.8
 11
186.44270837555479
 21
725.5607942708333
 31
0.0
 73
     3
  0
TEXT
  5
53D
  8
DATA
 62
     7
 10
186.44270837555479
 20
731.3693880208333
 30
0.0
 40
2.30859375
  1
2
 50
180.0
 41
0.8
 11
186.44270837555479
 21
729.0607942708333
 31
0.0
 73
     3
  0
CIRCLE
  5
53E
  8
DATA
  6
CONTINUOUS
 62
     7
 10
159.5
 20
725.0
 30
0.0
 40
6.0
  0
CIRCLE
  5
53F
  8
DATA
  6
CONTINUOUS
 62
     7
 10
159.5
 20
725.0
 30
0.0
 40
3.5
  0
CIRCLE
  5
540
  8
DATA
  6
CONTINUOUS
 62
     7
 10
159.5
 20
763.0
 30
0.0
 40
6.0
  0
CIRCLE
  5
541
  8
DATA
  6
CONTINUOUS
 62
     7
 10
159.49999999999989
 20
763.00000000000034
 30
0.0
 40
3.5000000000001128
  0
LINE
  5
542
  8
DATA
  6
CONTINUOUS
 62
     7
 10
191.0
 20
770.0
 30
0.0
 11
191.0
 21
756.0
 31
0.0
  0
LINE
  5
543
  8
DATA
  6
CONTINUOUS
 62
     7
 10
191.0
 20
770.0
 30
0.0
 11
184.0
 21
770.0
 31
0.0
  0
LINE
  5
544
  8
DATA
  6
CONTINUOUS
 62
     7
 10
184.0
 20
770.0
 30
0.0
 11
184.0
 21
756.0
 31
0.0
  0
LINE
  5
545
  8
DATA
  6
CONTINUOUS
 62
     7
 10
191.0
 20
756.0
 30
0.0
 11
184.0
 21
756.0
 31
0.0
  0
LINE
  5
546
  8
DATA
  6
CONTINUOUS
 62
     7
 10
191.0
 20
763.0
 30
0.0
 11
184.0
 21
763.0
 31
0.0
  0
LINE
  5
547
  8
DATA
  6
CONTINUOUS
 62
     7
 10
187.5
 20
756.0
 30
0.0
 11
187.5
 21
770.0
 31
0.0
  0
LINE
  5
548
  8
DATA
  6
CONTINUOUS
 62
     7
 10
191.0
 20
766.5
 30
0.0
 11
184.0
 21
766.5
 31
0.0
  0
LINE
  5
549
  8
DATA
  6
CONTINUOUS
 62
     7
 10
191.0
 20
759.49999999999989
 30
0.0
 11
184.0
 21
759.49999999999989
 31
0.0
  0
TEXT
  5
54A
  8
DATA
 62
     7
 10
190.7893880208332
 20
758.8693880208333
 30
0.0
 40
2.30859375
  1
1+
 50
180.0
 41
0.8
 11
190.7893880208332
 21
756.56079427083318
 31
0.0
 73
     3
  0
TEXT
  5
54B
  8
DATA
 62
     7
 10
190.7893880208332
 20
762.3693880208333
 30
0.0
 40
2.30859375
  1
1-
 50
180.0
 41
0.8
 11
190.7893880208332
 21
760.06079427083318
 31
0.0
 73
     3
  0
TEXT
  5
54C
  8
DATA
 62
     7
 10
190.7893880208332
 20
765.8693880208333
 30
0.0
 40
2.30859375
  1
2+
 50
180.0
 41
0.8
 11
190.7893880208332
 21
763.56079427083318
 31
0.0
 73
     3
  0
TEXT
  5
54D
  8
DATA
 62
     7
 10
190.7893880208332
 20
769.3693880208333
 30
0.0
 40
2.30859375
  1
2-
 50
180.0
 41
0.8
 11
190.7893880208332
 21
767.0607942708333
 31
0.0
 73
     3
  0
TEXT
  5
54E
  8
DATA
 62
     7
 10
186.44270837555479
 20
758.8693880208333
 30
0.0
 40
2.30859375
  1
2
 50
180.0
 41
0.8
 11
186.44270837555479
 21
756.56079427083318
 31
0.0
 73
     3
  0
TEXT
  5
54F
  8
DATA
 62
     7
 10
186.44270837555479
 20
762.3693880208333
 30
0.0
 40
2.30859375
  1
2
 50
180.0
 41
0.8
 11
186.44270837555479
 21
760.06079427083318
 31
0.0
 73
     3
  0
TEXT
  5
550
  8
DATA
 62
     7
 10
187.1041667088881
 20
765.9520703124997
 30
0.0
 40
2.30859375
  1
NC
 50
180.0
 41
0.8
 11
187.1041667088881
 21
763.64347656249981
 31
0.0
 73
     3
  0
TEXT
  5
551
  8
DATA
 62
     7
 10
187.1041667088881
 20
769.45207031249981
 30
0.0
 40
2.30859375
  1
NC
 50
180.0
 41
0.8
 11
187.1041667088881
 21
767.14347656249981
 31
0.0
 73
     3
  0
LINE
  5
552
  8
DATA
  6
CONTINUOUS
 62
     7
 10
185.25
 20
773.5
 30
0.0
 11
188.25
 21
773.0
 31
0.0
  0
LINE
  5
553
  8
DATA
  6
CONTINUOUS
 62
     7
 10
188.25
 20
773.0
 30
0.0
 11
189.75
 21
778.5
 31
0.0
  0
LINE
  5
554
  8
DATA
  6
CONTINUOUS
 62
     7
 10
185.25
 20
773.5
 30
0.0
 11
187.75
 21
777.5
 31
0.0
  0
LINE
  5
555
  8
DATA
  6
CONTINUOUS
 62
     7
 10
187.75
 20
777.5
 30
0.0
 11
185.75
 21
777.5
 31
0.0
  0
LINE
  5
556
  8
DATA
  6
CONTINUOUS
 62
     7
 10
189.75
 20
778.5
 30
0.0
 11
187.75
 21
778.5
 31
0.0
  0
LINE
  5
557
  8
DATA
  6
CONTINUOUS
 62
     7
 10
187.75
 20
778.5
 30
0.0
 11
188.75
 21
781.5
 31
0.0
  0
LINE
  5
558
  8
DATA
  6
CONTINUOUS
 62
     7
 10
185.75
 20
777.5
 30
0.0
 11
187.75
 21
781.5
 31
0.0
  0
LINE
  5
559
  8
DATA
  6
CONTINUOUS
 62
     7
 10
188.75
 20
781.5
 30
0.0
 11
189.75
 21
781.5
 31
0.0
  0
LINE
  5
55A
  8
DATA
  6
CONTINUOUS
 62
     7
 10
187.75
 20
781.5
 30
0.0
 11
186.75
 21
781.5
 31
0.0
  0
LINE
  5
55B
  8
DATA
  6
CONTINUOUS
 62
     7
 10
189.75
 20
781.5
 30
0.0
 11
188.75
 21
783.49999999999989
 31
0.0
  0
LINE
  5
55C
  8
DATA
  6
CONTINUOUS
 62
     7
 10
188.75
 20
783.49999999999989
 30
0.0
 11
186.75
 21
781.5
 31
0.0
  0
TEXT
  5
55D
  8
DATA
 62
     7
 10
182.37500005215409
 20
723.22500000000002
 30
0.0
 40
2.8857421875
  1
CH
 50
180.0
 41
0.8
 11
182.37500005215409
 21
720.33925781250002
 31
0.0
 73
     3
  0
TEXT
  5
55E
  8
DATA
 62
     7
 10
182.37500005215409
 20
729.70000000000005
 30
0.0
 40
5.771484375
  1
1
 50
180.0
 41
0.8
 11
182.37500005215409
 21
723.92851562500005
 31
0.0
 73
     3
  0
TEXT
  5
55F
  8
DATA
 62
     7
 10
182.37500005215409
 20
761.22500000000002
 30
0.0
 40
2.8857421875
  1
CH
 50
180.0
 41
0.8
 11
182.37500005215409
 21
758.33925781250002
 31
0.0
 73
     3
  0
TEXT
  5
560
  8
DATA
 62
     7
 10
182.37500005215409
 20
767.70000000000005
 30
0.0
 40
5.771484375
  1
2
 50
180.0
 41
0.8
 11
182.37500005215409
 21
761.92851562500005
 31
0.0
 73
     3
  0
CIRCLE
  5
561
  8
DATA
  6
CONTINUOUS
 62
     7
 10
211.5
 20
723.0
 30
0.0
 40
11.000000000000011
  0
CIRCLE
  5
562
  8
DATA
  6
CONTINUOUS
 62
     7
 10
211.5
 20
727.0
 30
0.0
 40
1.0000000000000071
  0
CIRCLE
  5
563
  8
DATA
  6
CONTINUOUS
 62
     7
 10
215.5
 20
723.0
 30
0.0
 40
1.0
  0
CIRCLE
  5
564
  8
DATA
  6
CONTINUOUS
 62
     7
 10
207.5
 20
723.0
 30
0.0
 40
1.0
  0
CIRCLE
  5
565
  8
DATA
  6
CONTINUOUS
 62
     7
 10
201.5
 20
733.0
 30
0.0
 40
2.0000000000000182
  0
LINE
  5
566
  8
DATA
  6
CONTINUOUS
 62
     7
 10
201.5
 20
734.0
 30
0.0
 11
201.5
 21
732.0
 31
0.0
  0
LINE
  5
567
  8
DATA
  6
CONTINUOUS
 62
     7
 10
200.63397459621561
 20
733.49999999999989
 30
0.0
 11
202.36602540378439
 21
732.5
 31
0.0
  0
LINE
  5
568
  8
DATA
  6
CONTINUOUS
 62
     7
 10
202.36602540378439
 20
733.49999999999989
 30
0.0
 11
200.63397459621561
 21
732.5
 31
0.0
  0
CIRCLE
  5
569
  8
DATA
  6
CONTINUOUS
 62
     7
 10
221.5
 20
713.0
 30
0.0
 40
2.0000000000000182
  0
LINE
  5
56A
  8
DATA
  6
CONTINUOUS
 62
     7
 10
221.5
 20
714.0
 30
0.0
 11
221.5
 21
712.0
 31
0.0
  0
LINE
  5
56B
  8
DATA
  6
CONTINUOUS
 62
     7
 10
220.63397459621561
 20
713.49999999999989
 30
0.0
 11
222.36602540378439
 21
712.5
 31
0.0
  0
LINE
  5
56C
  8
DATA
  6
CONTINUOUS
 62
     7
 10
222.36602540378439
 20
713.49999999999989
 30
0.0
 11
220.63397459621561
 21
712.5
 31
0.0
  0
ARC
  5
56D
  8
DATA
  6
CONTINUOUS
 62
     7
 10
234.50000000000011
 20
723.0
 30
0.0
 40
11.0
 50
283.13655878694459
 51
256.8634412130549
  0
CIRCLE
  5
56E
  8
DATA
  6
CONTINUOUS
 62
     7
 10
234.5
 20
727.0
 30
0.0
 40
1.0000000000000071
  0
CIRCLE
  5
56F
  8
DATA
  6
CONTINUOUS
 62
     7
 10
238.5
 20
723.0
 30
0.0
 40
1.0
  0
CIRCLE
  5
570
  8
DATA
  6
CONTINUOUS
 62
     7
 10
230.5
 20
723.0
 30
0.0
 40
1.0
  0
CIRCLE
  5
571
  8
DATA
  6
CONTINUOUS
 62
     7
 10
224.5
 20
733.0
 30
0.0
 40
2.0000000000000182
  0
LINE
  5
572
  8
DATA
  6
CONTINUOUS
 62
     7
 10
224.5
 20
734.0
 30
0.0
 11
224.5
 21
732.0
 31
0.0
  0
LINE
  5
573
  8
DATA
  6
CONTINUOUS
 62
     7
 10
223.63397459621561
 20
733.49999999999989
 30
0.0
 11
225.36602540378439
 21
732.5
 31
0.0
  0
LINE
  5
574
  8
DATA
  6
CONTINUOUS
 62
     7
 10
225.36602540378439
 20
733.49999999999989
 30
0.0
 11
223.63397459621561
 21
732.5
 31
0.0
  0
CIRCLE
  5
575
  8
DATA
  6
CONTINUOUS
 62
     7
 10
244.5
 20
713.0
 30
0.0
 40
2.0000000000000182
  0
LINE
  5
576
  8
DATA
  6
CONTINUOUS
 62
     7
 10
244.5
 20
714.0
 30
0.0
 11
244.5
 21
712.0
 31
0.0
  0
LINE
  5
577
  8
DATA
  6
CONTINUOUS
 62
     7
 10
243.63397459621561
 20
713.49999999999989
 30
0.0
 11
245.36602540378439
 21
712.5
 31
0.0
  0
LINE
  5
578
  8
DATA
  6
CONTINUOUS
 62
     7
 10
245.36602540378439
 20
713.49999999999989
 30
0.0
 11
243.63397459621561
 21
712.5
 31
0.0
  0
ARC
  5
579
  8
DATA
  6
CONTINUOUS
 62
     7
 10
205.8431457505076
 20
717.34314575050769
 30
0.0
 40
0.7500000000000008
 50
131.41667830153051
 51
318.58332169846949
  0
CIRCLE
  5
57A
  8
DATA
  6
CONTINUOUS
 62
     7
 10
240.1568542494924
 20
717.34314575050769
 30
0.0
 40
0.5
  0
LINE
  5
57B
  8
DATA
  6
CONTINUOUS
 62
     7
 10
231.5
 20
712.0
 30
0.0
 11
232.0
 21
712.0
 31
0.0
  0
LINE
  5
57C
  8
DATA
  6
CONTINUOUS
 62
     7
 10
237.0
 20
712.0
 30
0.0
 11
237.5
 21
712.0
 31
0.0
  0
LINE
  5
57D
  8
DATA
  6
CONTINUOUS
 62
     7
 10
229.5
 20
710.0
 30
0.0
 11
229.5
 21
709.4169947557416
 31
0.0
  0
LINE
  5
57E
  8
DATA
  6
CONTINUOUS
 62
     7
 10
239.5
 20
710.0
 30
0.0
 11
239.5
 21
709.4169947557416
 31
0.0
  0
ARC
  5
57F
  8
DATA
  6
CONTINUOUS
 62
     7
 10
234.5
 20
720.0
 30
0.0
 40
13.0
 50
254.1733798681276
 51
285.82662013187229
  0
ARC
  5
580
  8
DATA
  6
CONTINUOUS
 62
     7
 10
231.5
 20
710.0
 30
0.0
 40
2.0
 50
90.0
 51
180.0
  0
ARC
  5
581
  8
DATA
  6
CONTINUOUS
 62
     7
 10
237.5
 20
710.0
 30
0.0
 40
2.0
 50
0.0
 51
90.0
  0
ARC
  5
582
  8
DATA
  6
CONTINUOUS
 62
     7
 10
231.5
 20
709.4169947557416
 30
0.0
 40
2.0
 50
180.0
 51
254.17337986812731
  0
ARC
  5
583
  8
DATA
  6
CONTINUOUS
 62
     7
 10
237.5
 20
709.4169947557416
 30
0.0
 40
2.0000000000000289
 50
285.82662013187422
 51
0.0
  0
LINE
  5
584
  8
DATA
  6
CONTINUOUS
 62
     7
 10
232.0
 20
712.80196097281487
 30
0.0
 11
232.0
 21
712.0
 31
0.0
  0
LINE
  5
585
  8
DATA
  6
CONTINUOUS
 62
     7
 10
237.0
 20
712.80196097281453
 30
0.0
 11
237.0
 21
712.0
 31
0.0
  0
CIRCLE
  5
586
  8
DATA
  6
CONTINUOUS
 62
     7
 10
234.5000000000006
 20
722.99999999999955
 30
0.0
 40
10.499999999999369
  0
TEXT
  5
587
  8
DATA
 62
     7
 10
238.49999966224041
 20
711.22500000000002
 30
0.0
 40
2.8857421875
  1
PUSH
 50
180.0
 41
0.8
 11
238.49999966224041
 21
708.33925781250002
 31
0.0
 73
     3
  0
ARC
  5
588
  8
DATA
  6
CONTINUOUS
 62
     7
 10
234.5000000000006
 20
722.99999999999955
 30
0.0
 40
7.9999999999993801
 50
318.58156931865602
 51
311.41843068133983
  0
ARC
  5
589
  8
DATA
  6
CONTINUOUS
 62
     7
 10
211.5
 20
723.0
 30
0.0
 40
7.9999999999999876
 50
230.37344837138329
 51
219.62655162861671
  0
TEXT
  5
58A
  8
DATA
 62
     7
 10
237.6250000099341
 20
740.10000000000002
 30
0.0
 40
2.8857421875
  1
IN
 50
180.0
 41
0.8
 11
237.6250000099341
 21
737.21425781250002
 31
0.0
 73
     3
  0
TEXT
  5
58B
  8
DATA
 62
     7
 10
221.1328125099341
 20
740.10000000000002
 30
0.0
 40
2.8857421875
  1
LINK/OUT
 50
180.0
 41
0.8
 11
221.1328125099341
 21
737.21425781250002
 31
0.0
 73
     3
  0
TEXT
  5
58C
  8
DATA
 62
     7
 10
203.2500001043081
 20
706.72500000000002
 30
0.0
 40
2.8857421875
  1
CH
 50
180.0
 41
0.8
 11
203.2500001043081
 21
703.83925781250002
 31
0.0
 73
     3
  0
TEXT
  5
58D
  8
DATA
 62
     7
 10
203.2500001043081
 20
713.20000000000005
 30
0.0
 40
5.771484375
  1
2
 50
180.0
 41
0.8
 11
203.2500001043081
 21
707.42851562500005
 31
0.0
 73
     3
  0
CIRCLE
  5
58E
  8
DATA
  6
CONTINUOUS
 62
     7
 10
275.5
 20
723.0
 30
0.0
 40
11.000000000000011
  0
CIRCLE
  5
58F
  8
DATA
  6
CONTINUOUS
 62
     7
 10
275.5
 20
727.0
 30
0.0
 40
1.0000000000000071
  0
CIRCLE
  5
590
  8
DATA
  6
CONTINUOUS
 62
     7
 10
279.5
 20
723.0
 30
0.0
 40
1.0
  0
CIRCLE
  5
591
  8
DATA
  6
CONTINUOUS
 62
     7
 10
271.5
 20
723.0
 30
0.0
 40
1.0
  0
CIRCLE
  5
592
  8
DATA
  6
CONTINUOUS
 62
     7
 10
265.5
 20
733.0
 30
0.0
 40
2.0000000000000182
  0
LINE
  5
593
  8
DATA
  6
CONTINUOUS
 62
     7
 10
265.5
 20
734.0
 30
0.0
 11
265.5
 21
732.0
 31
0.0
  0
LINE
  5
594
  8
DATA
  6
CONTINUOUS
 62
     7
 10
264.63397459621558
 20
733.49999999999989
 30
0.0
 11
266.36602540378442
 21
732.5
 31
0.0
  0
LINE
  5
595
  8
DATA
  6
CONTINUOUS
 62
     7
 10
266.36602540378442
 20
733.49999999999989
 30
0.0
 11
264.63397459621558
 21
732.5
 31
0.0
  0
CIRCLE
  5
596
  8
DATA
  6
CONTINUOUS
 62
     7
 10
285.5
 20
713.0
 30
0.0
 40
2.0000000000000182
  0
LINE
  5
597
  8
DATA
  6
CONTINUOUS
 62
     7
 10
285.5
 20
714.0
 30
0.0
 11
285.5
 21
712.0
 31
0.0
  0
LINE
  5
598
  8
DATA
  6
CONTINUOUS
 62
     7
 10
284.63397459621558
 20
713.49999999999989
 30
0.0
 11
286.36602540378442
 21
712.5
 31
0.0
  0
LINE
  5
599
  8
DATA
  6
CONTINUOUS
 62
     7
 10
286.36602540378442
 20
713.49999999999989
 30
0.0
 11
284.63397459621558
 21
712.5
 31
0.0
  0
ARC
  5
59A
  8
DATA
  6
CONTINUOUS
 62
     7
 10
298.50000000000011
 20
723.0
 30
0.0
 40
11.0
 50
283.13655878694459
 51
256.8634412130549
  0
CIRCLE
  5
59B
  8
DATA
  6
CONTINUOUS
 62
     7
 10
298.5
 20
727.0
 30
0.0
 40
1.0000000000000071
  0
CIRCLE
  5
59C
  8
DATA
  6
CONTINUOUS
 62
     7
 10
302.5
 20
723.0
 30
0.0
 40
1.0
  0
CIRCLE
  5
59D
  8
DATA
  6
CONTINUOUS
 62
     7
 10
294.5
 20
723.0
 30
0.0
 40
1.0
  0
CIRCLE
  5
59E
  8
DATA
  6
CONTINUOUS
 62
     7
 10
288.5
 20
733.0
 30
0.0
 40
2.0000000000000182
  0
LINE
  5
59F
  8
DATA
  6
CONTINUOUS
 62
     7
 10
288.5
 20
734.0
 30
0.0
 11
288.5
 21
732.0
 31
0.0
  0
LINE
  5
5A0
  8
DATA
  6
CONTINUOUS
 62
     7
 10
287.63397459621558
 20
733.49999999999989
 30
0.0
 11
289.36602540378442
 21
732.5
 31
0.0
  0
LINE
  5
5A1
  8
DATA
  6
CONTINUOUS
 62
     7
 10
289.36602540378442
 20
733.49999999999989
 30
0.0
 11
287.63397459621558
 21
732.5
 31
0.0
  0
CIRCLE
  5
5A2
  8
DATA
  6
CONTINUOUS
 62
     7
 10
308.5
 20
713.0
 30
0.0
 40
2.0000000000000182
  0
LINE
  5
5A3
  8
DATA
  6
CONTINUOUS
 62
     7
 10
308.5
 20
714.0
 30
0.0
 11
308.5
 21
712.0
 31
0.0
  0
LINE
  5
5A4
  8
DATA
  6
CONTINUOUS
 62
     7
 10
307.63397459621558
 20
713.49999999999989
 30
0.0
 11
309.36602540378431
 21
712.5
 31
0.0
  0
LINE
  5
5A5
  8
DATA
  6
CONTINUOUS
 62
     7
 10
309.36602540378431
 20
713.49999999999989
 30
0.0
 11
307.63397459621558
 21
712.5
 31
0.0
  0
ARC
  5
5A6
  8
DATA
  6
CONTINUOUS
 62
     7
 10
269.84314575050757
 20
717.34314575050769
 30
0.0
 40
0.7500000000000008
 50
131.41667830153051
 51
318.58332169846949
  0
CIRCLE
  5
5A7
  8
DATA
  6
CONTINUOUS
 62
     7
 10
304.15685424949243
 20
717.34314575050769
 30
0.0
 40
0.5
  0
LINE
  5
5A8
  8
DATA
  6
CONTINUOUS
 62
     7
 10
295.5
 20
712.0
 30
0.0
 11
296.0
 21
712.0
 31
0.0
  0
LINE
  5
5A9
  8
DATA
  6
CONTINUOUS
 62
     7
 10
301.0
 20
712.0
 30
0.0
 11
301.5
 21
712.0
 31
0.0
  0
LINE
  5
5AA
  8
DATA
  6
CONTINUOUS
 62
     7
 10
293.5
 20
710.0
 30
0.0
 11
293.5
 21
709.4169947557416
 31
0.0
  0
LINE
  5
5AB
  8
DATA
  6
CONTINUOUS
 62
     7
 10
303.5
 20
710.0
 30
0.0
 11
303.5
 21
709.4169947557416
 31
0.0
  0
ARC
  5
5AC
  8
DATA
  6
CONTINUOUS
 62
     7
 10
298.5
 20
720.0
 30
0.0
 40
13.0
 50
254.1733798681276
 51
285.82662013187229
  0
ARC
  5
5AD
  8
DATA
  6
CONTINUOUS
 62
     7
 10
295.5
 20
710.0
 30
0.0
 40
2.0
 50
90.0
 51
180.0
  0
ARC
  5
5AE
  8
DATA
  6
CONTINUOUS
 62
     7
 10
301.5
 20
710.0
 30
0.0
 40
2.0
 50
0.0
 51
90.0
  0
ARC
  5
5AF
  8
DATA
  6
CONTINUOUS
 62
     7
 10
295.5
 20
709.4169947557416
 30
0.0
 40
2.0
 50
180.0
 51
254.17337986812731
  0
ARC
  5
5B0
  8
DATA
  6
CONTINUOUS
 62
     7
 10
301.5
 20
709.4169947557416
 30
0.0
 40
2.0000000000000289
 50
285.82662013187422
 51
0.0
  0
LINE
  5
5B1
  8
DATA
  6
CONTINUOUS
 62
     7
 10
296.0
 20
712.80196097281487
 30
0.0
 11
296.0
 21
712.0
 31
0.0
  0
LINE
  5
5B2
  8
DATA
  6
CONTINUOUS
 62
     7
 10
301.0
 20
712.80196097281453
 30
0.0
 11
301.0
 21
712.0
 31
0.0
  0
CIRCLE
  5
5B3
  8
DATA
  6
CONTINUOUS
 62
     7
 10
298.50000000000063
 20
722.99999999999955
 30
0.0
 40
10.499999999999369
  0
TEXT
  5
5B4
  8
DATA
 62
     7
 10
302.49999966224038
 20
711.22500000000002
 30
0.0
 40
2.8857421875
  1
PUSH
 50
180.0
 41
0.8
 11
302.49999966224038
 21
708.33925781250002
 31
0.0
 73
     3
  0
ARC
  5
5B5
  8
DATA
  6
CONTINUOUS
 62
     7
 10
298.50000000000063
 20
722.99999999999955
 30
0.0
 40
7.9999999999993801
 50
318.58156931865602
 51
311.41843068133983
  0
ARC
  5
5B6
  8
DATA
  6
CONTINUOUS
 62
     7
 10
275.5
 20
723.0
 30
0.0
 40
7.9999999999999876
 50
230.37344837138329
 51
219.62655162861671
  0
TEXT
  5
5B7
  8
DATA
 62
     7
 10
300.30208334326761
 20
740.10000000000002
 30
0.0
 40
2.8857421875
  1
IN
 50
180.0
 41
0.8
 11
300.30208334326761
 21
737.21425781250002
 31
0.0
 73
     3
  0
TEXT
  5
5B8
  8
DATA
 62
     7
 10
282.86067745586251
 20
739.72500000000002
 30
0.0
 40
2.8857421875
  1
LINK/OUT
 50
180.0
 41
0.8
 11
282.86067745586251
 21
736.83925781250002
 31
0.0
 73
     3
  0
TEXT
  5
5B9
  8
DATA
 62
     7
 10
315.87500005215401
 20
706.72500000000002
 30
0.0
 40
2.8857421875
  1
CH
 50
180.0
 41
0.8
 11
315.87500005215401
 21
703.83925781250002
 31
0.0
 73
     3
  0
TEXT
  5
5BA
  8
DATA
 62
     7
 10
315.87500005215401
 20
713.20000000000005
 30
0.0
 40
5.771484375
  1
1
 50
180.0
 41
0.8
 11
315.87500005215401
 21
707.42851562500005
 31
0.0
 73
     3
  0
CIRCLE
  5
5BB
  8
DATA
  6
CONTINUOUS
 62
     7
 10
275.5
 20
765.0
 30
0.0
 40
11.000000000000011
  0
CIRCLE
  5
5BC
  8
DATA
  6
CONTINUOUS
 62
     7
 10
275.5
 20
761.0
 30
0.0
 40
1.0000000000000071
  0
CIRCLE
  5
5BD
  8
DATA
  6
CONTINUOUS
 62
     7
 10
279.5
 20
765.0
 30
0.0
 40
1.0
  0
CIRCLE
  5
5BE
  8
DATA
  6
CONTINUOUS
 62
     7
 10
271.5
 20
765.0
 30
0.0
 40
1.0
  0
CIRCLE
  5
5BF
  8
DATA
  6
CONTINUOUS
 62
     7
 10
285.5
 20
755.0
 30
0.0
 40
2.0000000000000182
  0
LINE
  5
5C0
  8
DATA
  6
CONTINUOUS
 62
     7
 10
285.5
 20
754.0
 30
0.0
 11
285.5
 21
756.0
 31
0.0
  0
LINE
  5
5C1
  8
DATA
  6
CONTINUOUS
 62
     7
 10
286.36602540378442
 20
754.49999999999989
 30
0.0
 11
284.63397459621558
 21
755.49999999999989
 31
0.0
  0
LINE
  5
5C2
  8
DATA
  6
CONTINUOUS
 62
     7
 10
284.63397459621558
 20
754.49999999999989
 30
0.0
 11
286.36602540378442
 21
755.49999999999989
 31
0.0
  0
CIRCLE
  5
5C3
  8
DATA
  6
CONTINUOUS
 62
     7
 10
265.5
 20
775.0
 30
0.0
 40
2.0000000000000182
  0
LINE
  5
5C4
  8
DATA
  6
CONTINUOUS
 62
     7
 10
265.5
 20
774.0
 30
0.0
 11
265.5
 21
776.0
 31
0.0
  0
LINE
  5
5C5
  8
DATA
  6
CONTINUOUS
 62
     7
 10
266.36602540378442
 20
774.5
 30
0.0
 11
264.63397459621558
 21
775.49999999999989
 31
0.0
  0
LINE
  5
5C6
  8
DATA
  6
CONTINUOUS
 62
     7
 10
264.63397459621558
 20
774.5
 30
0.0
 11
266.36602540378442
 21
775.49999999999989
 31
0.0
  0
ARC
  5
5C7
  8
DATA
  6
CONTINUOUS
 62
     7
 10
298.50000000000011
 20
765.0
 30
0.0
 40
11.00000000000002
 50
103.1365587869451
 51
76.863441213055424
  0
CIRCLE
  5
5C8
  8
DATA
  6
CONTINUOUS
 62
     7
 10
298.5
 20
761.0
 30
0.0
 40
1.0000000000000071
  0
CIRCLE
  5
5C9
  8
DATA
  6
CONTINUOUS
 62
     7
 10
302.5
 20
765.0
 30
0.0
 40
1.0
  0
CIRCLE
  5
5CA
  8
DATA
  6
CONTINUOUS
 62
     7
 10
294.5
 20
765.0
 30
0.0
 40
1.0
  0
CIRCLE
  5
5CB
  8
DATA
  6
CONTINUOUS
 62
     7
 10
308.50000000000119
 20
755.0
 30
0.0
 40
2.0000000000000182
  0
LINE
  5
5CC
  8
DATA
  6
CONTINUOUS
 62
     7
 10
308.50000000000119
 20
754.0
 30
0.0
 11
308.50000000000119
 21
756.0
 31
0.0
  0
LINE
  5
5CD
  8
DATA
  6
CONTINUOUS
 62
     7
 10
309.36602540378573
 20
754.49999999999989
 30
0.0
 11
307.63397459621677
 21
755.49999999999989
 31
0.0
  0
LINE
  5
5CE
  8
DATA
  6
CONTINUOUS
 62
     7
 10
307.63397459621677
 20
754.49999999999989
 30
0.0
 11
309.36602540378573
 21
755.49999999999989
 31
0.0
  0
CIRCLE
  5
5CF
  8
DATA
  6
CONTINUOUS
 62
     7
 10
288.50000000000131
 20
775.0
 30
0.0
 40
2.0000000000000182
  0
LINE
  5
5D0
  8
DATA
  6
CONTINUOUS
 62
     7
 10
288.50000000000131
 20
774.0
 30
0.0
 11
288.50000000000131
 21
776.0
 31
0.0
  0
LINE
  5
5D1
  8
DATA
  6
CONTINUOUS
 62
     7
 10
289.36602540378573
 20
774.5
 30
0.0
 11
287.63397459621677
 21
775.49999999999989
 31
0.0
  0
LINE
  5
5D2
  8
DATA
  6
CONTINUOUS
 62
     7
 10
287.63397459621677
 20
774.5
 30
0.0
 11
289.36602540378573
 21
775.49999999999989
 31
0.0
  0
ARC
  5
5D3
  8
DATA
  6
CONTINUOUS
 62
     7
 10
281.15685424949243
 20
770.65685424949254
 30
0.0
 40
0.7500000000000008
 50
311.41667830153062
 51
138.58332169846949
  0
CIRCLE
  5
5D4
  8
DATA
  6
CONTINUOUS
 62
     7
 10
292.84314575050888
 20
770.65685424949254
 30
0.0
 40
0.5
  0
LINE
  5
5D5
  8
DATA
  6
CONTINUOUS
 62
     7
 10
295.5
 20
776.0
 30
0.0
 11
296.0
 21
776.0
 31
0.0
  0
LINE
  5
5D6
  8
DATA
  6
CONTINUOUS
 62
     7
 10
301.0
 20
776.0
 30
0.0
 11
301.5
 21
776.0
 31
0.0
  0
LINE
  5
5D7
  8
DATA
  6
CONTINUOUS
 62
     7
 10
293.5
 20
778.0
 30
0.0
 11
293.5
 21
778.5830052442584
 31
0.0
  0
LINE
  5
5D8
  8
DATA
  6
CONTINUOUS
 62
     7
 10
303.5
 20
778.0
 30
0.0
 11
303.5
 21
778.5830052442584
 31
0.0
  0
ARC
  5
5D9
  8
DATA
  6
CONTINUOUS
 62
     7
 10
298.5
 20
768.0
 30
0.0
 40
13.0
 50
74.173379868127569
 51
105.8266201318724
  0
ARC
  5
5DA
  8
DATA
  6
CONTINUOUS
 62
     7
 10
295.5
 20
778.0
 30
0.0
 40
2.0
 50
180.0
 51
270.0
  0
ARC
  5
5DB
  8
DATA
  6
CONTINUOUS
 62
     7
 10
301.5
 20
778.0
 30
0.0
 40
2.0
 50
270.0
 51
0.0
  0
ARC
  5
5DC
  8
DATA
  6
CONTINUOUS
 62
     7
 10
295.5
 20
778.5830052442584
 30
0.0
 40
2.0000000000000129
 50
105.8266201318727
 51
180.0
  0
ARC
  5
5DD
  8
DATA
  6
CONTINUOUS
 62
     7
 10
301.5
 20
778.5830052442584
 30
0.0
 40
2.000000000000056
 50
0.0
 51
74.173379868125807
  0
LINE
  5
5DE
  8
DATA
  6
CONTINUOUS
 62
     7
 10
296.0
 20
775.19803902718502
 30
0.0
 11
296.0
 21
776.0
 31
0.0
  0
LINE
  5
5DF
  8
DATA
  6
CONTINUOUS
 62
     7
 10
301.0
 20
775.19803902718525
 30
0.0
 11
301.0
 21
776.0
 31
0.0
  0
CIRCLE
  5
5E0
  8
DATA
  6
CONTINUOUS
 62
     7
 10
298.50000000000063
 20
765.00000000000011
 30
0.0
 40
10.499999999999369
  0
TEXT
  5
5E1
  8
DATA
 62
     7
 10
294.99999945362413
 20
776.77499999999975
 30
0.0
 40
2.8857421875
  1
PUSH
 41
0.8
 11
294.99999945362413
 21
779.66074218749975
 31
0.0
 73
     3
  0
ARC
  5
5E2
  8
DATA
  6
CONTINUOUS
 62
     7
 10
298.50000000000063
 20
765.00000000000011
 30
0.0
 40
7.9999999999993801
 50
138.58156931865599
 51
131.4184306813398
  0
ARC
  5
5E3
  8
DATA
  6
CONTINUOUS
 62
     7
 10
275.5
 20
765.0
 30
0.0
 40
7.9999999999999876
 50
50.373448371383333
 51
39.626551628616689
  0
TEXT
  5
5E4
  8
DATA
 62
     7
 10
300.30208334326761
 20
752.82265624999968
 30
0.0
 40
2.8857421875
  1
IN
 50
180.0
 41
0.8
 11
300.30208334326761
 21
749.9369140624998
 31
0.0
 73
     3
  0
TEXT
  5
5E5
  8
DATA
 62
     7
 10
281.9016928722462
 20
749.0726562499998
 30
0.0
 40
2.8857421875
  1
ACTIVE
 50
180.0
 41
0.8
 72
     1
 11
275.36067724724609
 21
746.18691406249968
 31
0.0
 73
     3
  0
TEXT
  5
5E6
  8
DATA
 62
     7
 10
283.82552099724609
 20
752.82265624999968
 30
0.0
 40
2.8857421875
  1
LINK/OUT
 50
180.0
 41
0.8
 72
     1
 11
275.36067724724609
 21
749.9369140624998
 31
0.0
 73
     3
  0
TEXT
  5
5E7
  8
DATA
 62
     7
 10
319.68229171882041
 20
776.97500000000002
 30
0.0
 40
2.8857421875
  1
CH
 50
180.0
 41
0.8
 11
319.68229171882041
 21
774.08925781249991
 31
0.0
 73
     3
  0
TEXT
  5
5E8
  8
DATA
 62
     7
 10
319.68229171882041
 20
783.45000000000005
 30
0.0
 40
5.771484375
  1
1/2
 50
180.0
 41
0.8
 11
319.68229171882041
 21
777.67851562500005
 31
0.0
 73
     3
  0
TEXT
  5
5E9
  8
DATA
 62
     7
 10
312.2408854688199
 20
776.97500000000002
 30
0.0
 40
2.8857421875
  1
CH
 50
180.0
 41
0.8
 11
312.2408854688199
 21
774.08925781249991
 31
0.0
 73
     3
  0
TEXT
  5
5EA
  8
DATA
 62
     7
 10
274.0625001043083
 20
783.26499999999999
 30
0.0
 40
4.0400390625
  1
AES/EBU
 50
180.0
 41
0.8
 11
274.0625001043083
 21
779.22496093749999
 31
0.0
 73
     3
  0
TEXT
  5
5EB
  8
DATA
 62
     7
 10
267.77864466110839
 20
752.16864583333324
 30
0.0
 40
4.0400390625
  1
DIGITAL
 50
180.0
 41
0.8
 11
267.77864466110839
 21
748.12860677083324
 31
0.0
 73
     3
  0
TEXT
  5
5EC
  8
DATA
 62
     7
 10
267.77864466110839
 20
757.41864583333324
 30
0.0
 40
4.0400390625
  1
INPUTS
 50
180.0
 41
0.8
 11
267.77864466110839
 21
753.37860677083324
 31
0.0
 73
     3
  0
LINE
  5
5ED
  8
DATA
  6
CONTINUOUS
 62
     7
 10
219.5
 20
766.0
 30
0.0
 11
203.5
 21
766.0
 31
0.0
  0
LINE
  5
5EE
  8
DATA
  6
CONTINUOUS
 62
     7
 10
219.5
 20
766.0
 30
0.0
 11
219.5
 21
753.0
 31
0.0
  0
LINE
  5
5EF
  8
DATA
  6
CONTINUOUS
 62
     7
 10
219.5
 20
753.0
 30
0.0
 11
203.5
 21
753.0
 31
0.0
  0
LINE
  5
5F0
  8
DATA
  6
CONTINUOUS
 62
     7
 10
203.5
 20
753.0
 30
0.0
 11
203.5
 21
766.0
 31
0.0
  0
LINE
  5
5F1
  8
DATA
  6
CONTINUOUS
 62
     7
 10
217.5
 20
755.0
 30
0.0
 11
205.5
 21
755.0
 31
0.0
  0
LINE
  5
5F2
  8
DATA
  6
CONTINUOUS
 62
     7
 10
217.5
 20
763.0
 30
0.0
 11
217.5
 21
755.0
 31
0.0
  0
LINE
  5
5F3
  8
DATA
  6
CONTINUOUS
 62
     7
 10
205.5
 20
755.0
 30
0.0
 11
205.5
 21
763.0
 31
0.0
  0
LINE
  5
5F4
  8
DATA
  6
CONTINUOUS
 62
     7
 10
217.5
 20
763.0
 30
0.0
 11
215.0
 21
763.0
 31
0.0
  0
LINE
  5
5F5
  8
DATA
  6
CONTINUOUS
 62
     7
 10
215.0
 20
763.0
 30
0.0
 11
215.0
 21
766.0
 31
0.0
  0
LINE
  5
5F6
  8
DATA
  6
CONTINUOUS
 62
     7
 10
205.5
 20
763.0
 30
0.0
 11
208.0
 21
763.0
 31
0.0
  0
LINE
  5
5F7
  8
DATA
  6
CONTINUOUS
 62
     7
 10
208.0
 20
763.0
 30
0.0
 11
208.0
 21
766.0
 31
0.0
  0
LINE
  5
5F8
  8
DATA
  6
CONTINUOUS
 62
     7
 10
219.0
 20
763.49999999999989
 30
0.0
 11
215.5
 21
763.49999999999989
 31
0.0
  0
LINE
  5
5F9
  8
DATA
  6
CONTINUOUS
 62
     7
 10
215.5
 20
763.49999999999989
 30
0.0
 11
215.5
 21
765.5
 31
0.0
  0
LINE
  5
5FA
  8
DATA
  6
CONTINUOUS
 62
     7
 10
215.5
 20
765.5
 30
0.0
 11
219.0
 21
765.5
 31
0.0
  0
LINE
  5
5FB
  8
DATA
  6
CONTINUOUS
 62
     7
 10
219.0
 20
765.5
 30
0.0
 11
219.0
 21
763.49999999999989
 31
0.0
  0
LINE
  5
5FC
  8
DATA
  6
CONTINUOUS
 62
     7
 10
207.5
 20
763.49999999999989
 30
0.0
 11
207.5
 21
765.5
 31
0.0
  0
LINE
  5
5FD
  8
DATA
  6
CONTINUOUS
 62
     7
 10
207.5
 20
765.5
 30
0.0
 11
204.0
 21
765.5
 31
0.0
  0
LINE
  5
5FE
  8
DATA
  6
CONTINUOUS
 62
     7
 10
204.0
 20
765.5
 30
0.0
 11
204.0
 21
763.49999999999989
 31
0.0
  0
LINE
  5
5FF
  8
DATA
  6
CONTINUOUS
 62
     7
 10
204.0
 20
763.49999999999989
 30
0.0
 11
207.5
 21
763.49999999999989
 31
0.0
  0
TEXT
  5
600
  8
DATA
 62
     7
 10
220.6484363277751
 20
752.16864583333324
 30
0.0
 40
4.0400390625
  1
NETWORK
 50
180.0
 41
0.8
 11
220.6484363277751
 21
748.12860677083324
 31
0.0
 73
     3
  0
TEXT
  5
601
  8
DATA
 62
     7
 10
221.2669270833334
 20
770.44635416666654
 30
0.0
 40
2.8857421875
  1
LINK
 50
180.0
 41
0.8
 72
     1
 11
217.4192708333334
 21
767.56061197916654
 31
0.0
 73
     3
  0
TEXT
  5
602
  8
DATA
 62
     7
 10
220.4973958333334
 20
774.19635416666654
 30
0.0
 40
2.8857421875
  1
ACT
 50
180.0
 41
0.8
 72
     1
 11
217.4192708333334
 21
771.31061197916654
 31
0.0
 73
     3
  0
TEXT
  5
603
  8
DATA
 62
     7
 10
208.22786458333329
 20
770.44635416666654
 30
0.0
 40
2.8857421875
  1
100
 50
180.0
 41
0.8
 72
     1
 11
205.9192708333334
 21
767.56061197916654
 31
0.0
 73
     3
  0
TEXT
  5
604
  8
DATA
 62
     7
 10
207.8430989583334
 20
774.19635416666654
 30
0.0
 40
2.8857421875
  1
MB
 50
180.0
 41
0.8
 72
     1
 11
205.9192708333334
 21
771.31061197916654
 31
0.0
 73
     3
  0
TEXT
  5
605
  8
DATA
 62
     7
 10
231.3359375
 20
779.17119462198002
 30
0.0
 40
2.8857421875
  1
MAC
 50
180.0
 41
0.8
 72
     1
 11
228.2578125
 21
776.28545243448002
 31
0.0
 73
     3
  0
TEXT
  5
606
  8
DATA
 62
     7
 10
235.953125
 20
782.92119462198002
 30
0.0
 40
2.8857421875
  1
ADDRESS
 50
180.0
 41
0.8
 72
     1
 11
228.2578125
 21
780.03545243448002
 31
0.0
 73
     3
  0
CIRCLE
  5
607
  8
DATA
  6
CONTINUOUS
 62
     7
 10
228.25000000000011
 20
753.0
 30
0.0
 40
2.0
  0
CIRCLE
  5
608
  8
DATA
  6
CONTINUOUS
 62
     7
 10
243.25000000000011
 20
753.0
 30
0.0
 40
1.9999999999999789
  0
TEXT
  5
609
  8
DATA
 62
     7
 10
248.37499984105429
 20
749.84999999999991
 30
0.0
 40
2.8857421875
  1
PRESET
 50
180.0
 41
0.8
 11
248.37499984105429
 21
746.96425781250002
 31
0.0
 73
     3
  0
TEXT
  5
60A
  8
DATA
 62
     7
 10
233.99218734105509
 20
749.84999999999991
 30
0.0
 40
2.8857421875
  1
IQ DATA
 50
180.0
 41
0.8
 11
233.99218734105509
 21
746.96425781250002
 31
0.0
 73
     3
  0
POLYLINE
  5
60B
  8
DATA
  6
CONTINUOUS
 62
     7
 66
     1
 10
0.0
 20
0.0
 30
0.0
 70
     1
  0
VERTEX
  5
A3B
  8
DATA
  6
CONTINUOUS
 62
     7
 10
382.5
 20
715.5
 30
0.0
  0
VERTEX
  5
A3C
  8
DATA
  6
CONTINUOUS
 62
     7
 10
389.0
 20
715.5
 30
0.0
  0
VERTEX
  5
A3D
  8
DATA
  6
CONTINUOUS
 62
     7
 10
389.0
 20
709.0
 30
0.0
  0
VERTEX
  5
A3E
  8
DATA
  6
CONTINUOUS
 62
     7
 10
382.5
 20
709.0
 30
0.0
  0
SEQEND
  5
A3F
  8
DATA
  6
CONTINUOUS
 62
     7
  0
POLYLINE
  5
611
  8
DATA
  6
CONTINUOUS
 62
     7
 66
     1
 10
0.0
 20
0.0
 30
0.0
 70
     1
  0
VERTEX
  5
A40
  8
DATA
  6
CONTINUOUS
 62
     7
 10
374.0
 20
724.0
 30
0.0
  0
VERTEX
  5
A41
  8
DATA
  6
CONTINUOUS
 62
     7
 10
380.5
 20
724.0
 30
0.0
  0
VERTEX
  5
A42
  8
DATA
  6
CONTINUOUS
 62
     7
 10
380.5
 20
717.49999999999989
 30
0.0
  0
VERTEX
  5
A43
  8
DATA
  6
CONTINUOUS
 62
     7
 10
374.0
 20
717.49999999999989
 30
0.0
  0
SEQEND
  5
A44
  8
DATA
  6
CONTINUOUS
 62
     7
  0
POLYLINE
  5
617
  8
DATA
  6
CONTINUOUS
 62
     7
 66
     1
 10
0.0
 20
0.0
 30
0.0
 70
     1
  0
VERTEX
  5
A45
  8
DATA
  6
CONTINUOUS
 62
     7
 10
374.0
 20
715.5
 30
0.0
  0
VERTEX
  5
A46
  8
DATA
  6
CONTINUOUS
 62
     7
 10
380.5
 20
715.5
 30
0.0
  0
VERTEX
  5
A47
  8
DATA
  6
CONTINUOUS
 62
     7
 10
380.5
 20
709.0
 30
0.0
  0
VERTEX
  5
A48
  8
DATA
  6
CONTINUOUS
 62
     7
 10
374.0
 20
709.0
 30
0.0
  0
SEQEND
  5
A49
  8
DATA
  6
CONTINUOUS
 62
     7
  0
POLYLINE
  5
61D
  8
DATA
  6
CONTINUOUS
 62
     7
 66
     1
 10
0.0
 20
0.0
 30
0.0
 70
     1
  0
VERTEX
  5
A4A
  8
DATA
  6
CONTINUOUS
 62
     7
 10
365.5
 20
732.5
 30
0.0
  0
VERTEX
  5
A4B
  8
DATA
  6
CONTINUOUS
 62
     7
 10
372.0
 20
732.5
 30
0.0
  0
VERTEX
  5
A4C
  8
DATA
  6
CONTINUOUS
 62
     7
 10
372.0
 20
726.0
 30
0.0
  0
VERTEX
  5
A4D
  8
DATA
  6
CONTINUOUS
 62
     7
 10
365.5
 20
726.0
 30
0.0
  0
SEQEND
  5
A4E
  8
DATA
  6
CONTINUOUS
 62
     7
  0
POLYLINE
  5
623
  8
DATA
  6
CONTINUOUS
 62
     7
 66
     1
 10
0.0
 20
0.0
 30
0.0
 70
     1
  0
VERTEX
  5
A4F
  8
DATA
  6
CONTINUOUS
 62
     7
 10
365.5
 20
741.0
 30
0.0
  0
VERTEX
  5
A50
  8
DATA
  6
CONTINUOUS
 62
     7
 10
372.0
 20
741.0
 30
0.0
  0
VERTEX
  5
A51
  8
DATA
  6
CONTINUOUS
 62
     7
 10
372.0
 20
734.49999999999989
 30
0.0
  0
VERTEX
  5
A52
  8
DATA
  6
CONTINUOUS
 62
     7
 10
365.5
 20
734.49999999999989
 30
0.0
  0
SEQEND
  5
A53
  8
DATA
  6
CONTINUOUS
 62
     7
  0
POLYLINE
  5
629
  8
DATA
  6
CONTINUOUS
 62
     7
 66
     1
 10
0.0
 20
0.0
 30
0.0
 70
     1
  0
VERTEX
  5
A54
  8
DATA
  6
CONTINUOUS
 62
     7
 10
365.5
 20
724.0
 30
0.0
  0
VERTEX
  5
A55
  8
DATA
  6
CONTINUOUS
 62
     7
 10
372.0
 20
724.0
 30
0.0
  0
VERTEX
  5
A56
  8
DATA
  6
CONTINUOUS
 62
     7
 10
372.0
 20
717.49999999999989
 30
0.0
  0
VERTEX
  5
A57
  8
DATA
  6
CONTINUOUS
 62
     7
 10
365.5
 20
717.49999999999989
 30
0.0
  0
SEQEND
  5
A58
  8
DATA
  6
CONTINUOUS
 62
     7
  0
POLYLINE
  5
62F
  8
DATA
  6
CONTINUOUS
 62
     7
 66
     1
 10
0.0
 20
0.0
 30
0.0
 70
     1
  0
VERTEX
  5
A59
  8
DATA
  6
CONTINUOUS
 62
     7
 10
365.5
 20
715.5
 30
0.0
  0
VERTEX
  5
A5A
  8
DATA
  6
CONTINUOUS
 62
     7
 10
372.0
 20
715.5
 30
0.0
  0
VERTEX
  5
A5B
  8
DATA
  6
CONTINUOUS
 62
     7
 10
372.0
 20
709.0
 30
0.0
  0
VERTEX
  5
A5C
  8
DATA
  6
CONTINUOUS
 62
     7
 10
365.5
 20
709.0
 30
0.0
  0
SEQEND
  5
A5D
  8
DATA
  6
CONTINUOUS
 62
     7
  0
POLYLINE
  5
635
  8
DATA
  6
CONTINUOUS
 62
     7
 66
     1
 10
0.0
 20
0.0
 30
0.0
 70
     1
  0
VERTEX
  5
A5E
  8
DATA
  6
CONTINUOUS
 62
     7
 10
391.0
 20
715.5
 30
0.0
  0
VERTEX
  5
A5F
  8
DATA
  6
CONTINUOUS
 62
     7
 10
397.5
 20
715.5
 30
0.0
  0
VERTEX
  5
A60
  8
DATA
  6
CONTINUOUS
 62
     7
 10
397.5
 20
709.0
 30
0.0
  0
VERTEX
  5
A61
  8
DATA
  6
CONTINUOUS
 62
     7
 10
391.0
 20
709.0
 30
0.0
  0
SEQEND
  5
A62
  8
DATA
  6
CONTINUOUS
 62
     7
  0
POLYLINE
  5
63B
  8
DATA
  6
CONTINUOUS
 62
     7
 66
     1
 10
0.0
 20
0.0
 30
0.0
 70
     1
  0
VERTEX
  5
A63
  8
DATA
  6
CONTINUOUS
 62
     7
 10
399.5
 20
724.0
 30
0.0
  0
VERTEX
  5
A64
  8
DATA
  6
CONTINUOUS
 62
     7
 10
406.0
 20
724.0
 30
0.0
  0
VERTEX
  5
A65
  8
DATA
  6
CONTINUOUS
 62
     7
 10
406.0
 20
717.49999999999989
 30
0.0
  0
VERTEX
  5
A66
  8
DATA
  6
CONTINUOUS
 62
     7
 10
399.5
 20
717.49999999999989
 30
0.0
  0
SEQEND
  5
A67
  8
DATA
  6
CONTINUOUS
 62
     7
  0
POLYLINE
  5
641
  8
DATA
  6
CONTINUOUS
 62
     7
 66
     1
 10
0.0
 20
0.0
 30
0.0
 70
     1
  0
VERTEX
  5
A68
  8
DATA
  6
CONTINUOUS
 62
     7
 10
399.5
 20
715.5
 30
0.0
  0
VERTEX
  5
A69
  8
DATA
  6
CONTINUOUS
 62
     7
 10
406.0
 20
715.5
 30
0.0
  0
VERTEX
  5
A6A
  8
DATA
  6
CONTINUOUS
 62
     7
 10
406.0
 20
709.0
 30
0.0
  0
VERTEX
  5
A6B
  8
DATA
  6
CONTINUOUS
 62
     7
 10
399.5
 20
709.0
 30
0.0
  0
SEQEND
  5
A6C
  8
DATA
  6
CONTINUOUS
 62
     7
  0
POLYLINE
  5
647
  8
DATA
  6
CONTINUOUS
 62
     7
 66
     1
 10
0.0
 20
0.0
 30
0.0
 70
     1
  0
VERTEX
  5
A6D
  8
DATA
  6
CONTINUOUS
 62
     7
 10
408.0
 20
732.5
 30
0.0
  0
VERTEX
  5
A6E
  8
DATA
  6
CONTINUOUS
 62
     7
 10
414.5
 20
732.5
 30
0.0
  0
VERTEX
  5
A6F
  8
DATA
  6
CONTINUOUS
 62
     7
 10
414.5
 20
726.0
 30
0.0
  0
VERTEX
  5
A70
  8
DATA
  6
CONTINUOUS
 62
     7
 10
408.0
 20
726.0
 30
0.0
  0
SEQEND
  5
A71
  8
DATA
  6
CONTINUOUS
 62
     7
  0
POLYLINE
  5
64D
  8
DATA
  6
CONTINUOUS
 62
     7
 66
     1
 10
0.0
 20
0.0
 30
0.0
 70
     1
  0
VERTEX
  5
A72
  8
DATA
  6
CONTINUOUS
 62
     7
 10
408.0
 20
741.0
 30
0.0
  0
VERTEX
  5
A73
  8
DATA
  6
CONTINUOUS
 62
     7
 10
414.5
 20
741.0
 30
0.0
  0
VERTEX
  5
A74
  8
DATA
  6
CONTINUOUS
 62
     7
 10
414.5
 20
734.49999999999989
 30
0.0
  0
VERTEX
  5
A75
  8
DATA
  6
CONTINUOUS
 62
     7
 10
408.0
 20
734.49999999999989
 30
0.0
  0
SEQEND
  5
A76
  8
DATA
  6
CONTINUOUS
 62
     7
  0
POLYLINE
  5
653
  8
DATA
  6
CONTINUOUS
 62
     7
 66
     1
 10
0.0
 20
0.0
 30
0.0
 70
     1
  0
VERTEX
  5
A77
  8
DATA
  6
CONTINUOUS
 62
     7
 10
408.0
 20
724.0
 30
0.0
  0
VERTEX
  5
A78
  8
DATA
  6
CONTINUOUS
 62
     7
 10
414.5
 20
724.0
 30
0.0
  0
VERTEX
  5
A79
  8
DATA
  6
CONTINUOUS
 62
     7
 10
414.5
 20
717.49999999999989
 30
0.0
  0
VERTEX
  5
A7A
  8
DATA
  6
CONTINUOUS
 62
     7
 10
408.0
 20
717.49999999999989
 30
0.0
  0
SEQEND
  5
A7B
  8
DATA
  6
CONTINUOUS
 62
     7
  0
POLYLINE
  5
659
  8
DATA
  6
CONTINUOUS
 62
     7
 66
     1
 10
0.0
 20
0.0
 30
0.0
 70
     1
  0
VERTEX
  5
A7C
  8
DATA
  6
CONTINUOUS
 62
     7
 10
408.0
 20
715.5
 30
0.0
  0
VERTEX
  5
A7D
  8
DATA
  6
CONTINUOUS
 62
     7
 10
414.5
 20
715.5
 30
0.0
  0
VERTEX
  5
A7E
  8
DATA
  6
CONTINUOUS
 62
     7
 10
414.5
 20
709.0
 30
0.0
  0
VERTEX
  5
A7F
  8
DATA
  6
CONTINUOUS
 62
     7
 10
408.0
 20
709.0
 30
0.0
  0
SEQEND
  5
A80
  8
DATA
  6
CONTINUOUS
 62
     7
  0
POLYLINE
  5
65F
  8
DATA
  6
CONTINUOUS
 62
     7
 66
     1
 10
0.0
 20
0.0
 30
0.0
 70
     1
  0
VERTEX
  5
A81
  8
DATA
  6
CONTINUOUS
 62
     7
 10
399.5
 20
749.5
 30
0.0
  0
VERTEX
  5
A82
  8
DATA
  6
CONTINUOUS
 62
     7
 10
406.0
 20
749.5
 30
0.0
  0
VERTEX
  5
A83
  8
DATA
  6
CONTINUOUS
 62
     7
 10
406.0
 20
743.0
 30
0.0
  0
VERTEX
  5
A84
  8
DATA
  6
CONTINUOUS
 62
     7
 10
399.5
 20
743.0
 30
0.0
  0
SEQEND
  5
A85
  8
DATA
  6
CONTINUOUS
 62
     7
  0
POLYLINE
  5
665
  8
DATA
  6
CONTINUOUS
 62
     7
 66
     1
 10
0.0
 20
0.0
 30
0.0
 70
     1
  0
VERTEX
  5
A86
  8
DATA
  6
CONTINUOUS
 62
     7
 10
408.0
 20
749.5
 30
0.0
  0
VERTEX
  5
A87
  8
DATA
  6
CONTINUOUS
 62
     7
 10
414.5
 20
749.5
 30
0.0
  0
VERTEX
  5
A88
  8
DATA
  6
CONTINUOUS
 62
     7
 10
414.5
 20
743.0
 30
0.0
  0
VERTEX
  5
A89
  8
DATA
  6
CONTINUOUS
 62
     7
 10
408.0
 20
743.0
 30
0.0
  0
SEQEND
  5
A8A
  8
DATA
  6
CONTINUOUS
 62
     7
  0
POLYLINE
  5
66B
  8
DATA
  6
CONTINUOUS
 62
     7
 66
     1
 10
0.0
 20
0.0
 30
0.0
 70
     1
  0
VERTEX
  5
A8B
  8
DATA
  6
CONTINUOUS
 62
     7
 10
391.0
 20
758.0
 30
0.0
  0
VERTEX
  5
A8C
  8
DATA
  6
CONTINUOUS
 62
     7
 10
397.5
 20
758.0
 30
0.0
  0
VERTEX
  5
A8D
  8
DATA
  6
CONTINUOUS
 62
     7
 10
397.5
 20
751.5
 30
0.0
  0
VERTEX
  5
A8E
  8
DATA
  6
CONTINUOUS
 62
     7
 10
391.0
 20
751.5
 30
0.0
  0
SEQEND
  5
A8F
  8
DATA
  6
CONTINUOUS
 62
     7
  0
POLYLINE
  5
671
  8
DATA
  6
CONTINUOUS
 62
     7
 66
     1
 10
0.0
 20
0.0
 30
0.0
 70
     1
  0
VERTEX
  5
A90
  8
DATA
  6
CONTINUOUS
 62
     7
 10
399.5
 20
758.0
 30
0.0
  0
VERTEX
  5
A91
  8
DATA
  6
CONTINUOUS
 62
     7
 10
406.0
 20
758.0
 30
0.0
  0
VERTEX
  5
A92
  8
DATA
  6
CONTINUOUS
 62
     7
 10
406.0
 20
751.5
 30
0.0
  0
VERTEX
  5
A93
  8
DATA
  6
CONTINUOUS
 62
     7
 10
399.5
 20
751.5
 30
0.0
  0
SEQEND
  5
A94
  8
DATA
  6
CONTINUOUS
 62
     7
  0
POLYLINE
  5
677
  8
DATA
  6
CONTINUOUS
 62
     7
 66
     1
 10
0.0
 20
0.0
 30
0.0
 70
     1
  0
VERTEX
  5
A95
  8
DATA
  6
CONTINUOUS
 62
     7
 10
408.0
 20
758.0
 30
0.0
  0
VERTEX
  5
A96
  8
DATA
  6
CONTINUOUS
 62
     7
 10
414.5
 20
758.0
 30
0.0
  0
VERTEX
  5
A97
  8
DATA
  6
CONTINUOUS
 62
     7
 10
414.5
 20
751.5
 30
0.0
  0
VERTEX
  5
A98
  8
DATA
  6
CONTINUOUS
 62
     7
 10
408.0
 20
751.5
 30
0.0
  0
SEQEND
  5
A99
  8
DATA
  6
CONTINUOUS
 62
     7
  0
POLYLINE
  5
67D
  8
DATA
  6
CONTINUOUS
 62
     7
 66
     1
 10
0.0
 20
0.0
 30
0.0
 70
     1
  0
VERTEX
  5
A9A
  8
DATA
  6
CONTINUOUS
 62
     7
 10
374.0
 20
749.5
 30
0.0
  0
VERTEX
  5
A9B
  8
DATA
  6
CONTINUOUS
 62
     7
 10
380.5
 20
749.5
 30
0.0
  0
VERTEX
  5
A9C
  8
DATA
  6
CONTINUOUS
 62
     7
 10
380.5
 20
743.0
 30
0.0
  0
VERTEX
  5
A9D
  8
DATA
  6
CONTINUOUS
 62
     7
 10
374.0
 20
743.0
 30
0.0
  0
SEQEND
  5
A9E
  8
DATA
  6
CONTINUOUS
 62
     7
  0
POLYLINE
  5
683
  8
DATA
  6
CONTINUOUS
 62
     7
 66
     1
 10
0.0
 20
0.0
 30
0.0
 70
     1
  0
VERTEX
  5
A9F
  8
DATA
  6
CONTINUOUS
 62
     7
 10
365.5
 20
749.5
 30
0.0
  0
VERTEX
  5
AA0
  8
DATA
  6
CONTINUOUS
 62
     7
 10
372.0
 20
749.5
 30
0.0
  0
VERTEX
  5
AA1
  8
DATA
  6
CONTINUOUS
 62
     7
 10
372.0
 20
743.0
 30
0.0
  0
VERTEX
  5
AA2
  8
DATA
  6
CONTINUOUS
 62
     7
 10
365.5
 20
743.0
 30
0.0
  0
SEQEND
  5
AA3
  8
DATA
  6
CONTINUOUS
 62
     7
  0
POLYLINE
  5
689
  8
DATA
  6
CONTINUOUS
 62
     7
 66
     1
 10
0.0
 20
0.0
 30
0.0
 70
     1
  0
VERTEX
  5
AA4
  8
DATA
  6
CONTINUOUS
 62
     7
 10
382.5
 20
758.0
 30
0.0
  0
VERTEX
  5
AA5
  8
DATA
  6
CONTINUOUS
 62
     7
 10
389.0
 20
758.0
 30
0.0
  0
VERTEX
  5
AA6
  8
DATA
  6
CONTINUOUS
 62
     7
 10
389.0
 20
751.5
 30
0.0
  0
VERTEX
  5
AA7
  8
DATA
  6
CONTINUOUS
 62
     7
 10
382.5
 20
751.5
 30
0.0
  0
SEQEND
  5
AA8
  8
DATA
  6
CONTINUOUS
 62
     7
  0
POLYLINE
  5
68F
  8
DATA
  6
CONTINUOUS
 62
     7
 66
     1
 10
0.0
 20
0.0
 30
0.0
 70
     1
  0
VERTEX
  5
AA9
  8
DATA
  6
CONTINUOUS
 62
     7
 10
374.0
 20
758.0
 30
0.0
  0
VERTEX
  5
AAA
  8
DATA
  6
CONTINUOUS
 62
     7
 10
380.5
 20
758.0
 30
0.0
  0
VERTEX
  5
AAB
  8
DATA
  6
CONTINUOUS
 62
     7
 10
380.5
 20
751.5
 30
0.0
  0
VERTEX
  5
AAC
  8
DATA
  6
CONTINUOUS
 62
     7
 10
374.0
 20
751.5
 30
0.0
  0
SEQEND
  5
AAD
  8
DATA
  6
CONTINUOUS
 62
     7
  0
POLYLINE
  5
695
  8
DATA
  6
CONTINUOUS
 62
     7
 66
     1
 10
0.0
 20
0.0
 30
0.0
 70
     1
  0
VERTEX
  5
AAE
  8
DATA
  6
CONTINUOUS
 62
     7
 10
365.5
 20
758.0
 30
0.0
  0
VERTEX
  5
AAF
  8
DATA
  6
CONTINUOUS
 62
     7
 10
372.0
 20
758.0
 30
0.0
  0
VERTEX
  5
AB0
  8
DATA
  6
CONTINUOUS
 62
     7
 10
372.0
 20
751.5
 30
0.0
  0
VERTEX
  5
AB1
  8
DATA
  6
CONTINUOUS
 62
     7
 10
365.5
 20
751.5
 30
0.0
  0
SEQEND
  5
AB2
  8
DATA
  6
CONTINUOUS
 62
     7
  0
POLYLINE
  5
69B
  8
DATA
  6
CONTINUOUS
 62
     7
 66
     1
 10
0.0
 20
0.0
 30
0.0
 70
     1
  0
VERTEX
  5
AB3
  8
DATA
  6
CONTINUOUS
 62
     7
 10
399.5
 20
732.5
 30
0.0
  0
VERTEX
  5
AB4
  8
DATA
  6
CONTINUOUS
 62
     7
 10
406.0
 20
732.5
 30
0.0
  0
VERTEX
  5
AB5
  8
DATA
  6
CONTINUOUS
 62
     7
 10
406.0
 20
726.0
 30
0.0
  0
VERTEX
  5
AB6
  8
DATA
  6
CONTINUOUS
 62
     7
 10
399.5
 20
726.0
 30
0.0
  0
SEQEND
  5
AB7
  8
DATA
  6
CONTINUOUS
 62
     7
  0
POLYLINE
  5
6A1
  8
DATA
  6
CONTINUOUS
 62
     7
 66
     1
 10
0.0
 20
0.0
 30
0.0
 70
     1
  0
VERTEX
  5
AB8
  8
DATA
  6
CONTINUOUS
 62
     7
 10
399.5
 20
741.0
 30
0.0
  0
VERTEX
  5
AB9
  8
DATA
  6
CONTINUOUS
 62
     7
 10
406.0
 20
741.0
 30
0.0
  0
VERTEX
  5
ABA
  8
DATA
  6
CONTINUOUS
 62
     7
 10
406.0
 20
734.49999999999989
 30
0.0
  0
VERTEX
  5
ABB
  8
DATA
  6
CONTINUOUS
 62
     7
 10
399.5
 20
734.49999999999989
 30
0.0
  0
SEQEND
  5
ABC
  8
DATA
  6
CONTINUOUS
 62
     7
  0
POLYLINE
  5
6A7
  8
DATA
  6
CONTINUOUS
 62
     7
 66
     1
 10
0.0
 20
0.0
 30
0.0
 70
     1
  0
VERTEX
  5
ABD
  8
DATA
  6
CONTINUOUS
 62
     7
 10
391.0
 20
749.5
 30
0.0
  0
VERTEX
  5
ABE
  8
DATA
  6
CONTINUOUS
 62
     7
 10
397.5
 20
749.5
 30
0.0
  0
VERTEX
  5
ABF
  8
DATA
  6
CONTINUOUS
 62
     7
 10
397.5
 20
743.0
 30
0.0
  0
VERTEX
  5
AC0
  8
DATA
  6
CONTINUOUS
 62
     7
 10
391.0
 20
743.0
 30
0.0
  0
SEQEND
  5
AC1
  8
DATA
  6
CONTINUOUS
 62
     7
  0
POLYLINE
  5
6AD
  8
DATA
  6
CONTINUOUS
 62
     7
 66
     1
 10
0.0
 20
0.0
 30
0.0
 70
     1
  0
VERTEX
  5
AC2
  8
DATA
  6
CONTINUOUS
 62
     7
 10
382.5
 20
749.5
 30
0.0
  0
VERTEX
  5
AC3
  8
DATA
  6
CONTINUOUS
 62
     7
 10
389.0
 20
749.5
 30
0.0
  0
VERTEX
  5
AC4
  8
DATA
  6
CONTINUOUS
 62
     7
 10
389.0
 20
743.0
 30
0.0
  0
VERTEX
  5
AC5
  8
DATA
  6
CONTINUOUS
 62
     7
 10
382.5
 20
743.0
 30
0.0
  0
SEQEND
  5
AC6
  8
DATA
  6
CONTINUOUS
 62
     7
  0
POLYLINE
  5
6B3
  8
DATA
  6
CONTINUOUS
 62
     7
 66
     1
 10
0.0
 20
0.0
 30
0.0
 70
     1
  0
VERTEX
  5
AC7
  8
DATA
  6
CONTINUOUS
 62
     7
 10
391.0
 20
724.0
 30
0.0
  0
VERTEX
  5
AC8
  8
DATA
  6
CONTINUOUS
 62
     7
 10
397.5
 20
724.0
 30
0.0
  0
VERTEX
  5
AC9
  8
DATA
  6
CONTINUOUS
 62
     7
 10
397.5
 20
717.49999999999989
 30
0.0
  0
VERTEX
  5
ACA
  8
DATA
  6
CONTINUOUS
 62
     7
 10
391.0
 20
717.49999999999989
 30
0.0
  0
SEQEND
  5
ACB
  8
DATA
  6
CONTINUOUS
 62
     7
  0
POLYLINE
  5
6B9
  8
DATA
  6
CONTINUOUS
 62
     7
 66
     1
 10
0.0
 20
0.0
 30
0.0
 70
     1
  0
VERTEX
  5
ACC
  8
DATA
  6
CONTINUOUS
 62
     7
 10
382.5
 20
724.0
 30
0.0
  0
VERTEX
  5
ACD
  8
DATA
  6
CONTINUOUS
 62
     7
 10
389.0
 20
724.0
 30
0.0
  0
VERTEX
  5
ACE
  8
DATA
  6
CONTINUOUS
 62
     7
 10
389.0
 20
717.49999999999989
 30
0.0
  0
VERTEX
  5
ACF
  8
DATA
  6
CONTINUOUS
 62
     7
 10
382.5
 20
717.49999999999989
 30
0.0
  0
SEQEND
  5
AD0
  8
DATA
  6
CONTINUOUS
 62
     7
  0
POLYLINE
  5
6BF
  8
DATA
  6
CONTINUOUS
 62
     7
 66
     1
 10
0.0
 20
0.0
 30
0.0
 70
     1
  0
VERTEX
  5
AD1
  8
DATA
  6
CONTINUOUS
 62
     7
 10
374.0
 20
732.5
 30
0.0
  0
VERTEX
  5
AD2
  8
DATA
  6
CONTINUOUS
 62
     7
 10
380.5
 20
732.5
 30
0.0
  0
VERTEX
  5
AD3
  8
DATA
  6
CONTINUOUS
 62
     7
 10
380.5
 20
726.0
 30
0.0
  0
VERTEX
  5
AD4
  8
DATA
  6
CONTINUOUS
 62
     7
 10
374.0
 20
726.0
 30
0.0
  0
SEQEND
  5
AD5
  8
DATA
  6
CONTINUOUS
 62
     7
  0
POLYLINE
  5
6C5
  8
DATA
  6
CONTINUOUS
 62
     7
 66
     1
 10
0.0
 20
0.0
 30
0.0
 70
     1
  0
VERTEX
  5
AD6
  8
DATA
  6
CONTINUOUS
 62
     7
 10
374.0
 20
741.0
 30
0.0
  0
VERTEX
  5
AD7
  8
DATA
  6
CONTINUOUS
 62
     7
 10
380.5
 20
741.0
 30
0.0
  0
VERTEX
  5
AD8
  8
DATA
  6
CONTINUOUS
 62
     7
 10
380.5
 20
734.49999999999989
 30
0.0
  0
VERTEX
  5
AD9
  8
DATA
  6
CONTINUOUS
 62
     7
 10
374.0
 20
734.49999999999989
 30
0.0
  0
SEQEND
  5
ADA
  8
DATA
  6
CONTINUOUS
 62
     7
  0
POLYLINE
  5
6CB
  8
DATA
  6
CONTINUOUS
 62
     7
 66
     1
 10
0.0
 20
0.0
 30
0.0
 70
     1
  0
VERTEX
  5
ADB
  8
DATA
  6
CONTINUOUS
 62
     7
 10
416.5
 20
732.5
 30
0.0
  0
VERTEX
  5
ADC
  8
DATA
  6
CONTINUOUS
 62
     7
 10
419.5
 20
732.5
 30
0.0
  0
VERTEX
  5
ADD
  8
DATA
  6
CONTINUOUS
 62
     7
 10
419.5
 20
717.49999999999989
 30
0.0
  0
VERTEX
  5
ADE
  8
DATA
  6
CONTINUOUS
 62
     7
 10
416.5
 20
717.49999999999989
 30
0.0
  0
SEQEND
  5
ADF
  8
DATA
  6
CONTINUOUS
 62
     7
  0
POLYLINE
  5
6D1
  8
DATA
  6
CONTINUOUS
 62
     7
 66
     1
 10
0.0
 20
0.0
 30
0.0
 70
     1
  0
VERTEX
  5
AE0
  8
DATA
  6
CONTINUOUS
 62
     7
 10
416.5
 20
749.5
 30
0.0
  0
VERTEX
  5
AE1
  8
DATA
  6
CONTINUOUS
 62
     7
 10
419.5
 20
749.5
 30
0.0
  0
VERTEX
  5
AE2
  8
DATA
  6
CONTINUOUS
 62
     7
 10
419.5
 20
734.49999999999989
 30
0.0
  0
VERTEX
  5
AE3
  8
DATA
  6
CONTINUOUS
 62
     7
 10
416.5
 20
734.49999999999989
 30
0.0
  0
SEQEND
  5
AE4
  8
DATA
  6
CONTINUOUS
 62
     7
  0
POLYLINE
  5
6D7
  8
DATA
  6
CONTINUOUS
 62
     7
 66
     1
 10
0.0
 20
0.0
 30
0.0
 70
     1
  0
VERTEX
  5
AE5
  8
DATA
  6
CONTINUOUS
 62
     7
 10
391.0
 20
707.0
 30
0.0
  0
VERTEX
  5
AE6
  8
DATA
  6
CONTINUOUS
 62
     7
 10
406.0
 20
707.0
 30
0.0
  0
VERTEX
  5
AE7
  8
DATA
  6
CONTINUOUS
 62
     7
 10
406.0
 20
704.0
 30
0.0
  0
VERTEX
  5
AE8
  8
DATA
  6
CONTINUOUS
 62
     7
 10
391.0
 20
704.0
 30
0.0
  0
SEQEND
  5
AE9
  8
DATA
  6
CONTINUOUS
 62
     7
  0
POLYLINE
  5
6DD
  8
DATA
  6
CONTINUOUS
 62
     7
 66
     1
 10
0.0
 20
0.0
 30
0.0
 70
     1
  0
VERTEX
  5
AEA
  8
DATA
  6
CONTINUOUS
 62
     7
 10
374.0
 20
707.0
 30
0.0
  0
VERTEX
  5
AEB
  8
DATA
  6
CONTINUOUS
 62
     7
 10
389.0
 20
707.0
 30
0.0
  0
VERTEX
  5
AEC
  8
DATA
  6
CONTINUOUS
 62
     7
 10
389.0
 20
704.0
 30
0.0
  0
VERTEX
  5
AED
  8
DATA
  6
CONTINUOUS
 62
     7
 10
374.0
 20
704.0
 30
0.0
  0
SEQEND
  5
AEE
  8
DATA
  6
CONTINUOUS
 62
     7
  0
POLYLINE
  5
6E3
  8
DATA
  6
CONTINUOUS
 62
     7
 66
     1
 10
0.0
 20
0.0
 30
0.0
 70
     1
  0
VERTEX
  5
AEF
  8
DATA
  6
CONTINUOUS
 62
     7
 10
360.5
 20
732.5
 30
0.0
  0
VERTEX
  5
AF0
  8
DATA
  6
CONTINUOUS
 62
     7
 10
363.5
 20
732.5
 30
0.0
  0
VERTEX
  5
AF1
  8
DATA
  6
CONTINUOUS
 62
     7
 10
363.5
 20
717.49999999999989
 30
0.0
  0
VERTEX
  5
AF2
  8
DATA
  6
CONTINUOUS
 62
     7
 10
360.5
 20
717.49999999999989
 30
0.0
  0
SEQEND
  5
AF3
  8
DATA
  6
CONTINUOUS
 62
     7
  0
POLYLINE
  5
6E9
  8
DATA
  6
CONTINUOUS
 62
     7
 66
     1
 10
0.0
 20
0.0
 30
0.0
 70
     1
  0
VERTEX
  5
AF4
  8
DATA
  6
CONTINUOUS
 62
     7
 10
360.5
 20
749.5
 30
0.0
  0
VERTEX
  5
AF5
  8
DATA
  6
CONTINUOUS
 62
     7
 10
363.5
 20
749.5
 30
0.0
  0
VERTEX
  5
AF6
  8
DATA
  6
CONTINUOUS
 62
     7
 10
363.5
 20
734.49999999999989
 30
0.0
  0
VERTEX
  5
AF7
  8
DATA
  6
CONTINUOUS
 62
     7
 10
360.5
 20
734.49999999999989
 30
0.0
  0
SEQEND
  5
AF8
  8
DATA
  6
CONTINUOUS
 62
     7
  0
POLYLINE
  5
6EF
  8
DATA
  6
CONTINUOUS
 62
     7
 66
     1
 10
0.0
 20
0.0
 30
0.0
 70
     1
  0
VERTEX
  5
AF9
  8
DATA
  6
CONTINUOUS
 62
     7
 10
391.0
 20
763.0
 30
0.0
  0
VERTEX
  5
AFA
  8
DATA
  6
CONTINUOUS
 62
     7
 10
406.0
 20
763.0
 30
0.0
  0
VERTEX
  5
AFB
  8
DATA
  6
CONTINUOUS
 62
     7
 10
406.0
 20
760.0
 30
0.0
  0
VERTEX
  5
AFC
  8
DATA
  6
CONTINUOUS
 62
     7
 10
391.0
 20
760.0
 30
0.0
  0
SEQEND
  5
AFD
  8
DATA
  6
CONTINUOUS
 62
     7
  0
POLYLINE
  5
6F5
  8
DATA
  6
CONTINUOUS
 62
     7
 66
     1
 10
0.0
 20
0.0
 30
0.0
 70
     1
  0
VERTEX
  5
AFE
  8
DATA
  6
CONTINUOUS
 62
     7
 10
374.0
 20
763.0
 30
0.0
  0
VERTEX
  5
AFF
  8
DATA
  6
CONTINUOUS
 62
     7
 10
389.0
 20
763.0
 30
0.0
  0
VERTEX
  5
B00
  8
DATA
  6
CONTINUOUS
 62
     7
 10
389.0
 20
760.0
 30
0.0
  0
VERTEX
  5
B01
  8
DATA
  6
CONTINUOUS
 62
     7
 10
374.0
 20
760.0
 30
0.0
  0
SEQEND
  5
B02
  8
DATA
  6
CONTINUOUS
 62
     7
  0
LINE
  5
6FB
  8
DATA
  6
CONTINUOUS
 62
     7
 10
378.5
 20
784.0
 30
0.0
 11
346.5
 21
784.0
 31
0.0
  0
LINE
  5
6FC
  8
DATA
  6
CONTINUOUS
 62
     7
 10
378.5
 20
784.0
 30
0.0
 11
378.5
 21
766.0
 31
0.0
  0
LINE
  5
6FD
  8
DATA
  6
CONTINUOUS
 62
     7
 10
378.5
 20
766.0
 30
0.0
 11
346.5
 21
766.0
 31
0.0
  0
LINE
  5
6FE
  8
DATA
  6
CONTINUOUS
 62
     7
 10
346.5
 20
766.0
 30
0.0
 11
346.5
 21
784.0
 31
0.0
  0
LINE
  5
6FF
  8
DATA
  6
CONTINUOUS
 62
     7
 10
377.5
 20
767.0
 30
0.0
 11
347.5
 21
767.0
 31
0.0
  0
LINE
  5
700
  8
DATA
  6
CONTINUOUS
 62
     7
 10
347.5
 20
767.0
 30
0.0
 11
347.5
 21
783.0
 31
0.0
  0
LINE
  5
701
  8
DATA
  6
CONTINUOUS
 62
     7
 10
347.5
 20
783.0
 30
0.0
 11
377.5
 21
783.0
 31
0.0
  0
LINE
  5
702
  8
DATA
  6
CONTINUOUS
 62
     7
 10
377.5
 20
783.0
 30
0.0
 11
377.5
 21
767.0
 31
0.0
  0
LINE
  5
703
  8
DATA
  6
CONTINUOUS
 62
     7
 10
372.5
 20
767.0
 30
0.0
 11
372.5
 21
783.0
 31
0.0
  0
TEXT
  5
704
  8
DATA
 62
     7
 10
353.90999999006578
 20
771.88053384423245
 30
0.0
 40
4.6171875
  1
ON
 50
90.0
 41
0.8
 72
     1
 11
349.29281249006578
 21
774.95865884423245
 31
0.0
 73
     3
  0
TEXT
  5
705
  8
DATA
 62
     7
 10
359.90999999006578
 20
774.34303384423231
 30
0.0
 40
4.6171875
  1
I
 50
90.0
 41
0.8
 72
     1
 11
355.29281249006578
 21
774.95865884423245
 31
0.0
 73
     3
  0
LINE
  5
706
  8
DATA
  6
CONTINUOUS
 62
     7
 10
446.0
 20
783.0
 30
0.0
 11
435.0
 21
783.0
 31
0.0
  0
LINE
  5
707
  8
DATA
  6
CONTINUOUS
 62
     7
 10
446.0
 20
783.0
 30
0.0
 11
446.0
 21
780.0
 31
0.0
  0
LINE
  5
708
  8
DATA
  6
CONTINUOUS
 62
     7
 10
446.0
 20
780.0
 30
0.0
 11
435.0
 21
780.0
 31
0.0
  0
LINE
  5
709
  8
DATA
  6
CONTINUOUS
 62
     7
 10
435.0
 20
780.0
 30
0.0
 11
435.0
 21
783.0
 31
0.0
  0
LINE
  5
70A
  8
DATA
  6
CONTINUOUS
 62
     7
 10
446.0
 20
729.0
 30
0.0
 11
435.0
 21
729.0
 31
0.0
  0
LINE
  5
70B
  8
DATA
  6
CONTINUOUS
 62
     7
 10
446.0
 20
729.0
 30
0.0
 11
446.0
 21
732.0
 31
0.0
  0
LINE
  5
70C
  8
DATA
  6
CONTINUOUS
 62
     7
 10
446.0
 20
732.0
 30
0.0
 11
435.0
 21
732.0
 31
0.0
  0
LINE
  5
70D
  8
DATA
  6
CONTINUOUS
 62
     7
 10
435.0
 20
732.0
 30
0.0
 11
435.0
 21
729.0
 31
0.0
  0
LINE
  5
70E
  8
DATA
  6
CONTINUOUS
 62
     7
 10
454.5
 20
775.0
 30
0.0
 11
426.5
 21
775.0
 31
0.0
  0
LINE
  5
70F
  8
DATA
  6
CONTINUOUS
 62
     7
 10
426.5
 20
775.0
 30
0.0
 11
426.5
 21
739.0
 31
0.0
  0
LINE
  5
710
  8
DATA
  6
CONTINUOUS
 62
     7
 10
426.5
 20
739.0
 30
0.0
 11
454.5
 21
739.0
 31
0.0
  0
LINE
  5
711
  8
DATA
  6
CONTINUOUS
 62
     7
 10
454.5
 20
739.0
 30
0.0
 11
454.5
 21
775.0
 31
0.0
  0
LINE
  5
712
  8
DATA
  6
CONTINUOUS
 62
     7
 10
437.5
 20
754.0
 30
0.0
 11
437.5
 21
760.0
 31
0.0
  0
LINE
  5
713
  8
DATA
  6
CONTINUOUS
 62
     7
 10
437.5
 20
760.0
 30
0.0
 11
435.5
 21
760.0
 31
0.0
  0
LINE
  5
714
  8
DATA
  6
CONTINUOUS
 62
     7
 10
435.5
 20
760.0
 30
0.0
 11
435.5
 21
754.0
 31
0.0
  0
LINE
  5
715
  8
DATA
  6
CONTINUOUS
 62
     7
 10
435.5
 20
754.0
 30
0.0
 11
437.5
 21
754.0
 31
0.0
  0
LINE
  5
716
  8
DATA
  6
CONTINUOUS
 62
     7
 10
429.5
 20
770.0
 30
0.0
 11
429.5
 21
744.0
 31
0.0
  0
LINE
  5
717
  8
DATA
  6
CONTINUOUS
 62
     7
 10
451.5
 20
744.0
 30
0.0
 11
451.5
 21
770.0
 31
0.0
  0
LINE
  5
718
  8
DATA
  6
CONTINUOUS
 62
     7
 10
449.5
 20
772.0
 30
0.0
 11
431.5
 21
772.0
 31
0.0
  0
LINE
  5
719
  8
DATA
  6
CONTINUOUS
 62
     7
 10
431.5
 20
742.0
 30
0.0
 11
449.5
 21
742.0
 31
0.0
  0
LINE
  5
71A
  8
DATA
  6
CONTINUOUS
 62
     7
 10
445.5
 20
760.5
 30
0.0
 11
445.5
 21
766.5
 31
0.0
  0
LINE
  5
71B
  8
DATA
  6
CONTINUOUS
 62
     7
 10
445.5
 20
766.5
 30
0.0
 11
443.5
 21
766.5
 31
0.0
  0
LINE
  5
71C
  8
DATA
  6
CONTINUOUS
 62
     7
 10
443.5
 20
766.5
 30
0.0
 11
443.5
 21
760.5
 31
0.0
  0
LINE
  5
71D
  8
DATA
  6
CONTINUOUS
 62
     7
 10
443.5
 20
760.5
 30
0.0
 11
445.5
 21
760.5
 31
0.0
  0
LINE
  5
71E
  8
DATA
  6
CONTINUOUS
 62
     7
 10
445.5
 20
747.5
 30
0.0
 11
445.5
 21
753.5
 31
0.0
  0
LINE
  5
71F
  8
DATA
  6
CONTINUOUS
 62
     7
 10
445.5
 20
753.5
 30
0.0
 11
443.5
 21
753.5
 31
0.0
  0
LINE
  5
720
  8
DATA
  6
CONTINUOUS
 62
     7
 10
443.5
 20
753.5
 30
0.0
 11
443.5
 21
747.5
 31
0.0
  0
LINE
  5
721
  8
DATA
  6
CONTINUOUS
 62
     7
 10
443.5
 20
747.5
 30
0.0
 11
445.5
 21
747.5
 31
0.0
  0
ARC
  5
722
  8
DATA
  6
CONTINUOUS
 62
     7
 10
449.5
 20
744.0
 30
0.0
 40
2.0
 50
270.0
 51
0.0
  0
ARC
  5
723
  8
DATA
  6
CONTINUOUS
 62
     7
 10
431.5
 20
744.0
 30
0.0
 40
2.0
 50
180.0
 51
270.0
  0
ARC
  5
724
  8
DATA
  6
CONTINUOUS
 62
     7
 10
449.5
 20
770.0
 30
0.0
 40
2.0
 50
0.0
 51
90.0
  0
ARC
  5
725
  8
DATA
  6
CONTINUOUS
 62
     7
 10
431.5
 20
770.0
 30
0.0
 40
2.0
 50
90.0
 51
180.0
  0
CIRCLE
  5
726
  8
DATA
  6
CONTINUOUS
 62
     7
 10
235.75000000000011
 20
755.49999999999989
 30
0.0
 40
2.0
  0
TEXT
  5
727
  8
DATA
 62
     7
 10
185.2402071263389
 20
752.79687503476919
 30
0.0
 40
4.0400390625
  1
OUTPUTS
 50
270.0
 41
0.8
 11
189.2802461888389
 21
752.79687503476919
 31
0.0
 73
     3
  0
TEXT
  5
728
  8
DATA
 62
     7
 10
280.25000000000011
 20
708.01499999999987
 30
0.0
 40
4.0400390625
  1
ANALOG INPUTS
 50
180.0
 41
0.8
 11
280.25000000000011
 21
703.97496093749987
 31
0.0
 73
     3
  0
LINE
  5
729
  8
DATA
  6
CONTINUOUS
 62
     7
 10
462.5
 20
761.5
 30
0.0
 11
462.5
 21
788.0
 31
0.0
  0
LINE
  5
72A
  8
DATA
  6
CONTINUOUS
 62
     7
 10
462.5
 20
761.5
 30
0.0
 11
460.5
 21
761.5
 31
0.0
  0
LINE
  5
72B
  8
DATA
  6
CONTINUOUS
 62
     7
 10
460.5
 20
700.0
 30
0.0
 11
460.5
 21
788.0
 31
0.0
  0
LINE
  5
72C
  8
DATA
  6
CONTINUOUS
 62
     7
 10
458.49999999999989
 20
700.0
 30
0.0
 11
458.49999999999989
 21
788.0
 31
0.0
  0
CIRCLE
  5
72D
  8
DATA
  6
CONTINUOUS
 62
     7
 10
383.5
 20
775.0
 30
0.0
 40
3.0
  0
LINE
  5
72E
  8
DATA
  6
CONTINUOUS
 62
     7
 10
383.5
 20
776.5
 30
0.0
 11
383.5
 21
773.5
 31
0.0
  0
LINE
  5
72F
  8
DATA
  6
CONTINUOUS
 62
     7
 10
384.7990381056768
 20
775.75
 30
0.0
 11
382.20096189432343
 21
774.25
 31
0.0
  0
LINE
  5
730
  8
DATA
  6
CONTINUOUS
 62
     7
 10
384.7990381056768
 20
774.25
 30
0.0
 11
382.20096189432331
 21
775.75
 31
0.0
  0
CIRCLE
  5
731
  8
DATA
  6
CONTINUOUS
 62
     7
 10
341.5
 20
775.0
 30
0.0
 40
3.0
  0
LINE
  5
732
  8
DATA
  6
CONTINUOUS
 62
     7
 10
341.5
 20
776.5
 30
0.0
 11
341.5
 21
773.5
 31
0.0
  0
LINE
  5
733
  8
DATA
  6
CONTINUOUS
 62
     7
 10
340.20096189432331
 20
775.75
 30
0.0
 11
342.79903810567657
 21
774.25
 31
0.0
  0
LINE
  5
734
  8
DATA
  6
CONTINUOUS
 62
     7
 10
340.20096189432331
 20
774.25
 30
0.0
 11
342.79903810567669
 21
775.75
 31
0.0
  0
LINE
  5
735
  8
DATA
  6
CONTINUOUS
 62
     7
 10
110.0
 20
754.99999999999966
 30
0.0
 11
110.0
 21
761.49999999999955
 31
0.0
  0
LINE
  5
736
  8
DATA
  6
CONTINUOUS
 62
     7
 10
110.0
 20
765.49999999999955
 30
0.0
 11
110.0
 21
772.0
 31
0.0
  0
LINE
  5
737
  8
DATA
  6
CONTINUOUS
 62
     7
 10
110.0
 20
772.0
 30
0.0
 11
111.5
 21
773.0
 31
0.0
  0
LINE
  5
738
  8
DATA
  6
CONTINUOUS
 62
     7
 10
110.0
 20
754.99999999999966
 30
0.0
 11
111.5
 21
753.99999999999955
 31
0.0
  0
LINE
  5
739
  8
DATA
  6
CONTINUOUS
 62
     7
 10
109.5
 20
761.49999999999955
 30
0.0
 11
109.5
 21
765.49999999999955
 31
0.0
  0
LINE
  5
73A
  8
DATA
  6
CONTINUOUS
 62
     7
 10
109.5
 20
765.49999999999955
 30
0.0
 11
111.5
 21
765.49999999999955
 31
0.0
  0
LINE
  5
73B
  8
DATA
  6
CONTINUOUS
 62
     7
 10
111.5
 20
765.49999999999955
 30
0.0
 11
111.5
 21
761.49999999999955
 31
0.0
  0
LINE
  5
73C
  8
DATA
  6
CONTINUOUS
 62
     7
 10
111.5
 20
761.49999999999955
 30
0.0
 11
109.5
 21
761.49999999999955
 31
0.0
  0
LINE
  5
73D
  8
DATA
  6
CONTINUOUS
 62
     7
 10
107.5
 20
768.49999999999955
 30
0.0
 11
107.5
 21
758.49999999999955
 31
0.0
  0
LINE
  5
73E
  8
DATA
  6
CONTINUOUS
 62
     7
 10
107.5
 20
768.34320361007406
 30
0.0
 11
109.5
 21
765.49999999999955
 31
0.0
  0
LINE
  5
73F
  8
DATA
  6
CONTINUOUS
 62
     7
 10
107.5
 20
758.49999999999955
 30
0.0
 11
109.5
 21
761.49999999999955
 31
0.0
  0
TEXT
  5
740
  8
DATA
 62
     7
 10
109.04784752782361
 20
761.94281329262742
 30
0.0
 40
1.154296875
  1
DUAL
 50
90.0
 41
0.8
 11
107.89355065282361
 21
761.94281329262742
 31
0.0
 73
     3
  0
LINE
  5
741
  8
DATA
  6
CONTINUOUS
 62
     7
 10
108.5
 20
757.99999999999955
 30
0.0
 11
108.5
 21
755.99999999999955
 31
0.0
  0
LINE
  5
742
  8
DATA
  6
CONTINUOUS
 62
     7
 10
107.5
 20
756.99999999999955
 30
0.0
 11
109.5
 21
756.99999999999955
 31
0.0
  0
LINE
  5
743
  8
DATA
  6
CONTINUOUS
 62
     7
 10
107.5
 20
769.99999999999955
 30
0.0
 11
109.5
 21
769.99999999999955
 31
0.0
  0
LINE
  5
744
  8
DATA
  6
CONTINUOUS
 62
     7
 10
110.0
 20
734.99999999999955
 30
0.0
 11
110.0
 21
741.49999999999955
 31
0.0
  0
LINE
  5
745
  8
DATA
  6
CONTINUOUS
 62
     7
 10
110.0
 20
745.49999999999955
 30
0.0
 11
110.0
 21
751.99999999999955
 31
0.0
  0
LINE
  5
746
  8
DATA
  6
CONTINUOUS
 62
     7
 10
110.0
 20
751.99999999999955
 30
0.0
 11
111.5
 21
752.99999999999955
 31
0.0
  0
LINE
  5
747
  8
DATA
  6
CONTINUOUS
 62
     7
 10
110.0
 20
734.99999999999955
 30
0.0
 11
111.5
 21
733.99999999999955
 31
0.0
  0
LINE
  5
748
  8
DATA
  6
CONTINUOUS
 62
     7
 10
109.5
 20
741.49999999999955
 30
0.0
 11
109.5
 21
745.49999999999955
 31
0.0
  0
LINE
  5
749
  8
DATA
  6
CONTINUOUS
 62
     7
 10
109.5
 20
745.49999999999955
 30
0.0
 11
111.5
 21
745.49999999999955
 31
0.0
  0
LINE
  5
74A
  8
DATA
  6
CONTINUOUS
 62
     7
 10
111.5
 20
745.49999999999955
 30
0.0
 11
111.5
 21
741.49999999999955
 31
0.0
  0
LINE
  5
74B
  8
DATA
  6
CONTINUOUS
 62
     7
 10
111.5
 20
741.49999999999955
 30
0.0
 11
109.5
 21
741.49999999999955
 31
0.0
  0
LINE
  5
74C
  8
DATA
  6
CONTINUOUS
 62
     7
 10
107.5
 20
748.49999999999955
 30
0.0
 11
107.5
 21
738.49999999999966
 31
0.0
  0
LINE
  5
74D
  8
DATA
  6
CONTINUOUS
 62
     7
 10
107.5
 20
748.34320361007406
 30
0.0
 11
109.5
 21
745.49999999999955
 31
0.0
  0
LINE
  5
74E
  8
DATA
  6
CONTINUOUS
 62
     7
 10
107.5
 20
738.49999999999966
 30
0.0
 11
109.5
 21
741.49999999999955
 31
0.0
  0
TEXT
  5
74F
  8
DATA
 62
     7
 10
109.04784752782361
 20
741.24001381346056
 30
0.0
 40
1.154296875
  1
BRIDGE
 50
90.0
 41
0.8
 11
107.89355065282361
 21
741.24001381346056
 31
0.0
 73
     3
  0
LINE
  5
750
  8
DATA
  6
CONTINUOUS
 62
     7
 10
108.5
 20
737.99999999999955
 30
0.0
 11
108.5
 21
735.99999999999955
 31
0.0
  0
LINE
  5
751
  8
DATA
  6
CONTINUOUS
 62
     7
 10
107.5
 20
736.99999999999955
 30
0.0
 11
109.5
 21
736.99999999999955
 31
0.0
  0
LINE
  5
752
  8
DATA
  6
CONTINUOUS
 62
     7
 10
107.5
 20
749.99999999999955
 30
0.0
 11
109.5
 21
749.99999999999955
 31
0.0
  0
LINE
  5
753
  8
DATA
  6
CONTINUOUS
 62
     7
 10
110.0
 20
714.99999999999955
 30
0.0
 11
110.0
 21
721.49999999999955
 31
0.0
  0
LINE
  5
754
  8
DATA
  6
CONTINUOUS
 62
     7
 10
110.0
 20
725.49999999999955
 30
0.0
 11
110.0
 21
731.99999999999955
 31
0.0
  0
LINE
  5
755
  8
DATA
  6
CONTINUOUS
 62
     7
 10
110.0
 20
731.99999999999955
 30
0.0
 11
111.5
 21
732.99999999999955
 31
0.0
  0
LINE
  5
756
  8
DATA
  6
CONTINUOUS
 62
     7
 10
110.0
 20
714.99999999999955
 30
0.0
 11
111.5
 21
713.99999999999966
 31
0.0
  0
LINE
  5
757
  8
DATA
  6
CONTINUOUS
 62
     7
 10
109.5
 20
721.49999999999955
 30
0.0
 11
109.5
 21
725.49999999999955
 31
0.0
  0
LINE
  5
758
  8
DATA
  6
CONTINUOUS
 62
     7
 10
109.5
 20
725.49999999999955
 30
0.0
 11
111.5
 21
725.49999999999955
 31
0.0
  0
LINE
  5
759
  8
DATA
  6
CONTINUOUS
 62
     7
 10
111.5
 20
725.49999999999955
 30
0.0
 11
111.5
 21
721.49999999999955
 31
0.0
  0
LINE
  5
75A
  8
DATA
  6
CONTINUOUS
 62
     7
 10
111.5
 20
721.49999999999955
 30
0.0
 11
109.5
 21
721.49999999999955
 31
0.0
  0
LINE
  5
75B
  8
DATA
  6
CONTINUOUS
 62
     7
 10
107.5
 20
728.49999999999955
 30
0.0
 11
107.5
 21
718.49999999999955
 31
0.0
  0
LINE
  5
75C
  8
DATA
  6
CONTINUOUS
 62
     7
 10
107.5
 20
728.34320361007406
 30
0.0
 11
109.5
 21
725.49999999999955
 31
0.0
  0
LINE
  5
75D
  8
DATA
  6
CONTINUOUS
 62
     7
 10
107.5
 20
718.49999999999955
 30
0.0
 11
109.5
 21
721.49999999999955
 31
0.0
  0
TEXT
  5
75E
  8
DATA
 62
     7
 10
109.04784752782361
 20
721.94281329262742
 30
0.0
 40
1.154296875
  1
DUAL
 50
90.0
 41
0.8
 11
107.89355065282361
 21
721.94281329262742
 31
0.0
 73
     3
  0
LINE
  5
75F
  8
DATA
  6
CONTINUOUS
 62
     7
 10
107.5
 20
716.99999999999955
 30
0.0
 11
109.5
 21
716.99999999999955
 31
0.0
  0
LINE
  5
760
  8
DATA
  6
CONTINUOUS
 62
     7
 10
107.5
 20
729.99999999999966
 30
0.0
 11
109.5
 21
729.99999999999966
 31
0.0
  0
LINE
  5
761
  8
DATA
  6
CONTINUOUS
 62
     7
 10
108.5
 20
728.99999999999955
 30
0.0
 11
108.5
 21
731.25
 31
0.0
  0
LINE
  5
762
  8
DATA
  6
CONTINUOUS
 62
     7
 10
106.5
 20
702.99999999999955
 30
0.0
 11
109.5
 21
702.49999999999955
 31
0.0
  0
LINE
  5
763
  8
DATA
  6
CONTINUOUS
 62
     7
 10
109.5
 20
702.49999999999955
 30
0.0
 11
111.0
 21
707.99999999999955
 31
0.0
  0
LINE
  5
764
  8
DATA
  6
CONTINUOUS
 62
     7
 10
106.5
 20
702.99999999999955
 30
0.0
 11
109.0
 21
706.99999999999955
 31
0.0
  0
LINE
  5
765
  8
DATA
  6
CONTINUOUS
 62
     7
 10
109.0
 20
706.99999999999955
 30
0.0
 11
107.0
 21
706.99999999999955
 31
0.0
  0
LINE
  5
766
  8
DATA
  6
CONTINUOUS
 62
     7
 10
111.0
 20
707.99999999999955
 30
0.0
 11
109.0
 21
707.99999999999955
 31
0.0
  0
LINE
  5
767
  8
DATA
  6
CONTINUOUS
 62
     7
 10
109.0
 20
707.99999999999955
 30
0.0
 11
110.0
 21
710.99999999999955
 31
0.0
  0
LINE
  5
768
  8
DATA
  6
CONTINUOUS
 62
     7
 10
107.0
 20
706.99999999999955
 30
0.0
 11
109.0
 21
710.99999999999955
 31
0.0
  0
LINE
  5
769
  8
DATA
  6
CONTINUOUS
 62
     7
 10
110.0
 20
710.99999999999955
 30
0.0
 11
111.0
 21
710.99999999999955
 31
0.0
  0
LINE
  5
76A
  8
DATA
  6
CONTINUOUS
 62
     7
 10
109.0
 20
710.99999999999955
 30
0.0
 11
108.0
 21
710.99999999999955
 31
0.0
  0
LINE
  5
76B
  8
DATA
  6
CONTINUOUS
 62
     7
 10
111.0
 20
710.99999999999955
 30
0.0
 11
110.0
 21
712.99999999999955
 31
0.0
  0
LINE
  5
76C
  8
DATA
  6
CONTINUOUS
 62
     7
 10
110.0
 20
712.99999999999955
 30
0.0
 11
108.0
 21
710.99999999999955
 31
0.0
  0
LINE
  5
76D
  8
DATA
  6
CONTINUOUS
 62
     7
 10
106.5
 20
774.99999999999955
 30
0.0
 11
109.5
 21
774.49999999999955
 31
0.0
  0
LINE
  5
76E
  8
DATA
  6
CONTINUOUS
 62
     7
 10
109.5
 20
774.49999999999955
 30
0.0
 11
111.0
 21
779.99999999999966
 31
0.0
  0
LINE
  5
76F
  8
DATA
  6
CONTINUOUS
 62
     7
 10
106.5
 20
774.99999999999955
 30
0.0
 11
109.0
 21
778.99999999999955
 31
0.0
  0
LINE
  5
770
  8
DATA
  6
CONTINUOUS
 62
     7
 10
109.0
 20
778.99999999999955
 30
0.0
 11
107.0
 21
778.99999999999955
 31
0.0
  0
LINE
  5
771
  8
DATA
  6
CONTINUOUS
 62
     7
 10
111.0
 20
779.99999999999966
 30
0.0
 11
109.0
 21
779.99999999999966
 31
0.0
  0
LINE
  5
772
  8
DATA
  6
CONTINUOUS
 62
     7
 10
109.0
 20
779.99999999999966
 30
0.0
 11
110.0
 21
782.99999999999955
 31
0.0
  0
LINE
  5
773
  8
DATA
  6
CONTINUOUS
 62
     7
 10
107.0
 20
778.99999999999955
 30
0.0
 11
109.0
 21
782.99999999999955
 31
0.0
  0
LINE
  5
774
  8
DATA
  6
CONTINUOUS
 62
     7
 10
110.0
 20
782.99999999999955
 30
0.0
 11
111.0
 21
782.99999999999955
 31
0.0
  0
LINE
  5
775
  8
DATA
  6
CONTINUOUS
 62
     7
 10
109.0
 20
782.99999999999955
 30
0.0
 11
108.0
 21
782.99999999999955
 31
0.0
  0
LINE
  5
776
  8
DATA
  6
CONTINUOUS
 62
     7
 10
111.0
 20
782.99999999999955
 30
0.0
 11
110.0
 21
784.99999999999955
 31
0.0
  0
LINE
  5
777
  8
DATA
  6
CONTINUOUS
 62
     7
 10
110.0
 20
784.99999999999955
 30
0.0
 11
108.0
 21
782.99999999999955
 31
0.0
  0
LINE
  5
778
  8
DATA
  6
CONTINUOUS
 62
     7
 10
600.0
 20
-0.5
 30
0.0
 11
600.0
 21
88.0
 31
0.0
  0
LINE
  5
779
  8
DATA
  6
CONTINUOUS
 62
     7
 10
598.0
 20
88.0
 30
0.0
 11
598.0
 21
0.0
 31
0.0
  0
LINE
  5
77A
  8
DATA
  6
CONTINUOUS
 62
     7
 10
600.0
 20
88.0
 30
0.0
 11
570.0
 21
88.0
 31
0.0
  0
LINE
  5
77B
  8
DATA
  6
CONTINUOUS
 62
     7
 10
600.0
 20
0.0
 30
0.0
 11
570.0
 21
0.0
 31
0.0
  0
LINE
  5
77C
  8
DATA
  6
CONTINUOUS
 62
     7
 10
595.0
 20
88.0
 30
0.0
 11
595.0
 21
0.0
 31
0.0
  0
LINE
  5
77D
  8
DATA
  6
CONTINUOUS
 62
     7
 10
595.0
 20
86.0
 30
0.0
 11
571.59852243320086
 21
86.0
 31
0.0
  0
LINE
  5
77E
  8
DATA
  6
CONTINUOUS
 62
     7
 10
595.0
 20
2.0
 30
0.0
 11
571.59852243320086
 21
2.0
 31
0.0
  0
LINE
  5
77F
  8
DATA
  6
CONTINUOUS
 62
     7
 10
1011.0
 20
81.0
 30
0.0
 11
1011.0
 21
52.0
 31
0.0
  0
LINE
  5
780
  8
DATA
  6
CONTINUOUS
 62
     7
 10
1011.0
 20
36.0
 30
0.0
 11
1011.0
 21
4.0
 31
0.0
  0
LINE
  5
781
  8
DATA
  6
CONTINUOUS
 62
     7
 10
600.0
 20
0.0
 30
0.0
 11
608.0
 21
0.0
 31
0.0
  0
LINE
  5
782
  8
DATA
  6
CONTINUOUS
 62
     7
 10
982.0
 20
0.0
 30
0.0
 11
1007.0
 21
0.0
 31
0.0
  0
LINE
  5
783
  8
DATA
  6
CONTINUOUS
 62
     7
 10
600.0
 20
88.0
 30
0.0
 11
980.0
 21
88.0
 31
0.0
  0
LINE
  5
784
  8
DATA
  6
CONTINUOUS
 62
     7
 10
982.0
 20
26.49999999999989
 30
0.0
 11
617.0
 21
26.49999999999989
 31
0.0
  0
LINE
  5
785
  8
DATA
  6
CONTINUOUS
 62
     7
 10
982.0
 20
26.49999999999989
 30
0.0
 11
982.0
 21
-0.5000000000001137
 31
0.0
  0
LINE
  5
786
  8
DATA
  6
CONTINUOUS
 62
     7
 10
608.0
 20
13.0
 30
0.0
 11
608.0
 21
0.0
 31
0.0
  0
CIRCLE
  5
787
  8
DATA
  6
CONTINUOUS
 62
     7
 10
636.0
 20
19.0
 30
0.0
 40
3.000000000000012
  0
LINE
  5
788
  8
DATA
  6
CONTINUOUS
 62
     7
 10
636.0
 20
21.0
 30
0.0
 11
636.0
 21
17.0
 31
0.0
  0
LINE
  5
789
  8
DATA
  6
CONTINUOUS
 62
     7
 10
634.26794919243127
 20
20.0
 30
0.0
 11
637.73205080756873
 21
18.0
 31
0.0
  0
LINE
  5
78A
  8
DATA
  6
CONTINUOUS
 62
     7
 10
634.26794919243105
 20
18.0
 30
0.0
 11
637.73205080756873
 21
20.0
 31
0.0
  0
CIRCLE
  5
78B
  8
DATA
  6
CONTINUOUS
 62
     7
 10
763.0
 20
19.0
 30
0.0
 40
3.000000000000012
  0
LINE
  5
78C
  8
DATA
  6
CONTINUOUS
 62
     7
 10
763.0
 20
21.0
 30
0.0
 11
763.0
 21
17.0
 31
0.0
  0
LINE
  5
78D
  8
DATA
  6
CONTINUOUS
 62
     7
 10
761.26794919243105
 20
20.0
 30
0.0
 11
764.73205080756884
 21
18.0
 31
0.0
  0
LINE
  5
78E
  8
DATA
  6
CONTINUOUS
 62
     7
 10
761.26794919243105
 20
18.0
 30
0.0
 11
764.73205080756884
 21
20.0
 31
0.0
  0
CIRCLE
  5
78F
  8
DATA
  6
CONTINUOUS
 62
     7
 10
958.0
 20
19.0
 30
0.0
 40
3.000000000000012
  0
LINE
  5
790
  8
DATA
  6
CONTINUOUS
 62
     7
 10
958.0
 20
21.0
 30
0.0
 11
958.0
 21
17.0
 31
0.0
  0
LINE
  5
791
  8
DATA
  6
CONTINUOUS
 62
     7
 10
956.26794919243116
 20
20.0
 30
0.0
 11
959.73205080756884
 21
18.0
 31
0.0
  0
LINE
  5
792
  8
DATA
  6
CONTINUOUS
 62
     7
 10
956.26794919243105
 20
18.0
 30
0.0
 11
959.73205080756884
 21
20.0
 31
0.0
  0
CIRCLE
  5
793
  8
DATA
  6
CONTINUOUS
 62
     7
 10
867.0
 20
19.0
 30
0.0
 40
3.000000000000012
  0
LINE
  5
794
  8
DATA
  6
CONTINUOUS
 62
     7
 10
867.0
 20
21.0
 30
0.0
 11
867.0
 21
17.0
 31
0.0
  0
LINE
  5
795
  8
DATA
  6
CONTINUOUS
 62
     7
 10
865.26794919243105
 20
20.0
 30
0.0
 11
868.73205080756873
 21
18.0
 31
0.0
  0
LINE
  5
796
  8
DATA
  6
CONTINUOUS
 62
     7
 10
865.26794919243105
 20
18.0
 30
0.0
 11
868.73205080756873
 21
20.0
 31
0.0
  0
CIRCLE
  5
797
  8
DATA
  6
CONTINUOUS
 62
     7
 10
612.0
 20
18.5
 30
0.0
 40
3.000000000000012
  0
LINE
  5
798
  8
DATA
  6
CONTINUOUS
 62
     7
 10
612.0
 20
20.5
 30
0.0
 11
612.0
 21
16.5
 31
0.0
  0
LINE
  5
799
  8
DATA
  6
CONTINUOUS
 62
     7
 10
610.26794919243127
 20
19.5
 30
0.0
 11
613.73205080756873
 21
17.5
 31
0.0
  0
LINE
  5
79A
  8
DATA
  6
CONTINUOUS
 62
     7
 10
610.26794919243116
 20
17.5
 30
0.0
 11
613.73205080756873
 21
19.5
 31
0.0
  0
LINE
  5
79B
  8
DATA
  6
CONTINUOUS
 62
     7
 10
617.0
 20
26.5
 30
0.0
 11
617.0
 21
15.0
 31
0.0
  0
LINE
  5
79C
  8
DATA
  6
CONTINUOUS
 62
     7
 10
608.0
 20
13.0
 30
0.0
 11
615.0
 21
13.0
 31
0.0
  0
ARC
  5
79D
  8
DATA
  6
CONTINUOUS
 62
     7
 10
615.0
 20
15.0
 30
0.0
 40
2.0
 50
270.0
 51
0.0
  0
CIRCLE
  5
79E
  8
DATA
  6
CONTINUOUS
 62
     7
 10
612.0
 20
69.5
 30
0.0
 40
3.000000000000012
  0
LINE
  5
79F
  8
DATA
  6
CONTINUOUS
 62
     7
 10
612.0
 20
71.5
 30
0.0
 11
612.0
 21
67.5
 31
0.0
  0
LINE
  5
7A0
  8
DATA
  6
CONTINUOUS
 62
     7
 10
610.26794919243127
 20
70.5
 30
0.0
 11
613.73205080756873
 21
68.5
 31
0.0
  0
LINE
  5
7A1
  8
DATA
  6
CONTINUOUS
 62
     7
 10
610.26794919243116
 20
68.5
 30
0.0
 11
613.73205080756873
 21
70.5
 31
0.0
  0
ARC
  5
7A2
  8
DATA
  6
CONTINUOUS
 62
     7
 10
472.50004499999972
 20
5.8999999999999764
 30
0.0
 40
3.5
 50
90.0
 51
270.0
  0
ARC
  5
7A3
  8
DATA
  6
CONTINUOUS
 62
     7
 10
475.49995499999989
 20
5.8999999999999764
 30
0.0
 40
3.5
 50
270.0
 51
90.0
  0
LINE
  5
7A4
  8
DATA
  6
CONTINUOUS
 62
     7
 10
472.49998500000009
 20
2.3999999999999768
 30
0.0
 11
475.50001500000002
 21
2.3999999999999768
 31
0.0
  0
LINE
  5
7A5
  8
DATA
  6
CONTINUOUS
 62
     7
 10
472.49998500000009
 20
9.399970000000053
 30
0.0
 11
475.50001500000002
 21
9.399970000000053
 31
0.0
  0
ARC
  5
7A6
  8
DATA
  6
CONTINUOUS
 62
     7
 10
991.500045
 20
5.8999999999999764
 30
0.0
 40
3.5
 50
90.0
 51
270.0
  0
ARC
  5
7A7
  8
DATA
  6
CONTINUOUS
 62
     7
 10
994.499955
 20
5.8999999999999764
 30
0.0
 40
3.5
 50
270.0
 51
90.0
  0
LINE
  5
7A8
  8
DATA
  6
CONTINUOUS
 62
     7
 10
991.49998500000004
 20
2.3999999999999768
 30
0.0
 11
994.50001500000019
 21
2.3999999999999768
 31
0.0
  0
LINE
  5
7A9
  8
DATA
  6
CONTINUOUS
 62
     7
 10
991.49998500000004
 20
9.399970000000053
 30
0.0
 11
994.50001500000019
 21
9.399970000000053
 31
0.0
  0
ARC
  5
7AA
  8
DATA
  6
CONTINUOUS
 62
     7
 10
991.500045
 20
82.0
 30
0.0
 40
3.5
 50
180.0
 51
270.0
  0
ARC
  5
7AB
  8
DATA
  6
CONTINUOUS
 62
     7
 10
994.499955
 20
82.0
 30
0.0
 40
3.5
 50
270.0
 51
0.0
  0
LINE
  5
7AC
  8
DATA
  6
CONTINUOUS
 62
     7
 10
991.49998500000004
 20
78.5
 30
0.0
 11
994.50001500000019
 21
78.5
 31
0.0
  0
LINE
  5
7AD
  8
DATA
  6
CONTINUOUS
 62
     7
 10
1007.0
 20
85.0
 30
0.0
 11
997.99995500000728
 21
85.0
 31
0.0
  0
LINE
  5
7AE
  8
DATA
  6
CONTINUOUS
 62
     7
 10
988.000045
 20
85.0
 30
0.0
 11
978.0
 21
85.0
 31
0.0
  0
LINE
  5
7AF
  8
DATA
  6
CONTINUOUS
 62
     7
 10
978.0
 20
85.0
 30
0.0
 11
978.0
 21
88.0
 31
0.0
  0
ARC
  5
7B0
  8
DATA
  6
CONTINUOUS
 62
     7
 10
997.0
 20
44.0
 30
0.0
 40
4.0
 50
90.0
 51
270.0
  0
LINE
  5
7B1
  8
DATA
  6
CONTINUOUS
 62
     7
 10
997.0
 20
48.0
 30
0.0
 11
1007.0
 21
48.0
 31
0.0
  0
LINE
  5
7B2
  8
DATA
  6
CONTINUOUS
 62
     7
 10
997.0
 20
40.0
 30
0.0
 11
1007.0
 21
40.0
 31
0.0
  0
ARC
  5
7B3
  8
DATA
  6
CONTINUOUS
 62
     7
 10
992.5
 20
34.5
 30
0.0
 40
3.5
 50
90.0
 51
270.0
  0
LINE
  5
7B4
  8
DATA
  6
CONTINUOUS
 62
     7
 10
992.49994000000015
 20
31.0
 30
0.0
 11
1004.49994
 21
31.0
 31
0.0
  0
LINE
  5
7B5
  8
DATA
  6
CONTINUOUS
 62
     7
 10
992.49994000000015
 20
37.999970000000083
 30
0.0
 11
1004.49994
 21
37.999970000000083
 31
0.0
  0
ARC
  5
7B6
  8
DATA
  6
CONTINUOUS
 62
     7
 10
1004.49988
 20
34.5
 30
0.0
 40
3.5
 50
270.0
 51
90.0
  0
ARC
  5
7B7
  8
DATA
  6
CONTINUOUS
 62
     7
 10
992.5
 20
53.5
 30
0.0
 40
3.5
 50
90.0
 51
270.0
  0
LINE
  5
7B8
  8
DATA
  6
CONTINUOUS
 62
     7
 10
992.49994000000015
 20
57.0
 30
0.0
 11
1004.49994
 21
57.0
 31
0.0
  0
LINE
  5
7B9
  8
DATA
  6
CONTINUOUS
 62
     7
 10
992.49994000000015
 20
50.000029999999917
 30
0.0
 11
1004.49994
 21
50.000029999999917
 31
0.0
  0
ARC
  5
7BA
  8
DATA
  6
CONTINUOUS
 62
     7
 10
1004.49988
 20
53.5
 30
0.0
 40
3.5
 50
270.0
 51
90.0
  0
ARC
  5
7BB
  8
DATA
  6
CONTINUOUS
 62
     7
 10
1007.0
 20
4.0
 30
0.0
 40
4.0
 50
270.0
 51
0.0
  0
ARC
  5
7BC
  8
DATA
  6
CONTINUOUS
 62
     7
 10
1007.0
 20
36.0
 30
0.0
 40
4.0
 50
0.0
 51
90.0
  0
ARC
  5
7BD
  8
DATA
  6
CONTINUOUS
 62
     7
 10
1007.0
 20
52.0
 30
0.0
 40
4.0
 50
270.0
 51
0.0
  0
ARC
  5
7BE
  8
DATA
  6
CONTINUOUS
 62
     7
 10
1007.0
 20
81.0
 30
0.0
 40
4.0
 50
0.0
 51
90.0
  0
LINE
  5
7BF
  8
DATA
  6
CONTINUOUS
 62
     7
 10
988.000045
 20
82.0
 30
0.0
 11
988.000045
 21
85.0
 31
0.0
  0
LINE
  5
7C0
  8
DATA
  6
CONTINUOUS
 62
     7
 10
997.99995500000728
 20
82.0
 30
0.0
 11
997.99995500000728
 21
85.0
 31
0.0
  0
LINE
  5
7C1
  8
DATA
  6
CONTINUOUS
 62
     7
 10
982.0
 20
86.0
 30
0.0
 11
982.0
 21
85.0
 31
0.0
  0
ARC
  5
7C2
  8
DATA
  6
CONTINUOUS
 62
     7
 10
980.0
 20
86.0
 30
0.0
 40
2.0
 50
0.0
 51
90.0
  0
LINE
  5
7C3
  8
DATA
  6
CONTINUOUS
 62
     7
 10
22.5
 20
200.0
 30
0.0
 11
22.5
 21
611.0
 31
0.0
  0
LINE
  5
7C4
  8
DATA
  6
CONTINUOUS
 62
     7
 10
0.0
 20
200.0
 30
0.0
 11
483.0
 21
200.0
 31
0.0
  0
LINE
  5
7C5
  8
DATA
  6
CONTINUOUS
 62
     7
 10
0.0
 20
198.0
 30
0.0
 11
483.0
 21
198.0
 31
0.0
  0
LINE
  5
7C6
  8
DATA
  6
CONTINUOUS
 62
     7
 10
0.0
 20
200.0
 30
0.0
 11
0.0
 21
195.0
 31
0.0
  0
LINE
  5
7C7
  8
DATA
  6
CONTINUOUS
 62
     7
 10
16.0
 20
174.0
 30
0.0
 11
16.0
 21
194.5
 31
0.0
  0
LINE
  5
7C8
  8
DATA
  6
CONTINUOUS
 62
     7
 10
2.0
 20
165.0
 30
0.0
 11
2.0
 21
170.0
 31
0.0
  0
LINE
  5
7C9
  8
DATA
  6
CONTINUOUS
 62
     7
 10
2.0
 20
194.9375
 30
0.0
 11
2.0
 21
195.0
 31
0.0
  0
LINE
  5
7CA
  8
DATA
  6
CONTINUOUS
 62
     7
 10
0.0
 20
195.0
 30
0.0
 11
16.0
 21
194.5
 31
0.0
  0
LINE
  5
7CB
  8
DATA
  6
CONTINUOUS
 62
     7
 10
22.5
 20
176.0
 30
0.0
 11
27.5
 21
182.0
 31
0.0
  0
LINE
  5
7CC
  8
DATA
  6
CONTINUOUS
 62
     7
 10
22.5
 20
176.0
 30
0.0
 11
22.5
 21
165.0
 31
0.0
  0
LINE
  5
7CD
  8
DATA
  6
CONTINUOUS
 62
     7
 10
2.0
 20
165.0
 30
0.0
 11
22.5
 21
165.0
 31
0.0
  0
LINE
  5
7CE
  8
DATA
  6
CONTINUOUS
 62
     7
 10
12.0
 20
170.0
 30
0.0
 11
2.0
 21
170.0
 31
0.0
  0
LINE
  5
7CF
  8
DATA
  6
CONTINUOUS
 62
     7
 10
33.0
 20
171.01264690654179
 30
0.0
 11
33.0
 21
181.1838089302984
 31
0.0
  0
LINE
  5
7D0
  8
DATA
  6
CONTINUOUS
 62
     7
 10
27.5
 20
182.0
 30
0.0
 11
27.5
 21
171.87393439424869
 31
0.0
  0
LINE
  5
7D1
  8
DATA
  6
CONTINUOUS
 62
     7
 10
27.499999999975099
 20
171.8739343942527
 30
0.0
 11
22.5
 21
165.0
 31
0.0
  0
LINE
  5
7D2
  8
DATA
  6
CONTINUOUS
 62
     7
 10
22.5
 20
176.0
 30
0.0
 11
16.0
 21
176.0
 31
0.0
  0
LINE
  5
7D3
  8
DATA
  6
CONTINUOUS
 62
     7
 10
483.0
 20
200.0
 30
0.0
 11
483.0
 21
195.0
 31
0.0
  0
LINE
  5
7D4
  8
DATA
  6
CONTINUOUS
 62
     7
 10
481.0
 20
194.9375
 30
0.0
 11
481.0
 21
195.0
 31
0.0
  0
LINE
  5
7D5
  8
DATA
  6
CONTINUOUS
 62
     7
 10
483.0
 20
195.0
 30
0.0
 11
467.0
 21
194.5
 31
0.0
  0
LINE
  5
7D6
  8
DATA
  6
CONTINUOUS
 62
     7
 10
22.5
 20
611.0
 30
0.0
 11
24.5
 21
611.0
 31
0.0
  0
LINE
  5
7D7
  8
DATA
  6
CONTINUOUS
 62
     7
 10
24.5
 20
611.0
 30
0.0
 11
24.5
 21
582.0
 31
0.0
  0
LINE
  5
7D8
  8
DATA
  6
CONTINUOUS
 62
     7
 10
460.5
 20
200.0
 30
0.0
 11
460.5
 21
611.0
 31
0.0
  0
LINE
  5
7D9
  8
DATA
  6
CONTINUOUS
 62
     7
 10
460.5
 20
611.0
 30
0.0
 11
458.49999999999989
 21
611.0
 31
0.0
  0
LINE
  5
7DA
  8
DATA
  6
CONTINUOUS
 62
     7
 10
458.49999999999989
 20
611.0
 30
0.0
 11
458.49999999999989
 21
582.0
 31
0.0
  0
LINE
  5
7DB
  8
DATA
  6
CONTINUOUS
 62
     7
 10
24.5
 20
582.0
 30
0.0
 11
458.49999999999989
 21
582.0
 31
0.0
  0
LINE
  5
7DC
  8
DATA
  6
CONTINUOUS
 62
     7
 10
20.5
 20
208.0
 30
0.0
 11
20.5
 21
582.0
 31
0.0
  0
LINE
  5
7DD
  8
DATA
  6
CONTINUOUS
 62
     7
 10
20.5
 20
208.0
 30
0.0
 11
22.5
 21
208.0
 31
0.0
  0
LINE
  5
7DE
  8
DATA
  6
CONTINUOUS
 62
     7
 10
20.5
 20
582.0
 30
0.0
 11
22.5
 21
582.0
 31
0.0
  0
LINE
  5
7DF
  8
DATA
  6
CONTINUOUS
 62
     7
 10
462.5
 20
208.0
 30
0.0
 11
462.5
 21
582.0
 31
0.0
  0
LINE
  5
7E0
  8
DATA
  6
CONTINUOUS
 62
     7
 10
462.5
 20
208.0
 30
0.0
 11
460.5
 21
208.0
 31
0.0
  0
LINE
  5
7E1
  8
DATA
  6
CONTINUOUS
 62
     7
 10
462.5
 20
582.0
 30
0.0
 11
460.5
 21
582.0
 31
0.0
  0
ARC
  5
7E2
  8
DATA
  6
CONTINUOUS
 62
     7
 10
241.5
 20
1520.4411764705881
 30
0.0
 40
1355.4411764705881
 50
260.9160086394665
 51
279.0839913605335
  0
ARC
  5
7E3
  8
DATA
  6
CONTINUOUS
 62
     7
 10
12.0
 20
174.0
 30
0.0
 40
4.0
 50
270.0
 51
0.0
  0
ARC
  5
7E4
  8
DATA
  6
CONTINUOUS
 62
     7
 10
241.5
 20
1520.4411764705881
 30
0.0
 40
1365.4411764705881
 50
260.98309335331732
 51
261.21669368294698
  0
LINE
  5
7E5
  8
DATA
  6
CONTINUOUS
 62
     7
 10
467.0
 20
174.0
 30
0.0
 11
467.0
 21
194.5
 31
0.0
  0
LINE
  5
7E6
  8
DATA
  6
CONTINUOUS
 62
     7
 10
481.0
 20
165.0
 30
0.0
 11
481.0
 21
170.0
 31
0.0
  0
LINE
  5
7E7
  8
DATA
  6
CONTINUOUS
 62
     7
 10
481.0
 20
194.9375
 30
0.0
 11
481.0
 21
195.0
 31
0.0
  0
LINE
  5
7E8
  8
DATA
  6
CONTINUOUS
 62
     7
 10
483.0
 20
195.0
 30
0.0
 11
467.0
 21
194.5
 31
0.0
  0
LINE
  5
7E9
  8
DATA
  6
CONTINUOUS
 62
     7
 10
460.5
 20
176.0
 30
0.0
 11
455.49999999999989
 21
182.0
 31
0.0
  0
LINE
  5
7EA
  8
DATA
  6
CONTINUOUS
 62
     7
 10
460.5
 20
176.0
 30
0.0
 11
460.5
 21
165.0
 31
0.0
  0
LINE
  5
7EB
  8
DATA
  6
CONTINUOUS
 62
     7
 10
481.0
 20
165.0
 30
0.0
 11
460.5
 21
165.0
 31
0.0
  0
LINE
  5
7EC
  8
DATA
  6
CONTINUOUS
 62
     7
 10
471.0
 20
170.0
 30
0.0
 11
481.0
 21
170.0
 31
0.0
  0
LINE
  5
7ED
  8
DATA
  6
CONTINUOUS
 62
     7
 10
450.0
 20
171.01264690654179
 30
0.0
 11
450.0
 21
181.1838089302984
 31
0.0
  0
LINE
  5
7EE
  8
DATA
  6
CONTINUOUS
 62
     7
 10
455.49999999999989
 20
182.0
 30
0.0
 11
455.49999999999989
 21
171.87393439424869
 31
0.0
  0
LINE
  5
7EF
  8
DATA
  6
CONTINUOUS
 62
     7
 10
455.5000000000249
 20
171.8739343942527
 30
0.0
 11
460.5
 21
165.0
 31
0.0
  0
LINE
  5
7F0
  8
DATA
  6
CONTINUOUS
 62
     7
 10
460.5
 20
176.0
 30
0.0
 11
467.0
 21
176.0
 31
0.0
  0
ARC
  5
7F1
  8
DATA
  6
CONTINUOUS
 62
     7
 10
471.0
 20
174.0
 30
0.0
 40
4.0
 50
180.0
 51
270.0
  0
ARC
  5
7F2
  8
DATA
  6
CONTINUOUS
 62
     7
 10
241.5
 20
1520.4411764705881
 30
0.0
 40
1365.4411764705881
 50
278.78330631705302
 51
279.01690664668268
  0
ARC
  5
7F3
  8
DATA
  6
CONTINUOUS
 62
     7
 10
761.10000000000014
 20
44.0
 30
0.0
 40
196.10000000000011
 50
167.03385261420561
 51
192.9661473857945
  0
ARC
  5
7F4
  8
DATA
  6
CONTINUOUS
 62
     7
 10
761.10000000000014
 20
44.0
 30
0.0
 40
194.10000000000011
 50
167.50330442448831
 51
192.4966955755115
  0
LINE
  5
7F5
  8
DATA
  6
CONTINUOUS
 62
     7
 10
567.50597245782603
 20
75.25
 30
0.0
 11
569.53213343569325
 21
75.25
 31
0.0
  0
LINE
  5
7F6
  8
DATA
  6
CONTINUOUS
 62
     7
 10
567.50597245782603
 20
12.75
 30
0.0
 11
569.53213343569325
 21
12.75
 31
0.0
  0
LINE
  5
7F7
  8
DATA
  6
CONTINUOUS
 62
     7
 10
600.0
 20
-0.5
 30
0.0
 11
982.0
 21
-0.5000000000001137
 31
0.0
  0
LINE
  5
7F8
  8
DATA
  6
CONTINUOUS
 62
     7
 10
462.5
 20
-0.5
 30
0.0
 11
20.5
 21
-0.5
 31
0.0
  0
LINE
  5
7F9
  8
DATA
  6
CONTINUOUS
 62
     7
 10
20.5
 20
0.0
 30
0.0
 11
20.5
 21
-0.5
 31
0.0
  0
LINE
  5
7FA
  8
DATA
  6
CONTINUOUS
 62
     7
 10
462.5
 20
0.0
 30
0.0
 11
462.5
 21
-0.5
 31
0.0
  0
LINE
  5
7FB
  8
DATA
  6
CONTINUOUS
 62
     7
 10
117.0
 20
594.0
 30
0.0
 11
117.0
 21
582.0
 31
0.0
  0
LINE
  5
7FC
  8
DATA
  6
CONTINUOUS
 62
     7
 10
136.5
 20
594.0
 30
0.0
 11
136.5
 21
582.0
 31
0.0
  0
LINE
  5
7FD
  8
DATA
  6
CONTINUOUS
 62
     7
 10
117.0
 20
594.0
 30
0.0
 11
136.5
 21
594.0
 31
0.0
  0
LINE
  5
7FE
  8
DATA
  6
CONTINUOUS
 62
     7
 10
117.0
 20
585.0
 30
0.0
 11
112.0
 21
585.0
 31
0.0
  0
LINE
  5
7FF
  8
DATA
  6
CONTINUOUS
 62
     7
 10
112.0
 20
585.0
 30
0.0
 11
117.0
 21
582.0
 31
0.0
  0
LINE
  5
800
  8
DATA
  6
CONTINUOUS
 62
     7
 10
117.0
 20
587.0
 30
0.0
 11
112.0
 21
587.0
 31
0.0
  0
LINE
  5
801
  8
DATA
  6
CONTINUOUS
 62
     7
 10
112.0
 20
587.0
 30
0.0
 11
112.0
 21
594.0
 31
0.0
  0
LINE
  5
802
  8
DATA
  6
CONTINUOUS
 62
     7
 10
112.0
 20
594.0
 30
0.0
 11
117.0
 21
594.0
 31
0.0
  0
LINE
  5
803
  8
DATA
  6
CONTINUOUS
 62
     7
 10
120.2344970628625
 20
610.0
 30
0.0
 11
133.26550293713689
 21
610.0
 31
0.0
  0
LINE
  5
804
  8
DATA
  6
CONTINUOUS
 62
     7
 10
117.8010708275639
 20
598.5
 30
0.0
 11
117.8010708275639
 21
594.0
 31
0.0
  0
LINE
  5
805
  8
DATA
  6
CONTINUOUS
 62
     7
 10
135.69892917243621
 20
598.5
 30
0.0
 11
135.69892917243621
 21
594.0
 31
0.0
  0
LINE
  5
806
  8
DATA
  6
CONTINUOUS
 62
     7
 10
117.8010708275639
 20
598.5
 30
0.0
 11
135.69892917243621
 21
598.5
 31
0.0
  0
LINE
  5
807
  8
DATA
  6
CONTINUOUS
 62
     7
 10
122.2755354137819
 20
598.5
 30
0.0
 11
122.2755354137819
 21
594.0
 31
0.0
  0
LINE
  5
808
  8
DATA
  6
CONTINUOUS
 62
     7
 10
131.22446458621809
 20
598.5
 30
0.0
 11
131.22446458621809
 21
594.0
 31
0.0
  0
LINE
  5
809
  8
DATA
  6
CONTINUOUS
 62
     7
 10
134.26538088917161
 20
609.01562309300061
 30
0.0
 11
134.42968750000011
 21
598.5
 31
0.0
  0
LINE
  5
80A
  8
DATA
  6
CONTINUOUS
 62
     7
 10
119.23461911082779
 20
609.01562309300061
 30
0.0
 11
119.0703124999993
 21
598.5
 31
0.0
  0
LINE
  5
80B
  8
DATA
  6
CONTINUOUS
 62
     7
 10
125.5
 20
610.0
 30
0.0
 11
125.75
 21
600.49999999999989
 31
0.0
  0
LINE
  5
80C
  8
DATA
  6
CONTINUOUS
 62
     7
 10
127.9999999999995
 20
610.0
 30
0.0
 11
127.75
 21
600.49999999999989
 31
0.0
  0
ARC
  5
80D
  8
DATA
  6
CONTINUOUS
 62
     7
 10
126.7499999999999
 20
600.49999999999989
 30
0.0
 40
0.9999999999999431
 50
179.9999999999992
 51
359.99995401722288
  0
LINE
  5
80E
  8
DATA
  6
CONTINUOUS
 62
     7
 10
120.66330312067289
 20
610.0
 30
0.0
 11
120.66330312067289
 21
600.0
 31
0.0
  0
LINE
  5
80F
  8
DATA
  6
CONTINUOUS
 62
     7
 10
119.50117935025349
 20
609.67988611720921
 30
0.0
 11
119.50117935025349
 21
600.0
 31
0.0
  0
LINE
  5
810
  8
DATA
  6
CONTINUOUS
 62
     7
 10
132.74882064974611
 20
610.0
 30
0.0
 11
132.74882064974611
 21
600.0
 31
0.0
  0
LINE
  5
811
  8
DATA
  6
CONTINUOUS
 62
     7
 10
133.99882064974619
 20
609.67988611720887
 30
0.0
 11
133.99882064974619
 21
600.0
 31
0.0
  0
ARC
  5
812
  8
DATA
  6
CONTINUOUS
 62
     7
 10
120.0822412354632
 20
600.0
 30
0.0
 40
0.5810618852096355
 50
180.0
 51
0.0
  0
ARC
  5
813
  8
DATA
  6
CONTINUOUS
 62
     7
 10
133.37382064974611
 20
600.0
 30
0.0
 40
0.625000000000057
 50
179.9999999999948
 51
359.99999999999471
  0
ARC
  5
814
  8
DATA
  6
CONTINUOUS
 62
     7
 10
120.2344970628625
 20
609.0
 30
0.0
 40
1.0000000000000031
 50
90.0
 51
179.1048262897869
  0
ARC
  5
815
  8
DATA
  6
CONTINUOUS
 62
     7
 10
133.26550293713689
 20
609.0
 30
0.0
 40
0.9999999999999994
 50
0.895173710212906
 51
90.0
  0
LINE
  5
816
  8
DATA
  6
CONTINUOUS
 62
     7
 10
229.5
 20
585.5
 30
0.0
 11
229.5
 21
585.0
 31
0.0
  0
LINE
  5
817
  8
DATA
  6
CONTINUOUS
 62
     7
 10
239.5
 20
585.5
 30
0.0
 11
239.5
 21
585.0
 31
0.0
  0
LINE
  5
818
  8
DATA
  6
CONTINUOUS
 62
     7
 10
239.5
 20
585.0
 30
0.0
 11
229.5
 21
585.0
 31
0.0
  0
LINE
  5
819
  8
DATA
  6
CONTINUOUS
 62
     7
 10
229.5
 20
585.5
 30
0.0
 11
239.5
 21
585.5
 31
0.0
  0
LINE
  5
81A
  8
DATA
  6
CONTINUOUS
 62
     7
 10
232.0
 20
582.0
 30
0.0
 11
232.0
 21
585.0
 31
0.0
  0
LINE
  5
81B
  8
DATA
  6
CONTINUOUS
 62
     7
 10
237.0
 20
582.0
 30
0.0
 11
237.0
 21
585.0
 31
0.0
  0
LINE
  5
81C
  8
DATA
  6
CONTINUOUS
 62
     7
 10
293.5
 20
585.5
 30
0.0
 11
293.5
 21
585.0
 31
0.0
  0
LINE
  5
81D
  8
DATA
  6
CONTINUOUS
 62
     7
 10
303.5
 20
585.5
 30
0.0
 11
303.5
 21
585.0
 31
0.0
  0
LINE
  5
81E
  8
DATA
  6
CONTINUOUS
 62
     7
 10
303.5
 20
585.0
 30
0.0
 11
293.5
 21
585.0
 31
0.0
  0
LINE
  5
81F
  8
DATA
  6
CONTINUOUS
 62
     7
 10
293.5
 20
585.5
 30
0.0
 11
303.5
 21
585.5
 31
0.0
  0
LINE
  5
820
  8
DATA
  6
CONTINUOUS
 62
     7
 10
296.0
 20
582.0
 30
0.0
 11
296.0
 21
585.0
 31
0.0
  0
LINE
  5
821
  8
DATA
  6
CONTINUOUS
 62
     7
 10
301.0
 20
582.0
 30
0.0
 11
301.0
 21
585.0
 31
0.0
  0
LINE
  5
822
  8
DATA
  6
CONTINUOUS
 62
     7
 10
199.5
 20
582.5
 30
0.0
 11
199.5
 21
582.0
 31
0.0
  0
LINE
  5
823
  8
DATA
  6
CONTINUOUS
 62
     7
 10
203.5
 20
582.5
 30
0.0
 11
203.5
 21
582.0
 31
0.0
  0
LINE
  5
824
  8
DATA
  6
CONTINUOUS
 62
     7
 10
219.5
 20
582.5
 30
0.0
 11
219.5
 21
582.0
 31
0.0
  0
LINE
  5
825
  8
DATA
  6
CONTINUOUS
 62
     7
 10
226.5
 20
582.5
 30
0.0
 11
226.5
 21
582.0
 31
0.0
  0
LINE
  5
826
  8
DATA
  6
CONTINUOUS
 62
     7
 10
242.5
 20
582.5
 30
0.0
 11
242.5
 21
581.99503311258275
 31
0.0
  0
LINE
  5
827
  8
DATA
  6
CONTINUOUS
 62
     7
 10
246.5
 20
582.5
 30
0.0
 11
246.5
 21
581.99503311258275
 31
0.0
  0
LINE
  5
828
  8
DATA
  6
CONTINUOUS
 62
     7
 10
220.5
 20
583.49999999999989
 30
0.0
 11
221.5
 21
583.49999999999989
 31
0.0
  0
LINE
  5
829
  8
DATA
  6
CONTINUOUS
 62
     7
 10
221.5
 20
583.49999999999989
 30
0.0
 11
222.5
 21
583.49999999999989
 31
0.0
  0
LINE
  5
82A
  8
DATA
  6
CONTINUOUS
 62
     7
 10
243.5
 20
583.49999999999989
 30
0.0
 11
245.5
 21
583.49999999999989
 31
0.0
  0
LINE
  5
82B
  8
DATA
  6
CONTINUOUS
 62
     7
 10
223.5
 20
583.49999999999989
 30
0.0
 11
225.5
 21
583.49999999999989
 31
0.0
  0
LINE
  5
82C
  8
DATA
  6
CONTINUOUS
 62
     7
 10
200.5
 20
583.49999999999989
 30
0.0
 11
202.5
 21
583.49999999999989
 31
0.0
  0
ARC
  5
82D
  8
DATA
  6
CONTINUOUS
 62
     7
 10
200.5
 20
582.5
 30
0.0
 40
1.0
 50
90.0
 51
180.0
  0
ARC
  5
82E
  8
DATA
  6
CONTINUOUS
 62
     7
 10
220.5
 20
582.5
 30
0.0
 40
1.0
 50
90.0
 51
180.0
  0
ARC
  5
82F
  8
DATA
  6
CONTINUOUS
 62
     7
 10
225.5
 20
582.5
 30
0.0
 40
1.0
 50
0.0
 51
90.0
  0
ARC
  5
830
  8
DATA
  6
CONTINUOUS
 62
     7
 10
243.5
 20
582.5
 30
0.0
 40
1.0
 50
90.0
 51
180.0
  0
ARC
  5
831
  8
DATA
  6
CONTINUOUS
 62
     7
 10
245.5
 20
582.5
 30
0.0
 40
1.0
 50
0.0
 51
90.0
  0
ARC
  5
832
  8
DATA
  6
CONTINUOUS
 62
     7
 10
202.5
 20
582.5
 30
0.0
 40
1.0
 50
0.0
 51
90.0
  0
LINE
  5
833
  8
DATA
  6
CONTINUOUS
 62
     7
 10
223.5
 20
582.5
 30
0.0
 11
223.5
 21
582.0
 31
0.0
  0
ARC
  5
834
  8
DATA
  6
CONTINUOUS
 62
     7
 10
222.5
 20
582.5
 30
0.0
 40
1.0
 50
0.0
 51
90.0
  0
ARC
  5
835
  8
DATA
  6
CONTINUOUS
 62
     7
 10
223.5
 20
582.5
 30
0.0
 40
1.0
 50
90.0
 51
119.9999999999999
  0
LINE
  5
836
  8
DATA
  6
CONTINUOUS
 62
     7
 10
263.5
 20
582.5
 30
0.0
 11
263.5
 21
582.0
 31
0.0
  0
LINE
  5
837
  8
DATA
  6
CONTINUOUS
 62
     7
 10
267.5
 20
582.5
 30
0.0
 11
267.5
 21
582.0
 31
0.0
  0
LINE
  5
838
  8
DATA
  6
CONTINUOUS
 62
     7
 10
283.5
 20
582.5
 30
0.0
 11
283.5
 21
582.0
 31
0.0
  0
LINE
  5
839
  8
DATA
  6
CONTINUOUS
 62
     7
 10
290.5
 20
582.5
 30
0.0
 11
290.5
 21
582.0
 31
0.0
  0
LINE
  5
83A
  8
DATA
  6
CONTINUOUS
 62
     7
 10
306.5
 20
582.5
 30
0.0
 11
306.5
 21
581.99503311258275
 31
0.0
  0
LINE
  5
83B
  8
DATA
  6
CONTINUOUS
 62
     7
 10
310.5
 20
582.5
 30
0.0
 11
310.5
 21
581.99503311258275
 31
0.0
  0
LINE
  5
83C
  8
DATA
  6
CONTINUOUS
 62
     7
 10
284.5
 20
583.49999999999989
 30
0.0
 11
285.5
 21
583.49999999999989
 31
0.0
  0
LINE
  5
83D
  8
DATA
  6
CONTINUOUS
 62
     7
 10
285.5
 20
583.49999999999989
 30
0.0
 11
286.5
 21
583.49999999999989
 31
0.0
  0
LINE
  5
83E
  8
DATA
  6
CONTINUOUS
 62
     7
 10
307.5
 20
583.49999999999989
 30
0.0
 11
309.5
 21
583.49999999999989
 31
0.0
  0
LINE
  5
83F
  8
DATA
  6
CONTINUOUS
 62
     7
 10
287.5
 20
583.49999999999989
 30
0.0
 11
289.5
 21
583.49999999999989
 31
0.0
  0
LINE
  5
840
  8
DATA
  6
CONTINUOUS
 62
     7
 10
264.5
 20
583.49999999999989
 30
0.0
 11
266.5
 21
583.49999999999989
 31
0.0
  0
ARC
  5
841
  8
DATA
  6
CONTINUOUS
 62
     7
 10
264.5
 20
582.5
 30
0.0
 40
1.0
 50
90.0
 51
180.0
  0
ARC
  5
842
  8
DATA
  6
CONTINUOUS
 62
     7
 10
284.5
 20
582.5
 30
0.0
 40
1.0
 50
90.0
 51
180.0
  0
ARC
  5
843
  8
DATA
  6
CONTINUOUS
 62
     7
 10
289.5
 20
582.5
 30
0.0
 40
1.0
 50
0.0
 51
90.0
  0
ARC
  5
844
  8
DATA
  6
CONTINUOUS
 62
     7
 10
307.5
 20
582.5
 30
0.0
 40
1.0
 50
90.0
 51
180.0
  0
ARC
  5
845
  8
DATA
  6
CONTINUOUS
 62
     7
 10
309.5
 20
582.5
 30
0.0
 40
1.0
 50
0.0
 51
90.0
  0
ARC
  5
846
  8
DATA
  6
CONTINUOUS
 62
     7
 10
266.5
 20
582.5
 30
0.0
 40
1.0
 50
0.0
 51
90.0
  0
LINE
  5
847
  8
DATA
  6
CONTINUOUS
 62
     7
 10
287.5
 20
582.5
 30
0.0
 11
287.5
 21
582.0
 31
0.0
  0
ARC
  5
848
  8
DATA
  6
CONTINUOUS
 62
     7
 10
286.5
 20
582.5
 30
0.0
 40
1.0
 50
0.0
 51
90.0
  0
ARC
  5
849
  8
DATA
  6
CONTINUOUS
 62
     7
 10
287.5
 20
582.5
 30
0.0
 40
1.0
 50
90.0
 51
119.9999999999999
  0
LINE
  5
84A
  8
DATA
  6
CONTINUOUS
 62
     7
 10
353.08805373309622
 20
590.5
 30
0.0
 11
371.91194626690378
 21
590.5
 31
0.0
  0
LINE
  5
84B
  8
DATA
  6
CONTINUOUS
 62
     7
 10
351.40891341879171
 20
589.58650255631449
 30
0.0
 11
346.5
 21
582.0
 31
0.0
  0
LINE
  5
84C
  8
DATA
  6
CONTINUOUS
 62
     7
 10
373.59108658120817
 20
589.58650255631449
 30
0.0
 11
378.5
 21
582.0
 31
0.0
  0
ARC
  5
84D
  8
DATA
  6
CONTINUOUS
 62
     7
 10
353.08805373309622
 20
588.49999999999989
 30
0.0
 40
2.0000000000000071
 50
90.0
 51
147.09475707701191
  0
ARC
  5
84E
  8
DATA
  6
CONTINUOUS
 62
     7
 10
371.91194626690378
 20
588.49999999999989
 30
0.0
 40
2.0000000000000031
 50
32.905242922987867
 51
90.0
  0
LINE
  5
84F
  8
DATA
  6
CONTINUOUS
 62
     7
 10
426.5
 20
584.49999999999989
 30
0.0
 11
426.5
 21
582.0
 31
0.0
  0
LINE
  5
850
  8
DATA
  6
CONTINUOUS
 62
     7
 10
454.5
 20
584.49999999999989
 30
0.0
 11
454.5
 21
582.0
 31
0.0
  0
LINE
  5
851
  8
DATA
  6
CONTINUOUS
 62
     7
 10
426.5
 20
584.49999999999989
 30
0.0
 11
437.96340752269361
 21
584.49999999999989
 31
0.0
  0
LINE
  5
852
  8
DATA
  6
CONTINUOUS
 62
     7
 10
443.03659247730661
 20
584.49999999999989
 30
0.0
 11
454.5
 21
584.49999999999989
 31
0.0
  0
ARC
  5
853
  8
DATA
  6
CONTINUOUS
 62
     7
 10
440.5
 20
578.48686027918541
 30
0.0
 40
6.526266214150632
 50
32.568514602995698
 51
147.4314853970042
  0
ARC
  5
854
  8
DATA
  6
CONTINUOUS
 62
     7
 10
440.5
 20
578.48686027918541
 30
0.0
 40
5.5262662141506311
 50
39.473161054436332
 51
140.52683894556381
  0
CIRCLE
  5
855
  8
DATA
  6
CONTINUOUS
 62
     7
 10
315.687499992239
 20
739.0
 30
0.0
 40
4.5
  0
CIRCLE
  5
856
  8
DATA
  6
CONTINUOUS
 62
     7
 10
313.187499992239
 20
739.0
 30
0.0
 40
0.5
  0
CIRCLE
  5
857
  8
DATA
  6
CONTINUOUS
 62
     7
 10
318.187499992239
 20
739.0
 30
0.0
 40
0.5
  0
CIRCLE
  5
858
  8
DATA
  6
CONTINUOUS
 62
     7
 10
315.687499992239
 20
741.5
 30
0.0
 40
0.5000000000000063
  0
TEXT
  5
859
  8
DATA
 62
     7
 10
316.25
 20
739.80999999999983
 30
0.0
 40
1.7314453125
  1
3
 50
180.0
 41
0.8
 11
316.25
 21
738.07855468749983
 31
0.0
 73
     3
  0
TEXT
  5
85A
  8
DATA
 62
     7
 10
313.75
 20
737.80999999999983
 30
0.0
 40
1.7314453125
  1
1
 50
180.0
 41
0.8
 11
313.75
 21
736.07855468749983
 31
0.0
 73
     3
  0
TEXT
  5
85B
  8
DATA
 62
     7
 10
318.75
 20
737.80999999999983
 30
0.0
 40
1.7314453125
  1
2
 50
180.0
 41
0.8
 11
318.75
 21
736.07855468749983
 31
0.0
 73
     3
  0
CIRCLE
  5
85C
  8
DATA
  6
CONTINUOUS
 62
     7
 10
315.687499992239
 20
746.49999999999989
 30
0.0
 40
1.5
  0
LINE
  5
85D
  8
DATA
  6
CONTINUOUS
 62
     7
 10
314.687499992239
 20
746.49999999999989
 30
0.0
 11
316.687499992239
 21
746.49999999999989
 31
0.0
  0
LINE
  5
85E
  8
DATA
  6
CONTINUOUS
 62
     7
 10
315.687499992239
 20
745.0
 30
0.0
 11
315.687499992239
 21
742.0
 31
0.0
  0
LINE
  5
85F
  8
DATA
  6
CONTINUOUS
 62
     7
 10
318.687499992239
 20
739.0
 30
0.0
 11
321.687499992239
 21
739.0
 31
0.0
  0
CIRCLE
  5
860
  8
DATA
  6
CONTINUOUS
 62
     7
 10
323.187499992239
 20
739.0
 30
0.0
 40
1.5
  0
LINE
  5
861
  8
DATA
  6
CONTINUOUS
 62
     7
 10
322.187499992239
 20
739.0
 30
0.0
 11
324.187499992239
 21
739.0
 31
0.0
  0
LINE
  5
862
  8
DATA
  6
CONTINUOUS
 62
     7
 10
323.187499992239
 20
740.0
 30
0.0
 11
323.187499992239
 21
738.0
 31
0.0
  0
LINE
  5
863
  8
DATA
  6
CONTINUOUS
 62
     7
 10
313.187499992239
 20
739.0
 30
0.0
 11
308.187499992239
 21
739.0
 31
0.0
  0
LINE
  5
864
  8
DATA
  6
CONTINUOUS
 62
     7
 10
308.187499992239
 20
739.0
 30
0.0
 11
308.187499992239
 21
743.0
 31
0.0
  0
LINE
  5
865
  8
DATA
  6
CONTINUOUS
 62
     7
 10
306.687499992239
 20
743.0
 30
0.0
 11
309.687499992239
 21
743.0
 31
0.0
  0
LINE
  5
866
  8
DATA
  6
CONTINUOUS
 62
     7
 10
307.187499992239
 20
743.5
 30
0.0
 11
309.187499992239
 21
743.5
 31
0.0
  0
LINE
  5
867
  8
DATA
  6
CONTINUOUS
 62
     7
 10
307.687499992239
 20
744.0
 30
0.0
 11
308.687499992239
 21
744.0
 31
0.0
  0
TEXT
  5
868
  8
DATA
 62
     7
 10
307.87499997609609
 20
742.30999999999983
 30
0.0
 40
1.7314453125
  1
GND
 50
180.0
 41
0.8
 11
307.87499997609609
 21
740.57855468749983
 31
0.0
 73
     3
  0
LINE
  5
869
  8
DATA
  6
CONTINUOUS
 62
     7
 10
196.5
 20
703.0
 30
0.0
 11
322.5
 21
703.0
 31
0.0
  0
LINE
  5
86A
  8
DATA
  6
CONTINUOUS
 62
     7
 10
194.5
 20
705.0
 30
0.0
 11
194.5
 21
742.0
 31
0.0
  0
LINE
  5
86B
  8
DATA
  6
CONTINUOUS
 62
     7
 10
324.5
 20
747.0
 30
0.0
 11
324.5
 21
784.0
 31
0.0
  0
LINE
  5
86C
  8
DATA
  6
CONTINUOUS
 62
     7
 10
196.5
 20
786.0
 30
0.0
 11
246.5
 21
786.0
 31
0.0
  0
LINE
  5
86D
  8
DATA
  6
CONTINUOUS
 62
     7
 10
196.5
 20
744.0
 30
0.0
 11
303.5
 21
744.0
 31
0.0
  0
LINE
  5
86E
  8
DATA
  6
CONTINUOUS
 62
     7
 10
324.5
 20
736.96899044087445
 30
0.0
 11
324.5
 21
705.0
 31
0.0
  0
LINE
  5
86F
  8
DATA
  6
CONTINUOUS
 62
     7
 10
322.5
 20
745.0
 30
0.0
 11
317.44751598247882
 21
745.0
 31
0.0
  0
LINE
  5
870
  8
DATA
  6
CONTINUOUS
 62
     7
 10
313.92748400199912
 20
745.0
 30
0.0
 11
252.5
 21
745.0
 31
0.0
  0
LINE
  5
871
  8
DATA
  6
CONTINUOUS
 62
     7
 10
194.5
 20
784.0
 30
0.0
 11
194.5
 21
747.0
 31
0.0
  0
LINE
  5
872
  8
DATA
  6
CONTINUOUS
 62
     7
 10
248.5
 20
784.0
 30
0.0
 11
248.5
 21
747.0
 31
0.0
  0
LINE
  5
873
  8
DATA
  6
CONTINUOUS
 62
     7
 10
250.5
 20
747.0
 30
0.0
 11
250.5
 21
784.0
 31
0.0
  0
LINE
  5
874
  8
DATA
  6
CONTINUOUS
 62
     7
 10
252.5
 20
786.0
 30
0.0
 11
322.5
 21
786.0
 31
0.0
  0
LINE
  5
875
  8
DATA
  6
CONTINUOUS
 62
     7
 10
246.5
 20
745.0
 30
0.0
 11
196.5
 21
745.0
 31
0.0
  0
ARC
  5
876
  8
DATA
  6
CONTINUOUS
 62
     7
 10
196.5
 20
784.0
 30
0.0
 40
2.0
 50
90.0
 51
180.0
  0
ARC
  5
877
  8
DATA
  6
CONTINUOUS
 62
     7
 10
246.5
 20
784.0
 30
0.0
 40
2.0
 50
0.0
 51
90.0
  0
ARC
  5
878
  8
DATA
  6
CONTINUOUS
 62
     7
 10
252.5
 20
784.0
 30
0.0
 40
2.0
 50
90.0
 51
180.0
  0
ARC
  5
879
  8
DATA
  6
CONTINUOUS
 62
     7
 10
322.5
 20
784.0
 30
0.0
 40
2.0
 50
0.0
 51
90.0
  0
ARC
  5
87A
  8
DATA
  6
CONTINUOUS
 62
     7
 10
196.5
 20
747.0
 30
0.0
 40
2.0
 50
180.0
 51
270.0
  0
ARC
  5
87B
  8
DATA
  6
CONTINUOUS
 62
     7
 10
196.5
 20
742.0
 30
0.0
 40
2.0
 50
90.0
 51
180.0
  0
ARC
  5
87C
  8
DATA
  6
CONTINUOUS
 62
     7
 10
196.5
 20
705.0
 30
0.0
 40
2.0
 50
180.0
 51
270.0
  0
ARC
  5
87D
  8
DATA
  6
CONTINUOUS
 62
     7
 10
322.5
 20
705.0
 30
0.0
 40
2.0
 50
270.0
 51
0.0
  0
ARC
  5
87E
  8
DATA
  6
CONTINUOUS
 62
     7
 10
246.5
 20
747.0
 30
0.0
 40
2.0
 50
270.0
 51
0.0
  0
ARC
  5
87F
  8
DATA
  6
CONTINUOUS
 62
     7
 10
252.5
 20
747.0
 30
0.0
 40
2.0
 50
180.0
 51
270.0
  0
ARC
  5
880
  8
DATA
  6
CONTINUOUS
 62
     7
 10
322.5
 20
747.0
 30
0.0
 40
2.0
 50
270.0
 51
0.0
  0
LINE
  5
881
  8
DATA
  6
CONTINUOUS
 62
     7
 10
303.5
 20
744.0
 30
0.0
 11
303.5
 21
739.0
 31
0.0
  0
ARC
  5
882
  8
DATA
  6
CONTINUOUS
 62
     7
 10
315.687499992239
 20
739.0
 30
0.0
 40
5.6874999922390232
 50
190.1266236198754
 51
339.07776074087189
  0
LINE
  5
883
  8
DATA
  6
CONTINUOUS
 62
     7
 10
310.08860222913222
 20
738.0
 30
0.0
 11
307.0
 21
738.0
 31
0.0
  0
LINE
  5
884
  8
DATA
  6
CONTINUOUS
 62
     7
 10
307.0
 20
738.0
 30
0.0
 11
307.0
 21
739.0
 31
0.0
  0
LINE
  5
885
  8
DATA
  6
CONTINUOUS
 62
     7
 10
303.5
 20
739.0
 30
0.0
 11
307.0
 21
739.0
 31
0.0
  0
LINE
  5
886
  8
DATA
  6
CONTINUOUS
 62
     7
 10
321.0000000000004
 20
736.96899044087445
 30
0.0
 11
324.5
 21
736.96899044087445
 31
0.0
  0
ARC
  5
887
  8
DATA
  6
CONTINUOUS
 62
     7
 10
315.687499992239
 20
746.49999999999989
 30
0.0
 40
2.3125000077609679
 50
319.5602070723134
 51
220.43979292764959
  0
ENDSEC
  0
EOF
