  0
SECTION
  2
HEADER
  9
$ACADVER
  1
AC1009
  9
$INSBASE
 10
0.0
 20
0.0
 30
0.0
  9
$EXTMIN
 10
-260.02550621300787
 20
-398.98174206618341
 30
-0.0015258207003583
  9
$EXTMAX
 10
465.4612246731221
 20
670.63083589121868
 30
0.0000000349246037
  9
$LIMMIN
 10
0.0
 20
0.0
  9
$LIMMAX
 10
0.0
 20
0.0
  9
$ORTHOMODE
 70
     0
  9
$REGENMODE
 70
     1
  9
$FILLMODE
 70
     1
  9
$QTEXTMODE
 70
     0
  9
$MIRRTEXT
 70
     1
  9
$DRAGMODE
 70
     2
  9
$LTSCALE
 40
4.0
  9
$OSMODE
 70
    37
  9
$ATTMODE
 70
     1
  9
$TEXTSIZE
 40
0.0
  9
$TRACEWID
 40
0.05
  9
$TEXTSTYLE
  7
STANDARD
  9
$CLAYER
  8
0
  9
$CELTYPE
  6
CONTINUOUS
  9
$CECOLOR
 62
   256
  9
$DIMSCALE
 40
1.0
  9
$DIMASZ
 40
0.18
  9
$DIMEXO
 40
0.0625
  9
$DIMDLI
 40
0.38
  9
$DIMRND
 40
0.0
  9
$DIMDLE
 40
0.0
  9
$DIMEXE
 40
0.18
  9
$DIMTP
 40
0.0
  9
$DIMTM
 40
0.0
  9
$DIMTXT
 40
0.18
  9
$DIMCEN
 40
0.09
  9
$DIMTSZ
 40
0.0
  9
$DIMTOL
 70
     0
  9
$DIMLIM
 70
     0
  9
$DIMTIH
 70
     1
  9
$DIMTOH
 70
     1
  9
$DIMSE1
 70
     0
  9
$DIMSE2
 70
     0
  9
$DIMTAD
 70
     0
  9
$DIMZIN
 70
     0
  9
$DIMBLK
  1

  9
$DIMASO
 70
     1
  9
$DIMSHO
 70
     1
  9
$DIMPOST
  1

  9
$DIMAPOST
  1

  9
$DIMALT
 70
     0
  9
$DIMALTD
 70
     2
  9
$DIMALTF
 40
25.399999999999999
  9
$DIMLFAC
 40
1.0
  9
$DIMTOFL
 70
     0
  9
$DIMTVP
 40
0.0
  9
$DIMTIX
 70
     0
  9
$DIMSOXD
 70
     0
  9
$DIMSAH
 70
     0
  9
$DIMBLK1
  1

  9
$DIMBLK2
  1

  9
$DIMSTYLE
  2
STANDARD
  9
$DIMCLRD
 70
     0
  9
$DIMCLRE
 70
     0
  9
$DIMCLRT
 70
     0
  9
$DIMTFAC
 40
1.0
  9
$DIMGAP
 40
0.09
  9
$LUNITS
 70
     2
  9
$LUPREC
 70
     4
  9
$SKETCHINC
 40
0.1
  9
$FILLETRAD
 40
0.0
  9
$AUNITS
 70
     0
  9
$AUPREC
 70
     0
  9
$MENU
  1
acad
  9
$ELEVATION
 40
0.0
  9
$PELEVATION
 40
0.0
  9
$THICKNESS
 40
0.0
  9
$LIMCHECK
 70
     0
  9
$BLIPMODE
 70
     0
  9
$CHAMFERA
 40
0.0
  9
$CHAMFERB
 40
0.0
  9
$SKPOLY
 70
     0
  9
$TDCREATE
 40
2451859.8026620368
  9
$TDUPDATE
 40
2451859.834784837
  9
$TDINDWG
 40
0.0055421296
  9
$TDUSRTIMER
 40
0.0055421296
  9
$USRTIMER
 70
     1
  9
$ANGBASE
 50
0.0
  9
$ANGDIR
 70
     0
  9
$PDMODE
 70
     0
  9
$PDSIZE
 40
0.0
  9
$PLINEWID
 40
0.0
  9
$COORDS
 70
     1
  9
$SPLFRAME
 70
     0
  9
$SPLINETYPE
 70
     6
  9
$SPLINESEGS
 70
     8
  9
$ATTDIA
 70
     0
  9
$ATTREQ
 70
     1
  9
$HANDLING
 70
-16383
  9
$HANDSEED
  5
1CC
  9
$SURFTAB1
 70
     6
  9
$SURFTAB2
 70
     6
  9
$SURFTYPE
 70
     6
  9
$SURFU
 70
     6
  9
$SURFV
 70
     6
  9
$UCSNAME
  2

  9
$UCSORG
 10
0.0
 20
0.0
 30
0.0
  9
$UCSXDIR
 10
1.0
 20
0.0
 30
0.0
  9
$UCSYDIR
 10
0.0
 20
1.0
 30
0.0
  9
$PUCSNAME
  2

  9
$PUCSORG
 10
0.0
 20
0.0
 30
0.0
  9
$PUCSXDIR
 10
1.0
 20
0.0
 30
0.0
  9
$PUCSYDIR
 10
0.0
 20
1.0
 30
0.0
  9
$USERI1
 70
     0
  9
$USERI2
 70
     0
  9
$USERI3
 70
     0
  9
$USERI4
 70
     0
  9
$USERI5
 70
     0
  9
$USERR1
 40
0.0
  9
$USERR2
 40
0.0
  9
$USERR3
 40
0.0
  9
$USERR4
 40
0.0
  9
$USERR5
 40
0.0
  9
$WORLDVIEW
 70
     1
  9
$SHADEDGE
 70
     3
  9
$SHADEDIF
 70
    70
  9
$TILEMODE
 70
     1
  9
$MAXACTVP
 70
    16
  9
$PLIMCHECK
 70
     0
  9
$PEXTMIN
 10
1.0000000000000000E+020
 20
1.0000000000000000E+020
 30
1.0000000000000000E+020
  9
$PEXTMAX
 10
-1.0000000000000000E+020
 20
-1.0000000000000000E+020
 30
-1.0000000000000000E+020
  9
$PLIMMIN
 10
0.0
 20
0.0
  9
$PLIMMAX
 10
12.0
 20
9.0
  9
$UNITMODE
 70
     0
  9
$VISRETAIN
 70
     0
  9
$PLINEGEN
 70
     1
  9
$PSLTSCALE
 70
     0
  0
ENDSEC
  0
SECTION
  2
TABLES
  0
TABLE
  2
VPORT
 70
     2
  0
VPORT
  2
*ACTIVE
 70
     0
 10
0.0
 20
0.0
 11
1.0
 21
1.0
 12
102.7178592300572
 22
135.82454691251769
 13
0.0
 23
0.0
 14
1.0
 24
1.0
 15
0.0
 25
0.0
 16
0.0
 26
0.0
 36
1.0
 17
0.0
 27
0.0
 37
0.0
 40
1081.5858530837911
 41
1.743925233644859
 42
50.0
 43
0.0
 44
0.0
 50
0.0
 51
0.0
 71
     0
 72
   100
 73
     1
 74
     1
 75
     0
 76
     0
 77
     0
 78
     0
  0
ENDTAB
  0
TABLE
  2
LTYPE
 70
    11
  0
LTYPE
  2
CONTINUOUS
 70
     0
  3
Solid line
 72
    65
 73
     0
 40
0.0
  0
LTYPE
  2
VECTORWORKS_DASH_01
 70
     0
  3
(unavailable)
 72
    65
 73
     2
 40
2.116537475585937
 49
1.058074951171875
 49
-1.058462524414062
  0
LTYPE
  2
VECTORWORKS_DASH_02
 70
     0
  3
(unavailable)
 72
    65
 73
     2
 40
3.5276916503906239
 49
2.469229125976562
 49
-1.058462524414062
  0
LTYPE
  2
VECTORWORKS_DASH_03
 70
     0
  3
(unavailable)
 72
    65
 73
     2
 40
6.3499999999999988
 49
5.2915374755859359
 49
-1.058462524414062
  0
LTYPE
  2
VECTORWORKS_DASH_04
 70
     0
  3
(unavailable)
 72
    65
 73
     2
 40
7.7607666015624988
 49
6.7026916503906238
 49
-1.058074951171875
  0
LTYPE
  2
VECTORWORKS_DASH_05
 70
     0
  3
(unavailable)
 72
    65
 73
     2
 40
1.058074951171875
 49
0.352691650390625
 49
-0.70538330078125
  0
LTYPE
  2
VECTORWORKS_DASH_06
 70
     0
  3
(unavailable)
 72
    65
 73
     4
 40
5.2915374755859359
 49
3.1749999999999989
 49
-1.058074951171875
 49
0.352691650390625
 49
-0.7057708740234375
  0
LTYPE
  2
VECTORWORKS_DASH_07
 70
     0
  3
(unavailable)
 72
    65
 73
     6
 40
9.5249999999999986
 49
3.1749999999999989
 49
-1.058074951171875
 49
3.1749999999999989
 49
-1.058462524414062
 49
0.352691650390625
 49
-0.7057708740234375
  0
LTYPE
  2
VECTORWORKS_DASH_08
 70
     0
  3
(unavailable)
 72
    65
 73
     6
 40
6.3499999999999988
 49
3.1749999999999989
 49
-1.058074951171875
 49
0.352691650390625
 49
-0.7057708740234375
 49
0.352691650390625
 49
-0.7057708740234375
  0
LTYPE
  2
VECTORWORKS_DASH_09
 70
     0
  3
(unavailable)
 72
    65
 73
     4
 40
25.399999999999999
 49
19.04999999999999
 49
-1.411154174804687
 49
3.5276916503906239
 49
-1.411154174804687
  0
LTYPE
  2
VECTORWORKS_DASH_10
 70
     0
  3
(unavailable)
 72
    65
 73
     6
 40
30.162499999999991
 49
19.04999999999999
 49
-1.411154174804687
 49
3.5276916503906239
 49
-1.411154174804687
 49
3.1749999999999989
 49
-1.587499999999999
  0
ENDTAB
  0
TABLE
  2
LAYER
 70
     5
  0
LAYER
  2
0
 70
     0
 62
     7
  6
CONTINUOUS
  0
LAYER
  2
HIBINO-BASE
 70
     0
 62
     7
  6
CONTINUOUS
  0
LAYER
  2
SPEC
 70
     0
 62
     7
  6
CONTINUOUS
  0
LAYER
  2
DIMNSIONS
 70
     0
 62
     7
  6
CONTINUOUS
  0
LAYER
  2
DATA
 70
     0
 62
     7
  6
CONTINUOUS
  0
ENDTAB
  0
TABLE
  2
STYLE
 70
     1
  0
STYLE
  2
STANDARD
 70
     0
 40
0.0
 41
1.0
 50
0.0
 71
     0
 42
0.0
  3
txt
  4
BIGFONT.SHX
  0
ENDTAB
  0
TABLE
  2
VIEW
 70
     0
  0
ENDTAB
  0
TABLE
  2
UCS
 70
     0
  0
ENDTAB
  0
TABLE
  2
APPID
 70
     1
  0
APPID
  2
ACAD
 70
     0
  0
ENDTAB
  0
TABLE
  2
DIMSTYLE
 70
     1
  0
DIMSTYLE
  2
STANDARD
 70
     0
  3

  4

  5

  6

  7

 40
1.0
 41
0.18
 42
0.0625
 43
0.38
 44
0.18
 45
0.0
 46
0.0
 47
0.0
 48
0.0
140
0.18
141
0.09
142
0.0
143
25.399999999999999
144
1.0
145
0.0
146
1.0
147
0.09
 71
     0
 72
     0
 73
     1
 74
     1
 75
     0
 76
     0
 77
     0
 78
     0
170
     0
171
     2
172
     0
173
     0
174
     0
175
     0
176
     0
177
     0
178
     0
  0
ENDTAB
  0
ENDSEC
  0
SECTION
  2
BLOCKS
  0
BLOCK
  8
0
  2
$MODEL_SPACE
 70
     0
 10
0.0
 20
0.0
 30
0.0
  3
$MODEL_SPACE
  1

  0
ENDBLK
  5
1C3
  8
0
  0
BLOCK
 67
     1
  8
0
  2
$PAPER_SPACE
 70
     0
 10
0.0
 20
0.0
 30
0.0
  3
$PAPER_SPACE
  1

  0
ENDBLK
  5
1C1
 67
     1
  8
0
  0
BLOCK
  8
DIMNSIONS
  2
*G0
 70
     1
 10
0.0
 20
0.0
 30
0.0
  3
*G0
  1

  0
TEXT
  5
34
  8
DIMNSIONS
 62
     7
 10
-250.40000000000001
 20
266.53999999999991
 30
0.0
 40
10.16
  1
13.5
 11
-250.40000000000001
 21
276.69999999999987
 31
0.0
 73
     3
  0
ENDBLK
  5
35
  8
DIMNSIONS
  0
BLOCK
  8
DIMNSIONS
  2
*G1
 70
     1
 10
0.0
 20
0.0
 30
0.0
  3
*G1
  1

  0
TEXT
  5
37
  8
DIMNSIONS
 62
     7
 10
-256.53999999999991
 20
202.0509999999999
 30
0.0
 40
10.16
  1
36.5
 50
90.0
 11
-266.69999999999987
 21
202.0509999999999
 31
0.0
 73
     3
  0
ENDBLK
  5
38
  8
DIMNSIONS
  0
BLOCK
  8
DIMNSIONS
  2
*G2
 70
     1
 10
0.0
 20
0.0
 30
0.0
  3
*G2
  1

  0
TEXT
  5
3A
  8
DIMNSIONS
 62
     7
 10
-256.53999999999991
 20
147.0509999999999
 30
0.0
 40
10.16
  1
73.5
 50
90.0
 11
-266.69999999999987
 21
147.0509999999999
 31
0.0
 73
     3
  0
ENDBLK
  5
3B
  8
DIMNSIONS
  0
BLOCK
  8
DIMNSIONS
  2
*G3
 70
     1
 10
0.0
 20
0.0
 30
0.0
  3
*G3
  1

  0
TEXT
  5
3D
  8
DIMNSIONS
 62
     7
 10
-256.53999999999991
 20
-26.123999999999999
 30
0.0
 40
10.16
  1
266.5
 50
90.0
 11
-266.69999999999987
 21
-26.123999999999999
 31
0.0
 73
     3
  0
ENDBLK
  5
3E
  8
DIMNSIONS
  0
BLOCK
  8
DIMNSIONS
  2
*G4
 70
     1
 10
0.0
 20
0.0
 30
0.0
  3
*G4
  1

  0
TEXT
  5
40
  8
DIMNSIONS
 62
     7
 10
-256.53999999999991
 20
-186.3489999999999
 30
0.0
 40
10.16
  1
73
 50
90.0
 11
-266.69999999999987
 21
-186.3489999999999
 31
0.0
 73
     3
  0
ENDBLK
  5
41
  8
DIMNSIONS
  0
BLOCK
  8
DIMNSIONS
  2
*G5
 70
     1
 10
0.0
 20
0.0
 30
0.0
  3
*G5
  1

  0
TEXT
  5
43
  8
DIMNSIONS
 62
     7
 10
-256.53999999999991
 20
-294.12450000000001
 30
0.0
 40
10.16
  1
123.5
 50
90.0
 11
-266.69999999999987
 21
-294.12450000000001
 31
0.0
 73
     3
  0
ENDBLK
  5
44
  8
DIMNSIONS
  0
BLOCK
  8
DIMNSIONS
  2
*G6
 70
     1
 10
0.0
 20
0.0
 30
0.0
  3
*G6
  1

  0
TEXT
  5
46
  8
DIMNSIONS
 62
     7
 10
-237.6999999999999
 20
-383.45999999999998
 30
0.0
 40
10.16
  1
19
 11
-237.6999999999999
 21
-373.30000000000001
 31
0.0
 73
     3
  0
ENDBLK
  5
47
  8
DIMNSIONS
  0
BLOCK
  8
DIMNSIONS
  2
*G7
 70
     1
 10
0.0
 20
0.0
 30
0.0
  3
*G7
  1

  0
TEXT
  5
49
  8
DIMNSIONS
 62
     7
 10
-306.53999999999991
 20
-63.024500000000003
 30
0.0
 40
10.16
  1
573
 50
90.0
 11
-316.69999999999987
 21
-63.024500000000003
 31
0.0
 73
     3
  0
ENDBLK
  5
4A
  8
DIMNSIONS
  0
ENDSEC
  0
SECTION
  2
ENTITIES
  0
LINE
  5
4B
  8
HIBINO-BASE
  6
CONTINUOUS
 62
     7
 10
-260.0
 20
670.59540000000004
 30
0.0
 11
460.0
 21
670.59540000000004
 31
0.0
  0
LINE
  5
4C
  8
HIBINO-BASE
  6
CONTINUOUS
 62
     7
 10
460.0
 20
-369.40460000000002
 30
0.0
 11
-260.0
 21
-369.40460000000002
 31
0.0
  0
LINE
  5
4D
  8
HIBINO-BASE
  6
CONTINUOUS
 62
     7
 10
-260.0
 20
-369.40460000000002
 30
0.0
 11
-260.0
 21
670.59540000000004
 31
0.0
  0
TEXT
  5
4E
  8
HIBINO-BASE
 62
     7
 10
-231.26400000000001
 20
-393.91643999999991
 30
0.0
 40
14.97024
  1
Hibino Corporation
 11
-231.26400000000001
 21
-378.94619999999992
 31
0.0
 73
     3
  0
LINE
  5
4F
  8
HIBINO-BASE
  6
CONTINUOUS
 62
     7
 10
460.0
 20
670.59540000000004
 30
0.0
 11
460.0
 21
-369.40460000000002
 31
0.0
  0
LINE
  5
50
  8
HIBINO-BASE
  6
CONTINUOUS
 62
     7
 10
100.0
 20
-279.40460000000002
 30
0.0
 11
460.0
 21
-279.40460000000002
 31
0.0
  0
LINE
  5
51
  8
HIBINO-BASE
  6
CONTINUOUS
 62
     7
 10
100.0
 20
-369.40460000000002
 30
0.0
 11
100.0
 21
-279.40460000000002
 31
0.0
  0
TEXT
  5
52
  8
HIBINO-BASE
 62
     7
 10
103.59999999999999
 20
-289.64332000000002
 30
0.0
 40
7.4851200000000002
  1
NOTE
 11
103.59999999999999
 21
-282.15820000000002
 31
0.0
 73
     3
  0
LINE
  5
53
  8
HIBINO-BASE
  6
CONTINUOUS
 62
     7
 10
240.0
 20
-369.40460000000002
 30
0.0
 11
240.0
 21
-279.40460000000002
 31
0.0
  0
TEXT
  5
54
  8
HIBINO-BASE
 62
     7
 10
243.59999999999991
 20
-289.64332000000002
 30
0.0
 40
7.4851200000000002
  1
TITLE
 11
243.59999999999991
 21
-282.15820000000002
 31
0.0
 73
     3
  0
TEXT
  5
55
  8
HIBINO-BASE
 62
     7
 10
300.27359999999999
 20
-393.91643999999991
 30
0.0
 40
14.97024
  1
ヒビノ株式会社
 11
300.27359999999999
 21
-378.94619999999992
 31
0.0
 73
     3
  0
LINE
  5
56
  8
HIBINO-BASE
  6
CONTINUOUS
 62
     7
 10
100.0
 20
-329.40460000000002
 30
0.0
 11
460.0
 21
-329.40460000000002
 31
0.0
  0
TEXT
  5
57
  8
HIBINO-BASE
 62
     7
 10
293.60000000000002
 20
-339.41771999999992
 30
0.0
 40
7.4851200000000002
  1
DRAWN
 11
293.60000000000002
 21
-331.93259999999992
 31
0.0
 73
     3
  0
TEXT
  5
58
  8
HIBINO-BASE
 62
     7
 10
193.59999999999991
 20
-339.41771999999992
 30
0.0
 40
7.4851200000000002
  1
DATE
 11
193.59999999999991
 21
-331.93259999999992
 31
0.0
 73
     3
  0
TEXT
  5
59
  8
HIBINO-BASE
 62
     7
 10
104.40000000000001
 20
-339.37443999999999
 30
0.0
 40
6.773439999999999
  1
図面サイズ
 11
104.40000000000001
 21
-332.601
 31
0.0
 73
     3
  0
TEXT
  5
5A
  8
HIBINO-BASE
 62
     7
 10
153.59999999999999
 20
-339.41771999999992
 30
0.0
 40
7.4851200000000002
  1
SCALE
 11
153.59999999999999
 21
-331.93259999999992
 31
0.0
 73
     3
  0
TEXT
  5
5B
  8
HIBINO-BASE
 62
     7
 10
243.59999999999991
 20
-339.41771999999992
 30
0.0
 40
7.4851200000000002
  1
DESIGN
 11
243.59999999999991
 21
-331.93259999999992
 31
0.0
 73
     3
  0
TEXT
  5
5C
  8
HIBINO-BASE
 62
     7
 10
393.60000000000002
 20
-339.41771999999992
 30
0.0
 40
7.4851200000000002
  1
DRAWING NO.
 11
393.60000000000002
 21
-331.93259999999992
 31
0.0
 73
     3
  0
TEXT
  5
5D
  8
HIBINO-BASE
 62
     7
 10
343.60000000000002
 20
-339.41771999999992
 30
0.0
 40
7.4851200000000002
  1
CHECK
 11
343.60000000000002
 21
-331.93259999999992
 31
0.0
 73
     3
  0
LINE
  5
5E
  8
HIBINO-BASE
  6
CONTINUOUS
 62
     7
 10
157.5
 20
-364.40460000000002
 30
0.0
 11
172.5
 21
-349.40460000000002
 31
0.0
  0
TEXT
  5
5F
  8
HIBINO-BASE
 62
     7
 10
155.0
 20
-355.59003999999999
 30
0.0
 40
9.0310400000000008
  1
1
 11
155.0
 21
-346.55900000000003
 31
0.0
 73
     3
  0
LINE
  5
60
  8
HIBINO-BASE
  6
CONTINUOUS
 62
     7
 10
150.0
 20
-369.40460000000002
 30
0.0
 11
150.0
 21
-329.40460000000002
 31
0.0
  0
LINE
  5
61
  8
HIBINO-BASE
  6
CONTINUOUS
 62
     7
 10
190.0
 20
-369.40460000000002
 30
0.0
 11
190.0
 21
-329.40460000000002
 31
0.0
  0
LINE
  5
62
  8
HIBINO-BASE
  6
CONTINUOUS
 62
     7
 10
290.0
 20
-329.40460000000002
 30
0.0
 11
290.0
 21
-369.40460000000002
 31
0.0
  0
LINE
  5
63
  8
HIBINO-BASE
  6
CONTINUOUS
 62
     7
 10
390.0
 20
-329.40460000000002
 30
0.0
 11
390.0
 21
-369.40460000000002
 31
0.0
  0
LINE
  5
64
  8
HIBINO-BASE
  6
CONTINUOUS
 62
     7
 10
340.0
 20
-369.40460000000002
 30
0.0
 11
340.0
 21
-329.40460000000002
 31
0.0
  0
TEXT
  5
65
  8
HIBINO-BASE
 62
     7
 10
115.64360000000001
 20
-358.39476000000002
 30
0.0
 40
13.546559999999999
  1
A4
 11
115.64360000000001
 21
-344.84820000000002
 31
0.0
 73
     3
  0
TEXT
  5
66
  8
HIBINO-BASE
 62
     7
 10
193.4259999999999
 20
-358.15372000000002
 30
0.0
 40
7.4851200000000002
  1
'95.02.
 11
193.4259999999999
 21
-350.66860000000003
 31
0.0
 73
     3
  0
TEXT
  5
67
  8
HIBINO-BASE
 62
     7
 10
170.0
 20
-363.09003999999999
 30
0.0
 40
9.0310400000000008
  1
4
 11
170.0
 21
-354.05900000000003
 31
0.0
 73
     3
  0
LINE
  5
68
  8
SPEC
  6
CONTINUOUS
 62
     7
 10
-230.0
 20
630.59539999999993
 30
0.0
 11
100.0
 21
630.59539999999993
 31
0.0
  0
LINE
  5
69
  8
SPEC
  6
CONTINUOUS
 62
     7
 10
-230.0
 20
615.59539999999993
 30
0.0
 11
100.0
 21
615.59539999999993
 31
0.0
  0
LINE
  5
6A
  8
SPEC
  6
CONTINUOUS
 62
     7
 10
-230.0
 20
555.59539999999981
 30
0.0
 11
100.0
 21
555.59539999999981
 31
0.0
  0
LINE
  5
6B
  8
SPEC
  6
CONTINUOUS
 62
     7
 10
-230.0
 20
570.59539999999993
 30
0.0
 11
100.0
 21
570.59539999999993
 31
0.0
  0
LINE
  5
6C
  8
SPEC
  6
CONTINUOUS
 62
     7
 10
-230.0
 20
585.59539999999993
 30
0.0
 11
100.0
 21
585.59539999999993
 31
0.0
  0
LINE
  5
6D
  8
SPEC
  6
CONTINUOUS
 62
     7
 10
-230.0
 20
540.59539999999993
 30
0.0
 11
100.0
 21
540.59539999999993
 31
0.0
  0
LINE
  5
6E
  8
SPEC
  6
CONTINUOUS
 62
     7
 10
-230.0
 20
510.59539999999993
 30
0.0
 11
100.0
 21
510.59539999999993
 31
0.0
  0
LINE
  5
6F
  8
SPEC
  6
CONTINUOUS
 62
     7
 10
-230.0
 20
525.59539999999993
 30
0.0
 11
100.0
 21
525.59539999999993
 31
0.0
  0
LINE
  5
70
  8
SPEC
  6
CONTINUOUS
 62
     7
 10
-230.0
 20
495.59539999999998
 30
0.0
 11
100.0
 21
495.59539999999998
 31
0.0
  0
LINE
  5
71
  8
SPEC
  6
CONTINUOUS
 62
     7
 10
-230.0
 20
480.59539999999993
 30
0.0
 11
100.0
 21
480.59539999999993
 31
0.0
  0
LINE
  5
72
  8
SPEC
  6
CONTINUOUS
 62
     7
 10
-230.0
 20
600.59539999999993
 30
0.0
 11
100.0
 21
600.59539999999993
 31
0.0
  0
TEXT
  5
73
  8
SPEC
 62
     7
 10
-96.400000000000006
 20
619.33972000000006
 30
0.0
 40
7.9020799999999989
  1
エレクトレット・コンデンサー
 11
-96.400000000000006
 21
627.24180000000001
 31
0.0
 73
     3
  0
LINE
  5
74
  8
SPEC
  6
CONTINUOUS
 62
     7
 10
-230.0
 20
630.59539999999993
 30
0.0
 11
-230.0
 21
465.59539999999998
 31
0.0
  0
TEXT
  5
75
  8
SPEC
 62
     7
 10
-225.0
 20
636.93060000000003
 30
0.0
 40
10.16
  1
仕様
 11
-225.0
 21
647.09059999999999
 31
0.0
 73
     3
  0
LINE
  5
76
  8
SPEC
  6
CONTINUOUS
 62
     7
 10
-100.0
 20
630.59539999999993
 30
0.0
 11
-100.0
 21
465.59539999999998
 31
0.0
  0
LINE
  5
77
  8
SPEC
  6
CONTINUOUS
 62
     7
 10
100.0
 20
630.59539999999993
 30
0.0
 11
100.0
 21
465.59539999999998
 31
0.0
  0
TEXT
  5
78
  8
SPEC
 62
     7
 10
-96.400000000000006
 20
484.33972
 30
0.0
 40
7.9020799999999989
  1
直径19mm×長573mm
 11
-96.400000000000006
 21
492.24180000000001
 31
0.0
 73
     3
  0
TEXT
  5
79
  8
SPEC
 62
     7
 10
-96.400000000000006
 20
499.33972
 30
0.0
 40
7.9020799999999989
  1
黒
 11
-96.400000000000006
 21
507.2417999999999
 31
0.0
 73
     3
  0
TEXT
  5
7A
  8
SPEC
 62
     7
 10
-226.39999999999989
 20
559.33972000000006
 30
0.0
 40
7.9020799999999989
  1
インピーダンス
 11
-226.39999999999989
 21
567.24180000000001
 31
0.0
 73
     3
  0
TEXT
  5
7B
  8
SPEC
 62
     7
 10
-226.39999999999989
 20
619.33972000000006
 30
0.0
 40
7.9020799999999989
  1
形式
 11
-226.39999999999989
 21
627.24180000000001
 31
0.0
 73
     3
  0
TEXT
  5
7C
  8
SPEC
 62
     7
 10
-226.39999999999989
 20
469.33971999999989
 30
0.0
 40
7.9020799999999989
  1
重量
 11
-226.39999999999989
 21
477.24180000000001
 31
0.0
 73
     3
  0
TEXT
  5
7D
  8
SPEC
 62
     7
 10
-226.39999999999989
 20
529.33972000000006
 30
0.0
 40
7.9020799999999989
  1
最大音圧レベル
 11
-226.39999999999989
 21
537.24180000000001
 31
0.0
 73
     3
  0
TEXT
  5
7E
  8
SPEC
 62
     7
 10
-226.39999999999989
 20
514.33972000000006
 30
0.0
 40
7.9020799999999989
  1
電源
 11
-226.39999999999989
 21
522.24180000000001
 31
0.0
 73
     3
  0
TEXT
  5
7F
  8
SPEC
 62
     7
 10
-226.39999999999989
 20
574.33972000000006
 30
0.0
 40
7.9020799999999989
  1
開回路感度
 11
-226.39999999999989
 21
582.2417999999999
 31
0.0
 73
     3
  0
TEXT
  5
80
  8
SPEC
 62
     7
 10
-226.39999999999989
 20
544.33972000000006
 30
0.0
 40
7.9020799999999989
  1
等価雑音レベル
 11
-226.39999999999989
 21
552.24180000000001
 31
0.0
 73
     3
  0
TEXT
  5
81
  8
SPEC
 62
     7
 10
-226.39999999999989
 20
604.33972000000006
 30
0.0
 40
7.9020799999999989
  1
指向特性
 11
-226.39999999999989
 21
612.24180000000001
 31
0.0
 73
     3
  0
TEXT
  5
82
  8
SPEC
 62
     7
 10
-226.39999999999989
 20
589.33972000000006
 30
0.0
 40
7.9020799999999989
  1
周波数特性
 11
-226.39999999999989
 21
597.24180000000001
 31
0.0
 73
     3
  0
TEXT
  5
83
  8
SPEC
 62
     7
 10
-226.39999999999989
 20
499.33972
 30
0.0
 40
7.9020799999999989
  1
色
 11
-226.39999999999989
 21
507.2417999999999
 31
0.0
 73
     3
  0
TEXT
  5
84
  8
SPEC
 62
     7
 10
-226.39999999999989
 20
484.33972
 30
0.0
 40
7.9020799999999989
  1
寸法
 11
-226.39999999999989
 21
492.24180000000001
 31
0.0
 73
     3
  0
TEXT
  5
85
  8
SPEC
 62
     7
 10
-96.400000000000006
 20
559.33972000000006
 30
0.0
 40
7.9020799999999989
  1
150Ω
 11
-96.400000000000006
 21
567.24180000000001
 31
0.0
 73
     3
  0
TEXT
  5
86
  8
SPEC
 62
     7
 10
-96.400000000000006
 20
529.33972000000006
 30
0.0
 40
7.9020799999999989
  1
120dB SPL(3%%%THD)
 11
-96.400000000000006
 21
537.24180000000001
 31
0.0
 73
     3
  0
TEXT
  5
87
  8
SPEC
 62
     7
 10
-96.400000000000006
 20
514.33972000000006
 30
0.0
 40
7.9020799999999989
  1
ファンタム12V～48V/3.5mA
 11
-96.400000000000006
 21
522.24180000000001
 31
0.0
 73
     3
  0
TEXT
  5
88
  8
SPEC
 62
     7
 10
-96.400000000000006
 20
469.33971999999989
 30
0.0
 40
7.9020799999999989
  1
約159g
 11
-96.400000000000006
 21
477.24180000000001
 31
0.0
 73
     3
  0
TEXT
  5
89
  8
SPEC
 62
     7
 10
-96.400000000000006
 20
574.33972000000006
 30
0.0
 40
7.9020799999999989
  1
-44.5dB re 1V/Pa
 11
-96.400000000000006
 21
582.2417999999999
 31
0.0
 73
     3
  0
TEXT
  5
8A
  8
SPEC
 62
     7
 10
-96.400000000000006
 20
544.33972000000006
 30
0.0
 40
7.9020799999999989
  1
28dB SPL(Aウエイト)
 11
-96.400000000000006
 21
552.24180000000001
 31
0.0
 73
     3
  0
TEXT
  5
8B
  8
SPEC
 62
     7
 10
-96.400000000000006
 20
589.33972000000006
 30
0.0
 40
7.9020799999999989
  1
80Hz～15kHz
 11
-96.400000000000006
 21
597.24180000000001
 31
0.0
 73
     3
  0
TEXT
  5
8C
  8
SPEC
 62
     7
 10
-96.400000000000006
 20
604.33972000000006
 30
0.0
 40
7.9020799999999989
  1
スーパーカーディオイド
 11
-96.400000000000006
 21
612.24180000000001
 31
0.0
 73
     3
  0
LINE
  5
8D
  8
SPEC
  6
CONTINUOUS
 62
     7
 10
-230.0
 20
465.59539999999998
 30
0.0
 11
100.0
 21
465.59539999999998
 31
0.0
  0
TEXT
  5
8E
  8
DIMNSIONS
 62
     7
 10
20.0
 20
-319.56459999999998
 30
0.0
 40
10.16
  1
(単位：mm)
 11
20.0
 21
-309.40460000000002
 31
0.0
 73
     3
  0
LINE
  5
8F
  8
DIMNSIONS
  6
CONTINUOUS
 62
     7
 10
-97.250000000000014
 20
379.00099999999992
 30
0.0
 11
-97.250000000000014
 21
408.0
 31
0.0
  0
LINE
  5
90
  8
DIMNSIONS
  6
CONTINUOUS
 62
     7
 10
-83.75
 20
379.00099999999992
 30
0.0
 11
-83.75
 21
408.0
 31
0.0
  0
LINE
  5
91
  8
DIMNSIONS
  6
CONTINUOUS
 62
     7
 10
-83.75
 20
400.0
 30
0.0
 11
-97.250000000000014
 21
400.0
 31
0.0
  0
LINE
  5
93
  8
DIMNSIONS
 62
     7
 10
-97.250000000000014
 20
400.0
 30
0.0
 11
-109.9499999999999
 21
396.59703999999999
 31
0.0
  0
LINE
  5
94
  8
DIMNSIONS
 62
     7
 10
-97.250000000000014
 20
400.0
 30
0.0
 11
-109.9499999999999
 21
403.40294999999992
 31
0.0
  0
LINE
  5
92
  8
DIMNSIONS
  6
CONTINUOUS
 62
     7
 10
-97.250000000000014
 20
400.0
 30
0.0
 11
-150.40000000000001
 21
400.0
 31
0.0
  0
LINE
  5
96
  8
DIMNSIONS
 62
     7
 10
-83.75
 20
400.0
 30
0.0
 11
-71.050009999999986
 21
403.40294999999992
 31
0.0
  0
LINE
  5
97
  8
DIMNSIONS
 62
     7
 10
-83.75
 20
400.0
 30
0.0
 11
-71.050009999999986
 21
396.59703999999999
 31
0.0
  0
LINE
  5
95
  8
DIMNSIONS
  6
CONTINUOUS
 62
     7
 10
-83.75
 20
400.0
 30
0.0
 11
-63.75
 21
400.0
 31
0.0
  0
INSERT
  5
98
  8
DIMNSIONS
  2
*G0
 10
100.0
 20
140.0
 30
0.0
  0
LINE
  5
99
  8
DIMNSIONS
  6
CONTINUOUS
 62
     7
 10
-103.4999999999999
 20
373.00099999999998
 30
0.0
 11
-158.0
 21
373.00099999999998
 31
0.0
  0
LINE
  5
9A
  8
DIMNSIONS
  6
CONTINUOUS
 62
     7
 10
-102.4999999999999
 20
336.50099999999992
 30
0.0
 11
-158.0
 21
336.50099999999992
 31
0.0
  0
LINE
  5
9C
  8
DIMNSIONS
 62
     7
 10
-150.0
 20
373.00099999999998
 30
0.0
 11
-146.59705
 21
360.30099999999987
 31
0.0
  0
LINE
  5
9D
  8
DIMNSIONS
 62
     7
 10
-150.0
 20
373.00099999999998
 30
0.0
 11
-153.40296000000001
 21
360.30099999999987
 31
0.0
  0
LINE
  5
9E
  8
DIMNSIONS
 62
     7
 10
-150.0
 20
336.50099999999992
 30
0.0
 11
-153.40296000000001
 21
349.20098999999988
 31
0.0
  0
LINE
  5
9F
  8
DIMNSIONS
 62
     7
 10
-150.0
 20
336.50099999999992
 30
0.0
 11
-146.59705
 21
349.20098999999988
 31
0.0
  0
LINE
  5
9B
  8
DIMNSIONS
  6
CONTINUOUS
 62
     7
 10
-150.0
 20
373.00099999999998
 30
0.0
 11
-150.0
 21
336.50099999999992
 31
0.0
  0
INSERT
  5
A0
  8
DIMNSIONS
  2
*G1
 10
100.0
 20
140.0
 30
0.0
  0
LINE
  5
A1
  8
DIMNSIONS
  6
CONTINUOUS
 62
     7
 10
-102.4999999999999
 20
336.50099999999992
 30
0.0
 11
-158.0
 21
336.50099999999992
 31
0.0
  0
LINE
  5
A2
  8
DIMNSIONS
  6
CONTINUOUS
 62
     7
 10
-101.75
 20
263.00099999999992
 30
0.0
 11
-158.0
 21
263.00099999999992
 31
0.0
  0
LINE
  5
A4
  8
DIMNSIONS
 62
     7
 10
-150.0
 20
336.50099999999992
 30
0.0
 11
-146.59705
 21
323.80099999999999
 31
0.0
  0
LINE
  5
A5
  8
DIMNSIONS
 62
     7
 10
-150.0
 20
336.50099999999992
 30
0.0
 11
-153.40296000000001
 21
323.80099999999999
 31
0.0
  0
LINE
  5
A6
  8
DIMNSIONS
 62
     7
 10
-150.0
 20
263.00099999999992
 30
0.0
 11
-153.40296000000001
 21
275.70098999999988
 31
0.0
  0
LINE
  5
A7
  8
DIMNSIONS
 62
     7
 10
-150.0
 20
263.00099999999992
 30
0.0
 11
-146.59705
 21
275.70098999999988
 31
0.0
  0
LINE
  5
A3
  8
DIMNSIONS
  6
CONTINUOUS
 62
     7
 10
-150.0
 20
336.50099999999992
 30
0.0
 11
-150.0
 21
263.00099999999992
 31
0.0
  0
INSERT
  5
A8
  8
DIMNSIONS
  2
*G2
 10
100.0
 20
140.0
 30
0.0
  0
LINE
  5
A9
  8
DIMNSIONS
  6
CONTINUOUS
 62
     7
 10
-101.75
 20
263.00099999999992
 30
0.0
 11
-158.0
 21
263.00099999999992
 31
0.0
  0
LINE
  5
AA
  8
DIMNSIONS
  6
CONTINUOUS
 62
     7
 10
-102.2499999999999
 20
-3.4989999999999948
 30
0.0
 11
-158.0
 21
-3.4989999999999948
 31
0.0
  0
LINE
  5
AC
  8
DIMNSIONS
 62
     7
 10
-150.0
 20
263.00099999999992
 30
0.0
 11
-146.59705
 21
250.3009999999999
 31
0.0
  0
LINE
  5
AD
  8
DIMNSIONS
 62
     7
 10
-150.0
 20
263.00099999999992
 30
0.0
 11
-153.40296000000001
 21
250.3009999999999
 31
0.0
  0
LINE
  5
AE
  8
DIMNSIONS
 62
     7
 10
-150.0
 20
-3.4989999999999948
 30
0.0
 11
-153.40296000000001
 21
9.2009899999999902
 31
0.0
  0
LINE
  5
AF
  8
DIMNSIONS
 62
     7
 10
-150.0
 20
-3.4989999999999948
 30
0.0
 11
-146.59705
 21
9.2009899999999902
 31
0.0
  0
LINE
  5
AB
  8
DIMNSIONS
  6
CONTINUOUS
 62
     7
 10
-150.0
 20
263.00099999999992
 30
0.0
 11
-150.0
 21
-3.4989999999999948
 31
0.0
  0
INSERT
  5
B0
  8
DIMNSIONS
  2
*G3
 10
100.0
 20
140.0
 30
0.0
  0
LINE
  5
B1
  8
DIMNSIONS
  6
CONTINUOUS
 62
     7
 10
-102.2499999999999
 20
-3.4989999999999948
 30
0.0
 11
-158.0
 21
-3.4989999999999948
 31
0.0
  0
LINE
  5
B2
  8
DIMNSIONS
  6
CONTINUOUS
 62
     7
 10
-103.4999999999999
 20
-76.498999999999995
 30
0.0
 11
-158.0
 21
-76.498999999999995
 31
0.0
  0
LINE
  5
B4
  8
DIMNSIONS
 62
     7
 10
-150.0
 20
-3.4989999999999948
 30
0.0
 11
-146.59705
 21
-16.199000000000009
 31
0.0
  0
LINE
  5
B5
  8
DIMNSIONS
 62
     7
 10
-150.0
 20
-3.4989999999999948
 30
0.0
 11
-153.40296000000001
 21
-16.199000000000009
 31
0.0
  0
LINE
  5
B6
  8
DIMNSIONS
 62
     7
 10
-150.0
 20
-76.498999999999995
 30
0.0
 11
-153.40296000000001
 21
-63.79901000000001
 31
0.0
  0
LINE
  5
B7
  8
DIMNSIONS
 62
     7
 10
-150.0
 20
-76.498999999999995
 30
0.0
 11
-146.59705
 21
-63.79901000000001
 31
0.0
  0
LINE
  5
B3
  8
DIMNSIONS
  6
CONTINUOUS
 62
     7
 10
-150.0
 20
-3.4989999999999948
 30
0.0
 11
-150.0
 21
-76.498999999999995
 31
0.0
  0
INSERT
  5
B8
  8
DIMNSIONS
  2
*G4
 10
100.0
 20
140.0
 30
0.0
  0
LINE
  5
B9
  8
DIMNSIONS
  6
CONTINUOUS
 62
     7
 10
-103.4999999999999
 20
-76.498999999999995
 30
0.0
 11
-158.0
 21
-76.498999999999995
 31
0.0
  0
LINE
  5
BA
  8
DIMNSIONS
  6
CONTINUOUS
 62
     7
 10
-108.0
 20
-200.0
 30
0.0
 11
-158.0
 21
-200.0
 31
0.0
  0
LINE
  5
BC
  8
DIMNSIONS
 62
     7
 10
-150.0
 20
-76.498999999999995
 30
0.0
 11
-146.59705
 21
-89.199000000000012
 31
0.0
  0
LINE
  5
BD
  8
DIMNSIONS
 62
     7
 10
-150.0
 20
-76.498999999999995
 30
0.0
 11
-153.40296000000001
 21
-89.199000000000012
 31
0.0
  0
LINE
  5
BE
  8
DIMNSIONS
 62
     7
 10
-150.0
 20
-200.0
 30
0.0
 11
-153.40296000000001
 21
-187.3000099999999
 31
0.0
  0
LINE
  5
BF
  8
DIMNSIONS
 62
     7
 10
-150.0
 20
-200.0
 30
0.0
 11
-146.59705
 21
-187.3000099999999
 31
0.0
  0
LINE
  5
BB
  8
DIMNSIONS
  6
CONTINUOUS
 62
     7
 10
-150.0
 20
-76.498999999999995
 30
0.0
 11
-150.0
 21
-200.0
 31
0.0
  0
INSERT
  5
C0
  8
DIMNSIONS
  2
*G5
 10
100.0
 20
140.0
 30
0.0
  0
LINE
  5
C1
  8
DIMNSIONS
  6
CONTINUOUS
 62
     7
 10
-100.0
 20
-208.0
 30
0.0
 11
-100.0
 21
-258.0
 31
0.0
  0
LINE
  5
C2
  8
DIMNSIONS
  6
CONTINUOUS
 62
     7
 10
-81.0
 20
-208.0
 30
0.0
 11
-81.0
 21
-258.0
 31
0.0
  0
LINE
  5
C3
  8
DIMNSIONS
  6
CONTINUOUS
 62
     7
 10
-81.0
 20
-250.0
 30
0.0
 11
-100.0
 21
-250.0
 31
0.0
  0
LINE
  5
C5
  8
DIMNSIONS
 62
     7
 10
-100.0
 20
-250.0
 30
0.0
 11
-112.7
 21
-253.40296000000001
 31
0.0
  0
LINE
  5
C6
  8
DIMNSIONS
 62
     7
 10
-100.0
 20
-250.0
 30
0.0
 11
-112.7
 21
-246.59705
 31
0.0
  0
LINE
  5
C4
  8
DIMNSIONS
  6
CONTINUOUS
 62
     7
 10
-100.0
 20
-250.0
 30
0.0
 11
-137.69999999999999
 21
-250.0
 31
0.0
  0
LINE
  5
C8
  8
DIMNSIONS
 62
     7
 10
-81.0
 20
-250.0
 30
0.0
 11
-68.300009999999986
 21
-246.59705
 31
0.0
  0
LINE
  5
C9
  8
DIMNSIONS
 62
     7
 10
-81.0
 20
-250.0
 30
0.0
 11
-68.300009999999986
 21
-253.40296000000001
 31
0.0
  0
LINE
  5
C7
  8
DIMNSIONS
  6
CONTINUOUS
 62
     7
 10
-81.0
 20
-250.0
 30
0.0
 11
-61.0
 21
-250.0
 31
0.0
  0
INSERT
  5
CA
  8
DIMNSIONS
  2
*G6
 10
100.0
 20
140.0
 30
0.0
  0
LINE
  5
CB
  8
DIMNSIONS
  6
CONTINUOUS
 62
     7
 10
-108.0
 20
-200.0
 30
0.0
 11
-208.0
 21
-200.0
 31
0.0
  0
LINE
  5
CC
  8
DIMNSIONS
  6
CONTINUOUS
 62
     7
 10
-103.4999999999999
 20
373.00099999999998
 30
0.0
 11
-208.0
 21
373.00099999999998
 31
0.0
  0
LINE
  5
CE
  8
DIMNSIONS
 62
     7
 10
-200.0
 20
-200.0
 30
0.0
 11
-203.40296000000001
 21
-187.3000099999999
 31
0.0
  0
LINE
  5
CF
  8
DIMNSIONS
 62
     7
 10
-200.0
 20
-200.0
 30
0.0
 11
-196.59705
 21
-187.3000099999999
 31
0.0
  0
LINE
  5
D0
  8
DIMNSIONS
 62
     7
 10
-200.0
 20
373.00099999999998
 30
0.0
 11
-196.59705
 21
360.30099999999987
 31
0.0
  0
LINE
  5
D1
  8
DIMNSIONS
 62
     7
 10
-200.0
 20
373.00099999999998
 30
0.0
 11
-203.40296000000001
 21
360.30099999999987
 31
0.0
  0
LINE
  5
CD
  8
DIMNSIONS
  6
CONTINUOUS
 62
     7
 10
-200.0
 20
-200.0
 30
0.0
 11
-200.0
 21
373.00099999999998
 31
0.0
  0
INSERT
  5
D2
  8
DIMNSIONS
  2
*G7
 10
100.0
 20
140.0
 30
0.0
  0
TEXT
  5
D3
  8
DATA
 62
     7
 10
300.0
 20
-324.11900000000003
 30
0.0
 40
10.16
  1
LM-300AL
 11
300.0
 21
-313.959
 31
0.0
 73
     3
  0
TEXT
  5
D4
  8
DATA
 62
     7
 10
300.0
 20
-295.11900000000003
 30
0.0
 40
10.16
  1
Amcron
 11
300.0
 21
-284.959
 31
0.0
 73
     3
  0
TEXT
  5
D5
  8
DATA
 62
     7
 10
290.0
 20
-309.28084000000001
 30
0.0
 40
6.773439999999999
  1
デュアル・グーズネック
 11
290.0
 21
-302.50740000000002
 31
0.0
 73
     3
  0
LINE
  5
D6
  8
DATA
  6
CONTINUOUS
 62
     7
 10
38.959000000000003
 20
15.79699999999999
 30
0.0
 11
156.459
 21
219.31299999999999
 31
0.0
  0
LINE
  5
D7
  8
DATA
  6
CONTINUOUS
 62
     7
 10
33.329999999999998
 20
19.04699999999999
 30
0.0
 11
150.83000000000001
 21
222.5629999999999
 31
0.0
  0
LINE
  5
D8
  8
DATA
  6
CONTINUOUS
 62
     7
 10
-93.75
 20
28.001000000000001
 30
0.0
 11
-93.75
 21
263.00099999999992
 31
0.0
  0
LINE
  5
D9
  8
DATA
  6
CONTINUOUS
 62
     7
 10
-87.249999999999986
 20
28.001000000000001
 30
0.0
 11
-87.249999999999986
 21
263.00099999999992
 31
0.0
  0
LINE
  5
DA
  8
DATA
  6
CONTINUOUS
 62
     7
 10
-81.0
 20
-90.498999999999995
 30
0.0
 11
-81.0
 21
-200.0
 31
0.0
  0
LINE
  5
DB
  8
DATA
  6
CONTINUOUS
 62
     7
 10
-100.0
 20
-200.0
 30
0.0
 11
-100.0
 21
-90.498999999999995
 31
0.0
  0
LINE
  5
DC
  8
DATA
  6
CONTINUOUS
 62
     7
 10
-81.0
 20
-200.0
 30
0.0
 11
-100.0
 21
-200.0
 31
0.0
  0
LINE
  5
DD
  8
DATA
  6
CONTINUOUS
 62
     7
 10
-92.0
 20
-183.499
 30
0.0
 11
-89.0
 21
-183.499
 31
0.0
  0
LINE
  5
DE
  8
DATA
  6
CONTINUOUS
 62
     7
 10
-90.5
 20
-184.999
 30
0.0
 11
-90.5
 21
-181.999
 31
0.0
  0
CIRCLE
  5
DF
  8
DATA
  6
CONTINUOUS
 62
     7
 10
-90.5
 20
-183.499
 30
0.0
 40
2.5
  0
LINE
  5
E0
  8
DATA
  6
CONTINUOUS
 62
     7
 10
-86.75
 20
-3.4989999999999948
 30
0.0
 11
-86.75
 21
-76.498999999999995
 31
0.0
  0
LINE
  5
E1
  8
DATA
  6
CONTINUOUS
 62
     7
 10
-94.25
 20
-76.498999999999995
 30
0.0
 11
-94.25
 21
-3.4989999999999948
 31
0.0
  0
LINE
  5
E2
  8
DATA
  6
CONTINUOUS
 62
     7
 10
-86.75
 20
-47.042000000000002
 30
0.0
 11
-94.25
 21
-49.051999999999992
 31
0.0
  0
LINE
  5
E3
  8
DATA
  6
CONTINUOUS
 62
     7
 10
-86.75
 20
-51.182999999999993
 30
0.0
 11
-94.25
 21
-53.193000000000012
 31
0.0
  0
LINE
  5
E4
  8
DATA
  6
CONTINUOUS
 62
     7
 10
-86.75
 20
-55.324000000000012
 30
0.0
 11
-94.25
 21
-57.334000000000003
 31
0.0
  0
LINE
  5
E5
  8
DATA
  6
CONTINUOUS
 62
     7
 10
-86.75
 20
-59.465000000000003
 30
0.0
 11
-94.25
 21
-61.474999999999987
 31
0.0
  0
LINE
  5
E6
  8
DATA
  6
CONTINUOUS
 62
     7
 10
-86.75
 20
-63.605999999999987
 30
0.0
 11
-94.25
 21
-65.616000000000014
 31
0.0
  0
LINE
  5
E7
  8
DATA
  6
CONTINUOUS
 62
     7
 10
-86.75
 20
-67.747000000000014
 30
0.0
 11
-94.25
 21
-69.757000000000005
 31
0.0
  0
LINE
  5
E8
  8
DATA
  6
CONTINUOUS
 62
     7
 10
-81.0
 20
-90.498999999999995
 30
0.0
 11
-85.5
 21
-76.498999999999995
 31
0.0
  0
LINE
  5
E9
  8
DATA
  6
CONTINUOUS
 62
     7
 10
-100.0
 20
-90.498999999999995
 30
0.0
 11
-81.0
 21
-90.498999999999995
 31
0.0
  0
LINE
  5
EA
  8
DATA
  6
CONTINUOUS
 62
     7
 10
-100.0
 20
-105.4989999999999
 30
0.0
 11
-81.0
 21
-105.4989999999999
 31
0.0
  0
LINE
  5
EB
  8
DATA
  6
CONTINUOUS
 62
     7
 10
-81.0
 20
-97.998999999999995
 30
0.0
 11
-100.0
 21
-97.998999999999995
 31
0.0
  0
LINE
  5
EC
  8
DATA
  6
CONTINUOUS
 62
     7
 10
-95.5
 20
-76.498999999999995
 30
0.0
 11
-100.0
 21
-90.498999999999995
 31
0.0
  0
LINE
  5
ED
  8
DATA
  6
CONTINUOUS
 62
     7
 10
-86.75
 20
-76.498999999999995
 30
0.0
 11
-94.25
 21
-76.498999999999995
 31
0.0
  0
LINE
  5
EE
  8
DATA
  6
CONTINUOUS
 62
     7
 10
-86.75
 20
-71.888000000000005
 30
0.0
 11
-94.25
 21
-73.897999999999996
 31
0.0
  0
LINE
  5
EF
  8
DATA
  6
CONTINUOUS
 62
     7
 10
-86.75
 20
-76.030000000000001
 30
0.0
 11
-88.503999999999976
 21
-76.498999999999995
 31
0.0
  0
LINE
  5
F0
  8
DATA
  6
CONTINUOUS
 62
     7
 10
-95.5
 20
-76.498999999999995
 30
0.0
 11
-85.5
 21
-76.498999999999995
 31
0.0
  0
LINE
  5
F1
  8
DATA
  6
CONTINUOUS
 62
     7
 10
-91.5
 20
-125.999
 30
0.0
 11
-91.5
 21
-132.999
 31
0.0
  0
LINE
  5
F2
  8
DATA
  6
CONTINUOUS
 62
     7
 10
-89.500000000000014
 20
-125.999
 30
0.0
 11
-89.500000000000014
 21
-132.999
 31
0.0
  0
LINE
  5
F3
  8
DATA
  6
CONTINUOUS
 62
     7
 10
-91.0
 20
-129.999
 30
0.0
 11
-90.0
 21
-129.999
 31
0.0
  0
LINE
  5
F4
  8
DATA
  6
CONTINUOUS
 62
     7
 10
-90.0
 20
-129.999
 30
0.0
 11
-90.0
 21
-131.499
 31
0.0
  0
LINE
  5
F5
  8
DATA
  6
CONTINUOUS
 62
     7
 10
-90.0
 20
-131.499
 30
0.0
 11
-91.0
 21
-131.499
 31
0.0
  0
LINE
  5
F6
  8
DATA
  6
CONTINUOUS
 62
     7
 10
-91.0
 20
-131.499
 30
0.0
 11
-91.0
 21
-129.999
 31
0.0
  0
ARC
  5
F7
  8
DATA
  6
CONTINUOUS
 62
     7
 10
-90.5
 20
-132.999
 30
0.0
 40
1.0
 50
180.0
 51
0.0
  0
ARC
  5
F8
  8
DATA
  6
CONTINUOUS
 62
     7
 10
-90.5
 20
-125.999
 30
0.0
 40
1.0
 50
0.0
 51
180.0
  0
LINE
  5
F9
  8
DATA
  6
CONTINUOUS
 62
     7
 10
-94.25
 20
-3.4989999999999948
 30
0.0
 11
-86.75
 21
-3.4989999999999948
 31
0.0
  0
LINE
  5
FA
  8
DATA
  6
CONTINUOUS
 62
     7
 10
-86.75
 20
-5.6310000000000002
 30
0.0
 11
-94.25
 21
-7.6409999999999911
 31
0.0
  0
LINE
  5
FB
  8
DATA
  6
CONTINUOUS
 62
     7
 10
-86.75
 20
-9.7719999999999914
 30
0.0
 11
-94.25
 21
-11.782000000000011
 31
0.0
  0
LINE
  5
FC
  8
DATA
  6
CONTINUOUS
 62
     7
 10
-86.75
 20
-13.913000000000009
 30
0.0
 11
-94.25
 21
-15.923
 31
0.0
  0
LINE
  5
FD
  8
DATA
  6
CONTINUOUS
 62
     7
 10
-86.75
 20
-18.053999999999998
 30
0.0
 11
-94.25
 21
-20.063999999999989
 31
0.0
  0
LINE
  5
FE
  8
DATA
  6
CONTINUOUS
 62
     7
 10
-86.75
 20
-22.19499999999999
 30
0.0
 11
-94.25
 21
-24.205000000000009
 31
0.0
  0
LINE
  5
FF
  8
DATA
  6
CONTINUOUS
 62
     7
 10
-86.75
 20
-26.336000000000009
 30
0.0
 11
-94.25
 21
-28.346
 31
0.0
  0
LINE
  5
100
  8
DATA
  6
CONTINUOUS
 62
     7
 10
-86.75
 20
-30.478000000000002
 30
0.0
 11
-94.25
 21
-32.486999999999988
 31
0.0
  0
LINE
  5
101
  8
DATA
  6
CONTINUOUS
 62
     7
 10
-86.75
 20
-34.618999999999993
 30
0.0
 11
-94.25
 21
-36.627999999999979
 31
0.0
  0
LINE
  5
102
  8
DATA
  6
CONTINUOUS
 62
     7
 10
-86.75
 20
-38.759999999999991
 30
0.0
 11
-94.25
 21
-40.769000000000013
 31
0.0
  0
LINE
  5
103
  8
DATA
  6
CONTINUOUS
 62
     7
 10
-94.0
 20
28.001000000000001
 30
0.0
 11
-87.0
 21
28.001000000000001
 31
0.0
  0
LINE
  5
104
  8
DATA
  6
CONTINUOUS
 62
     7
 10
-95.25
 20
12.250999999999999
 30
0.0
 11
-94.0
 21
28.001000000000001
 31
0.0
  0
LINE
  5
105
  8
DATA
  6
CONTINUOUS
 62
     7
 10
-87.0
 20
28.001000000000001
 30
0.0
 11
-85.750000000000014
 21
12.250999999999999
 31
0.0
  0
LINE
  5
106
  8
DATA
  6
CONTINUOUS
 62
     7
 10
-85.750000000000014
 20
12.250999999999999
 30
0.0
 11
-86.75
 21
-3.4989999999999948
 31
0.0
  0
LINE
  5
107
  8
DATA
  6
CONTINUOUS
 62
     7
 10
-94.25
 20
-3.4989999999999948
 30
0.0
 11
-95.25
 21
12.250999999999999
 31
0.0
  0
LINE
  5
108
  8
DATA
  6
CONTINUOUS
 62
     7
 10
-86.75
 20
-42.90100000000001
 30
0.0
 11
-94.25
 21
-44.909999999999989
 31
0.0
  0
LINE
  5
109
  8
DATA
  6
CONTINUOUS
 62
     7
 10
0.0
 20
-200.0
 30
0.0
 11
0.0
 21
-90.498999999999995
 31
0.0
  0
LINE
  5
10A
  8
DATA
  6
CONTINUOUS
 62
     7
 10
19.0
 20
-90.498999999999995
 30
0.0
 11
19.0
 21
-200.0
 31
0.0
  0
LINE
  5
10B
  8
DATA
  6
CONTINUOUS
 62
     7
 10
19.0
 20
-200.0
 30
0.0
 11
0.0
 21
-200.0
 31
0.0
  0
LINE
  5
10C
  8
DATA
  6
CONTINUOUS
 62
     7
 10
8.0
 20
-183.499
 30
0.0
 11
11.0
 21
-183.499
 31
0.0
  0
LINE
  5
10D
  8
DATA
  6
CONTINUOUS
 62
     7
 10
9.5
 20
-184.999
 30
0.0
 11
9.5
 21
-181.999
 31
0.0
  0
CIRCLE
  5
10E
  8
DATA
  6
CONTINUOUS
 62
     7
 10
9.5
 20
-183.499
 30
0.0
 40
2.5
  0
LINE
  5
10F
  8
DATA
  6
CONTINUOUS
 62
     7
 10
13.25
 20
-76.498999999999995
 30
0.0
 11
13.25
 21
-36.498999999999988
 31
0.0
  0
LINE
  5
110
  8
DATA
  6
CONTINUOUS
 62
     7
 10
5.75
 20
-36.498999999999988
 30
0.0
 11
5.75
 21
-76.498999999999995
 31
0.0
  0
LINE
  5
111
  8
DATA
  6
CONTINUOUS
 62
     7
 10
13.25
 20
-67.747000000000014
 30
0.0
 11
5.75
 21
-69.757000000000005
 31
0.0
  0
LINE
  5
112
  8
DATA
  6
CONTINUOUS
 62
     7
 10
13.25
 20
-63.605999999999987
 30
0.0
 11
5.75
 21
-65.616000000000014
 31
0.0
  0
LINE
  5
113
  8
DATA
  6
CONTINUOUS
 62
     7
 10
13.25
 20
-59.465000000000003
 30
0.0
 11
5.75
 21
-61.474999999999987
 31
0.0
  0
LINE
  5
114
  8
DATA
  6
CONTINUOUS
 62
     7
 10
13.25
 20
-55.324000000000012
 30
0.0
 11
5.75
 21
-57.334000000000003
 31
0.0
  0
LINE
  5
115
  8
DATA
  6
CONTINUOUS
 62
     7
 10
13.25
 20
-51.182999999999993
 30
0.0
 11
5.75
 21
-53.193000000000012
 31
0.0
  0
LINE
  5
116
  8
DATA
  6
CONTINUOUS
 62
     7
 10
13.25
 20
-47.042000000000002
 30
0.0
 11
5.75
 21
-49.051999999999992
 31
0.0
  0
LINE
  5
117
  8
DATA
  6
CONTINUOUS
 62
     7
 10
19.0
 20
-90.498999999999995
 30
0.0
 11
14.5
 21
-76.498999999999995
 31
0.0
  0
LINE
  5
118
  8
DATA
  6
CONTINUOUS
 62
     7
 10
4.5
 20
-76.498999999999995
 30
0.0
 11
0.0
 21
-90.498999999999995
 31
0.0
  0
LINE
  5
119
  8
DATA
  6
CONTINUOUS
 62
     7
 10
19.0
 20
-97.998999999999995
 30
0.0
 11
0.0
 21
-97.998999999999995
 31
0.0
  0
LINE
  5
11A
  8
DATA
  6
CONTINUOUS
 62
     7
 10
0.0
 20
-105.4989999999999
 30
0.0
 11
19.0
 21
-105.4989999999999
 31
0.0
  0
LINE
  5
11B
  8
DATA
  6
CONTINUOUS
 62
     7
 10
0.0
 20
-90.498999999999995
 30
0.0
 11
19.0
 21
-90.498999999999995
 31
0.0
  0
LINE
  5
11C
  8
DATA
  6
CONTINUOUS
 62
     7
 10
13.25
 20
-76.030000000000001
 30
0.0
 11
11.49599999999999
 21
-76.498999999999995
 31
0.0
  0
LINE
  5
11D
  8
DATA
  6
CONTINUOUS
 62
     7
 10
13.25
 20
-71.888000000000005
 30
0.0
 11
5.75
 21
-73.897999999999996
 31
0.0
  0
LINE
  5
11E
  8
DATA
  6
CONTINUOUS
 62
     7
 10
5.75
 20
-76.498999999999995
 30
0.0
 11
13.25
 21
-76.498999999999995
 31
0.0
  0
LINE
  5
11F
  8
DATA
  6
CONTINUOUS
 62
     7
 10
4.5
 20
-76.498999999999995
 30
0.0
 11
14.5
 21
-76.498999999999995
 31
0.0
  0
LINE
  5
120
  8
DATA
  6
CONTINUOUS
 62
     7
 10
8.5
 20
-125.999
 30
0.0
 11
8.5
 21
-132.999
 31
0.0
  0
LINE
  5
121
  8
DATA
  6
CONTINUOUS
 62
     7
 10
10.5
 20
-125.999
 30
0.0
 11
10.5
 21
-132.999
 31
0.0
  0
LINE
  5
122
  8
DATA
  6
CONTINUOUS
 62
     7
 10
9.0
 20
-129.999
 30
0.0
 11
10.0
 21
-129.999
 31
0.0
  0
LINE
  5
123
  8
DATA
  6
CONTINUOUS
 62
     7
 10
10.0
 20
-129.999
 30
0.0
 11
10.0
 21
-131.499
 31
0.0
  0
LINE
  5
124
  8
DATA
  6
CONTINUOUS
 62
     7
 10
10.0
 20
-131.499
 30
0.0
 11
9.0
 21
-131.499
 31
0.0
  0
LINE
  5
125
  8
DATA
  6
CONTINUOUS
 62
     7
 10
9.0
 20
-131.499
 30
0.0
 11
9.0
 21
-129.999
 31
0.0
  0
ARC
  5
126
  8
DATA
  6
CONTINUOUS
 62
     7
 10
9.5
 20
-132.999
 30
0.0
 40
1.0
 50
180.0
 51
0.0
  0
ARC
  5
127
  8
DATA
  6
CONTINUOUS
 62
     7
 10
9.5
 20
-125.999
 30
0.0
 40
1.0
 50
0.0
 51
180.0
  0
LINE
  5
128
  8
DATA
  6
CONTINUOUS
 62
     7
 10
18.641999999999989
 20
-20.393000000000001
 30
0.0
 11
10.733000000000001
 21
-18.709
 31
0.0
  0
LINE
  5
129
  8
DATA
  6
CONTINUOUS
 62
     7
 10
8.4249999999999972
 20
-23.22999999999999
 30
0.0
 11
15.756
 21
-25.193999999999988
 31
0.0
  0
LINE
  5
12A
  8
DATA
  6
CONTINUOUS
 62
     7
 10
6.7530000000000001
 20
-28.27000000000001
 30
0.0
 11
14.161
 21
-29.57599999999999
 31
0.0
  0
LINE
  5
12B
  8
DATA
  6
CONTINUOUS
 62
     7
 10
13.352
 20
-34.167999999999999
 30
0.0
 11
5.8289999999999926
 21
-34.167999999999999
 31
0.0
  0
LINE
  5
12C
  8
DATA
  6
CONTINUOUS
 62
     7
 10
20.506
 20
-17.164999999999988
 30
0.0
 11
13.006
 21
-15.156000000000001
 31
0.0
  0
LINE
  5
12D
  8
DATA
  6
CONTINUOUS
 62
     7
 10
22.576999999999991
 20
-13.579000000000001
 30
0.0
 11
15.076999999999989
 21
-11.56899999999998
 31
0.0
  0
LINE
  5
12E
  8
DATA
  6
CONTINUOUS
 62
     7
 10
13.25
 20
-38.759999999999991
 30
0.0
 11
5.75
 21
-40.769000000000013
 31
0.0
  0
LINE
  5
12F
  8
DATA
  6
CONTINUOUS
 62
     7
 10
17.146999999999998
 20
-7.9830000000000041
 30
0.0
 11
23.641999999999989
 21
-11.733000000000001
 31
0.0
  0
LINE
  5
130
  8
DATA
  6
CONTINUOUS
 62
     7
 10
23.641999999999989
 20
-11.733000000000001
 30
0.0
 11
18.641999999999989
 21
-20.393000000000001
 31
0.0
  0
LINE
  5
131
  8
DATA
  6
CONTINUOUS
 62
     7
 10
12.147
 20
-16.643000000000001
 30
0.0
 11
17.146999999999998
 21
-7.9830000000000041
 31
0.0
  0
LINE
  5
132
  8
DATA
  6
CONTINUOUS
 62
     7
 10
17.146999999999998
 20
-7.9830000000000041
 30
0.0
 11
24.155999999999999
 21
6.1570000000000098
 31
0.0
  0
LINE
  5
133
  8
DATA
  6
CONTINUOUS
 62
     7
 10
32.382999999999988
 20
1.40700000000001
 30
0.0
 11
23.641999999999989
 21
-11.733000000000001
 31
0.0
  0
LINE
  5
134
  8
DATA
  6
CONTINUOUS
 62
     7
 10
39.176000000000002
 20
15.67199999999999
 30
0.0
 11
32.382999999999988
 21
1.40700000000001
 31
0.0
  0
LINE
  5
135
  8
DATA
  6
CONTINUOUS
 62
     7
 10
24.155999999999999
 20
6.1570000000000098
 30
0.0
 11
33.113999999999997
 21
19.17199999999999
 31
0.0
  0
LINE
  5
136
  8
DATA
  6
CONTINUOUS
 62
     7
 10
33.113999999999997
 20
19.17199999999999
 30
0.0
 11
39.176000000000002
 21
15.67199999999999
 31
0.0
  0
LINE
  5
137
  8
DATA
  6
CONTINUOUS
 62
     7
 10
13.25
 20
-42.90100000000001
 30
0.0
 11
5.75
 21
-44.909999999999989
 31
0.0
  0
ARC
  5
138
  8
DATA
  6
CONTINUOUS
 62
     7
 10
39.375799999999998
 20
-36.373700000000007
 30
0.0
 40
33.625999999999998
 50
144.07193149641151
 51
180.21350077469779
  0
ARC
  5
139
  8
DATA
  6
CONTINUOUS
 62
     7
 10
39.993899999999996
 20
-36.4968
 30
0.0
 40
26.7439
 50
142.97606453523059
 51
180.00471325104581
  0
LINE
  5
13A
  8
DATA
  6
CONTINUOUS
 62
     7
 10
-88.0
 20
336.50099999999992
 30
0.0
 11
-88.0
 21
263.00099999999992
 31
0.0
  0
LINE
  5
13B
  8
DATA
  6
CONTINUOUS
 62
     7
 10
-93.0
 20
263.00099999999992
 30
0.0
 11
-93.0
 21
336.50099999999992
 31
0.0
  0
LINE
  5
13C
  8
DATA
  6
CONTINUOUS
 62
     7
 10
-88.0
 20
263.00099999999992
 30
0.0
 11
-93.0
 21
263.00099999999992
 31
0.0
  0
LINE
  5
13D
  8
DATA
  6
CONTINUOUS
 62
     7
 10
-88.0
 20
288.14699999999988
 30
0.0
 11
-93.0
 21
286.80700000000002
 31
0.0
  0
LINE
  5
13E
  8
DATA
  6
CONTINUOUS
 62
     7
 10
-88.0
 20
284.00599999999991
 30
0.0
 11
-93.0
 21
282.666
 31
0.0
  0
LINE
  5
13F
  8
DATA
  6
CONTINUOUS
 62
     7
 10
-88.0
 20
279.86500000000001
 30
0.0
 11
-93.0
 21
278.52499999999998
 31
0.0
  0
LINE
  5
140
  8
DATA
  6
CONTINUOUS
 62
     7
 10
-88.0
 20
275.72399999999988
 30
0.0
 11
-93.0
 21
274.38400000000001
 31
0.0
  0
LINE
  5
141
  8
DATA
  6
CONTINUOUS
 62
     7
 10
-88.0
 20
271.58299999999991
 30
0.0
 11
-93.0
 21
270.24299999999999
 31
0.0
  0
LINE
  5
142
  8
DATA
  6
CONTINUOUS
 62
     7
 10
-88.0
 20
267.44200000000001
 30
0.0
 11
-93.0
 21
266.10199999999992
 31
0.0
  0
LINE
  5
143
  8
DATA
  6
CONTINUOUS
 62
     7
 10
-88.0
 20
263.30099999999999
 30
0.0
 11
-89.120000000000005
 21
263.00099999999992
 31
0.0
  0
LINE
  5
144
  8
DATA
  6
CONTINUOUS
 62
     7
 10
-93.75
 20
263.00099999999992
 30
0.0
 11
-87.249999999999986
 21
263.00099999999992
 31
0.0
  0
LINE
  5
145
  8
DATA
  6
CONTINUOUS
 62
     7
 10
-93.0
 20
336.50099999999992
 30
0.0
 11
-88.0
 21
336.50099999999992
 31
0.0
  0
LINE
  5
146
  8
DATA
  6
CONTINUOUS
 62
     7
 10
-88.0
 20
333.69900000000001
 30
0.0
 11
-93.0
 21
332.35899999999998
 31
0.0
  0
LINE
  5
147
  8
DATA
  6
CONTINUOUS
 62
     7
 10
-88.0
 20
329.55799999999999
 30
0.0
 11
-93.0
 21
328.2179999999999
 31
0.0
  0
LINE
  5
148
  8
DATA
  6
CONTINUOUS
 62
     7
 10
-88.0
 20
325.41699999999997
 30
0.0
 11
-93.0
 21
324.07699999999988
 31
0.0
  0
LINE
  5
149
  8
DATA
  6
CONTINUOUS
 62
     7
 10
-88.0
 20
321.27600000000001
 30
0.0
 11
-93.0
 21
319.93599999999998
 31
0.0
  0
LINE
  5
14A
  8
DATA
  6
CONTINUOUS
 62
     7
 10
-88.0
 20
317.13499999999988
 30
0.0
 11
-93.0
 21
315.7949999999999
 31
0.0
  0
LINE
  5
14B
  8
DATA
  6
CONTINUOUS
 62
     7
 10
-88.0
 20
312.99400000000003
 30
0.0
 11
-93.0
 21
311.654
 31
0.0
  0
LINE
  5
14C
  8
DATA
  6
CONTINUOUS
 62
     7
 10
-88.0
 20
308.85299999999989
 30
0.0
 11
-93.0
 21
307.51299999999998
 31
0.0
  0
LINE
  5
14D
  8
DATA
  6
CONTINUOUS
 62
     7
 10
-88.0
 20
304.71199999999999
 30
0.0
 11
-93.0
 21
303.37200000000001
 31
0.0
  0
LINE
  5
14E
  8
DATA
  6
CONTINUOUS
 62
     7
 10
-88.0
 20
300.56999999999999
 30
0.0
 11
-93.0
 21
299.23099999999988
 31
0.0
  0
LINE
  5
14F
  8
DATA
  6
CONTINUOUS
 62
     7
 10
-88.0
 20
296.42899999999992
 30
0.0
 11
-93.0
 21
295.08999999999997
 31
0.0
  0
LINE
  5
150
  8
DATA
  6
CONTINUOUS
 62
     7
 10
-88.0
 20
292.28800000000001
 30
0.0
 11
-93.0
 21
290.94799999999992
 31
0.0
  0
LINE
  5
151
  8
DATA
  6
CONTINUOUS
 62
     7
 10
-95.5
 20
373.00099999999998
 30
0.0
 11
-85.5
 21
373.00099999999998
 31
0.0
  0
LINE
  5
152
  8
DATA
  6
CONTINUOUS
 62
     7
 10
-94.500000000000014
 20
336.50099999999992
 30
0.0
 11
-86.5
 21
336.50099999999992
 31
0.0
  0
LINE
  5
153
  8
DATA
  6
CONTINUOUS
 62
     7
 10
-94.500000000000014
 20
336.50099999999992
 30
0.0
 11
-97.250000000000014
 21
351.00099999999992
 31
0.0
  0
LINE
  5
154
  8
DATA
  6
CONTINUOUS
 62
     7
 10
-83.75
 20
351.00099999999992
 30
0.0
 11
-86.5
 21
336.50099999999992
 31
0.0
  0
LINE
  5
155
  8
DATA
  6
CONTINUOUS
 62
     7
 10
-97.250000000000014
 20
371.00099999999998
 30
0.0
 11
-83.75
 21
371.00099999999998
 31
0.0
  0
LINE
  5
156
  8
DATA
  6
CONTINUOUS
 62
     7
 10
-83.75
 20
351.00099999999992
 30
0.0
 11
-97.250000000000014
 21
351.00099999999992
 31
0.0
  0
LINE
  5
157
  8
DATA
  6
CONTINUOUS
 62
     7
 10
-97.250000000000014
 20
371.00099999999998
 30
0.0
 11
-97.250000000000014
 21
365.00099999999992
 31
0.0
  0
LINE
  5
158
  8
DATA
  6
CONTINUOUS
 62
     7
 10
-97.250000000000014
 20
361.00099999999992
 30
0.0
 11
-97.250000000000014
 21
351.00099999999992
 31
0.0
  0
LINE
  5
159
  8
DATA
  6
CONTINUOUS
 62
     7
 10
-83.75
 20
351.00099999999992
 30
0.0
 11
-83.75
 21
361.00099999999992
 31
0.0
  0
LINE
  5
15A
  8
DATA
  6
CONTINUOUS
 62
     7
 10
-83.75
 20
365.0
 30
0.0
 11
-83.75
 21
371.00099999999998
 31
0.0
  0
LINE
  5
15B
  8
DATA
  6
CONTINUOUS
 62
     7
 10
-95.5
 20
373.00099999999998
 30
0.0
 11
-95.5
 21
371.00099999999998
 31
0.0
  0
LINE
  5
15C
  8
DATA
  6
CONTINUOUS
 62
     7
 10
-85.5
 20
373.00099999999998
 30
0.0
 11
-85.5
 21
371.00099999999998
 31
0.0
  0
LINE
  5
15D
  8
DATA
  6
CONTINUOUS
 62
     7
 10
-93.0
 20
365.0
 30
0.0
 11
-88.0
 21
365.0
 31
0.0
  0
LINE
  5
15E
  8
DATA
  6
CONTINUOUS
 62
     7
 10
-88.0
 20
361.00099999999992
 30
0.0
 11
-93.0
 21
361.00099999999992
 31
0.0
  0
ARC
  5
15F
  8
DATA
  6
CONTINUOUS
 62
     7
 10
-97.8339
 20
363.00099999999992
 30
0.0
 40
2.083489999999999
 50
286.27516464256979
 51
73.724835357430209
  0
ARC
  5
160
  8
DATA
  6
CONTINUOUS
 62
     7
 10
-92.416899999999998
 20
363.00049999999999
 30
0.0
 40
2.0827900000000001
 50
106.2578939376159
 51
253.7421060623841
  0
ARC
  5
161
  8
DATA
  6
CONTINUOUS
 62
     7
 10
-88.583100000000016
 20
363.00049999999999
 30
0.0
 40
2.0827900000000001
 50
286.2578939376159
 51
73.742106062384053
  0
ARC
  5
162
  8
DATA
  6
CONTINUOUS
 62
     7
 10
-83.166899999999984
 20
363.00049999999999
 30
0.0
 40
2.0827900000000001
 50
106.2578939376159
 51
253.7421060623841
  0
LINE
  5
163
  8
DATA
  6
CONTINUOUS
 62
     7
 10
206.87999999999991
 20
259.54199999999997
 30
0.0
 11
206.87999999999991
 21
251.542
 31
0.0
  0
LINE
  5
164
  8
DATA
  6
CONTINUOUS
 62
     7
 10
150.83000000000001
 20
222.5629999999999
 30
0.0
 11
156.459
 21
219.31299999999999
 31
0.0
  0
LINE
  5
165
  8
DATA
  6
CONTINUOUS
 62
     7
 10
243.38
 20
260.54199999999997
 30
0.0
 11
243.38
 21
250.54199999999989
 31
0.0
  0
LINE
  5
166
  8
DATA
  6
CONTINUOUS
 62
     7
 10
241.38
 20
262.29199999999997
 30
0.0
 11
241.38
 21
248.79199999999989
 31
0.0
  0
LINE
  5
167
  8
DATA
  6
CONTINUOUS
 62
     7
 10
241.38
 20
262.29199999999997
 30
0.0
 11
235.38
 21
262.29199999999997
 31
0.0
  0
LINE
  5
168
  8
DATA
  6
CONTINUOUS
 62
     7
 10
231.38
 20
262.29199999999997
 30
0.0
 11
221.37999999999991
 21
262.29199999999997
 31
0.0
  0
LINE
  5
169
  8
DATA
  6
CONTINUOUS
 62
     7
 10
221.37999999999991
 20
248.79199999999989
 30
0.0
 11
231.38
 21
248.79199999999989
 31
0.0
  0
LINE
  5
16A
  8
DATA
  6
CONTINUOUS
 62
     7
 10
235.37899999999999
 20
248.79199999999989
 30
0.0
 11
241.38
 21
248.79199999999989
 31
0.0
  0
LINE
  5
16B
  8
DATA
  6
CONTINUOUS
 62
     7
 10
235.37899999999999
 20
258.04199999999997
 30
0.0
 11
235.37899999999999
 21
253.04199999999989
 31
0.0
  0
LINE
  5
16C
  8
DATA
  6
CONTINUOUS
 62
     7
 10
231.38
 20
253.04199999999989
 30
0.0
 11
231.38
 21
258.04199999999997
 31
0.0
  0
LINE
  5
16D
  8
DATA
  6
CONTINUOUS
 62
     7
 10
243.38
 20
260.54199999999997
 30
0.0
 11
241.38
 21
260.54199999999997
 31
0.0
  0
LINE
  5
16E
  8
DATA
  6
CONTINUOUS
 62
     7
 10
243.38
 20
250.54199999999989
 30
0.0
 11
241.38
 21
250.54199999999989
 31
0.0
  0
LINE
  5
16F
  8
DATA
  6
CONTINUOUS
 62
     7
 10
221.37999999999991
 20
248.79199999999989
 30
0.0
 11
221.37999999999991
 21
262.29199999999997
 31
0.0
  0
LINE
  5
170
  8
DATA
  6
CONTINUOUS
 62
     7
 10
221.37999999999991
 20
248.79199999999989
 30
0.0
 11
206.87999999999991
 21
251.542
 31
0.0
  0
LINE
  5
171
  8
DATA
  6
CONTINUOUS
 62
     7
 10
206.87999999999991
 20
259.54199999999997
 30
0.0
 11
221.37999999999991
 21
262.29199999999997
 31
0.0
  0
ARC
  5
172
  8
DATA
  6
CONTINUOUS
 62
     7
 10
233.38
 20
262.8759
 30
0.0
 40
2.083489999999999
 50
196.27516464256979
 51
343.72483535743009
  0
ARC
  5
173
  8
DATA
  6
CONTINUOUS
 62
     7
 10
233.37950000000001
 20
257.45889999999991
 30
0.0
 40
2.0827900000000001
 50
16.257893937615901
 51
163.7421060623841
  0
ARC
  5
174
  8
DATA
  6
CONTINUOUS
 62
     7
 10
233.37950000000001
 20
253.6251
 30
0.0
 40
2.0827900000000001
 50
196.25789393761579
 51
343.7421060623841
  0
ARC
  5
175
  8
DATA
  6
CONTINUOUS
 62
     7
 10
233.37950000000001
 20
248.2089
 30
0.0
 40
2.0827900000000001
 50
16.257893937615901
 51
163.7421060623841
  0
LINE
  5
176
  8
DATA
  6
CONTINUOUS
 62
     7
 10
200.53
 20
257.709
 30
0.0
 11
201.05199999999999
 21
252.7359999999999
 31
0.0
  0
LINE
  5
177
  8
DATA
  6
CONTINUOUS
 62
     7
 10
195.28800000000001
 20
256.92599999999987
 30
0.0
 11
196.24199999999999
 21
252.01699999999991
 31
0.0
  0
LINE
  5
178
  8
DATA
  6
CONTINUOUS
 62
     7
 10
190.13499999999991
 20
255.68799999999999
 30
0.0
 11
191.51299999999989
 21
250.88200000000001
 31
0.0
  0
LINE
  5
179
  8
DATA
  6
CONTINUOUS
 62
     7
 10
186.90100000000001
 20
249.339
 30
0.0
 11
185.1089999999999
 21
254.00700000000001
 31
0.0
  0
LINE
  5
17A
  8
DATA
  6
CONTINUOUS
 62
     7
 10
180.24899999999991
 20
251.893
 30
0.0
 11
182.43999999999991
 21
247.399
 31
0.0
  0
LINE
  5
17B
  8
DATA
  6
CONTINUOUS
 62
     7
 10
175.59100000000001
 20
249.36500000000001
 30
0.0
 11
178.166
 21
245.07900000000001
 31
0.0
  0
LINE
  5
17C
  8
DATA
  6
CONTINUOUS
 62
     7
 10
174.11000000000001
 20
242.39399999999989
 30
0.0
 11
171.17199999999991
 21
246.43899999999991
 31
0.0
  0
LINE
  5
17D
  8
DATA
  6
CONTINUOUS
 62
     7
 10
167.02399999999989
 20
243.13999999999999
 30
0.0
 11
170.304
 21
239.36699999999999
 31
0.0
  0
LINE
  5
17E
  8
DATA
  6
CONTINUOUS
 62
     7
 10
166.77600000000001
 20
236.01900000000001
 30
0.0
 11
163.18000000000001
 21
239.49199999999999
 31
0.0
  0
LINE
  5
17F
  8
DATA
  6
CONTINUOUS
 62
     7
 10
160.661
 20
228.4669999999999
 30
0.0
 11
156.5149999999999
 21
231.26299999999989
 31
0.0
  0
LINE
  5
180
  8
DATA
  6
CONTINUOUS
 62
     7
 10
159.66800000000001
 20
235.523
 30
0.0
 11
163.55399999999989
 21
232.376
 31
0.0
  0
LINE
  5
181
  8
DATA
  6
CONTINUOUS
 62
     7
 10
153.74600000000001
 20
226.744
 30
0.0
 11
158.119
 21
224.31999999999991
 31
0.0
  0
ARC
  5
182
  8
DATA
  6
CONTINUOUS
 62
     7
 10
206.86179999999999
 20
197.34149999999991
 30
0.0
 40
60.700499999999998
 50
89.982820847342452
 51
155.8372722042464
  0
ARC
  5
183
  8
DATA
  6
CONTINUOUS
 62
     7
 10
206.89660000000001
 20
197.24109999999999
 30
0.0
 40
55.800899999999999
 50
90.017044705584681
 51
156.28009154233209
  0
TEXT
  5
184
  8
DATA
 62
     7
 10
295.97680000000003
 20
-358.31191000000001
 30
0.0
 40
7.9069599999999989
  1
N.SASAKI
 11
295.97680000000003
 21
-350.40494999999987
 31
0.0
 73
     3
  0
ENDSEC
  0
EOF
