  0
SECTION
  2
HEADER
  9
$ACADVER
  1
AC1009
  9
$INSBASE
 10
0.0
 20
0.0
 30
0.0
  9
$EXTMIN
 10
-170.0164782349211
 20
-265.80211091866681
 30
-0.0015258207003583
  9
$EXTMAX
 10
370.0164807494923
 20
537.08808227102497
 30
0.0000000349246037
  9
$LIMMIN
 10
0.0
 20
0.0
  9
$LIMMAX
 10
0.0
 20
0.0
  9
$ORTHOMODE
 70
     0
  9
$REGENMODE
 70
     1
  9
$FILLMODE
 70
     1
  9
$QTEXTMODE
 70
     0
  9
$MIRRTEXT
 70
     1
  9
$DRAGMODE
 70
     2
  9
$LTSCALE
 40
15.24
  9
$OSMODE
 70
    37
  9
$ATTMODE
 70
     1
  9
$TEXTSIZE
 40
0.0
  9
$TRACEWID
 40
1.0
  9
$TEXTSTYLE
  7
STANDARD
  9
$CLAYER
  8
DATA
  9
$CELTYPE
  6
CONTINUOUS
  9
$CECOLOR
 62
   256
  9
$DIMSCALE
 40
1.0
  9
$DIMASZ
 40
0.18
  9
$DIMEXO
 40
0.0625
  9
$DIMDLI
 40
0.38
  9
$DIMRND
 40
0.0
  9
$DIMDLE
 40
0.0
  9
$DIMEXE
 40
0.18
  9
$DIMTP
 40
0.0
  9
$DIMTM
 40
0.0
  9
$DIMTXT
 40
0.18
  9
$DIMCEN
 40
0.09
  9
$DIMTSZ
 40
0.0
  9
$DIMTOL
 70
     0
  9
$DIMLIM
 70
     0
  9
$DIMTIH
 70
     1
  9
$DIMTOH
 70
     1
  9
$DIMSE1
 70
     0
  9
$DIMSE2
 70
     0
  9
$DIMTAD
 70
     0
  9
$DIMZIN
 70
     0
  9
$DIMBLK
  1

  9
$DIMASO
 70
     1
  9
$DIMSHO
 70
     1
  9
$DIMPOST
  1

  9
$DIMAPOST
  1

  9
$DIMALT
 70
     0
  9
$DIMALTD
 70
     2
  9
$DIMALTF
 40
25.399999999999999
  9
$DIMLFAC
 40
1.0
  9
$DIMTOFL
 70
     0
  9
$DIMTVP
 40
0.0
  9
$DIMTIX
 70
     0
  9
$DIMSOXD
 70
     0
  9
$DIMSAH
 70
     0
  9
$DIMBLK1
  1

  9
$DIMBLK2
  1

  9
$DIMSTYLE
  2
STANDARD
  9
$DIMCLRD
 70
     0
  9
$DIMCLRE
 70
     0
  9
$DIMCLRT
 70
     0
  9
$DIMTFAC
 40
1.0
  9
$DIMGAP
 40
0.09
  9
$LUNITS
 70
     2
  9
$LUPREC
 70
     4
  9
$SKETCHINC
 40
0.1
  9
$FILLETRAD
 40
0.0
  9
$AUNITS
 70
     0
  9
$AUPREC
 70
     0
  9
$MENU
  1
acad
  9
$ELEVATION
 40
0.0
  9
$PELEVATION
 40
0.0
  9
$THICKNESS
 40
0.0
  9
$LIMCHECK
 70
     0
  9
$BLIPMODE
 70
     0
  9
$CHAMFERA
 40
0.0
  9
$CHAMFERB
 40
0.0
  9
$SKPOLY
 70
     0
  9
$TDCREATE
 40
2453201.7157175932
  9
$TDUPDATE
 40
2453201.7258624421
  9
$TDINDWG
 40
0.0003168403
  9
$TDUSRTIMER
 40
0.0003166551
  9
$USRTIMER
 70
     1
  9
$ANGBASE
 50
0.0
  9
$ANGDIR
 70
     0
  9
$PDMODE
 70
     1
  9
$PDSIZE
 40
-2.0
  9
$PLINEWID
 40
0.0
  9
$COORDS
 70
     1
  9
$SPLFRAME
 70
     0
  9
$SPLINETYPE
 70
     6
  9
$SPLINESEGS
 70
     8
  9
$ATTDIA
 70
     0
  9
$ATTREQ
 70
     1
  9
$HANDLING
 70
     1
  9
$HANDSEED
  5
224
  9
$SURFTAB1
 70
     6
  9
$SURFTAB2
 70
     6
  9
$SURFTYPE
 70
     6
  9
$SURFU
 70
     6
  9
$SURFV
 70
     6
  9
$UCSNAME
  2

  9
$UCSORG
 10
0.0
 20
0.0
 30
0.0
  9
$UCSXDIR
 10
1.0
 20
0.0
 30
0.0
  9
$UCSYDIR
 10
0.0
 20
1.0
 30
0.0
  9
$PUCSNAME
  2

  9
$PUCSORG
 10
0.0
 20
0.0
 30
0.0
  9
$PUCSXDIR
 10
1.0
 20
0.0
 30
0.0
  9
$PUCSYDIR
 10
0.0
 20
1.0
 30
0.0
  9
$USERI1
 70
     0
  9
$USERI2
 70
     0
  9
$USERI3
 70
     0
  9
$USERI4
 70
     0
  9
$USERI5
 70
     0
  9
$USERR1
 40
0.0
  9
$USERR2
 40
0.0
  9
$USERR3
 40
0.0
  9
$USERR4
 40
0.0
  9
$USERR5
 40
0.0
  9
$WORLDVIEW
 70
     1
  9
$SHADEDGE
 70
     3
  9
$SHADEDIF
 70
    70
  9
$TILEMODE
 70
     1
  9
$MAXACTVP
 70
    16
  9
$PLIMCHECK
 70
     0
  9
$PEXTMIN
 10
1.0000000000000000E+020
 20
1.0000000000000000E+020
 30
1.0000000000000000E+020
  9
$PEXTMAX
 10
-1.0000000000000000E+020
 20
-1.0000000000000000E+020
 30
-1.0000000000000000E+020
  9
$PLIMMIN
 10
0.0
 20
0.0
  9
$PLIMMAX
 10
12.0
 20
9.0
  9
$UNITMODE
 70
     0
  9
$VISRETAIN
 70
     0
  9
$PLINEGEN
 70
     1
  9
$PSLTSCALE
 70
     0
  0
ENDSEC
  0
SECTION
  2
TABLES
  0
TABLE
  2
VPORT
 70
     2
  0
VPORT
  2
*ACTIVE
 70
     0
 10
0.0
 20
0.0
 11
1.0
 21
1.0
 12
100.0000012572856
 22
135.64298567617911
 13
0.0
 23
0.0
 14
1.0
 24
1.0
 15
0.0
 25
0.0
 16
0.0
 26
0.0
 36
1.0
 17
0.0
 27
0.0
 37
0.0
 40
808.77217262697889
 41
1.474327628361858
 42
50.0
 43
0.0
 44
0.0
 50
0.0
 51
0.0
 71
     0
 72
   100
 73
     1
 74
     1
 75
     0
 76
     0
 77
     0
 78
     0
  0
ENDTAB
  0
TABLE
  2
LTYPE
 70
    11
  0
LTYPE
  2
CONTINUOUS
 70
     0
  3
Solid line
 72
    65
 73
     0
 40
0.0
  0
ENDTAB
  0
TABLE
  2
LAYER
 70
     6
  0
LAYER
  2
0
 70
     0
 62
     7
  6
CONTINUOUS
  0
LAYER
  2
DATA
 70
     0
 62
     7
  6
CONTINUOUS
  0
LAYER
  2
DEFPOINTS
 70
     0
 62
     7
  6
CONTINUOUS
  0
LAYER
  2
HIBINO-BASE
 70
     0
 62
     7
  6
CONTINUOUS
  0
LAYER
  2
SPEC
 70
     0
 62
     7
  6
CONTINUOUS
  0
LAYER
  2
DIMNSIONS
 70
     0
 62
     7
  6
CONTINUOUS
  0
ENDTAB
  0
TABLE
  2
STYLE
 70
     2
  0
STYLE
  2
STANDARD
 70
     0
 40
0.0
 41
1.0
 50
0.0
 71
     0
 42
0.0
  3
txt
  4
BIGFONT.SHX
  0
ENDTAB
  0
TABLE
  2
VIEW
 70
     0
  0
ENDTAB
  0
TABLE
  2
UCS
 70
     0
  0
ENDTAB
  0
TABLE
  2
APPID
 70
     1
  0
APPID
  2
ACAD
 70
     0
  0
ENDTAB
  0
TABLE
  2
DIMSTYLE
 70
     1
  0
DIMSTYLE
  2
STANDARD
 70
     0
  3

  4

  5

  6

  7

 40
1.0
 41
0.18
 42
0.0625
 43
0.38
 44
0.18
 45
0.0
 46
0.0
 47
0.0
 48
0.0
140
0.18
141
0.09
142
0.0
143
25.399999999999999
144
1.0
145
0.0
146
1.0
147
0.09
 71
     0
 72
     0
 73
     1
 74
     1
 75
     0
 76
     0
 77
     0
 78
     0
170
     0
171
     2
172
     0
173
     0
174
     0
175
     0
176
     0
177
     0
178
     0
  0
ENDTAB
  0
ENDSEC
  0
SECTION
  2
BLOCKS
  0
BLOCK
  8
0
  2
$MODEL_SPACE
 70
     0
 10
0.0
 20
0.0
 30
0.0
  3
$MODEL_SPACE
  1

  0
ENDBLK
  5
1DC
  8
0
  0
BLOCK
 67
     1
  8
0
  2
$PAPER_SPACE
 70
     0
 10
0.0
 20
0.0
 30
0.0
  3
$PAPER_SPACE
  1

  0
ENDBLK
  5
1D8
 67
     1
  8
0
  0
ENDSEC
  0
SECTION
  2
ENTITIES
  0
LINE
  5
2D
  8
HIBINO-BASE
  6
CONTINUOUS
 62
     7
 10
-169.99999999999989
 20
537.06362999999999
 30
0.0
 11
370.0
 21
537.06362999999999
 31
0.0
  0
LINE
  5
2E
  8
HIBINO-BASE
  6
CONTINUOUS
 62
     7
 10
370.0
 20
-242.93637000000001
 30
0.0
 11
-169.99999999999989
 21
-242.93637000000001
 31
0.0
  0
LINE
  5
2F
  8
HIBINO-BASE
  6
CONTINUOUS
 62
     7
 10
-169.99999999999989
 20
-242.93637000000001
 30
0.0
 11
-169.99999999999989
 21
537.06362999999999
 31
0.0
  0
TEXT
  5
30
  8
HIBINO-BASE
 62
     7
 10
-148.44799999999989
 20
-262.1624033999999
 30
0.0
 40
10.800132539062499
  1
Hibino Corporation
 41
0.8
 11
-148.44799999999989
 21
-251.3622708609374
 31
0.0
 73
     3
  0
LINE
  5
31
  8
HIBINO-BASE
  6
CONTINUOUS
 62
     7
 10
370.0
 20
537.06362999999999
 30
0.0
 11
370.0
 21
-242.93637000000001
 31
0.0
  0
LINE
  5
32
  8
HIBINO-BASE
  6
CONTINUOUS
 62
     7
 10
100.0
 20
-175.4363699999999
 30
0.0
 11
370.0
 21
-175.4363699999999
 31
0.0
  0
LINE
  5
33
  8
HIBINO-BASE
  6
CONTINUOUS
 62
     7
 10
100.0
 20
-242.93637000000001
 30
0.0
 11
100.0
 21
-175.4363699999999
 31
0.0
  0
TEXT
  5
34
  8
HIBINO-BASE
 62
     7
 10
102.7
 20
-182.96244999999999
 30
0.0
 40
4.8865234374999993
  1
NOTE
 41
0.8
 11
102.7
 21
-178.0759265625
 31
0.0
 73
     3
  0
LINE
  5
35
  8
HIBINO-BASE
  6
CONTINUOUS
 62
     7
 10
205.0
 20
-242.93637000000001
 30
0.0
 11
205.0
 21
-175.4363699999999
 31
0.0
  0
TEXT
  5
36
  8
HIBINO-BASE
 62
     7
 10
207.69999999999999
 20
-182.96244999999999
 30
0.0
 40
4.8865234374999993
  1
TITLE
 41
0.8
 11
207.69999999999999
 21
-178.0759265625
 31
0.0
 73
     3
  0
TEXT
  5
37
  8
HIBINO-BASE
 62
     7
 10
250.2051699999999
 20
-262.1624033999999
 30
0.0
 40
10.800132539062499
  1
ヒビノ株式会社
 41
0.8
 11
250.2051699999999
 21
-251.3622708609374
 31
0.0
 73
     3
  0
LINE
  5
38
  8
HIBINO-BASE
  6
CONTINUOUS
 62
     7
 10
100.0
 20
-212.9363699999999
 30
0.0
 11
370.0
 21
-212.9363699999999
 31
0.0
  0
TEXT
  5
39
  8
HIBINO-BASE
 62
     7
 10
245.19999999999999
 20
-220.29348999999999
 30
0.0
 40
4.8865234374999993
  1
DRAWN
 41
0.8
 11
245.19999999999999
 21
-215.4069665625
 31
0.0
 73
     3
  0
TEXT
  5
3A
  8
HIBINO-BASE
 62
     7
 10
170.19999999999999
 20
-220.29348999999999
 30
0.0
 40
4.8865234374999993
  1
DATE
 41
0.8
 11
170.19999999999999
 21
-215.4069665625
 31
0.0
 73
     3
  0
TEXT
  5
3B
  8
HIBINO-BASE
 62
     7
 10
140.19999999999999
 20
-220.29348999999999
 30
0.0
 40
4.8865234374999993
  1
SCALE
 41
0.8
 11
140.19999999999999
 21
-215.4069665625
 31
0.0
 73
     3
  0
TEXT
  5
3C
  8
HIBINO-BASE
 62
     7
 10
207.69999999999999
 20
-220.29348999999999
 30
0.0
 40
4.8865234374999993
  1
DESIGN
 41
0.8
 11
207.69999999999999
 21
-215.4069665625
 31
0.0
 73
     3
  0
TEXT
  5
3D
  8
HIBINO-BASE
 62
     7
 10
320.19999999999999
 20
-220.29348999999999
 30
0.0
 40
4.8865234374999993
  1
DRAWING NO.
 41
0.8
 11
320.19999999999999
 21
-215.4069665625
 31
0.0
 73
     3
  0
TEXT
  5
3E
  8
HIBINO-BASE
 62
     7
 10
282.69999999999999
 20
-220.29348999999999
 30
0.0
 40
4.8865234374999993
  1
CHECK
 41
0.8
 11
282.69999999999999
 21
-215.4069665625
 31
0.0
 73
     3
  0
LINE
  5
3F
  8
HIBINO-BASE
  6
CONTINUOUS
 62
     7
 10
143.12499999999989
 20
-239.18637000000001
 30
0.0
 11
154.375
 21
-227.93637000000001
 31
0.0
  0
TEXT
  5
40
  8
HIBINO-BASE
 62
     7
 10
141.24999999999989
 20
-231.26320000000001
 30
0.0
 40
4.8865234374999993
  1
1
 41
0.8
 11
141.24999999999989
 21
-226.37667656249999
 31
0.0
 73
     3
  0
LINE
  5
41
  8
HIBINO-BASE
  6
CONTINUOUS
 62
     7
 10
137.5
 20
-242.93637000000001
 30
0.0
 11
137.5
 21
-212.9363699999999
 31
0.0
  0
LINE
  5
42
  8
HIBINO-BASE
  6
CONTINUOUS
 62
     7
 10
167.5
 20
-242.93637000000001
 30
0.0
 11
167.5
 21
-212.9363699999999
 31
0.0
  0
LINE
  5
43
  8
HIBINO-BASE
  6
CONTINUOUS
 62
     7
 10
242.5
 20
-212.9363699999999
 30
0.0
 11
242.5
 21
-242.93637000000001
 31
0.0
  0
LINE
  5
44
  8
HIBINO-BASE
  6
CONTINUOUS
 62
     7
 10
317.5
 20
-212.9363699999999
 30
0.0
 11
317.5
 21
-242.93637000000001
 31
0.0
  0
LINE
  5
45
  8
HIBINO-BASE
  6
CONTINUOUS
 62
     7
 10
279.99999999999989
 20
-242.93637000000001
 30
0.0
 11
279.99999999999989
 21
-212.9363699999999
 31
0.0
  0
TEXT
  5
46
  8
HIBINO-BASE
 62
     7
 10
170.06961999999999
 20
-234.34542999999999
 30
0.0
 40
4.8865234374999993
  1
'94.01.
 41
0.8
 11
170.06961999999999
 21
-229.4589065625
 31
0.0
 73
     3
  0
TEXT
  5
47
  8
HIBINO-BASE
 62
     7
 10
152.5
 20
-236.88820000000001
 30
0.0
 40
4.8865234374999993
  1
3
 41
0.8
 11
152.5
 21
-232.00167656249999
 31
0.0
 73
     3
  0
TEXT
  5
48
  8
HIBINO-BASE
 62
     7
 10
247.01743003310389
 20
-234.34542999999999
 30
0.0
 40
4.8865234374999993
  1
N.Sasaki
 41
0.8
 11
247.01743003310389
 21
-229.4589065625
 31
0.0
 73
     3
  0
TEXT
  5
49
  8
HIBINO-BASE
 62
     7
 10
111.65000000000001
 20
-237.00837000000001
 30
0.0
 40
9.7730468749999986
  1
A4
 41
0.8
 11
111.65000000000001
 21
-227.23532312500001
 31
0.0
 73
     3
  0
TEXT
  5
4A
  8
HIBINO-BASE
 62
     7
 10
102.875
 20
-220.794735
 30
0.0
 40
4.8865234374999993
  1
PAPER SIZE
 41
0.8
 11
102.875
 21
-215.90821156249999
 31
0.0
 73
     3
  0
LINE
  5
4B
  8
SPEC
  6
CONTINUOUS
 62
     7
 10
-147.49999999999989
 20
507.06362999999988
 30
0.0
 11
295.0
 21
507.06362999999988
 31
0.0
  0
LINE
  5
4C
  8
SPEC
  6
CONTINUOUS
 62
     7
 10
-147.49999999999989
 20
495.81362999999988
 30
0.0
 11
295.0
 21
495.81362999999988
 31
0.0
  0
LINE
  5
4D
  8
SPEC
  6
CONTINUOUS
 62
     7
 10
-147.49999999999989
 20
473.31362999999988
 30
0.0
 11
295.0
 21
473.31362999999988
 31
0.0
  0
LINE
  5
4E
  8
SPEC
  6
CONTINUOUS
 62
     7
 10
-147.49999999999989
 20
484.56362999999988
 30
0.0
 11
295.0
 21
484.56362999999988
 31
0.0
  0
LINE
  5
4F
  8
SPEC
  6
CONTINUOUS
 62
     7
 10
-147.49999999999989
 20
405.81362999999988
 30
0.0
 11
295.0
 21
405.81362999999988
 31
0.0
  0
LINE
  5
50
  8
SPEC
  6
CONTINUOUS
 62
     7
 10
-147.49999999999989
 20
394.56362999999988
 30
0.0
 11
295.0
 21
394.56362999999988
 31
0.0
  0
LINE
  5
51
  8
SPEC
  6
CONTINUOUS
 62
     7
 10
-147.49999999999989
 20
372.06362999999988
 30
0.0
 11
295.0
 21
372.06362999999988
 31
0.0
  0
LINE
  5
52
  8
SPEC
  6
CONTINUOUS
 62
     7
 10
-147.49999999999989
 20
383.31362999999988
 30
0.0
 11
295.0
 21
383.31362999999988
 31
0.0
  0
LINE
  5
53
  8
SPEC
  6
CONTINUOUS
 62
     7
 10
-147.49999999999989
 20
507.06362999999988
 30
0.0
 11
-147.49999999999989
 21
372.06362999999988
 31
0.0
  0
TEXT
  5
54
  8
SPEC
 62
     7
 10
-143.74999999999989
 20
511.24343999999979
 30
0.0
 40
7.3297851562499989
  1
仕様
 41
0.8
 11
-143.74999999999989
 21
518.57322515624992
 31
0.0
 73
     3
  0
LINE
  5
55
  8
SPEC
  6
CONTINUOUS
 62
     7
 10
-50.0
 20
507.06362999999988
 30
0.0
 11
-50.0
 21
372.06362999999988
 31
0.0
  0
LINE
  5
56
  8
SPEC
  6
CONTINUOUS
 62
     7
 10
295.0
 20
507.06362999999988
 30
0.0
 11
295.0
 21
372.06362999999988
 31
0.0
  0
LINE
  5
57
  8
SPEC
  6
CONTINUOUS
 62
     7
 10
-147.49999999999989
 20
462.06362999999999
 30
0.0
 11
295.0
 21
462.06362999999999
 31
0.0
  0
LINE
  5
58
  8
SPEC
  6
CONTINUOUS
 62
     7
 10
-147.49999999999989
 20
439.56362999999988
 30
0.0
 11
295.0
 21
439.56362999999988
 31
0.0
  0
LINE
  5
59
  8
SPEC
  6
CONTINUOUS
 62
     7
 10
-147.49999999999989
 20
450.81362999999988
 30
0.0
 11
295.0
 21
450.81362999999988
 31
0.0
  0
LINE
  5
5A
  8
SPEC
  6
CONTINUOUS
 62
     7
 10
-147.49999999999989
 20
428.31362999999988
 30
0.0
 11
295.0
 21
428.31362999999988
 31
0.0
  0
LINE
  5
5B
  8
SPEC
  6
CONTINUOUS
 62
     7
 10
-147.49999999999989
 20
417.06362999999988
 30
0.0
 11
295.0
 21
417.06362999999988
 31
0.0
  0
TEXT
  5
5C
  8
SPEC
 62
     7
 10
-144.80000000000001
 20
498.1773966666666
 30
0.0
 40
5.7009440104166647
  1
形式
 41
0.8
 11
-144.80000000000001
 21
503.8783406770832
 31
0.0
 73
     3
  0
TEXT
  5
5D
  8
SPEC
 62
     7
 10
-144.80000000000001
 20
486.9273966666666
 30
0.0
 40
5.7009440104166647
  1
指向特性
 41
0.8
 11
-144.80000000000001
 21
492.6283406770832
 31
0.0
 73
     3
  0
TEXT
  5
5E
  8
SPEC
 62
     7
 10
-144.80000000000001
 20
475.67739666666648
 30
0.0
 40
5.7009440104166647
  1
周波数特性
 41
0.8
 11
-144.80000000000001
 21
481.3783406770832
 31
0.0
 73
     3
  0
TEXT
  5
5F
  8
SPEC
 62
     7
 10
-144.80000000000001
 20
441.9273966666666
 30
0.0
 40
5.7009440104166647
  1
等価雑音レベル
 41
0.8
 11
-144.80000000000001
 21
447.6283406770832
 31
0.0
 73
     3
  0
TEXT
  5
60
  8
SPEC
 62
     7
 10
-144.80000000000001
 20
430.6773966666666
 30
0.0
 40
5.7009440104166647
  1
最大音圧レベル
 41
0.8
 11
-144.80000000000001
 21
436.3783406770832
 31
0.0
 73
     3
  0
TEXT
  5
61
  8
SPEC
 62
     7
 10
-144.80000000000001
 20
419.42739666666648
 30
0.0
 40
5.7009440104166647
  1
電源
 41
0.8
 11
-144.80000000000001
 21
425.1283406770832
 31
0.0
 73
     3
  0
TEXT
  5
62
  8
SPEC
 62
     7
 10
-144.80000000000001
 20
464.42739666666648
 30
0.0
 40
5.7009440104166647
  1
インピーダンス
 41
0.8
 11
-144.80000000000001
 21
470.12834067708332
 31
0.0
 73
     3
  0
TEXT
  5
63
  8
SPEC
 62
     7
 10
-144.80000000000001
 20
453.1773966666666
 30
0.0
 40
5.7009440104166647
  1
開回路感度
 41
0.8
 11
-144.80000000000001
 21
458.8783406770832
 31
0.0
 73
     3
  0
TEXT
  5
64
  8
SPEC
 62
     7
 10
-144.80000000000001
 20
385.6773966666666
 30
0.0
 40
5.7009440104166647
  1
寸法
 41
0.8
 11
-144.80000000000001
 21
391.3783406770832
 31
0.0
 73
     3
  0
TEXT
  5
65
  8
SPEC
 62
     7
 10
-144.80000000000001
 20
374.4273966666666
 30
0.0
 40
5.7009440104166647
  1
重量
 41
0.8
 11
-144.80000000000001
 21
380.12834067708332
 31
0.0
 73
     3
  0
TEXT
  5
66
  8
SPEC
 62
     7
 10
-144.80000000000001
 20
396.9273966666666
 30
0.0
 40
5.7009440104166647
  1
色
 41
0.8
 11
-144.80000000000001
 21
402.6283406770832
 31
0.0
 73
     3
  0
TEXT
  5
67
  8
SPEC
 62
     7
 10
-144.80000000000001
 20
408.17739666666648
 30
0.0
 40
5.7009440104166647
  1
コネクタ 
 41
0.8
 11
-144.80000000000001
 21
413.8783406770832
 31
0.0
 73
     3
  0
TEXT
  5
68
  8
SPEC
 62
     7
 10
-47.29999999999999
 20
498.1773966666666
 30
0.0
 40
5.7009440104166647
  1
エレクトレットコンデンサ
 41
0.8
 11
-47.29999999999999
 21
503.8783406770832
 31
0.0
 73
     3
  0
TEXT
  5
69
  8
SPEC
 62
     7
 10
-47.29999999999999
 20
419.42739666666648
 30
0.0
 40
5.7009440104166647
  1
ファンタム 12V～48V/1.1mA
 41
0.8
 11
-47.29999999999999
 21
425.1283406770832
 31
0.0
 73
     3
  0
TEXT
  5
6A
  8
SPEC
 62
     7
 10
-47.29999999999999
 20
441.9273966666666
 30
0.0
 40
5.7009440104166647
  1
20dB SPL(Aウエイト)
 41
0.8
 11
-47.29999999999999
 21
447.6283406770832
 31
0.0
 73
     3
  0
TEXT
  5
6B
  8
SPEC
 62
     7
 10
-47.29999999999999
 20
385.6773966666666
 30
0.0
 40
5.7009440104166647
  1
116(W)×38(H)×116(D)mm
 41
0.8
 11
-47.29999999999999
 21
391.3783406770832
 31
0.0
 73
     3
  0
TEXT
  5
6C
  8
SPEC
 62
     7
 10
-47.29999999999999
 20
464.42739666666648
 30
0.0
 40
5.7009440104166647
  1
240Ω
 41
0.8
 11
-47.29999999999999
 21
470.12834067708332
 31
0.0
 73
     3
  0
TEXT
  5
6D
  8
SPEC
 62
     7
 10
-47.29999999999999
 20
430.6773966666666
 30
0.0
 40
5.7009440104166647
  1
150dB SPL(3%%%THD)
 41
0.8
 11
-47.29999999999999
 21
436.3783406770832
 31
0.0
 73
     3
  0
TEXT
  5
6E
  8
SPEC
 62
     7
 10
-47.29999999999999
 20
453.1773966666666
 30
0.0
 40
5.7009440104166647
  1
-43dB re 1V/Pa
 41
0.8
 11
-47.29999999999999
 21
458.8783406770832
 31
0.0
 73
     3
  0
TEXT
  5
6F
  8
SPEC
 62
     7
 10
-47.29999999999999
 20
396.9273966666666
 30
0.0
 40
5.7009440104166647
  1
黒
 41
0.8
 11
-47.29999999999999
 21
402.6283406770832
 31
0.0
 73
     3
  0
TEXT
  5
70
  8
SPEC
 62
     7
 10
-47.29999999999999
 20
408.17739666666648
 30
0.0
 40
5.7009440104166647
  1
ターミナル
 41
0.8
 11
-47.29999999999999
 21
413.8783406770832
 31
0.0
 73
     3
  0
TEXT
  5
71
  8
SPEC
 62
     7
 10
-47.29999999999999
 20
374.4273966666666
 30
0.0
 40
5.7009440104166647
  1
約230g
 41
0.8
 11
-47.29999999999999
 21
380.12834067708332
 31
0.0
 73
     3
  0
TEXT
  5
72
  8
SPEC
 62
     7
 10
-47.29999999999999
 20
486.9273966666666
 30
0.0
 40
5.7009440104166647
  1
半球型 
 41
0.8
 11
-47.29999999999999
 21
492.6283406770832
 31
0.0
 73
     3
  0
TEXT
  5
73
  8
SPEC
 62
     7
 10
-47.29999999999999
 20
475.67739666666648
 30
0.0
 40
5.7009440104166647
  1
80Hz～20kHz
 41
0.8
 11
-47.29999999999999
 21
481.3783406770832
 31
0.0
 73
     3
  0
TEXT
  5
74
  8
DIMNSIONS
 62
     7
 10
40.0
 20
-206.12790000000001
 30
0.0
 40
7.3297851562499989
  1
(単位：mm)
 41
0.8
 11
40.0
 21
-198.79811484375
 31
0.0
 73
     3
  0
TEXT
  5
75
  8
DIMNSIONS
 62
     7
 10
141.25
 20
245.49226681472081
 30
0.0
 40
6.4453124999999991
  1
取付ﾈｼﾞ×2
 41
0.8
 11
141.25
 21
251.93757931472081
 31
0.0
 73
     3
  0
TEXT
  5
76
  8
DIMNSIONS
 62
     7
 10
141.25
 20
235.49226681472081
 30
0.0
 40
6.4453124999999991
  1
（4．5mm）
 41
0.8
 11
141.25
 21
241.93757931472081
 31
0.0
 73
     3
  0
TEXT
  5
77
  8
DIMNSIONS
 62
     7
 10
-20.18186726713623
 20
-129.50773318527911
 30
0.0
 40
6.4453124999999991
  1
2-φ4.5（ｻﾗ穴）
 41
0.8
 11
-20.18186726713623
 21
-123.06242068527909
 31
0.0
 73
     3
  0
LINE
  5
78
  8
DIMNSIONS
  6
CONTINUOUS
 62
     7
 10
73.854588374217897
 20
-88.174260395203362
 30
0.0
 11
50.0
 21
-125.0
 31
0.0
  0
LINE
  5
79
  8
DIMNSIONS
  6
CONTINUOUS
 62
     7
 10
73.854588374217897
 20
-88.174260395203362
 30
0.0
 11
70.807370056503544
 21
-97.552634045811544
 31
0.0
  0
LINE
  5
7A
  8
DIMNSIONS
  6
CONTINUOUS
 62
     7
 10
73.854588374217897
 20
-88.174260395203362
 30
0.0
 11
66.52643307489592
 21
-94.772561063955479
 31
0.0
  0
LINE
  5
7B
  8
DIMNSIONS
  6
CONTINUOUS
 62
     7
 10
50.0
 20
-125.0
 30
0.0
 11
37.5
 21
-125.0
 31
0.0
  0
TEXT
  5
7C
  8
DIMNSIONS
 62
     7
 10
66.25
 20
320.49226681472078
 30
0.0
 40
6.4453124999999991
  1
接続用ネジ×３
 41
0.8
 11
66.25
 21
326.93757931472078
 31
0.0
 73
     3
  0
TEXT
  5
7D
  8
DIMNSIONS
 62
     7
 10
66.25
 20
310.49226681472089
 30
0.0
 40
6.4453124999999991
  1
（－ネジ止）
 41
0.8
 11
66.25
 21
316.93757931472089
 31
0.0
 73
     3
  0
LINE
  5
7E
  8
DIMNSIONS
  6
CONTINUOUS
 62
     7
 10
19.361239999999949
 20
254.22556
 30
0.0
 11
50.0
 21
325.0
 31
0.0
  0
LINE
  5
7F
  8
DIMNSIONS
  6
CONTINUOUS
 62
     7
 10
19.361239999999949
 20
254.22556
 30
0.0
 11
20.903841138674011
 21
263.96516027584272
 31
0.0
  0
LINE
  5
80
  8
DIMNSIONS
  6
CONTINUOUS
 62
     7
 10
19.361239999999949
 20
254.22556
 30
0.0
 11
25.566971911919879
 21
261.88900069224871
 31
0.0
  0
LINE
  5
81
  8
DIMNSIONS
  6
CONTINUOUS
 62
     7
 10
50.0
 20
325.0
 30
0.0
 11
62.5
 21
325.0
 31
0.0
  0
LINE
  5
82
  8
DIMNSIONS
  6
CONTINUOUS
 62
     7
 10
78.048763759617245
 20
275.00608658524209
 30
0.0
 11
125.0
 21
250.0
 31
0.0
  0
LINE
  5
83
  8
DIMNSIONS
  6
CONTINUOUS
 62
     7
 10
78.048763759617245
 20
275.00608658524209
 30
0.0
 11
87.616855367940218
 21
272.62049341351832
 31
0.0
  0
LINE
  5
84
  8
DIMNSIONS
  6
CONTINUOUS
 62
     7
 10
78.048763759617245
 20
275.00608658524209
 30
0.0
 11
85.142177572299786
 21
268.15605649127309
 31
0.0
  0
LINE
  5
85
  8
DIMNSIONS
  6
CONTINUOUS
 62
     7
 10
125.0
 20
250.0
 30
0.0
 11
137.5
 21
250.0
 31
0.0
  0
LINE
  5
86
  8
DIMNSIONS
  6
CONTINUOUS
 62
     7
 10
12.5
 20
291.29917
 30
0.0
 11
12.5
 21
262.09735000000001
 31
0.0
  0
LINE
  5
87
  8
DIMNSIONS
  6
CONTINUOUS
 62
     7
 10
12.5
 20
291.29917
 30
0.0
 11
14.51011938545072
 21
283.79730232421878
 31
0.0
  0
LINE
  5
88
  8
DIMNSIONS
  6
CONTINUOUS
 62
     7
 10
12.5
 20
291.29917
 30
0.0
 11
10.48988061454927
 21
283.79730232421878
 31
0.0
  0
LINE
  5
89
  8
DIMNSIONS
  6
CONTINUOUS
 62
     7
 10
12.5
 20
262.09735000000001
 30
0.0
 11
10.489880614549261
 21
269.59921767578118
 31
0.0
  0
LINE
  5
8A
  8
DIMNSIONS
  6
CONTINUOUS
 62
     7
 10
12.5
 20
262.09735000000001
 30
0.0
 11
14.51011938545072
 21
269.59921767578118
 31
0.0
  0
TEXT
  5
8B
  8
DIMNSIONS
 62
     7
 10
9.5183333333333255
 20
271.40659333333332
 30
0.0
 40
8.1442057291666661
  1
29
 50
90.0
 41
0.8
 11
1.374127604166659
 21
271.40659333333332
 31
0.0
 73
     3
  0
LINE
  5
8C
  8
DIMNSIONS
  6
CONTINUOUS
 62
     7
 10
51.432359999999903
 20
212.5
 30
0.0
 11
91.299139999999852
 21
212.5
 31
0.0
  0
LINE
  5
8D
  8
DIMNSIONS
  6
CONTINUOUS
 62
     7
 10
51.432359999999903
 20
212.5
 30
0.0
 11
58.934227675781152
 21
214.51011938545079
 31
0.0
  0
LINE
  5
8E
  8
DIMNSIONS
  6
CONTINUOUS
 62
     7
 10
51.432359999999903
 20
212.5
 30
0.0
 11
58.934227675781152
 21
210.48988061454929
 31
0.0
  0
LINE
  5
8F
  8
DIMNSIONS
  6
CONTINUOUS
 62
     7
 10
91.299139999999852
 20
212.5
 30
0.0
 11
83.797272324218596
 21
210.48988061454929
 31
0.0
  0
LINE
  5
90
  8
DIMNSIONS
  6
CONTINUOUS
 62
     7
 10
91.299139999999852
 20
212.5
 30
0.0
 11
83.797272324218596
 21
214.51011938545079
 31
0.0
  0
TEXT
  5
91
  8
DIMNSIONS
 62
     7
 10
66.07408333333322
 20
215.48166666666671
 30
0.0
 40
8.1442057291666661
  1
40
 41
0.8
 11
66.07408333333322
 21
223.6258723958334
 31
0.0
 73
     3
  0
LINE
  5
92
  8
DIMNSIONS
  6
CONTINUOUS
 62
     7
 10
-0.1150500000001102
 20
212.5
 30
0.0
 11
-25.0
 21
212.5
 31
0.0
  0
LINE
  5
93
  8
DIMNSIONS
  6
CONTINUOUS
 62
     7
 10
-0.1150500000001102
 20
212.5
 30
0.0
 11
-7.6169176757813499
 21
210.48988061454929
 31
0.0
  0
LINE
  5
94
  8
DIMNSIONS
  6
CONTINUOUS
 62
     7
 10
-0.1150500000001102
 20
212.5
 30
0.0
 11
-7.6169176757813499
 21
214.51011938545079
 31
0.0
  0
LINE
  5
95
  8
DIMNSIONS
  6
CONTINUOUS
 62
     7
 10
-25.0
 20
212.5
 30
0.0
 11
-17.498132324218759
 21
214.51011938545079
 31
0.0
  0
LINE
  5
96
  8
DIMNSIONS
  6
CONTINUOUS
 62
     7
 10
-25.0
 20
212.5
 30
0.0
 11
-17.498132324218759
 21
210.48988061454929
 31
0.0
  0
TEXT
  5
97
  8
DIMNSIONS
 62
     7
 10
-17.84919166666673
 20
215.48166666666671
 30
0.0
 40
8.1442057291666661
  1
25
 41
0.8
 11
-17.84919166666673
 21
223.6258723958334
 31
0.0
 73
     3
  0
LINE
  5
98
  8
DIMNSIONS
  6
CONTINUOUS
 62
     7
 10
12.5
 20
202.9320100000001
 30
0.0
 11
12.5
 21
175.0
 31
0.0
  0
LINE
  5
99
  8
DIMNSIONS
  6
CONTINUOUS
 62
     7
 10
12.5
 20
202.9320100000001
 30
0.0
 11
14.51011938545072
 21
195.43014232421879
 31
0.0
  0
LINE
  5
9A
  8
DIMNSIONS
  6
CONTINUOUS
 62
     7
 10
12.5
 20
202.9320100000001
 30
0.0
 11
10.48988061454927
 21
195.43014232421879
 31
0.0
  0
LINE
  5
9B
  8
DIMNSIONS
  6
CONTINUOUS
 62
     7
 10
12.5
 20
175.0
 30
0.0
 11
10.489880614549261
 21
182.50186767578131
 31
0.0
  0
LINE
  5
9C
  8
DIMNSIONS
  6
CONTINUOUS
 62
     7
 10
12.5
 20
175.0
 30
0.0
 11
14.51011938545072
 21
182.50186767578131
 31
0.0
  0
TEXT
  5
9D
  8
DIMNSIONS
 62
     7
 10
9.5183333333333255
 20
183.6743383333334
 30
0.0
 40
8.1442057291666661
  1
28
 50
90.0
 41
0.8
 11
1.374127604166659
 21
183.6743383333334
 31
0.0
 73
     3
  0
LINE
  5
9E
  8
DIMNSIONS
  6
CONTINUOUS
 62
     7
 10
-6.114680000000134
 20
131.68000000000001
 30
0.0
 11
-56.000000000000021
 21
131.68000000000001
 31
0.0
  0
LINE
  5
9F
  8
DIMNSIONS
  6
CONTINUOUS
 62
     7
 10
1.756739999999922
 20
93.65178999999992
 30
0.0
 11
-56.000000000000021
 21
93.65178999999992
 31
0.0
  0
LINE
  5
A0
  8
DIMNSIONS
  6
CONTINUOUS
 62
     7
 10
-50.000000000000021
 20
131.68000000000001
 30
0.0
 11
-50.000000000000021
 21
93.65178999999992
 31
0.0
  0
LINE
  5
A1
  8
DIMNSIONS
  6
CONTINUOUS
 62
     7
 10
-50.000000000000021
 20
131.68000000000001
 30
0.0
 11
-47.989880614549278
 21
124.17813232421869
 31
0.0
  0
LINE
  5
A2
  8
DIMNSIONS
  6
CONTINUOUS
 62
     7
 10
-50.000000000000021
 20
131.68000000000001
 30
0.0
 11
-52.01011938545075
 21
124.17813232421869
 31
0.0
  0
LINE
  5
A3
  8
DIMNSIONS
  6
CONTINUOUS
 62
     7
 10
-50.000000000000021
 20
93.65178999999992
 30
0.0
 11
-52.01011938545075
 21
101.1536576757811
 31
0.0
  0
LINE
  5
A4
  8
DIMNSIONS
  6
CONTINUOUS
 62
     7
 10
-50.000000000000021
 20
93.65178999999992
 30
0.0
 11
-47.989880614549278
 21
101.1536576757811
 31
0.0
  0
TEXT
  5
A5
  8
DIMNSIONS
 62
     7
 10
-52.981666666666662
 20
107.37422833333321
 30
0.0
 40
8.1442057291666661
  1
38
 50
90.0
 41
0.8
 11
-61.125872395833341
 21
107.37422833333321
 31
0.0
 73
     3
  0
LINE
  5
A6
  8
DIMNSIONS
  6
CONTINUOUS
 62
     7
 10
-9.7643000000000484
 20
11.126279999999859
 30
0.0
 11
-9.7643000000000484
 21
56.0
 31
0.0
  0
LINE
  5
A7
  8
DIMNSIONS
  6
CONTINUOUS
 62
     7
 10
91.299139999999852
 20
17.29913999999993
 30
0.0
 11
91.299139999999852
 21
56.0
 31
0.0
  0
LINE
  5
A8
  8
DIMNSIONS
  6
CONTINUOUS
 62
     7
 10
-9.7643000000000484
 20
50.0
 30
0.0
 11
91.299139999999852
 21
50.0
 31
0.0
  0
LINE
  5
A9
  8
DIMNSIONS
  6
CONTINUOUS
 62
     7
 10
-9.7643000000000484
 20
50.0
 30
0.0
 11
-2.262432324218806
 21
52.010119385450743
 31
0.0
  0
LINE
  5
AA
  8
DIMNSIONS
  6
CONTINUOUS
 62
     7
 10
-9.7643000000000484
 20
50.0
 30
0.0
 11
-2.262432324218806
 21
47.989880614549257
 31
0.0
  0
LINE
  5
AB
  8
DIMNSIONS
  6
CONTINUOUS
 62
     7
 10
91.299139999999852
 20
50.0
 30
0.0
 11
83.797272324218596
 21
47.989880614549257
 31
0.0
  0
LINE
  5
AC
  8
DIMNSIONS
  6
CONTINUOUS
 62
     7
 10
91.299139999999852
 20
50.0
 30
0.0
 11
83.797272324218596
 21
52.010119385450743
 31
0.0
  0
TEXT
  5
AD
  8
DIMNSIONS
 62
     7
 10
32.829919999999902
 20
52.981666666666662
 30
0.0
 40
8.1442057291666661
  1
101
 41
0.8
 11
32.829919999999902
 21
61.125872395833341
 31
0.0
 73
     3
  0
LINE
  5
AE
  8
DIMNSIONS
  6
CONTINUOUS
 62
     7
 10
-26.0
 20
16.299139999999941
 30
0.0
 11
-56.000000000000021
 21
16.299139999999941
 31
0.0
  0
LINE
  5
AF
  8
DIMNSIONS
  6
CONTINUOUS
 62
     7
 10
-19.827149999999961
 20
1.063429999999953
 30
0.0
 11
-56.000000000000021
 21
1.063429999999953
 31
0.0
  0
LINE
  5
B0
  8
DIMNSIONS
  6
CONTINUOUS
 62
     7
 10
-50.000000000000021
 20
1.063429999999953
 30
0.0
 11
-50.000000000000021
 21
16.299139999999941
 31
0.0
  0
LINE
  5
B1
  8
DIMNSIONS
  6
CONTINUOUS
 62
     7
 10
-50.000000000000021
 20
16.299139999999941
 30
0.0
 11
-50.000000000000021
 21
35.583333333333329
 31
0.0
  0
LINE
  5
B2
  8
DIMNSIONS
  6
CONTINUOUS
 62
     7
 10
-50.000000000000021
 20
16.299139999999941
 30
0.0
 11
-52.01011938545075
 21
23.8010076757812
 31
0.0
  0
LINE
  5
B3
  8
DIMNSIONS
  6
CONTINUOUS
 62
     7
 10
-50.000000000000021
 20
16.299139999999941
 30
0.0
 11
-47.989880614549278
 21
23.8010076757812
 31
0.0
  0
LINE
  5
B4
  8
DIMNSIONS
  6
CONTINUOUS
 62
     7
 10
-50.000000000000021
 20
1.063429999999953
 30
0.0
 11
-50.000000000000021
 21
-13.936570000000041
 31
0.0
  0
LINE
  5
B5
  8
DIMNSIONS
  6
CONTINUOUS
 62
     7
 10
-50.000000000000021
 20
1.063429999999953
 30
0.0
 11
-47.989880614549278
 21
-6.4384376757813007
 31
0.0
  0
LINE
  5
B6
  8
DIMNSIONS
  6
CONTINUOUS
 62
     7
 10
-50.000000000000021
 20
1.063429999999953
 30
0.0
 11
-52.01011938545075
 21
-6.4384376757813007
 31
0.0
  0
TEXT
  5
B7
  8
DIMNSIONS
 62
     7
 10
-52.981666666666662
 20
25.0
 30
0.0
 40
8.1442057291666661
  1
15
 50
90.0
 41
0.8
 11
-61.125872395833341
 21
25.0
 31
0.0
 73
     3
  0
LINE
  5
B8
  8
DIMNSIONS
  6
CONTINUOUS
 62
     7
 10
-26.0
 20
16.299139999999941
 30
0.0
 11
-81.000000000000014
 21
16.299139999999941
 31
0.0
  0
LINE
  5
B9
  8
DIMNSIONS
  6
CONTINUOUS
 62
     7
 10
-26.0
 20
-100.0
 30
0.0
 11
-81.000000000000014
 21
-100.0
 31
0.0
  0
LINE
  5
BA
  8
DIMNSIONS
  6
CONTINUOUS
 62
     7
 10
-75.000000000000014
 20
16.299139999999941
 30
0.0
 11
-75.000000000000014
 21
-100.0
 31
0.0
  0
LINE
  5
BB
  8
DIMNSIONS
  6
CONTINUOUS
 62
     7
 10
-75.000000000000014
 20
16.299139999999941
 30
0.0
 11
-72.989880614549264
 21
8.7972723242186817
 31
0.0
  0
LINE
  5
BC
  8
DIMNSIONS
  6
CONTINUOUS
 62
     7
 10
-75.000000000000014
 20
16.299139999999941
 30
0.0
 11
-77.01011938545075
 21
8.7972723242186817
 31
0.0
  0
LINE
  5
BD
  8
DIMNSIONS
  6
CONTINUOUS
 62
     7
 10
-75.000000000000014
 20
-100.0
 30
0.0
 11
-77.01011938545075
 21
-92.498132324218759
 31
0.0
  0
LINE
  5
BE
  8
DIMNSIONS
  6
CONTINUOUS
 62
     7
 10
-75.000000000000014
 20
-100.0
 30
0.0
 11
-72.989880614549264
 21
-92.498132324218759
 31
0.0
  0
TEXT
  5
BF
  8
DIMNSIONS
 62
     7
 10
-77.981666666666655
 20
-49.787930000000038
 30
0.0
 40
8.1442057291666661
  1
116
 50
90.0
 41
0.8
 11
-86.125872395833326
 21
-49.787930000000038
 31
0.0
 73
     3
  0
LINE
  5
C0
  8
DIMNSIONS
  6
CONTINUOUS
 62
     7
 10
-25.0
 20
-101.0
 30
0.0
 11
-25.0
 21
-156.0
 31
0.0
  0
LINE
  5
C1
  8
DIMNSIONS
  6
CONTINUOUS
 62
     7
 10
91.299130000000005
 20
-101.0014
 30
0.0
 11
91.299130000000005
 21
-156.0
 31
0.0
  0
LINE
  5
C2
  8
DIMNSIONS
  6
CONTINUOUS
 62
     7
 10
-25.0
 20
-150.0
 30
0.0
 11
91.299130000000005
 21
-150.0
 31
0.0
  0
LINE
  5
C3
  8
DIMNSIONS
  6
CONTINUOUS
 62
     7
 10
-25.0
 20
-150.0
 30
0.0
 11
-17.498132324218759
 21
-147.98988061454921
 31
0.0
  0
LINE
  5
C4
  8
DIMNSIONS
  6
CONTINUOUS
 62
     7
 10
-25.0
 20
-150.0
 30
0.0
 11
-17.498132324218759
 21
-152.01011938545071
 31
0.0
  0
LINE
  5
C5
  8
DIMNSIONS
  6
CONTINUOUS
 62
     7
 10
91.299130000000005
 20
-150.0
 30
0.0
 11
83.797262324218735
 21
-152.01011938545071
 31
0.0
  0
LINE
  5
C6
  8
DIMNSIONS
  6
CONTINUOUS
 62
     7
 10
91.299130000000005
 20
-150.0
 30
0.0
 11
83.797262324218735
 21
-147.98988061454921
 31
0.0
  0
TEXT
  5
C7
  8
DIMNSIONS
 62
     7
 10
25.212064999999999
 20
-147.01833333333329
 30
0.0
 40
8.1442057291666661
  1
116
 41
0.8
 11
25.212064999999999
 21
-138.87412760416669
 31
0.0
 73
     3
  0
LINE
  5
C8
  8
DIMNSIONS
  6
CONTINUOUS
 62
     7
 10
76.063449999999875
 20
-94.827170000000024
 30
0.0
 11
76.063449999999875
 21
-131.0
 31
0.0
  0
LINE
  5
C9
  8
DIMNSIONS
  6
CONTINUOUS
 62
     7
 10
91.299130000000005
 20
-101.0014
 30
0.0
 11
91.299130000000005
 21
-131.0
 31
0.0
  0
LINE
  5
CA
  8
DIMNSIONS
  6
CONTINUOUS
 62
     7
 10
91.299130000000005
 20
-125.0
 30
0.0
 11
76.063449999999875
 21
-125.0
 31
0.0
  0
LINE
  5
CB
  8
DIMNSIONS
  6
CONTINUOUS
 62
     7
 10
76.063449999999875
 20
-125.0
 30
0.0
 11
61.063449999999882
 21
-125.0
 31
0.0
  0
LINE
  5
CC
  8
DIMNSIONS
  6
CONTINUOUS
 62
     7
 10
76.063449999999875
 20
-125.0
 30
0.0
 11
68.561582324218605
 21
-127.01011938545069
 31
0.0
  0
LINE
  5
CD
  8
DIMNSIONS
  6
CONTINUOUS
 62
     7
 10
76.063449999999875
 20
-125.0
 30
0.0
 11
68.561582324218605
 21
-122.98988061454919
 31
0.0
  0
LINE
  5
CE
  8
DIMNSIONS
  6
CONTINUOUS
 62
     7
 10
91.299130000000005
 20
-125.0
 30
0.0
 11
106.29913000000001
 21
-125.0
 31
0.0
  0
LINE
  5
CF
  8
DIMNSIONS
  6
CONTINUOUS
 62
     7
 10
91.299130000000005
 20
-125.0
 30
0.0
 11
98.800997675781232
 21
-122.98988061454919
 31
0.0
  0
LINE
  5
D0
  8
DIMNSIONS
  6
CONTINUOUS
 62
     7
 10
91.299130000000005
 20
-125.0
 30
0.0
 11
98.800997675781232
 21
-127.01011938545069
 31
0.0
  0
TEXT
  5
D1
  8
DIMNSIONS
 62
     7
 10
78.389623333333262
 20
-122.0183333333333
 30
0.0
 40
8.1442057291666661
  1
15
 41
0.8
 11
78.389623333333262
 21
-113.8741276041666
 31
0.0
 73
     3
  0
LINE
  5
D2
  8
DIMNSIONS
  6
CONTINUOUS
 62
     7
 10
92.299130000000005
 20
16.299139999999941
 30
0.0
 11
131.0
 21
16.299139999999941
 31
0.0
  0
LINE
  5
D3
  8
DIMNSIONS
  6
CONTINUOUS
 62
     7
 10
86.126309999999862
 20
-84.764310000000023
 30
0.0
 11
131.0
 21
-84.764310000000023
 31
0.0
  0
LINE
  5
D4
  8
DIMNSIONS
  6
CONTINUOUS
 62
     7
 10
125.0
 20
16.299139999999941
 30
0.0
 11
125.0
 21
-84.764310000000023
 31
0.0
  0
LINE
  5
D5
  8
DIMNSIONS
  6
CONTINUOUS
 62
     7
 10
125.0
 20
16.299139999999941
 30
0.0
 11
127.01011938545069
 21
8.7972723242186817
 31
0.0
  0
LINE
  5
D6
  8
DIMNSIONS
  6
CONTINUOUS
 62
     7
 10
125.0
 20
16.299139999999941
 30
0.0
 11
122.98988061454919
 21
8.7972723242186817
 31
0.0
  0
LINE
  5
D7
  8
DIMNSIONS
  6
CONTINUOUS
 62
     7
 10
125.0
 20
-84.764310000000023
 30
0.0
 11
122.98988061454919
 21
-77.262442324218753
 31
0.0
  0
LINE
  5
D8
  8
DIMNSIONS
  6
CONTINUOUS
 62
     7
 10
125.0
 20
-84.764310000000023
 30
0.0
 11
127.01011938545069
 21
-77.262442324218753
 31
0.0
  0
TEXT
  5
D9
  8
DIMNSIONS
 62
     7
 10
122.0183333333333
 20
-42.170085000000022
 30
0.0
 40
8.1442057291666661
  1
101
 50
90.0
 41
0.8
 11
113.8741276041666
 21
-42.170085000000022
 31
0.0
 73
     3
  0
LINE
  5
DA
  8
DIMNSIONS
  6
CONTINUOUS
 62
     7
 10
179.7488199999998
 20
22.29913999999993
 30
0.0
 11
179.7488199999998
 21
81.0
 31
0.0
  0
LINE
  5
DB
  8
DIMNSIONS
  6
CONTINUOUS
 62
     7
 10
175.00037999999989
 20
22.29913999999993
 30
0.0
 11
175.00037999999989
 21
81.0
 31
0.0
  0
LINE
  5
DC
  8
DIMNSIONS
  6
CONTINUOUS
 62
     7
 10
175.00037999999989
 20
75.0
 30
0.0
 11
179.7488199999998
 21
75.0
 31
0.0
  0
LINE
  5
DD
  8
DIMNSIONS
  6
CONTINUOUS
 62
     7
 10
179.7488199999998
 20
75.0
 30
0.0
 11
194.7488199999998
 21
75.0
 31
0.0
  0
LINE
  5
DE
  8
DIMNSIONS
  6
CONTINUOUS
 62
     7
 10
179.7488199999998
 20
75.0
 30
0.0
 11
187.25068767578099
 21
77.010119385450736
 31
0.0
  0
LINE
  5
DF
  8
DIMNSIONS
  6
CONTINUOUS
 62
     7
 10
179.7488199999998
 20
75.0
 30
0.0
 11
187.25068767578099
 21
72.989880614549264
 31
0.0
  0
LINE
  5
E0
  8
DIMNSIONS
  6
CONTINUOUS
 62
     7
 10
175.00037999999989
 20
75.0
 30
0.0
 11
160.00037999999989
 21
75.0
 31
0.0
  0
LINE
  5
E1
  8
DIMNSIONS
  6
CONTINUOUS
 62
     7
 10
175.00037999999989
 20
75.0
 30
0.0
 11
167.49851232421869
 21
72.989880614549264
 31
0.0
  0
LINE
  5
E2
  8
DIMNSIONS
  6
CONTINUOUS
 62
     7
 10
175.00037999999989
 20
75.0
 30
0.0
 11
167.49851232421869
 21
77.010119385450736
 31
0.0
  0
TEXT
  5
E3
  8
DIMNSIONS
 62
     7
 10
174.7287666666665
 20
77.981666666666655
 30
0.0
 40
8.1442057291666661
  1
5
 41
0.8
 11
174.7287666666665
 21
86.125872395833326
 31
0.0
 73
     3
  0
LINE
  5
E4
  8
DIMNSIONS
  6
CONTINUOUS
 62
     7
 10
175.00037999999989
 20
22.29913999999993
 30
0.0
 11
175.00037999999989
 21
56.0
 31
0.0
  0
LINE
  5
E5
  8
DIMNSIONS
  6
CONTINUOUS
 62
     7
 10
168.65213999999989
 20
-11.02342999999993
 30
0.0
 11
168.65213999999989
 21
56.0
 31
0.0
  0
LINE
  5
E6
  8
DIMNSIONS
  6
CONTINUOUS
 62
     7
 10
168.65213999999989
 20
50.0
 30
0.0
 11
175.00037999999989
 21
50.0
 31
0.0
  0
LINE
  5
E7
  8
DIMNSIONS
  6
CONTINUOUS
 62
     7
 10
175.00037999999989
 20
50.0
 30
0.0
 11
190.00037999999989
 21
50.0
 31
0.0
  0
LINE
  5
E8
  8
DIMNSIONS
  6
CONTINUOUS
 62
     7
 10
175.00037999999989
 20
50.0
 30
0.0
 11
182.50224767578121
 21
52.010119385450743
 31
0.0
  0
LINE
  5
E9
  8
DIMNSIONS
  6
CONTINUOUS
 62
     7
 10
175.00037999999989
 20
50.0
 30
0.0
 11
182.50224767578121
 21
47.989880614549257
 31
0.0
  0
LINE
  5
EA
  8
DIMNSIONS
  6
CONTINUOUS
 62
     7
 10
168.65213999999989
 20
50.0
 30
0.0
 11
153.65213999999989
 21
50.0
 31
0.0
  0
LINE
  5
EB
  8
DIMNSIONS
  6
CONTINUOUS
 62
     7
 10
168.65213999999989
 20
50.0
 30
0.0
 11
161.15027232421869
 21
47.989880614549257
 31
0.0
  0
LINE
  5
EC
  8
DIMNSIONS
  6
CONTINUOUS
 62
     7
 10
168.65213999999989
 20
50.0
 30
0.0
 11
161.15027232421869
 21
52.010119385450743
 31
0.0
  0
TEXT
  5
ED
  8
DIMNSIONS
 62
     7
 10
169.18042666666659
 20
52.981666666666662
 30
0.0
 40
8.1442057291666661
  1
6
 41
0.8
 11
169.18042666666659
 21
61.125872395833341
 31
0.0
 73
     3
  0
LINE
  5
EE
  8
DIMNSIONS
  6
CONTINUOUS
 62
     7
 10
179.7488199999998
 20
22.29913999999993
 30
0.0
 11
179.7488199999998
 21
31.0
 31
0.0
  0
LINE
  5
EF
  8
DIMNSIONS
  6
CONTINUOUS
 62
     7
 10
206.68000000000001
 20
-10.076670000000011
 30
0.0
 11
206.68000000000001
 21
31.0
 31
0.0
  0
LINE
  5
F0
  8
DIMNSIONS
  6
CONTINUOUS
 62
     7
 10
179.7488199999998
 20
25.0
 30
0.0
 11
206.68000000000001
 21
25.0
 31
0.0
  0
LINE
  5
F1
  8
DIMNSIONS
  6
CONTINUOUS
 62
     7
 10
179.7488199999998
 20
25.0
 30
0.0
 11
187.25068767578099
 21
27.010119385450739
 31
0.0
  0
LINE
  5
F2
  8
DIMNSIONS
  6
CONTINUOUS
 62
     7
 10
179.7488199999998
 20
25.0
 30
0.0
 11
187.25068767578099
 21
22.989880614549261
 31
0.0
  0
LINE
  5
F3
  8
DIMNSIONS
  6
CONTINUOUS
 62
     7
 10
206.68000000000001
 20
25.0
 30
0.0
 11
199.17813232421881
 21
22.989880614549261
 31
0.0
  0
LINE
  5
F4
  8
DIMNSIONS
  6
CONTINUOUS
 62
     7
 10
206.68000000000001
 20
25.0
 30
0.0
 11
199.17813232421881
 21
27.010119385450739
 31
0.0
  0
TEXT
  5
F5
  8
DIMNSIONS
 62
     7
 10
187.92274333333319
 20
27.981666666666669
 30
0.0
 40
8.1442057291666661
  1
27
 41
0.8
 11
187.92274333333319
 21
36.125872395833341
 31
0.0
 73
     3
  0
LINE
  5
F6
  8
DIMNSIONS
  6
CONTINUOUS
 62
     7
 10
212.68000000000001
 20
-16.076670000000011
 30
0.0
 11
243.5
 21
-16.076670000000011
 31
0.0
  0
LINE
  5
F7
  8
DIMNSIONS
  6
CONTINUOUS
 62
     7
 10
212.68000000000001
 20
-64.196119999999993
 30
0.0
 11
243.5
 21
-64.196119999999993
 31
0.0
  0
LINE
  5
F8
  8
DIMNSIONS
  6
CONTINUOUS
 62
     7
 10
237.5
 20
-16.076670000000011
 30
0.0
 11
237.5
 21
-64.196119999999993
 31
0.0
  0
LINE
  5
F9
  8
DIMNSIONS
  6
CONTINUOUS
 62
     7
 10
237.5
 20
-16.076670000000011
 30
0.0
 11
239.51011938545071
 21
-23.578537675781259
 31
0.0
  0
LINE
  5
FA
  8
DIMNSIONS
  6
CONTINUOUS
 62
     7
 10
237.5
 20
-16.076670000000011
 30
0.0
 11
235.48988061454921
 21
-23.578537675781259
 31
0.0
  0
LINE
  5
FB
  8
DIMNSIONS
  6
CONTINUOUS
 62
     7
 10
237.5
 20
-64.196119999999993
 30
0.0
 11
235.48988061454921
 21
-56.694252324218752
 31
0.0
  0
LINE
  5
FC
  8
DIMNSIONS
  6
CONTINUOUS
 62
     7
 10
237.5
 20
-64.196119999999993
 30
0.0
 11
239.51011938545071
 21
-56.694252324218752
 31
0.0
  0
TEXT
  5
FD
  8
DIMNSIONS
 62
     7
 10
234.51833333333329
 20
-45.42806166666665
 30
0.0
 40
8.1442057291666661
  1
48
 50
90.0
 41
0.8
 11
226.3741276041666
 21
-45.42806166666665
 31
0.0
 73
     3
  0
TEXT
  5
FE
  8
DATA
 62
     7
 10
-139.99999999999989
 20
-230.22237000000001
 30
0.0
 40
4.8865234374999993
  1
仕様および外観は予告なく変更されることがありますので、ご了承ください。
 41
0.8
 11
-139.99999999999989
 21
-225.3358465625
 31
0.0
 73
     3
  0
LINE
  5
FF
  8
DATA
  6
CONTINUOUS
 62
     7
 10
-20.0
 20
16.299139999999941
 30
0.0
 11
86.299129999999977
 21
16.299139999999941
 31
0.0
  0
LINE
  5
100
  8
DATA
  6
CONTINUOUS
 62
     7
 10
-20.0
 20
-100.0
 30
0.0
 11
86.299139999999866
 21
-100.0
 31
0.0
  0
CIRCLE
  5
101
  8
DATA
  6
CONTINUOUS
 62
     7
 10
-9.7643000000000484
 20
1.063429999999953
 30
0.0
 40
4.0628499999999121
  0
LINE
  5
102
  8
DATA
  6
CONTINUOUS
 62
     7
 10
-25.0
 20
104.74848
 30
0.0
 11
91.299139999999852
 21
104.74848
 31
0.0
  0
LINE
  5
103
  8
DATA
  6
CONTINUOUS
 62
     7
 10
91.299139999999852
 20
99.999999999999957
 30
0.0
 11
-25.0
 21
99.999999999999957
 31
0.0
  0
LINE
  5
104
  8
DATA
  6
CONTINUOUS
 62
     7
 10
-25.0
 20
11.29915000000002
 30
0.0
 11
-25.0
 21
-95.000000000000057
 31
0.0
  0
ARC
  5
105
  8
DATA
  6
CONTINUOUS
 62
     7
 10
-20.0
 20
-95.000000000000057
 30
0.0
 40
5.0
 50
180.0
 51
270.0
  0
ARC
  5
106
  8
DATA
  6
CONTINUOUS
 62
     7
 10
-20.0
 20
11.29913999999993
 30
0.0
 40
5.0
 50
90.0
 51
180.0
  0
LINE
  5
107
  8
DATA
  6
CONTINUOUS
 62
     7
 10
-25.0
 20
99.999999999999957
 30
0.0
 11
-25.0
 21
104.74848
 31
0.0
  0
LINE
  5
108
  8
DATA
  6
CONTINUOUS
 62
     7
 10
91.299130000000005
 20
-95.001400000000004
 30
0.0
 11
91.299130000000005
 21
11.29915000000002
 31
0.0
  0
ARC
  5
109
  8
DATA
  6
CONTINUOUS
 62
     7
 10
86.299139999999866
 20
-95.000009999999946
 30
0.0
 40
5.0
 50
270.0
 51
0.0
  0
CIRCLE
  5
10A
  8
DATA
  6
CONTINUOUS
 62
     7
 10
76.063449999999875
 20
-84.764310000000023
 30
0.0
 40
4.0628599999999997
  0
LINE
  5
10B
  8
DATA
  6
CONTINUOUS
 62
     7
 10
76.063449999999875
 20
-85.76403000000002
 30
0.0
 11
76.063449999999875
 21
-83.764580000000024
 31
0.0
  0
LINE
  5
10C
  8
DATA
  6
CONTINUOUS
 62
     7
 10
77.063179999999875
 20
-84.764310000000023
 30
0.0
 11
75.063729999999978
 21
-84.764310000000023
 31
0.0
  0
CIRCLE
  5
10D
  8
DATA
  6
CONTINUOUS
 62
     7
 10
76.063449999999875
 20
-84.764310000000023
 30
0.0
 40
2.2493799999999728
  0
LINE
  5
10E
  8
DATA
  6
CONTINUOUS
 62
     7
 10
30.737239999999929
 20
-37.851060000000011
 30
0.0
 11
66.795069999999896
 21
-37.851060000000011
 31
0.0
  0
LINE
  5
10F
  8
DATA
  6
CONTINUOUS
 62
     7
 10
66.795069999999896
 20
-45.849789999999963
 30
0.0
 11
30.737239999999929
 21
-45.849789999999963
 31
0.0
  0
LINE
  5
110
  8
DATA
  6
CONTINUOUS
 62
     7
 10
35.389229999999877
 20
94.151639999999944
 30
0.0
 11
67.848659999999882
 21
94.151639999999944
 31
0.0
  0
CIRCLE
  5
111
  8
DATA
  6
CONTINUOUS
 62
     7
 10
33.657419999999888
 20
-67.243270000000024
 30
0.0
 40
3.9358799999999969
  0
CIRCLE
  5
112
  8
DATA
  6
CONTINUOUS
 62
     7
 10
33.657419999999888
 20
-16.457590000000071
 30
0.0
 40
3.9358799999999969
  0
CIRCLE
  5
113
  8
DATA
  6
CONTINUOUS
 62
     7
 10
7.7567399999999207
 20
-41.850429999999989
 30
0.0
 40
3.9358799999999969
  0
ARC
  5
114
  8
DATA
  6
CONTINUOUS
 62
     7
 10
38.141059999999932
 20
-41.869370000000004
 30
0.0
 40
8.4195360000000274
 50
151.499965
 51
208.49997600000009
  0
LINE
  5
115
  8
DATA
  6
CONTINUOUS
 62
     7
 10
-8.764590000000112
 20
1.063429999999953
 30
0.0
 11
-10.7640100000001
 21
1.063429999999953
 31
0.0
  0
CIRCLE
  5
116
  8
DATA
  6
CONTINUOUS
 62
     7
 10
-9.7643000000000484
 20
1.063429999999953
 30
0.0
 40
2.2493699999999981
  0
LINE
  5
117
  8
DATA
  6
CONTINUOUS
 62
     7
 10
-9.7643000000000484
 20
0.0637199999999609
 30
0.0
 11
-9.7643000000000484
 21
2.0631699999999848
 31
0.0
  0
LINE
  5
118
  8
DATA
  6
CONTINUOUS
 62
     7
 10
51.432729999999893
 20
131.68000000000001
 30
0.0
 11
-0.1146800000001349
 21
131.68000000000001
 31
0.0
  0
LINE
  5
119
  8
DATA
  6
CONTINUOUS
 62
     7
 10
45.084529999999972
 20
106.01813
 30
0.0
 11
6.2335399999999481
 21
106.01813
 31
0.0
  0
LINE
  5
11A
  8
DATA
  6
CONTINUOUS
 62
     7
 10
29.721539999999891
 20
94.151639999999944
 30
0.0
 11
31.926249999999872
 21
94.151639999999944
 31
0.0
  0
ARC
  5
11B
  8
DATA
  6
CONTINUOUS
 62
     7
 10
33.657749999999851
 20
96.900879999999944
 30
0.0
 40
3.2490799999999349
 50
180.0
 51
0.0
  0
LINE
  5
11C
  8
DATA
  6
CONTINUOUS
 62
     7
 10
-0.1146800000001349
 20
131.68000000000001
 30
0.0
 11
-0.1146800000001349
 21
104.74848
 31
0.0
  0
LINE
  5
11D
  8
DATA
  6
CONTINUOUS
 62
     7
 10
4.507669999999961
 20
96.900879999999944
 30
0.0
 11
4.507669999999961
 21
100.00003
 31
0.0
  0
LINE
  5
11E
  8
DATA
  6
CONTINUOUS
 62
     7
 10
11.00580999999988
 20
96.900879999999944
 30
0.0
 11
11.00580999999988
 21
100.00003
 31
0.0
  0
ARC
  5
11F
  8
DATA
  6
CONTINUOUS
 62
     7
 10
7.7567399999999207
 20
96.900879999999944
 30
0.0
 40
3.2490900000000229
 50
180.0
 51
0.0
  0
LINE
  5
120
  8
DATA
  6
CONTINUOUS
 62
     7
 10
6.2335299999998588
 20
106.0181
 30
0.0
 11
6.2335299999998588
 21
104.74848
 31
0.0
  0
LINE
  5
121
  8
DATA
  6
CONTINUOUS
 62
     7
 10
29.721539999999891
 20
94.151639999999944
 30
0.0
 11
29.721539999999891
 21
100.00003
 31
0.0
  0
LINE
  5
122
  8
DATA
  6
CONTINUOUS
 62
     7
 10
30.408669999999908
 20
96.900879999999944
 30
0.0
 11
30.408669999999908
 21
100.00003
 31
0.0
  0
LINE
  5
123
  8
DATA
  6
CONTINUOUS
 62
     7
 10
51.432729999999893
 20
131.68000000000001
 30
0.0
 11
51.432729999999893
 21
104.74848
 31
0.0
  0
LINE
  5
124
  8
DATA
  6
CONTINUOUS
 62
     7
 10
36.906819999999932
 20
96.900879999999944
 30
0.0
 11
36.906819999999932
 21
100.00003
 31
0.0
  0
LINE
  5
125
  8
DATA
  6
CONTINUOUS
 62
     7
 10
45.084529999999972
 20
106.0181
 30
0.0
 11
45.084529999999972
 21
104.74848
 31
0.0
  0
TEXT
  5
126
  8
DATA
 62
     7
 10
49.235842524224722
 20
121.20125965210489
 30
0.0
 40
4.8865234374999993
  1
マイクユニ ット
 50
180.0
 41
0.8
 11
49.235842524224722
 21
116.31473621460491
 31
0.0
 73
     3
  0
ARC
  5
127
  8
DATA
  6
CONTINUOUS
 62
     7
 10
59.429129999999986
 20
-41.86938
 30
0.0
 40
8.4195359999999262
 50
331.49996499999958
 51
28.49997500000018
  0
ARC
  5
128
  8
DATA
  6
CONTINUOUS
 62
     7
 10
86.299139999999866
 20
11.29913999999993
 30
0.0
 40
5.0
 50
0.0
 51
90.0
  0
LINE
  5
129
  8
DATA
  6
CONTINUOUS
 62
     7
 10
67.848659999999882
 20
94.151639999999944
 30
0.0
 11
67.848659999999882
 21
99.999999999999957
 31
0.0
  0
LINE
  5
12A
  8
DATA
  6
CONTINUOUS
 62
     7
 10
91.299139999999852
 20
104.74848
 30
0.0
 11
91.299139999999852
 21
99.999999999999957
 31
0.0
  0
LINE
  5
12B
  8
DATA
  6
CONTINUOUS
 62
     7
 10
-20.0
 20
175.0
 30
0.0
 11
86.299139999999866
 21
175.0
 31
0.0
  0
LINE
  5
12C
  8
DATA
  6
CONTINUOUS
 62
     7
 10
86.299139999999866
 20
291.29917
 30
0.0
 11
-20.0
 21
291.29917
 31
0.0
  0
LINE
  5
12D
  8
DATA
  6
CONTINUOUS
 62
     7
 10
-25.0
 20
179.99996998039691
 30
0.0
 11
-25.0
 21
286.29914000000008
 31
0.0
  0
ARC
  5
12E
  8
DATA
  6
CONTINUOUS
 62
     7
 10
-20.0
 20
180.0
 30
0.0
 40
4.9999900000001043
 50
180.0003440000003
 51
270.00045799999941
  0
ARC
  5
12F
  8
DATA
  6
CONTINUOUS
 62
     7
 10
-20.0
 20
286.29914000000008
 30
0.0
 40
5.0000000000000391
 50
90.000573000000344
 51
180.00034399999939
  0
LINE
  5
130
  8
DATA
  6
CONTINUOUS
 62
     7
 10
6.2331599999998843
 20
262.09735000000001
 30
0.0
 11
6.2331599999998843
 21
255.49515
 31
0.0
  0
LINE
  5
131
  8
DATA
  6
CONTINUOUS
 62
     7
 10
45.08415999999999
 20
262.09735000000001
 30
0.0
 11
45.08415999999999
 21
255.49515
 31
0.0
  0
LINE
  5
132
  8
DATA
  6
CONTINUOUS
 62
     7
 10
47.75042999999993
 20
251.17843999999999
 30
0.0
 11
3.5668799999998551
 21
251.17843999999999
 31
0.0
  0
LINE
  5
133
  8
DATA
  6
CONTINUOUS
 62
     7
 10
51.432389999999941
 20
243.94140999999999
 30
0.0
 11
-0.1150500000001102
 21
243.94140999999999
 31
0.0
  0
LINE
  5
134
  8
DATA
  6
CONTINUOUS
 62
     7
 10
-0.1150500000001102
 20
207.3757700000001
 30
0.0
 11
51.432389999999941
 21
207.3757700000001
 31
0.0
  0
LINE
  5
135
  8
DATA
  6
CONTINUOUS
 62
     7
 10
45.084169999999972
 20
202.9320100000001
 30
0.0
 11
6.2331599999998843
 21
202.9320100000001
 31
0.0
  0
LINE
  5
136
  8
DATA
  6
CONTINUOUS
 62
     7
 10
47.749999999999893
 20
251.1781400000001
 30
0.0
 11
3.5659999999999159
 21
251.1781400000001
 31
0.0
  0
LINE
  5
137
  8
DATA
  6
CONTINUOUS
 62
     7
 10
-0.115030000000047
 20
255.49524
 30
0.0
 11
51.432359999999903
 21
255.49524
 31
0.0
  0
LINE
  5
138
  8
DATA
  6
CONTINUOUS
 62
     7
 10
-0.115030000000047
 20
255.49524
 30
0.0
 11
-0.115030000000047
 21
207.3757700000001
 31
0.0
  0
LINE
  5
139
  8
DATA
  6
CONTINUOUS
 62
     7
 10
6.2331599999998843
 20
202.9320100000001
 30
0.0
 11
6.2331599999998843
 21
207.3757700000001
 31
0.0
  0
LINE
  5
13A
  8
DATA
  6
CONTINUOUS
 62
     7
 10
-9.7643100000000231
 20
191.23539000000011
 30
0.0
 11
-9.7643100000000231
 21
189.23597000000001
 31
0.0
  0
LINE
  5
13B
  8
DATA
  6
CONTINUOUS
 62
     7
 10
-8.7646300000001247
 20
190.23566
 30
0.0
 11
-10.76404999999999
 21
190.23566
 31
0.0
  0
CIRCLE
  5
13C
  8
DATA
  6
CONTINUOUS
 62
     7
 10
-9.7643100000000231
 20
190.23566
 30
0.0
 40
2.2493600000000229
  0
LINE
  5
13D
  8
DATA
  6
CONTINUOUS
 62
     7
 10
30.673759999999898
 20
255.49524
 30
0.0
 11
31.18157999999994
 21
243.94140999999999
 31
0.0
  0
TEXT
  5
13E
  8
DATA
 62
     7
 10
14.99360866666655
 20
237.40814
 30
0.0
 40
4.072102864583333
  1
２
 50
270.0
 41
0.8
 11
19.065711531249882
 21
237.40814
 31
0.0
 73
     3
  0
TEXT
  5
13F
  8
DATA
 62
     7
 10
24.51591666666662
 20
237.40814
 30
0.0
 40
4.072102864583333
  1
１
 50
270.0
 41
0.8
 11
28.588019531249952
 21
237.40814
 31
0.0
 73
     3
  0
LINE
  5
140
  8
DATA
  6
CONTINUOUS
 62
     7
 10
3.5669000000000319
 20
251.17843999999999
 30
0.0
 11
2.9320599999999781
 21
243.94140999999999
 31
0.0
  0
LINE
  5
141
  8
DATA
  6
CONTINUOUS
 62
     7
 10
11.629139999999889
 20
255.49515
 30
0.0
 11
12.136970000000019
 21
243.94134999999989
 31
0.0
  0
LINE
  5
142
  8
DATA
  6
CONTINUOUS
 62
     7
 10
10.613409999999931
 20
243.94134999999989
 30
0.0
 11
11.12130999999988
 21
255.49515
 31
0.0
  0
LINE
  5
143
  8
DATA
  6
CONTINUOUS
 62
     7
 10
29.658039999999911
 20
243.94140999999999
 30
0.0
 11
30.165880000000019
 21
255.49524
 31
0.0
  0
LINE
  5
144
  8
DATA
  6
CONTINUOUS
 62
     7
 10
21.151449999999951
 20
255.49524
 30
0.0
 11
21.659249999999918
 21
243.94140999999999
 31
0.0
  0
LINE
  5
145
  8
DATA
  6
CONTINUOUS
 62
     7
 10
20.135719999999989
 20
243.94140999999999
 30
0.0
 11
20.643619999999949
 21
255.49524
 31
0.0
  0
LINE
  5
146
  8
DATA
  6
CONTINUOUS
 62
     7
 10
25.658669999999919
 20
243.94140999999999
 30
0.0
 11
25.658669999999919
 21
238.9428400000001
 31
0.0
  0
LINE
  5
147
  8
DATA
  6
CONTINUOUS
 62
     7
 10
25.658669999999919
 20
243.94140999999999
 30
0.0
 11
26.462299999999921
 21
240.94226
 31
0.0
  0
LINE
  5
148
  8
DATA
  6
CONTINUOUS
 62
     7
 10
25.658669999999919
 20
243.94140999999999
 30
0.0
 11
24.855080000000051
 21
240.94226
 31
0.0
  0
LINE
  5
149
  8
DATA
  6
CONTINUOUS
 62
     7
 10
16.136359999999971
 20
243.94140999999999
 30
0.0
 11
16.136359999999971
 21
238.9428400000001
 31
0.0
  0
LINE
  5
14A
  8
DATA
  6
CONTINUOUS
 62
     7
 10
16.136359999999971
 20
243.94140999999999
 30
0.0
 11
16.939959999999932
 21
240.94226
 31
0.0
  0
LINE
  5
14B
  8
DATA
  6
CONTINUOUS
 62
     7
 10
16.136369999999939
 20
243.94140999999999
 30
0.0
 11
15.332739999999941
 21
240.94226
 31
0.0
  0
LINE
  5
14C
  8
DATA
  6
CONTINUOUS
 62
     7
 10
19.361239999999949
 20
254.22556
 30
0.0
 11
19.361239999999949
 21
251.17837999999981
 31
0.0
  0
LINE
  5
14D
  8
DATA
  6
CONTINUOUS
 62
     7
 10
12.91143999999997
 20
254.22556
 30
0.0
 11
12.91143999999997
 21
251.17837999999981
 31
0.0
  0
LINE
  5
14E
  8
DATA
  6
CONTINUOUS
 62
     7
 10
19.361239999999949
 20
253.2098400000001
 30
0.0
 11
12.91143999999997
 21
253.2098400000001
 31
0.0
  0
LINE
  5
14F
  8
DATA
  6
CONTINUOUS
 62
     7
 10
28.88356999999997
 20
254.22556
 30
0.0
 11
22.43377999999996
 21
254.22556
 31
0.0
  0
LINE
  5
150
  8
DATA
  6
CONTINUOUS
 62
     7
 10
28.88356999999997
 20
254.22561999999999
 30
0.0
 11
28.88356999999997
 21
251.17843999999999
 31
0.0
  0
LINE
  5
151
  8
DATA
  6
CONTINUOUS
 62
     7
 10
22.433799999999909
 20
254.22561999999999
 30
0.0
 11
22.433799999999909
 21
251.17843999999999
 31
0.0
  0
LINE
  5
152
  8
DATA
  6
CONTINUOUS
 62
     7
 10
28.88356999999997
 20
253.2098400000001
 30
0.0
 11
22.43377999999996
 21
253.2098400000001
 31
0.0
  0
ARC
  5
153
  8
DATA
  6
CONTINUOUS
 62
     7
 10
7.2299999999999027
 20
244.72611911227139
 30
0.0
 40
7.2520344011905076
 50
63.427956069613288
 51
116.5720439303867
  0
LINE
  5
154
  8
DATA
  6
CONTINUOUS
 62
     7
 10
19.36099999999988
 20
254.22514000000001
 30
0.0
 11
12.910999999999939
 21
254.22514000000001
 31
0.0
  0
ARC
  5
155
  8
DATA
  6
CONTINUOUS
 62
     7
 10
25.657999999999902
 20
248.12476499999971
 30
0.0
 40
6.900376811495712
 50
62.13656088104397
 51
117.8634391189552
  0
LINE
  5
156
  8
DATA
  6
CONTINUOUS
 62
     7
 10
19.361239999999949
 20
254.22556
 30
0.0
 11
12.91143999999997
 21
254.22556
 31
0.0
  0
ARC
  5
157
  8
DATA
  6
CONTINUOUS
 62
     7
 10
16.135999999999971
 20
248.12476500000011
 30
0.0
 40
6.9003768114953594
 50
62.136560881043501
 51
117.8634391189573
  0
LINE
  5
158
  8
DATA
  6
CONTINUOUS
 62
     7
 10
51.432359999999903
 20
207.3757700000001
 30
0.0
 11
51.432359999999903
 21
255.49524
 31
0.0
  0
CIRCLE
  5
159
  8
DATA
  6
CONTINUOUS
 62
     7
 10
40.005569999999921
 20
205.15390000000011
 30
0.0
 40
1.2696499999999551
  0
LINE
  5
15A
  8
DATA
  6
CONTINUOUS
 62
     7
 10
45.08415999999999
 20
202.9320100000001
 30
0.0
 11
45.08415999999999
 21
207.3757700000001
 31
0.0
  0
LINE
  5
15B
  8
DATA
  6
CONTINUOUS
 62
     7
 10
40.755379999999938
 20
205.15393
 30
0.0
 11
39.255819999999851
 21
205.15393
 31
0.0
  0
LINE
  5
15C
  8
DATA
  6
CONTINUOUS
 62
     7
 10
40.005599999999951
 20
204.40412000000009
 30
0.0
 11
40.005599999999951
 21
205.90372000000011
 31
0.0
  0
CIRCLE
  5
15D
  8
DATA
  6
CONTINUOUS
 62
     7
 10
61.843399999999967
 20
233.1495700000001
 30
0.0
 40
1.2696499999999551
  0
ARC
  5
15E
  8
DATA
  6
CONTINUOUS
 62
     7
 10
52.324480000000001
 20
233.16852000000009
 30
0.0
 40
1.291664000000013
 50
223.94604600000039
 51
136.0542620000009
  0
TEXT
  5
15F
  8
DATA
 62
     7
 10
34.038194666666648
 20
237.40824000000009
 30
0.0
 40
4.072102864583333
  1
３
 50
270.0
 41
0.8
 11
38.110297531249977
 21
237.40824000000009
 31
0.0
 73
     3
  0
LINE
  5
160
  8
DATA
  6
CONTINUOUS
 62
     7
 10
47.750419999999963
 20
251.17843999999999
 30
0.0
 11
48.385229999999979
 21
243.94140999999999
 31
0.0
  0
LINE
  5
161
  8
DATA
  6
CONTINUOUS
 62
     7
 10
40.196050000000007
 20
255.49527
 30
0.0
 11
40.70388999999988
 21
243.9415000000001
 31
0.0
  0
LINE
  5
162
  8
DATA
  6
CONTINUOUS
 62
     7
 10
39.180299999999882
 20
243.9415000000001
 30
0.0
 11
39.688189999999963
 21
255.49527
 31
0.0
  0
LINE
  5
163
  8
DATA
  6
CONTINUOUS
 62
     7
 10
53.096299999999943
 20
233.14959999999999
 30
0.0
 11
51.596699999999927
 21
233.14959999999999
 31
0.0
  0
LINE
  5
164
  8
DATA
  6
CONTINUOUS
 62
     7
 10
52.346519999999927
 20
232.39977999999999
 30
0.0
 11
52.346519999999927
 21
233.89936000000009
 31
0.0
  0
LINE
  5
165
  8
DATA
  6
CONTINUOUS
 62
     7
 10
62.593219999999967
 20
233.14959999999999
 30
0.0
 11
61.093619999999859
 21
233.14959999999999
 31
0.0
  0
LINE
  5
166
  8
DATA
  6
CONTINUOUS
 62
     7
 10
61.843399999999967
 20
232.39977999999999
 30
0.0
 11
61.843399999999967
 21
233.89936000000009
 31
0.0
  0
LINE
  5
167
  8
DATA
  6
CONTINUOUS
 62
     7
 10
35.180969999999888
 20
243.9415000000001
 30
0.0
 11
35.180969999999888
 21
238.9428700000002
 31
0.0
  0
LINE
  5
168
  8
DATA
  6
CONTINUOUS
 62
     7
 10
35.180969999999888
 20
243.9415000000001
 30
0.0
 11
35.984609999999968
 21
240.94233000000011
 31
0.0
  0
LINE
  5
169
  8
DATA
  6
CONTINUOUS
 62
     7
 10
35.180989999999937
 20
243.9415000000001
 30
0.0
 11
34.377349999999979
 21
240.94233000000011
 31
0.0
  0
LINE
  5
16A
  8
DATA
  6
CONTINUOUS
 62
     7
 10
38.405869999999943
 20
254.22561999999999
 30
0.0
 11
31.9560899999999
 21
254.22561999999999
 31
0.0
  0
LINE
  5
16B
  8
DATA
  6
CONTINUOUS
 62
     7
 10
38.405869999999943
 20
254.22561999999999
 30
0.0
 11
38.405869999999943
 21
251.17843999999999
 31
0.0
  0
LINE
  5
16C
  8
DATA
  6
CONTINUOUS
 62
     7
 10
31.95610999999997
 20
254.22561999999999
 30
0.0
 11
31.95610999999997
 21
251.17843999999999
 31
0.0
  0
LINE
  5
16D
  8
DATA
  6
CONTINUOUS
 62
     7
 10
38.405869999999943
 20
253.2099300000001
 30
0.0
 11
31.9560899999999
 21
253.2099300000001
 31
0.0
  0
LINE
  5
16E
  8
DATA
  6
CONTINUOUS
 62
     7
 10
40.755379999999938
 20
258.79630000000009
 30
0.0
 11
39.255819999999851
 21
258.79630000000009
 31
0.0
  0
LINE
  5
16F
  8
DATA
  6
CONTINUOUS
 62
     7
 10
40.005599999999951
 20
258.04648000000009
 30
0.0
 11
40.005599999999951
 21
259.54608999999999
 31
0.0
  0
CIRCLE
  5
170
  8
DATA
  6
CONTINUOUS
 62
     7
 10
40.005569999999921
 20
258.79630000000009
 30
0.0
 40
1.2696499999999551
  0
ARC
  5
171
  8
DATA
  6
CONTINUOUS
 62
     7
 10
35.180499999999931
 20
248.12677749999989
 30
0.0
 40
6.8983639677396411
 50
62.132420141209721
 51
117.8675798587911
  0
ARC
  5
172
  8
DATA
  6
CONTINUOUS
 62
     7
 10
44.048999999999971
 20
244.72611911227139
 30
0.0
 40
7.2520344011905591
 50
63.427956069614503
 51
116.5720439303863
  0
TEXT
  5
173
  8
DATA
 62
     7
 10
5.9401286501558408
 20
222.29560416666669
 30
0.0
 40
4.072102864583333
  1
ＰＺＭ－２０Ｒ
 41
0.8
 11
5.9401286501558408
 21
226.36770703125009
 31
0.0
 73
     3
  0
LINE
  5
174
  8
DATA
  6
CONTINUOUS
 62
     7
 10
45.084169999999972
 20
262.09735000000001
 30
0.0
 11
6.2331599999998843
 21
262.09735000000001
 31
0.0
  0
LINE
  5
175
  8
DATA
  6
CONTINUOUS
 62
     7
 10
91.299139999999852
 20
180.0
 30
0.0
 11
91.299139999999852
 21
286.2992000000001
 31
0.0
  0
ARC
  5
176
  8
DATA
  6
CONTINUOUS
 62
     7
 10
86.299139999999866
 20
180.0
 30
0.0
 40
5.0000000000000142
 50
270.00045800000038
 51
0.0006880000002525
  0
LINE
  5
177
  8
DATA
  6
CONTINUOUS
 62
     7
 10
76.063369999999978
 20
277.06321000000003
 30
0.0
 11
76.063369999999978
 21
275.0637500000002
 31
0.0
  0
LINE
  5
178
  8
DATA
  6
CONTINUOUS
 62
     7
 10
77.063130000000001
 20
276.06348000000003
 30
0.0
 11
75.063659999999899
 21
276.06348000000003
 31
0.0
  0
CIRCLE
  5
179
  8
DATA
  6
CONTINUOUS
 62
     7
 10
76.063409999999863
 20
276.06348000000003
 30
0.0
 40
2.249380000000087
  0
ARC
  5
17A
  8
DATA
  6
CONTINUOUS
 62
     7
 10
86.299139999999866
 20
286.29917
 30
0.0
 40
5.0000000000000844
 50
0.0006880000002128
 51
90.000573000000344
  0
LINE
  5
17B
  8
DATA
  6
CONTINUOUS
 62
     7
 10
175.00037999999989
 20
16.299139999999941
 30
0.0
 11
175.00037999999989
 21
-100.00001
 31
0.0
  0
LINE
  5
17C
  8
DATA
  6
CONTINUOUS
 62
     7
 10
179.7488199999998
 20
-100.00001
 30
0.0
 11
179.7488199999998
 21
16.299139999999941
 31
0.0
  0
LINE
  5
17D
  8
DATA
  6
CONTINUOUS
 62
     7
 10
175.00037999999989
 20
-100.00001
 30
0.0
 11
179.7488199999998
 21
-100.00001
 31
0.0
  0
LINE
  5
17E
  8
DATA
  6
CONTINUOUS
 62
     7
 10
206.68000000000001
 20
-64.196119999999993
 30
0.0
 11
206.68000000000001
 21
-16.076670000000011
 31
0.0
  0
LINE
  5
17F
  8
DATA
  6
CONTINUOUS
 62
     7
 10
206.68000000000001
 20
-52.642359999999996
 30
0.0
 11
179.7487899999999
 21
-52.642359999999996
 31
0.0
  0
LINE
  5
180
  8
DATA
  6
CONTINUOUS
 62
     7
 10
179.7488199999998
 20
-64.196119999999993
 30
0.0
 11
206.68000000000001
 21
-64.196119999999993
 31
0.0
  0
ARC
  5
181
  8
DATA
  6
CONTINUOUS
 62
     7
 10
171.90121999999991
 20
-67.009349999999984
 30
0.0
 40
3.2490799999999922
 50
90.0
 51
270.0
  0
LINE
  5
182
  8
DATA
  6
CONTINUOUS
 62
     7
 10
171.90121999999991
 20
-63.76024000000001
 30
0.0
 11
175.00037999999989
 21
-63.76024000000001
 31
0.0
  0
LINE
  5
183
  8
DATA
  6
CONTINUOUS
 62
     7
 10
171.90121999999991
 20
-70.25841999999993
 30
0.0
 11
175.00037999999989
 21
-70.25841999999993
 31
0.0
  0
LINE
  5
184
  8
DATA
  6
CONTINUOUS
 62
     7
 10
181.0184999999999
 20
-70.798230000000004
 30
0.0
 11
179.7488199999998
 21
-70.798230000000004
 31
0.0
  0
LINE
  5
185
  8
DATA
  6
CONTINUOUS
 62
     7
 10
181.01846999999989
 20
-70.798239999999979
 30
0.0
 11
181.01846999999989
 21
-64.196119999999993
 31
0.0
  0
POLYLINE
  5
186
  8
DATA
  6
CONTINUOUS
 62
     7
 66
     1
 10
0.0
 20
0.0
 30
0.0
  0
VERTEX
  5
1FA
  8
DATA
  6
CONTINUOUS
 62
     7
 10
171.1665659999999
 20
-38.017524000000037
 30
0.0
  0
VERTEX
  5
1FB
  8
DATA
  6
CONTINUOUS
 62
     7
 10
170.7344419999998
 20
-38.380177000000003
 30
0.0
  0
VERTEX
  5
1FC
  8
DATA
  6
CONTINUOUS
 62
     7
 10
170.3457549999998
 20
-38.788796000000012
 30
0.0
  0
VERTEX
  5
1FD
  8
DATA
  6
CONTINUOUS
 62
     7
 10
170.00539099999989
 20
-39.238242000000021
 30
0.0
  0
VERTEX
  5
1FE
  8
DATA
  6
CONTINUOUS
 62
     7
 10
169.7176319999999
 20
-39.722863000000011
 30
0.0
  0
VERTEX
  5
1FF
  8
DATA
  6
CONTINUOUS
 62
     7
 10
169.48609699999989
 20
-40.236564999999992
 30
0.0
  0
VERTEX
  5
200
  8
DATA
  6
CONTINUOUS
 62
     7
 10
169.31369599999979
 20
-40.772887000000033
 30
0.0
  0
VERTEX
  5
201
  8
DATA
  6
CONTINUOUS
 62
     7
 10
169.20259800000011
 20
-41.325084999999959
 30
0.0
  0
VERTEX
  5
202
  8
DATA
  6
CONTINUOUS
 62
     7
 10
169.15419899999981
 20
-41.886216000000012
 30
0.0
  0
VERTEX
  5
203
  8
DATA
  6
CONTINUOUS
 62
     7
 10
169.16910999999979
 20
-42.449221000000009
 30
0.0
  0
VERTEX
  5
204
  8
DATA
  6
CONTINUOUS
 62
     7
 10
169.2471409999998
 20
-43.007021999999978
 30
0.0
  0
VERTEX
  5
205
  8
DATA
  6
CONTINUOUS
 62
     7
 10
169.38731299999981
 20
-43.552602999999941
 30
0.0
  0
VERTEX
  5
206
  8
DATA
  6
CONTINUOUS
 62
     7
 10
169.587861
 20
-44.079104000000022
 30
0.0
  0
VERTEX
  5
207
  8
DATA
  6
CONTINUOUS
 62
     7
 10
169.8462649999999
 20
-44.579903999999971
 30
0.0
  0
VERTEX
  5
208
  8
DATA
  6
CONTINUOUS
 62
     7
 10
170.1592739999999
 20
-45.048704000000022
 30
0.0
  0
VERTEX
  5
209
  8
DATA
  6
CONTINUOUS
 62
     7
 10
170.52295199999989
 20
-45.479609000000011
 30
0.0
  0
VERTEX
  5
20A
  8
DATA
  6
CONTINUOUS
 62
     7
 10
170.932726
 20
-45.86719999999999
 30
0.0
  0
VERTEX
  5
20B
  8
DATA
  6
CONTINUOUS
 62
     7
 10
171.16656899999981
 20
-46.053157999999932
 30
0.0
  0
SEQEND
  5
20C
  8
DATA
  6
CONTINUOUS
 62
     7
  0
POLYLINE
  5
19A
  8
DATA
  6
CONTINUOUS
 62
     7
 66
     1
 10
0.0
 20
0.0
 30
0.0
  0
VERTEX
  5
20D
  8
DATA
  6
CONTINUOUS
 62
     7
 10
169.83203999999981
 20
-39.522692999999968
 30
0.0
  0
VERTEX
  5
20E
  8
DATA
  6
CONTINUOUS
 62
     7
 10
169.4944569999999
 20
-39.846929000000017
 30
0.0
  0
VERTEX
  5
20F
  8
DATA
  6
CONTINUOUS
 62
     7
 10
169.20663999999979
 20
-40.215714999999989
 30
0.0
  0
VERTEX
  5
210
  8
DATA
  6
CONTINUOUS
 62
     7
 10
168.97444799999991
 20
-40.62154299999996
 30
0.0
  0
VERTEX
  5
211
  8
DATA
  6
CONTINUOUS
 62
     7
 10
168.80260799999999
 20
-41.056151
 30
0.0
  0
VERTEX
  5
212
  8
DATA
  6
CONTINUOUS
 62
     7
 10
168.69461799999999
 20
-41.510693000000003
 30
0.0
  0
VERTEX
  5
213
  8
DATA
  6
CONTINUOUS
 62
     7
 10
168.65267499999979
 20
-41.975915999999977
 30
0.0
  0
VERTEX
  5
214
  8
DATA
  6
CONTINUOUS
 62
     7
 10
168.67763499999981
 20
-42.442348000000003
 30
0.0
  0
VERTEX
  5
215
  8
DATA
  6
CONTINUOUS
 62
     7
 10
168.76898899999989
 20
-42.900495000000006
 30
0.0
  0
VERTEX
  5
216
  8
DATA
  6
CONTINUOUS
 62
     7
 10
168.92487800000001
 20
-43.34102900000002
 30
0.0
  0
VERTEX
  5
217
  8
DATA
  6
CONTINUOUS
 62
     7
 10
169.1421269999999
 20
-43.754983999999972
 30
0.0
  0
VERTEX
  5
218
  8
DATA
  6
CONTINUOUS
 62
     7
 10
169.416314
 20
-44.133931000000018
 30
0.0
  0
VERTEX
  5
219
  8
DATA
  6
CONTINUOUS
 62
     7
 10
169.74185799999989
 20
-44.470156999999972
 30
0.0
  0
VERTEX
  5
21A
  8
DATA
  6
CONTINUOUS
 62
     7
 10
169.832044
 20
-44.547989999999963
 30
0.0
  0
SEQEND
  5
21B
  8
DATA
  6
CONTINUOUS
 62
     7
  0
LINE
  5
1AA
  8
DATA
  6
CONTINUOUS
 62
     7
 10
175.00037999999989
 20
-46.015270000000022
 30
0.0
 11
171.15143999999981
 21
-46.015270000000022
 31
0.0
  0
LINE
  5
1AB
  8
DATA
  6
CONTINUOUS
 62
     7
 10
175.00037999999989
 20
-38.017509999999987
 30
0.0
 11
171.15143999999981
 21
-38.017509999999987
 31
0.0
  0
LINE
  5
1AC
  8
DATA
  6
CONTINUOUS
 62
     7
 10
206.68000000000001
 20
-16.076670000000011
 30
0.0
 11
179.7487899999999
 21
-16.076670000000011
 31
0.0
  0
ARC
  5
1AD
  8
DATA
  6
CONTINUOUS
 62
     7
 10
171.90121999999991
 20
-17.02342999999993
 30
0.0
 40
3.2490799999999922
 50
90.0
 51
270.0
  0
LINE
  5
1AE
  8
DATA
  6
CONTINUOUS
 62
     7
 10
171.90121999999991
 20
-20.272520000000011
 30
0.0
 11
175.00037999999989
 21
-20.272520000000011
 31
0.0
  0
LINE
  5
1AF
  8
DATA
  6
CONTINUOUS
 62
     7
 10
171.90121999999991
 20
-13.77435999999997
 30
0.0
 11
175.00037999999989
 21
-13.77435999999997
 31
0.0
  0
LINE
  5
1B0
  8
DATA
  6
CONTINUOUS
 62
     7
 10
181.01846999999989
 20
-16.07669000000001
 30
0.0
 11
181.01846999999989
 21
-11.632950000000021
 31
0.0
  0
LINE
  5
1B1
  8
DATA
  6
CONTINUOUS
 62
     7
 10
181.01846999999989
 20
-11.63296000000005
 30
0.0
 11
179.7488199999998
 21
-11.63296000000005
 31
0.0
  0
LINE
  5
1B2
  8
DATA
  6
CONTINUOUS
 62
     7
 10
179.7488199999998
 20
16.299139999999941
 30
0.0
 11
175.00037999999989
 21
16.299139999999941
 31
0.0
  0
TEXT
  5
1B3
  8
DATA
 62
     7
 10
195.34712499192511
 20
-50.411957631056168
 30
0.0
 40
3.2576822916666659
  1
マイクユニ ット
 50
90.0
 41
0.8
 11
192.08944270025839
 21
-50.411957631056168
 31
0.0
 73
     3
  0
TEXT
  5
1B4
  8
DATA
 62
     7
 10
250.0
 20
-187.7937
 30
0.0
 40
7.3297851562499989
  1
Amcron
 41
0.8
 11
250.0
 21
-180.46391484374999
 31
0.0
 73
     3
  0
TEXT
  5
1B5
  8
DATA
 62
     7
 10
242.5
 20
-198.22456500000001
 30
0.0
 40
4.8865234374999993
  1
プレッシャー・ゾーン・マイクロホン
 41
0.8
 11
242.5
 21
-193.3380415625
 31
0.0
 73
     3
  0
TEXT
  5
1B6
  8
DATA
 62
     7
 10
250.0
 20
-209.5437
 30
0.0
 40
7.3297851562499989
  1
PZM-20R
 41
0.8
 11
250.0
 21
-202.21391484374999
 31
0.0
 73
     3
  0
ENDSEC
  0
EOF
