  0
SECTION
  2
HEADER
  9
$ACADVER
  1
AC1009
  9
$INSBASE
 10
0.0
 20
0.0
 30
0.0
  9
$EXTMIN
 10
-444.7935243309289
 20
-688.10956819777812
 30
-0.0015258207003583
  9
$EXTMAX
 10
455.2614073097597
 20
650.04075378504137
 30
0.0000000349246037
  9
$LIMMIN
 10
0.0
 20
0.0
  9
$LIMMAX
 10
0.0
 20
0.0
  9
$ORTHOMODE
 70
     0
  9
$REGENMODE
 70
     1
  9
$FILLMODE
 70
     1
  9
$QTEXTMODE
 70
     0
  9
$MIRRTEXT
 70
     1
  9
$DRAGMODE
 70
     2
  9
$LTSCALE
 40
25.399999999999999
  9
$OSMODE
 70
   167
  9
$ATTMODE
 70
     1
  9
$TEXTSIZE
 40
0.0
  9
$TRACEWID
 40
1.0
  9
$TEXTSTYLE
  7
STANDARD
  9
$CLAYER
  8
DATA
  9
$CELTYPE
  6
CONTINUOUS
  9
$CECOLOR
 62
   256
  9
$DIMSCALE
 40
1.0
  9
$DIMASZ
 40
0.18
  9
$DIMEXO
 40
0.0625
  9
$DIMDLI
 40
0.38
  9
$DIMRND
 40
0.0
  9
$DIMDLE
 40
0.0
  9
$DIMEXE
 40
0.18
  9
$DIMTP
 40
0.0
  9
$DIMTM
 40
0.0
  9
$DIMTXT
 40
0.18
  9
$DIMCEN
 40
0.09
  9
$DIMTSZ
 40
0.0
  9
$DIMTOL
 70
     0
  9
$DIMLIM
 70
     0
  9
$DIMTIH
 70
     1
  9
$DIMTOH
 70
     1
  9
$DIMSE1
 70
     0
  9
$DIMSE2
 70
     0
  9
$DIMTAD
 70
     0
  9
$DIMZIN
 70
     0
  9
$DIMBLK
  1

  9
$DIMASO
 70
     1
  9
$DIMSHO
 70
     1
  9
$DIMPOST
  1

  9
$DIMAPOST
  1

  9
$DIMALT
 70
     0
  9
$DIMALTD
 70
     2
  9
$DIMALTF
 40
25.399999999999999
  9
$DIMLFAC
 40
1.0
  9
$DIMTOFL
 70
     0
  9
$DIMTVP
 40
0.0
  9
$DIMTIX
 70
     0
  9
$DIMSOXD
 70
     0
  9
$DIMSAH
 70
     0
  9
$DIMBLK1
  1

  9
$DIMBLK2
  1

  9
$DIMSTYLE
  2
STANDARD
  9
$DIMCLRD
 70
     0
  9
$DIMCLRE
 70
     0
  9
$DIMCLRT
 70
     0
  9
$DIMTFAC
 40
1.0
  9
$DIMGAP
 40
0.09
  9
$LUNITS
 70
     2
  9
$LUPREC
 70
     4
  9
$SKETCHINC
 40
0.1
  9
$FILLETRAD
 40
0.0
  9
$AUNITS
 70
     0
  9
$AUPREC
 70
     0
  9
$MENU
  1
acad
  9
$ELEVATION
 40
0.0
  9
$PELEVATION
 40
0.0
  9
$THICKNESS
 40
0.0
  9
$LIMCHECK
 70
     0
  9
$BLIPMODE
 70
     0
  9
$CHAMFERA
 40
0.0
  9
$CHAMFERB
 40
0.0
  9
$SKPOLY
 70
     0
  9
$TDCREATE
 40
2453187.828946759
  9
$TDUPDATE
 40
2453187.8477047109
  9
$TDINDWG
 40
0.0001824769
  9
$TDUSRTIMER
 40
0.0001824769
  9
$USRTIMER
 70
     1
  9
$ANGBASE
 50
0.0
  9
$ANGDIR
 70
     0
  9
$PDMODE
 70
     1
  9
$PDSIZE
 40
-2.0
  9
$PLINEWID
 40
0.0
  9
$COORDS
 70
     0
  9
$SPLFRAME
 70
     0
  9
$SPLINETYPE
 70
     6
  9
$SPLINESEGS
 70
     8
  9
$ATTDIA
 70
     0
  9
$ATTREQ
 70
     1
  9
$HANDLING
 70
     1
  9
$HANDSEED
  5
1017
  9
$SURFTAB1
 70
     6
  9
$SURFTAB2
 70
     6
  9
$SURFTYPE
 70
     6
  9
$SURFU
 70
     6
  9
$SURFV
 70
     6
  9
$UCSNAME
  2

  9
$UCSORG
 10
0.0
 20
0.0
 30
0.0
  9
$UCSXDIR
 10
1.0
 20
0.0
 30
0.0
  9
$UCSYDIR
 10
0.0
 20
1.0
 30
0.0
  9
$PUCSNAME
  2

  9
$PUCSORG
 10
0.0
 20
0.0
 30
0.0
  9
$PUCSXDIR
 10
1.0
 20
0.0
 30
0.0
  9
$PUCSYDIR
 10
0.0
 20
1.0
 30
0.0
  9
$USERI1
 70
     0
  9
$USERI2
 70
     0
  9
$USERI3
 70
     0
  9
$USERI4
 70
     0
  9
$USERI5
 70
     0
  9
$USERR1
 40
0.0
  9
$USERR2
 40
0.0
  9
$USERR3
 40
0.0
  9
$USERR4
 40
0.0
  9
$USERR5
 40
0.0
  9
$WORLDVIEW
 70
     1
  9
$SHADEDGE
 70
     3
  9
$SHADEDIF
 70
    70
  9
$TILEMODE
 70
     1
  9
$MAXACTVP
 70
    16
  9
$PLIMCHECK
 70
     0
  9
$PEXTMIN
 10
1.0000000000000000E+020
 20
1.0000000000000000E+020
 30
1.0000000000000000E+020
  9
$PEXTMAX
 10
-1.0000000000000000E+020
 20
-1.0000000000000000E+020
 30
-1.0000000000000000E+020
  9
$PLIMMIN
 10
0.0
 20
0.0
  9
$PLIMMAX
 10
12.0
 20
9.0
  9
$UNITMODE
 70
     0
  9
$VISRETAIN
 70
     0
  9
$PLINEGEN
 70
     1
  9
$PSLTSCALE
 70
     0
  0
ENDSEC
  0
SECTION
  2
TABLES
  0
TABLE
  2
VPORT
 70
     2
  0
VPORT
  2
*ACTIVE
 70
     0
 10
0.0
 20
0.0
 11
1.0
 21
1.0
 12
5.2339414894154279
 22
-19.034407206368311
 13
0.0
 23
0.0
 14
1.0
 24
1.0
 15
0.0
 25
0.0
 16
0.0
 26
0.0
 36
1.0
 17
0.0
 27
0.0
 37
0.0
 40
1348.7846291773851
 41
1.5994694960212199
 42
50.0
 43
0.0
 44
0.0
 50
0.0
 51
0.0
 71
     0
 72
   100
 73
     1
 74
     1
 75
     0
 76
     0
 77
     0
 78
     0
  0
ENDTAB
  0
TABLE
  2
LTYPE
 70
    11
  0
LTYPE
  2
CONTINUOUS
 70
     0
  3
Solid line
 72
    65
 73
     0
 40
0.0
  0
ENDTAB
  0
TABLE
  2
LAYER
 70
     6
  0
LAYER
  2
0
 70
     0
 62
     7
  6
CONTINUOUS
  0
LAYER
  2
DATA
 70
     0
 62
     7
  6
CONTINUOUS
  0
LAYER
  2
DEFPOINTS
 70
     0
 62
     7
  6
CONTINUOUS
  0
LAYER
  2
HIBINO-BASE
 70
     0
 62
     7
  6
CONTINUOUS
  0
LAYER
  2
SPEC
 70
     0
 62
     7
  6
CONTINUOUS
  0
LAYER
  2
DIMNSIONS
 70
     0
 62
     7
  6
CONTINUOUS
  0
ENDTAB
  0
TABLE
  2
STYLE
 70
     3
  0
STYLE
  2
STANDARD
 70
     0
 40
0.0
 41
1.0
 50
0.0
 71
     0
 42
0.0
  3
txt
  4
BIGFONT.SHX
  0
ENDTAB
  0
TABLE
  2
VIEW
 70
     0
  0
ENDTAB
  0
TABLE
  2
UCS
 70
     0
  0
ENDTAB
  0
TABLE
  2
APPID
 70
     1
  0
APPID
  2
ACAD
 70
     0
  0
ENDTAB
  0
TABLE
  2
DIMSTYLE
 70
     1
  0
DIMSTYLE
  2
STANDARD
 70
     0
  3

  4

  5

  6

  7

 40
1.0
 41
0.18
 42
0.0625
 43
0.38
 44
0.18
 45
0.0
 46
0.0
 47
0.0
 48
0.0
140
0.18
141
0.09
142
0.0
143
25.399999999999999
144
1.0
145
0.0
146
1.0
147
0.09
 71
     0
 72
     0
 73
     1
 74
     1
 75
     0
 76
     0
 77
     0
 78
     0
170
     0
171
     2
172
     0
173
     0
174
     0
175
     0
176
     0
177
     0
178
     0
  0
ENDTAB
  0
ENDSEC
  0
SECTION
  2
BLOCKS
  0
BLOCK
  8
0
  2
$MODEL_SPACE
 70
     0
 10
0.0
 20
0.0
 30
0.0
  3
$MODEL_SPACE
  1

  0
ENDBLK
  5
AA2
  8
0
  0
BLOCK
 67
     1
  8
0
  2
$PAPER_SPACE
 70
     0
 10
0.0
 20
0.0
 30
0.0
  3
$PAPER_SPACE
  1

  0
ENDBLK
  5
A9E
 67
     1
  8
0
  0
ENDSEC
  0
SECTION
  2
ENTITIES
  0
LINE
  5
2E
  8
HIBINO-BASE
  6
CONTINUOUS
 62
     7
 10
-444.76606060606048
 20
650.0
 30
0.0
 11
455.23393939393929
 21
650.0
 31
0.0
  0
LINE
  5
2F
  8
HIBINO-BASE
  6
CONTINUOUS
 62
     7
 10
455.23393939393929
 20
-650.0
 30
0.0
 11
-444.76606060606048
 21
-650.0
 31
0.0
  0
LINE
  5
30
  8
HIBINO-BASE
  6
CONTINUOUS
 62
     7
 10
-444.76606060606048
 20
-650.0
 30
0.0
 11
-444.76606060606048
 21
650.0
 31
0.0
  0
TEXT
  5
31
  8
HIBINO-BASE
 62
     7
 10
-408.84606060606041
 20
-682.04338899999993
 30
0.0
 40
18.00022089843749
  1
Hibino Corporation
 41
0.8
 11
-408.84606060606041
 21
-664.04316810156229
 31
0.0
 73
     3
  0
LINE
  5
32
  8
HIBINO-BASE
  6
CONTINUOUS
 62
     7
 10
455.23393939393929
 20
650.0
 30
0.0
 11
455.23393939393929
 21
-650.0
 31
0.0
  0
LINE
  5
33
  8
HIBINO-BASE
  6
CONTINUOUS
 62
     7
 10
5.2339393939393926
 20
-537.49999999999989
 30
0.0
 11
455.23393939393929
 21
-537.49999999999989
 31
0.0
  0
LINE
  5
34
  8
HIBINO-BASE
  6
CONTINUOUS
 62
     7
 10
5.2339393939393926
 20
-650.0
 30
0.0
 11
5.2339393939393926
 21
-537.49999999999989
 31
0.0
  0
TEXT
  5
35
  8
HIBINO-BASE
 62
     7
 10
9.7339393939393943
 20
-550.04346666666652
 30
0.0
 40
8.1442057291666661
  1
NOTE
 41
0.8
 11
9.7339393939393943
 21
-541.89926093749978
 31
0.0
 73
     3
  0
LINE
  5
36
  8
HIBINO-BASE
  6
CONTINUOUS
 62
     7
 10
180.23393939393941
 20
-650.0
 30
0.0
 11
180.23393939393941
 21
-537.49999999999989
 31
0.0
  0
TEXT
  5
37
  8
HIBINO-BASE
 62
     7
 10
184.73393939393941
 20
-550.04346666666652
 30
0.0
 40
8.1442057291666661
  1
TITLE
 41
0.8
 11
184.73393939393941
 21
-541.89926093749978
 31
0.0
 73
     3
  0
TEXT
  5
38
  8
HIBINO-BASE
 62
     7
 10
255.57588939393929
 20
-682.04338899999993
 30
0.0
 40
18.00022089843749
  1
ヒビノ株式会社
 41
0.8
 11
255.57588939393929
 21
-664.04316810156229
 31
0.0
 73
     3
  0
LINE
  5
39
  8
HIBINO-BASE
  6
CONTINUOUS
 62
     7
 10
5.2339393939393926
 20
-599.99999999999989
 30
0.0
 11
455.23393939393929
 21
-599.99999999999989
 31
0.0
  0
TEXT
  5
3A
  8
HIBINO-BASE
 62
     7
 10
247.23393939393941
 20
-612.26186666666649
 30
0.0
 40
8.1442057291666661
  1
DRAWN
 41
0.8
 11
247.23393939393941
 21
-604.11766093749975
 31
0.0
 73
     3
  0
TEXT
  5
3B
  8
HIBINO-BASE
 62
     7
 10
122.23393939393939
 20
-612.26186666666649
 30
0.0
 40
8.1442057291666661
  1
DATE
 41
0.8
 11
122.23393939393939
 21
-604.11766093749975
 31
0.0
 73
     3
  0
TEXT
  5
3C
  8
HIBINO-BASE
 62
     7
 10
72.233939393939394
 20
-612.26186666666649
 30
0.0
 40
8.1442057291666661
  1
SCALE
 41
0.8
 11
72.233939393939394
 21
-604.11766093749975
 31
0.0
 73
     3
  0
TEXT
  5
3D
  8
HIBINO-BASE
 62
     7
 10
184.73393939393941
 20
-612.26186666666649
 30
0.0
 40
8.1442057291666661
  1
DESIGN
 41
0.8
 11
184.73393939393941
 21
-604.11766093749975
 31
0.0
 73
     3
  0
TEXT
  5
3E
  8
HIBINO-BASE
 62
     7
 10
372.23393939393929
 20
-612.26186666666649
 30
0.0
 40
8.1442057291666661
  1
DRAWING NO.
 41
0.8
 11
372.23393939393929
 21
-604.11766093749975
 31
0.0
 73
     3
  0
TEXT
  5
3F
  8
HIBINO-BASE
 62
     7
 10
309.73393939393929
 20
-612.26186666666649
 30
0.0
 40
8.1442057291666661
  1
CHECK
 41
0.8
 11
309.73393939393929
 21
-604.11766093749975
 31
0.0
 73
     3
  0
LINE
  5
40
  8
HIBINO-BASE
  6
CONTINUOUS
 62
     7
 10
77.108939393939366
 20
-643.75
 30
0.0
 11
95.858939393939394
 21
-624.99999999999989
 31
0.0
  0
TEXT
  5
41
  8
HIBINO-BASE
 62
     7
 10
77.394846838830588
 20
-633.52347858749306
 30
0.0
 40
9.5015733506944446
  1
1
 41
0.8
 11
77.394846838830588
 21
-624.0219052367986
 31
0.0
 73
     3
  0
LINE
  5
42
  8
HIBINO-BASE
  6
CONTINUOUS
 62
     7
 10
67.73393939393938
 20
-650.0
 30
0.0
 11
67.73393939393938
 21
-599.99999999999989
 31
0.0
  0
LINE
  5
43
  8
HIBINO-BASE
  6
CONTINUOUS
 62
     7
 10
117.73393939393939
 20
-650.0
 30
0.0
 11
117.73393939393939
 21
-599.99999999999989
 31
0.0
  0
LINE
  5
44
  8
HIBINO-BASE
  6
CONTINUOUS
 62
     7
 10
242.73393939393929
 20
-599.99999999999989
 30
0.0
 11
242.73393939393929
 21
-650.0
 31
0.0
  0
LINE
  5
45
  8
HIBINO-BASE
  6
CONTINUOUS
 62
     7
 10
367.73393939393929
 20
-599.99999999999989
 30
0.0
 11
367.73393939393929
 21
-650.0
 31
0.0
  0
LINE
  5
46
  8
HIBINO-BASE
  6
CONTINUOUS
 62
     7
 10
305.23393939393929
 20
-650.0
 30
0.0
 11
305.23393939393929
 21
-599.99999999999989
 31
0.0
  0
TEXT
  5
47
  8
HIBINO-BASE
 62
     7
 10
122.0166393939394
 20
-637.19871111111115
 30
0.0
 40
9.5015733506944446
  1
'04.6.
 41
0.8
 11
122.0166393939394
 21
-627.69713776041669
 31
0.0
 73
     3
  0
TEXT
  5
48
  8
HIBINO-BASE
 62
     7
 10
91.759394409684774
 20
-642.89847858749306
 30
0.0
 40
9.5015733506944446
  1
5
 41
0.8
 11
91.759394409684774
 21
-633.3969052367986
 31
0.0
 73
     3
  0
TEXT
  5
49
  8
HIBINO-BASE
 62
     7
 10
24.65060606060614
 20
-640.11999999999989
 30
0.0
 40
16.288411458333329
  1
A4
 41
0.8
 11
24.65060606060614
 21
-623.83158854166652
 31
0.0
 73
     3
  0
TEXT
  5
4A
  8
HIBINO-BASE
 62
     7
 10
10.02560606060606
 20
-613.09727499999985
 30
0.0
 40
8.1442057291666661
  1
PAPER SIZE
 41
0.8
 11
10.02560606060606
 21
-604.95306927083334
 31
0.0
 73
     3
  0
TEXT
  5
4B
  8
HIBINO-BASE
 62
     7
 10
-391.77538576231638
 20
-624.70210753788535
 30
0.0
 40
8.1442057291666661
  1
仕様および外観は予告なく変更されることがありますので、ご了承ください。
 41
0.8
 11
-391.77538576231638
 21
-616.55790180871873
 31
0.0
 73
     3
  0
LINE
  5
4C
  8
SPEC
  6
CONTINUOUS
 62
     7
 10
-399.942780603872
 20
600.03202521605965
 30
0.0
 11
337.55721939612789
 21
600.03202521605965
 31
0.0
  0
LINE
  5
4D
  8
SPEC
  6
CONTINUOUS
 62
     7
 10
-399.942780603872
 20
581.28202521605965
 30
0.0
 11
337.55721939612789
 21
581.28202521605965
 31
0.0
  0
LINE
  5
4E
  8
SPEC
  6
CONTINUOUS
 62
     7
 10
-399.942780603872
 20
506.28202521605971
 30
0.0
 11
337.55721939612789
 21
506.28202521605971
 31
0.0
  0
LINE
  5
4F
  8
SPEC
  6
CONTINUOUS
 62
     7
 10
-399.942780603872
 20
525.03202521605965
 30
0.0
 11
337.55721939612789
 21
525.03202521605965
 31
0.0
  0
LINE
  5
50
  8
SPEC
  6
CONTINUOUS
 62
     7
 10
-399.942780603872
 20
543.78202521605965
 30
0.0
 11
337.55721939612789
 21
543.78202521605965
 31
0.0
  0
LINE
  5
51
  8
SPEC
  6
CONTINUOUS
 62
     7
 10
-399.942780603872
 20
487.53202521605971
 30
0.0
 11
337.55721939612789
 21
487.53202521605971
 31
0.0
  0
LINE
  5
52
  8
SPEC
  6
CONTINUOUS
 62
     7
 10
-399.942780603872
 20
450.03202521605971
 30
0.0
 11
337.55721939612789
 21
450.03202521605971
 31
0.0
  0
LINE
  5
53
  8
SPEC
  6
CONTINUOUS
 62
     7
 10
-399.942780603872
 20
468.78202521605971
 30
0.0
 11
337.55721939612789
 21
468.78202521605971
 31
0.0
  0
LINE
  5
54
  8
SPEC
  6
CONTINUOUS
 62
     7
 10
-399.942780603872
 20
431.28202521605971
 30
0.0
 11
337.55721939612789
 21
431.28202521605971
 31
0.0
  0
LINE
  5
55
  8
SPEC
  6
CONTINUOUS
 62
     7
 10
-399.942780603872
 20
412.53202521605959
 30
0.0
 11
337.55721939612789
 21
412.53202521605959
 31
0.0
  0
LINE
  5
56
  8
SPEC
  6
CONTINUOUS
 62
     7
 10
-399.942780603872
 20
562.53202521605965
 30
0.0
 11
337.55721939612789
 21
562.53202521605965
 31
0.0
  0
LINE
  5
57
  8
SPEC
  6
CONTINUOUS
 62
     7
 10
-399.942780603872
 20
375.03202521605971
 30
0.0
 11
337.55721939612789
 21
375.03202521605971
 31
0.0
  0
LINE
  5
58
  8
SPEC
  6
CONTINUOUS
 62
     7
 10
-399.942780603872
 20
337.53202521605982
 30
0.0
 11
337.55721939612789
 21
337.53202521605982
 31
0.0
  0
LINE
  5
59
  8
SPEC
  6
CONTINUOUS
 62
     7
 10
-399.942780603872
 20
243.7820252160594
 30
0.0
 11
337.55721939612789
 21
243.7820252160594
 31
0.0
  0
LINE
  5
5A
  8
SPEC
  6
CONTINUOUS
 62
     7
 10
-399.942780603872
 20
281.28202521605971
 30
0.0
 11
337.55721939612789
 21
281.28202521605971
 31
0.0
  0
LINE
  5
5B
  8
SPEC
  6
CONTINUOUS
 62
     7
 10
-399.942780603872
 20
262.53202521605971
 30
0.0
 11
337.55721939612789
 21
262.53202521605971
 31
0.0
  0
LINE
  5
5C
  8
SPEC
  6
CONTINUOUS
 62
     7
 10
-399.942780603872
 20
600.03202521605965
 30
0.0
 11
-399.942780603872
 21
243.7820252160594
 31
0.0
  0
TEXT
  5
5D
  8
SPEC
 62
     7
 10
-386.437066787003
 20
606.99837521605957
 30
0.0
 40
12.21630859375
  1
仕様
 41
0.8
 11
-386.437066787003
 21
619.21468380980957
 31
0.0
 73
     3
  0
LINE
  5
5E
  8
SPEC
  6
CONTINUOUS
 62
     7
 10
-237.44278060387279
 20
600.03202521605965
 30
0.0
 11
-237.44278060387279
 21
243.7820252160594
 31
0.0
  0
LINE
  5
5F
  8
SPEC
  6
CONTINUOUS
 62
     7
 10
337.55721939612789
 20
600.03202521605965
 30
0.0
 11
337.55721939612789
 21
243.7820252160594
 31
0.0
  0
TEXT
  5
60
  8
SPEC
 62
     7
 10
-395.44278060387211
 20
585.51668049107036
 30
0.0
 40
9.5015733506944446
  1
形式
 41
0.8
 11
-395.44278060387211
 21
595.01825384176482
 31
0.0
 73
     3
  0
LINE
  5
61
  8
SPEC
  6
CONTINUOUS
 62
     7
 10
-399.942780603872
 20
431.28202521605971
 30
0.0
 11
337.55721939612789
 21
431.28202521605971
 31
0.0
  0
LINE
  5
62
  8
SPEC
  6
CONTINUOUS
 62
     7
 10
-399.942780603872
 20
431.28202521605971
 30
0.0
 11
337.55721939612789
 21
431.28202521605971
 31
0.0
  0
LINE
  5
63
  8
SPEC
  6
CONTINUOUS
 62
     7
 10
-399.942780603872
 20
393.78202521605971
 30
0.0
 11
337.55721939612789
 21
393.78202521605971
 31
0.0
  0
LINE
  5
64
  8
SPEC
  6
CONTINUOUS
 62
     7
 10
-399.942780603872
 20
356.28202521605971
 30
0.0
 11
337.55721939612789
 21
356.28202521605971
 31
0.0
  0
LINE
  5
65
  8
SPEC
  6
CONTINUOUS
 62
     7
 10
-399.942780603872
 20
318.78202521605982
 30
0.0
 11
337.55721939612789
 21
318.78202521605982
 31
0.0
  0
LINE
  5
66
  8
SPEC
  6
CONTINUOUS
 62
     7
 10
-399.942780603872
 20
300.03202521605982
 30
0.0
 11
337.55721939612789
 21
300.03202521605982
 31
0.0
  0
LINE
  5
67
  8
SPEC
  6
CONTINUOUS
 62
     7
 10
-399.942780603872
 20
225.0320252160594
 30
0.0
 11
337.55721939612789
 21
225.0320252160594
 31
0.0
  0
LINE
  5
68
  8
SPEC
  6
CONTINUOUS
 62
     7
 10
-399.942780603872
 20
206.2820252160594
 30
0.0
 11
337.55721939612789
 21
206.2820252160594
 31
0.0
  0
LINE
  5
69
  8
SPEC
  6
CONTINUOUS
 62
     7
 10
-399.942780603872
 20
187.5320252160594
 30
0.0
 11
337.55721939612789
 21
187.5320252160594
 31
0.0
  0
TEXT
  5
6A
  8
SPEC
 62
     7
 10
-229.97318208435161
 20
529.94990771596269
 30
0.0
 40
9.5015733506944446
  1
最大レベル　-9dBu（パッドOFF)
 41
0.8
 11
-229.97318208435161
 21
539.45148106665727
 31
0.0
 73
     3
  0
TEXT
  5
6B
  8
SPEC
 62
     7
 10
-230.15780314835141
 20
567.28314978339802
 30
0.0
 40
9.5015733506944446
  1
端子・型式　XLR、電子バランス
 41
0.8
 11
-230.15780314835141
 21
576.78472313409236
 31
0.0
 73
     3
  0
TEXT
  5
6C
  8
SPEC
 62
     7
 10
-230.6831528673186
 20
549.10088718332122
 30
0.0
 40
9.5015733506944446
  1
インピーダンス　330Ω
 41
0.8
 11
-230.6831528673186
 21
558.60246053401556
 31
0.0
 73
     3
  0
TEXT
  5
6D
  8
SPEC
 62
     7
 10
-230.31856473732489
 20
511.2554755896461
 30
0.0
 40
9.5015733506944446
  1
等価入力ノイズ　-120dBu（150Ωソース、20Hz～20kHz）
 41
0.8
 11
-230.31856473732489
 21
520.75704894034061
 31
0.0
 73
     3
  0
TEXT
  5
6E
  8
SPEC
 62
     7
 10
-395.38418672402082
 20
267.14685501492579
 30
0.0
 40
9.5015733506944446
  1
周波数特性
 41
0.8
 11
-395.38418672402082
 21
276.6484283656203
 31
0.0
 73
     3
  0
TEXT
  5
6F
  8
SPEC
 62
     7
 10
-395.2123899538874
 20
248.49252651420969
 30
0.0
 40
9.5015733506944446
  1
THD＋N
 41
0.8
 11
-395.2123899538874
 21
257.99409986490411
 31
0.0
 73
     3
  0
TEXT
  5
70
  8
SPEC
 62
     7
 10
-229.8098203249217
 20
248.2519523318191
 30
0.0
 40
9.5015733506944446
  1
0.002％（+4dBu,1kHz,0dBゲイン）
 41
0.8
 11
-229.8098203249217
 21
257.7535256825135
 31
0.0
 73
     3
  0
TEXT
  5
71
  8
SPEC
 62
     7
 10
-395.55149895107598
 20
229.61791928897699
 30
0.0
 40
9.5015733506944446
  1
電源
 41
0.8
 11
-395.55149895107598
 21
239.11949263967139
 31
0.0
 73
     3
  0
TEXT
  5
72
  8
SPEC
 62
     7
 10
-229.58955819879529
 20
229.4188568873634
 30
0.0
 40
9.5015733506944446
  1
AC100V、50/60Hz
 41
0.8
 11
-229.58955819879529
 21
238.92043023805789
 31
0.0
 73
     3
  0
TEXT
  5
73
  8
SPEC
 62
     7
 10
-395.70375340393952
 20
210.8520104391128
 30
0.0
 40
9.5015733506944446
  1
消費電力
 41
0.8
 11
-395.70375340393952
 21
220.35358378980729
 31
0.0
 73
     3
  0
TEXT
  5
74
  8
SPEC
 62
     7
 10
-230.5897818782698
 20
210.75499999999991
 30
0.0
 40
9.5015733506944446
  1
15W
 41
0.8
 11
-230.5897818782698
 21
220.2565733506944
 31
0.0
 73
     3
  0
TEXT
  5
75
  8
SPEC
 62
     7
 10
-395.67760006563373
 20
192.58358906175789
 30
0.0
 40
9.5015733506944446
  1
寸法（W x H x D）・重量　
 41
0.8
 11
-395.67760006563373
 21
202.08516241245241
 31
0.0
 73
     3
  0
TEXT
  5
76
  8
SPEC
 62
     7
 10
-229.72783729902179
 20
192.22941227044561
 30
0.0
 40
9.5015733506944446
  1
483X45X150mm（突起部含まず）、2.4Kg
 41
0.8
 11
-229.72783729902179
 21
201.73098562114001
 31
0.0
 73
     3
  0
TEXT
  5
77
  8
SPEC
 62
     7
 10
-230.02993969718119
 20
266.98959892195711
 30
0.0
 40
9.5015733506944446
  1
20Hz～20kHz（+0/-0.5dB）
 41
0.8
 11
-230.02993969718119
 21
276.49117227265151
 31
0.0
 73
     3
  0
TEXT
  5
78
  8
SPEC
 62
     7
 10
-396.47410639095261
 20
492.376383644268
 30
0.0
 40
9.5015733506944446
  1
ライン入力
 41
0.8
 11
-396.47410639095261
 21
501.87795699496252
 31
0.0
 73
     3
  0
TEXT
  5
79
  8
SPEC
 62
     7
 10
-394.5153942612406
 20
567.46566223577429
 30
0.0
 40
9.5015733506944446
  1
マイクロホン入力
 41
0.8
 11
-394.5153942612406
 21
576.96723558646875
 31
0.0
 73
     3
  0
TEXT
  5
7A
  8
SPEC
 62
     7
 10
-230.6293652116031
 20
586.94097967348625
 30
0.0
 40
9.5015733506944446
  1
デジタル・ボーカル・プロセッサ
 41
0.8
 11
-230.6293652116031
 21
596.44255302418071
 31
0.0
 73
     3
  0
TEXT
  5
7B
  8
SPEC
 62
     7
 10
-229.80000000000001
 20
492.56181208115339
 30
0.0
 40
9.5015733506944446
  1
端子・型式　標準フォーンジャック（3P）、電子バランス
 41
0.8
 11
-229.80000000000001
 21
502.06338543184791
 31
0.0
 73
     3
  0
TEXT
  5
7C
  8
SPEC
 62
     7
 10
-230.6119043651907
 20
474.11075410049187
 30
0.0
 40
9.5015733506944446
  1
インピーダンス　40kΩ
 41
0.8
 11
-230.6119043651907
 21
483.61232745118627
 31
0.0
 73
     3
  0
TEXT
  5
7D
  8
SPEC
 62
     7
 10
-230.10211596132299
 20
454.5226584656827
 30
0.0
 40
9.5015733506944446
  1
最大レベル　+18dBu
 41
0.8
 11
-230.10211596132299
 21
464.02423181637721
 31
0.0
 73
     3
  0
TEXT
  5
7E
  8
SPEC
 62
     7
 10
-395.45950209784831
 20
435.93364054798491
 30
0.0
 40
9.5015733506944446
  1
楽器用 入力
 41
0.8
 11
-395.45950209784831
 21
445.43521389867942
 31
0.0
 73
     3
  0
TEXT
  5
7F
  8
SPEC
 62
     7
 10
-230.40000000000001
 20
435.76181208115349
 30
0.0
 40
9.5015733506944446
  1
端子・型式　標準フォーンジャック（2P）、アンバランス
 41
0.8
 11
-230.40000000000001
 21
445.26338543184801
 31
0.0
 73
     3
  0
TEXT
  5
80
  8
SPEC
 62
     7
 10
-230.57070865570461
 20
417.46421951563951
 30
0.0
 40
9.5015733506944446
  1
インピーダンス　470kΩ
 41
0.8
 11
-230.57070865570461
 21
426.96579286633403
 31
0.0
 73
     3
  0
TEXT
  5
81
  8
SPEC
 62
     7
 10
-229.9749405783507
 20
398.98591228469792
 30
0.0
 40
9.5015733506944446
  1
最大レベル　+18dBu
 41
0.8
 11
-229.9749405783507
 21
408.48748563539232
 31
0.0
 73
     3
  0
TEXT
  5
82
  8
SPEC
 62
     7
 10
-396.0042767288536
 20
379.79849580430351
 30
0.0
 40
9.5015733506944446
  1
アナログ出力 
 41
0.8
 11
-396.0042767288536
 21
389.30006915499791
 31
0.0
 73
     3
  0
TEXT
  5
83
  8
SPEC
 62
     7
 10
-230.0238087303814
 20
380.31842654303671
 30
0.0
 40
9.5015733506944446
  1
端子・型式　XLR/標準フォーンジャック（3P）、擬似バランス
 41
0.8
 11
-230.0238087303814
 21
389.81999989373122
 31
0.0
 73
     3
  0
TEXT
  5
84
  8
SPEC
 62
     7
 10
-230.63148117292619
 20
361.22054250435963
 30
0.0
 40
9.5015733506944446
  1
インピーダンス　100Ω
 41
0.8
 11
-230.63148117292619
 21
370.72211585505408
 31
0.0
 73
     3
  0
TEXT
  5
85
  8
SPEC
 62
     7
 10
-229.9608463845293
 20
342.5813888888888
 30
0.0
 40
9.5015733506944446
  1
最大レベル　+18dBu
 41
0.8
 11
-229.9608463845293
 21
352.08296223958331
 31
0.0
 73
     3
  0
TEXT
  5
86
  8
SPEC
 62
     7
 10
-396.0
 20
323.5771121600352
 30
0.0
 40
9.5015733506944446
  1
デジタル出力 
 41
0.8
 11
-396.0
 21
333.07868551072971
 31
0.0
 73
     3
  0
TEXT
  5
87
  8
SPEC
 62
     7
 10
-230.2391536154708
 20
323.78906133143352
 30
0.0
 40
9.5015733506944446
  1
端子・型式　RCA：S/PDIF,24ビット
 41
0.8
 11
-230.2391536154708
 21
333.29063468212797
 31
0.0
 73
     3
  0
TEXT
  5
88
  8
SPEC
 62
     7
 10
-230.0195768077354
 20
305.03244686955048
 30
0.0
 40
9.5015733506944446
  1
サンプリングレート　48kHz/44.1kHz
 41
0.8
 11
-230.0195768077354
 21
314.53402022024488
 31
0.0
 73
     3
  0
TEXT
  5
89
  8
SPEC
 62
     7
 10
-394.87647799130491
 20
286.07925052446211
 30
0.0
 40
9.5015733506944446
  1
A/D変換 
 41
0.8
 11
-394.87647799130491
 21
295.58082387515663
 31
0.0
 73
     3
  0
TEXT
  5
8A
  8
SPEC
 62
     7
 10
-230.1097884038677
 20
286.09117729275653
 30
0.0
 40
9.5015733506944446
  1
24ビット、48kHz/44.1kHz
 41
0.8
 11
-230.1097884038677
 21
295.59275064345093
 31
0.0
 73
     3
  0
LINE
  5
8B
  8
SPEC
  6
CONTINUOUS
 62
     7
 10
-237.44278060387279
 20
243.7820252160594
 30
0.0
 11
-237.44278060387279
 21
187.5320252160594
 31
0.0
  0
LINE
  5
8C
  8
SPEC
  6
CONTINUOUS
 62
     7
 10
337.55721939612789
 20
187.5320252160594
 30
0.0
 11
337.55721939612789
 21
246.0
 31
0.0
  0
LINE
  5
8D
  8
SPEC
  6
CONTINUOUS
 62
     7
 10
-399.942780603872
 20
187.5320252160594
 30
0.0
 11
-399.942780603872
 21
243.7820252160594
 31
0.0
  0
TEXT
  5
8E
  8
DIMNSIONS
 62
     7
 10
-94.766060606060606
 20
-588.65255000000002
 30
0.0
 40
12.21630859375
  1
(単位：mm)
 41
0.8
 11
-94.766060606060606
 21
-576.43624140625002
 31
0.0
 73
     3
  0
LINE
  5
8F
  8
DIMNSIONS
  6
CONTINUOUS
 62
     7
 10
-401.45004856693743
 20
-296.85441076802482
 30
0.0
 11
-328.21958795106201
 21
-296.85441076802482
 31
0.0
  0
LINE
  5
90
  8
DIMNSIONS
  6
CONTINUOUS
 62
     7
 10
-389.3575431927942
 20
-279.84638818737108
 30
0.0
 11
-410.8575431927942
 21
-279.84638818737108
 31
0.0
  0
LINE
  5
91
  8
DIMNSIONS
  6
CONTINUOUS
 62
     7
 10
-389.3575431927942
 20
-130.3463881873717
 30
0.0
 11
-410.8575431927942
 21
-130.3463881873717
 31
0.0
  0
LINE
  5
92
  8
DIMNSIONS
  6
CONTINUOUS
 62
     7
 10
-400.85754319279408
 20
-279.84638818737108
 30
0.0
 11
-400.85754319279408
 21
-130.3463881873717
 31
0.0
  0
LINE
  5
93
  8
DIMNSIONS
  6
CONTINUOUS
 62
     7
 10
-400.85754319279408
 20
-279.84638818737108
 30
0.0
 11
-404.20774216854528
 21
-267.34327539440238
 31
0.0
  0
LINE
  5
94
  8
DIMNSIONS
  6
CONTINUOUS
 62
     7
 10
-400.85754319279408
 20
-279.84638818737108
 30
0.0
 11
-397.507344217043
 21
-267.34327539440238
 31
0.0
  0
LINE
  5
95
  8
DIMNSIONS
  6
CONTINUOUS
 62
     7
 10
-400.85754319279408
 20
-130.3463881873717
 30
0.0
 11
-397.507344217043
 21
-142.84950098034039
 31
0.0
  0
LINE
  5
96
  8
DIMNSIONS
  6
CONTINUOUS
 62
     7
 10
-400.85754319279408
 20
-130.3463881873717
 30
0.0
 11
-404.20774216854528
 21
-142.84950098034039
 31
0.0
  0
TEXT
  5
97
  8
DIMNSIONS
 62
     7
 10
-404.0630987483496
 20
-217.00263902845921
 30
0.0
 40
13.57367621527778
  1
150
 50
90.0
 41
0.8
 11
-417.63677496362737
 21
-217.00263902845921
 31
0.0
 73
     3
  0
LINE
  5
98
  8
DIMNSIONS
  6
CONTINUOUS
 62
     7
 10
-389.3575431927942
 20
-279.84638818737108
 30
0.0
 11
-367.81958795106198
 21
-279.84638818737108
 31
0.0
  0
LINE
  5
99
  8
DIMNSIONS
  6
CONTINUOUS
 62
     7
 10
-389.3575431927942
 20
-130.3463881873717
 30
0.0
 11
-348.81958795106198
 21
-130.3463881873717
 31
0.0
  0
LINE
  5
9A
  8
DIMNSIONS
  6
CONTINUOUS
 62
     7
 10
-367.99338283682442
 20
-279.84638818737108
 30
0.0
 11
-383.79338283682432
 21
-279.84638818737108
 31
0.0
  0
LINE
  5
9B
  8
DIMNSIONS
  6
CONTINUOUS
 62
     7
 10
-367.99338283682442
 20
-276.84638818737108
 30
0.0
 11
-383.79338283682432
 21
-276.84638818737108
 31
0.0
  0
LINE
  5
9C
  8
DIMNSIONS
  6
CONTINUOUS
 62
     7
 10
-373.79338283682432
 20
-276.84638818737108
 30
0.0
 11
-373.79338283682432
 21
-279.84638818737108
 31
0.0
  0
LINE
  5
9D
  8
DIMNSIONS
  6
CONTINUOUS
 62
     7
 10
-373.79338283682432
 20
-279.84638818737108
 30
0.0
 11
-373.79338283682432
 21
-304.84638818737119
 31
0.0
  0
LINE
  5
9E
  8
DIMNSIONS
  6
CONTINUOUS
 62
     7
 10
-373.79338283682432
 20
-279.84638818737108
 30
0.0
 11
-370.44318386107318
 21
-292.34950098033988
 31
0.0
  0
LINE
  5
9F
  8
DIMNSIONS
  6
CONTINUOUS
 62
     7
 10
-373.79338283682432
 20
-279.84638818737108
 30
0.0
 11
-377.14358181257558
 21
-292.34950098033988
 31
0.0
  0
LINE
  5
A0
  8
DIMNSIONS
  6
CONTINUOUS
 62
     7
 10
-373.79338283682432
 20
-276.84638818737108
 30
0.0
 11
-373.79338283682432
 21
-262.11604956124518
 31
0.0
  0
LINE
  5
A1
  8
DIMNSIONS
  6
CONTINUOUS
 62
     7
 10
-373.79338283682432
 20
-276.84638818737108
 30
0.0
 11
-377.14358181257558
 21
-264.34327539440238
 31
0.0
  0
LINE
  5
A2
  8
DIMNSIONS
  6
CONTINUOUS
 62
     7
 10
-373.79338283682432
 20
-276.84638818737108
 30
0.0
 11
-370.44318386107318
 21
-264.34327539440238
 31
0.0
  0
TEXT
  5
A3
  8
DIMNSIONS
 62
     7
 10
-376.99893839238001
 20
-270.05354956124518
 30
0.0
 40
13.57367621527778
  1
3
 50
90.0
 41
0.8
 11
-390.57261460765778
 21
-270.05354956124518
 31
0.0
 73
     3
  0
LINE
  5
A4
  8
DIMNSIONS
  6
CONTINUOUS
 62
     7
 10
-338.16319342737222
 20
-106.7435886442543
 30
0.0
 11
-338.16319342737222
 21
-77.250750018127874
 31
0.0
  0
LINE
  5
A5
  8
DIMNSIONS
  6
CONTINUOUS
 62
     7
 10
99.836806572626813
 20
-106.7435886442543
 30
0.0
 11
99.836806572626813
 21
-77.250750018127874
 31
0.0
  0
LINE
  5
A6
  8
DIMNSIONS
  6
CONTINUOUS
 62
     7
 10
-338.16319342737222
 20
-87.250750018127874
 30
0.0
 11
99.836806572626813
 21
-87.250750018127874
 31
0.0
  0
LINE
  5
A7
  8
DIMNSIONS
  6
CONTINUOUS
 62
     7
 10
-338.16319342737222
 20
-87.250750018127874
 30
0.0
 11
-325.66008063440353
 21
-83.900551042376648
 31
0.0
  0
LINE
  5
A8
  8
DIMNSIONS
  6
CONTINUOUS
 62
     7
 10
-338.16319342737222
 20
-87.250750018127874
 30
0.0
 11
-325.66008063440353
 21
-90.600948993879072
 31
0.0
  0
LINE
  5
A9
  8
DIMNSIONS
  6
CONTINUOUS
 62
     7
 10
99.836806572626813
 20
-87.250750018127874
 30
0.0
 11
87.333693779658049
 21
-90.600948993879072
 31
0.0
  0
LINE
  5
AA
  8
DIMNSIONS
  6
CONTINUOUS
 62
     7
 10
99.836806572626813
 20
-87.250750018127874
 30
0.0
 11
87.333693779658049
 21
-83.900551042376648
 31
0.0
  0
TEXT
  5
AB
  8
DIMNSIONS
 62
     7
 10
-131.06944426846039
 20
-84.04519446257234
 30
0.0
 40
13.57367621527778
  1
438
 41
0.8
 11
-131.06944426846039
 21
-70.471518247294554
 31
0.0
 73
     3
  0
LINE
  5
AC
  8
DIMNSIONS
  6
CONTINUOUS
 62
     7
 10
-338.16319342737222
 20
-105.9609365947292
 30
0.0
 11
-338.16319342737222
 21
-120.8535495612452
 31
0.0
  0
LINE
  5
AD
  8
DIMNSIONS
  6
CONTINUOUS
 62
     7
 10
-340.48390945468827
 20
-123.8535495612453
 30
0.0
 11
-340.48390945468827
 21
-40.853549561245273
 31
0.0
  0
LINE
  5
AE
  8
DIMNSIONS
  6
CONTINUOUS
 62
     7
 10
102.0447185995905
 20
-123.19856524416051
 30
0.0
 11
102.0447185995905
 21
-40.853549561245273
 31
0.0
  0
LINE
  5
AF
  8
DIMNSIONS
  6
CONTINUOUS
 62
     7
 10
-340.48390945468827
 20
-50.853549561245259
 30
0.0
 11
102.0447185995905
 21
-50.853549561245259
 31
0.0
  0
LINE
  5
B0
  8
DIMNSIONS
  6
CONTINUOUS
 62
     7
 10
-340.48390945468827
 20
-50.853549561245259
 30
0.0
 11
-327.98079666171952
 21
-47.503350585494047
 31
0.0
  0
LINE
  5
B1
  8
DIMNSIONS
  6
CONTINUOUS
 62
     7
 10
-340.48390945468827
 20
-50.853549561245259
 30
0.0
 11
-327.98079666171952
 21
-54.203748536996478
 31
0.0
  0
LINE
  5
B2
  8
DIMNSIONS
  6
CONTINUOUS
 62
     7
 10
102.0447185995905
 20
-50.853549561245259
 30
0.0
 11
89.541605806621817
 21
-54.203748536996478
 31
0.0
  0
LINE
  5
B3
  8
DIMNSIONS
  6
CONTINUOUS
 62
     7
 10
102.0447185995905
 20
-50.853549561245259
 30
0.0
 11
89.541605806621817
 21
-47.503350585494047
 31
0.0
  0
TEXT
  5
B4
  8
DIMNSIONS
 62
     7
 10
-131.12584626863659
 20
-47.647994005689696
 30
0.0
 40
13.57367621527778
  1
443
 41
0.8
 11
-131.12584626863659
 21
-34.074317790411932
 31
0.0
 73
     3
  0
LINE
  5
B5
  8
DIMNSIONS
  6
CONTINUOUS
 62
     7
 10
-340.48390945468827
 20
-123.8535495612452
 30
0.0
 11
-340.48390945468827
 21
-139.8535495612453
 31
0.0
  0
LINE
  5
B6
  8
DIMNSIONS
  6
CONTINUOUS
 62
     7
 10
99.836806572626813
 20
-106.7435886442542
 30
0.0
 11
99.836806572626813
 21
-120.8535495612452
 31
0.0
  0
LINE
  5
B7
  8
DIMNSIONS
  6
CONTINUOUS
 62
     7
 10
-388.5
 20
-296.85441076802482
 30
0.0
 11
-410.8575431927942
 21
-296.85441076802482
 31
0.0
  0
LINE
  5
B8
  8
DIMNSIONS
  6
CONTINUOUS
 62
     7
 10
-388.5
 20
-279.84638818737108
 30
0.0
 11
-410.8575431927942
 21
-279.84638818737108
 31
0.0
  0
LINE
  5
B9
  8
DIMNSIONS
  6
CONTINUOUS
 62
     7
 10
-400.85754319279408
 20
-279.84638818737108
 30
0.0
 11
-400.85754319279408
 21
-296.85441076802482
 31
0.0
  0
LINE
  5
BA
  8
DIMNSIONS
  6
CONTINUOUS
 62
     7
 10
-400.85754319279408
 20
-296.85441076802482
 30
0.0
 11
-400.85754319279408
 21
-329.27500000000009
 31
0.0
  0
LINE
  5
BB
  8
DIMNSIONS
  6
CONTINUOUS
 62
     7
 10
-400.85754319279408
 20
-296.85441076802482
 30
0.0
 11
-397.507344217043
 21
-309.35752356099363
 31
0.0
  0
LINE
  5
BC
  8
DIMNSIONS
  6
CONTINUOUS
 62
     7
 10
-400.85754319279408
 20
-296.85441076802482
 30
0.0
 11
-404.20774216854528
 21
-309.35752356099363
 31
0.0
  0
LINE
  5
BD
  8
DIMNSIONS
  6
CONTINUOUS
 62
     7
 10
-400.85754319279408
 20
-279.84638818737108
 30
0.0
 11
-400.85754319279408
 21
-254.8463881873711
 31
0.0
  0
LINE
  5
BE
  8
DIMNSIONS
  6
CONTINUOUS
 62
     7
 10
-400.85754319279408
 20
-279.84638818737108
 30
0.0
 11
-404.20774216854528
 21
-267.34327539440238
 31
0.0
  0
LINE
  5
BF
  8
DIMNSIONS
  6
CONTINUOUS
 62
     7
 10
-400.85754319279408
 20
-279.84638818737108
 30
0.0
 11
-397.507344217043
 21
-267.34327539440238
 31
0.0
  0
TEXT
  5
C0
  8
DIMNSIONS
 62
     7
 10
-404.0630987483496
 20
-329.27500000000009
 30
0.0
 40
13.57367621527778
  1
17
 50
90.0
 41
0.8
 11
-417.63677496362737
 21
-329.27500000000009
 31
0.0
 73
     3
  0
LINE
  5
C1
  8
DIMNSIONS
  6
CONTINUOUS
 62
     7
 10
-381.0
 20
-130.3463881873717
 30
0.0
 11
-410.8575431927942
 21
-130.3463881873717
 31
0.0
  0
LINE
  5
C2
  8
DIMNSIONS
  6
CONTINUOUS
 62
     7
 10
-400.85754319279408
 20
-130.3463881873717
 30
0.0
 11
-400.85754319279408
 21
-155.3463881873717
 31
0.0
  0
LINE
  5
C3
  8
DIMNSIONS
  6
CONTINUOUS
 62
     7
 10
-400.85754319279408
 20
-130.3463881873717
 30
0.0
 11
-397.507344217043
 21
-142.84950098034039
 31
0.0
  0
LINE
  5
C4
  8
DIMNSIONS
  6
CONTINUOUS
 62
     7
 10
-400.85754319279408
 20
-130.3463881873717
 30
0.0
 11
-404.20774216854528
 21
-142.84950098034039
 31
0.0
  0
LINE
  5
C5
  8
DIMNSIONS
  6
CONTINUOUS
 62
     7
 10
-360.04129757352689
 20
-461.21010071801322
 30
0.0
 11
-360.04129757352689
 21
-445.0
 31
0.0
  0
LINE
  5
C6
  8
DIMNSIONS
  6
CONTINUOUS
 62
     7
 10
-360.04129757352689
 20
-452.59084550971909
 30
0.0
 11
-360.04129757352689
 21
-489.79183948601877
 31
0.0
  0
LINE
  5
C7
  8
DIMNSIONS
  6
CONTINUOUS
 62
     7
 10
122.9587024264731
 20
-452.59084550971909
 30
0.0
 11
122.9587024264731
 21
-489.79183948601877
 31
0.0
  0
LINE
  5
C8
  8
DIMNSIONS
  6
CONTINUOUS
 62
     7
 10
-360.04129757352689
 20
-479.79183948601877
 30
0.0
 11
122.9587024264731
 21
-479.79183948601877
 31
0.0
  0
LINE
  5
C9
  8
DIMNSIONS
  6
CONTINUOUS
 62
     7
 10
-360.04129757352689
 20
-479.79183948601877
 30
0.0
 11
-347.53818478055808
 21
-476.44164051026758
 31
0.0
  0
LINE
  5
CA
  8
DIMNSIONS
  6
CONTINUOUS
 62
     7
 10
-360.04129757352689
 20
-479.79183948601877
 30
0.0
 11
-347.53818478055808
 21
-483.14203846176991
 31
0.0
  0
LINE
  5
CB
  8
DIMNSIONS
  6
CONTINUOUS
 62
     7
 10
122.9587024264731
 20
-479.79183948601877
 30
0.0
 11
110.4555896335043
 21
-483.14203846176991
 31
0.0
  0
LINE
  5
CC
  8
DIMNSIONS
  6
CONTINUOUS
 62
     7
 10
122.9587024264731
 20
-479.79183948601877
 30
0.0
 11
110.4555896335043
 21
-476.44164051026758
 31
0.0
  0
TEXT
  5
CD
  8
DIMNSIONS
 62
     7
 10
-130.44754841461469
 20
-476.5862839304632
 30
0.0
 40
13.57367621527778
  1
483
 41
0.8
 11
-130.44754841461469
 21
-463.01260771518548
 31
0.0
 73
     3
  0
LINE
  5
CE
  8
DIMNSIONS
  6
CONTINUOUS
 62
     7
 10
122.9587024264731
 20
-452.59084550971909
 30
0.0
 11
122.9587024264731
 21
-445.0
 31
0.0
  0
LINE
  5
CF
  8
DIMNSIONS
  6
CONTINUOUS
 62
     7
 10
-370.04129757352689
 20
-394.99900602370019
 30
0.0
 11
-365.30384187578659
 21
-394.99900602370019
 31
0.0
  0
LINE
  5
D0
  8
DIMNSIONS
  6
CONTINUOUS
 62
     7
 10
-370.04129757352689
 20
-439.99900602370008
 30
0.0
 11
-365.30384187578659
 21
-439.99900602370008
 31
0.0
  0
LINE
  5
D1
  8
DIMNSIONS
  6
CONTINUOUS
 62
     7
 10
-370.0
 20
-440.0
 30
0.0
 11
-409.95757688744033
 21
-440.0
 31
0.0
  0
LINE
  5
D2
  8
DIMNSIONS
  6
CONTINUOUS
 62
     7
 10
-370.0
 20
-394.99900602370019
 30
0.0
 11
-409.95757688744033
 21
-394.99900602370019
 31
0.0
  0
LINE
  5
D3
  8
DIMNSIONS
  6
CONTINUOUS
 62
     7
 10
-399.95757688744033
 20
-440.0
 30
0.0
 11
-399.95757688744033
 21
-394.99900602370019
 31
0.0
  0
LINE
  5
D4
  8
DIMNSIONS
  6
CONTINUOUS
 62
     7
 10
-399.95757688744033
 20
-440.0
 30
0.0
 11
-403.30777586319152
 21
-427.49688720703119
 31
0.0
  0
LINE
  5
D5
  8
DIMNSIONS
  6
CONTINUOUS
 62
     7
 10
-399.95757688744033
 20
-440.0
 30
0.0
 11
-396.6073779116893
 21
-427.49688720703119
 31
0.0
  0
LINE
  5
D6
  8
DIMNSIONS
  6
CONTINUOUS
 62
     7
 10
-399.95757688744033
 20
-394.99900602370019
 30
0.0
 11
-396.6073779116893
 21
-407.50211881666888
 31
0.0
  0
LINE
  5
D7
  8
DIMNSIONS
  6
CONTINUOUS
 62
     7
 10
-399.95757688744033
 20
-394.99900602370019
 30
0.0
 11
-403.30777586319152
 21
-407.50211881666888
 31
0.0
  0
TEXT
  5
D8
  8
DIMNSIONS
 62
     7
 10
-404.9270213318847
 20
-426.3189474562945
 30
0.0
 40
13.57367621527778
  1
45
 50
90.0
 41
0.8
 11
-418.50069754716247
 21
-426.3189474562945
 31
0.0
 73
     3
  0
LINE
  5
D9
  8
DIMNSIONS
  6
CONTINUOUS
 62
     7
 10
-358.81958795106209
 20
-130.3463881873717
 30
0.0
 11
-410.8575431927942
 21
-130.3463881873717
 31
0.0
  0
LINE
  5
DA
  8
DIMNSIONS
  6
CONTINUOUS
 62
     7
 10
-358.81958795106209
 20
-125.3577208954747
 30
0.0
 11
-410.8575431927942
 21
-125.3577208954747
 31
0.0
  0
LINE
  5
DB
  8
DIMNSIONS
  6
CONTINUOUS
 62
     7
 10
-400.85754319279408
 20
-125.3577208954747
 30
0.0
 11
-400.85754319279408
 21
-130.3463881873717
 31
0.0
  0
LINE
  5
DC
  8
DIMNSIONS
  6
CONTINUOUS
 62
     7
 10
-400.85754319279408
 20
-130.3463881873717
 30
0.0
 11
-400.85754319279408
 21
-155.3463881873717
 31
0.0
  0
LINE
  5
DD
  8
DIMNSIONS
  6
CONTINUOUS
 62
     7
 10
-400.85754319279408
 20
-130.3463881873717
 30
0.0
 11
-397.507344217043
 21
-142.84950098034039
 31
0.0
  0
LINE
  5
DE
  8
DIMNSIONS
  6
CONTINUOUS
 62
     7
 10
-400.85754319279408
 20
-130.3463881873717
 30
0.0
 11
-404.20774216854528
 21
-142.84950098034039
 31
0.0
  0
LINE
  5
DF
  8
DIMNSIONS
  6
CONTINUOUS
 62
     7
 10
-400.85754319279408
 20
-125.3577208954747
 30
0.0
 11
-400.85754319279408
 21
-101.78055555555549
 31
0.0
  0
LINE
  5
E0
  8
DIMNSIONS
  6
CONTINUOUS
 62
     7
 10
-400.85754319279408
 20
-125.3577208954747
 30
0.0
 11
-404.20774216854528
 21
-112.85460810250591
 31
0.0
  0
LINE
  5
E1
  8
DIMNSIONS
  6
CONTINUOUS
 62
     7
 10
-400.85754319279408
 20
-125.3577208954747
 30
0.0
 11
-397.507344217043
 21
-112.85460810250591
 31
0.0
  0
TEXT
  5
E2
  8
DIMNSIONS
 62
     7
 10
-405.82698763723869
 20
-110.59999999999999
 30
0.0
 40
13.57367621527778
  1
5
 50
90.0
 41
0.8
 11
-419.40066385251652
 21
-110.59999999999999
 31
0.0
 73
     3
  0
LINE
  5
E3
  8
DIMNSIONS
  6
CONTINUOUS
 62
     7
 10
-328.21958795106201
 20
-296.85441076802482
 30
0.0
 11
-235.5
 21
-296.85441076802482
 31
0.0
  0
LINE
  5
E4
  8
DIMNSIONS
  6
CONTINUOUS
 62
     7
 10
-358.81958795106209
 20
-125.3577208954747
 30
0.0
 11
-324.0
 21
-125.3577208954747
 31
0.0
  0
LINE
  5
E5
  8
DIMNSIONS
  6
CONTINUOUS
 62
     7
 10
102.0447185995905
 20
-123.19856524416041
 30
0.0
 11
102.0447185995905
 21
-139.3535495612453
 31
0.0
  0
POLYLINE
  5
E6
  8
DATA
  6
CONTINUOUS
 62
     7
 66
     1
 10
0.0
 20
0.0
 30
0.0
 70
     1
  0
VERTEX
  5
AC1
  8
DATA
  6
CONTINUOUS
 62
     7
 10
220.0569666364668
 20
-395.85967721775569
 30
0.0
  0
VERTEX
  5
AC2
  8
DATA
  6
CONTINUOUS
 62
     7
 10
220.0569666364668
 20
-440.25967721775561
 30
0.0
  0
VERTEX
  5
AC3
  8
DATA
  6
CONTINUOUS
 62
     7
 10
369.05696663646762
 20
-440.25967721775561
 30
0.0
  0
VERTEX
  5
AC4
  8
DATA
  6
CONTINUOUS
 62
     7
 10
369.05696663646762
 20
-395.85967721775569
 30
0.0
  0
SEQEND
  5
AC5
  8
DATA
  6
CONTINUOUS
 62
     7
  0
POLYLINE
  5
EC
  8
DATA
  6
CONTINUOUS
 62
     7
 66
     1
 10
0.0
 20
0.0
 30
0.0
 70
     1
  0
VERTEX
  5
AC6
  8
DATA
  6
CONTINUOUS
 62
     7
 10
-360.16319342737228
 20
-276.84638818737108
 30
0.0
  0
VERTEX
  5
AC7
  8
DATA
  6
CONTINUOUS
 62
     7
 10
121.8368065726268
 20
-276.84638818737108
 30
0.0
  0
VERTEX
  5
AC8
  8
DATA
  6
CONTINUOUS
 62
     7
 10
121.8368065726268
 20
-279.84638818737108
 30
0.0
  0
VERTEX
  5
AC9
  8
DATA
  6
CONTINUOUS
 62
     7
 10
-360.16319342737228
 20
-279.84638818737108
 30
0.0
  0
SEQEND
  5
ACA
  8
DATA
  6
CONTINUOUS
 62
     7
  0
ARC
  5
F2
  8
DATA
  6
CONTINUOUS
 62
     7
 10
-352.84129757352679
 20
-401.99900602370019
 30
0.0
 40
3.1999999999999882
 50
90.0
 51
270.0
  0
ARC
  5
F3
  8
DATA
  6
CONTINUOUS
 62
     7
 10
-348.24129757352688
 20
-401.99900602370019
 30
0.0
 40
3.1999999999999882
 50
270.0
 51
90.0
  0
LINE
  5
F4
  8
DATA
  6
CONTINUOUS
 62
     7
 10
-352.84129757352679
 20
-398.79900602370031
 30
0.0
 11
-348.24129757352688
 21
-398.79900602370031
 31
0.0
  0
LINE
  5
F5
  8
DATA
  6
CONTINUOUS
 62
     7
 10
-352.84129757352679
 20
-405.19900602370018
 30
0.0
 11
-348.24129757352688
 21
-405.19900602370018
 31
0.0
  0
ARC
  5
F6
  8
DATA
  6
CONTINUOUS
 62
     7
 10
112.1587024264722
 20
-401.99900602370019
 30
0.0
 40
3.1999999999999882
 50
90.0
 51
270.0
  0
ARC
  5
F7
  8
DATA
  6
CONTINUOUS
 62
     7
 10
116.7587024264721
 20
-401.99900602370019
 30
0.0
 40
3.1999999999999882
 50
270.0
 51
90.0
  0
LINE
  5
F8
  8
DATA
  6
CONTINUOUS
 62
     7
 10
112.1587024264722
 20
-398.79900602370031
 30
0.0
 11
116.7587024264721
 21
-398.79900602370031
 31
0.0
  0
LINE
  5
F9
  8
DATA
  6
CONTINUOUS
 62
     7
 10
112.1587024264722
 20
-405.19900602370018
 30
0.0
 11
116.7587024264721
 21
-405.19900602370018
 31
0.0
  0
ARC
  5
FA
  8
DATA
  6
CONTINUOUS
 62
     7
 10
-352.84129757352679
 20
-433.59900602370021
 30
0.0
 40
3.1999999999999882
 50
90.0
 51
270.0
  0
ARC
  5
FB
  8
DATA
  6
CONTINUOUS
 62
     7
 10
-348.24129757352688
 20
-433.59900602370021
 30
0.0
 40
3.1999999999999882
 50
270.0
 51
90.0
  0
LINE
  5
FC
  8
DATA
  6
CONTINUOUS
 62
     7
 10
-352.84129757352679
 20
-436.7990060237002
 30
0.0
 11
-348.24129757352688
 21
-436.7990060237002
 31
0.0
  0
LINE
  5
FD
  8
DATA
  6
CONTINUOUS
 62
     7
 10
-352.84129757352679
 20
-430.39900602370022
 30
0.0
 11
-348.24129757352688
 21
-430.39900602370022
 31
0.0
  0
ARC
  5
FE
  8
DATA
  6
CONTINUOUS
 62
     7
 10
112.1587024264722
 20
-433.59900602370021
 30
0.0
 40
3.1999999999999882
 50
90.0
 51
270.0
  0
ARC
  5
FF
  8
DATA
  6
CONTINUOUS
 62
     7
 10
116.7587024264721
 20
-433.59900602370021
 30
0.0
 40
3.1999999999999882
 50
270.0
 51
90.0
  0
LINE
  5
100
  8
DATA
  6
CONTINUOUS
 62
     7
 10
112.1587024264722
 20
-436.7990060237002
 30
0.0
 11
116.7587024264721
 21
-436.7990060237002
 31
0.0
  0
LINE
  5
101
  8
DATA
  6
CONTINUOUS
 62
     7
 10
112.1587024264722
 20
-430.39900602370022
 30
0.0
 11
116.7587024264721
 21
-430.39900602370022
 31
0.0
  0
CIRCLE
  5
102
  8
DATA
  6
CONTINUOUS
 62
     7
 10
-118.0412975735278
 20
-400.6061113335283
 30
0.0
 40
2.7999999999999958
  0
POLYLINE
  5
103
  8
DATA
  6
CONTINUOUS
 62
     7
 66
     1
 10
0.0
 20
0.0
 30
0.0
 70
     1
  0
VERTEX
  5
ACB
  8
DATA
  6
CONTINUOUS
 62
     7
 10
-116.64129757352779
 20
-400.6061113335283
 30
0.0
  0
VERTEX
  5
ACC
  8
DATA
  6
CONTINUOUS
 62
     7
 10
-117.3412975735278
 20
-399.39367576823008
 30
0.0
  0
VERTEX
  5
ACD
  8
DATA
  6
CONTINUOUS
 62
     7
 10
-118.7412975735278
 20
-399.39367576823008
 30
0.0
  0
VERTEX
  5
ACE
  8
DATA
  6
CONTINUOUS
 62
     7
 10
-119.44129757352781
 20
-400.6061113335283
 30
0.0
  0
VERTEX
  5
ACF
  8
DATA
  6
CONTINUOUS
 62
     7
 10
-118.7412975735278
 20
-401.81854689882653
 30
0.0
  0
VERTEX
  5
AD0
  8
DATA
  6
CONTINUOUS
 62
     7
 10
-117.3412975735278
 20
-401.81854689882653
 30
0.0
  0
SEQEND
  5
AD1
  8
DATA
  6
CONTINUOUS
 62
     7
  0
CIRCLE
  5
10B
  8
DATA
  6
CONTINUOUS
 62
     7
 10
-329.83073940456848
 20
-406.08183907243853
 30
0.0
 40
2.8000000000000109
  0
POLYLINE
  5
10C
  8
DATA
  6
CONTINUOUS
 62
     7
 66
     1
 10
0.0
 20
0.0
 30
0.0
 70
     1
  0
VERTEX
  5
AD2
  8
DATA
  6
CONTINUOUS
 62
     7
 10
-328.4307394045685
 20
-406.08183907243853
 30
0.0
  0
VERTEX
  5
AD3
  8
DATA
  6
CONTINUOUS
 62
     7
 10
-329.13073940456837
 20
-404.86940350714031
 30
0.0
  0
VERTEX
  5
AD4
  8
DATA
  6
CONTINUOUS
 62
     7
 10
-330.53073940456841
 20
-404.86940350714031
 30
0.0
  0
VERTEX
  5
AD5
  8
DATA
  6
CONTINUOUS
 62
     7
 10
-331.23073940456851
 20
-406.08183907243853
 30
0.0
  0
VERTEX
  5
AD6
  8
DATA
  6
CONTINUOUS
 62
     7
 10
-330.53073940456841
 20
-407.29427463773692
 30
0.0
  0
VERTEX
  5
AD7
  8
DATA
  6
CONTINUOUS
 62
     7
 10
-329.13073940456837
 20
-407.29427463773692
 30
0.0
  0
SEQEND
  5
AD8
  8
DATA
  6
CONTINUOUS
 62
     7
  0
CIRCLE
  5
114
  8
DATA
  6
CONTINUOUS
 62
     7
 10
93.748144257513701
 20
-406.08183907243853
 30
0.0
 40
2.8000000000000109
  0
POLYLINE
  5
115
  8
DATA
  6
CONTINUOUS
 62
     7
 66
     1
 10
0.0
 20
0.0
 30
0.0
 70
     1
  0
VERTEX
  5
AD9
  8
DATA
  6
CONTINUOUS
 62
     7
 10
92.348144257513724
 20
-406.08183907243853
 30
0.0
  0
VERTEX
  5
ADA
  8
DATA
  6
CONTINUOUS
 62
     7
 10
93.048144257513655
 20
-404.86940350714031
 30
0.0
  0
VERTEX
  5
ADB
  8
DATA
  6
CONTINUOUS
 62
     7
 10
94.44814425751369
 20
-404.86940350714031
 30
0.0
  0
VERTEX
  5
ADC
  8
DATA
  6
CONTINUOUS
 62
     7
 10
95.148144257513692
 20
-406.08183907243853
 30
0.0
  0
VERTEX
  5
ADD
  8
DATA
  6
CONTINUOUS
 62
     7
 10
94.448144257513718
 20
-407.29427463773692
 30
0.0
  0
VERTEX
  5
ADE
  8
DATA
  6
CONTINUOUS
 62
     7
 10
93.048144257513655
 20
-407.29427463773692
 30
0.0
  0
SEQEND
  5
ADF
  8
DATA
  6
CONTINUOUS
 62
     7
  0
CIRCLE
  5
11D
  8
DATA
  6
CONTINUOUS
 62
     7
 10
93.748144257513701
 20
-429.51617297496171
 30
0.0
 40
2.8000000000000109
  0
POLYLINE
  5
11E
  8
DATA
  6
CONTINUOUS
 62
     7
 66
     1
 10
0.0
 20
0.0
 30
0.0
 70
     1
  0
VERTEX
  5
AE0
  8
DATA
  6
CONTINUOUS
 62
     7
 10
92.348144257513724
 20
-429.51617297496171
 30
0.0
  0
VERTEX
  5
AE1
  8
DATA
  6
CONTINUOUS
 62
     7
 10
93.048144257513655
 20
-430.7286085402601
 30
0.0
  0
VERTEX
  5
AE2
  8
DATA
  6
CONTINUOUS
 62
     7
 10
94.44814425751369
 20
-430.7286085402601
 30
0.0
  0
VERTEX
  5
AE3
  8
DATA
  6
CONTINUOUS
 62
     7
 10
95.148144257513692
 20
-429.51617297496171
 30
0.0
  0
VERTEX
  5
AE4
  8
DATA
  6
CONTINUOUS
 62
     7
 10
94.448144257513718
 20
-428.30373740966371
 30
0.0
  0
VERTEX
  5
AE5
  8
DATA
  6
CONTINUOUS
 62
     7
 10
93.048144257513655
 20
-428.30373740966371
 30
0.0
  0
SEQEND
  5
AE6
  8
DATA
  6
CONTINUOUS
 62
     7
  0
POLYLINE
  5
126
  8
DATA
  6
CONTINUOUS
 62
     7
 66
     1
 10
0.0
 20
0.0
 30
0.0
 70
     1
  0
VERTEX
  5
AE7
  8
DATA
  6
CONTINUOUS
 62
     7
 10
99.836806572626813
 20
-276.3558559447884
 30
0.0
  0
VERTEX
  5
AE8
  8
DATA
  6
CONTINUOUS
 62
     7
 10
99.836806572626813
 20
-130.3463881873717
 30
0.0
  0
VERTEX
  5
AE9
  8
DATA
  6
CONTINUOUS
 62
     7
 10
-338.16319342737222
 20
-130.3463881873717
 30
0.0
  0
VERTEX
  5
AEA
  8
DATA
  6
CONTINUOUS
 62
     7
 10
-338.16319342737222
 20
-276.3558559447884
 30
0.0
  0
SEQEND
  5
AEB
  8
DATA
  6
CONTINUOUS
 62
     7
  0
POLYLINE
  5
12C
  8
DATA
  6
CONTINUOUS
 62
     7
 66
     1
 10
0.0
 20
0.0
 30
0.0
 70
     1
  0
VERTEX
  5
AEC
  8
DATA
  6
CONTINUOUS
 62
     7
 10
-329.16319342737222
 20
-276.35638818737112
 30
0.0
  0
VERTEX
  5
AED
  8
DATA
  6
CONTINUOUS
 62
     7
 10
90.836806572626799
 20
-276.35638818737112
 30
0.0
  0
VERTEX
  5
AEE
  8
DATA
  6
CONTINUOUS
 62
     7
 10
90.836806572626799
 20
-276.84638818737108
 30
0.0
  0
VERTEX
  5
AEF
  8
DATA
  6
CONTINUOUS
 62
     7
 10
-329.16319342737222
 20
-276.84638818737108
 30
0.0
  0
SEQEND
  5
AF0
  8
DATA
  6
CONTINUOUS
 62
     7
  0
LINE
  5
132
  8
DATA
  6
CONTINUOUS
 62
     7
 10
-338.16319342737222
 20
-276.3558559447884
 30
0.0
 11
-338.16319342737222
 21
-276.84638818737108
 31
0.0
  0
LINE
  5
133
  8
DATA
  6
CONTINUOUS
 62
     7
 10
99.836806572626813
 20
-276.3558559447884
 30
0.0
 11
99.836806572626912
 21
-276.84638818737108
 31
0.0
  0
ARC
  5
134
  8
DATA
  6
CONTINUOUS
 62
     7
 10
-335.6247318889105
 20
-259.84638818737119
 30
0.0
 40
4.8384615384617176
 50
136.99713135190601
 51
223.00286864809399
  0
LINE
  5
135
  8
DATA
  6
CONTINUOUS
 62
     7
 10
-339.16319342737222
 20
-256.54638818737112
 30
0.0
 11
-338.16319342737222
 21
-256.54638818737112
 31
0.0
  0
LINE
  5
136
  8
DATA
  6
CONTINUOUS
 62
     7
 10
-339.16319342737222
 20
-263.14638818737109
 30
0.0
 11
-338.16319342737222
 21
-263.14638818737109
 31
0.0
  0
ARC
  5
137
  8
DATA
  6
CONTINUOUS
 62
     7
 10
-335.6247318889105
 20
-147.8463881873717
 30
0.0
 40
4.8384615384617176
 50
136.99713135190601
 51
223.00286864809399
  0
LINE
  5
138
  8
DATA
  6
CONTINUOUS
 62
     7
 10
-339.16319342737222
 20
-144.54638818737169
 30
0.0
 11
-338.16319342737222
 21
-144.54638818737169
 31
0.0
  0
LINE
  5
139
  8
DATA
  6
CONTINUOUS
 62
     7
 10
-339.16319342737222
 20
-151.14638818737171
 30
0.0
 11
-338.16319342737222
 21
-151.14638818737171
 31
0.0
  0
ARC
  5
13A
  8
DATA
  6
CONTINUOUS
 62
     7
 10
97.298345034165052
 20
-259.84638818737119
 30
0.0
 40
4.8384615384617176
 50
316.99713135190598
 51
43.002868648094008
  0
LINE
  5
13B
  8
DATA
  6
CONTINUOUS
 62
     7
 10
100.8368065726268
 20
-256.54638818737112
 30
0.0
 11
99.836806572626813
 21
-256.54638818737112
 31
0.0
  0
LINE
  5
13C
  8
DATA
  6
CONTINUOUS
 62
     7
 10
100.8368065726268
 20
-263.14638818737109
 30
0.0
 11
99.836806572626813
 21
-263.14638818737109
 31
0.0
  0
ARC
  5
13D
  8
DATA
  6
CONTINUOUS
 62
     7
 10
97.298345034165052
 20
-147.8463881873717
 30
0.0
 40
4.8384615384617176
 50
316.99713135190598
 51
43.002868648094008
  0
LINE
  5
13E
  8
DATA
  6
CONTINUOUS
 62
     7
 10
100.8368065726268
 20
-144.54638818737169
 30
0.0
 11
99.836806572626813
 21
-144.54638818737169
 31
0.0
  0
LINE
  5
13F
  8
DATA
  6
CONTINUOUS
 62
     7
 10
100.8368065726268
 20
-151.14638818737171
 30
0.0
 11
99.836806572626813
 21
-151.14638818737171
 31
0.0
  0
LINE
  5
140
  8
DATA
  6
CONTINUOUS
 62
     7
 10
-332.25263525841382
 20
-282.84638818737119
 30
0.0
 11
-329.65263525841368
 21
-282.84638818737119
 31
0.0
  0
LINE
  5
141
  8
DATA
  6
CONTINUOUS
 62
     7
 10
-333.75263525841382
 20
-281.34638818737108
 30
0.0
 11
-333.75263525841382
 21
-279.84638818737108
 31
0.0
  0
LINE
  5
142
  8
DATA
  6
CONTINUOUS
 62
     7
 10
-328.15263525841368
 20
-281.34638818737108
 30
0.0
 11
-328.15263525841368
 21
-279.84638818737108
 31
0.0
  0
ARC
  5
143
  8
DATA
  6
CONTINUOUS
 62
     7
 10
-332.25263525841382
 20
-281.34638818737108
 30
0.0
 40
1.5
 50
180.0
 51
270.0
  0
ARC
  5
144
  8
DATA
  6
CONTINUOUS
 62
     7
 10
-329.65263525841368
 20
-281.34638818737108
 30
0.0
 40
1.5
 50
270.0
 51
0.0
  0
LINE
  5
145
  8
DATA
  6
CONTINUOUS
 62
     7
 10
93.926248403668367
 20
-282.84638818737119
 30
0.0
 11
91.326248403668345
 21
-282.84638818737119
 31
0.0
  0
LINE
  5
146
  8
DATA
  6
CONTINUOUS
 62
     7
 10
95.426248403668367
 20
-281.34638818737108
 30
0.0
 11
95.426248403668367
 21
-279.84638818737108
 31
0.0
  0
LINE
  5
147
  8
DATA
  6
CONTINUOUS
 62
     7
 10
89.826248403668345
 20
-281.34638818737108
 30
0.0
 11
89.826248403668345
 21
-279.84638818737108
 31
0.0
  0
ARC
  5
148
  8
DATA
  6
CONTINUOUS
 62
     7
 10
93.926248403668367
 20
-281.34638818737108
 30
0.0
 40
1.5
 50
270.0
 51
0.0
  0
ARC
  5
149
  8
DATA
  6
CONTINUOUS
 62
     7
 10
91.326248403668345
 20
-281.34638818737108
 30
0.0
 40
1.5
 50
180.0
 51
270.0
  0
POLYLINE
  5
14A
  8
DATA
  6
CONTINUOUS
 62
     7
 66
     1
 10
0.0
 20
0.0
 30
0.0
 70
     1
  0
VERTEX
  5
AF1
  8
DATA
  6
CONTINUOUS
 62
     7
 10
60.336806572626813
 20
-128.8463881873717
 30
0.0
  0
VERTEX
  5
AF2
  8
DATA
  6
CONTINUOUS
 62
     7
 10
90.336806572626813
 20
-128.8463881873717
 30
0.0
  0
VERTEX
  5
AF3
  8
DATA
  6
CONTINUOUS
 62
     7
 10
90.336806572626813
 20
-130.3463881873717
 30
0.0
  0
VERTEX
  5
AF4
  8
DATA
  6
CONTINUOUS
 62
     7
 10
60.336806572626813
 20
-130.3463881873717
 30
0.0
  0
SEQEND
  5
AF5
  8
DATA
  6
CONTINUOUS
 62
     7
  0
ARC
  5
150
  8
DATA
  6
CONTINUOUS
 62
     7
 10
116.7988196181646
 20
6.3939143277224701
 30
0.0
 40
3.1999999999999962
 50
270.0
 51
90.0
  0
ARC
  5
151
  8
DATA
  6
CONTINUOUS
 62
     7
 10
112.19881961816471
 20
6.3939143277224701
 30
0.0
 40
3.1999999999999811
 50
90.0
 51
270.0
  0
LINE
  5
152
  8
DATA
  6
CONTINUOUS
 62
     7
 10
116.7988196181646
 20
3.193914327722474
 30
0.0
 11
112.19881961816471
 21
3.193914327722474
 31
0.0
  0
LINE
  5
153
  8
DATA
  6
CONTINUOUS
 62
     7
 10
116.7988196181646
 20
9.5939143277224517
 30
0.0
 11
112.19881961816471
 21
9.5939143277224517
 31
0.0
  0
ARC
  5
154
  8
DATA
  6
CONTINUOUS
 62
     7
 10
-348.20118038183449
 20
6.3939143277224701
 30
0.0
 40
3.1999999999999962
 50
270.0
 51
90.0
  0
ARC
  5
155
  8
DATA
  6
CONTINUOUS
 62
     7
 10
-352.80118038183451
 20
6.3939143277224701
 30
0.0
 40
3.1999999999999811
 50
90.0
 51
270.0
  0
LINE
  5
156
  8
DATA
  6
CONTINUOUS
 62
     7
 10
-348.20118038183449
 20
3.193914327722474
 30
0.0
 11
-352.80118038183451
 21
3.193914327722474
 31
0.0
  0
LINE
  5
157
  8
DATA
  6
CONTINUOUS
 62
     7
 10
-348.20118038183449
 20
9.5939143277224517
 30
0.0
 11
-352.80118038183451
 21
9.5939143277224517
 31
0.0
  0
ARC
  5
158
  8
DATA
  6
CONTINUOUS
 62
     7
 10
116.7988196181646
 20
37.993914327722493
 30
0.0
 40
3.1999999999999882
 50
270.0
 51
90.0
  0
ARC
  5
159
  8
DATA
  6
CONTINUOUS
 62
     7
 10
112.19881961816471
 20
37.993914327722493
 30
0.0
 40
3.1999999999999882
 50
90.0
 51
270.0
  0
LINE
  5
15A
  8
DATA
  6
CONTINUOUS
 62
     7
 10
116.7988196181646
 20
41.193914327722467
 30
0.0
 11
112.19881961816471
 21
41.193914327722467
 31
0.0
  0
LINE
  5
15B
  8
DATA
  6
CONTINUOUS
 62
     7
 10
116.7988196181646
 20
34.793914327722497
 30
0.0
 11
112.19881961816471
 21
34.793914327722497
 31
0.0
  0
ARC
  5
15C
  8
DATA
  6
CONTINUOUS
 62
     7
 10
-348.20118038183449
 20
37.993914327722493
 30
0.0
 40
3.1999999999999882
 50
270.0
 51
90.0
  0
ARC
  5
15D
  8
DATA
  6
CONTINUOUS
 62
     7
 10
-352.80118038183451
 20
37.993914327722493
 30
0.0
 40
3.1999999999999882
 50
90.0
 51
270.0
  0
LINE
  5
15E
  8
DATA
  6
CONTINUOUS
 62
     7
 10
-348.20118038183449
 20
41.193914327722467
 30
0.0
 11
-352.80118038183451
 21
41.193914327722467
 31
0.0
  0
LINE
  5
15F
  8
DATA
  6
CONTINUOUS
 62
     7
 10
-348.20118038183449
 20
34.793914327722497
 30
0.0
 11
-352.80118038183451
 21
34.793914327722497
 31
0.0
  0
LINE
  5
160
  8
DATA
  6
CONTINUOUS
 62
     7
 10
100.9988196181647
 20
44.39391432772247
 30
0.0
 11
100.9988196181647
 21
-0.0060856722775
 31
0.0
  0
LINE
  5
161
  8
DATA
  6
CONTINUOUS
 62
     7
 10
-337.0011803818345
 20
44.39391432772247
 30
0.0
 11
-337.0011803818345
 21
-0.0060856722775
 31
0.0
  0
LINE
  5
162
  8
DATA
  6
CONTINUOUS
 62
     7
 10
95.698819618164677
 20
5.2939143277224971
 30
0.0
 11
-331.70118038183449
 21
5.2939143277224971
 31
0.0
  0
LINE
  5
163
  8
DATA
  6
CONTINUOUS
 62
     7
 10
-331.70118038183449
 20
39.993914327722493
 30
0.0
 11
-331.70118038183449
 21
5.2939143277224971
 31
0.0
  0
LINE
  5
164
  8
DATA
  6
CONTINUOUS
 62
     7
 10
95.698819618164677
 20
39.993914327722493
 30
0.0
 11
95.698819618164677
 21
5.2939143277224971
 31
0.0
  0
LINE
  5
165
  8
DATA
  6
CONTINUOUS
 62
     7
 10
95.698819618164677
 20
5.2939143277224971
 30
0.0
 11
100.9988196181647
 21
-0.0060856722775
 31
0.0
  0
LINE
  5
166
  8
DATA
  6
CONTINUOUS
 62
     7
 10
-331.70118038183449
 20
5.2939143277224971
 30
0.0
 11
-337.0011803818345
 21
-0.0060856722775
 31
0.0
  0
LINE
  5
167
  8
DATA
  6
CONTINUOUS
 62
     7
 10
88.480119356301714
 20
33.351121808347081
 30
0.0
 11
88.420451011082207
 21
33.351121808347081
 31
0.0
  0
POLYLINE
  5
168
  8
DATA
  6
CONTINUOUS
 62
     7
 66
     1
 10
0.0
 20
0.0
 30
0.0
 70
   128
  0
VERTEX
  5
AF6
  8
DATA
  6
CONTINUOUS
 62
     7
 10
91.157428437622286
 20
30.74368464031118
 30
0.0
  0
VERTEX
  5
AF7
  8
DATA
  6
CONTINUOUS
 62
     7
 10
91.117445700247245
 20
31.075966581998181
 30
0.0
  0
VERTEX
  5
AF8
  8
DATA
  6
CONTINUOUS
 62
     7
 10
91.054998613160762
 20
31.383672873541691
 30
0.0
  0
VERTEX
  5
AF9
  8
DATA
  6
CONTINUOUS
 62
     7
 10
90.970087176362824
 20
31.666803514941741
 30
0.0
  0
VERTEX
  5
AFA
  8
DATA
  6
CONTINUOUS
 62
     7
 10
90.862711389853445
 20
31.925358506198311
 30
0.0
  0
VERTEX
  5
AFB
  8
DATA
  6
CONTINUOUS
 62
     7
 10
90.732871253632624
 20
32.159337847311392
 30
0.0
  0
VERTEX
  5
AFC
  8
DATA
  6
CONTINUOUS
 62
     7
 10
90.580566767700347
 20
32.368741538281
 30
0.0
  0
VERTEX
  5
AFD
  8
DATA
  6
CONTINUOUS
 62
     7
 10
90.405797932056601
 20
32.553569579107133
 30
0.0
  0
VERTEX
  5
AFE
  8
DATA
  6
CONTINUOUS
 62
     7
 10
90.208564746701427
 20
32.71382196978977
 30
0.0
  0
VERTEX
  5
AFF
  8
DATA
  6
CONTINUOUS
 62
     7
 10
90.208564746701427
 20
32.71382196978977
 30
0.0
  0
VERTEX
  5
B00
  8
DATA
  6
CONTINUOUS
 62
     7
 10
89.999150597291873
 20
32.853248774676793
 30
0.0
  0
VERTEX
  5
B01
  8
DATA
  6
CONTINUOUS
 62
     7
 10
89.787838869485086
 20
32.975600058115973
 30
0.0
  0
VERTEX
  5
B02
  8
DATA
  6
CONTINUOUS
 62
     7
 10
89.574629563280979
 20
33.080875820107352
 30
0.0
  0
VERTEX
  5
B03
  8
DATA
  6
CONTINUOUS
 62
     7
 10
89.359522678679696
 20
33.169076060650923
 30
0.0
  0
VERTEX
  5
B04
  8
DATA
  6
CONTINUOUS
 62
     7
 10
89.142518215681093
 20
33.240200779746679
 30
0.0
  0
VERTEX
  5
B05
  8
DATA
  6
CONTINUOUS
 62
     7
 10
88.923616174285243
 20
33.294249977394628
 30
0.0
  0
VERTEX
  5
B06
  8
DATA
  6
CONTINUOUS
 62
     7
 10
88.702816554492088
 20
33.331223653594762
 30
0.0
  0
VERTEX
  5
B07
  8
DATA
  6
CONTINUOUS
 62
     7
 10
88.480119356301714
 20
33.351121808347081
 30
0.0
  0
VERTEX
  5
B08
  8
DATA
  6
CONTINUOUS
 62
     7
 10
88.480119356301714
 20
33.351121808347081
 30
0.0
  0
SEQEND
  5
B09
  8
DATA
  6
CONTINUOUS
 62
     7
  0
LINE
  5
17D
  8
DATA
  6
CONTINUOUS
 62
     7
 10
91.157428437622286
 20
30.685569358248749
 30
0.0
 11
91.157428437622286
 21
30.74368464031118
 31
0.0
  0
POLYLINE
  5
17E
  8
DATA
  6
CONTINUOUS
 62
     7
 66
     1
 10
0.0
 20
0.0
 30
0.0
 70
   128
  0
VERTEX
  5
B0A
  8
DATA
  6
CONTINUOUS
 62
     7
 10
91.157428437622286
 20
12.69494944477495
 30
0.0
  0
VERTEX
  5
B0B
  8
DATA
  6
CONTINUOUS
 62
     7
 10
91.157428437622286
 20
12.781191376792449
 30
0.0
  0
VERTEX
  5
B0C
  8
DATA
  6
CONTINUOUS
 62
     7
 10
91.157428437622286
 20
12.892251443638671
 30
0.0
  0
VERTEX
  5
B0D
  8
DATA
  6
CONTINUOUS
 62
     7
 10
91.157428437622286
 20
13.02812964531361
 30
0.0
  0
VERTEX
  5
B0E
  8
DATA
  6
CONTINUOUS
 62
     7
 10
91.157428437622286
 20
13.188825981817279
 30
0.0
  0
VERTEX
  5
B0F
  8
DATA
  6
CONTINUOUS
 62
     7
 10
91.157428437622286
 20
13.374340453149671
 30
0.0
  0
VERTEX
  5
B10
  8
DATA
  6
CONTINUOUS
 62
     7
 10
91.157428437622286
 20
13.58467305931079
 30
0.0
  0
VERTEX
  5
B11
  8
DATA
  6
CONTINUOUS
 62
     7
 10
91.157428437622286
 20
13.819823800300631
 30
0.0
  0
VERTEX
  5
B12
  8
DATA
  6
CONTINUOUS
 62
     7
 10
91.157428437622286
 20
14.07979267611919
 30
0.0
  0
VERTEX
  5
B13
  8
DATA
  6
CONTINUOUS
 62
     7
 10
91.157428437622286
 20
14.07979267611919
 30
0.0
  0
VERTEX
  5
B14
  8
DATA
  6
CONTINUOUS
 62
     7
 10
91.157428437622286
 20
14.353568184851859
 30
0.0
  0
VERTEX
  5
B15
  8
DATA
  6
CONTINUOUS
 62
     7
 10
91.157428437622244
 20
14.63013882458403
 30
0.0
  0
VERTEX
  5
B16
  8
DATA
  6
CONTINUOUS
 62
     7
 10
91.157428437622187
 20
14.90950459531569
 30
0.0
  0
VERTEX
  5
B17
  8
DATA
  6
CONTINUOUS
 62
     7
 10
91.157428437622073
 20
15.191665497046859
 30
0.0
  0
VERTEX
  5
B18
  8
DATA
  6
CONTINUOUS
 62
     7
 10
91.157428437621974
 20
15.476621529777519
 30
0.0
  0
VERTEX
  5
B19
  8
DATA
  6
CONTINUOUS
 62
     7
 10
91.157428437621846
 20
15.764372693507671
 30
0.0
  0
VERTEX
  5
B1A
  8
DATA
  6
CONTINUOUS
 62
     7
 10
91.157428437621675
 20
16.054918988237318
 30
0.0
  0
VERTEX
  5
B1B
  8
DATA
  6
CONTINUOUS
 62
     7
 10
91.157428437621476
 20
16.348260413966461
 30
0.0
  0
VERTEX
  5
B1C
  8
DATA
  6
CONTINUOUS
 62
     7
 10
91.157428437621476
 20
16.348260413966461
 30
0.0
  0
VERTEX
  5
B1D
  8
DATA
  6
CONTINUOUS
 62
     7
 10
91.157428437621306
 20
16.64595100759276
 30
0.0
  0
VERTEX
  5
B1E
  8
DATA
  6
CONTINUOUS
 62
     7
 10
91.157428437621206
 20
16.949544806013861
 30
0.0
  0
VERTEX
  5
B1F
  8
DATA
  6
CONTINUOUS
 62
     7
 10
91.157428437621149
 20
17.259041809229771
 30
0.0
  0
VERTEX
  5
B20
  8
DATA
  6
CONTINUOUS
 62
     7
 10
91.157428437621107
 20
17.574442017240489
 30
0.0
  0
VERTEX
  5
B21
  8
DATA
  6
CONTINUOUS
 62
     7
 10
91.157428437621149
 20
17.895745430046009
 30
0.0
  0
VERTEX
  5
B22
  8
DATA
  6
CONTINUOUS
 62
     7
 10
91.157428437621206
 20
18.222952047646341
 30
0.0
  0
VERTEX
  5
B23
  8
DATA
  6
CONTINUOUS
 62
     7
 10
91.157428437621306
 20
18.556061870041479
 30
0.0
  0
VERTEX
  5
B24
  8
DATA
  6
CONTINUOUS
 62
     7
 10
91.157428437621476
 20
18.89507489723141
 30
0.0
  0
VERTEX
  5
B25
  8
DATA
  6
CONTINUOUS
 62
     7
 10
91.157428437621476
 20
18.89507489723141
 30
0.0
  0
VERTEX
  5
B26
  8
DATA
  6
CONTINUOUS
 62
     7
 10
91.157428437621647
 20
19.238023038826501
 30
0.0
  0
VERTEX
  5
B27
  8
DATA
  6
CONTINUOUS
 62
     7
 10
91.157428437621803
 20
19.582938204437049
 30
0.0
  0
VERTEX
  5
B28
  8
DATA
  6
CONTINUOUS
 62
     7
 10
91.15742843762186
 20
19.929820394063078
 30
0.0
  0
VERTEX
  5
B29
  8
DATA
  6
CONTINUOUS
 62
     7
 10
91.157428437621874
 20
20.2786696077046
 30
0.0
  0
VERTEX
  5
B2A
  8
DATA
  6
CONTINUOUS
 62
     7
 10
91.15742843762186
 20
20.629485845361589
 30
0.0
  0
VERTEX
  5
B2B
  8
DATA
  6
CONTINUOUS
 62
     7
 10
91.157428437621803
 20
20.98226910703405
 30
0.0
  0
VERTEX
  5
B2C
  8
DATA
  6
CONTINUOUS
 62
     7
 10
91.157428437621647
 20
21.337019392721981
 30
0.0
  0
VERTEX
  5
B2D
  8
DATA
  6
CONTINUOUS
 62
     7
 10
91.157428437621476
 20
21.69373670242539
 30
0.0
  0
VERTEX
  5
B2E
  8
DATA
  6
CONTINUOUS
 62
     7
 10
91.157428437621476
 20
21.69373670242539
 30
0.0
  0
VERTEX
  5
B2F
  8
DATA
  6
CONTINUOUS
 62
     7
 10
91.157428437621306
 20
22.050453936818428
 30
0.0
  0
VERTEX
  5
B30
  8
DATA
  6
CONTINUOUS
 62
     7
 10
91.157428437621206
 20
22.40520399657526
 30
0.0
  0
VERTEX
  5
B31
  8
DATA
  6
CONTINUOUS
 62
     7
 10
91.157428437621149
 20
22.757986881695881
 30
0.0
  0
VERTEX
  5
B32
  8
DATA
  6
CONTINUOUS
 62
     7
 10
91.157428437621107
 20
23.108802592180279
 30
0.0
  0
VERTEX
  5
B33
  8
DATA
  6
CONTINUOUS
 62
     7
 10
91.157428437621149
 20
23.45765112802847
 30
0.0
  0
VERTEX
  5
B34
  8
DATA
  6
CONTINUOUS
 62
     7
 10
91.157428437621206
 20
23.804532489240451
 30
0.0
  0
VERTEX
  5
B35
  8
DATA
  6
CONTINUOUS
 62
     7
 10
91.157428437621306
 20
24.149446675816211
 30
0.0
  0
VERTEX
  5
B36
  8
DATA
  6
CONTINUOUS
 62
     7
 10
91.157428437621476
 20
24.492393687755769
 30
0.0
  0
VERTEX
  5
B37
  8
DATA
  6
CONTINUOUS
 62
     7
 10
91.157428437621476
 20
24.492393687755769
 30
0.0
  0
VERTEX
  5
B38
  8
DATA
  6
CONTINUOUS
 62
     7
 10
91.157428437621675
 20
24.831406315787799
 30
0.0
  0
VERTEX
  5
B39
  8
DATA
  6
CONTINUOUS
 62
     7
 10
91.157428437621846
 20
25.16451735064102
 30
0.0
  0
VERTEX
  5
B3A
  8
DATA
  6
CONTINUOUS
 62
     7
 10
91.157428437621974
 20
25.491726792315411
 30
0.0
  0
VERTEX
  5
B3B
  8
DATA
  6
CONTINUOUS
 62
     7
 10
91.157428437622073
 20
25.81303464081099
 30
0.0
  0
VERTEX
  5
B3C
  8
DATA
  6
CONTINUOUS
 62
     7
 10
91.157428437622187
 20
26.128440896127749
 30
0.0
  0
VERTEX
  5
B3D
  8
DATA
  6
CONTINUOUS
 62
     7
 10
91.157428437622244
 20
26.437945558265689
 30
0.0
  0
VERTEX
  5
B3E
  8
DATA
  6
CONTINUOUS
 62
     7
 10
91.157428437622286
 20
26.741548627224809
 30
0.0
  0
VERTEX
  5
B3F
  8
DATA
  6
CONTINUOUS
 62
     7
 10
91.157428437622286
 20
27.039250103005109
 30
0.0
  0
VERTEX
  5
B40
  8
DATA
  6
CONTINUOUS
 62
     7
 10
91.157428437622286
 20
27.039250103005109
 30
0.0
  0
VERTEX
  5
B41
  8
DATA
  6
CONTINUOUS
 62
     7
 10
91.157428437622286
 20
27.332678729905719
 30
0.0
  0
VERTEX
  5
B42
  8
DATA
  6
CONTINUOUS
 62
     7
 10
91.157428437622286
 20
27.62346325222579
 30
0.0
  0
VERTEX
  5
B43
  8
DATA
  6
CONTINUOUS
 62
     7
 10
91.157428437622286
 20
27.911603669965292
 30
0.0
  0
VERTEX
  5
B44
  8
DATA
  6
CONTINUOUS
 62
     7
 10
91.157428437622286
 20
28.19709998312425
 30
0.0
  0
VERTEX
  5
B45
  8
DATA
  6
CONTINUOUS
 62
     7
 10
91.157428437622286
 20
28.479952191702669
 30
0.0
  0
VERTEX
  5
B46
  8
DATA
  6
CONTINUOUS
 62
     7
 10
91.157428437622286
 20
28.760160295700519
 30
0.0
  0
VERTEX
  5
B47
  8
DATA
  6
CONTINUOUS
 62
     7
 10
91.157428437622286
 20
29.037724295117819
 30
0.0
  0
VERTEX
  5
B48
  8
DATA
  6
CONTINUOUS
 62
     7
 10
91.157428437622286
 20
29.31264418995459
 30
0.0
  0
VERTEX
  5
B49
  8
DATA
  6
CONTINUOUS
 62
     7
 10
91.157428437622286
 20
29.31264418995459
 30
0.0
  0
VERTEX
  5
B4A
  8
DATA
  6
CONTINUOUS
 62
     7
 10
91.157428437622286
 20
29.573494257937359
 30
0.0
  0
VERTEX
  5
B4B
  8
DATA
  6
CONTINUOUS
 62
     7
 10
91.157428437622286
 20
29.80884877679269
 30
0.0
  0
VERTEX
  5
B4C
  8
DATA
  6
CONTINUOUS
 62
     7
 10
91.157428437622286
 20
30.018707746520601
 30
0.0
  0
VERTEX
  5
B4D
  8
DATA
  6
CONTINUOUS
 62
     7
 10
91.157428437622286
 20
30.203071167121092
 30
0.0
  0
VERTEX
  5
B4E
  8
DATA
  6
CONTINUOUS
 62
     7
 10
91.157428437622286
 20
30.361939038594151
 30
0.0
  0
VERTEX
  5
B4F
  8
DATA
  6
CONTINUOUS
 62
     7
 10
91.157428437622286
 20
30.49531136093977
 30
0.0
  0
VERTEX
  5
B50
  8
DATA
  6
CONTINUOUS
 62
     7
 10
91.157428437622286
 20
30.603188134157971
 30
0.0
  0
VERTEX
  5
B51
  8
DATA
  6
CONTINUOUS
 62
     7
 10
91.157428437622286
 20
30.685569358248749
 30
0.0
  0
VERTEX
  5
B52
  8
DATA
  6
CONTINUOUS
 62
     7
 10
91.157428437622286
 20
30.685569358248749
 30
0.0
  0
SEQEND
  5
B53
  8
DATA
  6
CONTINUOUS
 62
     7
  0
POLYLINE
  5
1C9
  8
DATA
  6
CONTINUOUS
 62
     7
 66
     1
 10
0.0
 20
0.0
 30
0.0
  0
VERTEX
  5
B54
  8
DATA
  6
CONTINUOUS
 62
     7
 10
91.157428437622286
 20
12.66357415564338
 30
0.0
  0
VERTEX
  5
B55
  8
DATA
  6
CONTINUOUS
 62
     7
 10
91.157428437622286
 20
12.69494944477495
 30
0.0
  0
VERTEX
  5
B56
  8
DATA
  6
CONTINUOUS
 62
     7
 10
91.157428437622286
 20
12.69494944477495
 30
0.0
  0
SEQEND
  5
B57
  8
DATA
  6
CONTINUOUS
 62
     7
  0
POLYLINE
  5
1CE
  8
DATA
  6
CONTINUOUS
 62
     7
 66
     1
 10
0.0
 20
0.0
 30
0.0
 70
   128
  0
VERTEX
  5
B58
  8
DATA
  6
CONTINUOUS
 62
     7
 10
88.447907802395022
 20
10.029396994673711
 30
0.0
  0
VERTEX
  5
B59
  8
DATA
  6
CONTINUOUS
 62
     7
 10
88.683235246964685
 20
10.043295931613359
 30
0.0
  0
VERTEX
  5
B5A
  8
DATA
  6
CONTINUOUS
 62
     7
 10
88.899875513753429
 20
10.06512986026584
 30
0.0
  0
VERTEX
  5
B5B
  8
DATA
  6
CONTINUOUS
 62
     7
 10
89.097828602761297
 20
10.09489878063116
 30
0.0
  0
VERTEX
  5
B5C
  8
DATA
  6
CONTINUOUS
 62
     7
 10
89.277094513988246
 20
10.1326026927093
 30
0.0
  0
VERTEX
  5
B5D
  8
DATA
  6
CONTINUOUS
 62
     7
 10
89.43767324743429
 20
10.17824159650028
 30
0.0
  0
VERTEX
  5
B5E
  8
DATA
  6
CONTINUOUS
 62
     7
 10
89.579564803099444
 20
10.231815492004079
 30
0.0
  0
VERTEX
  5
B5F
  8
DATA
  6
CONTINUOUS
 62
     7
 10
89.702769180983694
 20
10.29332437922071
 30
0.0
  0
VERTEX
  5
B60
  8
DATA
  6
CONTINUOUS
 62
     7
 10
89.807286381087053
 20
10.362768258150171
 30
0.0
  0
VERTEX
  5
B61
  8
DATA
  6
CONTINUOUS
 62
     7
 10
89.807286381087053
 20
10.362768258150171
 30
0.0
  0
VERTEX
  5
B62
  8
DATA
  6
CONTINUOUS
 62
     7
 10
89.903672808236223
 20
10.438056435055151
 30
0.0
  0
VERTEX
  5
B63
  8
DATA
  6
CONTINUOUS
 62
     7
 10
90.002484867257877
 20
10.51709821619832
 30
0.0
  0
VERTEX
  5
B64
  8
DATA
  6
CONTINUOUS
 62
     7
 10
90.103722558152029
 20
10.59989360157968
 30
0.0
  0
VERTEX
  5
B65
  8
DATA
  6
CONTINUOUS
 62
     7
 10
90.207385880918707
 20
10.68644259119924
 30
0.0
  0
VERTEX
  5
B66
  8
DATA
  6
CONTINUOUS
 62
     7
 10
90.313474835557884
 20
10.776745185057001
 30
0.0
  0
VERTEX
  5
B67
  8
DATA
  6
CONTINUOUS
 62
     7
 10
90.421989422069544
 20
10.87080138315295
 30
0.0
  0
VERTEX
  5
B68
  8
DATA
  6
CONTINUOUS
 62
     7
 10
90.532929640453702
 20
10.9686111854871
 30
0.0
  0
VERTEX
  5
B69
  8
DATA
  6
CONTINUOUS
 62
     7
 10
90.646295490710344
 20
11.070174592059439
 30
0.0
  0
VERTEX
  5
B6A
  8
DATA
  6
CONTINUOUS
 62
     7
 10
90.646295490710344
 20
11.070174592059439
 30
0.0
  0
VERTEX
  5
B6B
  8
DATA
  6
CONTINUOUS
 62
     7
 10
90.754538275924673
 20
11.18558164284544
 30
0.0
  0
VERTEX
  5
B6C
  8
DATA
  6
CONTINUOUS
 62
     7
 10
90.85010929918171
 20
11.32492237782059
 30
0.0
  0
VERTEX
  5
B6D
  8
DATA
  6
CONTINUOUS
 62
     7
 10
90.933008560481568
 20
11.48819679698487
 30
0.0
  0
VERTEX
  5
B6E
  8
DATA
  6
CONTINUOUS
 62
     7
 10
91.003236059824147
 20
11.6754049003383
 30
0.0
  0
VERTEX
  5
B6F
  8
DATA
  6
CONTINUOUS
 62
     7
 10
91.060791797209575
 20
11.886546687880861
 30
0.0
  0
VERTEX
  5
B70
  8
DATA
  6
CONTINUOUS
 62
     7
 10
91.105675772637696
 20
12.12162215961256
 30
0.0
  0
VERTEX
  5
B71
  8
DATA
  6
CONTINUOUS
 62
     7
 10
91.137887986108623
 20
12.3806313155334
 30
0.0
  0
VERTEX
  5
B72
  8
DATA
  6
CONTINUOUS
 62
     7
 10
91.157428437622286
 20
12.66357415564338
 30
0.0
  0
VERTEX
  5
B73
  8
DATA
  6
CONTINUOUS
 62
     7
 10
91.157428437622286
 20
12.66357415564338
 30
0.0
  0
SEQEND
  5
B74
  8
DATA
  6
CONTINUOUS
 62
     7
  0
LINE
  5
1EC
  8
DATA
  6
CONTINUOUS
 62
     7
 10
88.420451011082207
 20
10.029396994673711
 30
0.0
 11
88.447907802395022
 21
10.029396994673711
 31
0.0
  0
POLYLINE
  5
1ED
  8
DATA
  6
CONTINUOUS
 62
     7
 66
     1
 10
0.0
 20
0.0
 30
0.0
 70
   128
  0
VERTEX
  5
B75
  8
DATA
  6
CONTINUOUS
 62
     7
 10
63.106436297640698
 20
10.029396994673711
 30
0.0
  0
VERTEX
  5
B76
  8
DATA
  6
CONTINUOUS
 62
     7
 10
63.227532071785632
 20
10.029396994673711
 30
0.0
  0
VERTEX
  5
B77
  8
DATA
  6
CONTINUOUS
 62
     7
 10
63.38354703849425
 20
10.029396994673711
 30
0.0
  0
VERTEX
  5
B78
  8
DATA
  6
CONTINUOUS
 62
     7
 10
63.574481197766602
 20
10.029396994673711
 30
0.0
  0
VERTEX
  5
B79
  8
DATA
  6
CONTINUOUS
 62
     7
 10
63.80033454960261
 20
10.029396994673711
 30
0.0
  0
VERTEX
  5
B7A
  8
DATA
  6
CONTINUOUS
 62
     7
 10
64.061107094002367
 20
10.029396994673711
 30
0.0
  0
VERTEX
  5
B7B
  8
DATA
  6
CONTINUOUS
 62
     7
 10
64.356798830965801
 20
10.029396994673711
 30
0.0
  0
VERTEX
  5
B7C
  8
DATA
  6
CONTINUOUS
 62
     7
 10
64.687409760492926
 20
10.029396994673711
 30
0.0
  0
VERTEX
  5
B7D
  8
DATA
  6
CONTINUOUS
 62
     7
 10
65.052939882583757
 20
10.029396994673711
 30
0.0
  0
VERTEX
  5
B7E
  8
DATA
  6
CONTINUOUS
 62
     7
 10
65.052939882583757
 20
10.029396994673711
 30
0.0
  0
VERTEX
  5
B7F
  8
DATA
  6
CONTINUOUS
 62
     7
 10
65.437913617230237
 20
10.029396994673711
 30
0.0
  0
VERTEX
  5
B80
  8
DATA
  6
CONTINUOUS
 62
     7
 10
65.826855384424348
 20
10.029396994673711
 30
0.0
  0
VERTEX
  5
B81
  8
DATA
  6
CONTINUOUS
 62
     7
 10
66.219765184166036
 20
10.029396994673711
 30
0.0
  0
VERTEX
  5
B82
  8
DATA
  6
CONTINUOUS
 62
     7
 10
66.616643016455356
 20
10.029396994673711
 30
0.0
  0
VERTEX
  5
B83
  8
DATA
  6
CONTINUOUS
 62
     7
 10
67.01748888129228
 20
10.029396994673711
 30
0.0
  0
VERTEX
  5
B84
  8
DATA
  6
CONTINUOUS
 62
     7
 10
67.422302778676851
 20
10.029396994673711
 30
0.0
  0
VERTEX
  5
B85
  8
DATA
  6
CONTINUOUS
 62
     7
 10
67.831084708609012
 20
10.029396994673711
 30
0.0
  0
VERTEX
  5
B86
  8
DATA
  6
CONTINUOUS
 62
     7
 10
68.243834671088791
 20
10.029396994673711
 30
0.0
  0
VERTEX
  5
B87
  8
DATA
  6
CONTINUOUS
 62
     7
 10
68.243834671088791
 20
10.029396994673711
 30
0.0
  0
VERTEX
  5
B88
  8
DATA
  6
CONTINUOUS
 62
     7
 10
68.66272068296135
 20
10.029396994673711
 30
0.0
  0
VERTEX
  5
B89
  8
DATA
  6
CONTINUOUS
 62
     7
 10
69.08991076107182
 20
10.029396994673711
 30
0.0
  0
VERTEX
  5
B8A
  8
DATA
  6
CONTINUOUS
 62
     7
 10
69.525404905420231
 20
10.029396994673711
 30
0.0
  0
VERTEX
  5
B8B
  8
DATA
  6
CONTINUOUS
 62
     7
 10
69.969203116006568
 20
10.029396994673711
 30
0.0
  0
VERTEX
  5
B8C
  8
DATA
  6
CONTINUOUS
 62
     7
 10
70.421305392830817
 20
10.029396994673711
 30
0.0
  0
VERTEX
  5
B8D
  8
DATA
  6
CONTINUOUS
 62
     7
 10
70.881711735892978
 20
10.029396994673711
 30
0.0
  0
VERTEX
  5
B8E
  8
DATA
  6
CONTINUOUS
 62
     7
 10
71.350422145193107
 20
10.029396994673711
 30
0.0
  0
VERTEX
  5
B8F
  8
DATA
  6
CONTINUOUS
 62
     7
 10
71.827436620731135
 20
10.029396994673711
 30
0.0
  0
VERTEX
  5
B90
  8
DATA
  6
CONTINUOUS
 62
     7
 10
71.827436620731135
 20
10.029396994673711
 30
0.0
  0
VERTEX
  5
B91
  8
DATA
  6
CONTINUOUS
 62
     7
 10
72.309986814638108
 20
10.02939699467373
 30
0.0
  0
VERTEX
  5
B92
  8
DATA
  6
CONTINUOUS
 62
     7
 10
72.795304379045021
 20
10.0293969946738
 30
0.0
  0
VERTEX
  5
B93
  8
DATA
  6
CONTINUOUS
 62
     7
 10
73.283389313951901
 20
10.02939699467391
 30
0.0
  0
VERTEX
  5
B94
  8
DATA
  6
CONTINUOUS
 62
     7
 10
73.774241619358733
 20
10.02939699467407
 30
0.0
  0
VERTEX
  5
B95
  8
DATA
  6
CONTINUOUS
 62
     7
 10
74.267861295265504
 20
10.02939699467427
 30
0.0
  0
VERTEX
  5
B96
  8
DATA
  6
CONTINUOUS
 62
     7
 10
74.764248341672229
 20
10.029396994674521
 30
0.0
  0
VERTEX
  5
B97
  8
DATA
  6
CONTINUOUS
 62
     7
 10
75.26340275857892
 20
10.029396994674819
 30
0.0
  0
VERTEX
  5
B98
  8
DATA
  6
CONTINUOUS
 62
     7
 10
75.76532454598555
 20
10.02939699467516
 30
0.0
  0
VERTEX
  5
B99
  8
DATA
  6
CONTINUOUS
 62
     7
 10
75.76532454598555
 20
10.02939699467516
 30
0.0
  0
VERTEX
  5
B9A
  8
DATA
  6
CONTINUOUS
 62
     7
 10
76.267247271716457
 20
10.029396994675469
 30
0.0
  0
VERTEX
  5
B9B
  8
DATA
  6
CONTINUOUS
 62
     7
 10
76.766404503595908
 20
10.0293969946757
 30
0.0
  0
VERTEX
  5
B9C
  8
DATA
  6
CONTINUOUS
 62
     7
 10
77.262796241623931
 20
10.029396994675841
 30
0.0
  0
VERTEX
  5
B9D
  8
DATA
  6
CONTINUOUS
 62
     7
 10
77.756422485800542
 20
10.02939699467588
 30
0.0
  0
VERTEX
  5
B9E
  8
DATA
  6
CONTINUOUS
 62
     7
 10
78.247283236125739
 20
10.029396994675841
 30
0.0
  0
VERTEX
  5
B9F
  8
DATA
  6
CONTINUOUS
 62
     7
 10
78.735378492599452
 20
10.0293969946757
 30
0.0
  0
VERTEX
  5
BA0
  8
DATA
  6
CONTINUOUS
 62
     7
 10
79.22070825522178
 20
10.029396994675469
 30
0.0
  0
VERTEX
  5
BA1
  8
DATA
  6
CONTINUOUS
 62
     7
 10
79.703272523992652
 20
10.02939699467516
 30
0.0
  0
VERTEX
  5
BA2
  8
DATA
  6
CONTINUOUS
 62
     7
 10
79.703272523992652
 20
10.02939699467516
 30
0.0
  0
VERTEX
  5
BA3
  8
DATA
  6
CONTINUOUS
 62
     7
 10
80.180296980848794
 20
10.02939699467484
 30
0.0
  0
VERTEX
  5
BA4
  8
DATA
  6
CONTINUOUS
 62
     7
 10
80.64900730772672
 20
10.02939699467461
 30
0.0
  0
VERTEX
  5
BA5
  8
DATA
  6
CONTINUOUS
 62
     7
 10
81.109403504626513
 20
10.02939699467448
 30
0.0
  0
VERTEX
  5
BA6
  8
DATA
  6
CONTINUOUS
 62
     7
 10
81.56148557154809
 20
10.02939699467443
 30
0.0
  0
VERTEX
  5
BA7
  8
DATA
  6
CONTINUOUS
 62
     7
 10
82.005253508491535
 20
10.02939699467448
 30
0.0
  0
VERTEX
  5
BA8
  8
DATA
  6
CONTINUOUS
 62
     7
 10
82.440707315456834
 20
10.02939699467461
 30
0.0
  0
VERTEX
  5
BA9
  8
DATA
  6
CONTINUOUS
 62
     7
 10
82.867846992443987
 20
10.02939699467484
 30
0.0
  0
VERTEX
  5
BAA
  8
DATA
  6
CONTINUOUS
 62
     7
 10
83.286672539452937
 20
10.02939699467516
 30
0.0
  0
VERTEX
  5
BAB
  8
DATA
  6
CONTINUOUS
 62
     7
 10
83.286672539452937
 20
10.02939699467516
 30
0.0
  0
VERTEX
  5
BAC
  8
DATA
  6
CONTINUOUS
 62
     7
 10
83.699509559975795
 20
10.029396994675469
 30
0.0
  0
VERTEX
  5
BAD
  8
DATA
  6
CONTINUOUS
 62
     7
 10
84.10868365750477
 20
10.0293969946757
 30
0.0
  0
VERTEX
  5
BAE
  8
DATA
  6
CONTINUOUS
 62
     7
 10
84.514194832039792
 20
10.029396994675841
 30
0.0
  0
VERTEX
  5
BAF
  8
DATA
  6
CONTINUOUS
 62
     7
 10
84.916043083580817
 20
10.02939699467588
 30
0.0
  0
VERTEX
  5
BB0
  8
DATA
  6
CONTINUOUS
 62
     7
 10
85.314228412127946
 20
10.029396994675841
 30
0.0
  0
VERTEX
  5
BB1
  8
DATA
  6
CONTINUOUS
 62
     7
 10
85.708750817681164
 20
10.0293969946757
 30
0.0
  0
VERTEX
  5
BB2
  8
DATA
  6
CONTINUOUS
 62
     7
 10
86.0996103002404
 20
10.029396994675469
 30
0.0
  0
VERTEX
  5
BB3
  8
DATA
  6
CONTINUOUS
 62
     7
 10
86.486806859805696
 20
10.02939699467516
 30
0.0
  0
VERTEX
  5
BB4
  8
DATA
  6
CONTINUOUS
 62
     7
 10
86.486806859805696
 20
10.02939699467516
 30
0.0
  0
VERTEX
  5
BB5
  8
DATA
  6
CONTINUOUS
 62
     7
 10
86.854214510479181
 20
10.029396994674819
 30
0.0
  0
VERTEX
  5
BB6
  8
DATA
  6
CONTINUOUS
 62
     7
 10
87.185707266362996
 20
10.029396994674521
 30
0.0
  0
VERTEX
  5
BB7
  8
DATA
  6
CONTINUOUS
 62
     7
 10
87.481285127457085
 20
10.02939699467427
 30
0.0
  0
VERTEX
  5
BB8
  8
DATA
  6
CONTINUOUS
 62
     7
 10
87.740948093761489
 20
10.02939699467407
 30
0.0
  0
VERTEX
  5
BB9
  8
DATA
  6
CONTINUOUS
 62
     7
 10
87.964696165276209
 20
10.02939699467391
 30
0.0
  0
VERTEX
  5
BBA
  8
DATA
  6
CONTINUOUS
 62
     7
 10
88.152529342001245
 20
10.0293969946738
 30
0.0
  0
VERTEX
  5
BBB
  8
DATA
  6
CONTINUOUS
 62
     7
 10
88.304447623936596
 20
10.02939699467373
 30
0.0
  0
VERTEX
  5
BBC
  8
DATA
  6
CONTINUOUS
 62
     7
 10
88.420451011082207
 20
10.029396994673711
 30
0.0
  0
VERTEX
  5
BBD
  8
DATA
  6
CONTINUOUS
 62
     7
 10
88.420451011082207
 20
10.029396994673711
 30
0.0
  0
SEQEND
  5
BBE
  8
DATA
  6
CONTINUOUS
 62
     7
  0
POLYLINE
  5
238
  8
DATA
  6
CONTINUOUS
 62
     7
 66
     1
 10
0.0
 20
0.0
 30
0.0
  0
VERTEX
  5
BBF
  8
DATA
  6
CONTINUOUS
 62
     7
 10
63.046771365746963
 20
10.029396994673711
 30
0.0
  0
VERTEX
  5
BC0
  8
DATA
  6
CONTINUOUS
 62
     7
 10
63.106436297640698
 20
10.029396994673711
 30
0.0
  0
VERTEX
  5
BC1
  8
DATA
  6
CONTINUOUS
 62
     7
 10
63.106436297640698
 20
10.029396994673711
 30
0.0
  0
SEQEND
  5
BC2
  8
DATA
  6
CONTINUOUS
 62
     7
  0
POLYLINE
  5
23D
  8
DATA
  6
CONTINUOUS
 62
     7
 66
     1
 10
0.0
 20
0.0
 30
0.0
 70
   128
  0
VERTEX
  5
BC3
  8
DATA
  6
CONTINUOUS
 62
     7
 10
60.369372400184488
 20
12.636834162712519
 30
0.0
  0
VERTEX
  5
BC4
  8
DATA
  6
CONTINUOUS
 62
     7
 10
60.409363906068002
 20
12.30455222102484
 30
0.0
  0
VERTEX
  5
BC5
  8
DATA
  6
CONTINUOUS
 62
     7
 10
60.471820173296138
 20
11.996845929480729
 30
0.0
  0
VERTEX
  5
BC6
  8
DATA
  6
CONTINUOUS
 62
     7
 10
60.556741201868888
 20
11.71371528808019
 30
0.0
  0
VERTEX
  5
BC7
  8
DATA
  6
CONTINUOUS
 62
     7
 10
60.664126991786283
 20
11.45516029682322
 30
0.0
  0
VERTEX
  5
BC8
  8
DATA
  6
CONTINUOUS
 62
     7
 10
60.793977543048278
 20
11.221180955709819
 30
0.0
  0
VERTEX
  5
BC9
  8
DATA
  6
CONTINUOUS
 62
     7
 10
60.946292855654917
 20
11.01177726473998
 30
0.0
  0
VERTEX
  5
BCA
  8
DATA
  6
CONTINUOUS
 62
     7
 10
61.121072929606179
 20
10.82694922391372
 30
0.0
  0
VERTEX
  5
BCB
  8
DATA
  6
CONTINUOUS
 62
     7
 10
61.318317764902083
 20
10.66669683323102
 30
0.0
  0
VERTEX
  5
BCC
  8
DATA
  6
CONTINUOUS
 62
     7
 10
61.318317764902083
 20
10.66669683323102
 30
0.0
  0
VERTEX
  5
BCD
  8
DATA
  6
CONTINUOUS
 62
     7
 10
61.527742416387461
 20
10.52727002834402
 30
0.0
  0
VERTEX
  5
BCE
  8
DATA
  6
CONTINUOUS
 62
     7
 10
61.739061938907177
 20
10.404918744904821
 30
0.0
  0
VERTEX
  5
BCF
  8
DATA
  6
CONTINUOUS
 62
     7
 10
61.952276332461267
 20
10.29964298291344
 30
0.0
  0
VERTEX
  5
BD0
  8
DATA
  6
CONTINUOUS
 62
     7
 10
62.167385597049702
 20
10.21144274236986
 30
0.0
  0
VERTEX
  5
BD1
  8
DATA
  6
CONTINUOUS
 62
     7
 10
62.384389732672489
 20
10.14031802327411
 30
0.0
  0
VERTEX
  5
BD2
  8
DATA
  6
CONTINUOUS
 62
     7
 10
62.603288739329606
 20
10.08626882562616
 30
0.0
  0
VERTEX
  5
BD3
  8
DATA
  6
CONTINUOUS
 62
     7
 10
62.824082617021112
 20
10.04929514942603
 30
0.0
  0
VERTEX
  5
BD4
  8
DATA
  6
CONTINUOUS
 62
     7
 10
63.046771365746963
 20
10.029396994673711
 30
0.0
  0
VERTEX
  5
BD5
  8
DATA
  6
CONTINUOUS
 62
     7
 10
63.046771365746963
 20
10.029396994673711
 30
0.0
  0
SEQEND
  5
BD6
  8
DATA
  6
CONTINUOUS
 62
     7
  0
LINE
  5
252
  8
DATA
  6
CONTINUOUS
 62
     7
 10
60.369372400184488
 20
12.69494944477495
 30
0.0
 11
60.369372400184488
 21
12.636834162712519
 31
0.0
  0
POLYLINE
  5
253
  8
DATA
  6
CONTINUOUS
 62
     7
 66
     1
 10
0.0
 20
0.0
 30
0.0
 70
   128
  0
VERTEX
  5
BD7
  8
DATA
  6
CONTINUOUS
 62
     7
 10
60.369372400184488
 20
30.685569358248749
 30
0.0
  0
VERTEX
  5
BD8
  8
DATA
  6
CONTINUOUS
 62
     7
 10
60.369372400184488
 20
30.599506832393999
 30
0.0
  0
VERTEX
  5
BD9
  8
DATA
  6
CONTINUOUS
 62
     7
 10
60.369372400184488
 20
30.488627305829901
 30
0.0
  0
VERTEX
  5
BDA
  8
DATA
  6
CONTINUOUS
 62
     7
 10
60.369372400184488
 20
30.352930778556448
 30
0.0
  0
VERTEX
  5
BDB
  8
DATA
  6
CONTINUOUS
 62
     7
 10
60.369372400184488
 20
30.192417250573669
 30
0.0
  0
VERTEX
  5
BDC
  8
DATA
  6
CONTINUOUS
 62
     7
 10
60.369372400184488
 20
30.007086721881532
 30
0.0
  0
VERTEX
  5
BDD
  8
DATA
  6
CONTINUOUS
 62
     7
 10
60.369372400184488
 20
29.79693919248005
 30
0.0
  0
VERTEX
  5
BDE
  8
DATA
  6
CONTINUOUS
 62
     7
 10
60.369372400184488
 20
29.56197466236922
 30
0.0
  0
VERTEX
  5
BDF
  8
DATA
  6
CONTINUOUS
 62
     7
 10
60.369372400184488
 20
29.302193131549039
 30
0.0
  0
VERTEX
  5
BE0
  8
DATA
  6
CONTINUOUS
 62
     7
 10
60.369372400184488
 20
29.302193131549039
 30
0.0
  0
VERTEX
  5
BE1
  8
DATA
  6
CONTINUOUS
 62
     7
 10
60.369372400184488
 20
29.028593063954091
 30
0.0
  0
VERTEX
  5
BE2
  8
DATA
  6
CONTINUOUS
 62
     7
 10
60.369372400184488
 20
28.752172923518948
 30
0.0
  0
VERTEX
  5
BE3
  8
DATA
  6
CONTINUOUS
 62
     7
 10
60.369372400184488
 20
28.472932710243612
 30
0.0
  0
VERTEX
  5
BE4
  8
DATA
  6
CONTINUOUS
 62
     7
 10
60.369372400184488
 20
28.190872424128091
 30
0.0
  0
VERTEX
  5
BE5
  8
DATA
  6
CONTINUOUS
 62
     7
 10
60.369372400184488
 20
27.90599206517237
 30
0.0
  0
VERTEX
  5
BE6
  8
DATA
  6
CONTINUOUS
 62
     7
 10
60.369372400184488
 20
27.618291633376469
 30
0.0
  0
VERTEX
  5
BE7
  8
DATA
  6
CONTINUOUS
 62
     7
 10
60.369372400184488
 20
27.327771128740359
 30
0.0
  0
VERTEX
  5
BE8
  8
DATA
  6
CONTINUOUS
 62
     7
 10
60.369372400184488
 20
27.034430551264069
 30
0.0
  0
VERTEX
  5
BE9
  8
DATA
  6
CONTINUOUS
 62
     7
 10
60.369372400184488
 20
27.034430551264069
 30
0.0
  0
VERTEX
  5
BEA
  8
DATA
  6
CONTINUOUS
 62
     7
 10
60.369372400184488
 20
26.736729095687451
 30
0.0
  0
VERTEX
  5
BEB
  8
DATA
  6
CONTINUOUS
 62
     7
 10
60.369372400184488
 20
26.433125956750391
 30
0.0
  0
VERTEX
  5
BEC
  8
DATA
  6
CONTINUOUS
 62
     7
 10
60.369372400184488
 20
26.123621134452868
 30
0.0
  0
VERTEX
  5
BED
  8
DATA
  6
CONTINUOUS
 62
     7
 10
60.369372400184488
 20
25.808214628794889
 30
0.0
  0
VERTEX
  5
BEE
  8
DATA
  6
CONTINUOUS
 62
     7
 10
60.369372400184488
 20
25.486906439776469
 30
0.0
  0
VERTEX
  5
BEF
  8
DATA
  6
CONTINUOUS
 62
     7
 10
60.369372400184488
 20
25.159696567397589
 30
0.0
  0
VERTEX
  5
BF0
  8
DATA
  6
CONTINUOUS
 62
     7
 10
60.369372400184488
 20
24.82658501165827
 30
0.0
  0
VERTEX
  5
BF1
  8
DATA
  6
CONTINUOUS
 62
     7
 10
60.369372400184488
 20
24.487571772558479
 30
0.0
  0
VERTEX
  5
BF2
  8
DATA
  6
CONTINUOUS
 62
     7
 10
60.369372400184488
 20
24.487571772558479
 30
0.0
  0
VERTEX
  5
BF3
  8
DATA
  6
CONTINUOUS
 62
     7
 10
60.369372400184488
 20
24.144624309423111
 30
0.0
  0
VERTEX
  5
BF4
  8
DATA
  6
CONTINUOUS
 62
     7
 10
60.369372400184488
 20
23.799710081577
 30
0.0
  0
VERTEX
  5
BF5
  8
DATA
  6
CONTINUOUS
 62
     7
 10
60.369372400184488
 20
23.452829089020149
 30
0.0
  0
VERTEX
  5
BF6
  8
DATA
  6
CONTINUOUS
 62
     7
 10
60.369372400184488
 20
23.103981331752571
 30
0.0
  0
VERTEX
  5
BF7
  8
DATA
  6
CONTINUOUS
 62
     7
 10
60.369372400184488
 20
22.75316680977425
 30
0.0
  0
VERTEX
  5
BF8
  8
DATA
  6
CONTINUOUS
 62
     7
 10
60.369372400184488
 20
22.400385523085198
 30
0.0
  0
VERTEX
  5
BF9
  8
DATA
  6
CONTINUOUS
 62
     7
 10
60.369372400184488
 20
22.04563747168541
 30
0.0
  0
VERTEX
  5
BFA
  8
DATA
  6
CONTINUOUS
 62
     7
 10
60.369372400184488
 20
21.688922655574881
 30
0.0
  0
VERTEX
  5
BFB
  8
DATA
  6
CONTINUOUS
 62
     7
 10
60.369372400184488
 20
21.688922655574881
 30
0.0
  0
VERTEX
  5
BFC
  8
DATA
  6
CONTINUOUS
 62
     7
 10
60.369372400184488
 20
21.332207172599158
 30
0.0
  0
VERTEX
  5
BFD
  8
DATA
  6
CONTINUOUS
 62
     7
 10
60.369372400184488
 20
20.977457120603731
 30
0.0
  0
VERTEX
  5
BFE
  8
DATA
  6
CONTINUOUS
 62
     7
 10
60.369372400184488
 20
20.62467249958863
 30
0.0
  0
VERTEX
  5
BFF
  8
DATA
  6
CONTINUOUS
 62
     7
 10
60.369372400184488
 20
20.273853309553839
 30
0.0
  0
VERTEX
  5
C00
  8
DATA
  6
CONTINUOUS
 62
     7
 10
60.369372400184488
 20
19.924999550499351
 30
0.0
  0
VERTEX
  5
C01
  8
DATA
  6
CONTINUOUS
 62
     7
 10
60.369372400184488
 20
19.578111222425179
 30
0.0
  0
VERTEX
  5
C02
  8
DATA
  6
CONTINUOUS
 62
     7
 10
60.369372400184488
 20
19.23318832533133
 30
0.0
  0
VERTEX
  5
C03
  8
DATA
  6
CONTINUOUS
 62
     7
 10
60.369372400184488
 20
18.890230859217791
 30
0.0
  0
VERTEX
  5
C04
  8
DATA
  6
CONTINUOUS
 62
     7
 10
60.369372400184488
 20
18.890230859217791
 30
0.0
  0
VERTEX
  5
C05
  8
DATA
  6
CONTINUOUS
 62
     7
 10
60.369372400184488
 20
18.551210526414771
 30
0.0
  0
VERTEX
  5
C06
  8
DATA
  6
CONTINUOUS
 62
     7
 10
60.369372400184488
 20
18.21809902925246
 30
0.0
  0
VERTEX
  5
C07
  8
DATA
  6
CONTINUOUS
 62
     7
 10
60.369372400184488
 20
17.890896367730878
 30
0.0
  0
VERTEX
  5
C08
  8
DATA
  6
CONTINUOUS
 62
     7
 10
60.369372400184488
 20
17.569602541850031
 30
0.0
  0
VERTEX
  5
C09
  8
DATA
  6
CONTINUOUS
 62
     7
 10
60.369372400184488
 20
17.254217551609901
 30
0.0
  0
VERTEX
  5
C0A
  8
DATA
  6
CONTINUOUS
 62
     7
 10
60.369372400184488
 20
16.94474139701051
 30
0.0
  0
VERTEX
  5
C0B
  8
DATA
  6
CONTINUOUS
 62
     7
 10
60.369372400184488
 20
16.641174078051819
 30
0.0
  0
VERTEX
  5
C0C
  8
DATA
  6
CONTINUOUS
 62
     7
 10
60.369372400184488
 20
16.343515594733859
 30
0.0
  0
VERTEX
  5
C0D
  8
DATA
  6
CONTINUOUS
 62
     7
 10
60.369372400184488
 20
16.343515594733859
 30
0.0
  0
VERTEX
  5
C0E
  8
DATA
  6
CONTINUOUS
 62
     7
 10
60.369372400184488
 20
16.050113145279841
 30
0.0
  0
VERTEX
  5
C0F
  8
DATA
  6
CONTINUOUS
 62
     7
 10
60.369372400184488
 20
15.759313927912959
 30
0.0
  0
VERTEX
  5
C10
  8
DATA
  6
CONTINUOUS
 62
     7
 10
60.369372400184488
 20
15.47111794263321
 30
0.0
  0
VERTEX
  5
C11
  8
DATA
  6
CONTINUOUS
 62
     7
 10
60.369372400184488
 20
15.185525189440609
 30
0.0
  0
VERTEX
  5
C12
  8
DATA
  6
CONTINUOUS
 62
     7
 10
60.369372400184488
 20
14.902535668335149
 30
0.0
  0
VERTEX
  5
C13
  8
DATA
  6
CONTINUOUS
 62
     7
 10
60.369372400184488
 20
14.622149379316831
 30
0.0
  0
VERTEX
  5
C14
  8
DATA
  6
CONTINUOUS
 62
     7
 10
60.369372400184488
 20
14.34436632238565
 30
0.0
  0
VERTEX
  5
C15
  8
DATA
  6
CONTINUOUS
 62
     7
 10
60.369372400184488
 20
14.06918649754161
 30
0.0
  0
VERTEX
  5
C16
  8
DATA
  6
CONTINUOUS
 62
     7
 10
60.369372400184488
 20
14.06918649754161
 30
0.0
  0
VERTEX
  5
C17
  8
DATA
  6
CONTINUOUS
 62
     7
 10
60.369372400184488
 20
13.80807061089172
 30
0.0
  0
VERTEX
  5
C18
  8
DATA
  6
CONTINUOUS
 62
     7
 10
60.369372400184488
 20
13.572479368542989
 30
0.0
  0
VERTEX
  5
C19
  8
DATA
  6
CONTINUOUS
 62
     7
 10
60.369372400184488
 20
13.362412770495419
 30
0.0
  0
VERTEX
  5
C1A
  8
DATA
  6
CONTINUOUS
 62
     7
 10
60.369372400184488
 20
13.17787081674901
 30
0.0
  0
VERTEX
  5
C1B
  8
DATA
  6
CONTINUOUS
 62
     7
 10
60.369372400184488
 20
13.01885350730376
 30
0.0
  0
VERTEX
  5
C1C
  8
DATA
  6
CONTINUOUS
 62
     7
 10
60.369372400184488
 20
12.88536084215967
 30
0.0
  0
VERTEX
  5
C1D
  8
DATA
  6
CONTINUOUS
 62
     7
 10
60.369372400184488
 20
12.777392821316729
 30
0.0
  0
VERTEX
  5
C1E
  8
DATA
  6
CONTINUOUS
 62
     7
 10
60.369372400184488
 20
12.69494944477495
 30
0.0
  0
VERTEX
  5
C1F
  8
DATA
  6
CONTINUOUS
 62
     7
 10
60.369372400184488
 20
12.69494944477495
 30
0.0
  0
SEQEND
  5
C20
  8
DATA
  6
CONTINUOUS
 62
     7
  0
POLYLINE
  5
29E
  8
DATA
  6
CONTINUOUS
 62
     7
 66
     1
 10
0.0
 20
0.0
 30
0.0
  0
VERTEX
  5
C21
  8
DATA
  6
CONTINUOUS
 62
     7
 10
60.369372400184488
 20
30.715968436249788
 30
0.0
  0
VERTEX
  5
C22
  8
DATA
  6
CONTINUOUS
 62
     7
 10
60.369372400184488
 20
30.685569358248749
 30
0.0
  0
VERTEX
  5
C23
  8
DATA
  6
CONTINUOUS
 62
     7
 10
60.369372400184488
 20
30.685569358248749
 30
0.0
  0
SEQEND
  5
C24
  8
DATA
  6
CONTINUOUS
 62
     7
  0
POLYLINE
  5
2A3
  8
DATA
  6
CONTINUOUS
 62
     7
 66
     1
 10
0.0
 20
0.0
 30
0.0
 70
   128
  0
VERTEX
  5
C25
  8
DATA
  6
CONTINUOUS
 62
     7
 10
63.07797940191972
 20
33.351121808347081
 30
0.0
  0
VERTEX
  5
C26
  8
DATA
  6
CONTINUOUS
 62
     7
 10
62.833722926203521
 20
33.335933162639449
 30
0.0
  0
VERTEX
  5
C27
  8
DATA
  6
CONTINUOUS
 62
     7
 10
62.604413472084467
 20
33.30853507011863
 30
0.0
  0
VERTEX
  5
C28
  8
DATA
  6
CONTINUOUS
 62
     7
 10
62.3900510395626
 20
33.268927530784609
 30
0.0
  0
VERTEX
  5
C29
  8
DATA
  6
CONTINUOUS
 62
     7
 10
62.190635628637878
 20
33.217110544637407
 30
0.0
  0
VERTEX
  5
C2A
  8
DATA
  6
CONTINUOUS
 62
     7
 10
62.006167239310351
 20
33.153084111677018
 30
0.0
  0
VERTEX
  5
C2B
  8
DATA
  6
CONTINUOUS
 62
     7
 10
61.836645871579982
 20
33.07684823190344
 30
0.0
  0
VERTEX
  5
C2C
  8
DATA
  6
CONTINUOUS
 62
     7
 10
61.682071525446773
 20
32.988402905316683
 30
0.0
  0
VERTEX
  5
C2D
  8
DATA
  6
CONTINUOUS
 62
     7
 10
61.542444200910722
 20
32.88774813191673
 30
0.0
  0
VERTEX
  5
C2E
  8
DATA
  6
CONTINUOUS
 62
     7
 10
61.542444200910722
 20
32.88774813191673
 30
0.0
  0
VERTEX
  5
C2F
  8
DATA
  6
CONTINUOUS
 62
     7
 10
61.413697629506672
 20
32.779981514526384
 30
0.0
  0
VERTEX
  5
C30
  8
DATA
  6
CONTINUOUS
 62
     7
 10
61.29176554276944
 20
32.670200655968429
 30
0.0
  0
VERTEX
  5
C31
  8
DATA
  6
CONTINUOUS
 62
     7
 10
61.17664794069902
 20
32.55840555624286
 30
0.0
  0
VERTEX
  5
C32
  8
DATA
  6
CONTINUOUS
 62
     7
 10
61.068344823295419
 20
32.444596215349691
 30
0.0
  0
VERTEX
  5
C33
  8
DATA
  6
CONTINUOUS
 62
     7
 10
60.966856190558651
 20
32.328772633288942
 30
0.0
  0
VERTEX
  5
C34
  8
DATA
  6
CONTINUOUS
 62
     7
 10
60.87218204248866
 20
32.21093481006055
 30
0.0
  0
VERTEX
  5
C35
  8
DATA
  6
CONTINUOUS
 62
     7
 10
60.784322379085523
 20
32.091082745664572
 30
0.0
  0
VERTEX
  5
C36
  8
DATA
  6
CONTINUOUS
 62
     7
 10
60.703277200349191
 20
31.969216440101
 30
0.0
  0
VERTEX
  5
C37
  8
DATA
  6
CONTINUOUS
 62
     7
 10
60.703277200349191
 20
31.969216440101
 30
0.0
  0
VERTEX
  5
C38
  8
DATA
  6
CONTINUOUS
 62
     7
 10
60.63012674349406
 20
31.842120192161861
 30
0.0
  0
VERTEX
  5
C39
  8
DATA
  6
CONTINUOUS
 62
     7
 10
60.56595124573451
 20
31.706578300639229
 30
0.0
  0
VERTEX
  5
C3A
  8
DATA
  6
CONTINUOUS
 62
     7
 10
60.510750707070549
 20
31.562590765533081
 30
0.0
  0
VERTEX
  5
C3B
  8
DATA
  6
CONTINUOUS
 62
     7
 10
60.464525127502171
 20
31.410157586843429
 30
0.0
  0
VERTEX
  5
C3C
  8
DATA
  6
CONTINUOUS
 62
     7
 10
60.427274507029381
 20
31.249278764570271
 30
0.0
  0
VERTEX
  5
C3D
  8
DATA
  6
CONTINUOUS
 62
     7
 10
60.398998845652152
 20
31.079954298713609
 30
0.0
  0
VERTEX
  5
C3E
  8
DATA
  6
CONTINUOUS
 62
     7
 10
60.379698143370533
 20
30.902184189273449
 30
0.0
  0
VERTEX
  5
C3F
  8
DATA
  6
CONTINUOUS
 62
     7
 10
60.369372400184488
 20
30.715968436249788
 30
0.0
  0
VERTEX
  5
C40
  8
DATA
  6
CONTINUOUS
 62
     7
 10
60.369372400184488
 20
30.715968436249788
 30
0.0
  0
SEQEND
  5
C41
  8
DATA
  6
CONTINUOUS
 62
     7
  0
LINE
  5
2C1
  8
DATA
  6
CONTINUOUS
 62
     7
 10
63.106436297640698
 20
33.351121808347081
 30
0.0
 11
63.07797940191972
 21
33.351121808347081
 31
0.0
  0
POLYLINE
  5
2C2
  8
DATA
  6
CONTINUOUS
 62
     7
 66
     1
 10
0.0
 20
0.0
 30
0.0
 70
   128
  0
VERTEX
  5
C42
  8
DATA
  6
CONTINUOUS
 62
     7
 10
88.420451011082207
 20
33.351121808347081
 30
0.0
  0
VERTEX
  5
C43
  8
DATA
  6
CONTINUOUS
 62
     7
 10
88.299355236936933
 20
33.351121808346427
 30
0.0
  0
VERTEX
  5
C44
  8
DATA
  6
CONTINUOUS
 62
     7
 10
88.143340270228023
 20
33.351121808345908
 30
0.0
  0
VERTEX
  5
C45
  8
DATA
  6
CONTINUOUS
 62
     7
 10
87.952406110955408
 20
33.351121808345532
 30
0.0
  0
VERTEX
  5
C46
  8
DATA
  6
CONTINUOUS
 62
     7
 10
87.726552759119187
 20
33.351121808345269
 30
0.0
  0
VERTEX
  5
C47
  8
DATA
  6
CONTINUOUS
 62
     7
 10
87.465780214719317
 20
33.351121808345162
 30
0.0
  0
VERTEX
  5
C48
  8
DATA
  6
CONTINUOUS
 62
     7
 10
87.170088477755769
 20
33.351121808345177
 30
0.0
  0
VERTEX
  5
C49
  8
DATA
  6
CONTINUOUS
 62
     7
 10
86.839477548228587
 20
33.35112180834534
 30
0.0
  0
VERTEX
  5
C4A
  8
DATA
  6
CONTINUOUS
 62
     7
 10
86.473947426137727
 20
33.351121808345631
 30
0.0
  0
VERTEX
  5
C4B
  8
DATA
  6
CONTINUOUS
 62
     7
 10
86.473947426137727
 20
33.351121808345631
 30
0.0
  0
VERTEX
  5
C4C
  8
DATA
  6
CONTINUOUS
 62
     7
 10
86.088973691491262
 20
33.351121808345972
 30
0.0
  0
VERTEX
  5
C4D
  8
DATA
  6
CONTINUOUS
 62
     7
 10
85.700031924297193
 20
33.351121808346257
 30
0.0
  0
VERTEX
  5
C4E
  8
DATA
  6
CONTINUOUS
 62
     7
 10
85.307122124555534
 20
33.351121808346512
 30
0.0
  0
VERTEX
  5
C4F
  8
DATA
  6
CONTINUOUS
 62
     7
 10
84.910244292266299
 20
33.351121808346718
 30
0.0
  0
VERTEX
  5
C50
  8
DATA
  6
CONTINUOUS
 62
     7
 10
84.509398427429446
 20
33.351121808346882
 30
0.0
  0
VERTEX
  5
C51
  8
DATA
  6
CONTINUOUS
 62
     7
 10
84.104584530045017
 20
33.351121808346988
 30
0.0
  0
VERTEX
  5
C52
  8
DATA
  6
CONTINUOUS
 62
     7
 10
83.695802600112984
 20
33.35112180834706
 30
0.0
  0
VERTEX
  5
C53
  8
DATA
  6
CONTINUOUS
 62
     7
 10
83.283052637633375
 20
33.351121808347081
 30
0.0
  0
VERTEX
  5
C54
  8
DATA
  6
CONTINUOUS
 62
     7
 10
83.283052637633375
 20
33.351121808347081
 30
0.0
  0
VERTEX
  5
C55
  8
DATA
  6
CONTINUOUS
 62
     7
 10
82.864166625760987
 20
33.35112180834706
 30
0.0
  0
VERTEX
  5
C56
  8
DATA
  6
CONTINUOUS
 62
     7
 10
82.436976547650644
 20
33.351121808346988
 30
0.0
  0
VERTEX
  5
C57
  8
DATA
  6
CONTINUOUS
 62
     7
 10
82.001482403302376
 20
33.351121808346882
 30
0.0
  0
VERTEX
  5
C58
  8
DATA
  6
CONTINUOUS
 62
     7
 10
81.557684192716124
 20
33.351121808346718
 30
0.0
  0
VERTEX
  5
C59
  8
DATA
  6
CONTINUOUS
 62
     7
 10
81.105581915891932
 20
33.351121808346512
 30
0.0
  0
VERTEX
  5
C5A
  8
DATA
  6
CONTINUOUS
 62
     7
 10
80.645175572829814
 20
33.351121808346257
 30
0.0
  0
VERTEX
  5
C5B
  8
DATA
  6
CONTINUOUS
 62
     7
 10
80.176465163529727
 20
33.351121808345972
 30
0.0
  0
VERTEX
  5
C5C
  8
DATA
  6
CONTINUOUS
 62
     7
 10
79.699450687991686
 20
33.351121808345631
 30
0.0
  0
VERTEX
  5
C5D
  8
DATA
  6
CONTINUOUS
 62
     7
 10
79.699450687991686
 20
33.351121808345631
 30
0.0
  0
VERTEX
  5
C5E
  8
DATA
  6
CONTINUOUS
 62
     7
 10
79.216900494084726
 20
33.351121808345312
 30
0.0
  0
VERTEX
  5
C5F
  8
DATA
  6
CONTINUOUS
 62
     7
 10
78.731582929677785
 20
33.351121808345091
 30
0.0
  0
VERTEX
  5
C60
  8
DATA
  6
CONTINUOUS
 62
     7
 10
78.243497994770848
 20
33.351121808344963
 30
0.0
  0
VERTEX
  5
C61
  8
DATA
  6
CONTINUOUS
 62
     7
 10
77.752645689363931
 20
33.351121808344907
 30
0.0
  0
VERTEX
  5
C62
  8
DATA
  6
CONTINUOUS
 62
     7
 10
77.25902601345706
 20
33.351121808344963
 30
0.0
  0
VERTEX
  5
C63
  8
DATA
  6
CONTINUOUS
 62
     7
 10
76.762638967050222
 20
33.351121808345091
 30
0.0
  0
VERTEX
  5
C64
  8
DATA
  6
CONTINUOUS
 62
     7
 10
76.263484550143403
 20
33.351121808345312
 30
0.0
  0
VERTEX
  5
C65
  8
DATA
  6
CONTINUOUS
 62
     7
 10
75.761562762736602
 20
33.351121808345631
 30
0.0
  0
VERTEX
  5
C66
  8
DATA
  6
CONTINUOUS
 62
     7
 10
75.761562762736602
 20
33.351121808345631
 30
0.0
  0
VERTEX
  5
C67
  8
DATA
  6
CONTINUOUS
 62
     7
 10
75.259640037005553
 20
33.351121808345972
 30
0.0
  0
VERTEX
  5
C68
  8
DATA
  6
CONTINUOUS
 62
     7
 10
74.760482805125946
 20
33.351121808346257
 30
0.0
  0
VERTEX
  5
C69
  8
DATA
  6
CONTINUOUS
 62
     7
 10
74.264091067097823
 20
33.351121808346512
 30
0.0
  0
VERTEX
  5
C6A
  8
DATA
  6
CONTINUOUS
 62
     7
 10
73.770464822921099
 20
33.351121808346718
 30
0.0
  0
VERTEX
  5
C6B
  8
DATA
  6
CONTINUOUS
 62
     7
 10
73.279604072595845
 20
33.351121808346882
 30
0.0
  0
VERTEX
  5
C6C
  8
DATA
  6
CONTINUOUS
 62
     7
 10
72.791508816122032
 20
33.351121808346988
 30
0.0
  0
VERTEX
  5
C6D
  8
DATA
  6
CONTINUOUS
 62
     7
 10
72.306179053499662
 20
33.35112180834706
 30
0.0
  0
VERTEX
  5
C6E
  8
DATA
  6
CONTINUOUS
 62
     7
 10
71.823614784728761
 20
33.351121808347081
 30
0.0
  0
VERTEX
  5
C6F
  8
DATA
  6
CONTINUOUS
 62
     7
 10
71.823614784728761
 20
33.351121808347081
 30
0.0
  0
VERTEX
  5
C70
  8
DATA
  6
CONTINUOUS
 62
     7
 10
71.346590327872661
 20
33.351121808347081
 30
0.0
  0
VERTEX
  5
C71
  8
DATA
  6
CONTINUOUS
 62
     7
 10
70.877880000994764
 20
33.351121808347081
 30
0.0
  0
VERTEX
  5
C72
  8
DATA
  6
CONTINUOUS
 62
     7
 10
70.417483804095042
 20
33.351121808347081
 30
0.0
  0
VERTEX
  5
C73
  8
DATA
  6
CONTINUOUS
 62
     7
 10
69.965401737173508
 20
33.351121808347081
 30
0.0
  0
VERTEX
  5
C74
  8
DATA
  6
CONTINUOUS
 62
     7
 10
69.521633800230177
 20
33.351121808347081
 30
0.0
  0
VERTEX
  5
C75
  8
DATA
  6
CONTINUOUS
 62
     7
 10
69.086179993265006
 20
33.351121808347081
 30
0.0
  0
VERTEX
  5
C76
  8
DATA
  6
CONTINUOUS
 62
     7
 10
68.659040316278023
 20
33.351121808347081
 30
0.0
  0
VERTEX
  5
C77
  8
DATA
  6
CONTINUOUS
 62
     7
 10
68.240214769269244
 20
33.351121808347081
 30
0.0
  0
VERTEX
  5
C78
  8
DATA
  6
CONTINUOUS
 62
     7
 10
68.240214769269244
 20
33.351121808347081
 30
0.0
  0
VERTEX
  5
C79
  8
DATA
  6
CONTINUOUS
 62
     7
 10
67.8273777487465
 20
33.35112180834706
 30
0.0
  0
VERTEX
  5
C7A
  8
DATA
  6
CONTINUOUS
 62
     7
 10
67.418203651217652
 20
33.351121808346988
 30
0.0
  0
VERTEX
  5
C7B
  8
DATA
  6
CONTINUOUS
 62
     7
 10
67.012692476682716
 20
33.351121808346882
 30
0.0
  0
VERTEX
  5
C7C
  8
DATA
  6
CONTINUOUS
 62
     7
 10
66.610844225141676
 20
33.351121808346718
 30
0.0
  0
VERTEX
  5
C7D
  8
DATA
  6
CONTINUOUS
 62
     7
 10
66.212658896594533
 20
33.351121808346512
 30
0.0
  0
VERTEX
  5
C7E
  8
DATA
  6
CONTINUOUS
 62
     7
 10
65.818136491041287
 20
33.351121808346257
 30
0.0
  0
VERTEX
  5
C7F
  8
DATA
  6
CONTINUOUS
 62
     7
 10
65.427277008481951
 20
33.351121808345972
 30
0.0
  0
VERTEX
  5
C80
  8
DATA
  6
CONTINUOUS
 62
     7
 10
65.040080448916513
 20
33.351121808345631
 30
0.0
  0
VERTEX
  5
C81
  8
DATA
  6
CONTINUOUS
 62
     7
 10
65.040080448916513
 20
33.351121808345631
 30
0.0
  0
VERTEX
  5
C82
  8
DATA
  6
CONTINUOUS
 62
     7
 10
64.6726727982429
 20
33.35112180834534
 30
0.0
  0
VERTEX
  5
C83
  8
DATA
  6
CONTINUOUS
 62
     7
 10
64.341180042359014
 20
33.351121808345177
 30
0.0
  0
VERTEX
  5
C84
  8
DATA
  6
CONTINUOUS
 62
     7
 10
64.045602181264911
 20
33.351121808345162
 30
0.0
  0
VERTEX
  5
C85
  8
DATA
  6
CONTINUOUS
 62
     7
 10
63.785939214960543
 20
33.351121808345269
 30
0.0
  0
VERTEX
  5
C86
  8
DATA
  6
CONTINUOUS
 62
     7
 10
63.562191143445951
 20
33.351121808345532
 30
0.0
  0
VERTEX
  5
C87
  8
DATA
  6
CONTINUOUS
 62
     7
 10
63.374357966721099
 20
33.351121808345908
 30
0.0
  0
VERTEX
  5
C88
  8
DATA
  6
CONTINUOUS
 62
     7
 10
63.222439684786018
 20
33.351121808346427
 30
0.0
  0
VERTEX
  5
C89
  8
DATA
  6
CONTINUOUS
 62
     7
 10
63.106436297640698
 20
33.351121808347081
 30
0.0
  0
VERTEX
  5
C8A
  8
DATA
  6
CONTINUOUS
 62
     7
 10
63.106436297640698
 20
33.351121808347081
 30
0.0
  0
SEQEND
  5
C8B
  8
DATA
  6
CONTINUOUS
 62
     7
  0
LINE
  5
30D
  8
DATA
  6
CONTINUOUS
 62
     7
 10
87.446338448603399
 20
24.608908398524719
 30
0.0
 11
87.437933572475316
 21
24.617555490103669
 31
0.0
  0
POLYLINE
  5
30E
  8
DATA
  6
CONTINUOUS
 62
     7
 66
     1
 10
0.0
 20
0.0
 30
0.0
 70
   128
  0
VERTEX
  5
C8C
  8
DATA
  6
CONTINUOUS
 62
     7
 10
87.816031890530056
 20
23.72187908688592
 30
0.0
  0
VERTEX
  5
C8D
  8
DATA
  6
CONTINUOUS
 62
     7
 10
87.805240385412958
 20
23.849374520552001
 30
0.0
  0
VERTEX
  5
C8E
  8
DATA
  6
CONTINUOUS
 62
     7
 10
87.78432883026052
 20
23.972122305729162
 30
0.0
  0
VERTEX
  5
C8F
  8
DATA
  6
CONTINUOUS
 62
     7
 10
87.753297225072714
 20
24.090122442417389
 30
0.0
  0
VERTEX
  5
C90
  8
DATA
  6
CONTINUOUS
 62
     7
 10
87.712145569849582
 20
24.203374930616711
 30
0.0
  0
VERTEX
  5
C91
  8
DATA
  6
CONTINUOUS
 62
     7
 10
87.660873864591068
 20
24.311879770327089
 30
0.0
  0
VERTEX
  5
C92
  8
DATA
  6
CONTINUOUS
 62
     7
 10
87.599482109297213
 20
24.415636961548561
 30
0.0
  0
VERTEX
  5
C93
  8
DATA
  6
CONTINUOUS
 62
     7
 10
87.527970303967976
 20
24.514646504281089
 30
0.0
  0
VERTEX
  5
C94
  8
DATA
  6
CONTINUOUS
 62
     7
 10
87.446338448603399
 20
24.608908398524719
 30
0.0
  0
VERTEX
  5
C95
  8
DATA
  6
CONTINUOUS
 62
     7
 10
87.446338448603399
 20
24.608908398524719
 30
0.0
  0
SEQEND
  5
C96
  8
DATA
  6
CONTINUOUS
 62
     7
  0
LINE
  5
31A
  8
DATA
  6
CONTINUOUS
 62
     7
 10
87.816031890530056
 20
23.709441323509179
 30
0.0
 11
87.816031890530056
 21
23.72187908688592
 31
0.0
  0
POLYLINE
  5
31B
  8
DATA
  6
CONTINUOUS
 62
     7
 66
     1
 10
0.0
 20
0.0
 30
0.0
 70
   128
  0
VERTEX
  5
C97
  8
DATA
  6
CONTINUOUS
 62
     7
 10
87.816031890530056
 20
15.49165240891954
 30
0.0
  0
VERTEX
  5
C98
  8
DATA
  6
CONTINUOUS
 62
     7
 10
87.816031890530382
 20
15.523740342708111
 30
0.0
  0
VERTEX
  5
C99
  8
DATA
  6
CONTINUOUS
 62
     7
 10
87.816031890530624
 20
15.56538909309328
 30
0.0
  0
VERTEX
  5
C9A
  8
DATA
  6
CONTINUOUS
 62
     7
 10
87.816031890530837
 20
15.61659866007505
 30
0.0
  0
VERTEX
  5
C9B
  8
DATA
  6
CONTINUOUS
 62
     7
 10
87.816031890530951
 20
15.677369043653419
 30
0.0
  0
VERTEX
  5
C9C
  8
DATA
  6
CONTINUOUS
 62
     7
 10
87.816031890531022
 20
15.74770024382839
 30
0.0
  0
VERTEX
  5
C9D
  8
DATA
  6
CONTINUOUS
 62
     7
 10
87.816031890531022
 20
15.82759226059996
 30
0.0
  0
VERTEX
  5
C9E
  8
DATA
  6
CONTINUOUS
 62
     7
 10
87.816031890530908
 20
15.91704509396812
 30
0.0
  0
VERTEX
  5
C9F
  8
DATA
  6
CONTINUOUS
 62
     7
 10
87.816031890530766
 20
16.016058743932891
 30
0.0
  0
VERTEX
  5
CA0
  8
DATA
  6
CONTINUOUS
 62
     7
 10
87.816031890530766
 20
16.016058743932891
 30
0.0
  0
VERTEX
  5
CA1
  8
DATA
  6
CONTINUOUS
 62
     7
 10
87.81603189053061
 20
16.124282254303971
 30
0.0
  0
VERTEX
  5
CA2
  8
DATA
  6
CONTINUOUS
 62
     7
 10
87.816031890530454
 20
16.24136466889107
 30
0.0
  0
VERTEX
  5
CA3
  8
DATA
  6
CONTINUOUS
 62
     7
 10
87.816031890530326
 20
16.367305987694198
 30
0.0
  0
VERTEX
  5
CA4
  8
DATA
  6
CONTINUOUS
 62
     7
 10
87.816031890530226
 20
16.50210621071335
 30
0.0
  0
VERTEX
  5
CA5
  8
DATA
  6
CONTINUOUS
 62
     7
 10
87.816031890530127
 20
16.645765337948529
 30
0.0
  0
VERTEX
  5
CA6
  8
DATA
  6
CONTINUOUS
 62
     7
 10
87.816031890530056
 20
16.79828336939973
 30
0.0
  0
VERTEX
  5
CA7
  8
DATA
  6
CONTINUOUS
 62
     7
 10
87.816031890530056
 20
16.959660305066951
 30
0.0
  0
VERTEX
  5
CA8
  8
DATA
  6
CONTINUOUS
 62
     7
 10
87.816031890530056
 20
17.129896144950202
 30
0.0
  0
VERTEX
  5
CA9
  8
DATA
  6
CONTINUOUS
 62
     7
 10
87.816031890530056
 20
17.129896144950202
 30
0.0
  0
VERTEX
  5
CAA
  8
DATA
  6
CONTINUOUS
 62
     7
 10
87.816031890530056
 20
17.312260257228541
 30
0.0
  0
VERTEX
  5
CAB
  8
DATA
  6
CONTINUOUS
 62
     7
 10
87.816031890530056
 20
17.510022010081052
 30
0.0
  0
VERTEX
  5
CAC
  8
DATA
  6
CONTINUOUS
 62
     7
 10
87.816031890530056
 20
17.723181403507731
 30
0.0
  0
VERTEX
  5
CAD
  8
DATA
  6
CONTINUOUS
 62
     7
 10
87.816031890530056
 20
17.95173843750857
 30
0.0
  0
VERTEX
  5
CAE
  8
DATA
  6
CONTINUOUS
 62
     7
 10
87.816031890530056
 20
18.195693112083578
 30
0.0
  0
VERTEX
  5
CAF
  8
DATA
  6
CONTINUOUS
 62
     7
 10
87.816031890530056
 20
18.455045427232761
 30
0.0
  0
VERTEX
  5
CB0
  8
DATA
  6
CONTINUOUS
 62
     7
 10
87.816031890530056
 20
18.729795382956091
 30
0.0
  0
VERTEX
  5
CB1
  8
DATA
  6
CONTINUOUS
 62
     7
 10
87.816031890530056
 20
19.01994297925361
 30
0.0
  0
VERTEX
  5
CB2
  8
DATA
  6
CONTINUOUS
 62
     7
 10
87.816031890530056
 20
19.01994297925361
 30
0.0
  0
VERTEX
  5
CB3
  8
DATA
  6
CONTINUOUS
 62
     7
 10
87.816031890530056
 20
19.316485047163699
 30
0.0
  0
VERTEX
  5
CB4
  8
DATA
  6
CONTINUOUS
 62
     7
 10
87.816031890530056
 20
19.610418417724819
 30
0.0
  0
VERTEX
  5
CB5
  8
DATA
  6
CONTINUOUS
 62
     7
 10
87.816031890530056
 20
19.901743090936961
 30
0.0
  0
VERTEX
  5
CB6
  8
DATA
  6
CONTINUOUS
 62
     7
 10
87.816031890530056
 20
20.190459066800109
 30
0.0
  0
VERTEX
  5
CB7
  8
DATA
  6
CONTINUOUS
 62
     7
 10
87.816031890530056
 20
20.476566345314279
 30
0.0
  0
VERTEX
  5
CB8
  8
DATA
  6
CONTINUOUS
 62
     7
 10
87.816031890530056
 20
20.760064926479458
 30
0.0
  0
VERTEX
  5
CB9
  8
DATA
  6
CONTINUOUS
 62
     7
 10
87.816031890530056
 20
21.04095481029567
 30
0.0
  0
VERTEX
  5
CBA
  8
DATA
  6
CONTINUOUS
 62
     7
 10
87.816031890530056
 20
21.319235996762892
 30
0.0
  0
VERTEX
  5
CBB
  8
DATA
  6
CONTINUOUS
 62
     7
 10
87.816031890530056
 20
21.319235996762892
 30
0.0
  0
VERTEX
  5
CBC
  8
DATA
  6
CONTINUOUS
 62
     7
 10
87.816031890530056
 20
21.588110771646139
 30
0.0
  0
VERTEX
  5
CBD
  8
DATA
  6
CONTINUOUS
 62
     7
 10
87.816031890530056
 20
21.84078142071041
 30
0.0
  0
VERTEX
  5
CBE
  8
DATA
  6
CONTINUOUS
 62
     7
 10
87.816031890530127
 20
22.077247943955701
 30
0.0
  0
VERTEX
  5
CBF
  8
DATA
  6
CONTINUOUS
 62
     7
 10
87.816031890530226
 20
22.297510341382011
 30
0.0
  0
VERTEX
  5
CC0
  8
DATA
  6
CONTINUOUS
 62
     7
 10
87.816031890530326
 20
22.50156861298936
 30
0.0
  0
VERTEX
  5
CC1
  8
DATA
  6
CONTINUOUS
 62
     7
 10
87.816031890530454
 20
22.689422758777731
 30
0.0
  0
VERTEX
  5
CC2
  8
DATA
  6
CONTINUOUS
 62
     7
 10
87.81603189053061
 20
22.861072778747118
 30
0.0
  0
VERTEX
  5
CC3
  8
DATA
  6
CONTINUOUS
 62
     7
 10
87.816031890530766
 20
23.016518672897529
 30
0.0
  0
VERTEX
  5
CC4
  8
DATA
  6
CONTINUOUS
 62
     7
 10
87.816031890530766
 20
23.016518672897529
 30
0.0
  0
VERTEX
  5
CC5
  8
DATA
  6
CONTINUOUS
 62
     7
 10
87.816031890530908
 20
23.15627144164916
 30
0.0
  0
VERTEX
  5
CC6
  8
DATA
  6
CONTINUOUS
 62
     7
 10
87.816031890531022
 20
23.280842085422162
 30
0.0
  0
VERTEX
  5
CC7
  8
DATA
  6
CONTINUOUS
 62
     7
 10
87.816031890531022
 20
23.390230604216541
 30
0.0
  0
VERTEX
  5
CC8
  8
DATA
  6
CONTINUOUS
 62
     7
 10
87.816031890530951
 20
23.484436998032312
 30
0.0
  0
VERTEX
  5
CC9
  8
DATA
  6
CONTINUOUS
 62
     7
 10
87.816031890530837
 20
23.563461266869449
 30
0.0
  0
VERTEX
  5
CCA
  8
DATA
  6
CONTINUOUS
 62
     7
 10
87.816031890530624
 20
23.627303410727979
 30
0.0
  0
VERTEX
  5
CCB
  8
DATA
  6
CONTINUOUS
 62
     7
 10
87.816031890530382
 20
23.67596342960789
 30
0.0
  0
VERTEX
  5
CCC
  8
DATA
  6
CONTINUOUS
 62
     7
 10
87.816031890530056
 20
23.709441323509179
 30
0.0
  0
VERTEX
  5
CCD
  8
DATA
  6
CONTINUOUS
 62
     7
 10
87.816031890530056
 20
23.709441323509179
 30
0.0
  0
SEQEND
  5
CCE
  8
DATA
  6
CONTINUOUS
 62
     7
  0
POLYLINE
  5
354
  8
DATA
  6
CONTINUOUS
 62
     7
 66
     1
 10
0.0
 20
0.0
 30
0.0
  0
VERTEX
  5
CCF
  8
DATA
  6
CONTINUOUS
 62
     7
 10
87.816031890530056
 20
15.47838505762444
 30
0.0
  0
VERTEX
  5
CD0
  8
DATA
  6
CONTINUOUS
 62
     7
 10
87.816031890530056
 20
15.49165240891954
 30
0.0
  0
VERTEX
  5
CD1
  8
DATA
  6
CONTINUOUS
 62
     7
 10
87.816031890530056
 20
15.49165240891954
 30
0.0
  0
SEQEND
  5
CD2
  8
DATA
  6
CONTINUOUS
 62
     7
  0
POLYLINE
  5
359
  8
DATA
  6
CONTINUOUS
 62
     7
 66
     1
 10
0.0
 20
0.0
 30
0.0
 70
   128
  0
VERTEX
  5
CD3
  8
DATA
  6
CONTINUOUS
 62
     7
 10
86.487634557501281
 20
14.18526337725085
 30
0.0
  0
VERTEX
  5
CD4
  8
DATA
  6
CONTINUOUS
 62
     7
 10
86.623076223710981
 20
14.193995875500541
 30
0.0
  0
VERTEX
  5
CD5
  8
DATA
  6
CONTINUOUS
 62
     7
 10
86.753048207250785
 20
14.21372728307102
 30
0.0
  0
VERTEX
  5
CD6
  8
DATA
  6
CONTINUOUS
 62
     7
 10
86.877550508120734
 20
14.24445759996229
 30
0.0
  0
VERTEX
  5
CD7
  8
DATA
  6
CONTINUOUS
 62
     7
 10
86.996583126320758
 20
14.286186826174349
 30
0.0
  0
VERTEX
  5
CD8
  8
DATA
  6
CONTINUOUS
 62
     7
 10
87.110146061850912
 20
14.3389149617072
 30
0.0
  0
VERTEX
  5
CD9
  8
DATA
  6
CONTINUOUS
 62
     7
 10
87.218239314711127
 20
14.40264200656085
 30
0.0
  0
VERTEX
  5
CDA
  8
DATA
  6
CONTINUOUS
 62
     7
 10
87.320862884901473
 20
14.477367960735281
 30
0.0
  0
VERTEX
  5
CDB
  8
DATA
  6
CONTINUOUS
 62
     7
 10
87.418016772421893
 20
14.563092824230511
 30
0.0
  0
VERTEX
  5
CDC
  8
DATA
  6
CONTINUOUS
 62
     7
 10
87.418016772421893
 20
14.563092824230511
 30
0.0
  0
VERTEX
  5
CDD
  8
DATA
  6
CONTINUOUS
 62
     7
 10
87.506852424054586
 20
14.65721554376346
 30
0.0
  0
VERTEX
  5
CDE
  8
DATA
  6
CONTINUOUS
 62
     7
 10
87.584521286581861
 20
14.75713506605107
 30
0.0
  0
VERTEX
  5
CDF
  8
DATA
  6
CONTINUOUS
 62
     7
 10
87.651023360003578
 20
14.862851391093329
 30
0.0
  0
VERTEX
  5
CE0
  8
DATA
  6
CONTINUOUS
 62
     7
 10
87.706358644319863
 20
14.974364518890249
 30
0.0
  0
VERTEX
  5
CE1
  8
DATA
  6
CONTINUOUS
 62
     7
 10
87.750527139530661
 20
15.091674449441809
 30
0.0
  0
VERTEX
  5
CE2
  8
DATA
  6
CONTINUOUS
 62
     7
 10
87.783528845635928
 20
15.21478118274803
 30
0.0
  0
VERTEX
  5
CE3
  8
DATA
  6
CONTINUOUS
 62
     7
 10
87.805363762635722
 20
15.343684718808911
 30
0.0
  0
VERTEX
  5
CE4
  8
DATA
  6
CONTINUOUS
 62
     7
 10
87.816031890530056
 20
15.47838505762444
 30
0.0
  0
VERTEX
  5
CE5
  8
DATA
  6
CONTINUOUS
 62
     7
 10
87.816031890530056
 20
15.47838505762444
 30
0.0
  0
SEQEND
  5
CE6
  8
DATA
  6
CONTINUOUS
 62
     7
  0
LINE
  5
36E
  8
DATA
  6
CONTINUOUS
 62
     7
 10
86.47480016632295
 20
14.18526337725085
 30
0.0
 11
86.487634557501281
 21
14.18526337725085
 31
0.0
  0
POLYLINE
  5
36F
  8
DATA
  6
CONTINUOUS
 62
     7
 66
     1
 10
0.0
 20
0.0
 30
0.0
 70
   128
  0
VERTEX
  5
CE7
  8
DATA
  6
CONTINUOUS
 62
     7
 10
65.332237378979073
 20
14.18492427561875
 30
0.0
  0
VERTEX
  5
CE8
  8
DATA
  6
CONTINUOUS
 62
     7
 10
65.414792572584886
 20
14.18492559970611
 30
0.0
  0
VERTEX
  5
CE9
  8
DATA
  6
CONTINUOUS
 62
     7
 10
65.521945643708591
 20
14.18492731831426
 30
0.0
  0
VERTEX
  5
CEA
  8
DATA
  6
CONTINUOUS
 62
     7
 10
65.653696592350201
 20
14.18492943144318
 30
0.0
  0
VERTEX
  5
CEB
  8
DATA
  6
CONTINUOUS
 62
     7
 10
65.810045418509702
 20
14.18493193909287
 30
0.0
  0
VERTEX
  5
CEC
  8
DATA
  6
CONTINUOUS
 62
     7
 10
65.990992122187095
 20
14.184934841263329
 30
0.0
  0
VERTEX
  5
CED
  8
DATA
  6
CONTINUOUS
 62
     7
 10
66.196536703382392
 20
14.18493813795456
 30
0.0
  0
VERTEX
  5
CEE
  8
DATA
  6
CONTINUOUS
 62
     7
 10
66.426679162095567
 20
14.18494182916656
 30
0.0
  0
VERTEX
  5
CEF
  8
DATA
  6
CONTINUOUS
 62
     7
 10
66.681419498326647
 20
14.184945914899339
 30
0.0
  0
VERTEX
  5
CF0
  8
DATA
  6
CONTINUOUS
 62
     7
 10
66.681419498326647
 20
14.184945914899339
 30
0.0
  0
VERTEX
  5
CF1
  8
DATA
  6
CONTINUOUS
 62
     7
 10
66.950156765301443
 20
14.18495022512626
 30
0.0
  0
VERTEX
  5
CF2
  8
DATA
  6
CONTINUOUS
 62
     7
 10
67.222290016245779
 20
14.184954589820739
 30
0.0
  0
VERTEX
  5
CF3
  8
DATA
  6
CONTINUOUS
 62
     7
 10
67.497819251159683
 20
14.18495900898276
 30
0.0
  0
VERTEX
  5
CF4
  8
DATA
  6
CONTINUOUS
 62
     7
 10
67.776744470043141
 20
14.184963482612311
 30
0.0
  0
VERTEX
  5
CF5
  8
DATA
  6
CONTINUOUS
 62
     7
 10
68.059065672896111
 20
14.18496801070941
 30
0.0
  0
VERTEX
  5
CF6
  8
DATA
  6
CONTINUOUS
 62
     7
 10
68.344782859718649
 20
14.18497259327405
 30
0.0
  0
VERTEX
  5
CF7
  8
DATA
  6
CONTINUOUS
 62
     7
 10
68.633896030510726
 20
14.184977230306229
 30
0.0
  0
VERTEX
  5
CF8
  8
DATA
  6
CONTINUOUS
 62
     7
 10
68.926405185272358
 20
14.184981921805949
 30
0.0
  0
VERTEX
  5
CF9
  8
DATA
  6
CONTINUOUS
 62
     7
 10
68.926405185272358
 20
14.184981921805949
 30
0.0
  0
VERTEX
  5
CFA
  8
DATA
  6
CONTINUOUS
 62
     7
 10
69.224037493188234
 20
14.184986695475009
 30
0.0
  0
VERTEX
  5
CFB
  8
DATA
  6
CONTINUOUS
 62
     7
 10
69.52852012344303
 20
14.1849915790152
 30
0.0
  0
VERTEX
  5
CFC
  8
DATA
  6
CONTINUOUS
 62
     7
 10
69.839853076036775
 20
14.184996572426529
 30
0.0
  0
VERTEX
  5
CFD
  8
DATA
  6
CONTINUOUS
 62
     7
 10
70.158036350969425
 20
14.185001675708991
 30
0.0
  0
VERTEX
  5
CFE
  8
DATA
  6
CONTINUOUS
 62
     7
 10
70.483069948241038
 20
14.18500688886259
 30
0.0
  0
VERTEX
  5
CFF
  8
DATA
  6
CONTINUOUS
 62
     7
 10
70.814953867851585
 20
14.185012211887321
 30
0.0
  0
VERTEX
  5
D00
  8
DATA
  6
CONTINUOUS
 62
     7
 10
71.153688109801067
 20
14.185017644783191
 30
0.0
  0
VERTEX
  5
D01
  8
DATA
  6
CONTINUOUS
 62
     7
 10
71.499272674089454
 20
14.18502318755019
 30
0.0
  0
VERTEX
  5
D02
  8
DATA
  6
CONTINUOUS
 62
     7
 10
71.499272674089454
 20
14.18502318755019
 30
0.0
  0
VERTEX
  5
D03
  8
DATA
  6
CONTINUOUS
 62
     7
 10
71.849994552451832
 20
14.185028812713609
 30
0.0
  0
VERTEX
  5
D04
  8
DATA
  6
CONTINUOUS
 62
     7
 10
72.204140736623216
 20
14.185034492798749
 30
0.0
  0
VERTEX
  5
D05
  8
DATA
  6
CONTINUOUS
 62
     7
 10
72.561711226603578
 20
14.185040227805599
 30
0.0
  0
VERTEX
  5
D06
  8
DATA
  6
CONTINUOUS
 62
     7
 10
72.922706022392944
 20
14.185046017734161
 30
0.0
  0
VERTEX
  5
D07
  8
DATA
  6
CONTINUOUS
 62
     7
 10
73.287125123991331
 20
14.18505186258443
 30
0.0
  0
VERTEX
  5
D08
  8
DATA
  6
CONTINUOUS
 62
     7
 10
73.654968531398694
 20
14.18505776235641
 30
0.0
  0
VERTEX
  5
D09
  8
DATA
  6
CONTINUOUS
 62
     7
 10
74.026236244615063
 20
14.185063717050101
 30
0.0
  0
VERTEX
  5
D0A
  8
DATA
  6
CONTINUOUS
 62
     7
 10
74.400928263640424
 20
14.18506972666551
 30
0.0
  0
VERTEX
  5
D0B
  8
DATA
  6
CONTINUOUS
 62
     7
 10
74.400928263640424
 20
14.18506972666551
 30
0.0
  0
VERTEX
  5
D0C
  8
DATA
  6
CONTINUOUS
 62
     7
 10
74.77733244302901
 20
14.185075763741899
 30
0.0
  0
VERTEX
  5
D0D
  8
DATA
  6
CONTINUOUS
 62
     7
 10
75.153736637335143
 20
14.18508180081856
 30
0.0
  0
VERTEX
  5
D0E
  8
DATA
  6
CONTINUOUS
 62
     7
 10
75.530140846558723
 20
14.185087837895489
 30
0.0
  0
VERTEX
  5
D0F
  8
DATA
  6
CONTINUOUS
 62
     7
 10
75.906545070699792
 20
14.185093874972679
 30
0.0
  0
VERTEX
  5
D10
  8
DATA
  6
CONTINUOUS
 62
     7
 10
76.282949309758351
 20
14.18509991205015
 30
0.0
  0
VERTEX
  5
D11
  8
DATA
  6
CONTINUOUS
 62
     7
 10
76.659353563734413
 20
14.18510594912787
 30
0.0
  0
VERTEX
  5
D12
  8
DATA
  6
CONTINUOUS
 62
     7
 10
77.035757832627951
 20
14.185111986205859
 30
0.0
  0
VERTEX
  5
D13
  8
DATA
  6
CONTINUOUS
 62
     7
 10
77.412162116438978
 20
14.185118023284121
 30
0.0
  0
VERTEX
  5
D14
  8
DATA
  6
CONTINUOUS
 62
     7
 10
77.412162116438978
 20
14.185118023284121
 30
0.0
  0
VERTEX
  5
D15
  8
DATA
  6
CONTINUOUS
 62
     7
 10
77.786854181030222
 20
14.18512403290042
 30
0.0
  0
VERTEX
  5
D16
  8
DATA
  6
CONTINUOUS
 62
     7
 10
78.158121792264424
 20
14.185129987592511
 30
0.0
  0
VERTEX
  5
D17
  8
DATA
  6
CONTINUOUS
 62
     7
 10
78.525964950141542
 20
14.18513588736041
 30
0.0
  0
VERTEX
  5
D18
  8
DATA
  6
CONTINUOUS
 62
     7
 10
78.890383654661633
 20
14.18514173220411
 30
0.0
  0
VERTEX
  5
D19
  8
DATA
  6
CONTINUOUS
 62
     7
 10
79.251377905824626
 20
14.185147522123611
 30
0.0
  0
VERTEX
  5
D1A
  8
DATA
  6
CONTINUOUS
 62
     7
 10
79.608947703630577
 20
14.185153257118911
 30
0.0
  0
VERTEX
  5
D1B
  8
DATA
  6
CONTINUOUS
 62
     7
 10
79.963093048079429
 20
14.18515893719001
 30
0.0
  0
VERTEX
  5
D1C
  8
DATA
  6
CONTINUOUS
 62
     7
 10
80.313813939171268
 20
14.18516456233691
 30
0.0
  0
VERTEX
  5
D1D
  8
DATA
  6
CONTINUOUS
 62
     7
 10
80.313813939171268
 20
14.18516456233691
 30
0.0
  0
VERTEX
  5
D1E
  8
DATA
  6
CONTINUOUS
 62
     7
 10
80.659398144627488
 20
14.1851701050975
 30
0.0
  0
VERTEX
  5
D1F
  8
DATA
  6
CONTINUOUS
 62
     7
 10
80.998133432169624
 20
14.18517553800964
 30
0.0
  0
VERTEX
  5
D20
  8
DATA
  6
CONTINUOUS
 62
     7
 10
81.330019801797633
 20
14.18518086107334
 30
0.0
  0
VERTEX
  5
D21
  8
DATA
  6
CONTINUOUS
 62
     7
 10
81.655057253511515
 20
14.1851860742886
 30
0.0
  0
VERTEX
  5
D22
  8
DATA
  6
CONTINUOUS
 62
     7
 10
81.973245787311313
 20
14.185191177655421
 30
0.0
  0
VERTEX
  5
D23
  8
DATA
  6
CONTINUOUS
 62
     7
 10
82.284585403196942
 20
14.185196171173789
 30
0.0
  0
VERTEX
  5
D24
  8
DATA
  6
CONTINUOUS
 62
     7
 10
82.589076101168502
 20
14.185201054843731
 30
0.0
  0
VERTEX
  5
D25
  8
DATA
  6
CONTINUOUS
 62
     7
 10
82.886717881225934
 20
14.18520582866522
 30
0.0
  0
VERTEX
  5
D26
  8
DATA
  6
CONTINUOUS
 62
     7
 10
82.886717881225934
 20
14.18520582866522
 30
0.0
  0
VERTEX
  5
D27
  8
DATA
  6
CONTINUOUS
 62
     7
 10
83.179302936276642
 20
14.18521052138286
 30
0.0
  0
VERTEX
  5
D28
  8
DATA
  6
CONTINUOUS
 62
     7
 10
83.468623459227913
 20
14.185215161741221
 30
0.0
  0
VERTEX
  5
D29
  8
DATA
  6
CONTINUOUS
 62
     7
 10
83.754679450079863
 20
14.18521974974032
 30
0.0
  0
VERTEX
  5
D2A
  8
DATA
  6
CONTINUOUS
 62
     7
 10
84.037470908832432
 20
14.18522428538013
 30
0.0
  0
VERTEX
  5
D2B
  8
DATA
  6
CONTINUOUS
 62
     7
 10
84.316997835485566
 20
14.18522876866068
 30
0.0
  0
VERTEX
  5
D2C
  8
DATA
  6
CONTINUOUS
 62
     7
 10
84.593260230039391
 20
14.185233199581949
 30
0.0
  0
VERTEX
  5
D2D
  8
DATA
  6
CONTINUOUS
 62
     7
 10
84.866258092493794
 20
14.18523757814396
 30
0.0
  0
VERTEX
  5
D2E
  8
DATA
  6
CONTINUOUS
 62
     7
 10
85.135991422848875
 20
14.18524190434669
 30
0.0
  0
VERTEX
  5
D2F
  8
DATA
  6
CONTINUOUS
 62
     7
 10
85.135991422848875
 20
14.18524190434669
 30
0.0
  0
VERTEX
  5
D30
  8
DATA
  6
CONTINUOUS
 62
     7
 10
85.391498740732828
 20
14.185246002381019
 30
0.0
  0
VERTEX
  5
D31
  8
DATA
  6
CONTINUOUS
 62
     7
 10
85.621818565774007
 20
14.18524969643784
 30
0.0
  0
VERTEX
  5
D32
  8
DATA
  6
CONTINUOUS
 62
     7
 10
85.826950897972466
 20
14.18525298651714
 30
0.0
  0
VERTEX
  5
D33
  8
DATA
  6
CONTINUOUS
 62
     7
 10
86.006895737328094
 20
14.18525587261891
 30
0.0
  0
VERTEX
  5
D34
  8
DATA
  6
CONTINUOUS
 62
     7
 10
86.161653083840946
 20
14.18525835474318
 30
0.0
  0
VERTEX
  5
D35
  8
DATA
  6
CONTINUOUS
 62
     7
 10
86.291222937511066
 20
14.185260432889921
 30
0.0
  0
VERTEX
  5
D36
  8
DATA
  6
CONTINUOUS
 62
     7
 10
86.395605298338381
 20
14.185262107059151
 30
0.0
  0
VERTEX
  5
D37
  8
DATA
  6
CONTINUOUS
 62
     7
 10
86.47480016632295
 20
14.18526337725085
 30
0.0
  0
VERTEX
  5
D38
  8
DATA
  6
CONTINUOUS
 62
     7
 10
86.47480016632295
 20
14.18526337725085
 30
0.0
  0
SEQEND
  5
D39
  8
DATA
  6
CONTINUOUS
 62
     7
  0
POLYLINE
  5
3C3
  8
DATA
  6
CONTINUOUS
 62
     7
 66
     1
 10
0.0
 20
0.0
 30
0.0
  0
VERTEX
  5
D3A
  8
DATA
  6
CONTINUOUS
 62
     7
 10
65.305781396411064
 20
14.18492427561875
 30
0.0
  0
VERTEX
  5
D3B
  8
DATA
  6
CONTINUOUS
 62
     7
 10
65.332237378979073
 20
14.18492427561875
 30
0.0
  0
VERTEX
  5
D3C
  8
DATA
  6
CONTINUOUS
 62
     7
 10
65.332237378979073
 20
14.18492427561875
 30
0.0
  0
SEQEND
  5
D3D
  8
DATA
  6
CONTINUOUS
 62
     7
  0
POLYLINE
  5
3C8
  8
DATA
  6
CONTINUOUS
 62
     7
 66
     1
 10
0.0
 20
0.0
 30
0.0
 70
   128
  0
VERTEX
  5
D3E
  8
DATA
  6
CONTINUOUS
 62
     7
 10
63.990920879365319
 20
15.46538414332519
 30
0.0
  0
VERTEX
  5
D3F
  8
DATA
  6
CONTINUOUS
 62
     7
 10
64.011152414734994
 20
15.29272751661394
 30
0.0
  0
VERTEX
  5
D40
  8
DATA
  6
CONTINUOUS
 62
     7
 10
64.043034933108942
 20
15.13402479283689
 30
0.0
  0
VERTEX
  5
D41
  8
DATA
  6
CONTINUOUS
 62
     7
 10
64.086568434487177
 20
14.98927597199404
 30
0.0
  0
VERTEX
  5
D42
  8
DATA
  6
CONTINUOUS
 62
     7
 10
64.141752918869685
 20
14.858481054085379
 30
0.0
  0
VERTEX
  5
D43
  8
DATA
  6
CONTINUOUS
 62
     7
 10
64.208588386256466
 20
14.74164003911091
 30
0.0
  0
VERTEX
  5
D44
  8
DATA
  6
CONTINUOUS
 62
     7
 10
64.287074836647577
 20
14.638752927070639
 30
0.0
  0
VERTEX
  5
D45
  8
DATA
  6
CONTINUOUS
 62
     7
 10
64.377212270042961
 20
14.54981971796456
 30
0.0
  0
VERTEX
  5
D46
  8
DATA
  6
CONTINUOUS
 62
     7
 10
64.479000686442575
 20
14.47484041179268
 30
0.0
  0
VERTEX
  5
D47
  8
DATA
  6
CONTINUOUS
 62
     7
 10
64.479000686442575
 20
14.47484041179268
 30
0.0
  0
VERTEX
  5
D48
  8
DATA
  6
CONTINUOUS
 62
     7
 10
64.58608130444992
 20
14.41080841179827
 30
0.0
  0
VERTEX
  5
D49
  8
DATA
  6
CONTINUOUS
 62
     7
 10
64.692095342668296
 20
14.354717121224621
 30
0.0
  0
VERTEX
  5
D4A
  8
DATA
  6
CONTINUOUS
 62
     7
 10
64.797042801097774
 20
14.30656654007174
 30
0.0
  0
VERTEX
  5
D4B
  8
DATA
  6
CONTINUOUS
 62
     7
 10
64.900923679738284
 20
14.266356668339609
 30
0.0
  0
VERTEX
  5
D4C
  8
DATA
  6
CONTINUOUS
 62
     7
 10
65.003737978589896
 20
14.23408750602826
 30
0.0
  0
VERTEX
  5
D4D
  8
DATA
  6
CONTINUOUS
 62
     7
 10
65.105485697652554
 20
14.20975905313766
 30
0.0
  0
VERTEX
  5
D4E
  8
DATA
  6
CONTINUOUS
 62
     7
 10
65.206166836926286
 20
14.193371309667819
 30
0.0
  0
VERTEX
  5
D4F
  8
DATA
  6
CONTINUOUS
 62
     7
 10
65.305781396411064
 20
14.18492427561875
 30
0.0
  0
VERTEX
  5
D50
  8
DATA
  6
CONTINUOUS
 62
     7
 10
65.305781396411064
 20
14.18492427561875
 30
0.0
  0
SEQEND
  5
D51
  8
DATA
  6
CONTINUOUS
 62
     7
  0
LINE
  5
3DD
  8
DATA
  6
CONTINUOUS
 62
     7
 10
63.990920879365319
 20
15.491143756471381
 30
0.0
 11
63.990920879365319
 21
15.46538414332519
 31
0.0
  0
POLYLINE
  5
3DE
  8
DATA
  6
CONTINUOUS
 62
     7
 66
     1
 10
0.0
 20
0.0
 30
0.0
 70
   128
  0
VERTEX
  5
D52
  8
DATA
  6
CONTINUOUS
 62
     7
 10
63.990666553142603
 20
23.709102221877082
 30
0.0
  0
VERTEX
  5
D53
  8
DATA
  6
CONTINUOUS
 62
     7
 10
63.990668635878379
 20
23.641803477112891
 30
0.0
  0
VERTEX
  5
D54
  8
DATA
  6
CONTINUOUS
 62
     7
 10
63.990671534263221
 20
23.548148934881361
 30
0.0
  0
VERTEX
  5
D55
  8
DATA
  6
CONTINUOUS
 62
     7
 10
63.990675248297173
 20
23.428138595182471
 30
0.0
  0
VERTEX
  5
D56
  8
DATA
  6
CONTINUOUS
 62
     7
 10
63.990679777980191
 20
23.281772458016238
 30
0.0
  0
VERTEX
  5
D57
  8
DATA
  6
CONTINUOUS
 62
     7
 10
63.990685123312289
 20
23.109050523382649
 30
0.0
  0
VERTEX
  5
D58
  8
DATA
  6
CONTINUOUS
 62
     7
 10
63.990691284293483
 20
22.909972791281731
 30
0.0
  0
VERTEX
  5
D59
  8
DATA
  6
CONTINUOUS
 62
     7
 10
63.99069826092375
 20
22.68453926171345
 30
0.0
  0
VERTEX
  5
D5A
  8
DATA
  6
CONTINUOUS
 62
     7
 10
63.990706053203112
 20
22.43274993467784
 30
0.0
  0
VERTEX
  5
D5B
  8
DATA
  6
CONTINUOUS
 62
     7
 10
63.990706053203112
 20
22.43274993467784
 30
0.0
  0
VERTEX
  5
D5C
  8
DATA
  6
CONTINUOUS
 62
     7
 10
63.9907143169318
 20
22.165726821861671
 30
0.0
  0
VERTEX
  5
D5D
  8
DATA
  6
CONTINUOUS
 62
     7
 10
63.990722707910102
 20
21.894591934951759
 30
0.0
  0
VERTEX
  5
D5E
  8
DATA
  6
CONTINUOUS
 62
     7
 10
63.990731226138017
 20
21.61934527394811
 30
0.0
  0
VERTEX
  5
D5F
  8
DATA
  6
CONTINUOUS
 62
     7
 10
63.990739871615538
 20
21.339986838850731
 30
0.0
  0
VERTEX
  5
D60
  8
DATA
  6
CONTINUOUS
 62
     7
 10
63.990748644342681
 20
21.056516629659601
 30
0.0
  0
VERTEX
  5
D61
  8
DATA
  6
CONTINUOUS
 62
     7
 10
63.990757544319429
 20
20.768934646374731
 30
0.0
  0
VERTEX
  5
D62
  8
DATA
  6
CONTINUOUS
 62
     7
 10
63.990766571545791
 20
20.477240888996121
 30
0.0
  0
VERTEX
  5
D63
  8
DATA
  6
CONTINUOUS
 62
     7
 10
63.990775726021738
 20
20.181435357523771
 30
0.0
  0
VERTEX
  5
D64
  8
DATA
  6
CONTINUOUS
 62
     7
 10
63.990775726021738
 20
20.181435357523771
 30
0.0
  0
VERTEX
  5
D65
  8
DATA
  6
CONTINUOUS
 62
     7
 10
63.990784903657769
 20
19.88488146327585
 30
0.0
  0
VERTEX
  5
D66
  8
DATA
  6
CONTINUOUS
 62
     7
 10
63.990794000364282
 20
19.59094261757053
 30
0.0
  0
VERTEX
  5
D67
  8
DATA
  6
CONTINUOUS
 62
     7
 10
63.990803016141271
 20
19.299618820407812
 30
0.0
  0
VERTEX
  5
D68
  8
DATA
  6
CONTINUOUS
 62
     7
 10
63.990811950988771
 20
19.010910071787681
 30
0.0
  0
VERTEX
  5
D69
  8
DATA
  6
CONTINUOUS
 62
     7
 10
63.990820804906747
 20
18.724816371710158
 30
0.0
  0
VERTEX
  5
D6A
  8
DATA
  6
CONTINUOUS
 62
     7
 10
63.990829577895219
 20
18.44133772017523
 30
0.0
  0
VERTEX
  5
D6B
  8
DATA
  6
CONTINUOUS
 62
     7
 10
63.990838269954203
 20
18.16047411718289
 30
0.0
  0
VERTEX
  5
D6C
  8
DATA
  6
CONTINUOUS
 62
     7
 10
63.990846881083662
 20
17.882225562733161
 30
0.0
  0
VERTEX
  5
D6D
  8
DATA
  6
CONTINUOUS
 62
     7
 10
63.990846881083662
 20
17.882225562733161
 30
0.0
  0
VERTEX
  5
D6E
  8
DATA
  6
CONTINUOUS
 62
     7
 10
63.990855201308527
 20
17.613376910988791
 30
0.0
  0
VERTEX
  5
D6F
  8
DATA
  6
CONTINUOUS
 62
     7
 10
63.990863020653769
 20
17.360713016112548
 30
0.0
  0
VERTEX
  5
D70
  8
DATA
  6
CONTINUOUS
 62
     7
 10
63.990870339119361
 20
17.124233878104452
 30
0.0
  0
VERTEX
  5
D71
  8
DATA
  6
CONTINUOUS
 62
     7
 10
63.990877156705288
 20
16.903939496964469
 30
0.0
  0
VERTEX
  5
D72
  8
DATA
  6
CONTINUOUS
 62
     7
 10
63.9908834734116
 20
16.699829872692622
 30
0.0
  0
VERTEX
  5
D73
  8
DATA
  6
CONTINUOUS
 62
     7
 10
63.990889289238233
 20
16.511905005288909
 30
0.0
  0
VERTEX
  5
D74
  8
DATA
  6
CONTINUOUS
 62
     7
 10
63.990894604185222
 20
16.340164894753329
 30
0.0
  0
VERTEX
  5
D75
  8
DATA
  6
CONTINUOUS
 62
     7
 10
63.990899418252582
 20
16.18460954108588
 30
0.0
  0
VERTEX
  5
D76
  8
DATA
  6
CONTINUOUS
 62
     7
 10
63.990899418252582
 20
16.18460954108588
 30
0.0
  0
VERTEX
  5
D77
  8
DATA
  6
CONTINUOUS
 62
     7
 10
63.990903746756558
 20
16.044744034872071
 30
0.0
  0
VERTEX
  5
D78
  8
DATA
  6
CONTINUOUS
 62
     7
 10
63.990907605013419
 20
15.920073466697399
 30
0.0
  0
VERTEX
  5
D79
  8
DATA
  6
CONTINUOUS
 62
     7
 10
63.990910993023171
 20
15.81059783656187
 30
0.0
  0
VERTEX
  5
D7A
  8
DATA
  6
CONTINUOUS
 62
     7
 10
63.990913910785821
 20
15.71631714446549
 30
0.0
  0
VERTEX
  5
D7B
  8
DATA
  6
CONTINUOUS
 62
     7
 10
63.990916358301362
 20
15.63723139040825
 30
0.0
  0
VERTEX
  5
D7C
  8
DATA
  6
CONTINUOUS
 62
     7
 10
63.990918335569781
 20
15.57334057439015
 30
0.0
  0
VERTEX
  5
D7D
  8
DATA
  6
CONTINUOUS
 62
     7
 10
63.990919842591111
 20
15.52464469641119
 30
0.0
  0
VERTEX
  5
D7E
  8
DATA
  6
CONTINUOUS
 62
     7
 10
63.990920879365319
 20
15.491143756471381
 30
0.0
  0
VERTEX
  5
D7F
  8
DATA
  6
CONTINUOUS
 62
     7
 10
63.990920879365319
 20
15.491143756471381
 30
0.0
  0
SEQEND
  5
D80
  8
DATA
  6
CONTINUOUS
 62
     7
  0
POLYLINE
  5
40E
  8
DATA
  6
CONTINUOUS
 62
     7
 66
     1
 10
0.0
 20
0.0
 30
0.0
  0
VERTEX
  5
D81
  8
DATA
  6
CONTINUOUS
 62
     7
 10
63.990666553142603
 20
23.721533929869349
 30
0.0
  0
VERTEX
  5
D82
  8
DATA
  6
CONTINUOUS
 62
     7
 10
63.990666553142603
 20
23.709102221877082
 30
0.0
  0
VERTEX
  5
D83
  8
DATA
  6
CONTINUOUS
 62
     7
 10
63.990666553142603
 20
23.709102221877082
 30
0.0
  0
SEQEND
  5
D84
  8
DATA
  6
CONTINUOUS
 62
     7
  0
POLYLINE
  5
413
  8
DATA
  6
CONTINUOUS
 62
     7
 66
     1
 10
0.0
 20
0.0
 30
0.0
 70
   128
  0
VERTEX
  5
D85
  8
DATA
  6
CONTINUOUS
 62
     7
 10
64.360278247354955
 20
24.608569296892611
 30
0.0
  0
VERTEX
  5
D86
  8
DATA
  6
CONTINUOUS
 62
     7
 10
64.277717437747981
 20
24.51342107892884
 30
0.0
  0
VERTEX
  5
D87
  8
DATA
  6
CONTINUOUS
 62
     7
 10
64.205545013235394
 20
24.413778231561029
 30
0.0
  0
VERTEX
  5
D88
  8
DATA
  6
CONTINUOUS
 62
     7
 10
64.143760973817209
 20
24.309640754789189
 30
0.0
  0
VERTEX
  5
D89
  8
DATA
  6
CONTINUOUS
 62
     7
 10
64.092365319493453
 20
24.2010086486133
 30
0.0
  0
VERTEX
  5
D8A
  8
DATA
  6
CONTINUOUS
 62
     7
 10
64.051358050264128
 20
24.087881913033371
 30
0.0
  0
VERTEX
  5
D8B
  8
DATA
  6
CONTINUOUS
 62
     7
 10
64.020739166129204
 20
23.97026054804941
 30
0.0
  0
VERTEX
  5
D8C
  8
DATA
  6
CONTINUOUS
 62
     7
 10
64.000508667088695
 20
23.848144553661399
 30
0.0
  0
VERTEX
  5
D8D
  8
DATA
  6
CONTINUOUS
 62
     7
 10
63.990666553142603
 20
23.721533929869349
 30
0.0
  0
VERTEX
  5
D8E
  8
DATA
  6
CONTINUOUS
 62
     7
 10
63.990666553142603
 20
23.721533929869349
 30
0.0
  0
SEQEND
  5
D8F
  8
DATA
  6
CONTINUOUS
 62
     7
  0
LINE
  5
41F
  8
DATA
  6
CONTINUOUS
 62
     7
 10
64.368680095790822
 20
24.617216388471562
 30
0.0
 11
64.360278247354955
 21
24.608569296892611
 31
0.0
  0
POLYLINE
  5
420
  8
DATA
  6
CONTINUOUS
 62
     7
 66
     1
 10
0.0
 20
0.0
 30
0.0
 70
   128
  0
VERTEX
  5
D90
  8
DATA
  6
CONTINUOUS
 62
     7
 10
68.911794190995522
 20
29.398040726689381
 30
0.0
  0
VERTEX
  5
D91
  8
DATA
  6
CONTINUOUS
 62
     7
 10
68.874507579630489
 20
29.358803160700411
 30
0.0
  0
VERTEX
  5
D92
  8
DATA
  6
CONTINUOUS
 62
     7
 10
68.822660747534343
 20
29.304243536717362
 30
0.0
  0
VERTEX
  5
D93
  8
DATA
  6
CONTINUOUS
 62
     7
 10
68.756253694707112
 20
29.23436185474019
 30
0.0
  0
VERTEX
  5
D94
  8
DATA
  6
CONTINUOUS
 62
     7
 10
68.675286421148783
 20
29.149158114768909
 30
0.0
  0
VERTEX
  5
D95
  8
DATA
  6
CONTINUOUS
 62
     7
 10
68.57975892685937
 20
29.048632316803531
 30
0.0
  0
VERTEX
  5
D96
  8
DATA
  6
CONTINUOUS
 62
     7
 10
68.469671211838815
 20
28.932784460844051
 30
0.0
  0
VERTEX
  5
D97
  8
DATA
  6
CONTINUOUS
 62
     7
 10
68.345023276087218
 20
28.801614546890459
 30
0.0
  0
VERTEX
  5
D98
  8
DATA
  6
CONTINUOUS
 62
     7
 10
68.205815119604509
 20
28.655122574942769
 30
0.0
  0
VERTEX
  5
D99
  8
DATA
  6
CONTINUOUS
 62
     7
 10
68.205815119604509
 20
28.655122574942769
 30
0.0
  0
VERTEX
  5
D9A
  8
DATA
  6
CONTINUOUS
 62
     7
 10
68.058191049991024
 20
28.4997743424037
 30
0.0
  0
VERTEX
  5
D9B
  8
DATA
  6
CONTINUOUS
 62
     7
 10
67.908295374847171
 20
28.342035646675999
 30
0.0
  0
VERTEX
  5
D9C
  8
DATA
  6
CONTINUOUS
 62
     7
 10
67.756128094172936
 20
28.181906487759651
 30
0.0
  0
VERTEX
  5
D9D
  8
DATA
  6
CONTINUOUS
 62
     7
 10
67.601689207968306
 20
28.019386865654671
 30
0.0
  0
VERTEX
  5
D9E
  8
DATA
  6
CONTINUOUS
 62
     7
 10
67.44497871623328
 20
27.85447678036105
 30
0.0
  0
VERTEX
  5
D9F
  8
DATA
  6
CONTINUOUS
 62
     7
 10
67.285996618967872
 20
27.68717623187878
 30
0.0
  0
VERTEX
  5
DA0
  8
DATA
  6
CONTINUOUS
 62
     7
 10
67.124742916172067
 20
27.517485220207881
 30
0.0
  0
VERTEX
  5
DA1
  8
DATA
  6
CONTINUOUS
 62
     7
 10
66.961217607845853
 20
27.345403745348332
 30
0.0
  0
VERTEX
  5
DA2
  8
DATA
  6
CONTINUOUS
 62
     7
 10
66.961217607845853
 20
27.345403745348332
 30
0.0
  0
VERTEX
  5
DA3
  8
DATA
  6
CONTINUOUS
 62
     7
 10
66.79727759155378
 20
27.172885863677241
 30
0.0
  0
VERTEX
  5
DA4
  8
DATA
  6
CONTINUOUS
 62
     7
 10
66.634779764860298
 20
27.001885631571671
 30
0.0
  0
VERTEX
  5
DA5
  8
DATA
  6
CONTINUOUS
 62
     7
 10
66.473724127765436
 20
26.83240304903164
 30
0.0
  0
VERTEX
  5
DA6
  8
DATA
  6
CONTINUOUS
 62
     7
 10
66.314110680269181
 20
26.664438116057131
 30
0.0
  0
VERTEX
  5
DA7
  8
DATA
  6
CONTINUOUS
 62
     7
 10
66.155939422371532
 20
26.497990832648149
 30
0.0
  0
VERTEX
  5
DA8
  8
DATA
  6
CONTINUOUS
 62
     7
 10
65.999210354072474
 20
26.33306119880471
 30
0.0
  0
VERTEX
  5
DA9
  8
DATA
  6
CONTINUOUS
 62
     7
 10
65.843923475372065
 20
26.169649214526789
 30
0.0
  0
VERTEX
  5
DAA
  8
DATA
  6
CONTINUOUS
 62
     7
 10
65.690078786270249
 20
26.00775487981441
 30
0.0
  0
VERTEX
  5
DAB
  8
DATA
  6
CONTINUOUS
 62
     7
 10
65.690078786270249
 20
26.00775487981441
 30
0.0
  0
VERTEX
  5
DAC
  8
DATA
  6
CONTINUOUS
 62
     7
 10
65.541434328215558
 20
25.851332868850299
 30
0.0
  0
VERTEX
  5
DAD
  8
DATA
  6
CONTINUOUS
 62
     7
 10
65.401748142656487
 20
25.704337855817212
 30
0.0
  0
VERTEX
  5
DAE
  8
DATA
  6
CONTINUOUS
 62
     7
 10
65.271020229593034
 20
25.566769840715171
 30
0.0
  0
VERTEX
  5
DAF
  8
DATA
  6
CONTINUOUS
 62
     7
 10
65.149250589025243
 20
25.43862882354415
 30
0.0
  0
VERTEX
  5
DB0
  8
DATA
  6
CONTINUOUS
 62
     7
 10
65.036439220953071
 20
25.319914804304151
 30
0.0
  0
VERTEX
  5
DB1
  8
DATA
  6
CONTINUOUS
 62
     7
 10
64.932586125376531
 20
25.210627782995179
 30
0.0
  0
VERTEX
  5
DB2
  8
DATA
  6
CONTINUOUS
 62
     7
 10
64.837691302295624
 20
25.110767759617239
 30
0.0
  0
VERTEX
  5
DB3
  8
DATA
  6
CONTINUOUS
 62
     7
 10
64.751754751710351
 20
25.02033473417033
 30
0.0
  0
VERTEX
  5
DB4
  8
DATA
  6
CONTINUOUS
 62
     7
 10
64.751754751710351
 20
25.02033473417033
 30
0.0
  0
VERTEX
  5
DB5
  8
DATA
  6
CONTINUOUS
 62
     7
 10
64.674493972666312
 20
24.939031424347569
 30
0.0
  0
VERTEX
  5
DB6
  8
DATA
  6
CONTINUOUS
 62
     7
 10
64.60562646420918
 20
24.86656054784207
 30
0.0
  0
VERTEX
  5
DB7
  8
DATA
  6
CONTINUOUS
 62
     7
 10
64.545152226338899
 20
24.802922104653831
 30
0.0
  0
VERTEX
  5
DB8
  8
DATA
  6
CONTINUOUS
 62
     7
 10
64.493071259055526
 20
24.748116094782851
 30
0.0
  0
VERTEX
  5
DB9
  8
DATA
  6
CONTINUOUS
 62
     7
 10
64.449383562359031
 20
24.702142518229131
 30
0.0
  0
VERTEX
  5
DBA
  8
DATA
  6
CONTINUOUS
 62
     7
 10
64.414089136249402
 20
24.665001374992681
 30
0.0
  0
VERTEX
  5
DBB
  8
DATA
  6
CONTINUOUS
 62
     7
 10
64.387187980726651
 20
24.63669266507349
 30
0.0
  0
VERTEX
  5
DBC
  8
DATA
  6
CONTINUOUS
 62
     7
 10
64.368680095790822
 20
24.617216388471562
 30
0.0
  0
VERTEX
  5
DBD
  8
DATA
  6
CONTINUOUS
 62
     7
 10
64.368680095790822
 20
24.617216388471562
 30
0.0
  0
SEQEND
  5
DBE
  8
DATA
  6
CONTINUOUS
 62
     7
  0
POLYLINE
  5
450
  8
DATA
  6
CONTINUOUS
 62
     7
 66
     1
 10
0.0
 20
0.0
 30
0.0
  0
VERTEX
  5
DBF
  8
DATA
  6
CONTINUOUS
 62
     7
 10
68.91716834630148
 20
29.40356929434461
 30
0.0
  0
VERTEX
  5
DC0
  8
DATA
  6
CONTINUOUS
 62
     7
 10
68.911794190995522
 20
29.398040726689381
 30
0.0
  0
VERTEX
  5
DC1
  8
DATA
  6
CONTINUOUS
 62
     7
 10
68.911794190995522
 20
29.398040726689381
 30
0.0
  0
SEQEND
  5
DC2
  8
DATA
  6
CONTINUOUS
 62
     7
  0
POLYLINE
  5
455
  8
DATA
  6
CONTINUOUS
 62
     7
 66
     1
 10
0.0
 20
0.0
 30
0.0
 70
   128
  0
VERTEX
  5
DC3
  8
DATA
  6
CONTINUOUS
 62
     7
 10
70.040221475878127
 20
29.863288163795009
 30
0.0
  0
VERTEX
  5
DC4
  8
DATA
  6
CONTINUOUS
 62
     7
 10
69.968462502906462
 20
29.863545704982752
 30
0.0
  0
VERTEX
  5
DC5
  8
DATA
  6
CONTINUOUS
 62
     7
 10
69.896061544632673
 20
29.859730197651
 30
0.0
  0
VERTEX
  5
DC6
  8
DATA
  6
CONTINUOUS
 62
     7
 10
69.823018601056773
 20
29.851841641799759
 30
0.0
  0
VERTEX
  5
DC7
  8
DATA
  6
CONTINUOUS
 62
     7
 10
69.74933367217875
 20
29.839880037429051
 30
0.0
  0
VERTEX
  5
DC8
  8
DATA
  6
CONTINUOUS
 62
     7
 10
69.675006757998574
 20
29.823845384538849
 30
0.0
  0
VERTEX
  5
DC9
  8
DATA
  6
CONTINUOUS
 62
     7
 10
69.600037858516316
 20
29.803737683129171
 30
0.0
  0
VERTEX
  5
DCA
  8
DATA
  6
CONTINUOUS
 62
     7
 10
69.524426973731934
 20
29.77955693320002
 30
0.0
  0
VERTEX
  5
DCB
  8
DATA
  6
CONTINUOUS
 62
     7
 10
69.448174103645442
 20
29.751303134751371
 30
0.0
  0
VERTEX
  5
DCC
  8
DATA
  6
CONTINUOUS
 62
     7
 10
69.448174103645442
 20
29.751303134751371
 30
0.0
  0
VERTEX
  5
DCD
  8
DATA
  6
CONTINUOUS
 62
     7
 10
69.372875008791567
 20
29.719365761125179
 30
0.0
  0
VERTEX
  5
DCE
  8
DATA
  6
CONTINUOUS
 62
     7
 10
69.300125449705092
 20
29.684134285663369
 30
0.0
  0
VERTEX
  5
DCF
  8
DATA
  6
CONTINUOUS
 62
     7
 10
69.229925426386018
 20
29.645608708365948
 30
0.0
  0
VERTEX
  5
DD0
  8
DATA
  6
CONTINUOUS
 62
     7
 10
69.162274938834315
 20
29.603789029232921
 30
0.0
  0
VERTEX
  5
DD1
  8
DATA
  6
CONTINUOUS
 62
     7
 10
69.097173987050013
 20
29.558675248264251
 30
0.0
  0
VERTEX
  5
DD2
  8
DATA
  6
CONTINUOUS
 62
     7
 10
69.034622571033125
 20
29.510267365459988
 30
0.0
  0
VERTEX
  5
DD3
  8
DATA
  6
CONTINUOUS
 62
     7
 10
68.97462069078361
 20
29.458565380820112
 30
0.0
  0
VERTEX
  5
DD4
  8
DATA
  6
CONTINUOUS
 62
     7
 10
68.91716834630148
 20
29.40356929434461
 30
0.0
  0
VERTEX
  5
DD5
  8
DATA
  6
CONTINUOUS
 62
     7
 10
68.91716834630148
 20
29.40356929434461
 30
0.0
  0
SEQEND
  5
DD6
  8
DATA
  6
CONTINUOUS
 62
     7
  0
LINE
  5
46A
  8
DATA
  6
CONTINUOUS
 62
     7
 10
70.047615102501425
 20
29.863288163795009
 30
0.0
 11
70.040221475878127
 21
29.863288163795009
 31
0.0
  0
POLYLINE
  5
46B
  8
DATA
  6
CONTINUOUS
 62
     7
 66
     1
 10
0.0
 20
0.0
 30
0.0
 70
   128
  0
VERTEX
  5
DD7
  8
DATA
  6
CONTINUOUS
 62
     7
 10
81.758829014948603
 20
29.863457714611069
 30
0.0
  0
VERTEX
  5
DD8
  8
DATA
  6
CONTINUOUS
 62
     7
 10
81.713100332876351
 20
29.863457052566741
 30
0.0
  0
VERTEX
  5
DD9
  8
DATA
  6
CONTINUOUS
 62
     7
 10
81.653746481126078
 20
29.863456193262149
 30
0.0
  0
VERTEX
  5
DDA
  8
DATA
  6
CONTINUOUS
 62
     7
 10
81.580767459697839
 20
29.863455136697318
 30
0.0
  0
VERTEX
  5
DDB
  8
DATA
  6
CONTINUOUS
 62
     7
 10
81.494163268591578
 20
29.863453882872228
 30
0.0
  0
VERTEX
  5
DDC
  8
DATA
  6
CONTINUOUS
 62
     7
 10
81.393933907807366
 20
29.863452431786889
 30
0.0
  0
VERTEX
  5
DDD
  8
DATA
  6
CONTINUOUS
 62
     7
 10
81.280079377345118
 20
29.863450783441291
 30
0.0
  0
VERTEX
  5
DDE
  8
DATA
  6
CONTINUOUS
 62
     7
 10
81.152599677204861
 20
29.86344893783545
 30
0.0
  0
VERTEX
  5
DDF
  8
DATA
  6
CONTINUOUS
 62
     7
 10
81.011494807386597
 20
29.86344689496935
 30
0.0
  0
VERTEX
  5
DE0
  8
DATA
  6
CONTINUOUS
 62
     7
 10
81.011494807386597
 20
29.86344689496935
 30
0.0
  0
VERTEX
  5
DE1
  8
DATA
  6
CONTINUOUS
 62
     7
 10
80.862636806989684
 20
29.863444739856192
 30
0.0
  0
VERTEX
  5
DE2
  8
DATA
  6
CONTINUOUS
 62
     7
 10
80.711897715113494
 20
29.863442557509181
 30
0.0
  0
VERTEX
  5
DE3
  8
DATA
  6
CONTINUOUS
 62
     7
 10
80.559277531757942
 20
29.863440347928311
 30
0.0
  0
VERTEX
  5
DE4
  8
DATA
  6
CONTINUOUS
 62
     7
 10
80.404776256923071
 20
29.86343811111357
 30
0.0
  0
VERTEX
  5
DE5
  8
DATA
  6
CONTINUOUS
 62
     7
 10
80.248393890608895
 20
29.863435847064981
 30
0.0
  0
VERTEX
  5
DE6
  8
DATA
  6
CONTINUOUS
 62
     7
 10
80.090130432815414
 20
29.863433555782532
 30
0.0
  0
VERTEX
  5
DE7
  8
DATA
  6
CONTINUOUS
 62
     7
 10
79.929985883542614
 20
29.863431237266209
 30
0.0
  0
VERTEX
  5
DE8
  8
DATA
  6
CONTINUOUS
 62
     7
 10
79.76796024279048
 20
29.863428891516051
 30
0.0
  0
VERTEX
  5
DE9
  8
DATA
  6
CONTINUOUS
 62
     7
 10
79.76796024279048
 20
29.863428891516051
 30
0.0
  0
VERTEX
  5
DEA
  8
DATA
  6
CONTINUOUS
 62
     7
 10
79.596739354629122
 20
29.863426412640319
 30
0.0
  0
VERTEX
  5
DEB
  8
DATA
  6
CONTINUOUS
 62
     7
 10
79.409009063128607
 20
29.86342369474734
 30
0.0
  0
VERTEX
  5
DEC
  8
DATA
  6
CONTINUOUS
 62
     7
 10
79.20476936828895
 20
29.86342073783711
 30
0.0
  0
VERTEX
  5
DED
  8
DATA
  6
CONTINUOUS
 62
     7
 10
78.984020270110165
 20
29.863417541909641
 30
0.0
  0
VERTEX
  5
DEE
  8
DATA
  6
CONTINUOUS
 62
     7
 10
78.746761768592165
 20
29.86341410696491
 30
0.0
  0
VERTEX
  5
DEF
  8
DATA
  6
CONTINUOUS
 62
     7
 10
78.492993863735123
 20
29.86341043300293
 30
0.0
  0
VERTEX
  5
DF0
  8
DATA
  6
CONTINUOUS
 62
     7
 10
78.222716555538824
 20
29.863406520023691
 30
0.0
  0
VERTEX
  5
DF1
  8
DATA
  6
CONTINUOUS
 62
     7
 10
77.935929844003454
 20
29.86340236802722
 30
0.0
  0
VERTEX
  5
DF2
  8
DATA
  6
CONTINUOUS
 62
     7
 10
77.935929844003454
 20
29.86340236802722
 30
0.0
  0
VERTEX
  5
DF3
  8
DATA
  6
CONTINUOUS
 62
     7
 10
77.639623904304017
 20
29.863398078214729
 30
0.0
  0
VERTEX
  5
DF4
  8
DATA
  6
CONTINUOUS
 62
     7
 10
77.340788911615633
 20
29.863393751787491
 30
0.0
  0
VERTEX
  5
DF5
  8
DATA
  6
CONTINUOUS
 62
     7
 10
77.039424865938258
 20
29.86338938874551
 30
0.0
  0
VERTEX
  5
DF6
  8
DATA
  6
CONTINUOUS
 62
     7
 10
76.735531767271993
 20
29.86338498908875
 30
0.0
  0
VERTEX
  5
DF7
  8
DATA
  6
CONTINUOUS
 62
     7
 10
76.429109615616781
 20
29.863380552817251
 30
0.0
  0
VERTEX
  5
DF8
  8
DATA
  6
CONTINUOUS
 62
     7
 10
76.120158410972621
 20
29.86337607993098
 30
0.0
  0
VERTEX
  5
DF9
  8
DATA
  6
CONTINUOUS
 62
     7
 10
75.808678153339542
 20
29.863371570429969
 30
0.0
  0
VERTEX
  5
DFA
  8
DATA
  6
CONTINUOUS
 62
     7
 10
75.494668842717459
 20
29.86336702431419
 30
0.0
  0
VERTEX
  5
DFB
  8
DATA
  6
CONTINUOUS
 62
     7
 10
75.494668842717459
 20
29.86336702431419
 30
0.0
  0
VERTEX
  5
DFC
  8
DATA
  6
CONTINUOUS
 62
     7
 10
75.180673457546135
 20
29.86336247840001
 30
0.0
  0
VERTEX
  5
DFD
  8
DATA
  6
CONTINUOUS
 62
     7
 10
74.869234976265147
 20
29.863357969503781
 30
0.0
  0
VERTEX
  5
DFE
  8
DATA
  6
CONTINUOUS
 62
     7
 10
74.560353398874511
 20
29.863353497625489
 30
0.0
  0
VERTEX
  5
DFF
  8
DATA
  6
CONTINUOUS
 62
     7
 10
74.254028725374198
 20
29.863349062765138
 30
0.0
  0
VERTEX
  5
E00
  8
DATA
  6
CONTINUOUS
 62
     7
 10
73.950260955764264
 20
29.863344664922749
 30
0.0
  0
VERTEX
  5
E01
  8
DATA
  6
CONTINUOUS
 62
     7
 10
73.649050090044653
 20
29.863340304098291
 30
0.0
  0
VERTEX
  5
E02
  8
DATA
  6
CONTINUOUS
 62
     7
 10
73.350396128215451
 20
29.863335980291769
 30
0.0
  0
VERTEX
  5
E03
  8
DATA
  6
CONTINUOUS
 62
     7
 10
73.054299070276542
 20
29.863331693503209
 30
0.0
  0
VERTEX
  5
E04
  8
DATA
  6
CONTINUOUS
 62
     7
 10
73.054299070276542
 20
29.863331693503209
 30
0.0
  0
VERTEX
  5
E05
  8
DATA
  6
CONTINUOUS
 62
     7
 10
72.764782848180218
 20
29.863327501989669
 30
0.0
  0
VERTEX
  5
E06
  8
DATA
  6
CONTINUOUS
 62
     7
 10
72.485871393878682
 20
29.86332346400825
 30
0.0
  0
VERTEX
  5
E07
  8
DATA
  6
CONTINUOUS
 62
     7
 10
72.217564707371892
 20
29.863319579558961
 30
0.0
  0
VERTEX
  5
E08
  8
DATA
  6
CONTINUOUS
 62
     7
 10
71.95986278865989
 20
29.86331584864179
 30
0.0
  0
VERTEX
  5
E09
  8
DATA
  6
CONTINUOUS
 62
     7
 10
71.712765637742649
 20
29.863312271256731
 30
0.0
  0
VERTEX
  5
E0A
  8
DATA
  6
CONTINUOUS
 62
     7
 10
71.476273254620196
 20
29.8633088474038
 30
0.0
  0
VERTEX
  5
E0B
  8
DATA
  6
CONTINUOUS
 62
     7
 10
71.250385639292503
 20
29.863305577082979
 30
0.0
  0
VERTEX
  5
E0C
  8
DATA
  6
CONTINUOUS
 62
     7
 10
71.03510279175957
 20
29.863302460294278
 30
0.0
  0
VERTEX
  5
E0D
  8
DATA
  6
CONTINUOUS
 62
     7
 10
71.03510279175957
 20
29.863302460294278
 30
0.0
  0
VERTEX
  5
E0E
  8
DATA
  6
CONTINUOUS
 62
     7
 10
70.835940390933843
 20
29.863299576891681
 30
0.0
  0
VERTEX
  5
E0F
  8
DATA
  6
CONTINUOUS
 62
     7
 10
70.658414115727652
 20
29.86329700672913
 30
0.0
  0
VERTEX
  5
E10
  8
DATA
  6
CONTINUOUS
 62
     7
 10
70.502523966141041
 20
29.863294749806641
 30
0.0
  0
VERTEX
  5
E11
  8
DATA
  6
CONTINUOUS
 62
     7
 10
70.368269942173981
 20
29.8632928061242
 30
0.0
  0
VERTEX
  5
E12
  8
DATA
  6
CONTINUOUS
 62
     7
 10
70.255652043826501
 20
29.86329117568182
 30
0.0
  0
VERTEX
  5
E13
  8
DATA
  6
CONTINUOUS
 62
     7
 10
70.164670271098572
 20
29.86328985847949
 30
0.0
  0
VERTEX
  5
E14
  8
DATA
  6
CONTINUOUS
 62
     7
 10
70.095324623990223
 20
29.863288854517229
 30
0.0
  0
VERTEX
  5
E15
  8
DATA
  6
CONTINUOUS
 62
     7
 10
70.047615102501425
 20
29.863288163795009
 30
0.0
  0
VERTEX
  5
E16
  8
DATA
  6
CONTINUOUS
 62
     7
 10
70.047615102501425
 20
29.863288163795009
 30
0.0
  0
SEQEND
  5
E17
  8
DATA
  6
CONTINUOUS
 62
     7
  0
POLYLINE
  5
4AD
  8
DATA
  6
CONTINUOUS
 62
     7
 66
     1
 10
0.0
 20
0.0
 30
0.0
  0
VERTEX
  5
E18
  8
DATA
  6
CONTINUOUS
 62
     7
 10
81.774984785489806
 20
29.863457714611069
 30
0.0
  0
VERTEX
  5
E19
  8
DATA
  6
CONTINUOUS
 62
     7
 10
81.758829014948603
 20
29.863457714611069
 30
0.0
  0
VERTEX
  5
E1A
  8
DATA
  6
CONTINUOUS
 62
     7
 10
81.758829014948603
 20
29.863457714611069
 30
0.0
  0
SEQEND
  5
E1B
  8
DATA
  6
CONTINUOUS
 62
     7
  0
POLYLINE
  5
4B2
  8
DATA
  6
CONTINUOUS
 62
     7
 66
     1
 10
0.0
 20
0.0
 30
0.0
 70
   128
  0
VERTEX
  5
E1C
  8
DATA
  6
CONTINUOUS
 62
     7
 10
82.884822034554816
 20
29.408564988008148
 30
0.0
  0
VERTEX
  5
E1D
  8
DATA
  6
CONTINUOUS
 62
     7
 10
82.771976168869074
 20
29.509634301017041
 30
0.0
  0
VERTEX
  5
E1E
  8
DATA
  6
CONTINUOUS
 62
     7
 10
82.65173493448404
 20
29.598072836259199
 30
0.0
  0
VERTEX
  5
E1F
  8
DATA
  6
CONTINUOUS
 62
     7
 10
82.524098331399813
 20
29.673880593734651
 30
0.0
  0
VERTEX
  5
E20
  8
DATA
  6
CONTINUOUS
 62
     7
 10
82.389066359616294
 20
29.737057573443369
 30
0.0
  0
VERTEX
  5
E21
  8
DATA
  6
CONTINUOUS
 62
     7
 10
82.246639019133553
 20
29.787603775385382
 30
0.0
  0
VERTEX
  5
E22
  8
DATA
  6
CONTINUOUS
 62
     7
 10
82.096816309951535
 20
29.825519199560659
 30
0.0
  0
VERTEX
  5
E23
  8
DATA
  6
CONTINUOUS
 62
     7
 10
81.939598232070296
 20
29.850803845969232
 30
0.0
  0
VERTEX
  5
E24
  8
DATA
  6
CONTINUOUS
 62
     7
 10
81.774984785489806
 20
29.863457714611069
 30
0.0
  0
VERTEX
  5
E25
  8
DATA
  6
CONTINUOUS
 62
     7
 10
81.774984785489806
 20
29.863457714611069
 30
0.0
  0
SEQEND
  5
E26
  8
DATA
  6
CONTINUOUS
 62
     7
  0
LINE
  5
4BE
  8
DATA
  6
CONTINUOUS
 62
     7
 10
82.894734701861196
 20
29.398379828321481
 30
0.0
 11
82.884822034554816
 21
29.408564988008148
 31
0.0
  0
POLYLINE
  5
4BF
  8
DATA
  6
CONTINUOUS
 62
     7
 66
     1
 10
0.0
 20
0.0
 30
0.0
 70
   128
  0
VERTEX
  5
E27
  8
DATA
  6
CONTINUOUS
 62
     7
 10
87.437933572475316
 20
24.617555490103669
 30
0.0
  0
VERTEX
  5
E28
  8
DATA
  6
CONTINUOUS
 62
     7
 10
87.400646265334714
 20
24.656793056091988
 30
0.0
  0
VERTEX
  5
E29
  8
DATA
  6
CONTINUOUS
 62
     7
 10
87.348798465766436
 20
24.71135268007453
 30
0.0
  0
VERTEX
  5
E2A
  8
DATA
  6
CONTINUOUS
 62
     7
 10
87.282390173770452
 20
24.781234362051318
 30
0.0
  0
VERTEX
  5
E2B
  8
DATA
  6
CONTINUOUS
 62
     7
 10
87.201421389346734
 20
24.86643810202235
 30
0.0
  0
VERTEX
  5
E2C
  8
DATA
  6
CONTINUOUS
 62
     7
 10
87.105892112495326
 20
24.966963899987611
 30
0.0
  0
VERTEX
  5
E2D
  8
DATA
  6
CONTINUOUS
 62
     7
 10
86.995802343216184
 20
25.08281175594713
 30
0.0
  0
VERTEX
  5
E2E
  8
DATA
  6
CONTINUOUS
 62
     7
 10
86.871152081509308
 20
25.213981669900871
 30
0.0
  0
VERTEX
  5
E2F
  8
DATA
  6
CONTINUOUS
 62
     7
 10
86.731941327374727
 20
25.360473641848849
 30
0.0
  0
VERTEX
  5
E30
  8
DATA
  6
CONTINUOUS
 62
     7
 10
86.731941327374727
 20
25.360473641848849
 30
0.0
  0
VERTEX
  5
E31
  8
DATA
  6
CONTINUOUS
 62
     7
 10
86.584314503066793
 20
25.515821874388269
 30
0.0
  0
VERTEX
  5
E32
  8
DATA
  6
CONTINUOUS
 62
     7
 10
86.434416030839884
 20
25.673560570116329
 30
0.0
  0
VERTEX
  5
E33
  8
DATA
  6
CONTINUOUS
 62
     7
 10
86.282245910694002
 20
25.833689729033029
 30
0.0
  0
VERTEX
  5
E34
  8
DATA
  6
CONTINUOUS
 62
     7
 10
86.127804142629159
 20
25.996209351138369
 30
0.0
  0
VERTEX
  5
E35
  8
DATA
  6
CONTINUOUS
 62
     7
 10
85.971090726645343
 20
26.161119436432351
 30
0.0
  0
VERTEX
  5
E36
  8
DATA
  6
CONTINUOUS
 62
     7
 10
85.812105662742553
 20
26.328419984914969
 30
0.0
  0
VERTEX
  5
E37
  8
DATA
  6
CONTINUOUS
 62
     7
 10
85.650848950920746
 20
26.498110996586231
 30
0.0
  0
VERTEX
  5
E38
  8
DATA
  6
CONTINUOUS
 62
     7
 10
85.487320591180023
 20
26.670192471446121
 30
0.0
  0
VERTEX
  5
E39
  8
DATA
  6
CONTINUOUS
 62
     7
 10
85.487320591180023
 20
26.670192471446121
 30
0.0
  0
VERTEX
  5
E3A
  8
DATA
  6
CONTINUOUS
 62
     7
 10
85.323377515734862
 20
26.842710353117521
 30
0.0
  0
VERTEX
  5
E3B
  8
DATA
  6
CONTINUOUS
 62
     7
 10
85.160876656799843
 20
27.013710585223311
 30
0.0
  0
VERTEX
  5
E3C
  8
DATA
  6
CONTINUOUS
 62
     7
 10
84.999818014374938
 20
27.183193167763481
 30
0.0
  0
VERTEX
  5
E3D
  8
DATA
  6
CONTINUOUS
 62
     7
 10
84.840201588460161
 20
27.351158100738029
 30
0.0
  0
VERTEX
  5
E3E
  8
DATA
  6
CONTINUOUS
 62
     7
 10
84.682027379055484
 20
27.517605384146972
 30
0.0
  0
VERTEX
  5
E3F
  8
DATA
  6
CONTINUOUS
 62
     7
 10
84.525295386160991
 20
27.682535017990279
 30
0.0
  0
VERTEX
  5
E40
  8
DATA
  6
CONTINUOUS
 62
     7
 10
84.370005609776612
 20
27.84594700226797
 30
0.0
  0
VERTEX
  5
E41
  8
DATA
  6
CONTINUOUS
 62
     7
 10
84.216158049902347
 20
28.007841336980061
 30
0.0
  0
VERTEX
  5
E42
  8
DATA
  6
CONTINUOUS
 62
     7
 10
84.216158049902347
 20
28.007841336980061
 30
0.0
  0
VERTEX
  5
E43
  8
DATA
  6
CONTINUOUS
 62
     7
 10
84.067510818112495
 20
28.164263347943852
 30
0.0
  0
VERTEX
  5
E44
  8
DATA
  6
CONTINUOUS
 62
     7
 10
83.927822025981499
 20
28.311258360976701
 30
0.0
  0
VERTEX
  5
E45
  8
DATA
  6
CONTINUOUS
 62
     7
 10
83.797091673509257
 20
28.448826376078621
 30
0.0
  0
VERTEX
  5
E46
  8
DATA
  6
CONTINUOUS
 62
     7
 10
83.675319760695785
 20
28.57696739324961
 30
0.0
  0
VERTEX
  5
E47
  8
DATA
  6
CONTINUOUS
 62
     7
 10
83.562506287541083
 20
28.695681412489641
 30
0.0
  0
VERTEX
  5
E48
  8
DATA
  6
CONTINUOUS
 62
     7
 10
83.458651254045193
 20
28.804968433798749
 30
0.0
  0
VERTEX
  5
E49
  8
DATA
  6
CONTINUOUS
 62
     7
 10
83.363754660208016
 20
28.904828457176912
 30
0.0
  0
VERTEX
  5
E4A
  8
DATA
  6
CONTINUOUS
 62
     7
 10
83.277816506029694
 20
28.99526148262413
 30
0.0
  0
VERTEX
  5
E4B
  8
DATA
  6
CONTINUOUS
 62
     7
 10
83.277816506029694
 20
28.99526148262413
 30
0.0
  0
VERTEX
  5
E4C
  8
DATA
  6
CONTINUOUS
 62
     7
 10
83.200554285284184
 20
29.07656479244719
 30
0.0
  0
VERTEX
  5
E4D
  8
DATA
  6
CONTINUOUS
 62
     7
 10
83.131685491745685
 20
29.149035668952841
 30
0.0
  0
VERTEX
  5
E4E
  8
DATA
  6
CONTINUOUS
 62
     7
 10
83.071210125414197
 20
29.212674112141109
 30
0.0
  0
VERTEX
  5
E4F
  8
DATA
  6
CONTINUOUS
 62
     7
 10
83.019128186289649
 20
29.267480122011971
 30
0.0
  0
VERTEX
  5
E50
  8
DATA
  6
CONTINUOUS
 62
     7
 10
82.975439674372083
 20
29.31345369856545
 30
0.0
  0
VERTEX
  5
E51
  8
DATA
  6
CONTINUOUS
 62
     7
 10
82.940144589661472
 20
29.35059484180152
 30
0.0
  0
VERTEX
  5
E52
  8
DATA
  6
CONTINUOUS
 62
     7
 10
82.913242932157857
 20
29.3789035517202
 30
0.0
  0
VERTEX
  5
E53
  8
DATA
  6
CONTINUOUS
 62
     7
 10
82.894734701861196
 20
29.398379828321481
 30
0.0
  0
VERTEX
  5
E54
  8
DATA
  6
CONTINUOUS
 62
     7
 10
82.894734701861196
 20
29.398379828321481
 30
0.0
  0
SEQEND
  5
E55
  8
DATA
  6
CONTINUOUS
 62
     7
  0
LINE
  5
4EF
  8
DATA
  6
CONTINUOUS
 62
     7
 10
76.574060779482423
 20
21.344553208182809
 30
0.0
 11
76.573960779482661
 21
26.57060320818448
 31
0.0
  0
LINE
  5
4F0
  8
DATA
  6
CONTINUOUS
 62
     7
 10
75.23281077948235
 20
21.344378208183251
 30
0.0
 11
76.574060779482423
 21
21.344553208182809
 31
0.0
  0
LINE
  5
4F1
  8
DATA
  6
CONTINUOUS
 62
     7
 10
75.232660779482714
 20
26.57060320818448
 30
0.0
 11
75.23281077948235
 21
21.344378208183251
 31
0.0
  0
LINE
  5
4F2
  8
DATA
  6
CONTINUOUS
 62
     7
 10
76.573960779482661
 20
26.57060320818448
 30
0.0
 11
75.232660779482714
 21
26.57060320818448
 31
0.0
  0
LINE
  5
4F3
  8
DATA
  6
CONTINUOUS
 62
     7
 10
69.195885779483035
 20
17.215978208181369
 30
0.0
 11
69.195710779481999
 21
22.442053208183001
 31
0.0
  0
LINE
  5
4F4
  8
DATA
  6
CONTINUOUS
 62
     7
 10
67.854635779482862
 20
17.215978208181369
 30
0.0
 11
69.195885779483035
 21
17.215978208181369
 31
0.0
  0
LINE
  5
4F5
  8
DATA
  6
CONTINUOUS
 62
     7
 10
67.854560779483052
 20
22.442053208183001
 30
0.0
 11
67.854635779482862
 21
17.215978208181369
 31
0.0
  0
LINE
  5
4F6
  8
DATA
  6
CONTINUOUS
 62
     7
 10
69.195710779481999
 20
22.442053208183001
 30
0.0
 11
67.854560779483052
 21
22.442053208183001
 31
0.0
  0
LINE
  5
4F7
  8
DATA
  6
CONTINUOUS
 62
     7
 10
83.952310779483184
 20
17.216153208183769
 30
0.0
 11
83.952135779482276
 21
22.44222820818257
 31
0.0
  0
LINE
  5
4F8
  8
DATA
  6
CONTINUOUS
 62
     7
 10
82.611085779482977
 20
17.216153208183769
 30
0.0
 11
83.952310779483184
 21
17.216153208183769
 31
0.0
  0
LINE
  5
4F9
  8
DATA
  6
CONTINUOUS
 62
     7
 10
82.610985779481794
 20
22.44222820818257
 30
0.0
 11
82.611085779482977
 21
17.216153208183769
 31
0.0
  0
LINE
  5
4FA
  8
DATA
  6
CONTINUOUS
 62
     7
 10
83.952135779482276
 20
22.44222820818257
 30
0.0
 11
82.610985779481794
 21
22.44222820818257
 31
0.0
  0
TEXT
  5
4FB
  8
DATA
 62
     7
 10
82.331037269880426
 20
8.7437077793335565
 30
0.0
 40
2.1717881944444439
  1
15 WATTS
 50
180.0
 41
0.8
 11
82.331037269880426
 21
6.5719195848891108
 31
0.0
 73
     3
  0
TEXT
  5
4FC
  8
DATA
 62
     7
 10
84.874797993921646
 20
37.327580668950731
 30
0.0
 40
2.1717881944444439
  1
100V～50/60Hz
 50
180.0
 41
0.8
 11
84.874797993921646
 21
35.155792474506292
 31
0.0
 73
     3
  0
TEXT
  5
4FD
  8
DATA
 62
     7
 10
82.998819618164703
 20
40.75063408853083
 30
0.0
 40
2.1717881944444439
  1
120～60Hz
 50
180.0
 41
0.8
 11
82.998819618164703
 21
38.578845894086392
 31
0.0
 73
     3
  0
ARC
  5
4FE
  8
DATA
  6
CONTINUOUS
 62
     7
 10
98.460358079702928
 20
38.43692551855208
 30
0.0
 40
4.8384615384617176
 50
316.99713135190598
 51
43.002868648094008
  0
LINE
  5
4FF
  8
DATA
  6
CONTINUOUS
 62
     7
 10
101.9988196181647
 20
35.136925518552069
 30
0.0
 11
100.9988196181647
 21
35.136925518552069
 31
0.0
  0
LINE
  5
500
  8
DATA
  6
CONTINUOUS
 62
     7
 10
101.9988196181647
 20
41.736925518552091
 30
0.0
 11
100.9988196181647
 21
41.736925518552091
 31
0.0
  0
ARC
  5
501
  8
DATA
  6
CONTINUOUS
 62
     7
 10
-334.46271884337278
 20
38.43692551855208
 30
0.0
 40
4.8384615384617176
 50
136.99713135190601
 51
223.00286864809399
  0
LINE
  5
502
  8
DATA
  6
CONTINUOUS
 62
     7
 10
-338.00118038183462
 20
35.136925518552069
 30
0.0
 11
-337.0011803818345
 21
35.136925518552069
 31
0.0
  0
LINE
  5
503
  8
DATA
  6
CONTINUOUS
 62
     7
 10
-338.00118038183462
 20
41.736925518552091
 30
0.0
 11
-337.0011803818345
 21
41.736925518552091
 31
0.0
  0
LINE
  5
504
  8
DATA
  6
CONTINUOUS
 62
     7
 10
223.0569666364668
 20
-395.85967721775569
 30
0.0
 11
223.0569666364668
 21
-440.25967721775561
 31
0.0
  0
CIRCLE
  5
505
  8
DATA
  6
CONTINUOUS
 62
     7
 10
240.0569666364668
 20
-435.25967721775561
 30
0.0
 40
3.3499999999999939
  0
LINE
  5
506
  8
DATA
  6
CONTINUOUS
 62
     7
 10
239.40696663646679
 20
-433.10967721775569
 30
0.0
 11
240.7069666364668
 21
-433.10967721775569
 31
0.0
  0
LINE
  5
507
  8
DATA
  6
CONTINUOUS
 62
     7
 10
239.40696663646679
 20
-437.40967721775559
 30
0.0
 11
240.7069666364668
 21
-437.40967721775559
 31
0.0
  0
LINE
  5
508
  8
DATA
  6
CONTINUOUS
 62
     7
 10
237.90696663646679
 20
-434.60967721775557
 30
0.0
 11
237.90696663646679
 21
-435.90967721775559
 31
0.0
  0
LINE
  5
509
  8
DATA
  6
CONTINUOUS
 62
     7
 10
242.2069666364668
 20
-434.60967721775557
 30
0.0
 11
242.2069666364668
 21
-435.90967721775559
 31
0.0
  0
LINE
  5
50A
  8
DATA
  6
CONTINUOUS
 62
     7
 10
239.40696663646679
 20
-433.10967721775569
 30
0.0
 11
239.40696663646679
 21
-434.31099391969281
 31
0.0
  0
LINE
  5
50B
  8
DATA
  6
CONTINUOUS
 62
     7
 10
240.7069666364668
 20
-433.10967721775569
 30
0.0
 11
240.7069666364668
 21
-434.31099391969281
 31
0.0
  0
LINE
  5
50C
  8
DATA
  6
CONTINUOUS
 62
     7
 10
242.2069666364668
 20
-434.60967721775557
 30
0.0
 11
241.0056499345209
 21
-434.60967721775557
 31
0.0
  0
LINE
  5
50D
  8
DATA
  6
CONTINUOUS
 62
     7
 10
242.2069666364668
 20
-435.90967721775559
 30
0.0
 11
241.0056499345209
 21
-435.90967721775559
 31
0.0
  0
LINE
  5
50E
  8
DATA
  6
CONTINUOUS
 62
     7
 10
237.90696663646679
 20
-434.60967721775557
 30
0.0
 11
239.10828333841269
 21
-434.60967721775557
 31
0.0
  0
LINE
  5
50F
  8
DATA
  6
CONTINUOUS
 62
     7
 10
240.7069666364668
 20
-437.40967721775559
 30
0.0
 11
240.7069666364668
 21
-436.20836051581853
 31
0.0
  0
LINE
  5
510
  8
DATA
  6
CONTINUOUS
 62
     7
 10
239.40696663646679
 20
-437.40967721775559
 30
0.0
 11
239.40696663646679
 21
-436.20836051581853
 31
0.0
  0
LINE
  5
511
  8
DATA
  6
CONTINUOUS
 62
     7
 10
237.90696663646679
 20
-435.90967721775559
 30
0.0
 11
239.10828333841269
 21
-435.90967721775559
 31
0.0
  0
ARC
  5
512
  8
DATA
  6
CONTINUOUS
 62
     7
 10
240.0569666364668
 20
-435.25967721775561
 30
0.0
 40
1.15000000000292
 50
124.4173887100967
 51
145.5826112896566
  0
ARC
  5
513
  8
DATA
  6
CONTINUOUS
 62
     7
 10
240.0569666364668
 20
-435.25967721775561
 30
0.0
 40
1.1500000000101169
 50
34.417388710342003
 51
55.582611289904293
  0
ARC
  5
514
  8
DATA
  6
CONTINUOUS
 62
     7
 10
240.0569666364668
 20
-435.25967721775561
 30
0.0
 40
1.15000000000292
 50
304.41738871009687
 51
325.58261128965978
  0
ARC
  5
515
  8
DATA
  6
CONTINUOUS
 62
     7
 10
240.0569666364668
 20
-435.25967721775561
 30
0.0
 40
1.1500000000101409
 50
214.41738871034121
 51
235.5826112899054
  0
CIRCLE
  5
516
  8
DATA
  6
CONTINUOUS
 62
     7
 10
352.05696663646751
 20
-435.25967721775561
 30
0.0
 40
3.3500000000000218
  0
LINE
  5
517
  8
DATA
  6
CONTINUOUS
 62
     7
 10
351.40696663646759
 20
-433.10967721775569
 30
0.0
 11
352.7069666364676
 21
-433.10967721775569
 31
0.0
  0
LINE
  5
518
  8
DATA
  6
CONTINUOUS
 62
     7
 10
351.40696663646759
 20
-437.40967721775559
 30
0.0
 11
352.7069666364676
 21
-437.40967721775559
 31
0.0
  0
LINE
  5
519
  8
DATA
  6
CONTINUOUS
 62
     7
 10
349.90696663646759
 20
-434.60967721775557
 30
0.0
 11
349.90696663646759
 21
-435.90967721775559
 31
0.0
  0
LINE
  5
51A
  8
DATA
  6
CONTINUOUS
 62
     7
 10
354.2069666364676
 20
-434.60967721775557
 30
0.0
 11
354.2069666364676
 21
-435.90967721775559
 31
0.0
  0
LINE
  5
51B
  8
DATA
  6
CONTINUOUS
 62
     7
 10
351.40696663646759
 20
-433.10967721775569
 30
0.0
 11
351.40696663646759
 21
-434.31099391969281
 31
0.0
  0
LINE
  5
51C
  8
DATA
  6
CONTINUOUS
 62
     7
 10
352.7069666364676
 20
-433.10967721775569
 30
0.0
 11
352.7069666364676
 21
-434.31099391969281
 31
0.0
  0
LINE
  5
51D
  8
DATA
  6
CONTINUOUS
 62
     7
 10
354.2069666364676
 20
-434.60967721775557
 30
0.0
 11
353.00564993452173
 21
-434.60967721775557
 31
0.0
  0
LINE
  5
51E
  8
DATA
  6
CONTINUOUS
 62
     7
 10
354.2069666364676
 20
-435.90967721775559
 30
0.0
 11
353.00564993452173
 21
-435.90967721775559
 31
0.0
  0
LINE
  5
51F
  8
DATA
  6
CONTINUOUS
 62
     7
 10
349.90696663646759
 20
-434.60967721775557
 30
0.0
 11
351.10828333841351
 21
-434.60967721775557
 31
0.0
  0
LINE
  5
520
  8
DATA
  6
CONTINUOUS
 62
     7
 10
352.7069666364676
 20
-437.40967721775559
 30
0.0
 11
352.7069666364676
 21
-436.20836051581853
 31
0.0
  0
LINE
  5
521
  8
DATA
  6
CONTINUOUS
 62
     7
 10
351.40696663646759
 20
-437.40967721775559
 30
0.0
 11
351.40696663646759
 21
-436.20836051581853
 31
0.0
  0
LINE
  5
522
  8
DATA
  6
CONTINUOUS
 62
     7
 10
349.90696663646759
 20
-435.90967721775559
 30
0.0
 11
351.10828333841351
 21
-435.90967721775559
 31
0.0
  0
ARC
  5
523
  8
DATA
  6
CONTINUOUS
 62
     7
 10
352.05696663646751
 20
-435.25967721775561
 30
0.0
 40
1.15000000000292
 50
124.4173887100967
 51
145.5826112896566
  0
ARC
  5
524
  8
DATA
  6
CONTINUOUS
 62
     7
 10
352.05696663646751
 20
-435.25967721775561
 30
0.0
 40
1.1500000000101409
 50
34.4173887103412
 51
55.582611289905472
  0
ARC
  5
525
  8
DATA
  6
CONTINUOUS
 62
     7
 10
352.05696663646751
 20
-435.25967721775561
 30
0.0
 40
1.15000000000292
 50
304.41738871009687
 51
325.58261128966058
  0
ARC
  5
526
  8
DATA
  6
CONTINUOUS
 62
     7
 10
352.05696663646751
 20
-435.25967721775561
 30
0.0
 40
1.1500000000101409
 50
214.41738871034121
 51
235.5826112899054
  0
LINE
  5
527
  8
DATA
  6
CONTINUOUS
 62
     7
 10
370.55696663646751
 20
-405.85967721775569
 30
0.0
 11
370.55696663646751
 21
-429.21768408772363
 31
0.0
  0
LINE
  5
528
  8
DATA
  6
CONTINUOUS
 62
     7
 10
370.55696663646751
 20
-405.85967721775569
 30
0.0
 11
369.05696663646762
 21
-405.85967721775569
 31
0.0
  0
TEXT
  5
529
  8
DATA
 62
     7
 10
-358.07060586944129
 20
-422.74610277151629
 30
0.0
 40
1.923828125
  1
PROFESSIONAL PRODUCTS  
 41
0.8
 11
-358.07060586944129
 21
-420.82227464651629
 31
0.0
 73
     3
  0
TEXT
  5
52A
  8
DATA
 62
     7
 10
94.695305978742368
 20
-414.4502484079577
 30
0.0
 40
5.001953125
  1
ProVocal
 41
0.8
 11
94.695305978742368
 21
-409.44829528295782
 31
0.0
 73
     3
  0
TEXT
  5
52B
  8
DATA
 62
     7
 10
95.525251198704268
 20
-419.02873384975169
 30
0.0
 40
2.8504720052083332
  1
 Digital Vocal
 41
0.8
 11
95.525251198704268
 21
-416.17826184454339
 31
0.0
 73
     3
  0
TEXT
  5
52C
  8
DATA
 62
     7
 10
95.525251198704268
 20
-422.7329005164184
 30
0.0
 40
2.8504720052083332
  1
  Processor
 41
0.8
 11
95.525251198704268
 21
-419.88242851121009
 31
0.0
 73
     3
  0
POLYLINE
  5
52D
  8
DATA
  6
CONTINUOUS
 62
     7
 66
     1
 10
0.0
 20
0.0
 30
0.0
 70
   129
  0
VERTEX
  5
E56
  8
DATA
  6
CONTINUOUS
 62
     7
 10
217.0569666364668
 20
-404.04251026649399
 30
0.0
 42
-0.4142135623730951
  0
VERTEX
  5
E57
  8
DATA
  6
CONTINUOUS
 62
     7
 10
217.5569666364668
 20
-403.54251026649399
 30
0.0
  0
VERTEX
  5
E58
  8
DATA
  6
CONTINUOUS
 62
     7
 10
220.0569666364668
 20
-403.54251026649399
 30
0.0
  0
VERTEX
  5
E59
  8
DATA
  6
CONTINUOUS
 62
     7
 10
220.0569666364668
 20
-409.24251026649398
 30
0.0
  0
VERTEX
  5
E5A
  8
DATA
  6
CONTINUOUS
 62
     7
 10
217.5569666364668
 20
-409.24251026649398
 30
0.0
 42
-0.4142135623730784
  0
VERTEX
  5
E5B
  8
DATA
  6
CONTINUOUS
 62
     7
 10
217.0569666364668
 20
-408.74251026649398
 30
0.0
  0
SEQEND
  5
E5C
  8
DATA
  6
CONTINUOUS
 62
     7
  0
POLYLINE
  5
535
  8
DATA
  6
CONTINUOUS
 62
     7
 66
     1
 10
0.0
 20
0.0
 30
0.0
 70
   129
  0
VERTEX
  5
E5D
  8
DATA
  6
CONTINUOUS
 62
     7
 10
217.0569666364668
 20
-427.47684416901728
 30
0.0
 42
-0.4142135623730951
  0
VERTEX
  5
E5E
  8
DATA
  6
CONTINUOUS
 62
     7
 10
217.5569666364668
 20
-426.97684416901728
 30
0.0
  0
VERTEX
  5
E5F
  8
DATA
  6
CONTINUOUS
 62
     7
 10
220.0569666364668
 20
-426.97684416901728
 30
0.0
  0
VERTEX
  5
E60
  8
DATA
  6
CONTINUOUS
 62
     7
 10
220.0569666364668
 20
-432.67684416901722
 30
0.0
  0
VERTEX
  5
E61
  8
DATA
  6
CONTINUOUS
 62
     7
 10
217.5569666364668
 20
-432.67684416901722
 30
0.0
 42
-0.4142135623730784
  0
VERTEX
  5
E62
  8
DATA
  6
CONTINUOUS
 62
     7
 10
217.0569666364668
 20
-432.17684416901722
 30
0.0
  0
SEQEND
  5
E63
  8
DATA
  6
CONTINUOUS
 62
     7
  0
CIRCLE
  5
53D
  8
DATA
  6
CONTINUOUS
 62
     7
 10
-329.83073940456848
 20
-429.51617297496171
 30
0.0
 40
2.8000000000000109
  0
POLYLINE
  5
53E
  8
DATA
  6
CONTINUOUS
 62
     7
 66
     1
 10
0.0
 20
0.0
 30
0.0
 70
     1
  0
VERTEX
  5
E64
  8
DATA
  6
CONTINUOUS
 62
     7
 10
-328.4307394045685
 20
-429.51617297496171
 30
0.0
  0
VERTEX
  5
E65
  8
DATA
  6
CONTINUOUS
 62
     7
 10
-329.13073940456837
 20
-430.7286085402601
 30
0.0
  0
VERTEX
  5
E66
  8
DATA
  6
CONTINUOUS
 62
     7
 10
-330.53073940456841
 20
-430.7286085402601
 30
0.0
  0
VERTEX
  5
E67
  8
DATA
  6
CONTINUOUS
 62
     7
 10
-331.23073940456851
 20
-429.51617297496171
 30
0.0
  0
VERTEX
  5
E68
  8
DATA
  6
CONTINUOUS
 62
     7
 10
-330.53073940456841
 20
-428.30373740966371
 30
0.0
  0
VERTEX
  5
E69
  8
DATA
  6
CONTINUOUS
 62
     7
 10
-329.13073940456837
 20
-428.30373740966371
 30
0.0
  0
SEQEND
  5
E6A
  8
DATA
  6
CONTINUOUS
 62
     7
  0
TEXT
  5
546
  8
DATA
 62
     7
 10
233.5088757718411
 20
-555.7321086492808
 30
0.0
 40
12.21630859375
  1
dbx
 41
0.8
 11
233.5088757718411
 21
-543.5158000555308
 31
0.0
 73
     3
  0
LINE
  5
547
  8
DATA
  6
CONTINUOUS
 62
     7
 10
217.0569666364668
 20
-403.04251026649399
 30
0.0
 11
217.0569666364668
 21
-398.60686370971922
 31
0.0
  0
LINE
  5
548
  8
DATA
  6
CONTINUOUS
 62
     7
 10
217.5569666364668
 20
-398.10686370971922
 30
0.0
 11
220.0569666364668
 21
-398.10686370971922
 31
0.0
  0
ARC
  5
549
  8
DATA
  6
CONTINUOUS
 62
     7
 10
217.5569666364668
 20
-398.60686370971922
 30
0.0
 40
0.5
 50
90.0
 51
180.0
  0
ARC
  5
54A
  8
DATA
  6
CONTINUOUS
 62
     7
 10
217.5569666364668
 20
-403.04251026649399
 30
0.0
 40
0.5
 50
180.0
 51
270.0
  0
POLYLINE
  5
54B
  8
DATA
  6
CONTINUOUS
 62
     7
 66
     1
 10
0.0
 20
0.0
 30
0.0
 70
     1
  0
VERTEX
  5
E6B
  8
DATA
  6
CONTINUOUS
 62
     7
 10
-360.0
 20
-394.99900602370019
 30
0.0
  0
VERTEX
  5
E6C
  8
DATA
  6
CONTINUOUS
 62
     7
 10
122.9587024264731
 20
-394.99900602370019
 30
0.0
  0
VERTEX
  5
E6D
  8
DATA
  6
CONTINUOUS
 62
     7
 10
122.9587024264731
 20
-440.0
 30
0.0
  0
VERTEX
  5
E6E
  8
DATA
  6
CONTINUOUS
 62
     7
 10
-360.0
 20
-440.0
 30
0.0
  0
SEQEND
  5
E6F
  8
DATA
  6
CONTINUOUS
 62
     7
  0
POLYLINE
  5
551
  8
DATA
  6
CONTINUOUS
 62
     7
 66
     1
 10
0.0
 20
0.0
 30
0.0
 70
     1
  0
VERTEX
  5
E70
  8
DATA
  6
CONTINUOUS
 62
     7
 10
-360.00118038183518
 20
44.993914327722493
 30
0.0
  0
VERTEX
  5
E71
  8
DATA
  6
CONTINUOUS
 62
     7
 10
122.9988196181647
 20
44.993914327722493
 30
0.0
  0
VERTEX
  5
E72
  8
DATA
  6
CONTINUOUS
 62
     7
 10
122.9988196181647
 20
-0.0060856722775
 30
0.0
  0
VERTEX
  5
E73
  8
DATA
  6
CONTINUOUS
 62
     7
 10
-360.00118038183518
 20
-0.0060856722775
 30
0.0
  0
SEQEND
  5
E74
  8
DATA
  6
CONTINUOUS
 62
     7
  0
LINE
  5
557
  8
DATA
  6
CONTINUOUS
 62
     7
 10
100.9988196181647
 20
44.39391432772247
 30
0.0
 11
100.9988196181647
 21
44.993914327722493
 31
0.0
  0
LINE
  5
558
  8
DATA
  6
CONTINUOUS
 62
     7
 10
-337.0011803818345
 20
44.39391432772247
 30
0.0
 11
-337.0011803818345
 21
44.993914327722493
 31
0.0
  0
LINE
  5
559
  8
DATA
  6
CONTINUOUS
 62
     7
 10
-331.04129757352689
 20
-408.60662597821039
 30
0.0
 11
-331.04129757352689
 21
-426.9913860691899
 31
0.0
  0
LINE
  5
55A
  8
DATA
  6
CONTINUOUS
 62
     7
 10
93.958702426473167
 20
-408.87391092994761
 30
0.0
 11
93.958702426473167
 21
-426.72410111745279
 31
0.0
  0
POLYLINE
  5
55B
  8
DATA
  6
CONTINUOUS
 62
     7
 66
     1
 10
0.0
 20
0.0
 30
0.0
  0
VERTEX
  5
E75
  8
DATA
  6
CONTINUOUS
 62
     7
 10
-115.68150233133321
 20
-399.09900602370021
 30
0.0
  0
VERTEX
  5
E76
  8
DATA
  6
CONTINUOUS
 62
     7
 10
93.958702426473167
 20
-399.09900602370021
 30
0.0
  0
VERTEX
  5
E77
  8
DATA
  6
CONTINUOUS
 62
     7
 10
93.958702426473167
 20
-403.28976721492961
 30
0.0
  0
SEQEND
  5
E78
  8
DATA
  6
CONTINUOUS
 62
     7
  0
POLYLINE
  5
560
  8
DATA
  6
CONTINUOUS
 62
     7
 66
     1
 10
0.0
 20
0.0
 30
0.0
  0
VERTEX
  5
E79
  8
DATA
  6
CONTINUOUS
 62
     7
 10
-120.40109281572229
 20
-399.09900602370021
 30
0.0
  0
VERTEX
  5
E7A
  8
DATA
  6
CONTINUOUS
 62
     7
 10
-331.04129757352689
 20
-399.09900602370021
 30
0.0
  0
VERTEX
  5
E7B
  8
DATA
  6
CONTINUOUS
 62
     7
 10
-331.04129757352689
 20
-403.55705216666672
 30
0.0
  0
SEQEND
  5
E7C
  8
DATA
  6
CONTINUOUS
 62
     7
  0
LINE
  5
565
  8
DATA
  6
CONTINUOUS
 62
     7
 10
-331.04129757352689
 20
-399.09900602370021
 30
0.0
 11
-346.88852264767422
 21
-399.09900602370021
 31
0.0
  0
LINE
  5
566
  8
DATA
  6
CONTINUOUS
 62
     7
 10
-354.19407249937967
 20
-399.09900602370021
 30
0.0
 11
-360.0
 21
-399.09900602370021
 31
0.0
  0
LINE
  5
567
  8
DATA
  6
CONTINUOUS
 62
     7
 10
-331.04129757352689
 20
-435.89900602370011
 30
0.0
 11
-346.0164380273925
 21
-435.89900602370011
 31
0.0
  0
LINE
  5
568
  8
DATA
  6
CONTINUOUS
 62
     7
 10
-355.0661571196614
 20
-435.89900602370011
 30
0.0
 11
-360.04129757352678
 21
-435.89900602370011
 31
0.0
  0
LINE
  5
569
  8
DATA
  6
CONTINUOUS
 62
     7
 10
-355.0661571196614
 20
-435.89900602370011
 30
0.0
 11
-360.0
 21
-435.89900602370011
 31
0.0
  0
LINE
  5
56A
  8
DATA
  6
CONTINUOUS
 62
     7
 10
-331.47771825149869
 20
-431.78056266707722
 30
0.0
 11
-345.60818843056359
 21
-431.78056266707722
 31
0.0
  0
LINE
  5
56B
  8
DATA
  6
CONTINUOUS
 62
     7
 10
-355.47440671649019
 20
-431.78056266707722
 30
0.0
 11
-360.0
 21
-431.78056266707722
 31
0.0
  0
LINE
  5
56C
  8
DATA
  6
CONTINUOUS
 62
     7
 10
-332.02793235448479
 20
-427.78056266707722
 30
0.0
 11
-360.0
 21
-427.78056266707722
 31
0.0
  0
LINE
  5
56D
  8
DATA
  6
CONTINUOUS
 62
     7
 10
-331.04129757352689
 20
-423.78056266707711
 30
0.0
 11
-360.0
 21
-423.78056266707711
 31
0.0
  0
LINE
  5
56E
  8
DATA
  6
CONTINUOUS
 62
     7
 10
-331.04129757352689
 20
-419.78056266707711
 30
0.0
 11
-360.0
 21
-419.78056266707711
 31
0.0
  0
LINE
  5
56F
  8
DATA
  6
CONTINUOUS
 62
     7
 10
-331.04129757352689
 20
-415.78056266707711
 30
0.0
 11
-360.0
 21
-415.78056266707711
 31
0.0
  0
LINE
  5
570
  8
DATA
  6
CONTINUOUS
 62
     7
 10
-331.04129757352689
 20
-411.78056266707711
 30
0.0
 11
-360.0
 21
-411.78056266707711
 31
0.0
  0
LINE
  5
571
  8
DATA
  6
CONTINUOUS
 62
     7
 10
-332.05657366367342
 20
-407.78056266707711
 30
0.0
 11
-360.0
 21
-407.78056266707711
 31
0.0
  0
LINE
  5
572
  8
DATA
  6
CONTINUOUS
 62
     7
 10
-331.42577134974118
 20
-403.78056266707711
 30
0.0
 11
-345.5830921776938
 21
-403.78056266707711
 31
0.0
  0
LINE
  5
573
  8
DATA
  6
CONTINUOUS
 62
     7
 10
-355.4995029693635
 20
-403.78056266707711
 30
0.0
 11
-360.0
 21
-403.78056266707711
 31
0.0
  0
LINE
  5
574
  8
DATA
  6
CONTINUOUS
 62
     7
 10
93.958702426473167
 20
-399.09900602370021
 30
0.0
 11
110.805927500626
 21
-399.09900602370021
 31
0.0
  0
LINE
  5
575
  8
DATA
  6
CONTINUOUS
 62
     7
 10
118.1114773523191
 20
-399.09900602370021
 30
0.0
 11
122.9587024264731
 21
-399.09900602370021
 31
0.0
  0
LINE
  5
576
  8
DATA
  6
CONTINUOUS
 62
     7
 10
93.958702426473167
 20
-435.89900602370011
 30
0.0
 11
109.9338428803437
 21
-435.89900602370011
 31
0.0
  0
LINE
  5
577
  8
DATA
  6
CONTINUOUS
 62
     7
 10
118.98356197260109
 20
-435.89900602370011
 30
0.0
 11
122.9587024264731
 21
-435.89900602370011
 31
0.0
  0
LINE
  5
578
  8
DATA
  6
CONTINUOUS
 62
     7
 10
95.343176202688795
 20
-403.78056266707711
 30
0.0
 11
109.5004970306385
 21
-403.78056266707711
 31
0.0
  0
LINE
  5
579
  8
DATA
  6
CONTINUOUS
 62
     7
 10
119.4169078223062
 20
-403.78056266707711
 30
0.0
 11
122.9587024264731
 21
-403.78056266707711
 31
0.0
  0
LINE
  5
57A
  8
DATA
  6
CONTINUOUS
 62
     7
 10
95.973978516621585
 20
-407.78056266707711
 30
0.0
 11
122.9587024264731
 21
-407.78056266707711
 31
0.0
  0
LINE
  5
57B
  8
DATA
  6
CONTINUOUS
 62
     7
 10
93.958702426473167
 20
-411.78056266707711
 30
0.0
 11
122.9587024264731
 21
-411.78056266707711
 31
0.0
  0
LINE
  5
57C
  8
DATA
  6
CONTINUOUS
 62
     7
 10
93.958702426473167
 20
-415.78056266707711
 30
0.0
 11
122.9587024264731
 21
-415.78056266707711
 31
0.0
  0
LINE
  5
57D
  8
DATA
  6
CONTINUOUS
 62
     7
 10
93.958702426473167
 20
-419.78056266707711
 30
0.0
 11
122.9587024264731
 21
-419.78056266707711
 31
0.0
  0
LINE
  5
57E
  8
DATA
  6
CONTINUOUS
 62
     7
 10
93.958702426473167
 20
-423.78056266707711
 30
0.0
 11
122.9587024264731
 21
-423.78056266707711
 31
0.0
  0
LINE
  5
57F
  8
DATA
  6
CONTINUOUS
 62
     7
 10
95.945337207430555
 20
-427.78056266707722
 30
0.0
 11
122.9587024264731
 21
-427.78056266707722
 31
0.0
  0
LINE
  5
580
  8
DATA
  6
CONTINUOUS
 62
     7
 10
95.395123104446213
 20
-431.78056266707722
 30
0.0
 11
109.52559328350971
 21
-431.78056266707722
 31
0.0
  0
LINE
  5
581
  8
DATA
  6
CONTINUOUS
 62
     7
 10
119.3918115694355
 20
-431.78056266707722
 30
0.0
 11
122.9587024264731
 21
-431.78056266707722
 31
0.0
  0
LINE
  5
582
  8
DATA
  6
CONTINUOUS
 62
     7
 10
-331.04129757352689
 20
-399.09900602370021
 30
0.0
 11
-122.7
 21
-399.09900602370021
 31
0.0
  0
LINE
  5
583
  8
DATA
  6
CONTINUOUS
 62
     7
 10
-112.5
 20
-399.09900602370021
 30
0.0
 11
93.958702426473167
 21
-399.09900602370021
 31
0.0
  0
LINE
  5
584
  8
DATA
  6
CONTINUOUS
 62
     7
 10
217.07165217541419
 20
-410.89006071306397
 30
0.0
 11
215.0527742521686
 21
-411.06310739219941
 31
0.0
  0
LINE
  5
585
  8
DATA
  6
CONTINUOUS
 62
     7
 10
215.0527742521686
 20
-411.06310739219941
 30
0.0
 11
203.55277425216849
 21
-412.69021522833242
 31
0.0
  0
LINE
  5
586
  8
DATA
  6
CONTINUOUS
 62
     7
 10
215.0527742521686
 20
-423.74935029647031
 30
0.0
 11
203.55277425216849
 21
-422.1456926273155
 31
0.0
  0
LINE
  5
587
  8
DATA
  6
CONTINUOUS
 62
     7
 10
203.55277425216849
 20
-412.69021522833242
 30
0.0
 11
203.55277425216849
 21
-422.1456926273155
 31
0.0
  0
LINE
  5
588
  8
DATA
  6
CONTINUOUS
 62
     7
 10
203.5527742521684
 20
-413.81795392782391
 30
0.0
 11
215.05277425216869
 21
-413.20622884433482
 31
0.0
  0
LINE
  5
589
  8
DATA
  6
CONTINUOUS
 62
     7
 10
203.5527742521684
 20
-421.0179539278239
 30
0.0
 11
215.05277425216869
 21
-421.60622884433479
 31
0.0
  0
LINE
  5
58A
  8
DATA
  6
CONTINUOUS
 62
     7
 10
215.0527742521686
 20
-414.12560829984079
 30
0.0
 11
215.0527742521686
 21
-411.06310739219941
 31
0.0
  0
LINE
  5
58B
  8
DATA
  6
CONTINUOUS
 62
     7
 10
213.4740129903283
 20
-414.99020865865731
 30
0.0
 11
203.5527742521684
 21
-415.51795392782378
 31
0.0
  0
LINE
  5
58C
  8
DATA
  6
CONTINUOUS
 62
     7
 10
215.0527742521686
 20
-414.12560829984079
 30
0.0
 11
215.0527742521686
 21
-414.91076382085771
 31
0.0
  0
LINE
  5
58D
  8
DATA
  6
CONTINUOUS
 62
     7
 10
215.0612168008027
 20
-420.0607638208578
 30
0.0
 11
215.0612168008027
 21
-423.75052759715408
 31
0.0
  0
LINE
  5
58E
  8
DATA
  6
CONTINUOUS
 62
     7
 10
203.5527742521684
 20
-419.31795392782391
 30
0.0
 11
213.75487877390191
 21
-419.8398358570202
 31
0.0
  0
LINE
  5
58F
  8
DATA
  6
CONTINUOUS
 62
     7
 10
217.6980963796548
 20
-410.38475130283388
 30
0.0
 11
203.9137869422072
 21
-412.31937251088539
 31
0.0
  0
LINE
  5
590
  8
DATA
  6
CONTINUOUS
 62
     7
 10
203.05277425216849
 20
-416.91795392782387
 30
0.0
 11
203.05277425216849
 21
-413.30966667307649
 31
0.0
  0
ARC
  5
591
  8
DATA
  6
CONTINUOUS
 62
     7
 10
204.05277425216849
 20
-413.30966667307672
 30
0.0
 40
1.0000000000000819
 50
97.989250486648771
 51
179.99999999999679
  0
ARC
  5
592
  8
DATA
  6
CONTINUOUS
 62
     7
 10
203.55277425216849
 20
-416.91795392782387
 30
0.0
 40
0.5
 50
180.0
 51
270.0
  0
LINE
  5
593
  8
DATA
  6
CONTINUOUS
 62
     7
 10
213.4740129903283
 20
-414.99020865865731
 30
0.0
 11
213.78793081567829
 21
-414.9735102753599
 31
0.0
  0
LINE
  5
594
  8
DATA
  6
CONTINUOUS
 62
     7
 10
215.0527742521686
 20
-423.74935029647031
 30
0.0
 11
218.0569666364668
 21
-424.06174625648089
 31
0.0
  0
LINE
  5
595
  8
DATA
  6
CONTINUOUS
 62
     7
 10
215.0612168008027
 20
-420.0607638208578
 30
0.0
 11
215.0612168008027
 21
-414.79709368218232
 31
0.0
  0
LINE
  5
596
  8
DATA
  6
CONTINUOUS
 62
     7
 10
213.78793081567829
 20
-414.9735102753599
 30
0.0
 11
215.0527742521686
 21
-414.90622884433492
 31
0.0
  0
LINE
  5
597
  8
DATA
  6
CONTINUOUS
 62
     7
 10
213.75487877390191
 20
-419.8398358570202
 30
0.0
 11
215.0612168008027
 21
-419.9066607173429
 31
0.0
  0
LINE
  5
598
  8
DATA
  6
CONTINUOUS
 62
     7
 10
-331.04129757352689
 20
-435.89900602370011
 30
0.0
 11
-331.04129757352689
 21
-432.04095988073368
 31
0.0
  0
LINE
  5
599
  8
DATA
  6
CONTINUOUS
 62
     7
 10
93.958702426473167
 20
-435.89900602370011
 30
0.0
 11
93.958702426473167
 21
-432.30824483247079
 31
0.0
  0
CIRCLE
  5
59A
  8
DATA
  6
CONTINUOUS
 62
     7
 10
-118.0412975735278
 20
-435.15977946363722
 30
0.0
 40
2.7999999999999958
  0
POLYLINE
  5
59B
  8
DATA
  6
CONTINUOUS
 62
     7
 66
     1
 10
0.0
 20
0.0
 30
0.0
 70
     1
  0
VERTEX
  5
E7D
  8
DATA
  6
CONTINUOUS
 62
     7
 10
-116.64129757352779
 20
-435.22271720230839
 30
0.0
  0
VERTEX
  5
E7E
  8
DATA
  6
CONTINUOUS
 62
     7
 10
-117.3412975735278
 20
-434.01028163701022
 30
0.0
  0
VERTEX
  5
E7F
  8
DATA
  6
CONTINUOUS
 62
     7
 10
-118.7412975735278
 20
-434.01028163701022
 30
0.0
  0
VERTEX
  5
E80
  8
DATA
  6
CONTINUOUS
 62
     7
 10
-119.44129757352781
 20
-435.22271720230839
 30
0.0
  0
VERTEX
  5
E81
  8
DATA
  6
CONTINUOUS
 62
     7
 10
-118.7412975735278
 20
-436.43515276760661
 30
0.0
  0
VERTEX
  5
E82
  8
DATA
  6
CONTINUOUS
 62
     7
 10
-117.3412975735278
 20
-436.43515276760661
 30
0.0
  0
SEQEND
  5
E83
  8
DATA
  6
CONTINUOUS
 62
     7
  0
POLYLINE
  5
5A3
  8
DATA
  6
CONTINUOUS
 62
     7
 66
     1
 10
0.0
 20
0.0
 30
0.0
 70
   129
  0
VERTEX
  5
E84
  8
DATA
  6
CONTINUOUS
 62
     7
 10
217.0569666364668
 20
-433.26325182167398
 30
0.0
 42
-0.4142135623730951
  0
VERTEX
  5
E85
  8
DATA
  6
CONTINUOUS
 62
     7
 10
217.5569666364668
 20
-432.76325182167398
 30
0.0
  0
VERTEX
  5
E86
  8
DATA
  6
CONTINUOUS
 62
     7
 10
220.0569666364668
 20
-432.76325182167398
 30
0.0
  0
VERTEX
  5
E87
  8
DATA
  6
CONTINUOUS
 62
     7
 10
220.0569666364668
 20
-438.46325182167391
 30
0.0
  0
VERTEX
  5
E88
  8
DATA
  6
CONTINUOUS
 62
     7
 10
217.5569666364668
 20
-438.46325182167391
 30
0.0
 42
-0.4142135623730784
  0
VERTEX
  5
E89
  8
DATA
  6
CONTINUOUS
 62
     7
 10
217.0569666364668
 20
-437.96325182167391
 30
0.0
  0
SEQEND
  5
E8A
  8
DATA
  6
CONTINUOUS
 62
     7
  0
LINE
  5
5AB
  8
DATA
  6
CONTINUOUS
 62
     7
 10
-331.70118038183449
 20
39.993914327722493
 30
0.0
 11
-331.70118038183449
 21
44.993914327722493
 31
0.0
  0
LINE
  5
5AC
  8
DATA
  6
CONTINUOUS
 62
     7
 10
95.698819618164677
 20
39.993914327722493
 30
0.0
 11
95.698819618164677
 21
44.993914327722493
 31
0.0
  0
ARC
  5
5AD
  8
DATA
  6
CONTINUOUS
 62
     7
 10
220.39580066312561
 20
-426.00133780520491
 30
0.0
 40
1.5374999999999901
 50
257.26865533724919
 51
257.31961650818511
  0
LINE
  5
5AE
  8
DATA
  6
CONTINUOUS
 62
     7
 10
370.55696663646751
 20
-429.21768408772363
 30
0.0
 11
369.05696663646762
 21
-429.21768408772363
 31
0.0
  0
LINE
  5
5AF
  8
DATA
  6
CONTINUOUS
 62
     7
 10
369.05696663646762
 20
-407.86090060260341
 30
0.0
 11
369.05577758265167
 21
-407.86090060260341
 31
0.0
  0
LINE
  5
5B0
  8
DATA
  6
CONTINUOUS
 62
     7
 10
369.05696663646762
 20
-408.16090060260348
 30
0.0
 11
369.05577758265167
 21
-408.16090060260348
 31
0.0
  0
CIRCLE
  5
5B1
  8
DATA
  6
CONTINUOUS
 62
     7
 10
-235.07427438433669
 20
27.487361880532291
 30
0.0
 40
11.00000000000011
  0
CIRCLE
  5
5B2
  8
DATA
  6
CONTINUOUS
 62
     7
 10
-235.07418297537879
 20
27.42220600291737
 30
0.0
 40
8.2500000000000409
  0
CIRCLE
  5
5B3
  8
DATA
  6
CONTINUOUS
 62
     7
 10
-231.07831618577561
 20
27.70453503300909
 30
0.0
 40
1.1749999999999501
  0
CIRCLE
  5
5B4
  8
DATA
  6
CONTINUOUS
 62
     7
 10
-239.07448787523529
 20
27.68736188053229
 30
0.0
 40
1.1750000000000109
  0
CIRCLE
  5
5B5
  8
DATA
  6
CONTINUOUS
 62
     7
 10
-235.0743252623804
 20
31.371124338873511
 30
0.0
 40
1.1750000000000109
  0
CIRCLE
  5
5B6
  8
DATA
  6
CONTINUOUS
 62
     7
 10
-245.00345662917169
 20
37.32289659377053
 30
0.0
 40
2.750000000000036
  0
POLYLINE
  5
5B7
  8
DATA
  6
CONTINUOUS
 62
     7
 66
     1
 10
0.0
 20
0.0
 30
0.0
  0
VERTEX
  5
E8B
  8
DATA
  6
CONTINUOUS
 62
     7
 10
-244.78131334491769
 20
36.62630713144079
 30
0.0
  0
VERTEX
  5
E8C
  8
DATA
  6
CONTINUOUS
 62
     7
 10
-244.78131334491769
 20
35.571307131440811
 30
0.0
  0
VERTEX
  5
E8D
  8
DATA
  6
CONTINUOUS
 62
     7
 10
-245.17131334491771
 20
35.571307131440811
 30
0.0
  0
VERTEX
  5
E8E
  8
DATA
  6
CONTINUOUS
 62
     7
 10
-245.17131334491771
 20
36.62630713144079
 30
0.0
  0
SEQEND
  5
E8F
  8
DATA
  6
CONTINUOUS
 62
     7
  0
POLYLINE
  5
5BD
  8
DATA
  6
CONTINUOUS
 62
     7
 66
     1
 10
0.0
 20
0.0
 30
0.0
  0
VERTEX
  5
E90
  8
DATA
  6
CONTINUOUS
 62
     7
 10
-244.78131334491769
 20
38.016307131440797
 30
0.0
  0
VERTEX
  5
E91
  8
DATA
  6
CONTINUOUS
 62
     7
 10
-244.78131334491769
 20
39.071307131440797
 30
0.0
  0
VERTEX
  5
E92
  8
DATA
  6
CONTINUOUS
 62
     7
 10
-245.17131334491771
 20
39.071307131440797
 30
0.0
  0
VERTEX
  5
E93
  8
DATA
  6
CONTINUOUS
 62
     7
 10
-245.17131334491771
 20
38.016307131440797
 30
0.0
  0
SEQEND
  5
E94
  8
DATA
  6
CONTINUOUS
 62
     7
  0
POLYLINE
  5
5C3
  8
DATA
  6
CONTINUOUS
 62
     7
 66
     1
 10
0.0
 20
0.0
 30
0.0
  0
VERTEX
  5
E95
  8
DATA
  6
CONTINUOUS
 62
     7
 10
-244.28131334491769
 20
37.12630713144079
 30
0.0
  0
VERTEX
  5
E96
  8
DATA
  6
CONTINUOUS
 62
     7
 10
-243.22631334491771
 20
37.12630713144079
 30
0.0
  0
VERTEX
  5
E97
  8
DATA
  6
CONTINUOUS
 62
     7
 10
-243.22631334491771
 20
37.516307131440797
 30
0.0
  0
VERTEX
  5
E98
  8
DATA
  6
CONTINUOUS
 62
     7
 10
-244.28131334491769
 20
37.516307131440797
 30
0.0
  0
SEQEND
  5
E99
  8
DATA
  6
CONTINUOUS
 62
     7
  0
POLYLINE
  5
5C9
  8
DATA
  6
CONTINUOUS
 62
     7
 66
     1
 10
0.0
 20
0.0
 30
0.0
  0
VERTEX
  5
E9A
  8
DATA
  6
CONTINUOUS
 62
     7
 10
-245.67131334491771
 20
37.12630713144079
 30
0.0
  0
VERTEX
  5
E9B
  8
DATA
  6
CONTINUOUS
 62
     7
 10
-246.72631334491771
 20
37.12630713144079
 30
0.0
  0
VERTEX
  5
E9C
  8
DATA
  6
CONTINUOUS
 62
     7
 10
-246.72631334491771
 20
37.516307131440797
 30
0.0
  0
VERTEX
  5
E9D
  8
DATA
  6
CONTINUOUS
 62
     7
 10
-245.67131334491771
 20
37.516307131440797
 30
0.0
  0
SEQEND
  5
E9E
  8
DATA
  6
CONTINUOUS
 62
     7
  0
ARC
  5
5CF
  8
DATA
  6
CONTINUOUS
 62
     7
 10
-245.67131334491771
 20
38.016307131440797
 30
0.0
 40
0.5
 50
270.0
 51
0.0
  0
ARC
  5
5D0
  8
DATA
  6
CONTINUOUS
 62
     7
 10
-245.67131334491771
 20
36.62630713144079
 30
0.0
 40
0.5000000000000285
 50
0.0
 51
90.0
  0
ARC
  5
5D1
  8
DATA
  6
CONTINUOUS
 62
     7
 10
-244.28131334491769
 20
36.62630713144079
 30
0.0
 40
0.5
 50
90.0
 51
180.0
  0
ARC
  5
5D2
  8
DATA
  6
CONTINUOUS
 62
     7
 10
-244.28131334491769
 20
38.016307131440797
 30
0.0
 40
0.5
 50
180.0
 51
270.0
  0
CIRCLE
  5
5D3
  8
DATA
  6
CONTINUOUS
 62
     7
 10
-225.2059434951712
 20
17.521103115877612
 30
0.0
 40
2.7499999999999769
  0
POLYLINE
  5
5D4
  8
DATA
  6
CONTINUOUS
 62
     7
 66
     1
 10
0.0
 20
0.0
 30
0.0
  0
VERTEX
  5
E9F
  8
DATA
  6
CONTINUOUS
 62
     7
 10
-224.9838002109172
 20
16.824513653547939
 30
0.0
  0
VERTEX
  5
EA0
  8
DATA
  6
CONTINUOUS
 62
     7
 10
-224.9838002109172
 20
15.769513653547961
 30
0.0
  0
VERTEX
  5
EA1
  8
DATA
  6
CONTINUOUS
 62
     7
 10
-225.37380021091721
 20
15.769513653547961
 30
0.0
  0
VERTEX
  5
EA2
  8
DATA
  6
CONTINUOUS
 62
     7
 10
-225.37380021091721
 20
16.824513653547939
 30
0.0
  0
SEQEND
  5
EA3
  8
DATA
  6
CONTINUOUS
 62
     7
  0
POLYLINE
  5
5DA
  8
DATA
  6
CONTINUOUS
 62
     7
 66
     1
 10
0.0
 20
0.0
 30
0.0
  0
VERTEX
  5
EA4
  8
DATA
  6
CONTINUOUS
 62
     7
 10
-224.9838002109172
 20
18.214513653547879
 30
0.0
  0
VERTEX
  5
EA5
  8
DATA
  6
CONTINUOUS
 62
     7
 10
-224.9838002109172
 20
19.269513653547879
 30
0.0
  0
VERTEX
  5
EA6
  8
DATA
  6
CONTINUOUS
 62
     7
 10
-225.37380021091721
 20
19.269513653547879
 30
0.0
  0
VERTEX
  5
EA7
  8
DATA
  6
CONTINUOUS
 62
     7
 10
-225.37380021091721
 20
18.214513653547879
 30
0.0
  0
SEQEND
  5
EA8
  8
DATA
  6
CONTINUOUS
 62
     7
  0
POLYLINE
  5
5E0
  8
DATA
  6
CONTINUOUS
 62
     7
 66
     1
 10
0.0
 20
0.0
 30
0.0
  0
VERTEX
  5
EA9
  8
DATA
  6
CONTINUOUS
 62
     7
 10
-224.4838002109172
 20
17.324513653547911
 30
0.0
  0
VERTEX
  5
EAA
  8
DATA
  6
CONTINUOUS
 62
     7
 10
-223.42880021091719
 20
17.324513653547911
 30
0.0
  0
VERTEX
  5
EAB
  8
DATA
  6
CONTINUOUS
 62
     7
 10
-223.42880021091719
 20
17.714513653547868
 30
0.0
  0
VERTEX
  5
EAC
  8
DATA
  6
CONTINUOUS
 62
     7
 10
-224.4838002109172
 20
17.714513653547868
 30
0.0
  0
SEQEND
  5
EAD
  8
DATA
  6
CONTINUOUS
 62
     7
  0
POLYLINE
  5
5E6
  8
DATA
  6
CONTINUOUS
 62
     7
 66
     1
 10
0.0
 20
0.0
 30
0.0
  0
VERTEX
  5
EAE
  8
DATA
  6
CONTINUOUS
 62
     7
 10
-225.87380021091721
 20
17.324513653547911
 30
0.0
  0
VERTEX
  5
EAF
  8
DATA
  6
CONTINUOUS
 62
     7
 10
-226.9288002109171
 20
17.324513653547911
 30
0.0
  0
VERTEX
  5
EB0
  8
DATA
  6
CONTINUOUS
 62
     7
 10
-226.9288002109171
 20
17.714513653547868
 30
0.0
  0
VERTEX
  5
EB1
  8
DATA
  6
CONTINUOUS
 62
     7
 10
-225.87380021091721
 20
17.714513653547868
 30
0.0
  0
SEQEND
  5
EB2
  8
DATA
  6
CONTINUOUS
 62
     7
  0
ARC
  5
5EC
  8
DATA
  6
CONTINUOUS
 62
     7
 10
-225.87380021091721
 20
18.214513653547879
 30
0.0
 40
0.5
 50
270.0
 51
0.0
  0
ARC
  5
5ED
  8
DATA
  6
CONTINUOUS
 62
     7
 10
-225.87380021091721
 20
16.824513653547939
 30
0.0
 40
0.5
 50
0.0
 51
90.0
  0
ARC
  5
5EE
  8
DATA
  6
CONTINUOUS
 62
     7
 10
-224.4838002109172
 20
16.824513653547939
 30
0.0
 40
0.4999999999999716
 50
90.0
 51
180.0
  0
ARC
  5
5EF
  8
DATA
  6
CONTINUOUS
 62
     7
 10
-224.4838002109172
 20
18.214513653547879
 30
0.0
 40
0.5000000000000285
 50
180.0
 51
270.0
  0
LINE
  5
5F0
  8
DATA
  6
CONTINUOUS
 62
     7
 10
-331.04129757352689
 20
-435.89900602370011
 30
0.0
 11
-120.74195380727809
 21
-435.89900602370011
 31
0.0
  0
CIRCLE
  5
5F1
  8
DATA
  6
CONTINUOUS
 62
     7
 10
58.923311043734898
 20
-420.08919402644392
 30
0.0
 40
4.75
  0
CIRCLE
  5
5F2
  8
DATA
  6
CONTINUOUS
 62
     7
 10
58.923311043734898
 20
-420.08919402644392
 30
0.0
 40
6.25
  0
POLYLINE
  5
5F3
  8
DATA
  6
CONTINUOUS
 62
     7
 66
     1
 10
0.0
 20
0.0
 30
0.0
 70
   129
  0
VERTEX
  5
EB3
  8
DATA
  6
CONTINUOUS
 62
     7
 10
59.137380688704432
 20
-412.87285991914518
 30
0.0
  0
VERTEX
  5
EB4
  8
DATA
  6
CONTINUOUS
 62
     7
 10
59.137380688704432
 20
-412.87285991914518
 30
0.0
 42
-0.4142135623730594
  0
VERTEX
  5
EB5
  8
DATA
  6
CONTINUOUS
 62
     7
 10
59.837380688704371
 20
-413.57285991914529
 30
0.0
  0
VERTEX
  5
EB6
  8
DATA
  6
CONTINUOUS
 62
     7
 10
59.837380688704371
 20
-419.33285991914528
 30
0.0
  0
VERTEX
  5
EB7
  8
DATA
  6
CONTINUOUS
 62
     7
 10
59.837380688704371
 20
-419.33285991914528
 30
0.0
 42
-0.4142135623730951
  0
VERTEX
  5
EB8
  8
DATA
  6
CONTINUOUS
 62
     7
 10
59.137380688704432
 20
-420.03285991914532
 30
0.0
  0
VERTEX
  5
EB9
  8
DATA
  6
CONTINUOUS
 62
     7
 10
58.937380688704501
 20
-420.03285991914532
 30
0.0
  0
VERTEX
  5
EBA
  8
DATA
  6
CONTINUOUS
 62
     7
 10
58.937380688704472
 20
-420.03285991914532
 30
0.0
 42
-0.4142135623731129
  0
VERTEX
  5
EBB
  8
DATA
  6
CONTINUOUS
 62
     7
 10
58.237380688704462
 20
-419.33285991914528
 30
0.0
  0
VERTEX
  5
EBC
  8
DATA
  6
CONTINUOUS
 62
     7
 10
58.237380688704583
 20
-413.57285991914529
 30
0.0
  0
VERTEX
  5
EBD
  8
DATA
  6
CONTINUOUS
 62
     7
 10
58.237380688704583
 20
-413.57285991914529
 30
0.0
 42
-0.4142135623730475
  0
VERTEX
  5
EBE
  8
DATA
  6
CONTINUOUS
 62
     7
 10
58.937380688704621
 20
-412.87285991914541
 30
0.0
  0
SEQEND
  5
EBF
  8
DATA
  6
CONTINUOUS
 62
     7
  0
LINE
  5
601
  8
DATA
  6
CONTINUOUS
 62
     7
 10
54.241164100288458
 20
-419.28919402644402
 30
0.0
 11
52.72472249471825
 21
-419.28919402644402
 31
0.0
  0
LINE
  5
602
  8
DATA
  6
CONTINUOUS
 62
     7
 10
54.241164100288458
 20
-420.88919402644387
 30
0.0
 11
52.72472249471825
 21
-420.88919402644387
 31
0.0
  0
LINE
  5
603
  8
DATA
  6
CONTINUOUS
 62
     7
 10
63.605457987181381
 20
-419.28919402644402
 30
0.0
 11
65.121899592751475
 21
-419.28919402644402
 31
0.0
  0
LINE
  5
604
  8
DATA
  6
CONTINUOUS
 62
     7
 10
63.605457987181381
 20
-420.88919402644387
 30
0.0
 11
65.121899592751475
 21
-420.88919402644387
 31
0.0
  0
LINE
  5
605
  8
DATA
  6
CONTINUOUS
 62
     7
 10
55.046847764566138
 20
-417.34410159717362
 30
0.0
 11
53.974561621990709
 21
-416.27181545459808
 31
0.0
  0
LINE
  5
606
  8
DATA
  6
CONTINUOUS
 62
     7
 10
56.178218614460107
 20
-416.2127307472706
 30
0.0
 11
55.105932471889247
 21
-415.14044460469972
 31
0.0
  0
LINE
  5
607
  8
DATA
  6
CONTINUOUS
 62
     7
 10
61.668403473005277
 20
-416.21273074727509
 30
0.0
 11
62.740689615580571
 21
-415.14044460469972
 31
0.0
  0
LINE
  5
608
  8
DATA
  6
CONTINUOUS
 62
     7
 10
63.872060465479109
 20
-416.27181545459831
 30
0.0
 11
62.799774322908107
 21
-417.3441015971693
 31
0.0
  0
LINE
  5
609
  8
DATA
  6
CONTINUOUS
 62
     7
 10
63.872060465479109
 20
-423.90657259828959
 30
0.0
 11
62.799774322908107
 21
-422.8342864557186
 31
0.0
  0
LINE
  5
60A
  8
DATA
  6
CONTINUOUS
 62
     7
 10
62.740689615580571
 20
-425.03794344818812
 30
0.0
 11
61.668403473005277
 21
-423.96565730561269
 31
0.0
  0
ARC
  5
60B
  8
DATA
  6
CONTINUOUS
 62
     7
 10
58.854893282190602
 20
-419.95468887063669
 30
0.0
 40
6.8400000000000372
 50
93.853979695462726
 51
240.88271410567279
  0
ARC
  5
60C
  8
DATA
  6
CONTINUOUS
 62
     7
 10
58.854893282190602
 20
-419.95468887063669
 30
0.0
 40
6.8400000000000372
 50
300.65928338484559
 51
82.830667981082485
  0
LINE
  5
60D
  8
DATA
  6
CONTINUOUS
 62
     7
 10
66.708311043734994
 20
-420.025036342367
 30
0.0
 11
65.694531520666743
 21
-420.025036342367
 31
0.0
  0
LINE
  5
60E
  8
DATA
  6
CONTINUOUS
 62
     7
 10
55.526556315968413
 20
-425.9302870029789
 30
0.0
 11
55.053291237712671
 21
-426.7799731815204
 31
0.0
  0
LINE
  5
60F
  8
DATA
  6
CONTINUOUS
 62
     7
 10
54.109643990389387
 20
-424.88096628453218
 30
0.0
 11
53.452258582509693
 21
-425.56343051094427
 31
0.0
  0
LINE
  5
610
  8
DATA
  6
CONTINUOUS
 62
     7
 10
52.981837558201761
 20
-423.46080017277183
 30
0.0
 11
52.183665523373222
 21
-423.92162501193968
 31
0.0
  0
LINE
  5
611
  8
DATA
  6
CONTINUOUS
 62
     7
 10
52.30820182210303
 20
-421.9362112465912
 30
0.0
 11
51.4473619998993
 21
-422.19676627353999
 31
0.0
  0
LINE
  5
612
  8
DATA
  6
CONTINUOUS
 62
     7
 10
52.015255043714582
 20
-420.025036342367
 30
0.0
 11
51.13831104373665
 21
-420.025036342367
 31
0.0
  0
LINE
  5
613
  8
DATA
  6
CONTINUOUS
 62
     7
 10
52.247478122903921
 20
-418.1861683271203
 30
0.0
 11
51.390857128322793
 21
-418.05822089291712
 31
0.0
  0
LINE
  5
614
  8
DATA
  6
CONTINUOUS
 62
     7
 10
52.911488191995012
 20
-416.56919984630917
 30
0.0
 11
52.176213445686052
 21
-416.14136552696709
 31
0.0
  0
LINE
  5
615
  8
DATA
  6
CONTINUOUS
 62
     7
 10
53.941814612788917
 20
-415.19577534040559
 30
0.0
 11
53.342893319839071
 21
-414.59685404745602
 31
0.0
  0
LINE
  5
616
  8
DATA
  6
CONTINUOUS
 62
     7
 10
55.401195993959533
 20
-414.05065846411281
 30
0.0
 11
54.976333933509103
 21
-413.31477578920442
 31
0.0
  0
LINE
  5
617
  8
DATA
  6
CONTINUOUS
 62
     7
 10
57.239079255949058
 20
-413.30828043952829
 30
0.0
 11
57.035845395161829
 21
-412.47230846262642
 31
0.0
  0
LINE
  5
618
  8
DATA
  6
CONTINUOUS
 62
     7
 10
60.847149885621583
 20
-413.41125600813058
 30
0.0
 11
61.108460552122921
 21
-412.55299869350392
 31
0.0
  0
LINE
  5
619
  8
DATA
  6
CONTINUOUS
 62
     7
 10
62.385890697513133
 20
-414.09656141786229
 30
0.0
 11
62.860557604375373
 21
-413.3090617652299
 31
0.0
  0
LINE
  5
61A
  8
DATA
  6
CONTINUOUS
 62
     7
 10
63.716180264893673
 20
-415.14288163512362
 30
0.0
 11
64.368372808974655
 21
-414.47278856729781
 31
0.0
  0
LINE
  5
61B
  8
DATA
  6
CONTINUOUS
 62
     7
 10
64.870077807299737
 20
-416.69844024239831
 30
0.0
 11
65.714235207883135
 21
-416.2185190369072
 31
0.0
  0
LINE
  5
61C
  8
DATA
  6
CONTINUOUS
 62
     7
 10
65.465341919909321
 20
-418.1975409519643
 30
0.0
 11
66.447876349214226
 21
-418.02825343892067
 31
0.0
  0
LINE
  5
61D
  8
DATA
  6
CONTINUOUS
 62
     7
 10
66.373539739141293
 20
-422.0706437441159
 30
0.0
 11
65.437268589803381
 21
-421.81424131940571
 31
0.0
  0
LINE
  5
61E
  8
DATA
  6
CONTINUOUS
 62
     7
 10
64.752418917982965
 20
-423.41948199219001
 30
0.0
 11
65.648757958014613
 21
-423.94608069345429
 31
0.0
  0
LINE
  5
61F
  8
DATA
  6
CONTINUOUS
 62
     7
 10
64.503728767631074
 20
-425.45321863727821
 30
0.0
 11
63.766072614610408
 21
-424.71556248425748
 31
0.0
  0
LINE
  5
620
  8
DATA
  6
CONTINUOUS
 62
     7
 10
62.870288153957887
 20
-426.7352968955247
 30
0.0
 11
62.342826414540717
 21
-425.83855855515191
 31
0.0
  0
LINE
  5
621
  8
DATA
  6
CONTINUOUS
 62
     7
 10
59.05255597241424
 20
-412.87285991914541
 30
0.0
 11
59.05255597241424
 21
-412.10054550071243
 31
0.0
  0
LINE
  5
622
  8
DATA
  6
CONTINUOUS
 62
     7
 10
55.140831877116661
 20
-422.95176321067822
 30
0.0
 11
54.103264828509978
 21
-424.05767901342449
 31
0.0
  0
LINE
  5
623
  8
DATA
  6
CONTINUOUS
 62
     7
 10
55.270118387452868
 20
-425.15241769090972
 30
0.0
 11
56.307685436055309
 21
-424.046501888168
 31
0.0
  0
LINE
  5
624
  8
DATA
  6
CONTINUOUS
 62
     7
 10
58.237380688704462
 20
-424.78940673950819
 30
0.0
 11
58.237380688704462
 21
-426.30143996072968
 31
0.0
  0
LINE
  5
625
  8
DATA
  6
CONTINUOUS
 62
     7
 10
59.837380688704371
 20
-424.75041454087449
 30
0.0
 11
59.837380688704371
 21
-426.27199085992868
 31
0.0
  0
TEXT
  5
626
  8
DATA
 62
     7
 10
53.157179344576413
 20
-434.00384583365451
 30
0.0
 40
1.923828125
  1
Mix/Decay
 41
0.8
 11
53.157179344576413
 21
-432.08001770865451
 31
0.0
 73
     3
  0
TEXT
  5
627
  8
DATA
 62
     7
 10
54.483831233588759
 20
-430.65178602880479
 30
0.0
 40
1.923828125
  1
MIDI CC
 41
0.8
 11
54.483831233588759
 21
-428.72795790380479
 31
0.0
 73
     3
  0
LINE
  5
628
  8
DATA
  6
CONTINUOUS
 62
     7
 10
-119.2726352584138
 20
-282.84638818737119
 30
0.0
 11
-116.67263525841381
 21
-282.84638818737119
 31
0.0
  0
LINE
  5
629
  8
DATA
  6
CONTINUOUS
 62
     7
 10
-120.7726352584137
 20
-281.34638818737108
 30
0.0
 11
-120.7726352584137
 21
-279.84638818737108
 31
0.0
  0
LINE
  5
62A
  8
DATA
  6
CONTINUOUS
 62
     7
 10
-115.17263525841371
 20
-281.34638818737108
 30
0.0
 11
-115.17263525841371
 21
-279.84638818737108
 31
0.0
  0
ARC
  5
62B
  8
DATA
  6
CONTINUOUS
 62
     7
 10
-119.2726352584138
 20
-281.34638818737108
 30
0.0
 40
1.5
 50
180.0
 51
270.0
  0
ARC
  5
62C
  8
DATA
  6
CONTINUOUS
 62
     7
 10
-116.67263525841381
 20
-281.34638818737108
 30
0.0
 40
1.5
 50
270.0
 51
0.0
  0
LINE
  5
62D
  8
DATA
  6
CONTINUOUS
 62
     7
 10
54.272529238082193
 20
-281.29879526060341
 30
0.0
 11
52.34542140194911
 21
-281.29879526060341
 31
0.0
  0
LINE
  5
62E
  8
DATA
  6
CONTINUOUS
 62
     7
 10
52.34542140194911
 20
-281.29879526060341
 30
0.0
 11
52.645421401949129
 21
-284.7987952606033
 31
0.0
  0
LINE
  5
62F
  8
DATA
  6
CONTINUOUS
 62
     7
 10
52.645421401949129
 20
-284.7987952606033
 30
0.0
 11
54.272529238082193
 21
-296.29879526060358
 31
0.0
  0
LINE
  5
630
  8
DATA
  6
CONTINUOUS
 62
     7
 10
65.331664306220574
 20
-284.7987952606033
 30
0.0
 11
63.728006637065782
 21
-296.29879526060358
 31
0.0
  0
LINE
  5
631
  8
DATA
  6
CONTINUOUS
 62
     7
 10
63.728006637065782
 20
-281.29879526060341
 30
0.0
 11
54.272529238082193
 21
-281.29879526060341
 31
0.0
  0
LINE
  5
632
  8
DATA
  6
CONTINUOUS
 62
     7
 10
65.655114473198978
 20
-281.29879526060341
 30
0.0
 11
65.355114473198896
 21
-284.7987952606033
 31
0.0
  0
LINE
  5
633
  8
DATA
  6
CONTINUOUS
 62
     7
 10
63.728006637065782
 20
-281.29879526060341
 30
0.0
 11
65.655114473198978
 21
-281.29879526060341
 31
0.0
  0
LINE
  5
634
  8
DATA
  6
CONTINUOUS
 62
     7
 10
57.10026793757384
 20
-296.29879526060358
 30
0.0
 11
56.488542854084741
 21
-284.7987952606033
 31
0.0
  0
LINE
  5
635
  8
DATA
  6
CONTINUOUS
 62
     7
 10
55.40026793757373
 20
-296.29879526060358
 30
0.0
 11
54.788542854084639
 21
-284.7987952606033
 31
0.0
  0
LINE
  5
636
  8
DATA
  6
CONTINUOUS
 62
     7
 10
60.900267937574021
 20
-296.29879526060358
 30
0.0
 11
61.488542854085033
 21
-284.7987952606033
 31
0.0
  0
LINE
  5
637
  8
DATA
  6
CONTINUOUS
 62
     7
 10
62.600267937574131
 20
-296.29879526060358
 30
0.0
 11
63.188542854085142
 21
-284.7987952606033
 31
0.0
  0
LINE
  5
638
  8
DATA
  6
CONTINUOUS
 62
     7
 10
59.650267937574021
 20
-284.7987952606033
 30
0.0
 11
65.355114473198896
 21
-284.7987952606033
 31
0.0
  0
LINE
  5
639
  8
DATA
  6
CONTINUOUS
 62
     7
 10
58.350267937574003
 20
-284.7987952606033
 30
0.0
 11
52.645421401949129
 21
-284.7987952606033
 31
0.0
  0
LINE
  5
63A
  8
DATA
  6
CONTINUOUS
 62
     7
 10
59.650267937574021
 20
-296.29879526060358
 30
0.0
 11
63.728006637065732
 21
-296.29879526060358
 31
0.0
  0
LINE
  5
63B
  8
DATA
  6
CONTINUOUS
 62
     7
 10
58.350267937574003
 20
-296.29879526060358
 30
0.0
 11
54.272529238082249
 21
-296.29879526060358
 31
0.0
  0
LINE
  5
63C
  8
DATA
  6
CONTINUOUS
 62
     7
 10
58.350267937574003
 20
-284.7987952606033
 30
0.0
 11
52.645421401949129
 21
-284.7987952606033
 31
0.0
  0
LINE
  5
63D
  8
DATA
  6
CONTINUOUS
 62
     7
 10
59.650267937574021
 20
-284.7987952606033
 30
0.0
 11
65.355114473198896
 21
-284.7987952606033
 31
0.0
  0
LINE
  5
63E
  8
DATA
  6
CONTINUOUS
 62
     7
 10
58.350267937574003
 20
-296.29879526060358
 30
0.0
 11
54.272529238082193
 21
-296.29879526060358
 31
0.0
  0
LINE
  5
63F
  8
DATA
  6
CONTINUOUS
 62
     7
 10
59.650267937574021
 20
-296.29879526060358
 30
0.0
 11
63.728006637065782
 21
-296.29879526060358
 31
0.0
  0
ARC
  5
640
  8
DATA
  6
CONTINUOUS
 62
     7
 10
59.000267937573987
 20
-295.87389577549447
 30
0.0
 40
0.924899485108996
 50
225.34960338822449
 51
314.65039661177798
  0
LINE
  5
641
  8
DATA
  6
CONTINUOUS
 62
     7
 10
58.350267937574003
 20
-296.53187682199581
 30
0.0
 11
58.350267937574003
 21
-281.29879526060341
 31
0.0
  0
LINE
  5
642
  8
DATA
  6
CONTINUOUS
 62
     7
 10
59.650267937574021
 20
-296.53187682199581
 30
0.0
 11
59.650267937574021
 21
-281.29879526060341
 31
0.0
  0
LINE
  5
643
  8
DATA
  6
CONTINUOUS
 62
     7
 10
54.621051012406546
 20
-280.79160558473501
 30
0.0
 11
54.621051012406546
 21
-281.30226554893488
 31
0.0
  0
LINE
  5
644
  8
DATA
  6
CONTINUOUS
 62
     7
 10
63.421051012406963
 20
-279.84447408771211
 30
0.0
 11
63.421051012406963
 21
-281.29879526060341
 31
0.0
  0
LINE
  5
645
  8
DATA
  6
CONTINUOUS
 62
     7
 10
54.621051012406546
 20
-280.79160558473501
 30
0.0
 11
54.621051012406546
 21
-279.84447408771211
 31
0.0
  0
ARC
  5
646
  8
DATA
  6
CONTINUOUS
 62
     7
 10
-121.7864741172247
 20
-279.50854721242501
 30
0.0
 40
1.5374999999999741
 50
347.30659189143302
 51
347.31961650818528
  0
ARC
  5
647
  8
DATA
  6
CONTINUOUS
 62
     7
 10
-114.2864741172247
 20
-279.50854721242501
 30
0.0
 40
1.537499999999969
 50
192.68038349181489
 51
192.6934081085997
  0
ARC
  5
648
  8
DATA
  6
CONTINUOUS
 62
     7
 10
49.050928885725057
 20
-279.50854721242501
 30
0.0
 40
1.537499999999969
 50
192.68038349181489
 51
347.31961650818522
  0
CIRCLE
  5
649
  8
DATA
  6
CONTINUOUS
 62
     7
 10
26.923311043734909
 20
-420.08919402644392
 30
0.0
 40
4.75
  0
CIRCLE
  5
64A
  8
DATA
  6
CONTINUOUS
 62
     7
 10
26.923311043734909
 20
-420.08919402644392
 30
0.0
 40
6.25
  0
POLYLINE
  5
64B
  8
DATA
  6
CONTINUOUS
 62
     7
 66
     1
 10
0.0
 20
0.0
 30
0.0
 70
   129
  0
VERTEX
  5
EC0
  8
DATA
  6
CONTINUOUS
 62
     7
 10
27.13738068870445
 20
-412.87285991914518
 30
0.0
  0
VERTEX
  5
EC1
  8
DATA
  6
CONTINUOUS
 62
     7
 10
27.13738068870445
 20
-412.87285991914518
 30
0.0
 42
-0.414213562373049
  0
VERTEX
  5
EC2
  8
DATA
  6
CONTINUOUS
 62
     7
 10
27.837380688704371
 20
-413.57285991914529
 30
0.0
  0
VERTEX
  5
EC3
  8
DATA
  6
CONTINUOUS
 62
     7
 10
27.837380688704371
 20
-419.33285991914528
 30
0.0
  0
VERTEX
  5
EC4
  8
DATA
  6
CONTINUOUS
 62
     7
 10
27.837380688704371
 20
-419.33285991914528
 30
0.0
 42
-0.4142135623731189
  0
VERTEX
  5
EC5
  8
DATA
  6
CONTINUOUS
 62
     7
 10
27.13738068870445
 20
-420.03285991914532
 30
0.0
  0
VERTEX
  5
EC6
  8
DATA
  6
CONTINUOUS
 62
     7
 10
26.937380688704511
 20
-420.03285991914532
 30
0.0
  0
VERTEX
  5
EC7
  8
DATA
  6
CONTINUOUS
 62
     7
 10
26.937380688704469
 20
-420.03285991914532
 30
0.0
 42
-0.4142135623731115
  0
VERTEX
  5
EC8
  8
DATA
  6
CONTINUOUS
 62
     7
 10
26.237380688704469
 20
-419.33285991914528
 30
0.0
  0
VERTEX
  5
EC9
  8
DATA
  6
CONTINUOUS
 62
     7
 10
26.23738068870458
 20
-413.57285991914529
 30
0.0
  0
VERTEX
  5
ECA
  8
DATA
  6
CONTINUOUS
 62
     7
 10
26.23738068870458
 20
-413.57285991914529
 30
0.0
 42
-0.4142135623730475
  0
VERTEX
  5
ECB
  8
DATA
  6
CONTINUOUS
 62
     7
 10
26.937380688704621
 20
-412.87285991914541
 30
0.0
  0
SEQEND
  5
ECC
  8
DATA
  6
CONTINUOUS
 62
     7
  0
LINE
  5
659
  8
DATA
  6
CONTINUOUS
 62
     7
 10
22.241164100288451
 20
-419.28919402644402
 30
0.0
 11
20.72472249471824
 21
-419.28919402644402
 31
0.0
  0
LINE
  5
65A
  8
DATA
  6
CONTINUOUS
 62
     7
 10
22.241164100288451
 20
-420.88919402644387
 30
0.0
 11
20.72472249471824
 21
-420.88919402644387
 31
0.0
  0
LINE
  5
65B
  8
DATA
  6
CONTINUOUS
 62
     7
 10
31.605457987181381
 20
-419.28919402644402
 30
0.0
 11
33.121899592751483
 21
-419.28919402644402
 31
0.0
  0
LINE
  5
65C
  8
DATA
  6
CONTINUOUS
 62
     7
 10
31.605457987181381
 20
-420.88919402644387
 30
0.0
 11
33.121899592751483
 21
-420.88919402644387
 31
0.0
  0
LINE
  5
65D
  8
DATA
  6
CONTINUOUS
 62
     7
 10
23.046847764566142
 20
-417.34410159717362
 30
0.0
 11
21.97456162199072
 21
-416.27181545459808
 31
0.0
  0
LINE
  5
65E
  8
DATA
  6
CONTINUOUS
 62
     7
 10
24.178218614460121
 20
-416.2127307472706
 30
0.0
 11
23.10593247188925
 21
-415.14044460469972
 31
0.0
  0
LINE
  5
65F
  8
DATA
  6
CONTINUOUS
 62
     7
 10
29.66840347300527
 20
-416.21273074727509
 30
0.0
 11
30.740689615580582
 21
-415.14044460469972
 31
0.0
  0
LINE
  5
660
  8
DATA
  6
CONTINUOUS
 62
     7
 10
31.872060465479109
 20
-416.27181545459831
 30
0.0
 11
30.799774322908121
 21
-417.3441015971693
 31
0.0
  0
LINE
  5
661
  8
DATA
  6
CONTINUOUS
 62
     7
 10
31.872060465479109
 20
-423.90657259828959
 30
0.0
 11
30.799774322908121
 21
-422.8342864557186
 31
0.0
  0
LINE
  5
662
  8
DATA
  6
CONTINUOUS
 62
     7
 10
30.740689615580582
 20
-425.03794344818812
 30
0.0
 11
29.66840347300527
 21
-423.96565730561269
 31
0.0
  0
ARC
  5
663
  8
DATA
  6
CONTINUOUS
 62
     7
 10
26.854893282190599
 20
-419.95468887063669
 30
0.0
 40
6.8400000000000372
 50
93.853979695462726
 51
240.88271410567279
  0
ARC
  5
664
  8
DATA
  6
CONTINUOUS
 62
     7
 10
26.854893282190599
 20
-419.95468887063669
 30
0.0
 40
6.8400000000000372
 50
300.65928338484559
 51
82.830667981082485
  0
LINE
  5
665
  8
DATA
  6
CONTINUOUS
 62
     7
 10
34.708311043735002
 20
-420.025036342367
 30
0.0
 11
33.69453152066675
 21
-420.025036342367
 31
0.0
  0
LINE
  5
666
  8
DATA
  6
CONTINUOUS
 62
     7
 10
23.52655631596841
 20
-425.9302870029789
 30
0.0
 11
23.053291237712671
 21
-426.7799731815204
 31
0.0
  0
LINE
  5
667
  8
DATA
  6
CONTINUOUS
 62
     7
 10
22.109643990389401
 20
-424.88096628453218
 30
0.0
 11
21.4522585825097
 21
-425.56343051094427
 31
0.0
  0
LINE
  5
668
  8
DATA
  6
CONTINUOUS
 62
     7
 10
20.981837558201761
 20
-423.46080017277183
 30
0.0
 11
20.183665523373211
 21
-423.92162501193968
 31
0.0
  0
LINE
  5
669
  8
DATA
  6
CONTINUOUS
 62
     7
 10
20.30820182210303
 20
-421.9362112465912
 30
0.0
 11
19.4473619998993
 21
-422.19676627353999
 31
0.0
  0
LINE
  5
66A
  8
DATA
  6
CONTINUOUS
 62
     7
 10
20.015255043714571
 20
-420.025036342367
 30
0.0
 11
19.13831104373665
 21
-420.025036342367
 31
0.0
  0
LINE
  5
66B
  8
DATA
  6
CONTINUOUS
 62
     7
 10
20.24747812290391
 20
-418.1861683271203
 30
0.0
 11
19.390857128322772
 21
-418.05822089291712
 31
0.0
  0
LINE
  5
66C
  8
DATA
  6
CONTINUOUS
 62
     7
 10
20.911488191995002
 20
-416.56919984630917
 30
0.0
 11
20.176213445686049
 21
-416.14136552696709
 31
0.0
  0
LINE
  5
66D
  8
DATA
  6
CONTINUOUS
 62
     7
 10
21.941814612788921
 20
-415.19577534040559
 30
0.0
 11
21.342893319839082
 21
-414.59685404745602
 31
0.0
  0
LINE
  5
66E
  8
DATA
  6
CONTINUOUS
 62
     7
 10
23.401195993959529
 20
-414.05065846411281
 30
0.0
 11
22.976333933509089
 21
-413.31477578920442
 31
0.0
  0
LINE
  5
66F
  8
DATA
  6
CONTINUOUS
 62
     7
 10
25.239079255949068
 20
-413.30828043952829
 30
0.0
 11
25.035845395161829
 21
-412.47230846262642
 31
0.0
  0
LINE
  5
670
  8
DATA
  6
CONTINUOUS
 62
     7
 10
28.84714988562158
 20
-413.41125600813058
 30
0.0
 11
29.108460552122921
 21
-412.55299869350392
 31
0.0
  0
LINE
  5
671
  8
DATA
  6
CONTINUOUS
 62
     7
 10
30.38589069751313
 20
-414.09656141786229
 30
0.0
 11
30.860557604375369
 21
-413.3090617652299
 31
0.0
  0
LINE
  5
672
  8
DATA
  6
CONTINUOUS
 62
     7
 10
31.716180264893669
 20
-415.14288163512362
 30
0.0
 11
32.368372808974669
 21
-414.47278856729781
 31
0.0
  0
LINE
  5
673
  8
DATA
  6
CONTINUOUS
 62
     7
 10
32.870077807299737
 20
-416.69844024239831
 30
0.0
 11
33.714235207883149
 21
-416.2185190369072
 31
0.0
  0
LINE
  5
674
  8
DATA
  6
CONTINUOUS
 62
     7
 10
33.465341919909321
 20
-418.1975409519643
 30
0.0
 11
34.447876349214233
 21
-418.02825343892067
 31
0.0
  0
LINE
  5
675
  8
DATA
  6
CONTINUOUS
 62
     7
 10
34.373539739141307
 20
-422.0706437441159
 30
0.0
 11
33.437268589803381
 21
-421.81424131940571
 31
0.0
  0
LINE
  5
676
  8
DATA
  6
CONTINUOUS
 62
     7
 10
32.752418917982972
 20
-423.41948199219001
 30
0.0
 11
33.648757958014613
 21
-423.94608069345429
 31
0.0
  0
LINE
  5
677
  8
DATA
  6
CONTINUOUS
 62
     7
 10
32.503728767631102
 20
-425.45321863727821
 30
0.0
 11
31.766072614610412
 21
-424.71556248425748
 31
0.0
  0
LINE
  5
678
  8
DATA
  6
CONTINUOUS
 62
     7
 10
30.87028815395789
 20
-426.7352968955247
 30
0.0
 11
30.342826414540731
 21
-425.83855855515191
 31
0.0
  0
LINE
  5
679
  8
DATA
  6
CONTINUOUS
 62
     7
 10
27.05255597241424
 20
-412.87285991914541
 30
0.0
 11
27.05255597241424
 21
-412.10054550071243
 31
0.0
  0
LINE
  5
67A
  8
DATA
  6
CONTINUOUS
 62
     7
 10
23.140831877116639
 20
-422.95176321067822
 30
0.0
 11
22.103264828509989
 21
-424.05767901342449
 31
0.0
  0
LINE
  5
67B
  8
DATA
  6
CONTINUOUS
 62
     7
 10
23.270118387452872
 20
-425.15241769090972
 30
0.0
 11
24.30768543605533
 21
-424.046501888168
 31
0.0
  0
LINE
  5
67C
  8
DATA
  6
CONTINUOUS
 62
     7
 10
26.237380688704469
 20
-424.78940673950819
 30
0.0
 11
26.237380688704469
 21
-426.30143996072968
 31
0.0
  0
LINE
  5
67D
  8
DATA
  6
CONTINUOUS
 62
     7
 10
27.837380688704371
 20
-424.75041454087449
 30
0.0
 11
27.837380688704371
 21
-426.27199085992868
 31
0.0
  0
TEXT
  5
67E
  8
DATA
 62
     7
 10
19.535394420317829
 20
-434.00384583365451
 30
0.0
 40
1.923828125
  1
Reverb Type
 41
0.8
 11
19.535394420317829
 21
-432.08001770865451
 31
0.0
 73
     3
  0
TEXT
  5
67F
  8
DATA
 62
     7
 10
24.815147062210471
 20
-430.65178602880479
 30
0.0
 40
1.923828125
  1
Mix
 41
0.8
 11
24.815147062210471
 21
-428.72795790380479
 31
0.0
 73
     3
  0
CIRCLE
  5
680
  8
DATA
  6
CONTINUOUS
 62
     7
 10
-5.0766889562650883
 20
-420.08919402644392
 30
0.0
 40
4.75
  0
CIRCLE
  5
681
  8
DATA
  6
CONTINUOUS
 62
     7
 10
-5.0766889562650883
 20
-420.08919402644392
 30
0.0
 40
6.25
  0
POLYLINE
  5
682
  8
DATA
  6
CONTINUOUS
 62
     7
 66
     1
 10
0.0
 20
0.0
 30
0.0
 70
   129
  0
VERTEX
  5
ECD
  8
DATA
  6
CONTINUOUS
 62
     7
 10
-4.8626193112955596
 20
-412.87285991914518
 30
0.0
  0
VERTEX
  5
ECE
  8
DATA
  6
CONTINUOUS
 62
     7
 10
-4.8626193112955596
 20
-412.87285991914518
 30
0.0
 42
-0.4142135623730382
  0
VERTEX
  5
ECF
  8
DATA
  6
CONTINUOUS
 62
     7
 10
-4.1626193112956278
 20
-413.57285991914529
 30
0.0
  0
VERTEX
  5
ED0
  8
DATA
  6
CONTINUOUS
 62
     7
 10
-4.1626193112956278
 20
-419.33285991914528
 30
0.0
  0
VERTEX
  5
ED1
  8
DATA
  6
CONTINUOUS
 62
     7
 10
-4.1626193112956278
 20
-419.33285991914528
 30
0.0
 42
-0.4142135623730951
  0
VERTEX
  5
ED2
  8
DATA
  6
CONTINUOUS
 62
     7
 10
-4.8626193112955596
 20
-420.03285991914532
 30
0.0
  0
VERTEX
  5
ED3
  8
DATA
  6
CONTINUOUS
 62
     7
 10
-5.0626193112954923
 20
-420.03285991914532
 30
0.0
  0
VERTEX
  5
ED4
  8
DATA
  6
CONTINUOUS
 62
     7
 10
-5.0626193112955367
 20
-420.03285991914532
 30
0.0
 42
-0.4142135623731117
  0
VERTEX
  5
ED5
  8
DATA
  6
CONTINUOUS
 62
     7
 10
-5.7626193112955368
 20
-419.33285991914528
 30
0.0
  0
VERTEX
  5
ED6
  8
DATA
  6
CONTINUOUS
 62
     7
 10
-5.7626193112954232
 20
-413.57285991914529
 30
0.0
  0
VERTEX
  5
ED7
  8
DATA
  6
CONTINUOUS
 62
     7
 10
-5.7626193112954232
 20
-413.57285991914529
 30
0.0
 42
-0.4142135623730475
  0
VERTEX
  5
ED8
  8
DATA
  6
CONTINUOUS
 62
     7
 10
-5.0626193112953777
 20
-412.87285991914541
 30
0.0
  0
SEQEND
  5
ED9
  8
DATA
  6
CONTINUOUS
 62
     7
  0
LINE
  5
690
  8
DATA
  6
CONTINUOUS
 62
     7
 10
-9.7588358997115545
 20
-419.28919402644402
 30
0.0
 11
-11.27527750528176
 21
-419.28919402644402
 31
0.0
  0
LINE
  5
691
  8
DATA
  6
CONTINUOUS
 62
     7
 10
-9.7588358997115545
 20
-420.88919402644387
 30
0.0
 11
-11.27527750528176
 21
-420.88919402644387
 31
0.0
  0
LINE
  5
692
  8
DATA
  6
CONTINUOUS
 62
     7
 10
-0.3945420128186186
 20
-419.28919402644402
 30
0.0
 11
1.121899592751475
 21
-419.28919402644402
 31
0.0
  0
LINE
  5
693
  8
DATA
  6
CONTINUOUS
 62
     7
 10
-0.3945420128186186
 20
-420.88919402644387
 30
0.0
 11
1.121899592751475
 21
-420.88919402644387
 31
0.0
  0
LINE
  5
694
  8
DATA
  6
CONTINUOUS
 62
     7
 10
-8.9531522354338637
 20
-417.34410159717362
 30
0.0
 11
-10.02543837800928
 21
-416.27181545459808
 31
0.0
  0
LINE
  5
695
  8
DATA
  6
CONTINUOUS
 62
     7
 10
-7.8217813855398779
 20
-416.2127307472706
 30
0.0
 11
-8.8940675281107531
 21
-415.14044460469972
 31
0.0
  0
LINE
  5
696
  8
DATA
  6
CONTINUOUS
 62
     7
 10
-2.331596526994729
 20
-416.21273074727509
 30
0.0
 11
-1.2593103844194209
 21
-415.14044460469972
 31
0.0
  0
LINE
  5
697
  8
DATA
  6
CONTINUOUS
 62
     7
 10
-0.1279395345208911
 20
-416.27181545459831
 30
0.0
 11
-1.2002256770918791
 21
-417.3441015971693
 31
0.0
  0
LINE
  5
698
  8
DATA
  6
CONTINUOUS
 62
     7
 10
-0.1279395345208911
 20
-423.90657259828959
 30
0.0
 11
-1.2002256770918791
 21
-422.8342864557186
 31
0.0
  0
LINE
  5
699
  8
DATA
  6
CONTINUOUS
 62
     7
 10
-1.2593103844194209
 20
-425.03794344818812
 30
0.0
 11
-2.331596526994729
 21
-423.96565730561269
 31
0.0
  0
ARC
  5
69A
  8
DATA
  6
CONTINUOUS
 62
     7
 10
-5.145106717809397
 20
-419.95468887063669
 30
0.0
 40
6.8400000000000372
 50
93.853979695462726
 51
240.88271410567279
  0
ARC
  5
69B
  8
DATA
  6
CONTINUOUS
 62
     7
 10
-5.145106717809397
 20
-419.95468887063669
 30
0.0
 40
6.8400000000000372
 50
300.65928338484559
 51
82.830667981082485
  0
LINE
  5
69C
  8
DATA
  6
CONTINUOUS
 62
     7
 10
2.708311043734994
 20
-420.025036342367
 30
0.0
 11
1.6945315206667431
 21
-420.025036342367
 31
0.0
  0
LINE
  5
69D
  8
DATA
  6
CONTINUOUS
 62
     7
 10
-8.4734436840315936
 20
-425.9302870029789
 30
0.0
 11
-8.9467087622873294
 21
-426.7799731815204
 31
0.0
  0
LINE
  5
69E
  8
DATA
  6
CONTINUOUS
 62
     7
 10
-9.8903560096105991
 20
-424.88096628453218
 30
0.0
 11
-10.5477414174903
 21
-425.56343051094427
 31
0.0
  0
LINE
  5
69F
  8
DATA
  6
CONTINUOUS
 62
     7
 10
-11.018162441798239
 20
-423.46080017277183
 30
0.0
 11
-11.816334476626791
 21
-423.92162501193968
 31
0.0
  0
LINE
  5
6A0
  8
DATA
  6
CONTINUOUS
 62
     7
 10
-11.69179817789697
 20
-421.9362112465912
 30
0.0
 11
-12.5526380001007
 21
-422.19676627353999
 31
0.0
  0
LINE
  5
6A1
  8
DATA
  6
CONTINUOUS
 62
     7
 10
-11.98474495628542
 20
-420.025036342367
 30
0.0
 11
-12.86168895626335
 21
-420.025036342367
 31
0.0
  0
LINE
  5
6A2
  8
DATA
  6
CONTINUOUS
 62
     7
 10
-11.752521877096081
 20
-418.1861683271203
 30
0.0
 11
-12.60914287167722
 21
-418.05822089291712
 31
0.0
  0
LINE
  5
6A3
  8
DATA
  6
CONTINUOUS
 62
     7
 10
-11.08851180800499
 20
-416.56919984630917
 30
0.0
 11
-11.82378655431395
 21
-416.14136552696709
 31
0.0
  0
LINE
  5
6A4
  8
DATA
  6
CONTINUOUS
 62
     7
 10
-10.05818538721107
 20
-415.19577534040559
 30
0.0
 11
-10.65710668016092
 21
-414.59685404745602
 31
0.0
  0
LINE
  5
6A5
  8
DATA
  6
CONTINUOUS
 62
     7
 10
-8.5988040060404671
 20
-414.05065846411281
 30
0.0
 11
-9.0236660664909056
 21
-413.31477578920442
 31
0.0
  0
LINE
  5
6A6
  8
DATA
  6
CONTINUOUS
 62
     7
 10
-6.7609207440509351
 20
-413.30828043952829
 30
0.0
 11
-6.9641546048381713
 21
-412.47230846262642
 31
0.0
  0
LINE
  5
6A7
  8
DATA
  6
CONTINUOUS
 62
     7
 10
-3.1528501143784231
 20
-413.41125600813058
 30
0.0
 11
-2.8915394478770788
 21
-412.55299869350392
 31
0.0
  0
LINE
  5
6A8
  8
DATA
  6
CONTINUOUS
 62
     7
 10
-1.614109302486866
 20
-414.09656141786229
 30
0.0
 11
-1.1394423956246269
 21
-413.3090617652299
 31
0.0
  0
LINE
  5
6A9
  8
DATA
  6
CONTINUOUS
 62
     7
 10
-0.2838197351063343
 20
-415.14288163512362
 30
0.0
 11
0.3683728089746694
 21
-414.47278856729781
 31
0.0
  0
LINE
  5
6AA
  8
DATA
  6
CONTINUOUS
 62
     7
 10
0.8700778072997366
 20
-416.69844024239831
 30
0.0
 11
1.7142352078831491
 21
-416.2185190369072
 31
0.0
  0
LINE
  5
6AB
  8
DATA
  6
CONTINUOUS
 62
     7
 10
1.4653419199093201
 20
-418.1975409519643
 30
0.0
 11
2.4478763492142259
 21
-418.02825343892067
 31
0.0
  0
LINE
  5
6AC
  8
DATA
  6
CONTINUOUS
 62
     7
 10
2.3735397391413069
 20
-422.0706437441159
 30
0.0
 11
1.4372685898033799
 21
-421.81424131940571
 31
0.0
  0
LINE
  5
6AD
  8
DATA
  6
CONTINUOUS
 62
     7
 10
0.7524189179829648
 20
-423.41948199219001
 30
0.0
 11
1.648757958014613
 21
-423.94608069345429
 31
0.0
  0
LINE
  5
6AE
  8
DATA
  6
CONTINUOUS
 62
     7
 10
0.5037287676310882
 20
-425.45321863727821
 30
0.0
 11
-0.2339273853895918
 21
-424.71556248425748
 31
0.0
  0
LINE
  5
6AF
  8
DATA
  6
CONTINUOUS
 62
     7
 10
-1.1297118460421129
 20
-426.7352968955247
 30
0.0
 11
-1.6571735854592751
 21
-425.83855855515191
 31
0.0
  0
LINE
  5
6B0
  8
DATA
  6
CONTINUOUS
 62
     7
 10
-4.9474440275857603
 20
-412.87285991914541
 30
0.0
 11
-4.9474440275857603
 21
-412.10054550071243
 31
0.0
  0
LINE
  5
6B1
  8
DATA
  6
CONTINUOUS
 62
     7
 10
-8.8591681228833448
 20
-422.95176321067822
 30
0.0
 11
-9.8967351714900076
 21
-424.05767901342449
 31
0.0
  0
LINE
  5
6B2
  8
DATA
  6
CONTINUOUS
 62
     7
 10
-8.7298816125471337
 20
-425.15241769090972
 30
0.0
 11
-7.6923145639446764
 21
-424.046501888168
 31
0.0
  0
LINE
  5
6B3
  8
DATA
  6
CONTINUOUS
 62
     7
 10
-5.7626193112955368
 20
-424.78940673950819
 30
0.0
 11
-5.7626193112955368
 21
-426.30143996072968
 31
0.0
  0
LINE
  5
6B4
  8
DATA
  6
CONTINUOUS
 62
     7
 10
-4.1626193112956278
 20
-424.75041454087449
 30
0.0
 11
-4.1626193112956278
 21
-426.27199085992868
 31
0.0
  0
TEXT
  5
6B5
  8
DATA
 62
     7
 10
-10.234651308826621
 20
-434.00384583365451
 30
0.0
 40
1.923828125
  1
Delay Mix
 41
0.8
 11
-10.234651308826621
 21
-432.08001770865451
 31
0.0
 73
     3
  0
TEXT
  5
6B6
  8
DATA
 62
     7
 10
-7.5902991688541794
 20
-430.65178602880479
 30
0.0
 40
1.923828125
  1
Depth
 41
0.8
 11
-7.5902991688541794
 21
-428.72795790380479
 31
0.0
 73
     3
  0
CIRCLE
  5
6B7
  8
DATA
  6
CONTINUOUS
 62
     7
 10
-37.076688956265102
 20
-420.08919402644392
 30
0.0
 40
4.75
  0
CIRCLE
  5
6B8
  8
DATA
  6
CONTINUOUS
 62
     7
 10
-37.076688956265102
 20
-420.08919402644392
 30
0.0
 40
6.25
  0
POLYLINE
  5
6B9
  8
DATA
  6
CONTINUOUS
 62
     7
 66
     1
 10
0.0
 20
0.0
 30
0.0
 70
   129
  0
VERTEX
  5
EDA
  8
DATA
  6
CONTINUOUS
 62
     7
 10
-36.86261931129556
 20
-412.87285991914518
 30
0.0
  0
VERTEX
  5
EDB
  8
DATA
  6
CONTINUOUS
 62
     7
 10
-36.86261931129556
 20
-412.87285991914518
 30
0.0
 42
-0.4142135623730506
  0
VERTEX
  5
EDC
  8
DATA
  6
CONTINUOUS
 62
     7
 10
-36.162619311295622
 20
-413.57285991914529
 30
0.0
  0
VERTEX
  5
EDD
  8
DATA
  6
CONTINUOUS
 62
     7
 10
-36.162619311295622
 20
-419.33285991914528
 30
0.0
  0
VERTEX
  5
EDE
  8
DATA
  6
CONTINUOUS
 62
     7
 10
-36.162619311295622
 20
-419.33285991914528
 30
0.0
 42
-0.4142135623730951
  0
VERTEX
  5
EDF
  8
DATA
  6
CONTINUOUS
 62
     7
 10
-36.86261931129556
 20
-420.03285991914532
 30
0.0
  0
VERTEX
  5
EE0
  8
DATA
  6
CONTINUOUS
 62
     7
 10
-37.062619311295492
 20
-420.03285991914532
 30
0.0
  0
VERTEX
  5
EE1
  8
DATA
  6
CONTINUOUS
 62
     7
 10
-37.062619311295528
 20
-420.03285991914532
 30
0.0
 42
-0.4142135623731129
  0
VERTEX
  5
EE2
  8
DATA
  6
CONTINUOUS
 62
     7
 10
-37.762619311295531
 20
-419.33285991914528
 30
0.0
  0
VERTEX
  5
EE3
  8
DATA
  6
CONTINUOUS
 62
     7
 10
-37.762619311295431
 20
-413.57285991914529
 30
0.0
  0
VERTEX
  5
EE4
  8
DATA
  6
CONTINUOUS
 62
     7
 10
-37.762619311295431
 20
-413.57285991914529
 30
0.0
 42
-0.4142135623730475
  0
VERTEX
  5
EE5
  8
DATA
  6
CONTINUOUS
 62
     7
 10
-37.062619311295379
 20
-412.87285991914541
 30
0.0
  0
SEQEND
  5
EE6
  8
DATA
  6
CONTINUOUS
 62
     7
  0
LINE
  5
6C7
  8
DATA
  6
CONTINUOUS
 62
     7
 10
-41.758835899711563
 20
-419.28919402644402
 30
0.0
 11
-43.27527750528175
 21
-419.28919402644402
 31
0.0
  0
LINE
  5
6C8
  8
DATA
  6
CONTINUOUS
 62
     7
 10
-41.758835899711563
 20
-420.88919402644387
 30
0.0
 11
-43.27527750528175
 21
-420.88919402644387
 31
0.0
  0
LINE
  5
6C9
  8
DATA
  6
CONTINUOUS
 62
     7
 10
-32.394542012818611
 20
-419.28919402644402
 30
0.0
 11
-30.878100407248521
 21
-419.28919402644402
 31
0.0
  0
LINE
  5
6CA
  8
DATA
  6
CONTINUOUS
 62
     7
 10
-32.394542012818611
 20
-420.88919402644387
 30
0.0
 11
-30.878100407248521
 21
-420.88919402644387
 31
0.0
  0
LINE
  5
6CB
  8
DATA
  6
CONTINUOUS
 62
     7
 10
-40.953152235433841
 20
-417.34410159717362
 30
0.0
 11
-42.025438378009277
 21
-416.27181545459808
 31
0.0
  0
LINE
  5
6CC
  8
DATA
  6
CONTINUOUS
 62
     7
 10
-39.821781385539893
 20
-416.2127307472706
 30
0.0
 11
-40.894067528110753
 21
-415.14044460469972
 31
0.0
  0
LINE
  5
6CD
  8
DATA
  6
CONTINUOUS
 62
     7
 10
-34.33159652699473
 20
-416.21273074727509
 30
0.0
 11
-33.259310384419429
 21
-415.14044460469972
 31
0.0
  0
LINE
  5
6CE
  8
DATA
  6
CONTINUOUS
 62
     7
 10
-32.127939534520891
 20
-416.27181545459831
 30
0.0
 11
-33.200225677091879
 21
-417.3441015971693
 31
0.0
  0
LINE
  5
6CF
  8
DATA
  6
CONTINUOUS
 62
     7
 10
-32.127939534520891
 20
-423.90657259828959
 30
0.0
 11
-33.200225677091879
 21
-422.8342864557186
 31
0.0
  0
LINE
  5
6D0
  8
DATA
  6
CONTINUOUS
 62
     7
 10
-33.259310384419429
 20
-425.03794344818812
 30
0.0
 11
-34.33159652699473
 21
-423.96565730561269
 31
0.0
  0
ARC
  5
6D1
  8
DATA
  6
CONTINUOUS
 62
     7
 10
-37.145106717809398
 20
-419.95468887063669
 30
0.0
 40
6.8400000000000372
 50
93.853979695462726
 51
240.88271410567279
  0
ARC
  5
6D2
  8
DATA
  6
CONTINUOUS
 62
     7
 10
-37.145106717809398
 20
-419.95468887063669
 30
0.0
 40
6.8400000000000372
 50
300.65928338484559
 51
82.830667981082485
  0
LINE
  5
6D3
  8
DATA
  6
CONTINUOUS
 62
     7
 10
-29.291688956265009
 20
-420.025036342367
 30
0.0
 11
-30.30546847933325
 21
-420.025036342367
 31
0.0
  0
LINE
  5
6D4
  8
DATA
  6
CONTINUOUS
 62
     7
 10
-40.473443684031601
 20
-425.9302870029789
 30
0.0
 11
-40.946708762287322
 21
-426.7799731815204
 31
0.0
  0
LINE
  5
6D5
  8
DATA
  6
CONTINUOUS
 62
     7
 10
-41.890356009610599
 20
-424.88096628453218
 30
0.0
 11
-42.547741417490293
 21
-425.56343051094427
 31
0.0
  0
LINE
  5
6D6
  8
DATA
  6
CONTINUOUS
 62
     7
 10
-43.018162441798239
 20
-423.46080017277183
 30
0.0
 11
-43.816334476626778
 21
-423.92162501193968
 31
0.0
  0
LINE
  5
6D7
  8
DATA
  6
CONTINUOUS
 62
     7
 10
-43.69179817789697
 20
-421.9362112465912
 30
0.0
 11
-44.5526380001007
 21
-422.19676627353999
 31
0.0
  0
LINE
  5
6D8
  8
DATA
  6
CONTINUOUS
 62
     7
 10
-43.984744956285432
 20
-420.025036342367
 30
0.0
 11
-44.86168895626335
 21
-420.025036342367
 31
0.0
  0
LINE
  5
6D9
  8
DATA
  6
CONTINUOUS
 62
     7
 10
-43.752521877096093
 20
-418.1861683271203
 30
0.0
 11
-44.609142871677207
 21
-418.05822089291712
 31
0.0
  0
LINE
  5
6DA
  8
DATA
  6
CONTINUOUS
 62
     7
 10
-43.088511808005002
 20
-416.56919984630917
 30
0.0
 11
-43.823786554313962
 21
-416.14136552696709
 31
0.0
  0
LINE
  5
6DB
  8
DATA
  6
CONTINUOUS
 62
     7
 10
-42.058185387211061
 20
-415.19577534040559
 30
0.0
 11
-42.657106680160922
 21
-414.59685404745602
 31
0.0
  0
LINE
  5
6DC
  8
DATA
  6
CONTINUOUS
 62
     7
 10
-40.59880400604046
 20
-414.05065846411281
 30
0.0
 11
-41.023666066490897
 21
-413.31477578920442
 31
0.0
  0
LINE
  5
6DD
  8
DATA
  6
CONTINUOUS
 62
     7
 10
-38.760920744050928
 20
-413.30828043952829
 30
0.0
 11
-38.964154604838171
 21
-412.47230846262642
 31
0.0
  0
LINE
  5
6DE
  8
DATA
  6
CONTINUOUS
 62
     7
 10
-35.152850114378431
 20
-413.41125600813058
 30
0.0
 11
-34.891539447877079
 21
-412.55299869350392
 31
0.0
  0
LINE
  5
6DF
  8
DATA
  6
CONTINUOUS
 62
     7
 10
-33.614109302486881
 20
-414.09656141786229
 30
0.0
 11
-33.139442395624627
 21
-413.3090617652299
 31
0.0
  0
LINE
  5
6E0
  8
DATA
  6
CONTINUOUS
 62
     7
 10
-32.283819735106327
 20
-415.14288163512362
 30
0.0
 11
-31.631627191025331
 21
-414.47278856729781
 31
0.0
  0
LINE
  5
6E1
  8
DATA
  6
CONTINUOUS
 62
     7
 10
-31.129922192700271
 20
-416.69844024239831
 30
0.0
 11
-30.285764792116851
 21
-416.2185190369072
 31
0.0
  0
LINE
  5
6E2
  8
DATA
  6
CONTINUOUS
 62
     7
 10
-30.534658080090679
 20
-418.1975409519643
 30
0.0
 11
-29.55212365078577
 21
-418.02825343892067
 31
0.0
  0
LINE
  5
6E3
  8
DATA
  6
CONTINUOUS
 62
     7
 10
-29.626460260858689
 20
-422.0706437441159
 30
0.0
 11
-30.562731410196619
 21
-421.81424131940571
 31
0.0
  0
LINE
  5
6E4
  8
DATA
  6
CONTINUOUS
 62
     7
 10
-31.247581082017032
 20
-423.41948199219001
 30
0.0
 11
-30.351242041985401
 21
-423.94608069345429
 31
0.0
  0
LINE
  5
6E5
  8
DATA
  6
CONTINUOUS
 62
     7
 10
-31.496271232368908
 20
-425.45321863727821
 30
0.0
 11
-32.233927385389592
 21
-424.71556248425748
 31
0.0
  0
LINE
  5
6E6
  8
DATA
  6
CONTINUOUS
 62
     7
 10
-33.12971184604212
 20
-426.7352968955247
 30
0.0
 11
-33.65717358545929
 21
-425.83855855515191
 31
0.0
  0
LINE
  5
6E7
  8
DATA
  6
CONTINUOUS
 62
     7
 10
-36.94744402758576
 20
-412.87285991914541
 30
0.0
 11
-36.94744402758576
 21
-412.10054550071243
 31
0.0
  0
LINE
  5
6E8
  8
DATA
  6
CONTINUOUS
 62
     7
 10
-40.859168122883347
 20
-422.95176321067822
 30
0.0
 11
-41.89673517149
 21
-424.05767901342449
 31
0.0
  0
LINE
  5
6E9
  8
DATA
  6
CONTINUOUS
 62
     7
 10
-40.729881612547132
 20
-425.15241769090972
 30
0.0
 11
-39.692314563944677
 21
-424.046501888168
 31
0.0
  0
LINE
  5
6EA
  8
DATA
  6
CONTINUOUS
 62
     7
 10
-37.762619311295531
 20
-424.78940673950819
 30
0.0
 11
-37.762619311295531
 21
-426.30143996072968
 31
0.0
  0
LINE
  5
6EB
  8
DATA
  6
CONTINUOUS
 62
     7
 10
-36.162619311295622
 20
-424.75041454087449
 30
0.0
 11
-36.162619311295622
 21
-426.27199085992868
 31
0.0
  0
TEXT
  5
6EC
  8
DATA
 62
     7
 10
-41.72784351999583
 20
-434.00384583365451
 30
0.0
 40
1.923828125
  1
feedback
 41
0.8
 11
-41.72784351999583
 21
-432.08001770865451
 31
0.0
 73
     3
  0
TEXT
  5
6ED
  8
DATA
 62
     7
 10
-39.59029916885418
 20
-430.65178602880479
 30
0.0
 40
1.923828125
  1
Speed
 41
0.8
 11
-39.59029916885418
 21
-428.72795790380479
 31
0.0
 73
     3
  0
CIRCLE
  5
6EE
  8
DATA
  6
CONTINUOUS
 62
     7
 10
-69.076688956265102
 20
-420.08919402644392
 30
0.0
 40
4.75
  0
CIRCLE
  5
6EF
  8
DATA
  6
CONTINUOUS
 62
     7
 10
-69.076688956265102
 20
-420.08919402644392
 30
0.0
 40
6.25
  0
POLYLINE
  5
6F0
  8
DATA
  6
CONTINUOUS
 62
     7
 66
     1
 10
0.0
 20
0.0
 30
0.0
 70
   129
  0
VERTEX
  5
EE7
  8
DATA
  6
CONTINUOUS
 62
     7
 10
-68.86261931129556
 20
-412.87285991914518
 30
0.0
  0
VERTEX
  5
EE8
  8
DATA
  6
CONTINUOUS
 62
     7
 10
-68.86261931129556
 20
-412.87285991914518
 30
0.0
 42
-0.4142135623730416
  0
VERTEX
  5
EE9
  8
DATA
  6
CONTINUOUS
 62
     7
 10
-68.162619311295614
 20
-413.57285991914529
 30
0.0
  0
VERTEX
  5
EEA
  8
DATA
  6
CONTINUOUS
 62
     7
 10
-68.162619311295614
 20
-419.33285991914528
 30
0.0
  0
VERTEX
  5
EEB
  8
DATA
  6
CONTINUOUS
 62
     7
 10
-68.162619311295614
 20
-419.33285991914528
 30
0.0
 42
-0.4142135623731189
  0
VERTEX
  5
EEC
  8
DATA
  6
CONTINUOUS
 62
     7
 10
-68.86261931129556
 20
-420.03285991914532
 30
0.0
  0
VERTEX
  5
EED
  8
DATA
  6
CONTINUOUS
 62
     7
 10
-69.062619311295492
 20
-420.03285991914532
 30
0.0
  0
VERTEX
  5
EEE
  8
DATA
  6
CONTINUOUS
 62
     7
 10
-69.062619311295535
 20
-420.03285991914532
 30
0.0
 42
-0.4142135623731129
  0
VERTEX
  5
EEF
  8
DATA
  6
CONTINUOUS
 62
     7
 10
-69.762619311295524
 20
-419.33285991914528
 30
0.0
  0
VERTEX
  5
EF0
  8
DATA
  6
CONTINUOUS
 62
     7
 10
-69.762619311295424
 20
-413.57285991914529
 30
0.0
  0
VERTEX
  5
EF1
  8
DATA
  6
CONTINUOUS
 62
     7
 10
-69.762619311295424
 20
-413.57285991914529
 30
0.0
 42
-0.4142135623730475
  0
VERTEX
  5
EF2
  8
DATA
  6
CONTINUOUS
 62
     7
 10
-69.062619311295379
 20
-412.87285991914541
 30
0.0
  0
SEQEND
  5
EF3
  8
DATA
  6
CONTINUOUS
 62
     7
  0
LINE
  5
6FE
  8
DATA
  6
CONTINUOUS
 62
     7
 10
-73.758835899711542
 20
-419.28919402644402
 30
0.0
 11
-75.275277505281764
 21
-419.28919402644402
 31
0.0
  0
LINE
  5
6FF
  8
DATA
  6
CONTINUOUS
 62
     7
 10
-73.758835899711542
 20
-420.88919402644387
 30
0.0
 11
-75.275277505281764
 21
-420.88919402644387
 31
0.0
  0
LINE
  5
700
  8
DATA
  6
CONTINUOUS
 62
     7
 10
-64.394542012818604
 20
-419.28919402644402
 30
0.0
 11
-62.878100407248532
 21
-419.28919402644402
 31
0.0
  0
LINE
  5
701
  8
DATA
  6
CONTINUOUS
 62
     7
 10
-64.394542012818604
 20
-420.88919402644387
 30
0.0
 11
-62.878100407248532
 21
-420.88919402644387
 31
0.0
  0
LINE
  5
702
  8
DATA
  6
CONTINUOUS
 62
     7
 10
-72.953152235433862
 20
-417.34410159717362
 30
0.0
 11
-74.025438378009284
 21
-416.27181545459808
 31
0.0
  0
LINE
  5
703
  8
DATA
  6
CONTINUOUS
 62
     7
 10
-71.821781385539879
 20
-416.2127307472706
 30
0.0
 11
-72.894067528110753
 21
-415.14044460469972
 31
0.0
  0
LINE
  5
704
  8
DATA
  6
CONTINUOUS
 62
     7
 10
-66.33159652699473
 20
-416.21273074727509
 30
0.0
 11
-65.259310384419422
 21
-415.14044460469972
 31
0.0
  0
LINE
  5
705
  8
DATA
  6
CONTINUOUS
 62
     7
 10
-64.127939534520891
 20
-416.27181545459831
 30
0.0
 11
-65.200225677091879
 21
-417.3441015971693
 31
0.0
  0
LINE
  5
706
  8
DATA
  6
CONTINUOUS
 62
     7
 10
-64.127939534520891
 20
-423.90657259828959
 30
0.0
 11
-65.200225677091879
 21
-422.8342864557186
 31
0.0
  0
LINE
  5
707
  8
DATA
  6
CONTINUOUS
 62
     7
 10
-65.259310384419422
 20
-425.03794344818812
 30
0.0
 11
-66.33159652699473
 21
-423.96565730561269
 31
0.0
  0
ARC
  5
708
  8
DATA
  6
CONTINUOUS
 62
     7
 10
-69.145106717809398
 20
-419.95468887063669
 30
0.0
 40
6.8400000000000372
 50
93.853979695462726
 51
240.88271410567279
  0
ARC
  5
709
  8
DATA
  6
CONTINUOUS
 62
     7
 10
-69.145106717809398
 20
-419.95468887063669
 30
0.0
 40
6.8400000000000372
 50
300.65928338484559
 51
82.830667981082485
  0
LINE
  5
70A
  8
DATA
  6
CONTINUOUS
 62
     7
 10
-61.291688956265013
 20
-420.025036342367
 30
0.0
 11
-62.30546847933325
 21
-420.025036342367
 31
0.0
  0
LINE
  5
70B
  8
DATA
  6
CONTINUOUS
 62
     7
 10
-72.473443684031579
 20
-425.9302870029789
 30
0.0
 11
-72.946708762287344
 21
-426.7799731815204
 31
0.0
  0
LINE
  5
70C
  8
DATA
  6
CONTINUOUS
 62
     7
 10
-73.890356009610599
 20
-424.88096628453218
 30
0.0
 11
-74.5477414174903
 21
-425.56343051094427
 31
0.0
  0
LINE
  5
70D
  8
DATA
  6
CONTINUOUS
 62
     7
 10
-75.018162441798239
 20
-423.46080017277183
 30
0.0
 11
-75.816334476626778
 21
-423.92162501193968
 31
0.0
  0
LINE
  5
70E
  8
DATA
  6
CONTINUOUS
 62
     7
 10
-75.69179817789697
 20
-421.9362112465912
 30
0.0
 11
-76.5526380001007
 21
-422.19676627353999
 31
0.0
  0
LINE
  5
70F
  8
DATA
  6
CONTINUOUS
 62
     7
 10
-75.984744956285425
 20
-420.025036342367
 30
0.0
 11
-76.861688956263336
 21
-420.025036342367
 31
0.0
  0
LINE
  5
710
  8
DATA
  6
CONTINUOUS
 62
     7
 10
-75.752521877096086
 20
-418.1861683271203
 30
0.0
 11
-76.609142871677221
 21
-418.05822089291712
 31
0.0
  0
LINE
  5
711
  8
DATA
  6
CONTINUOUS
 62
     7
 10
-75.088511808004981
 20
-416.56919984630917
 30
0.0
 11
-75.823786554313955
 21
-416.14136552696709
 31
0.0
  0
LINE
  5
712
  8
DATA
  6
CONTINUOUS
 62
     7
 10
-74.058185387211054
 20
-415.19577534040559
 30
0.0
 11
-74.657106680160936
 21
-414.59685404745602
 31
0.0
  0
LINE
  5
713
  8
DATA
  6
CONTINUOUS
 62
     7
 10
-72.598804006040453
 20
-414.05065846411281
 30
0.0
 11
-73.023666066490904
 21
-413.31477578920442
 31
0.0
  0
LINE
  5
714
  8
DATA
  6
CONTINUOUS
 62
     7
 10
-70.760920744050935
 20
-413.30828043952829
 30
0.0
 11
-70.964154604838171
 21
-412.47230846262642
 31
0.0
  0
LINE
  5
715
  8
DATA
  6
CONTINUOUS
 62
     7
 10
-67.152850114378424
 20
-413.41125600813058
 30
0.0
 11
-66.891539447877079
 21
-412.55299869350392
 31
0.0
  0
LINE
  5
716
  8
DATA
  6
CONTINUOUS
 62
     7
 10
-65.614109302486867
 20
-414.09656141786229
 30
0.0
 11
-65.139442395624613
 21
-413.3090617652299
 31
0.0
  0
LINE
  5
717
  8
DATA
  6
CONTINUOUS
 62
     7
 10
-64.283819735106349
 20
-415.14288163512362
 30
0.0
 11
-63.631627191025331
 21
-414.47278856729781
 31
0.0
  0
LINE
  5
718
  8
DATA
  6
CONTINUOUS
 62
     7
 10
-63.129922192700263
 20
-416.69844024239831
 30
0.0
 11
-62.285764792116851
 21
-416.2185190369072
 31
0.0
  0
LINE
  5
719
  8
DATA
  6
CONTINUOUS
 62
     7
 10
-62.534658080090672
 20
-418.1975409519643
 30
0.0
 11
-61.552123650785781
 21
-418.02825343892067
 31
0.0
  0
LINE
  5
71A
  8
DATA
  6
CONTINUOUS
 62
     7
 10
-61.626460260858693
 20
-422.0706437441159
 30
0.0
 11
-62.562731410196612
 21
-421.81424131940571
 31
0.0
  0
LINE
  5
71B
  8
DATA
  6
CONTINUOUS
 62
     7
 10
-63.247581082017042
 20
-423.41948199219001
 30
0.0
 11
-62.351242041985373
 21
-423.94608069345429
 31
0.0
  0
LINE
  5
71C
  8
DATA
  6
CONTINUOUS
 62
     7
 10
-63.496271232368898
 20
-425.45321863727821
 30
0.0
 11
-64.233927385389592
 21
-424.71556248425748
 31
0.0
  0
LINE
  5
71D
  8
DATA
  6
CONTINUOUS
 62
     7
 10
-65.129711846042113
 20
-426.7352968955247
 30
0.0
 11
-65.657173585459276
 21
-425.83855855515191
 31
0.0
  0
LINE
  5
71E
  8
DATA
  6
CONTINUOUS
 62
     7
 10
-68.94744402758576
 20
-412.87285991914541
 30
0.0
 11
-68.94744402758576
 21
-412.10054550071243
 31
0.0
  0
LINE
  5
71F
  8
DATA
  6
CONTINUOUS
 62
     7
 10
-72.859168122883347
 20
-422.95176321067822
 30
0.0
 11
-73.896735171490008
 21
-424.05767901342449
 31
0.0
  0
LINE
  5
720
  8
DATA
  6
CONTINUOUS
 62
     7
 10
-72.729881612547146
 20
-425.15241769090972
 30
0.0
 11
-71.692314563944663
 21
-424.046501888168
 31
0.0
  0
LINE
  5
721
  8
DATA
  6
CONTINUOUS
 62
     7
 10
-69.762619311295524
 20
-424.78940673950819
 30
0.0
 11
-69.762619311295524
 21
-426.30143996072968
 31
0.0
  0
LINE
  5
722
  8
DATA
  6
CONTINUOUS
 62
     7
 10
-68.162619311295614
 20
-424.75041454087449
 30
0.0
 11
-68.162619311295614
 21
-426.27199085992868
 31
0.0
  0
TEXT
  5
723
  8
DATA
 62
     7
 10
-74.234651308826628
 20
-434.00384583365451
 30
0.0
 40
1.923828125
  1
Delay Time
 41
0.8
 11
-74.234651308826628
 21
-432.08001770865451
 31
0.0
 73
     3
  0
TEXT
  5
724
  8
DATA
 62
     7
 10
-71.590299168854187
 20
-430.65178602880479
 30
0.0
 40
1.923828125
  1
type
 41
0.8
 11
-71.590299168854187
 21
-428.72795790380479
 31
0.0
 73
     3
  0
CIRCLE
  5
725
  8
DATA
  6
CONTINUOUS
 62
     7
 10
-224.09827802243461
 20
-420.08919402644392
 30
0.0
 40
4.75
  0
CIRCLE
  5
726
  8
DATA
  6
CONTINUOUS
 62
     7
 10
-224.09827802243461
 20
-420.08919402644392
 30
0.0
 40
6.25
  0
POLYLINE
  5
727
  8
DATA
  6
CONTINUOUS
 62
     7
 66
     1
 10
0.0
 20
0.0
 30
0.0
 70
   129
  0
VERTEX
  5
EF4
  8
DATA
  6
CONTINUOUS
 62
     7
 10
-223.88420837746509
 20
-412.87285991914518
 30
0.0
  0
VERTEX
  5
EF5
  8
DATA
  6
CONTINUOUS
 62
     7
 10
-223.88420837746509
 20
-412.87285991914518
 30
0.0
 42
-0.4142135623730475
  0
VERTEX
  5
EF6
  8
DATA
  6
CONTINUOUS
 62
     7
 10
-223.18420837746521
 20
-413.57285991914529
 30
0.0
  0
VERTEX
  5
EF7
  8
DATA
  6
CONTINUOUS
 62
     7
 10
-223.18420837746521
 20
-419.33285991914528
 30
0.0
  0
VERTEX
  5
EF8
  8
DATA
  6
CONTINUOUS
 62
     7
 10
-223.18420837746521
 20
-419.33285991914528
 30
0.0
 42
-0.4142135623730713
  0
VERTEX
  5
EF9
  8
DATA
  6
CONTINUOUS
 62
     7
 10
-223.88420837746509
 20
-420.03285991914532
 30
0.0
  0
VERTEX
  5
EFA
  8
DATA
  6
CONTINUOUS
 62
     7
 10
-224.08420837746499
 20
-420.03285991914532
 30
0.0
  0
VERTEX
  5
EFB
  8
DATA
  6
CONTINUOUS
 62
     7
 10
-224.0842083774651
 20
-420.03285991914532
 30
0.0
 42
-0.414213562373107
  0
VERTEX
  5
EFC
  8
DATA
  6
CONTINUOUS
 62
     7
 10
-224.78420837746501
 20
-419.33285991914528
 30
0.0
  0
VERTEX
  5
EFD
  8
DATA
  6
CONTINUOUS
 62
     7
 10
-224.78420837746489
 20
-413.57285991914529
 30
0.0
  0
VERTEX
  5
EFE
  8
DATA
  6
CONTINUOUS
 62
     7
 10
-224.78420837746489
 20
-413.57285991914529
 30
0.0
 42
-0.4142135623730713
  0
VERTEX
  5
EFF
  8
DATA
  6
CONTINUOUS
 62
     7
 10
-224.0842083774649
 20
-412.87285991914541
 30
0.0
  0
SEQEND
  5
F00
  8
DATA
  6
CONTINUOUS
 62
     7
  0
LINE
  5
735
  8
DATA
  6
CONTINUOUS
 62
     7
 10
-228.78042496588111
 20
-419.28919402644402
 30
0.0
 11
-230.29686657145129
 21
-419.28919402644402
 31
0.0
  0
LINE
  5
736
  8
DATA
  6
CONTINUOUS
 62
     7
 10
-228.78042496588111
 20
-420.88919402644387
 30
0.0
 11
-230.29686657145129
 21
-420.88919402644387
 31
0.0
  0
LINE
  5
737
  8
DATA
  6
CONTINUOUS
 62
     7
 10
-219.41613107898809
 20
-419.28919402644402
 30
0.0
 11
-217.89968947341811
 21
-419.28919402644402
 31
0.0
  0
LINE
  5
738
  8
DATA
  6
CONTINUOUS
 62
     7
 10
-219.41613107898809
 20
-420.88919402644387
 30
0.0
 11
-217.89968947341811
 21
-420.88919402644387
 31
0.0
  0
LINE
  5
739
  8
DATA
  6
CONTINUOUS
 62
     7
 10
-227.97474130160339
 20
-417.34410159717362
 30
0.0
 11
-229.04702744417881
 21
-416.27181545459808
 31
0.0
  0
LINE
  5
73A
  8
DATA
  6
CONTINUOUS
 62
     7
 10
-226.8433704517094
 20
-416.2127307472706
 30
0.0
 11
-227.91565659428031
 21
-415.14044460469972
 31
0.0
  0
LINE
  5
73B
  8
DATA
  6
CONTINUOUS
 62
     7
 10
-221.35318559316431
 20
-416.21273074727509
 30
0.0
 11
-220.28089945058889
 21
-415.14044460469972
 31
0.0
  0
LINE
  5
73C
  8
DATA
  6
CONTINUOUS
 62
     7
 10
-219.14952860069039
 20
-416.27181545459831
 30
0.0
 11
-220.2218147432614
 21
-417.3441015971693
 31
0.0
  0
LINE
  5
73D
  8
DATA
  6
CONTINUOUS
 62
     7
 10
-219.14952860069039
 20
-423.90657259828959
 30
0.0
 11
-220.2218147432614
 21
-422.8342864557186
 31
0.0
  0
LINE
  5
73E
  8
DATA
  6
CONTINUOUS
 62
     7
 10
-220.28089945058889
 20
-425.03794344818812
 30
0.0
 11
-221.35318559316431
 21
-423.96565730561269
 31
0.0
  0
ARC
  5
73F
  8
DATA
  6
CONTINUOUS
 62
     7
 10
-224.16669578397889
 20
-419.95468887063669
 30
0.0
 40
6.8400000000000372
 50
93.853979695462726
 51
240.88271410567279
  0
ARC
  5
740
  8
DATA
  6
CONTINUOUS
 62
     7
 10
-224.16669578397889
 20
-419.95468887063669
 30
0.0
 40
6.8400000000000372
 50
300.65928338484559
 51
82.830667981082485
  0
LINE
  5
741
  8
DATA
  6
CONTINUOUS
 62
     7
 10
-216.3132780224345
 20
-420.025036342367
 30
0.0
 11
-217.32705754550281
 21
-420.025036342367
 31
0.0
  0
LINE
  5
742
  8
DATA
  6
CONTINUOUS
 62
     7
 10
-227.49503275020109
 20
-425.9302870029789
 30
0.0
 11
-227.9682978284568
 21
-426.7799731815204
 31
0.0
  0
LINE
  5
743
  8
DATA
  6
CONTINUOUS
 62
     7
 10
-228.9119450757801
 20
-424.88096628453218
 30
0.0
 11
-229.56933048365991
 21
-425.56343051094427
 31
0.0
  0
LINE
  5
744
  8
DATA
  6
CONTINUOUS
 62
     7
 10
-230.03975150796779
 20
-423.46080017277183
 30
0.0
 11
-230.83792354279629
 21
-423.92162501193968
 31
0.0
  0
LINE
  5
745
  8
DATA
  6
CONTINUOUS
 62
     7
 10
-230.7133872440665
 20
-421.9362112465912
 30
0.0
 11
-231.57422706627031
 21
-422.19676627353999
 31
0.0
  0
LINE
  5
746
  8
DATA
  6
CONTINUOUS
 62
     7
 10
-231.00633402245489
 20
-420.025036342367
 30
0.0
 11
-231.8832780224329
 21
-420.025036342367
 31
0.0
  0
LINE
  5
747
  8
DATA
  6
CONTINUOUS
 62
     7
 10
-230.77411094326561
 20
-418.1861683271203
 30
0.0
 11
-231.63073193784669
 21
-418.05822089291712
 31
0.0
  0
LINE
  5
748
  8
DATA
  6
CONTINUOUS
 62
     7
 10
-230.11010087417449
 20
-416.56919984630917
 30
0.0
 11
-230.84537562048351
 21
-416.14136552696709
 31
0.0
  0
LINE
  5
749
  8
DATA
  6
CONTINUOUS
 62
     7
 10
-229.07977445338051
 20
-415.19577534040559
 30
0.0
 11
-229.6786957463305
 21
-414.59685404745602
 31
0.0
  0
LINE
  5
74A
  8
DATA
  6
CONTINUOUS
 62
     7
 10
-227.62039307220999
 20
-414.05065846411281
 30
0.0
 11
-228.04525513266049
 21
-413.31477578920442
 31
0.0
  0
LINE
  5
74B
  8
DATA
  6
CONTINUOUS
 62
     7
 10
-225.7825098102204
 20
-413.30828043952829
 30
0.0
 11
-225.9857436710077
 21
-412.47230846262642
 31
0.0
  0
LINE
  5
74C
  8
DATA
  6
CONTINUOUS
 62
     7
 10
-222.17443918054801
 20
-413.41125600813058
 30
0.0
 11
-221.9131285140466
 21
-412.55299869350392
 31
0.0
  0
LINE
  5
74D
  8
DATA
  6
CONTINUOUS
 62
     7
 10
-220.63569836865639
 20
-414.09656141786229
 30
0.0
 11
-220.1610314617941
 21
-413.3090617652299
 31
0.0
  0
LINE
  5
74E
  8
DATA
  6
CONTINUOUS
 62
     7
 10
-219.3054088012758
 20
-415.14288163512362
 30
0.0
 11
-218.6532162571948
 21
-414.47278856729781
 31
0.0
  0
LINE
  5
74F
  8
DATA
  6
CONTINUOUS
 62
     7
 10
-218.15151125886979
 20
-416.69844024239831
 30
0.0
 11
-217.3073538582864
 21
-416.2185190369072
 31
0.0
  0
LINE
  5
750
  8
DATA
  6
CONTINUOUS
 62
     7
 10
-217.5562471462602
 20
-418.1975409519643
 30
0.0
 11
-216.5737127169553
 21
-418.02825343892067
 31
0.0
  0
LINE
  5
751
  8
DATA
  6
CONTINUOUS
 62
     7
 10
-216.64804932702819
 20
-422.0706437441159
 30
0.0
 11
-217.58432047636609
 21
-421.81424131940571
 31
0.0
  0
LINE
  5
752
  8
DATA
  6
CONTINUOUS
 62
     7
 10
-218.26917014818659
 20
-423.41948199219001
 30
0.0
 11
-217.37283110815491
 21
-423.94608069345429
 31
0.0
  0
LINE
  5
753
  8
DATA
  6
CONTINUOUS
 62
     7
 10
-218.51786029853841
 20
-425.45321863727821
 30
0.0
 11
-219.25551645155909
 21
-424.71556248425748
 31
0.0
  0
LINE
  5
754
  8
DATA
  6
CONTINUOUS
 62
     7
 10
-220.15130091221161
 20
-426.7352968955247
 30
0.0
 11
-220.6787626516288
 21
-425.83855855515191
 31
0.0
  0
LINE
  5
755
  8
DATA
  6
CONTINUOUS
 62
     7
 10
-223.9690330937552
 20
-412.87285991914541
 30
0.0
 11
-223.9690330937552
 21
-412.10054550071243
 31
0.0
  0
LINE
  5
756
  8
DATA
  6
CONTINUOUS
 62
     7
 10
-227.8807571890529
 20
-422.95176321067822
 30
0.0
 11
-228.91832423765959
 21
-424.05767901342449
 31
0.0
  0
LINE
  5
757
  8
DATA
  6
CONTINUOUS
 62
     7
 10
-227.7514706787166
 20
-425.15241769090972
 30
0.0
 11
-226.7139036301142
 21
-424.046501888168
 31
0.0
  0
LINE
  5
758
  8
DATA
  6
CONTINUOUS
 62
     7
 10
-224.78420837746501
 20
-424.78940673950819
 30
0.0
 11
-224.78420837746501
 21
-426.30143996072968
 31
0.0
  0
LINE
  5
759
  8
DATA
  6
CONTINUOUS
 62
     7
 10
-223.18420837746521
 20
-424.75041454087449
 30
0.0
 11
-223.18420837746521
 21
-426.27199085992868
 31
0.0
  0
LINE
  5
75A
  8
DATA
  6
CONTINUOUS
 62
     7
 10
22.272529238082189
 20
-281.29879526060341
 30
0.0
 11
20.345421401949121
 21
-281.29879526060341
 31
0.0
  0
LINE
  5
75B
  8
DATA
  6
CONTINUOUS
 62
     7
 10
20.345421401949121
 20
-281.29879526060341
 30
0.0
 11
20.645421401949129
 21
-284.7987952606033
 31
0.0
  0
LINE
  5
75C
  8
DATA
  6
CONTINUOUS
 62
     7
 10
20.645421401949129
 20
-284.7987952606033
 30
0.0
 11
22.272529238082189
 21
-296.29879526060358
 31
0.0
  0
LINE
  5
75D
  8
DATA
  6
CONTINUOUS
 62
     7
 10
33.331664306220588
 20
-284.7987952606033
 30
0.0
 11
31.728006637065789
 21
-296.29879526060358
 31
0.0
  0
LINE
  5
75E
  8
DATA
  6
CONTINUOUS
 62
     7
 10
31.728006637065789
 20
-281.29879526060341
 30
0.0
 11
22.272529238082189
 21
-281.29879526060341
 31
0.0
  0
LINE
  5
75F
  8
DATA
  6
CONTINUOUS
 62
     7
 10
33.655114473198978
 20
-281.29879526060341
 30
0.0
 11
33.35511447319891
 21
-284.7987952606033
 31
0.0
  0
LINE
  5
760
  8
DATA
  6
CONTINUOUS
 62
     7
 10
31.728006637065789
 20
-281.29879526060341
 30
0.0
 11
33.655114473198978
 21
-281.29879526060341
 31
0.0
  0
LINE
  5
761
  8
DATA
  6
CONTINUOUS
 62
     7
 10
25.10026793757384
 20
-296.29879526060358
 30
0.0
 11
24.488542854084749
 21
-284.7987952606033
 31
0.0
  0
LINE
  5
762
  8
DATA
  6
CONTINUOUS
 62
     7
 10
23.40026793757373
 20
-296.29879526060358
 30
0.0
 11
22.78854285408465
 21
-284.7987952606033
 31
0.0
  0
LINE
  5
763
  8
DATA
  6
CONTINUOUS
 62
     7
 10
28.900267937574021
 20
-296.29879526060358
 30
0.0
 11
29.48854285408504
 21
-284.7987952606033
 31
0.0
  0
LINE
  5
764
  8
DATA
  6
CONTINUOUS
 62
     7
 10
30.60026793757412
 20
-296.29879526060358
 30
0.0
 11
31.188542854085131
 21
-284.7987952606033
 31
0.0
  0
LINE
  5
765
  8
DATA
  6
CONTINUOUS
 62
     7
 10
27.650267937574021
 20
-284.7987952606033
 30
0.0
 11
33.35511447319891
 21
-284.7987952606033
 31
0.0
  0
LINE
  5
766
  8
DATA
  6
CONTINUOUS
 62
     7
 10
26.35026793757401
 20
-284.7987952606033
 30
0.0
 11
20.645421401949129
 21
-284.7987952606033
 31
0.0
  0
LINE
  5
767
  8
DATA
  6
CONTINUOUS
 62
     7
 10
27.650267937574021
 20
-296.29879526060358
 30
0.0
 11
31.728006637065729
 21
-296.29879526060358
 31
0.0
  0
LINE
  5
768
  8
DATA
  6
CONTINUOUS
 62
     7
 10
26.35026793757401
 20
-296.29879526060358
 30
0.0
 11
22.272529238082249
 21
-296.29879526060358
 31
0.0
  0
LINE
  5
769
  8
DATA
  6
CONTINUOUS
 62
     7
 10
26.35026793757401
 20
-284.7987952606033
 30
0.0
 11
20.645421401949129
 21
-284.7987952606033
 31
0.0
  0
LINE
  5
76A
  8
DATA
  6
CONTINUOUS
 62
     7
 10
27.650267937574021
 20
-284.7987952606033
 30
0.0
 11
33.35511447319891
 21
-284.7987952606033
 31
0.0
  0
LINE
  5
76B
  8
DATA
  6
CONTINUOUS
 62
     7
 10
26.35026793757401
 20
-296.29879526060358
 30
0.0
 11
22.272529238082189
 21
-296.29879526060358
 31
0.0
  0
LINE
  5
76C
  8
DATA
  6
CONTINUOUS
 62
     7
 10
27.650267937574021
 20
-296.29879526060358
 30
0.0
 11
31.728006637065789
 21
-296.29879526060358
 31
0.0
  0
ARC
  5
76D
  8
DATA
  6
CONTINUOUS
 62
     7
 10
27.000267937573991
 20
-295.87389577549447
 30
0.0
 40
0.924899485108996
 50
225.34960338822449
 51
314.65039661177798
  0
LINE
  5
76E
  8
DATA
  6
CONTINUOUS
 62
     7
 10
26.35026793757401
 20
-296.53187682199581
 30
0.0
 11
26.35026793757401
 21
-281.29879526060341
 31
0.0
  0
LINE
  5
76F
  8
DATA
  6
CONTINUOUS
 62
     7
 10
27.650267937574021
 20
-296.53187682199581
 30
0.0
 11
27.650267937574021
 21
-281.29879526060341
 31
0.0
  0
LINE
  5
770
  8
DATA
  6
CONTINUOUS
 62
     7
 10
22.62105101240655
 20
-280.79160558473501
 30
0.0
 11
22.62105101240655
 21
-281.30226554893488
 31
0.0
  0
LINE
  5
771
  8
DATA
  6
CONTINUOUS
 62
     7
 10
31.421051012406959
 20
-279.84447408771211
 30
0.0
 11
31.421051012406959
 21
-281.29879526060341
 31
0.0
  0
LINE
  5
772
  8
DATA
  6
CONTINUOUS
 62
     7
 10
22.62105101240655
 20
-280.79160558473501
 30
0.0
 11
22.62105101240655
 21
-279.84447408771211
 31
0.0
  0
LINE
  5
773
  8
DATA
  6
CONTINUOUS
 62
     7
 10
-9.7274707619178074
 20
-281.29879526060341
 30
0.0
 11
-11.654578598050881
 21
-281.29879526060341
 31
0.0
  0
LINE
  5
774
  8
DATA
  6
CONTINUOUS
 62
     7
 10
-11.654578598050881
 20
-281.29879526060341
 30
0.0
 11
-11.354578598050869
 21
-284.7987952606033
 31
0.0
  0
LINE
  5
775
  8
DATA
  6
CONTINUOUS
 62
     7
 10
-11.354578598050869
 20
-284.7987952606033
 30
0.0
 11
-9.7274707619178074
 21
-296.29879526060358
 31
0.0
  0
LINE
  5
776
  8
DATA
  6
CONTINUOUS
 62
     7
 10
1.331664306220588
 20
-284.7987952606033
 30
0.0
 11
-0.2719933629342179
 21
-296.29879526060358
 31
0.0
  0
LINE
  5
777
  8
DATA
  6
CONTINUOUS
 62
     7
 10
-0.2719933629342179
 20
-281.29879526060341
 30
0.0
 11
-9.7274707619178074
 21
-281.29879526060341
 31
0.0
  0
LINE
  5
778
  8
DATA
  6
CONTINUOUS
 62
     7
 10
1.6551144731989771
 20
-281.29879526060341
 30
0.0
 11
1.3551144731989091
 21
-284.7987952606033
 31
0.0
  0
LINE
  5
779
  8
DATA
  6
CONTINUOUS
 62
     7
 10
-0.2719933629342179
 20
-281.29879526060341
 30
0.0
 11
1.6551144731989771
 21
-281.29879526060341
 31
0.0
  0
LINE
  5
77A
  8
DATA
  6
CONTINUOUS
 62
     7
 10
-6.8997320624261604
 20
-296.29879526060358
 30
0.0
 11
-7.5114571459152506
 21
-284.7987952606033
 31
0.0
  0
LINE
  5
77B
  8
DATA
  6
CONTINUOUS
 62
     7
 10
-8.5997320624262628
 20
-296.29879526060358
 30
0.0
 11
-9.2114571459153538
 21
-284.7987952606033
 31
0.0
  0
LINE
  5
77C
  8
DATA
  6
CONTINUOUS
 62
     7
 10
-3.0997320624259781
 20
-296.29879526060358
 30
0.0
 11
-2.5114571459149668
 21
-284.7987952606033
 31
0.0
  0
LINE
  5
77D
  8
DATA
  6
CONTINUOUS
 62
     7
 10
-1.399732062425876
 20
-296.29879526060358
 30
0.0
 11
-0.811457145914865
 21
-284.7987952606033
 31
0.0
  0
LINE
  5
77E
  8
DATA
  6
CONTINUOUS
 62
     7
 10
-4.3497320624259777
 20
-284.7987952606033
 30
0.0
 11
1.3551144731989091
 21
-284.7987952606033
 31
0.0
  0
LINE
  5
77F
  8
DATA
  6
CONTINUOUS
 62
     7
 10
-5.649732062425989
 20
-284.7987952606033
 30
0.0
 11
-11.354578598050869
 21
-284.7987952606033
 31
0.0
  0
LINE
  5
780
  8
DATA
  6
CONTINUOUS
 62
     7
 10
-4.3497320624259777
 20
-296.29879526060358
 30
0.0
 11
-0.2719933629342748
 21
-296.29879526060358
 31
0.0
  0
LINE
  5
781
  8
DATA
  6
CONTINUOUS
 62
     7
 10
-5.649732062425989
 20
-296.29879526060358
 30
0.0
 11
-9.7274707619177505
 21
-296.29879526060358
 31
0.0
  0
LINE
  5
782
  8
DATA
  6
CONTINUOUS
 62
     7
 10
-5.649732062425989
 20
-284.7987952606033
 30
0.0
 11
-11.354578598050869
 21
-284.7987952606033
 31
0.0
  0
LINE
  5
783
  8
DATA
  6
CONTINUOUS
 62
     7
 10
-4.3497320624259777
 20
-284.7987952606033
 30
0.0
 11
1.3551144731989091
 21
-284.7987952606033
 31
0.0
  0
LINE
  5
784
  8
DATA
  6
CONTINUOUS
 62
     7
 10
-5.649732062425989
 20
-296.29879526060358
 30
0.0
 11
-9.7274707619178074
 21
-296.29879526060358
 31
0.0
  0
LINE
  5
785
  8
DATA
  6
CONTINUOUS
 62
     7
 10
-4.3497320624259777
 20
-296.29879526060358
 30
0.0
 11
-0.2719933629342179
 21
-296.29879526060358
 31
0.0
  0
ARC
  5
786
  8
DATA
  6
CONTINUOUS
 62
     7
 10
-4.9997320624260118
 20
-295.87389577549447
 30
0.0
 40
0.924899485108996
 50
225.34960338822449
 51
314.65039661177798
  0
LINE
  5
787
  8
DATA
  6
CONTINUOUS
 62
     7
 10
-5.649732062425989
 20
-296.53187682199581
 30
0.0
 11
-5.649732062425989
 21
-281.29879526060341
 31
0.0
  0
LINE
  5
788
  8
DATA
  6
CONTINUOUS
 62
     7
 10
-4.3497320624259777
 20
-296.53187682199581
 30
0.0
 11
-4.3497320624259777
 21
-281.29879526060341
 31
0.0
  0
LINE
  5
789
  8
DATA
  6
CONTINUOUS
 62
     7
 10
-9.3789489875934535
 20
-280.79160558473501
 30
0.0
 11
-9.3789489875934535
 21
-281.30226554893488
 31
0.0
  0
LINE
  5
78A
  8
DATA
  6
CONTINUOUS
 62
     7
 10
-0.5789489875930443
 20
-279.84447408771211
 30
0.0
 11
-0.5789489875930443
 21
-281.29879526060341
 31
0.0
  0
LINE
  5
78B
  8
DATA
  6
CONTINUOUS
 62
     7
 10
-9.3789489875934535
 20
-280.79160558473501
 30
0.0
 11
-9.3789489875934535
 21
-279.84447408771211
 31
0.0
  0
LINE
  5
78C
  8
DATA
  6
CONTINUOUS
 62
     7
 10
-41.727470761917807
 20
-281.29879526060341
 30
0.0
 11
-43.654578598050882
 21
-281.29879526060341
 31
0.0
  0
LINE
  5
78D
  8
DATA
  6
CONTINUOUS
 62
     7
 10
-43.654578598050882
 20
-281.29879526060341
 30
0.0
 11
-43.354578598050871
 21
-284.7987952606033
 31
0.0
  0
LINE
  5
78E
  8
DATA
  6
CONTINUOUS
 62
     7
 10
-43.354578598050871
 20
-284.7987952606033
 30
0.0
 11
-41.727470761917807
 21
-296.29879526060358
 31
0.0
  0
LINE
  5
78F
  8
DATA
  6
CONTINUOUS
 62
     7
 10
-30.668335693779412
 20
-284.7987952606033
 30
0.0
 11
-32.271993362934211
 21
-296.29879526060358
 31
0.0
  0
LINE
  5
790
  8
DATA
  6
CONTINUOUS
 62
     7
 10
-32.271993362934211
 20
-281.29879526060341
 30
0.0
 11
-41.727470761917807
 21
-281.29879526060341
 31
0.0
  0
LINE
  5
791
  8
DATA
  6
CONTINUOUS
 62
     7
 10
-30.344885526801018
 20
-281.29879526060341
 30
0.0
 11
-30.64488552680109
 21
-284.7987952606033
 31
0.0
  0
LINE
  5
792
  8
DATA
  6
CONTINUOUS
 62
     7
 10
-32.271993362934211
 20
-281.29879526060341
 30
0.0
 11
-30.344885526801018
 21
-281.29879526060341
 31
0.0
  0
LINE
  5
793
  8
DATA
  6
CONTINUOUS
 62
     7
 10
-38.89973206242616
 20
-296.29879526060358
 30
0.0
 11
-39.511457145915251
 21
-284.7987952606033
 31
0.0
  0
LINE
  5
794
  8
DATA
  6
CONTINUOUS
 62
     7
 10
-40.599732062426249
 20
-296.29879526060358
 30
0.0
 11
-41.211457145915361
 21
-284.7987952606033
 31
0.0
  0
LINE
  5
795
  8
DATA
  6
CONTINUOUS
 62
     7
 10
-35.099732062425979
 20
-296.29879526060358
 30
0.0
 11
-34.511457145914967
 21
-284.7987952606033
 31
0.0
  0
LINE
  5
796
  8
DATA
  6
CONTINUOUS
 62
     7
 10
-33.399732062425883
 20
-296.29879526060358
 30
0.0
 11
-32.811457145914872
 21
-284.7987952606033
 31
0.0
  0
LINE
  5
797
  8
DATA
  6
CONTINUOUS
 62
     7
 10
-36.349732062425979
 20
-284.7987952606033
 30
0.0
 11
-30.64488552680109
 21
-284.7987952606033
 31
0.0
  0
LINE
  5
798
  8
DATA
  6
CONTINUOUS
 62
     7
 10
-37.64973206242599
 20
-284.7987952606033
 30
0.0
 11
-43.354578598050871
 21
-284.7987952606033
 31
0.0
  0
LINE
  5
799
  8
DATA
  6
CONTINUOUS
 62
     7
 10
-36.349732062425979
 20
-296.29879526060358
 30
0.0
 11
-32.271993362934268
 21
-296.29879526060358
 31
0.0
  0
LINE
  5
79A
  8
DATA
  6
CONTINUOUS
 62
     7
 10
-37.64973206242599
 20
-296.29879526060358
 30
0.0
 11
-41.727470761917743
 21
-296.29879526060358
 31
0.0
  0
LINE
  5
79B
  8
DATA
  6
CONTINUOUS
 62
     7
 10
-37.64973206242599
 20
-284.7987952606033
 30
0.0
 11
-43.354578598050871
 21
-284.7987952606033
 31
0.0
  0
LINE
  5
79C
  8
DATA
  6
CONTINUOUS
 62
     7
 10
-36.349732062425979
 20
-284.7987952606033
 30
0.0
 11
-30.64488552680109
 21
-284.7987952606033
 31
0.0
  0
LINE
  5
79D
  8
DATA
  6
CONTINUOUS
 62
     7
 10
-37.64973206242599
 20
-296.29879526060358
 30
0.0
 11
-41.727470761917807
 21
-296.29879526060358
 31
0.0
  0
LINE
  5
79E
  8
DATA
  6
CONTINUOUS
 62
     7
 10
-36.349732062425979
 20
-296.29879526060358
 30
0.0
 11
-32.271993362934211
 21
-296.29879526060358
 31
0.0
  0
ARC
  5
79F
  8
DATA
  6
CONTINUOUS
 62
     7
 10
-36.99973206242602
 20
-295.87389577549447
 30
0.0
 40
0.924899485108996
 50
225.34960338822449
 51
314.65039661177798
  0
LINE
  5
7A0
  8
DATA
  6
CONTINUOUS
 62
     7
 10
-37.64973206242599
 20
-296.53187682199581
 30
0.0
 11
-37.64973206242599
 21
-281.29879526060341
 31
0.0
  0
LINE
  5
7A1
  8
DATA
  6
CONTINUOUS
 62
     7
 10
-36.349732062425979
 20
-296.53187682199581
 30
0.0
 11
-36.349732062425979
 21
-281.29879526060341
 31
0.0
  0
LINE
  5
7A2
  8
DATA
  6
CONTINUOUS
 62
     7
 10
-41.378948987593454
 20
-280.79160558473501
 30
0.0
 11
-41.378948987593454
 21
-281.30226554893488
 31
0.0
  0
LINE
  5
7A3
  8
DATA
  6
CONTINUOUS
 62
     7
 10
-32.578948987593051
 20
-279.84447408771211
 30
0.0
 11
-32.578948987593051
 21
-281.29879526060341
 31
0.0
  0
LINE
  5
7A4
  8
DATA
  6
CONTINUOUS
 62
     7
 10
-41.378948987593454
 20
-280.79160558473501
 30
0.0
 11
-41.378948987593454
 21
-279.84447408771211
 31
0.0
  0
LINE
  5
7A5
  8
DATA
  6
CONTINUOUS
 62
     7
 10
-73.7274707619178
 20
-281.29879526060341
 30
0.0
 11
-75.654578598050861
 21
-281.29879526060341
 31
0.0
  0
LINE
  5
7A6
  8
DATA
  6
CONTINUOUS
 62
     7
 10
-75.654578598050861
 20
-281.29879526060341
 30
0.0
 11
-75.354578598050864
 21
-284.7987952606033
 31
0.0
  0
LINE
  5
7A7
  8
DATA
  6
CONTINUOUS
 62
     7
 10
-75.354578598050864
 20
-284.7987952606033
 30
0.0
 11
-73.7274707619178
 21
-296.29879526060358
 31
0.0
  0
LINE
  5
7A8
  8
DATA
  6
CONTINUOUS
 62
     7
 10
-62.668335693779397
 20
-284.7987952606033
 30
0.0
 11
-64.271993362934211
 21
-296.29879526060358
 31
0.0
  0
LINE
  5
7A9
  8
DATA
  6
CONTINUOUS
 62
     7
 10
-64.271993362934211
 20
-281.29879526060341
 30
0.0
 11
-73.7274707619178
 21
-281.29879526060341
 31
0.0
  0
LINE
  5
7AA
  8
DATA
  6
CONTINUOUS
 62
     7
 10
-62.344885526801022
 20
-281.29879526060341
 30
0.0
 11
-62.64488552680109
 21
-284.7987952606033
 31
0.0
  0
LINE
  5
7AB
  8
DATA
  6
CONTINUOUS
 62
     7
 10
-64.271993362934211
 20
-281.29879526060341
 30
0.0
 11
-62.344885526801022
 21
-281.29879526060341
 31
0.0
  0
LINE
  5
7AC
  8
DATA
  6
CONTINUOUS
 62
     7
 10
-70.899732062426153
 20
-296.29879526060358
 30
0.0
 11
-71.511457145915244
 21
-284.7987952606033
 31
0.0
  0
LINE
  5
7AD
  8
DATA
  6
CONTINUOUS
 62
     7
 10
-72.599732062426256
 20
-296.29879526060358
 30
0.0
 11
-73.211457145915347
 21
-284.7987952606033
 31
0.0
  0
LINE
  5
7AE
  8
DATA
  6
CONTINUOUS
 62
     7
 10
-67.099732062425971
 20
-296.29879526060358
 30
0.0
 11
-66.51145714591496
 21
-284.7987952606033
 31
0.0
  0
LINE
  5
7AF
  8
DATA
  6
CONTINUOUS
 62
     7
 10
-65.399732062425855
 20
-296.29879526060358
 30
0.0
 11
-64.811457145914858
 21
-284.7987952606033
 31
0.0
  0
LINE
  5
7B0
  8
DATA
  6
CONTINUOUS
 62
     7
 10
-68.349732062425971
 20
-284.7987952606033
 30
0.0
 11
-62.64488552680109
 21
-284.7987952606033
 31
0.0
  0
LINE
  5
7B1
  8
DATA
  6
CONTINUOUS
 62
     7
 10
-69.649732062425983
 20
-284.7987952606033
 30
0.0
 11
-75.354578598050864
 21
-284.7987952606033
 31
0.0
  0
LINE
  5
7B2
  8
DATA
  6
CONTINUOUS
 62
     7
 10
-68.349732062425971
 20
-296.29879526060358
 30
0.0
 11
-64.271993362934253
 21
-296.29879526060358
 31
0.0
  0
LINE
  5
7B3
  8
DATA
  6
CONTINUOUS
 62
     7
 10
-69.649732062425983
 20
-296.29879526060358
 30
0.0
 11
-73.727470761917729
 21
-296.29879526060358
 31
0.0
  0
LINE
  5
7B4
  8
DATA
  6
CONTINUOUS
 62
     7
 10
-69.649732062425983
 20
-284.7987952606033
 30
0.0
 11
-75.354578598050864
 21
-284.7987952606033
 31
0.0
  0
LINE
  5
7B5
  8
DATA
  6
CONTINUOUS
 62
     7
 10
-68.349732062425971
 20
-284.7987952606033
 30
0.0
 11
-62.64488552680109
 21
-284.7987952606033
 31
0.0
  0
LINE
  5
7B6
  8
DATA
  6
CONTINUOUS
 62
     7
 10
-69.649732062425983
 20
-296.29879526060358
 30
0.0
 11
-73.7274707619178
 21
-296.29879526060358
 31
0.0
  0
LINE
  5
7B7
  8
DATA
  6
CONTINUOUS
 62
     7
 10
-68.349732062425971
 20
-296.29879526060358
 30
0.0
 11
-64.271993362934211
 21
-296.29879526060358
 31
0.0
  0
ARC
  5
7B8
  8
DATA
  6
CONTINUOUS
 62
     7
 10
-68.999732062426006
 20
-295.87389577549447
 30
0.0
 40
0.924899485108996
 50
225.34960338822449
 51
314.65039661177798
  0
LINE
  5
7B9
  8
DATA
  6
CONTINUOUS
 62
     7
 10
-69.649732062425983
 20
-296.53187682199581
 30
0.0
 11
-69.649732062425983
 21
-281.29879526060341
 31
0.0
  0
LINE
  5
7BA
  8
DATA
  6
CONTINUOUS
 62
     7
 10
-68.349732062425971
 20
-296.53187682199581
 30
0.0
 11
-68.349732062425971
 21
-281.29879526060341
 31
0.0
  0
LINE
  5
7BB
  8
DATA
  6
CONTINUOUS
 62
     7
 10
-73.378948987593446
 20
-280.79160558473501
 30
0.0
 11
-73.378948987593446
 21
-281.30226554893488
 31
0.0
  0
LINE
  5
7BC
  8
DATA
  6
CONTINUOUS
 62
     7
 10
-64.578948987593023
 20
-279.84447408771211
 30
0.0
 11
-64.578948987593023
 21
-281.29879526060341
 31
0.0
  0
LINE
  5
7BD
  8
DATA
  6
CONTINUOUS
 62
     7
 10
-73.378948987593446
 20
-280.79160558473501
 30
0.0
 11
-73.378948987593446
 21
-279.84447408771211
 31
0.0
  0
ARC
  5
7BE
  8
DATA
  6
CONTINUOUS
 62
     7
 10
17.05092888572506
 20
-279.50854721242501
 30
0.0
 40
1.537499999999969
 50
192.68038349181489
 51
347.31961650818522
  0
ARC
  5
7BF
  8
DATA
  6
CONTINUOUS
 62
     7
 10
-14.949071114274931
 20
-279.50854721242501
 30
0.0
 40
1.537499999999969
 50
192.68038349181489
 51
347.31961650818522
  0
ARC
  5
7C0
  8
DATA
  6
CONTINUOUS
 62
     7
 10
-46.949071114274943
 20
-279.50854721242501
 30
0.0
 40
1.537499999999969
 50
192.68038349181489
 51
347.31961650818522
  0
ARC
  5
7C1
  8
DATA
  6
CONTINUOUS
 62
     7
 10
-78.949071114274943
 20
-279.50854721242501
 30
0.0
 40
1.537499999999969
 50
192.68038349181489
 51
347.31961650818522
  0
ARC
  5
7C2
  8
DATA
  6
CONTINUOUS
 62
     7
 10
-103.9990711142749
 20
-279.50854721242501
 30
0.0
 40
1.537499999999969
 50
192.68038349181489
 51
347.31961650818522
  0
ARC
  5
7C3
  8
DATA
  6
CONTINUOUS
 62
     7
 10
-211.00282068687611
 20
-279.50854721242501
 30
0.0
 40
1.537499999999969
 50
192.68038349181489
 51
347.31961650818522
  0
LINE
  5
7C4
  8
DATA
  6
CONTINUOUS
 62
     7
 10
-228.5974707619178
 20
-281.29879526060341
 30
0.0
 11
-230.52457859805091
 21
-281.29879526060341
 31
0.0
  0
LINE
  5
7C5
  8
DATA
  6
CONTINUOUS
 62
     7
 10
-230.52457859805091
 20
-281.29879526060341
 30
0.0
 11
-230.2245785980509
 21
-284.7987952606033
 31
0.0
  0
LINE
  5
7C6
  8
DATA
  6
CONTINUOUS
 62
     7
 10
-230.2245785980509
 20
-284.7987952606033
 30
0.0
 11
-228.5974707619178
 21
-296.29879526060358
 31
0.0
  0
LINE
  5
7C7
  8
DATA
  6
CONTINUOUS
 62
     7
 10
-217.5383356937794
 20
-284.7987952606033
 30
0.0
 11
-219.1419933629343
 21
-296.29879526060358
 31
0.0
  0
LINE
  5
7C8
  8
DATA
  6
CONTINUOUS
 62
     7
 10
-219.1419933629343
 20
-281.29879526060341
 30
0.0
 11
-228.5974707619178
 21
-281.29879526060341
 31
0.0
  0
LINE
  5
7C9
  8
DATA
  6
CONTINUOUS
 62
     7
 10
-217.214885526801
 20
-281.29879526060341
 30
0.0
 11
-217.51488552680109
 21
-284.7987952606033
 31
0.0
  0
LINE
  5
7CA
  8
DATA
  6
CONTINUOUS
 62
     7
 10
-219.1419933629343
 20
-281.29879526060341
 30
0.0
 11
-217.214885526801
 21
-281.29879526060341
 31
0.0
  0
LINE
  5
7CB
  8
DATA
  6
CONTINUOUS
 62
     7
 10
-225.76973206242619
 20
-296.29879526060358
 30
0.0
 11
-226.38145714591519
 21
-284.7987952606033
 31
0.0
  0
LINE
  5
7CC
  8
DATA
  6
CONTINUOUS
 62
     7
 10
-227.4697320624262
 20
-296.29879526060358
 30
0.0
 11
-228.08145714591529
 21
-284.7987952606033
 31
0.0
  0
LINE
  5
7CD
  8
DATA
  6
CONTINUOUS
 62
     7
 10
-221.969732062426
 20
-296.29879526060358
 30
0.0
 11
-221.38145714591491
 21
-284.7987952606033
 31
0.0
  0
LINE
  5
7CE
  8
DATA
  6
CONTINUOUS
 62
     7
 10
-220.2697320624259
 20
-296.29879526060358
 30
0.0
 11
-219.68145714591489
 21
-284.7987952606033
 31
0.0
  0
LINE
  5
7CF
  8
DATA
  6
CONTINUOUS
 62
     7
 10
-223.219732062426
 20
-284.7987952606033
 30
0.0
 11
-217.51488552680109
 21
-284.7987952606033
 31
0.0
  0
LINE
  5
7D0
  8
DATA
  6
CONTINUOUS
 62
     7
 10
-224.51973206242599
 20
-284.7987952606033
 30
0.0
 11
-230.2245785980509
 21
-284.7987952606033
 31
0.0
  0
LINE
  5
7D1
  8
DATA
  6
CONTINUOUS
 62
     7
 10
-223.219732062426
 20
-296.29879526060358
 30
0.0
 11
-219.1419933629343
 21
-296.29879526060358
 31
0.0
  0
LINE
  5
7D2
  8
DATA
  6
CONTINUOUS
 62
     7
 10
-224.51973206242599
 20
-296.29879526060358
 30
0.0
 11
-228.59747076191769
 21
-296.29879526060358
 31
0.0
  0
LINE
  5
7D3
  8
DATA
  6
CONTINUOUS
 62
     7
 10
-224.51973206242599
 20
-284.7987952606033
 30
0.0
 11
-230.2245785980509
 21
-284.7987952606033
 31
0.0
  0
LINE
  5
7D4
  8
DATA
  6
CONTINUOUS
 62
     7
 10
-223.219732062426
 20
-284.7987952606033
 30
0.0
 11
-217.51488552680109
 21
-284.7987952606033
 31
0.0
  0
LINE
  5
7D5
  8
DATA
  6
CONTINUOUS
 62
     7
 10
-224.51973206242599
 20
-296.29879526060358
 30
0.0
 11
-228.5974707619178
 21
-296.29879526060358
 31
0.0
  0
LINE
  5
7D6
  8
DATA
  6
CONTINUOUS
 62
     7
 10
-223.219732062426
 20
-296.29879526060358
 30
0.0
 11
-219.1419933629343
 21
-296.29879526060358
 31
0.0
  0
ARC
  5
7D7
  8
DATA
  6
CONTINUOUS
 62
     7
 10
-223.86973206242601
 20
-295.87389577549447
 30
0.0
 40
0.924899485108996
 50
225.34960338822449
 51
314.65039661177798
  0
LINE
  5
7D8
  8
DATA
  6
CONTINUOUS
 62
     7
 10
-224.51973206242599
 20
-296.53187682199581
 30
0.0
 11
-224.51973206242599
 21
-281.29879526060341
 31
0.0
  0
LINE
  5
7D9
  8
DATA
  6
CONTINUOUS
 62
     7
 10
-223.219732062426
 20
-296.53187682199581
 30
0.0
 11
-223.219732062426
 21
-281.29879526060341
 31
0.0
  0
LINE
  5
7DA
  8
DATA
  6
CONTINUOUS
 62
     7
 10
-228.24894898759339
 20
-280.79160558473501
 30
0.0
 11
-228.24894898759339
 21
-281.30226554893488
 31
0.0
  0
LINE
  5
7DB
  8
DATA
  6
CONTINUOUS
 62
     7
 10
-219.44894898759301
 20
-279.84447408771211
 30
0.0
 11
-219.44894898759301
 21
-281.29879526060341
 31
0.0
  0
LINE
  5
7DC
  8
DATA
  6
CONTINUOUS
 62
     7
 10
-228.24894898759339
 20
-280.79160558473501
 30
0.0
 11
-228.24894898759339
 21
-279.84447408771211
 31
0.0
  0
ARC
  5
7DD
  8
DATA
  6
CONTINUOUS
 62
     7
 10
-206.00282068687611
 20
-279.50854721242501
 30
0.0
 40
1.537499999999969
 50
192.68038349181489
 51
347.31961650818522
  0
ARC
  5
7DE
  8
DATA
  6
CONTINUOUS
 62
     7
 10
-201.00282068687611
 20
-279.50854721242501
 30
0.0
 40
1.537499999999969
 50
192.68038349181489
 51
347.31961650818522
  0
TEXT
  5
7DF
  8
DATA
 62
     7
 10
-314.55020764468912
 20
-407.5329284648497
 30
0.0
 40
2.0360514322916661
  1
PUSH
 41
0.8
 11
-314.55020764468912
 21
-405.49687703255802
 31
0.0
 73
     3
  0
ARC
  5
7E0
  8
DATA
  6
CONTINUOUS
 62
     7
 10
-311.90543679885923
 20
-419.19980280486982
 30
0.0
 40
10.899999999999871
 50
109.23581260751109
 51
70.764187392488864
  0
CIRCLE
  5
7E1
  8
DATA
  6
CONTINUOUS
 62
     7
 10
-311.90543679885923
 20
-419.19980280486982
 30
0.0
 40
9.8500000000000796
  0
CIRCLE
  5
7E2
  8
DATA
  6
CONTINUOUS
 62
     7
 10
-311.90543679885923
 20
-419.19980280486982
 30
0.0
 40
7.8500000000000778
  0
CIRCLE
  5
7E3
  8
DATA
  6
CONTINUOUS
 62
     7
 10
-311.90543679885923
 20
-423.12094082601237
 30
0.0
 40
1.2649999999999859
  0
CIRCLE
  5
7E4
  8
DATA
  6
CONTINUOUS
 62
     7
 10
-315.8369183847455
 20
-419.19980280486982
 30
0.0
 40
1.2649999999999859
  0
CIRCLE
  5
7E5
  8
DATA
  6
CONTINUOUS
 62
     7
 10
-307.97099237947202
 20
-419.19980280486982
 30
0.0
 40
1.265000000000043
  0
ARC
  5
7E6
  8
DATA
  6
CONTINUOUS
 62
     7
 10
-310.07757923903762
 20
-406.18146897828387
 30
0.0
 40
3.172142440178161
 50
273.11079431392989
 51
86.889205686070085
  0
ARC
  5
7E7
  8
DATA
  6
CONTINUOUS
 62
     7
 10
-313.73329435868101
 20
-406.18146897828387
 30
0.0
 40
3.172142440178161
 50
93.110794313929901
 51
266.88920568607011
  0
LINE
  5
7E8
  8
DATA
  6
CONTINUOUS
 62
     7
 10
-313.90543679885923
 20
-403.01400080305802
 30
0.0
 11
-309.90543679885923
 21
-403.01400080305802
 31
0.0
  0
LINE
  5
7E9
  8
DATA
  6
CONTINUOUS
 62
     7
 10
-309.90543679885923
 20
-409.34893715350972
 30
0.0
 11
-313.90543679881017
 21
-409.34893715350972
 31
0.0
  0
CIRCLE
  5
7EA
  8
DATA
  6
CONTINUOUS
 62
     7
 10
-301.91838899990722
 20
-428.93972781302853
 30
0.0
 40
2.749999999999984
  0
POLYLINE
  5
7EB
  8
DATA
  6
CONTINUOUS
 62
     7
 66
     1
 10
0.0
 20
0.0
 30
0.0
  0
VERTEX
  5
F01
  8
DATA
  6
CONTINUOUS
 62
     7
 10
-302.14053228416122
 20
-428.2431383506987
 30
0.0
  0
VERTEX
  5
F02
  8
DATA
  6
CONTINUOUS
 62
     7
 10
-302.14053228416122
 20
-427.18813835069869
 30
0.0
  0
VERTEX
  5
F03
  8
DATA
  6
CONTINUOUS
 62
     7
 10
-301.75053228416118
 20
-427.18813835069869
 30
0.0
  0
VERTEX
  5
F04
  8
DATA
  6
CONTINUOUS
 62
     7
 10
-301.75053228416118
 20
-428.2431383506987
 30
0.0
  0
SEQEND
  5
F05
  8
DATA
  6
CONTINUOUS
 62
     7
  0
POLYLINE
  5
7F1
  8
DATA
  6
CONTINUOUS
 62
     7
 66
     1
 10
0.0
 20
0.0
 30
0.0
  0
VERTEX
  5
F06
  8
DATA
  6
CONTINUOUS
 62
     7
 10
-302.14053228416122
 20
-429.6331383506988
 30
0.0
  0
VERTEX
  5
F07
  8
DATA
  6
CONTINUOUS
 62
     7
 10
-302.14053228416122
 20
-430.68813835069869
 30
0.0
  0
VERTEX
  5
F08
  8
DATA
  6
CONTINUOUS
 62
     7
 10
-301.75053228416118
 20
-430.68813835069869
 30
0.0
  0
VERTEX
  5
F09
  8
DATA
  6
CONTINUOUS
 62
     7
 10
-301.75053228416118
 20
-429.6331383506988
 30
0.0
  0
SEQEND
  5
F0A
  8
DATA
  6
CONTINUOUS
 62
     7
  0
POLYLINE
  5
7F7
  8
DATA
  6
CONTINUOUS
 62
     7
 66
     1
 10
0.0
 20
0.0
 30
0.0
  0
VERTEX
  5
F0B
  8
DATA
  6
CONTINUOUS
 62
     7
 10
-302.64053228416122
 20
-428.7431383506987
 30
0.0
  0
VERTEX
  5
F0C
  8
DATA
  6
CONTINUOUS
 62
     7
 10
-303.69553228416112
 20
-428.7431383506987
 30
0.0
  0
VERTEX
  5
F0D
  8
DATA
  6
CONTINUOUS
 62
     7
 10
-303.69553228416112
 20
-429.1331383506988
 30
0.0
  0
VERTEX
  5
F0E
  8
DATA
  6
CONTINUOUS
 62
     7
 10
-302.64053228416122
 20
-429.1331383506988
 30
0.0
  0
SEQEND
  5
F0F
  8
DATA
  6
CONTINUOUS
 62
     7
  0
POLYLINE
  5
7FD
  8
DATA
  6
CONTINUOUS
 62
     7
 66
     1
 10
0.0
 20
0.0
 30
0.0
  0
VERTEX
  5
F10
  8
DATA
  6
CONTINUOUS
 62
     7
 10
-301.25053228416118
 20
-428.7431383506987
 30
0.0
  0
VERTEX
  5
F11
  8
DATA
  6
CONTINUOUS
 62
     7
 10
-300.19553228416112
 20
-428.7431383506987
 30
0.0
  0
VERTEX
  5
F12
  8
DATA
  6
CONTINUOUS
 62
     7
 10
-300.19553228416112
 20
-429.1331383506988
 30
0.0
  0
VERTEX
  5
F13
  8
DATA
  6
CONTINUOUS
 62
     7
 10
-301.25053228416118
 20
-429.1331383506988
 30
0.0
  0
SEQEND
  5
F14
  8
DATA
  6
CONTINUOUS
 62
     7
  0
ARC
  5
803
  8
DATA
  6
CONTINUOUS
 62
     7
 10
-301.25053228416118
 20
-429.6331383506988
 30
0.0
 40
0.5
 50
90.0
 51
180.0
  0
ARC
  5
804
  8
DATA
  6
CONTINUOUS
 62
     7
 10
-301.25053228416118
 20
-428.2431383506987
 30
0.0
 40
0.5
 50
180.0
 51
270.0
  0
ARC
  5
805
  8
DATA
  6
CONTINUOUS
 62
     7
 10
-302.64053228416122
 20
-428.2431383506987
 30
0.0
 40
0.5
 50
270.0
 51
0.0
  0
ARC
  5
806
  8
DATA
  6
CONTINUOUS
 62
     7
 10
-302.64053228416122
 20
-429.6331383506988
 30
0.0
 40
0.5
 50
0.0
 51
90.0
  0
CIRCLE
  5
807
  8
DATA
  6
CONTINUOUS
 62
     7
 10
-321.71929227022252
 20
-409.13813835069902
 30
0.0
 40
2.7499999999999858
  0
POLYLINE
  5
808
  8
DATA
  6
CONTINUOUS
 62
     7
 66
     1
 10
0.0
 20
0.0
 30
0.0
  0
VERTEX
  5
F15
  8
DATA
  6
CONTINUOUS
 62
     7
 10
-321.94143555447641
 20
-408.44154888836908
 30
0.0
  0
VERTEX
  5
F16
  8
DATA
  6
CONTINUOUS
 62
     7
 10
-321.94143555447641
 20
-407.3865488883693
 30
0.0
  0
VERTEX
  5
F17
  8
DATA
  6
CONTINUOUS
 62
     7
 10
-321.55143555447643
 20
-407.3865488883693
 30
0.0
  0
VERTEX
  5
F18
  8
DATA
  6
CONTINUOUS
 62
     7
 10
-321.55143555447643
 20
-408.44154888836908
 30
0.0
  0
SEQEND
  5
F19
  8
DATA
  6
CONTINUOUS
 62
     7
  0
POLYLINE
  5
80E
  8
DATA
  6
CONTINUOUS
 62
     7
 66
     1
 10
0.0
 20
0.0
 30
0.0
  0
VERTEX
  5
F1A
  8
DATA
  6
CONTINUOUS
 62
     7
 10
-321.94143555447641
 20
-409.8315488883693
 30
0.0
  0
VERTEX
  5
F1B
  8
DATA
  6
CONTINUOUS
 62
     7
 10
-321.94143555447641
 20
-410.8865488883693
 30
0.0
  0
VERTEX
  5
F1C
  8
DATA
  6
CONTINUOUS
 62
     7
 10
-321.55143555447643
 20
-410.8865488883693
 30
0.0
  0
VERTEX
  5
F1D
  8
DATA
  6
CONTINUOUS
 62
     7
 10
-321.55143555447643
 20
-409.8315488883693
 30
0.0
  0
SEQEND
  5
F1E
  8
DATA
  6
CONTINUOUS
 62
     7
  0
POLYLINE
  5
814
  8
DATA
  6
CONTINUOUS
 62
     7
 66
     1
 10
0.0
 20
0.0
 30
0.0
  0
VERTEX
  5
F1F
  8
DATA
  6
CONTINUOUS
 62
     7
 10
-322.44143555447641
 20
-408.9415488883692
 30
0.0
  0
VERTEX
  5
F20
  8
DATA
  6
CONTINUOUS
 62
     7
 10
-323.49643555447642
 20
-408.9415488883692
 30
0.0
  0
VERTEX
  5
F21
  8
DATA
  6
CONTINUOUS
 62
     7
 10
-323.49643555447642
 20
-409.3315488883693
 30
0.0
  0
VERTEX
  5
F22
  8
DATA
  6
CONTINUOUS
 62
     7
 10
-322.44143555447641
 20
-409.3315488883693
 30
0.0
  0
SEQEND
  5
F23
  8
DATA
  6
CONTINUOUS
 62
     7
  0
POLYLINE
  5
81A
  8
DATA
  6
CONTINUOUS
 62
     7
 66
     1
 10
0.0
 20
0.0
 30
0.0
  0
VERTEX
  5
F24
  8
DATA
  6
CONTINUOUS
 62
     7
 10
-321.05143555447643
 20
-408.9415488883692
 30
0.0
  0
VERTEX
  5
F25
  8
DATA
  6
CONTINUOUS
 62
     7
 10
-319.99643555447648
 20
-408.9415488883692
 30
0.0
  0
VERTEX
  5
F26
  8
DATA
  6
CONTINUOUS
 62
     7
 10
-319.99643555447648
 20
-409.3315488883693
 30
0.0
  0
VERTEX
  5
F27
  8
DATA
  6
CONTINUOUS
 62
     7
 10
-321.05143555447643
 20
-409.3315488883693
 30
0.0
  0
SEQEND
  5
F28
  8
DATA
  6
CONTINUOUS
 62
     7
  0
ARC
  5
820
  8
DATA
  6
CONTINUOUS
 62
     7
 10
-321.05143555447643
 20
-409.8315488883693
 30
0.0
 40
0.5
 50
90.0
 51
180.0
  0
ARC
  5
821
  8
DATA
  6
CONTINUOUS
 62
     7
 10
-321.05143555447643
 20
-408.44154888836908
 30
0.0
 40
0.5
 50
180.0
 51
270.0
  0
ARC
  5
822
  8
DATA
  6
CONTINUOUS
 62
     7
 10
-322.44143555447641
 20
-408.44154888836908
 30
0.0
 40
0.5
 50
270.0
 51
0.0
  0
ARC
  5
823
  8
DATA
  6
CONTINUOUS
 62
     7
 10
-322.44143555447641
 20
-409.8315488883693
 30
0.0
 40
0.5
 50
0.0
 51
90.0
  0
POLYLINE
  5
824
  8
DATA
  6
CONTINUOUS
 62
     7
 66
     1
 10
0.0
 20
0.0
 30
0.0
 70
   129
  0
VERTEX
  5
F29
  8
DATA
  6
CONTINUOUS
 62
     7
 10
88.259458743358024
 20
-406.0133040316864
 30
0.0
 42
-0.4142135623730992
  0
VERTEX
  5
F2A
  8
DATA
  6
CONTINUOUS
 62
     7
 10
89.259458743358024
 20
-407.0133040316864
 30
0.0
  0
VERTEX
  5
F2B
  8
DATA
  6
CONTINUOUS
 62
     7
 10
89.259458743358024
 20
-426.0133040316864
 30
0.0
 42
-0.4142135623730951
  0
VERTEX
  5
F2C
  8
DATA
  6
CONTINUOUS
 62
     7
 10
88.259458743358024
 20
-427.0133040316864
 30
0.0
  0
VERTEX
  5
F2D
  8
DATA
  6
CONTINUOUS
 62
     7
 10
74.959458743358297
 20
-427.0133040316864
 30
0.0
 42
-0.4142135623730951
  0
VERTEX
  5
F2E
  8
DATA
  6
CONTINUOUS
 62
     7
 10
73.959458743358283
 20
-426.0133040316864
 30
0.0
  0
VERTEX
  5
F2F
  8
DATA
  6
CONTINUOUS
 62
     7
 10
73.959458743358283
 20
-407.0133040316864
 30
0.0
 42
-0.4142135623730951
  0
VERTEX
  5
F30
  8
DATA
  6
CONTINUOUS
 62
     7
 10
74.959458743358297
 20
-406.0133040316864
 30
0.0
  0
SEQEND
  5
F31
  8
DATA
  6
CONTINUOUS
 62
     7
  0
TEXT
  5
82E
  8
DATA
 62
     7
 10
78.394243811912162
 20
-401.98565920920993
 30
0.0
 40
1.923828125
  1
Power
 41
0.8
 11
78.394243811912162
 21
-400.06183108420993
 31
0.0
 73
     3
  0
ARC
  5
82F
  8
DATA
  6
CONTINUOUS
 62
     7
 10
49.632896243359312
 20
-416.5133040316864
 30
0.0
 40
36.976562499998693
 50
348.69590371747529
 51
11.304097810149299
  0
ARC
  5
830
  8
DATA
  6
CONTINUOUS
 62
     7
 10
113.58602124335761
 20
-416.5133040316864
 30
0.0
 40
36.97656249999941
 50
168.6959021898509
 51
191.3040962825246
  0
LINE
  5
831
  8
DATA
  6
CONTINUOUS
 62
     7
 10
85.401836845735474
 20
-408.86330403168648
 30
0.0
 11
77.817080640980706
 21
-408.86330403168648
 31
0.0
  0
LINE
  5
832
  8
DATA
  6
CONTINUOUS
 62
     7
 10
85.401837036369301
 20
-424.16330403168638
 30
0.0
 11
77.817080450346864
 21
-424.16330403168638
 31
0.0
  0
ARC
  5
833
  8
DATA
  6
CONTINUOUS
 62
     7
 10
81.609458743358033
 20
-442.14783162136558
 30
0.0
 40
30.284527589679161
 50
80.972188832173543
 51
99.027811167826229
  0
POLYLINE
  5
834
  8
DATA
  6
CONTINUOUS
 62
     7
 66
     1
 10
0.0
 20
0.0
 30
0.0
 70
     1
  0
VERTEX
  5
F32
  8
DATA
  6
CONTINUOUS
 62
     7
 10
79.359458743358033
 20
-409.4436484923325
 30
0.0
  0
VERTEX
  5
F33
  8
DATA
  6
CONTINUOUS
 62
     7
 10
83.859458743358033
 20
-409.4436484923325
 30
0.0
  0
VERTEX
  5
F34
  8
DATA
  6
CONTINUOUS
 62
     7
 10
83.859458743358033
 20
-411.4436484923325
 30
0.0
  0
VERTEX
  5
F35
  8
DATA
  6
CONTINUOUS
 62
     7
 10
79.359458743358033
 20
-411.4436484923325
 30
0.0
  0
SEQEND
  5
F36
  8
DATA
  6
CONTINUOUS
 62
     7
  0
ARC
  5
83A
  8
DATA
  6
CONTINUOUS
 62
     7
 10
85.401836845735474
 20
-409.36330403168648
 30
0.0
 40
0.4999999999999882
 50
11.304097810149051
 51
90.0
  0
ARC
  5
83B
  8
DATA
  6
CONTINUOUS
 62
     7
 10
77.817080640980706
 20
-409.36330403168648
 30
0.0
 40
0.5
 50
90.0
 51
168.69590218985061
  0
ARC
  5
83C
  8
DATA
  6
CONTINUOUS
 62
     7
 10
85.401837036369301
 20
-423.66330426419648
 30
0.0
 40
0.4999997674898964
 50
270.0
 51
348.69603700737167
  0
ARC
  5
83D
  8
DATA
  6
CONTINUOUS
 62
     7
 10
77.817080450346864
 20
-423.66330426419643
 30
0.0
 40
0.4999997674899684
 50
191.30396299264001
 51
270.0
  0
TEXT
  5
83E
  8
DATA
 62
     7
 10
51.501894369335957
 20
-402.04988362199049
 30
0.0
 40
1.923828125
  1
Low Cut Freg
 41
0.8
 11
51.501894369335957
 21
-400.12605549699049
 31
0.0
 73
     3
  0
TEXT
  5
83F
  8
DATA
 62
     7
 10
53.757721973696469
 20
-405.17446223978533
 30
0.0
 40
1.923828125
  1
HIgh Gain
 41
0.8
 11
53.757721973696469
 21
-403.25063411478533
 31
0.0
 73
     3
  0
TEXT
  5
840
  8
DATA
 62
     7
 10
51.347623130904033
 20
-411.04907010717881
 30
0.0
 40
1.923828125
  1
Gate Release
 41
0.8
 11
51.347623130904033
 21
-409.12524198217881
 31
0.0
 73
     3
  0
TEXT
  5
841
  8
DATA
 62
     7
 10
54.077199373531208
 20
-408.11662986695541
 30
0.0
 40
1.923828125
  1
 Release
 41
0.8
 11
54.077199373531208
 21
-406.19280174195529
 31
0.0
 73
     3
  0
LINE
  5
842
  8
DATA
  6
CONTINUOUS
 62
     7
 10
45.900000000000091
 20
-401.10000000000002
 30
0.0
 11
40.900000000000091
 21
-401.10000000000002
 31
0.0
  0
LINE
  5
843
  8
DATA
  6
CONTINUOUS
 62
     7
 10
40.900000000000091
 20
-404.10000000000002
 30
0.0
 11
45.900000000000091
 21
-404.10000000000002
 31
0.0
  0
LINE
  5
844
  8
DATA
  6
CONTINUOUS
 62
     7
 10
40.900000000000091
 20
-407.10000000000002
 30
0.0
 11
45.900000000000091
 21
-407.10000000000002
 31
0.0
  0
LINE
  5
845
  8
DATA
  6
CONTINUOUS
 62
     7
 10
40.900000000000091
 20
-410.09999999999991
 30
0.0
 11
45.900000000000091
 21
-410.09999999999991
 31
0.0
  0
LINE
  5
846
  8
DATA
  6
CONTINUOUS
 62
     7
 10
45.900000000000091
 20
-429.57292504195681
 30
0.0
 11
40.900000000000091
 21
-429.57292504195681
 31
0.0
  0
LINE
  5
847
  8
DATA
  6
CONTINUOUS
 62
     7
 10
45.900000000000091
 20
-433.1095080025014
 30
0.0
 11
40.900000000000091
 21
-433.1095080025014
 31
0.0
  0
TEXT
  5
848
  8
DATA
 62
     7
 10
24.265887584345549
 20
-402.04988362199049
 30
0.0
 40
1.923828125
  1
Gain
 41
0.8
 11
24.265887584345549
 21
-400.12605549699049
 31
0.0
 73
     3
  0
TEXT
  5
849
  8
DATA
 62
     7
 10
21.757721973696469
 20
-405.17446223978533
 30
0.0
 40
1.923828125
  1
Mid Gain
 41
0.8
 11
21.757721973696469
 21
-403.25063411478533
 31
0.0
 73
     3
  0
TEXT
  5
84A
  8
DATA
 62
     7
 10
21.476215843993419
 20
-411.04907010717881
 30
0.0
 40
1.923828125
  1
Gate Ratio
 41
0.8
 11
21.476215843993419
 21
-409.12524198217881
 31
0.0
 73
     3
  0
TEXT
  5
84B
  8
DATA
 62
     7
 10
23.49626118225747
 20
-408.11662986695541
 30
0.0
 40
1.923828125
  1
Attack
 41
0.8
 11
23.49626118225747
 21
-406.19280174195529
 31
0.0
 73
     3
  0
LINE
  5
84C
  8
DATA
  6
CONTINUOUS
 62
     7
 10
13.900000000000089
 20
-401.10000000000002
 30
0.0
 11
8.9000000000000892
 21
-401.10000000000002
 31
0.0
  0
LINE
  5
84D
  8
DATA
  6
CONTINUOUS
 62
     7
 10
8.9000000000000892
 20
-404.10000000000002
 30
0.0
 11
13.900000000000089
 21
-404.10000000000002
 31
0.0
  0
LINE
  5
84E
  8
DATA
  6
CONTINUOUS
 62
     7
 10
8.9000000000000892
 20
-407.10000000000002
 30
0.0
 11
13.900000000000089
 21
-407.10000000000002
 31
0.0
  0
LINE
  5
84F
  8
DATA
  6
CONTINUOUS
 62
     7
 10
8.9000000000000892
 20
-410.09999999999991
 30
0.0
 11
13.900000000000089
 21
-410.09999999999991
 31
0.0
  0
LINE
  5
850
  8
DATA
  6
CONTINUOUS
 62
     7
 10
13.900000000000089
 20
-429.57292504195681
 30
0.0
 11
8.9000000000000892
 21
-429.57292504195681
 31
0.0
  0
LINE
  5
851
  8
DATA
  6
CONTINUOUS
 62
     7
 10
13.900000000000089
 20
-433.1095080025014
 30
0.0
 11
8.9000000000000892
 21
-433.1095080025014
 31
0.0
  0
TEXT
  5
852
  8
DATA
 62
     7
 10
-7.6327508578883769
 20
-402.04988362199049
 30
0.0
 40
1.923828125
  1
Drive
 41
0.8
 11
-7.6327508578883769
 21
-400.12605549699049
 31
0.0
 73
     3
  0
TEXT
  5
853
  8
DATA
 62
     7
 10
-7.7082390821495448
 20
-405.17446223978533
 30
0.0
 40
1.923828125
  1
Mid Q
 41
0.8
 11
-7.7082390821495448
 21
-403.25063411478533
 31
0.0
 73
     3
  0
TEXT
  5
854
  8
DATA
 62
     7
 10
-11.841484406966689
 20
-411.04907010717881
 30
0.0
 40
1.923828125
  1
Gate Thresh
 41
0.8
 11
-11.841484406966689
 21
-409.12524198217881
 31
0.0
 73
     3
  0
TEXT
  5
855
  8
DATA
 62
     7
 10
-8.199654144444084
 20
-408.11662986695541
 30
0.0
 40
1.923828125
  1
 Gain
 41
0.8
 11
-8.199654144444084
 21
-406.19280174195529
 31
0.0
 73
     3
  0
LINE
  5
856
  8
DATA
  6
CONTINUOUS
 62
     7
 10
-18.099999999999898
 20
-401.10000000000002
 30
0.0
 11
-23.099999999999909
 21
-401.10000000000002
 31
0.0
  0
LINE
  5
857
  8
DATA
  6
CONTINUOUS
 62
     7
 10
-23.099999999999909
 20
-404.10000000000002
 30
0.0
 11
-18.099999999999898
 21
-404.10000000000002
 31
0.0
  0
LINE
  5
858
  8
DATA
  6
CONTINUOUS
 62
     7
 10
-23.099999999999909
 20
-407.10000000000002
 30
0.0
 11
-18.099999999999898
 21
-407.10000000000002
 31
0.0
  0
LINE
  5
859
  8
DATA
  6
CONTINUOUS
 62
     7
 10
-23.099999999999909
 20
-410.09999999999991
 30
0.0
 11
-18.099999999999898
 21
-410.09999999999991
 31
0.0
  0
LINE
  5
85A
  8
DATA
  6
CONTINUOUS
 62
     7
 10
-18.099999999999898
 20
-429.57292504195681
 30
0.0
 11
-23.099999999999909
 21
-429.57292504195681
 31
0.0
  0
LINE
  5
85B
  8
DATA
  6
CONTINUOUS
 62
     7
 10
-18.099999999999898
 20
-433.1095080025014
 30
0.0
 11
-23.099999999999909
 21
-433.1095080025014
 31
0.0
  0
TEXT
  5
85C
  8
DATA
 62
     7
 10
-45.004913419494827
 20
-402.04988362199049
 30
0.0
 40
1.923828125
  1
Pre-AMP Type
 41
0.8
 11
-45.004913419494827
 21
-400.12605549699049
 31
0.0
 73
     3
  0
TEXT
  5
85D
  8
DATA
 62
     7
 10
-42.242278026303531
 20
-405.17446223978533
 30
0.0
 40
1.923828125
  1
Mid Freq
 41
0.8
 11
-42.242278026303531
 21
-403.25063411478533
 31
0.0
 73
     3
  0
TEXT
  5
85E
  8
DATA
 62
     7
 10
-45.136876149347628
 20
-411.04907010717881
 30
0.0
 40
1.923828125
  1
De-sss Amount
 41
0.8
 11
-45.136876149347628
 21
-409.12524198217881
 31
0.0
 73
     3
  0
TEXT
  5
85F
  8
DATA
 62
     7
 10
-41.922800626468792
 20
-408.11662986695541
 30
0.0
 40
1.923828125
  1
 Ratio
 41
0.8
 11
-41.922800626468792
 21
-406.19280174195529
 31
0.0
 73
     3
  0
LINE
  5
860
  8
DATA
  6
CONTINUOUS
 62
     7
 10
-50.099999999999902
 20
-401.10000000000002
 30
0.0
 11
-55.099999999999902
 21
-401.10000000000002
 31
0.0
  0
LINE
  5
861
  8
DATA
  6
CONTINUOUS
 62
     7
 10
-55.099999999999902
 20
-404.10000000000002
 30
0.0
 11
-50.099999999999902
 21
-404.10000000000002
 31
0.0
  0
LINE
  5
862
  8
DATA
  6
CONTINUOUS
 62
     7
 10
-55.099999999999902
 20
-407.10000000000002
 30
0.0
 11
-50.099999999999902
 21
-407.10000000000002
 31
0.0
  0
LINE
  5
863
  8
DATA
  6
CONTINUOUS
 62
     7
 10
-55.099999999999902
 20
-410.09999999999991
 30
0.0
 11
-50.099999999999902
 21
-410.09999999999991
 31
0.0
  0
LINE
  5
864
  8
DATA
  6
CONTINUOUS
 62
     7
 10
-50.099999999999902
 20
-429.57292504195681
 30
0.0
 11
-55.099999999999902
 21
-429.57292504195681
 31
0.0
  0
LINE
  5
865
  8
DATA
  6
CONTINUOUS
 62
     7
 10
-50.099999999999902
 20
-433.1095080025014
 30
0.0
 11
-55.099999999999902
 21
-433.1095080025014
 31
0.0
  0
TEXT
  5
866
  8
DATA
 62
     7
 10
-73.659982013211703
 20
-402.04988362199049
 30
0.0
 40
1.923828125
  1
Mic type
 41
0.8
 11
-73.659982013211703
 21
-400.12605549699049
 31
0.0
 73
     3
  0
TEXT
  5
867
  8
DATA
 62
     7
 10
-74.242278026303524
 20
-405.17446223978533
 30
0.0
 40
1.923828125
  1
Low Gain
 41
0.8
 11
-74.242278026303524
 21
-403.25063411478533
 31
0.0
 73
     3
  0
TEXT
  5
868
  8
DATA
 62
     7
 10
-75.436038175902112
 20
-411.04907010717881
 30
0.0
 40
1.923828125
  1
De-ess Freq
 41
0.8
 11
-75.436038175902112
 21
-409.12524198217881
 31
0.0
 73
     3
  0
TEXT
  5
869
  8
DATA
 62
     7
 10
-74.528424726783371
 20
-408.11662986695541
 30
0.0
 40
1.923828125
  1
Threshold
 41
0.8
 11
-74.528424726783371
 21
-406.19280174195529
 31
0.0
 73
     3
  0
LINE
  5
86A
  8
DATA
  6
CONTINUOUS
 62
     7
 10
93.958702426473167
 20
-435.89900602370011
 30
0.0
 11
-115.34064133977751
 21
-435.89900602370011
 31
0.0
  0
CIRCLE
  5
86B
  8
DATA
  6
CONTINUOUS
 62
     7
 10
49.04494180448561
 20
-428.63061772556091
 30
0.0
 40
1.5
  0
CIRCLE
  5
86C
  8
DATA
  6
CONTINUOUS
 62
     7
 10
17.04494180448561
 20
-428.63061772556091
 30
0.0
 40
1.5
  0
CIRCLE
  5
86D
  8
DATA
  6
CONTINUOUS
 62
     7
 10
-14.95505819551439
 20
-428.63061772556091
 30
0.0
 40
1.5
  0
CIRCLE
  5
86E
  8
DATA
  6
CONTINUOUS
 62
     7
 10
-46.955058195514383
 20
-428.63061772556091
 30
0.0
 40
1.5
  0
CIRCLE
  5
86F
  8
DATA
  6
CONTINUOUS
 62
     7
 10
-78.955058195514368
 20
-428.63061772556091
 30
0.0
 40
1.5
  0
CIRCLE
  5
870
  8
DATA
  6
CONTINUOUS
 62
     7
 10
-104.0
 20
-403.89867086365592
 30
0.0
 40
1.5
  0
CIRCLE
  5
871
  8
DATA
  6
CONTINUOUS
 62
     7
 10
-104.0
 20
-409.39867086365598
 30
0.0
 40
1.5
  0
CIRCLE
  5
872
  8
DATA
  6
CONTINUOUS
 62
     7
 10
-104.0
 20
-414.89867086365592
 30
0.0
 40
1.5
  0
CIRCLE
  5
873
  8
DATA
  6
CONTINUOUS
 62
     7
 10
-104.0
 20
-420.39867086365592
 30
0.0
 40
1.5
  0
CIRCLE
  5
874
  8
DATA
  6
CONTINUOUS
 62
     7
 10
-104.0
 20
-425.89867086365598
 30
0.0
 40
1.5
  0
CIRCLE
  5
875
  8
DATA
  6
CONTINUOUS
 62
     7
 10
-104.0
 20
-431.39867086365592
 30
0.0
 40
1.5
  0
TEXT
  5
876
  8
DATA
 62
     7
 10
-101.1457745676437
 20
-404.63309827057452
 30
0.0
 40
1.923828125
  1
Modeling
 41
0.8
 11
-101.1457745676437
 21
-402.70927014557452
 31
0.0
 73
     3
  0
TEXT
  5
877
  8
DATA
 62
     7
 10
-101.22288728382181
 20
-410.31866185146538
 30
0.0
 40
1.923828125
  1
EQ
 41
0.8
 11
-101.22288728382181
 21
-408.39483372646538
 31
0.0
 73
     3
  0
TEXT
  5
878
  8
DATA
 62
     7
 10
-101.22288728382181
 20
-415.86443641910893
 30
0.0
 40
1.923828125
  1
Compressor
 41
0.8
 11
-101.22288728382181
 21
-413.94060829410893
 31
0.0
 73
     3
  0
TEXT
  5
879
  8
DATA
 62
     7
 10
-101.22288728382181
 20
-421.36443641910898
 30
0.0
 40
1.923828125
  1
De-esser/Gate
 41
0.8
 11
-101.22288728382181
 21
-419.44060829410898
 31
0.0
 73
     3
  0
TEXT
  5
87A
  8
DATA
 62
     7
 10
-101.22288728382181
 20
-426.75
 30
0.0
 40
1.923828125
  1
Chorus/Flanger
 41
0.8
 11
-101.22288728382181
 21
-424.826171875
 31
0.0
 73
     3
  0
TEXT
  5
87B
  8
DATA
 62
     7
 10
-101.22288728382181
 20
-432.28732370293091
 30
0.0
 40
1.923828125
  1
Delay/Reverb
 41
0.8
 11
-101.22288728382181
 21
-430.36349557793079
 31
0.0
 73
     3
  0
LINE
  5
87C
  8
DATA
  6
CONTINUOUS
 62
     7
 10
-76.114436419109197
 20
-401.10000000000002
 30
0.0
 11
-79.705985554396534
 21
-401.10000000000002
 31
0.0
  0
LINE
  5
87D
  8
DATA
  6
CONTINUOUS
 62
     7
 10
-76.114436419109197
 20
-404.10000000000002
 30
0.0
 11
-79.705985554396534
 21
-404.10000000000002
 31
0.0
  0
LINE
  5
87E
  8
DATA
  6
CONTINUOUS
 62
     7
 10
-76.114436419109197
 20
-407.10000000000002
 30
0.0
 11
-79.705985554396534
 21
-407.10000000000002
 31
0.0
  0
LINE
  5
87F
  8
DATA
  6
CONTINUOUS
 62
     7
 10
-76.114436419109197
 20
-410.09999999999991
 30
0.0
 11
-79.705985554396534
 21
-410.09999999999991
 31
0.0
  0
LINE
  5
880
  8
DATA
  6
CONTINUOUS
 62
     7
 10
-79.705985554396534
 20
-401.10000000000002
 30
0.0
 11
-83.031338148534516
 21
-403.89867086365592
 31
0.0
  0
LINE
  5
881
  8
DATA
  6
CONTINUOUS
 62
     7
 10
-79.705985554396534
 20
-404.10000000000002
 30
0.0
 11
-83.031338148534516
 21
-409.39867086365598
 31
0.0
  0
LINE
  5
882
  8
DATA
  6
CONTINUOUS
 62
     7
 10
-79.705985554396534
 20
-407.10000000000002
 30
0.0
 11
-83.031338148534516
 21
-414.89867086365592
 31
0.0
  0
LINE
  5
883
  8
DATA
  6
CONTINUOUS
 62
     7
 10
-79.705985554396534
 20
-410.09999999999991
 30
0.0
 11
-83.031338148534516
 21
-420.39867086365592
 31
0.0
  0
LINE
  5
884
  8
DATA
  6
CONTINUOUS
 62
     7
 10
-83.031338148534516
 20
-431.39867086365592
 30
0.0
 11
-77.5
 21
-433.1095080025014
 31
0.0
  0
LINE
  5
885
  8
DATA
  6
CONTINUOUS
 62
     7
 10
-77.5
 20
-433.1095080025014
 30
0.0
 11
-75.0
 21
-433.1095080025014
 31
0.0
  0
LINE
  5
886
  8
DATA
  6
CONTINUOUS
 62
     7
 10
-81.800000000000026
 20
-425.89867086365598
 30
0.0
 11
-79.850000000000193
 21
-426.93704704447993
 31
0.0
  0
LINE
  5
887
  8
DATA
  6
CONTINUOUS
 62
     7
 10
-77.00000000000027
 20
-428.45467377029968
 30
0.0
 11
-74.900000000000006
 21
-429.57292504195681
 31
0.0
  0
ARC
  5
888
  8
DATA
  6
CONTINUOUS
 62
     7
 10
-78.929176034731185
 20
-428.64266878558823
 30
0.0
 40
1.9383142930790129
 50
5.5658054224294471
 51
118.3635381026411
  0
LINE
  5
889
  8
DATA
  6
CONTINUOUS
 62
     7
 10
-74.900000000000006
 20
-429.57292504195681
 30
0.0
 11
-72.299999999999983
 21
-429.57292504195681
 31
0.0
  0
LINE
  5
88A
  8
DATA
  6
CONTINUOUS
 62
     7
 10
-83.031338148534516
 20
-403.89867086365592
 30
0.0
 11
-83.563367403423015
 21
-403.89867086365592
 31
0.0
  0
LINE
  5
88B
  8
DATA
  6
CONTINUOUS
 62
     7
 10
-83.031338148534516
 20
-409.39867086365598
 30
0.0
 11
-83.563367403423015
 21
-409.39867086365598
 31
0.0
  0
LINE
  5
88C
  8
DATA
  6
CONTINUOUS
 62
     7
 10
-83.031338148534516
 20
-414.89867086365592
 30
0.0
 11
-83.563367403423015
 21
-414.89867086365592
 31
0.0
  0
LINE
  5
88D
  8
DATA
  6
CONTINUOUS
 62
     7
 10
-83.031338148534516
 20
-420.39867086365592
 30
0.0
 11
-83.563367403423015
 21
-420.39867086365592
 31
0.0
  0
LINE
  5
88E
  8
DATA
  6
CONTINUOUS
 62
     7
 10
-81.800000000000026
 20
-425.89867086365598
 30
0.0
 11
-83.563367403423015
 21
-425.89867086365598
 31
0.0
  0
LINE
  5
88F
  8
DATA
  6
CONTINUOUS
 62
     7
 10
-83.031338148534516
 20
-431.39867086365592
 30
0.0
 11
-83.563367403423015
 21
-431.39867086365592
 31
0.0
  0
CIRCLE
  5
890
  8
DATA
  6
CONTINUOUS
 62
     7
 10
-273.0
 20
-425.89900602370011
 30
0.0
 40
4.4499999999999877
  0
CIRCLE
  5
891
  8
DATA
  6
CONTINUOUS
 62
     7
 10
-273.0
 20
-425.89900602370011
 30
0.0
 40
3.1999999999999882
  0
POLYLINE
  5
892
  8
DATA
  6
CONTINUOUS
 62
     7
 66
     1
 10
0.0
 20
0.0
 30
0.0
 70
     1
  0
VERTEX
  5
F37
  8
DATA
  6
CONTINUOUS
 62
     7
 10
-129.05525408330439
 20
-408.77773139743158
 30
0.0
  0
VERTEX
  5
F38
  8
DATA
  6
CONTINUOUS
 62
     7
 10
-118.8552540833045
 20
-408.77773139743158
 30
0.0
  0
VERTEX
  5
F39
  8
DATA
  6
CONTINUOUS
 62
     7
 10
-118.8552540833045
 20
-414.77773139743158
 30
0.0
  0
VERTEX
  5
F3A
  8
DATA
  6
CONTINUOUS
 62
     7
 10
-129.05525408330439
 20
-414.77773139743158
 30
0.0
  0
SEQEND
  5
F3B
  8
DATA
  6
CONTINUOUS
 62
     7
  0
POLYLINE
  5
898
  8
DATA
  6
CONTINUOUS
 62
     7
 66
     1
 10
0.0
 20
0.0
 30
0.0
 70
     1
  0
VERTEX
  5
F3C
  8
DATA
  6
CONTINUOUS
 62
     7
 10
-130.10525408330409
 20
-407.52773139743158
 30
0.0
  0
VERTEX
  5
F3D
  8
DATA
  6
CONTINUOUS
 62
     7
 10
-117.8052540833045
 20
-407.52773139743158
 30
0.0
  0
VERTEX
  5
F3E
  8
DATA
  6
CONTINUOUS
 62
     7
 10
-117.8052540833045
 20
-416.02773139743158
 30
0.0
  0
VERTEX
  5
F3F
  8
DATA
  6
CONTINUOUS
 62
     7
 10
-130.10525408330409
 20
-416.02773139743158
 30
0.0
  0
SEQEND
  5
F40
  8
DATA
  6
CONTINUOUS
 62
     7
  0
POLYLINE
  5
89E
  8
DATA
  6
CONTINUOUS
 62
     7
 66
     1
 10
0.0
 20
0.0
 30
0.0
 70
     1
  0
VERTEX
  5
F41
  8
DATA
  6
CONTINUOUS
 62
     7
 10
-128.7591121188338
 20
-409.08130371788502
 30
0.0
  0
VERTEX
  5
F42
  8
DATA
  6
CONTINUOUS
 62
     7
 10
-125.459112118834
 20
-409.08130371788502
 30
0.0
  0
VERTEX
  5
F43
  8
DATA
  6
CONTINUOUS
 62
     7
 10
-125.459112118834
 20
-410.6813037178851
 30
0.0
  0
VERTEX
  5
F44
  8
DATA
  6
CONTINUOUS
 62
     7
 10
-128.7591121188338
 20
-410.6813037178851
 30
0.0
  0
SEQEND
  5
F45
  8
DATA
  6
CONTINUOUS
 62
     7
  0
POLYLINE
  5
8A4
  8
DATA
  6
CONTINUOUS
 62
     7
 66
     1
 10
0.0
 20
0.0
 30
0.0
 70
     1
  0
VERTEX
  5
F46
  8
DATA
  6
CONTINUOUS
 62
     7
 10
-129.0286705994464
 20
-420.23002470034902
 30
0.0
  0
VERTEX
  5
F47
  8
DATA
  6
CONTINUOUS
 62
     7
 10
-118.8286705994451
 20
-420.23002470034902
 30
0.0
  0
VERTEX
  5
F48
  8
DATA
  6
CONTINUOUS
 62
     7
 10
-118.8286705994451
 20
-426.23002470034902
 30
0.0
  0
VERTEX
  5
F49
  8
DATA
  6
CONTINUOUS
 62
     7
 10
-129.0286705994464
 20
-426.23002470034902
 30
0.0
  0
SEQEND
  5
F4A
  8
DATA
  6
CONTINUOUS
 62
     7
  0
POLYLINE
  5
8AA
  8
DATA
  6
CONTINUOUS
 62
     7
 66
     1
 10
0.0
 20
0.0
 30
0.0
 70
     1
  0
VERTEX
  5
F4B
  8
DATA
  6
CONTINUOUS
 62
     7
 10
-130.07867059944641
 20
-418.98002470034902
 30
0.0
  0
VERTEX
  5
F4C
  8
DATA
  6
CONTINUOUS
 62
     7
 10
-117.77867059944479
 20
-418.98002470034902
 30
0.0
  0
VERTEX
  5
F4D
  8
DATA
  6
CONTINUOUS
 62
     7
 10
-117.77867059944479
 20
-427.48002470034902
 30
0.0
  0
VERTEX
  5
F4E
  8
DATA
  6
CONTINUOUS
 62
     7
 10
-130.07867059944641
 20
-427.48002470034902
 30
0.0
  0
SEQEND
  5
F4F
  8
DATA
  6
CONTINUOUS
 62
     7
  0
POLYLINE
  5
8B0
  8
DATA
  6
CONTINUOUS
 62
     7
 66
     1
 10
0.0
 20
0.0
 30
0.0
 70
     1
  0
VERTEX
  5
F50
  8
DATA
  6
CONTINUOUS
 62
     7
 10
-128.73252863497589
 20
-420.5335970208024
 30
0.0
  0
VERTEX
  5
F51
  8
DATA
  6
CONTINUOUS
 62
     7
 10
-125.4325286349756
 20
-420.5335970208024
 30
0.0
  0
VERTEX
  5
F52
  8
DATA
  6
CONTINUOUS
 62
     7
 10
-125.4325286349756
 20
-422.13359702080248
 30
0.0
  0
VERTEX
  5
F53
  8
DATA
  6
CONTINUOUS
 62
     7
 10
-128.73252863497589
 20
-422.13359702080248
 30
0.0
  0
SEQEND
  5
F54
  8
DATA
  6
CONTINUOUS
 62
     7
  0
LINE
  5
8B6
  8
DATA
  6
CONTINUOUS
 62
     7
 10
-190.98927934220279
 20
-409.46356686534801
 30
0.0
 11
-191.9492793422028
 21
-413.46356686534801
 31
0.0
  0
LINE
  5
8B7
  8
DATA
  6
CONTINUOUS
 62
     7
 10
-190.02927934220281
 20
-413.46356686534801
 30
0.0
 11
-190.98927934220279
 21
-409.46356686534801
 31
0.0
  0
LINE
  5
8B8
  8
DATA
  6
CONTINUOUS
 62
     7
 10
-191.9492793422028
 20
-413.46356686534801
 30
0.0
 11
-190.02927934220281
 21
-413.46356686534801
 31
0.0
  0
LINE
  5
8B9
  8
DATA
  6
CONTINUOUS
 62
     7
 10
-191.01260301462011
 20
-425.81630923245592
 30
0.0
 11
-190.0526030146201
 21
-421.81630923245592
 31
0.0
  0
LINE
  5
8BA
  8
DATA
  6
CONTINUOUS
 62
     7
 10
-191.97260301462009
 20
-421.81630923245592
 30
0.0
 11
-191.01260301462011
 21
-425.81630923245592
 31
0.0
  0
LINE
  5
8BB
  8
DATA
  6
CONTINUOUS
 62
     7
 10
-190.0526030146201
 20
-421.81630923245592
 30
0.0
 11
-191.97260301462009
 21
-421.81630923245592
 31
0.0
  0
POLYLINE
  5
8BC
  8
DATA
  6
CONTINUOUS
 62
     7
 66
     1
 10
0.0
 20
0.0
 30
0.0
 70
     1
  0
VERTEX
  5
F55
  8
DATA
  6
CONTINUOUS
 62
     7
 10
-184.18052430042559
 20
-408.77773139743158
 30
0.0
  0
VERTEX
  5
F56
  8
DATA
  6
CONTINUOUS
 62
     7
 10
-173.9805243004258
 20
-408.77773139743158
 30
0.0
  0
VERTEX
  5
F57
  8
DATA
  6
CONTINUOUS
 62
     7
 10
-173.9805243004258
 20
-414.77773139743158
 30
0.0
  0
VERTEX
  5
F58
  8
DATA
  6
CONTINUOUS
 62
     7
 10
-184.18052430042559
 20
-414.77773139743158
 30
0.0
  0
SEQEND
  5
F59
  8
DATA
  6
CONTINUOUS
 62
     7
  0
POLYLINE
  5
8C2
  8
DATA
  6
CONTINUOUS
 62
     7
 66
     1
 10
0.0
 20
0.0
 30
0.0
 70
     1
  0
VERTEX
  5
F5A
  8
DATA
  6
CONTINUOUS
 62
     7
 10
-185.2305243004254
 20
-407.52773139743158
 30
0.0
  0
VERTEX
  5
F5B
  8
DATA
  6
CONTINUOUS
 62
     7
 10
-172.9305243004257
 20
-407.52773139743158
 30
0.0
  0
VERTEX
  5
F5C
  8
DATA
  6
CONTINUOUS
 62
     7
 10
-172.9305243004257
 20
-416.02773139743158
 30
0.0
  0
VERTEX
  5
F5D
  8
DATA
  6
CONTINUOUS
 62
     7
 10
-185.2305243004254
 20
-416.02773139743158
 30
0.0
  0
SEQEND
  5
F5E
  8
DATA
  6
CONTINUOUS
 62
     7
  0
POLYLINE
  5
8C8
  8
DATA
  6
CONTINUOUS
 62
     7
 66
     1
 10
0.0
 20
0.0
 30
0.0
 70
     1
  0
VERTEX
  5
F5F
  8
DATA
  6
CONTINUOUS
 62
     7
 10
-183.88438233595511
 20
-409.08130371788502
 30
0.0
  0
VERTEX
  5
F60
  8
DATA
  6
CONTINUOUS
 62
     7
 10
-180.58438233595521
 20
-409.08130371788502
 30
0.0
  0
VERTEX
  5
F61
  8
DATA
  6
CONTINUOUS
 62
     7
 10
-180.58438233595521
 20
-410.6813037178851
 30
0.0
  0
VERTEX
  5
F62
  8
DATA
  6
CONTINUOUS
 62
     7
 10
-183.88438233595511
 20
-410.6813037178851
 30
0.0
  0
SEQEND
  5
F63
  8
DATA
  6
CONTINUOUS
 62
     7
  0
POLYLINE
  5
8CE
  8
DATA
  6
CONTINUOUS
 62
     7
 66
     1
 10
0.0
 20
0.0
 30
0.0
 70
     1
  0
VERTEX
  5
F64
  8
DATA
  6
CONTINUOUS
 62
     7
 10
-184.15394081656771
 20
-420.23002470034902
 30
0.0
  0
VERTEX
  5
F65
  8
DATA
  6
CONTINUOUS
 62
     7
 10
-173.95394081656639
 20
-420.23002470034902
 30
0.0
  0
VERTEX
  5
F66
  8
DATA
  6
CONTINUOUS
 62
     7
 10
-173.95394081656639
 20
-426.23002470034902
 30
0.0
  0
VERTEX
  5
F67
  8
DATA
  6
CONTINUOUS
 62
     7
 10
-184.15394081656771
 20
-426.23002470034902
 30
0.0
  0
SEQEND
  5
F68
  8
DATA
  6
CONTINUOUS
 62
     7
  0
POLYLINE
  5
8D4
  8
DATA
  6
CONTINUOUS
 62
     7
 66
     1
 10
0.0
 20
0.0
 30
0.0
 70
     1
  0
VERTEX
  5
F69
  8
DATA
  6
CONTINUOUS
 62
     7
 10
-185.20394081656769
 20
-418.98002470034902
 30
0.0
  0
VERTEX
  5
F6A
  8
DATA
  6
CONTINUOUS
 62
     7
 10
-172.90394081656609
 20
-418.98002470034902
 30
0.0
  0
VERTEX
  5
F6B
  8
DATA
  6
CONTINUOUS
 62
     7
 10
-172.90394081656609
 20
-427.48002470034902
 30
0.0
  0
VERTEX
  5
F6C
  8
DATA
  6
CONTINUOUS
 62
     7
 10
-185.20394081656769
 20
-427.48002470034902
 30
0.0
  0
SEQEND
  5
F6D
  8
DATA
  6
CONTINUOUS
 62
     7
  0
POLYLINE
  5
8DA
  8
DATA
  6
CONTINUOUS
 62
     7
 66
     1
 10
0.0
 20
0.0
 30
0.0
 70
     1
  0
VERTEX
  5
F6E
  8
DATA
  6
CONTINUOUS
 62
     7
 10
-183.8577988520972
 20
-420.5335970208024
 30
0.0
  0
VERTEX
  5
F6F
  8
DATA
  6
CONTINUOUS
 62
     7
 10
-180.55779885209679
 20
-420.5335970208024
 30
0.0
  0
VERTEX
  5
F70
  8
DATA
  6
CONTINUOUS
 62
     7
 10
-180.55779885209679
 20
-422.13359702080248
 30
0.0
  0
VERTEX
  5
F71
  8
DATA
  6
CONTINUOUS
 62
     7
 10
-183.8577988520972
 20
-422.13359702080248
 30
0.0
  0
SEQEND
  5
F72
  8
DATA
  6
CONTINUOUS
 62
     7
  0
LINE
  5
8E0
  8
DATA
  6
CONTINUOUS
 62
     7
 10
-194.3067053103307
 20
-423.23002470034902
 30
0.0
 11
-194.3067053103307
 21
-411.77773139743158
 31
0.0
  0
LINE
  5
8E1
  8
DATA
  6
CONTINUOUS
 62
     7
 10
-194.3067053103307
 20
-411.77773139743158
 30
0.0
 11
-193.00670531033069
 21
-411.77773139743158
 31
0.0
  0
LINE
  5
8E2
  8
DATA
  6
CONTINUOUS
 62
     7
 10
-194.3067053103307
 20
-423.23002470034902
 30
0.0
 11
-193.00670531033069
 21
-423.23002470034902
 31
0.0
  0
LINE
  5
8E3
  8
DATA
  6
CONTINUOUS
 62
     7
 10
-194.3067053103307
 20
-417.50387804889027
 30
0.0
 11
-195.09999999999999
 21
-417.50387804889027
 31
0.0
  0
TEXT
  5
8E4
  8
DATA
 62
     7
 10
-203.7811090352948
 20
-418.13266915764569
 30
0.0
 40
1.923828125
  1
Bypass
 41
0.8
 11
-203.7811090352948
 21
-416.20884103264569
 31
0.0
 73
     3
  0
TEXT
  5
8E5
  8
DATA
 62
     7
 10
-183.50312024470281
 20
-430.4428947011744
 30
0.0
 40
1.923828125
  1
Program
 41
0.8
 11
-183.50312024470281
 21
-428.5190665761744
 31
0.0
 73
     3
  0
TEXT
  5
8E6
  8
DATA
 62
     7
 10
-127.4342292799976
 20
-418.4363968186085
 30
0.0
 40
1.923828125
  1
Effect
 41
0.8
 11
-127.4342292799976
 21
-416.51256869360839
 31
0.0
 73
     3
  0
TEXT
  5
8E7
  8
DATA
 62
     7
 10
-126.8377819294103
 20
-430.62244361411791
 30
0.0
 40
1.923828125
  1
Store
 41
0.8
 11
-126.8377819294103
 21
-428.69861548911791
 31
0.0
 73
     3
  0
CIRCLE
  5
8E8
  8
DATA
  6
CONTINUOUS
 62
     7
 10
-211.0
 20
-431.39867086365592
 30
0.0
 40
1.5
  0
CIRCLE
  5
8E9
  8
DATA
  6
CONTINUOUS
 62
     7
 10
-206.0
 20
-431.39867086365592
 30
0.0
 40
1.5
  0
CIRCLE
  5
8EA
  8
DATA
  6
CONTINUOUS
 62
     7
 10
-201.0
 20
-431.39867086365592
 30
0.0
 40
1.5
  0
TEXT
  5
8EB
  8
DATA
 62
     7
 10
-203.39064673628889
 20
-427.99604484334998
 30
0.0
 40
1.923828125
  1
Clip
 41
0.8
 11
-203.39064673628889
 21
-426.07221671834998
 31
0.0
 73
     3
  0
TEXT
  5
8EC
  8
DATA
 62
     7
 10
-214.19136821149451
 20
-428.01330842036111
 30
0.0
 40
1.923828125
  1
Signal
 41
0.8
 11
-214.19136821149451
 21
-426.08948029536111
 31
0.0
 73
     3
  0
TEXT
  5
8ED
  8
DATA
 62
     7
 10
-226.32878126633901
 20
-435.25935326371109
 30
0.0
 40
1.923828125
  1
GAIN
 41
0.8
 11
-226.32878126633901
 21
-433.33552513871109
 31
0.0
 73
     3
  0
TEXT
  5
8EE
  8
DATA
 62
     7
 10
-225.6719402088666
 20
-411.48402989556678
 30
0.0
 40
1.5390625
  1
+45
 41
0.8
 11
-225.6719402088666
 21
-409.94496739556678
 31
0.0
 73
     3
  0
TEXT
  5
8EF
  8
DATA
 62
     7
 10
-230.04532336814441
 20
-428.83798505221671
 30
0.0
 40
1.5390625
  1
+30
 41
0.8
 11
-230.04532336814441
 21
-427.29892255221671
 31
0.0
 73
     3
  0
TEXT
  5
8F0
  8
DATA
 62
     7
 10
-220.79064673628889
 20
-428.96532336814448
 30
0.0
 40
1.5390625
  1
+60
 41
0.8
 11
-220.79064673628889
 21
-427.42626086814448
 31
0.0
 73
     3
  0
POLYLINE
  5
8F1
  8
DATA
  6
CONTINUOUS
 62
     7
 66
     1
 10
0.0
 20
0.0
 30
0.0
 70
     1
  0
VERTEX
  5
F73
  8
DATA
  6
CONTINUOUS
 62
     7
 10
-164.08885600525531
 20
-407.12194020886648
 30
0.0
  0
VERTEX
  5
F74
  8
DATA
  6
CONTINUOUS
 62
     7
 10
-138.7888560052553
 20
-407.12194020886648
 30
0.0
  0
VERTEX
  5
F75
  8
DATA
  6
CONTINUOUS
 62
     7
 10
-138.7888560052553
 20
-426.62194020886648
 30
0.0
  0
VERTEX
  5
F76
  8
DATA
  6
CONTINUOUS
 62
     7
 10
-164.08885600525531
 20
-426.62194020886648
 30
0.0
  0
SEQEND
  5
F77
  8
DATA
  6
CONTINUOUS
 62
     7
  0
TEXT
  5
8F7
  8
DATA
 62
     7
 10
-305.85835825289371
 20
-403.55041131628047
 30
0.0
 40
1.923828125
  1
  Mic
 41
0.8
 11
-305.85835825289371
 21
-401.62658319128047
 31
0.0
 73
     3
  0
TEXT
  5
8F8
  8
DATA
 62
     7
 10
-305.85835825289371
 20
-406.05041131628059
 30
0.0
 40
1.923828125
  1
Input
 41
0.8
 11
-305.85835825289371
 21
-404.12658319128059
 31
0.0
 73
     3
  0
POLYLINE
  5
8F9
  8
DATA
  6
CONTINUOUS
 62
     7
 66
     1
 10
0.0
 20
0.0
 30
0.0
 70
     1
  0
VERTEX
  5
F78
  8
DATA
  6
CONTINUOUS
 62
     7
 10
-292.0
 20
-428.89867086365592
 30
0.0
  0
VERTEX
  5
F79
  8
DATA
  6
CONTINUOUS
 62
     7
 10
-286.0
 20
-428.89867086365592
 30
0.0
  0
VERTEX
  5
F7A
  8
DATA
  6
CONTINUOUS
 62
     7
 10
-286.0
 20
-433.89867086365598
 30
0.0
  0
VERTEX
  5
F7B
  8
DATA
  6
CONTINUOUS
 62
     7
 10
-292.0
 20
-433.89867086365598
 30
0.0
  0
SEQEND
  5
F7C
  8
DATA
  6
CONTINUOUS
 62
     7
  0
POLYLINE
  5
8FF
  8
DATA
  6
CONTINUOUS
 62
     7
 66
     1
 10
0.0
 20
0.0
 30
0.0
 70
     1
  0
VERTEX
  5
F7D
  8
DATA
  6
CONTINUOUS
 62
     7
 10
-260.0
 20
-428.89867086365592
 30
0.0
  0
VERTEX
  5
F7E
  8
DATA
  6
CONTINUOUS
 62
     7
 10
-254.0
 20
-428.89867086365592
 30
0.0
  0
VERTEX
  5
F7F
  8
DATA
  6
CONTINUOUS
 62
     7
 10
-254.0
 20
-433.89867086365598
 30
0.0
  0
VERTEX
  5
F80
  8
DATA
  6
CONTINUOUS
 62
     7
 10
-260.0
 20
-433.89867086365598
 30
0.0
  0
SEQEND
  5
F81
  8
DATA
  6
CONTINUOUS
 62
     7
  0
POLYLINE
  5
905
  8
DATA
  6
CONTINUOUS
 62
     7
 66
     1
 10
0.0
 20
0.0
 30
0.0
 70
     1
  0
VERTEX
  5
F82
  8
DATA
  6
CONTINUOUS
 62
     7
 10
-248.0
 20
-428.89867086365592
 30
0.0
  0
VERTEX
  5
F83
  8
DATA
  6
CONTINUOUS
 62
     7
 10
-242.0
 20
-428.89867086365592
 30
0.0
  0
VERTEX
  5
F84
  8
DATA
  6
CONTINUOUS
 62
     7
 10
-242.0
 20
-433.89867086365598
 30
0.0
  0
VERTEX
  5
F85
  8
DATA
  6
CONTINUOUS
 62
     7
 10
-248.0
 20
-433.89867086365598
 30
0.0
  0
SEQEND
  5
F86
  8
DATA
  6
CONTINUOUS
 62
     7
  0
TEXT
  5
90B
  8
DATA
 62
     7
 10
-291.3634067753888
 20
-427.22381781690319
 30
0.0
 40
1.923828125
  1
Line
 41
0.8
 11
-291.3634067753888
 21
-425.29998969190319
 31
0.0
 73
     3
  0
TEXT
  5
90C
  8
DATA
 62
     7
 10
-258.63833317720969
 20
-427.03500046837092
 30
0.0
 40
1.923828125
  1
48V
 41
0.8
 11
-258.63833317720969
 21
-425.11117234337081
 31
0.0
 73
     3
  0
TEXT
  5
90D
  8
DATA
 62
     7
 10
-247.42833036698431
 20
-424.55166869627391
 30
0.0
 40
1.923828125
  1
20dB
 41
0.8
 11
-247.42833036698431
 21
-422.62784057127391
 31
0.0
 73
     3
  0
TEXT
  5
90E
  8
DATA
 62
     7
 10
-247.42833036698431
 20
-427.05166869627391
 30
0.0
 40
1.923828125
  1
Pad
 41
0.8
 11
-247.42833036698431
 21
-425.12784057127391
 31
0.0
 73
     3
  0
TEXT
  5
90F
  8
DATA
 62
     7
 10
-278.48999718977461
 20
-411.80000468370889
 30
0.0
 40
1.923828125
  1
Instrument
 41
0.8
 11
-278.48999718977461
 21
-409.87617655870889
 31
0.0
 73
     3
  0
TEXT
  5
910
  8
DATA
 62
     7
 10
-278.48999718977461
 20
-414.30000468370889
 30
0.0
 40
1.923828125
  1
　Input
 41
0.8
 11
-278.48999718977461
 21
-412.37617655870889
 31
0.0
 73
     3
  0
CIRCLE
  5
911
  8
DATA
  6
CONTINUOUS
 62
     7
 10
-177.7960342419467
 20
35.769039552500921
 30
0.0
 40
1.969799999999992
  0
LINE
  5
912
  8
DATA
  6
CONTINUOUS
 62
     7
 10
-177.41383424194669
 20
34.504839552500961
 30
0.0
 11
-178.17823424194671
 21
34.504839552500961
 31
0.0
  0
LINE
  5
913
  8
DATA
  6
CONTINUOUS
 62
     7
 10
-177.41383424194669
 20
37.033239552500874
 30
0.0
 11
-178.17823424194671
 21
37.033239552500874
 31
0.0
  0
LINE
  5
914
  8
DATA
  6
CONTINUOUS
 62
     7
 10
-176.53183424194671
 20
35.38683955250093
 30
0.0
 11
-176.53183424194671
 21
36.15123955250089
 31
0.0
  0
LINE
  5
915
  8
DATA
  6
CONTINUOUS
 62
     7
 10
-179.06023424194669
 20
35.38683955250093
 30
0.0
 11
-179.06023424194669
 21
36.15123955250089
 31
0.0
  0
LINE
  5
916
  8
DATA
  6
CONTINUOUS
 62
     7
 10
-177.41383424194669
 20
34.504839552500961
 30
0.0
 11
-177.41383424194669
 21
35.211213773240011
 31
0.0
  0
LINE
  5
917
  8
DATA
  6
CONTINUOUS
 62
     7
 10
-178.17823424194671
 20
34.504839552500961
 30
0.0
 11
-178.17823424194671
 21
35.211213773240011
 31
0.0
  0
LINE
  5
918
  8
DATA
  6
CONTINUOUS
 62
     7
 10
-179.06023424194669
 20
35.38683955250093
 30
0.0
 11
-178.35386002120251
 21
35.38683955250093
 31
0.0
  0
LINE
  5
919
  8
DATA
  6
CONTINUOUS
 62
     7
 10
-179.06023424194669
 20
36.15123955250089
 30
0.0
 11
-178.35386002120251
 21
36.15123955250089
 31
0.0
  0
LINE
  5
91A
  8
DATA
  6
CONTINUOUS
 62
     7
 10
-176.53183424194671
 20
35.38683955250093
 30
0.0
 11
-177.23820846269101
 21
35.38683955250093
 31
0.0
  0
LINE
  5
91B
  8
DATA
  6
CONTINUOUS
 62
     7
 10
-178.17823424194671
 20
37.033239552500874
 30
0.0
 11
-178.17823424194671
 21
36.32686533176183
 31
0.0
  0
LINE
  5
91C
  8
DATA
  6
CONTINUOUS
 62
     7
 10
-177.41383424194669
 20
37.033239552500874
 30
0.0
 11
-177.41383424194669
 21
36.32686533176183
 31
0.0
  0
LINE
  5
91D
  8
DATA
  6
CONTINUOUS
 62
     7
 10
-176.53183424194671
 20
36.15123955250089
 30
0.0
 11
-177.23820846269101
 21
36.15123955250089
 31
0.0
  0
ARC
  5
91E
  8
DATA
  6
CONTINUOUS
 62
     7
 10
-177.7960342419467
 20
35.769039552500921
 30
0.0
 40
0.6762000000016735
 50
304.4173887100975
 51
325.58261128965808
  0
ARC
  5
91F
  8
DATA
  6
CONTINUOUS
 62
     7
 10
-177.7960342419467
 20
35.769039552500921
 30
0.0
 40
0.6762000000059454
 50
214.41738871034141
 51
235.58261128990239
  0
ARC
  5
920
  8
DATA
  6
CONTINUOUS
 62
     7
 10
-177.7960342419467
 20
35.769039552500921
 30
0.0
 40
0.6762000000016794
 50
124.4173887100971
 51
145.58261128966089
  0
ARC
  5
921
  8
DATA
  6
CONTINUOUS
 62
     7
 10
-177.7960342419467
 20
35.769039552500921
 30
0.0
 40
0.6762000000059495
 50
34.417388710341861
 51
55.582611289904783
  0
CIRCLE
  5
922
  8
DATA
  6
CONTINUOUS
 62
     7
 10
-183.99194444408411
 20
29.722122379728241
 30
0.0
 40
6.5000276900223044
  0
CIRCLE
  5
923
  8
DATA
  6
CONTINUOUS
 62
     7
 10
-183.9885409804034
 20
29.857648240615799
 30
0.0
 40
5.3983387406344523
  0
ARC
  5
924
  8
DATA
  6
CONTINUOUS
 62
     7
 10
-183.997947034698
 20
29.769331489148112
 30
0.0
 40
4.4990635537492656
 50
277.3695252656882
 51
263.3540939117712
  0
LINE
  5
925
  8
DATA
  6
CONTINUOUS
 62
     7
 10
-183.420860593302
 20
25.307432330736908
 30
0.0
 11
-183.420860593302
 21
25.86332703754757
 31
0.0
  0
LINE
  5
926
  8
DATA
  6
CONTINUOUS
 62
     7
 10
-184.5186372293102
 20
25.300500033173261
 30
0.0
 11
-184.5186372293102
 21
25.84317410150344
 31
0.0
  0
LINE
  5
927
  8
DATA
  6
CONTINUOUS
 62
     7
 10
-183.420860593302
 20
25.86332703754757
 30
0.0
 11
-184.5186372293102
 21
25.86332703754757
 31
0.0
  0
CIRCLE
  5
928
  8
DATA
  6
CONTINUOUS
 62
     7
 10
-181.41195964095641
 20
30.032177361447321
 30
0.0
 40
0.501783734671078
  0
CIRCLE
  5
929
  8
DATA
  6
CONTINUOUS
 62
     7
 10
-182.338126240414
 20
31.625979472036931
 30
0.0
 40
0.5020279753628576
  0
CIRCLE
  5
92A
  8
DATA
  6
CONTINUOUS
 62
     7
 10
-183.99200105315199
 20
32.522210137960279
 30
0.0
 40
0.5005081832823067
  0
CIRCLE
  5
92B
  8
DATA
  6
CONTINUOUS
 62
     7
 10
-185.68191083168099
 20
31.62202525417085
 30
0.0
 40
0.5023999608302222
  0
CIRCLE
  5
92C
  8
DATA
  6
CONTINUOUS
 62
     7
 10
-186.63311408872761
 20
30.0433503752093
 30
0.0
 40
0.4947254581649535
  0
POLYLINE
  5
92D
  8
DATA
  6
CONTINUOUS
 62
     7
 66
     1
 10
0.0
 20
0.0
 30
0.0
 70
   129
  0
VERTEX
  5
F87
  8
DATA
  6
CONTINUOUS
 62
     7
 10
-183.6719852315729
 20
31.322121892396211
 30
0.0
  0
VERTEX
  5
F88
  8
DATA
  6
CONTINUOUS
 62
     7
 10
-184.29196554542949
 20
31.322121892396211
 30
0.0
  0
VERTEX
  5
F89
  8
DATA
  6
CONTINUOUS
 62
     7
 10
-184.29196554542949
 20
33.702081325176273
 30
0.0
  0
VERTEX
  5
F8A
  8
DATA
  6
CONTINUOUS
 62
     7
 10
-183.6719852315729
 20
33.702081325176273
 30
0.0
  0
SEQEND
  5
F8B
  8
DATA
  6
CONTINUOUS
 62
     7
  0
POLYLINE
  5
933
  8
DATA
  6
CONTINUOUS
 62
     7
 66
     1
 10
0.0
 20
0.0
 30
0.0
 70
   129
  0
VERTEX
  5
F8C
  8
DATA
  6
CONTINUOUS
 62
     7
 10
-183.81195890995849
 20
31.982114061992181
 30
0.0
  0
VERTEX
  5
F8D
  8
DATA
  6
CONTINUOUS
 62
     7
 10
-184.17199779491401
 20
31.982114061992181
 30
0.0
  0
VERTEX
  5
F8E
  8
DATA
  6
CONTINUOUS
 62
     7
 10
-184.17199779491401
 20
31.382071859301249
 30
0.0
  0
VERTEX
  5
F8F
  8
DATA
  6
CONTINUOUS
 62
     7
 10
-183.81195890995849
 20
31.382071859301249
 30
0.0
  0
SEQEND
  5
F90
  8
DATA
  6
CONTINUOUS
 62
     7
  0
POLYLINE
  5
939
  8
DATA
  6
CONTINUOUS
 62
     7
 66
     1
 10
0.0
 20
0.0
 30
0.0
 70
   129
  0
VERTEX
  5
F91
  8
DATA
  6
CONTINUOUS
 62
     7
 10
-183.81195890995849
 20
33.622193247105038
 30
0.0
  0
VERTEX
  5
F92
  8
DATA
  6
CONTINUOUS
 62
     7
 10
-184.17199779491401
 20
33.622193247105038
 30
0.0
  0
VERTEX
  5
F93
  8
DATA
  6
CONTINUOUS
 62
     7
 10
-184.17199779491401
 20
33.022151044414123
 30
0.0
  0
VERTEX
  5
F94
  8
DATA
  6
CONTINUOUS
 62
     7
 10
-183.81195890995849
 20
33.022151044414123
 30
0.0
  0
SEQEND
  5
F95
  8
DATA
  6
CONTINUOUS
 62
     7
  0
POLYLINE
  5
93F
  8
DATA
  6
CONTINUOUS
 62
     7
 66
     1
 10
0.0
 20
0.0
 30
0.0
 70
   129
  0
VERTEX
  5
F96
  8
DATA
  6
CONTINUOUS
 62
     7
 10
-184.6319985025149
 20
31.0021626798857
 30
0.0
  0
VERTEX
  5
F97
  8
DATA
  6
CONTINUOUS
 62
     7
 10
-185.07199328224601
 20
30.56216790015467
 30
0.0
  0
VERTEX
  5
F98
  8
DATA
  6
CONTINUOUS
 62
     7
 10
-186.75194868968961
 20
32.242123307597659
 30
0.0
  0
VERTEX
  5
F99
  8
DATA
  6
CONTINUOUS
 62
     7
 10
-186.3119539099585
 20
32.682118087328689
 30
0.0
  0
SEQEND
  5
F9A
  8
DATA
  6
CONTINUOUS
 62
     7
  0
POLYLINE
  5
945
  8
DATA
  6
CONTINUOUS
 62
     7
 66
     1
 10
0.0
 20
0.0
 30
0.0
 70
   129
  0
VERTEX
  5
F9B
  8
DATA
  6
CONTINUOUS
 62
     7
 10
-185.19196103276099
 20
31.382071859301249
 30
0.0
  0
VERTEX
  5
F9C
  8
DATA
  6
CONTINUOUS
 62
     7
 10
-185.43196435049649
 20
31.122198247105629
 30
0.0
  0
VERTEX
  5
F9D
  8
DATA
  6
CONTINUOUS
 62
     7
 10
-185.01197549863599
 20
30.702141578540228
 30
0.0
  0
VERTEX
  5
F9E
  8
DATA
  6
CONTINUOUS
 62
     7
 10
-184.7519662530305
 20
30.962150824145152
 30
0.0
  0
SEQEND
  5
F9F
  8
DATA
  6
CONTINUOUS
 62
     7
  0
POLYLINE
  5
94B
  8
DATA
  6
CONTINUOUS
 62
     7
 66
     1
 10
0.0
 20
0.0
 30
0.0
 70
   129
  0
VERTEX
  5
FA0
  8
DATA
  6
CONTINUOUS
 62
     7
 10
-186.33195983782849
 20
32.542144408943123
 30
0.0
  0
VERTEX
  5
FA1
  8
DATA
  6
CONTINUOUS
 62
     7
 10
-186.59196908343401
 20
32.282135163337628
 30
0.0
  0
VERTEX
  5
FA2
  8
DATA
  6
CONTINUOUS
 62
     7
 10
-186.171980231573
 20
31.862078494772248
 30
0.0
  0
VERTEX
  5
FA3
  8
DATA
  6
CONTINUOUS
 62
     7
 10
-185.91197098596751
 20
32.122087740377737
 30
0.0
  0
SEQEND
  5
FA4
  8
DATA
  6
CONTINUOUS
 62
     7
  0
POLYLINE
  5
951
  8
DATA
  6
CONTINUOUS
 62
     7
 66
     1
 10
0.0
 20
0.0
 30
0.0
 70
   129
  0
VERTEX
  5
FA5
  8
DATA
  6
CONTINUOUS
 62
     7
 10
-183.4119759859675
 20
31.0021626798857
 30
0.0
  0
VERTEX
  5
FA6
  8
DATA
  6
CONTINUOUS
 62
     7
 10
-182.97198120623639
 20
30.56216790015467
 30
0.0
  0
VERTEX
  5
FA7
  8
DATA
  6
CONTINUOUS
 62
     7
 10
-181.29195798208849
 20
32.242123307597659
 30
0.0
  0
VERTEX
  5
FA8
  8
DATA
  6
CONTINUOUS
 62
     7
 10
-181.7319527618196
 20
32.682118087328689
 30
0.0
  0
SEQEND
  5
FA9
  8
DATA
  6
CONTINUOUS
 62
     7
  0
POLYLINE
  5
957
  8
DATA
  6
CONTINUOUS
 62
     7
 66
     1
 10
0.0
 20
0.0
 30
0.0
 70
   129
  0
VERTEX
  5
FAA
  8
DATA
  6
CONTINUOUS
 62
     7
 10
-182.85194563901649
 20
31.382071859301249
 30
0.0
  0
VERTEX
  5
FAB
  8
DATA
  6
CONTINUOUS
 62
     7
 10
-182.59200421011599
 20
31.122198247105629
 30
0.0
  0
VERTEX
  5
FAC
  8
DATA
  6
CONTINUOUS
 62
     7
 10
-183.0119930619764
 20
30.702141578540228
 30
0.0
  0
VERTEX
  5
FAD
  8
DATA
  6
CONTINUOUS
 62
     7
 10
-183.272002307582
 20
30.962150824145152
 30
0.0
  0
SEQEND
  5
FAE
  8
DATA
  6
CONTINUOUS
 62
     7
  0
POLYLINE
  5
95D
  8
DATA
  6
CONTINUOUS
 62
     7
 66
     1
 10
0.0
 20
0.0
 30
0.0
 70
   129
  0
VERTEX
  5
FAF
  8
DATA
  6
CONTINUOUS
 62
     7
 10
-181.69200872278401
 20
32.542144408943123
 30
0.0
  0
VERTEX
  5
FB0
  8
DATA
  6
CONTINUOUS
 62
     7
 10
-181.43199947717849
 20
32.282135163337628
 30
0.0
  0
VERTEX
  5
FB1
  8
DATA
  6
CONTINUOUS
 62
     7
 10
-181.85198832903961
 20
31.862078494772248
 30
0.0
  0
VERTEX
  5
FB2
  8
DATA
  6
CONTINUOUS
 62
     7
 10
-182.1119975746449
 20
32.122087740377737
 30
0.0
  0
SEQEND
  5
FB3
  8
DATA
  6
CONTINUOUS
 62
     7
  0
POLYLINE
  5
963
  8
DATA
  6
CONTINUOUS
 62
     7
 66
     1
 10
0.0
 20
0.0
 30
0.0
 70
   129
  0
VERTEX
  5
FB4
  8
DATA
  6
CONTINUOUS
 62
     7
 10
-185.55199991771701
 20
29.402095350512798
 30
0.0
  0
VERTEX
  5
FB5
  8
DATA
  6
CONTINUOUS
 62
     7
 10
-185.9919946974475
 20
28.962100570781779
 30
0.0
  0
VERTEX
  5
FB6
  8
DATA
  6
CONTINUOUS
 62
     7
 10
-187.67195010489101
 20
30.662129722799691
 30
0.0
  0
VERTEX
  5
FB7
  8
DATA
  6
CONTINUOUS
 62
     7
 10
-187.25196125303049
 20
31.082186391365639
 30
0.0
  0
SEQEND
  5
FB8
  8
DATA
  6
CONTINUOUS
 62
     7
  0
POLYLINE
  5
969
  8
DATA
  6
CONTINUOUS
 62
     7
 66
     1
 10
0.0
 20
0.0
 30
0.0
 70
   129
  0
VERTEX
  5
FB9
  8
DATA
  6
CONTINUOUS
 62
     7
 10
-186.11196244796301
 20
29.782140163338209
 30
0.0
  0
VERTEX
  5
FBA
  8
DATA
  6
CONTINUOUS
 62
     7
 10
-186.3719716935685
 20
29.522130917732721
 30
0.0
  0
VERTEX
  5
FBB
  8
DATA
  6
CONTINUOUS
 62
     7
 10
-185.95198284170741
 20
29.10207424916733
 30
0.0
  0
VERTEX
  5
FBC
  8
DATA
  6
CONTINUOUS
 62
     7
 10
-185.691973596102
 20
29.362083494772811
 30
0.0
  0
SEQEND
  5
FBD
  8
DATA
  6
CONTINUOUS
 62
     7
  0
POLYLINE
  5
96F
  8
DATA
  6
CONTINUOUS
 62
     7
 66
     1
 10
0.0
 20
0.0
 30
0.0
 70
   129
  0
VERTEX
  5
FBE
  8
DATA
  6
CONTINUOUS
 62
     7
 10
-187.2719671809005
 20
30.94207707957024
 30
0.0
  0
VERTEX
  5
FBF
  8
DATA
  6
CONTINUOUS
 62
     7
 10
-187.53197642650599
 20
30.682203467374599
 30
0.0
  0
VERTEX
  5
FC0
  8
DATA
  6
CONTINUOUS
 62
     7
 10
-187.11198757464501
 20
30.262146798809209
 30
0.0
  0
VERTEX
  5
FC1
  8
DATA
  6
CONTINUOUS
 62
     7
 10
-186.85197832903961
 20
30.5221560444147
 30
0.0
  0
SEQEND
  5
FC2
  8
DATA
  6
CONTINUOUS
 62
     7
  0
POLYLINE
  5
975
  8
DATA
  6
CONTINUOUS
 62
     7
 66
     1
 10
0.0
 20
0.0
 30
0.0
 70
   129
  0
VERTEX
  5
FC3
  8
DATA
  6
CONTINUOUS
 62
     7
 10
-182.4719686428954
 20
29.402095350512798
 30
0.0
  0
VERTEX
  5
FC4
  8
DATA
  6
CONTINUOUS
 62
     7
 10
-182.03197386316501
 20
28.962100570781779
 30
0.0
  0
VERTEX
  5
FC5
  8
DATA
  6
CONTINUOUS
 62
     7
 10
-180.35195063901651
 20
30.662129722799691
 30
0.0
  0
VERTEX
  5
FC6
  8
DATA
  6
CONTINUOUS
 62
     7
 10
-180.79194541874759
 20
31.082186391365639
 30
0.0
  0
SEQEND
  5
FC7
  8
DATA
  6
CONTINUOUS
 62
     7
  0
POLYLINE
  5
97B
  8
DATA
  6
CONTINUOUS
 62
     7
 66
     1
 10
0.0
 20
0.0
 30
0.0
 70
   129
  0
VERTEX
  5
FC8
  8
DATA
  6
CONTINUOUS
 62
     7
 10
-181.91200611264941
 20
29.782140163338209
 30
0.0
  0
VERTEX
  5
FC9
  8
DATA
  6
CONTINUOUS
 62
     7
 10
-181.65199686704401
 20
29.522130917732721
 30
0.0
  0
VERTEX
  5
FCA
  8
DATA
  6
CONTINUOUS
 62
     7
 10
-182.07198571890501
 20
29.10207424916733
 30
0.0
  0
VERTEX
  5
FCB
  8
DATA
  6
CONTINUOUS
 62
     7
 10
-182.3319949645105
 20
29.362083494772811
 30
0.0
  0
SEQEND
  5
FCC
  8
DATA
  6
CONTINUOUS
 62
     7
  0
POLYLINE
  5
981
  8
DATA
  6
CONTINUOUS
 62
     7
 66
     1
 10
0.0
 20
0.0
 30
0.0
 70
   129
  0
VERTEX
  5
FCD
  8
DATA
  6
CONTINUOUS
 62
     7
 10
-180.75200137971251
 20
30.94207707957024
 30
0.0
  0
VERTEX
  5
FCE
  8
DATA
  6
CONTINUOUS
 62
     7
 10
-180.51199806197701
 20
30.682203467374599
 30
0.0
  0
VERTEX
  5
FCF
  8
DATA
  6
CONTINUOUS
 62
     7
 10
-180.93198691383751
 20
30.262146798809209
 30
0.0
  0
VERTEX
  5
FD0
  8
DATA
  6
CONTINUOUS
 62
     7
 10
-181.17199023157289
 20
30.5221560444147
 30
0.0
  0
SEQEND
  5
FD1
  8
DATA
  6
CONTINUOUS
 62
     7
  0
CIRCLE
  5
987
  8
DATA
  6
CONTINUOUS
 62
     7
 10
-190.18920869854171
 20
35.769039552500921
 30
0.0
 40
1.969799999999992
  0
LINE
  5
988
  8
DATA
  6
CONTINUOUS
 62
     7
 10
-189.80700869854169
 20
34.504839552500961
 30
0.0
 11
-190.57140869854169
 21
34.504839552500961
 31
0.0
  0
LINE
  5
989
  8
DATA
  6
CONTINUOUS
 62
     7
 10
-189.80700869854169
 20
37.033239552500874
 30
0.0
 11
-190.57140869854169
 21
37.033239552500874
 31
0.0
  0
LINE
  5
98A
  8
DATA
  6
CONTINUOUS
 62
     7
 10
-188.92500869854169
 20
35.38683955250093
 30
0.0
 11
-188.92500869854169
 21
36.15123955250089
 31
0.0
  0
LINE
  5
98B
  8
DATA
  6
CONTINUOUS
 62
     7
 10
-191.45340869854169
 20
35.38683955250093
 30
0.0
 11
-191.45340869854169
 21
36.15123955250089
 31
0.0
  0
LINE
  5
98C
  8
DATA
  6
CONTINUOUS
 62
     7
 10
-189.80700869854169
 20
34.504839552500961
 30
0.0
 11
-189.80700869854169
 21
35.211213773240011
 31
0.0
  0
LINE
  5
98D
  8
DATA
  6
CONTINUOUS
 62
     7
 10
-190.57140869854169
 20
34.504839552500961
 30
0.0
 11
-190.57140869854169
 21
35.211213773240011
 31
0.0
  0
LINE
  5
98E
  8
DATA
  6
CONTINUOUS
 62
     7
 10
-191.45340869854169
 20
35.38683955250093
 30
0.0
 11
-190.7470344777976
 21
35.38683955250093
 31
0.0
  0
LINE
  5
98F
  8
DATA
  6
CONTINUOUS
 62
     7
 10
-191.45340869854169
 20
36.15123955250089
 30
0.0
 11
-190.7470344777976
 21
36.15123955250089
 31
0.0
  0
LINE
  5
990
  8
DATA
  6
CONTINUOUS
 62
     7
 10
-188.92500869854169
 20
35.38683955250093
 30
0.0
 11
-189.63138291928601
 21
35.38683955250093
 31
0.0
  0
LINE
  5
991
  8
DATA
  6
CONTINUOUS
 62
     7
 10
-190.57140869854169
 20
37.033239552500874
 30
0.0
 11
-190.57140869854169
 21
36.32686533176183
 31
0.0
  0
LINE
  5
992
  8
DATA
  6
CONTINUOUS
 62
     7
 10
-189.80700869854169
 20
37.033239552500874
 30
0.0
 11
-189.80700869854169
 21
36.32686533176183
 31
0.0
  0
LINE
  5
993
  8
DATA
  6
CONTINUOUS
 62
     7
 10
-188.92500869854169
 20
36.15123955250089
 30
0.0
 11
-189.63138291928601
 21
36.15123955250089
 31
0.0
  0
ARC
  5
994
  8
DATA
  6
CONTINUOUS
 62
     7
 10
-190.18920869854171
 20
35.769039552500921
 30
0.0
 40
0.6762000000016735
 50
304.4173887100975
 51
325.58261128965808
  0
ARC
  5
995
  8
DATA
  6
CONTINUOUS
 62
     7
 10
-190.18920869854171
 20
35.769039552500921
 30
0.0
 40
0.6762000000059454
 50
214.41738871034141
 51
235.58261128990239
  0
ARC
  5
996
  8
DATA
  6
CONTINUOUS
 62
     7
 10
-190.18920869854171
 20
35.769039552500921
 30
0.0
 40
0.6762000000016794
 50
124.4173887100971
 51
145.58261128966089
  0
ARC
  5
997
  8
DATA
  6
CONTINUOUS
 62
     7
 10
-190.18920869854171
 20
35.769039552500921
 30
0.0
 40
0.6762000000059495
 50
34.417388710341861
 51
55.582611289904783
  0
TEXT
  5
998
  8
DATA
 62
     7
 10
-183.00215064036999
 20
20.182686548906108
 30
0.0
 40
2.1162109375
  1
in
 50
180.0
 41
0.8
 11
-183.00215064036999
 21
18.066475611406108
 31
0.0
 73
     3
  0
CIRCLE
  5
999
  8
DATA
  6
CONTINUOUS
 62
     7
 10
-312.10156197627282
 20
31.65175178566427
 30
0.0
 40
8.6000000000000778
  0
POLYLINE
  5
99A
  8
DATA
  6
CONTINUOUS
 62
     7
 66
     1
 10
0.0
 20
0.0
 30
0.0
 70
     1
  0
VERTEX
  5
FD2
  8
DATA
  6
CONTINUOUS
 62
     7
 10
-307.84191368635578
 20
39.029679046174337
 30
0.0
  0
VERTEX
  5
FD3
  8
DATA
  6
CONTINUOUS
 62
     7
 10
-316.36121026618952
 20
39.029679046174337
 30
0.0
  0
VERTEX
  5
FD4
  8
DATA
  6
CONTINUOUS
 62
     7
 10
-320.62085855610638
 20
31.65175178566427
 30
0.0
  0
VERTEX
  5
FD5
  8
DATA
  6
CONTINUOUS
 62
     7
 10
-316.36121026618952
 20
24.273824525154239
 30
0.0
  0
VERTEX
  5
FD6
  8
DATA
  6
CONTINUOUS
 62
     7
 10
-307.84191368635578
 20
24.273824525154239
 30
0.0
  0
VERTEX
  5
FD7
  8
DATA
  6
CONTINUOUS
 62
     7
 10
-303.58226539643903
 20
31.65175178566431
 30
0.0
  0
SEQEND
  5
FD8
  8
DATA
  6
CONTINUOUS
 62
     7
  0
CIRCLE
  5
9A2
  8
DATA
  6
CONTINUOUS
 62
     7
 10
-312.10156197627282
 20
31.65175178566427
 30
0.0
 40
6.2000000000000446
  0
CIRCLE
  5
9A3
  8
DATA
  6
CONTINUOUS
 62
     7
 10
-312.10156197627282
 20
31.65175178566427
 30
0.0
 40
3.1000000000000218
  0
CIRCLE
  5
9A4
  8
DATA
  6
CONTINUOUS
 62
     7
 10
-312.10156197627282
 20
31.65175178566427
 30
0.0
 40
4.5
  0
LINE
  5
9A5
  8
DATA
  6
CONTINUOUS
 62
     7
 10
-302.0011803818345
 20
42.491193030719678
 30
0.0
 11
-322.0011803818345
 21
42.491193030719678
 31
0.0
  0
LINE
  5
9A6
  8
DATA
  6
CONTINUOUS
 62
     7
 10
-324.0011803818345
 20
9.4911930307196837
 30
0.0
 11
-324.0011803818345
 21
40.491193030719678
 31
0.0
  0
LINE
  5
9A7
  8
DATA
  6
CONTINUOUS
 62
     7
 10
-300.0011803818345
 20
9.4911930307196837
 30
0.0
 11
-300.0011803818345
 21
40.491193030719678
 31
0.0
  0
LINE
  5
9A8
  8
DATA
  6
CONTINUOUS
 62
     7
 10
-251.0011803818345
 20
12.587828655444991
 30
0.0
 11
-251.0011803818345
 21
40.491193030719678
 31
0.0
  0
LINE
  5
9A9
  8
DATA
  6
CONTINUOUS
 62
     7
 10
-249.0011803818345
 20
12.587828655444991
 30
0.0
 11
-249.0011803818345
 21
40.491193030719678
 31
0.0
  0
LINE
  5
9AA
  8
DATA
  6
CONTINUOUS
 62
     7
 10
-200.0011803818345
 20
40.491193030719678
 30
0.0
 11
-200.0011803818345
 21
9.4911930307196837
 31
0.0
  0
CIRCLE
  5
9AB
  8
DATA
  6
CONTINUOUS
 62
     7
 10
-261.0961596885474
 20
31.615542445040528
 30
0.0
 40
8.6000000000000778
  0
POLYLINE
  5
9AC
  8
DATA
  6
CONTINUOUS
 62
     7
 66
     1
 10
0.0
 20
0.0
 30
0.0
 70
     1
  0
VERTEX
  5
FD9
  8
DATA
  6
CONTINUOUS
 62
     7
 10
-256.83651139863048
 20
38.993469705550602
 30
0.0
  0
VERTEX
  5
FDA
  8
DATA
  6
CONTINUOUS
 62
     7
 10
-265.35580797846421
 20
38.993469705550602
 30
0.0
  0
VERTEX
  5
FDB
  8
DATA
  6
CONTINUOUS
 62
     7
 10
-269.61545626838108
 20
31.615542445040528
 30
0.0
  0
VERTEX
  5
FDC
  8
DATA
  6
CONTINUOUS
 62
     7
 10
-265.35580797846421
 20
24.237615184530501
 30
0.0
  0
VERTEX
  5
FDD
  8
DATA
  6
CONTINUOUS
 62
     7
 10
-256.83651139863048
 20
24.237615184530501
 30
0.0
  0
VERTEX
  5
FDE
  8
DATA
  6
CONTINUOUS
 62
     7
 10
-252.57686310871361
 20
31.61554244504056
 30
0.0
  0
SEQEND
  5
FDF
  8
DATA
  6
CONTINUOUS
 62
     7
  0
CIRCLE
  5
9B4
  8
DATA
  6
CONTINUOUS
 62
     7
 10
-261.0961596885474
 20
31.615542445040528
 30
0.0
 40
6.2000000000000171
  0
CIRCLE
  5
9B5
  8
DATA
  6
CONTINUOUS
 62
     7
 10
-261.0961596885474
 20
31.615542445040528
 30
0.0
 40
3.1000000000000218
  0
CIRCLE
  5
9B6
  8
DATA
  6
CONTINUOUS
 62
     7
 10
-261.0961596885474
 20
31.615542445040528
 30
0.0
 40
4.5
  0
CIRCLE
  5
9B7
  8
DATA
  6
CONTINUOUS
 62
     7
 10
-210.00292519393679
 20
31.504687286658552
 30
0.0
 40
8.6000000000000778
  0
POLYLINE
  5
9B8
  8
DATA
  6
CONTINUOUS
 62
     7
 66
     1
 10
0.0
 20
0.0
 30
0.0
 70
     1
  0
VERTEX
  5
FE0
  8
DATA
  6
CONTINUOUS
 62
     7
 10
-205.74327690401989
 20
38.8826145471686
 30
0.0
  0
VERTEX
  5
FE1
  8
DATA
  6
CONTINUOUS
 62
     7
 10
-214.2625734838536
 20
38.8826145471686
 30
0.0
  0
VERTEX
  5
FE2
  8
DATA
  6
CONTINUOUS
 62
     7
 10
-218.5222217737705
 20
31.504687286658552
 30
0.0
  0
VERTEX
  5
FE3
  8
DATA
  6
CONTINUOUS
 62
     7
 10
-214.2625734838536
 20
24.126760026148499
 30
0.0
  0
VERTEX
  5
FE4
  8
DATA
  6
CONTINUOUS
 62
     7
 10
-205.74327690401989
 20
24.126760026148499
 30
0.0
  0
VERTEX
  5
FE5
  8
DATA
  6
CONTINUOUS
 62
     7
 10
-201.48362861410311
 20
31.504687286658569
 30
0.0
  0
SEQEND
  5
FE6
  8
DATA
  6
CONTINUOUS
 62
     7
  0
CIRCLE
  5
9C0
  8
DATA
  6
CONTINUOUS
 62
     7
 10
-210.00292519393679
 20
31.504687286658552
 30
0.0
 40
6.1999999999999877
  0
CIRCLE
  5
9C1
  8
DATA
  6
CONTINUOUS
 62
     7
 10
-210.00292519393679
 20
31.504687286658552
 30
0.0
 40
3.1000000000000218
  0
CIRCLE
  5
9C2
  8
DATA
  6
CONTINUOUS
 62
     7
 10
-210.00292519393679
 20
31.504687286658552
 30
0.0
 40
4.5
  0
CIRCLE
  5
9C3
  8
DATA
  6
CONTINUOUS
 62
     7
 10
-286.15455557441032
 20
27.590984811523079
 30
0.0
 40
11.00000000000011
  0
CIRCLE
  5
9C4
  8
DATA
  6
CONTINUOUS
 62
     7
 10
-286.1544641654524
 20
27.525828933908159
 30
0.0
 40
8.2500000000000409
  0
CIRCLE
  5
9C5
  8
DATA
  6
CONTINUOUS
 62
     7
 10
-282.15859737584918
 20
27.808157963999871
 30
0.0
 40
1.174999999999921
  0
CIRCLE
  5
9C6
  8
DATA
  6
CONTINUOUS
 62
     7
 10
-290.15476906530893
 20
27.790984811523071
 30
0.0
 40
1.1750000000000109
  0
CIRCLE
  5
9C7
  8
DATA
  6
CONTINUOUS
 62
     7
 10
-286.15460645245389
 20
31.47474726986427
 30
0.0
 40
1.1750000000000109
  0
CIRCLE
  5
9C8
  8
DATA
  6
CONTINUOUS
 62
     7
 10
-296.0837378192453
 20
37.426519524761289
 30
0.0
 40
2.7500000000000462
  0
POLYLINE
  5
9C9
  8
DATA
  6
CONTINUOUS
 62
     7
 66
     1
 10
0.0
 20
0.0
 30
0.0
  0
VERTEX
  5
FE7
  8
DATA
  6
CONTINUOUS
 62
     7
 10
-295.8615945349913
 20
36.729930062431528
 30
0.0
  0
VERTEX
  5
FE8
  8
DATA
  6
CONTINUOUS
 62
     7
 10
-295.8615945349913
 20
35.674930062431557
 30
0.0
  0
VERTEX
  5
FE9
  8
DATA
  6
CONTINUOUS
 62
     7
 10
-296.25159453499128
 20
35.674930062431557
 30
0.0
  0
VERTEX
  5
FEA
  8
DATA
  6
CONTINUOUS
 62
     7
 10
-296.25159453499128
 20
36.729930062431528
 30
0.0
  0
SEQEND
  5
FEB
  8
DATA
  6
CONTINUOUS
 62
     7
  0
POLYLINE
  5
9CF
  8
DATA
  6
CONTINUOUS
 62
     7
 66
     1
 10
0.0
 20
0.0
 30
0.0
  0
VERTEX
  5
FEC
  8
DATA
  6
CONTINUOUS
 62
     7
 10
-295.8615945349913
 20
38.119930062431543
 30
0.0
  0
VERTEX
  5
FED
  8
DATA
  6
CONTINUOUS
 62
     7
 10
-295.8615945349913
 20
39.174930062431571
 30
0.0
  0
VERTEX
  5
FEE
  8
DATA
  6
CONTINUOUS
 62
     7
 10
-296.25159453499128
 20
39.174930062431571
 30
0.0
  0
VERTEX
  5
FEF
  8
DATA
  6
CONTINUOUS
 62
     7
 10
-296.25159453499128
 20
38.119930062431543
 30
0.0
  0
SEQEND
  5
FF0
  8
DATA
  6
CONTINUOUS
 62
     7
  0
POLYLINE
  5
9D5
  8
DATA
  6
CONTINUOUS
 62
     7
 66
     1
 10
0.0
 20
0.0
 30
0.0
  0
VERTEX
  5
FF1
  8
DATA
  6
CONTINUOUS
 62
     7
 10
-295.3615945349913
 20
37.229930062431528
 30
0.0
  0
VERTEX
  5
FF2
  8
DATA
  6
CONTINUOUS
 62
     7
 10
-294.30659453499129
 20
37.229930062431528
 30
0.0
  0
VERTEX
  5
FF3
  8
DATA
  6
CONTINUOUS
 62
     7
 10
-294.30659453499129
 20
37.619930062431543
 30
0.0
  0
VERTEX
  5
FF4
  8
DATA
  6
CONTINUOUS
 62
     7
 10
-295.3615945349913
 20
37.619930062431543
 30
0.0
  0
SEQEND
  5
FF5
  8
DATA
  6
CONTINUOUS
 62
     7
  0
POLYLINE
  5
9DB
  8
DATA
  6
CONTINUOUS
 62
     7
 66
     1
 10
0.0
 20
0.0
 30
0.0
  0
VERTEX
  5
FF6
  8
DATA
  6
CONTINUOUS
 62
     7
 10
-296.75159453499128
 20
37.229930062431528
 30
0.0
  0
VERTEX
  5
FF7
  8
DATA
  6
CONTINUOUS
 62
     7
 10
-297.80659453499129
 20
37.229930062431528
 30
0.0
  0
VERTEX
  5
FF8
  8
DATA
  6
CONTINUOUS
 62
     7
 10
-297.80659453499129
 20
37.619930062431543
 30
0.0
  0
VERTEX
  5
FF9
  8
DATA
  6
CONTINUOUS
 62
     7
 10
-296.75159453499128
 20
37.619930062431543
 30
0.0
  0
SEQEND
  5
FFA
  8
DATA
  6
CONTINUOUS
 62
     7
  0
ARC
  5
9E1
  8
DATA
  6
CONTINUOUS
 62
     7
 10
-296.75159453499128
 20
38.119930062431543
 30
0.0
 40
0.5
 50
270.0
 51
0.0
  0
ARC
  5
9E2
  8
DATA
  6
CONTINUOUS
 62
     7
 10
-296.75159453499128
 20
36.729930062431528
 30
0.0
 40
0.500000000000057
 50
0.0
 51
90.0
  0
ARC
  5
9E3
  8
DATA
  6
CONTINUOUS
 62
     7
 10
-295.3615945349913
 20
36.729930062431528
 30
0.0
 40
0.5
 50
90.0
 51
180.0
  0
ARC
  5
9E4
  8
DATA
  6
CONTINUOUS
 62
     7
 10
-295.3615945349913
 20
38.119930062431543
 30
0.0
 40
0.5
 50
180.0
 51
270.0
  0
CIRCLE
  5
9E5
  8
DATA
  6
CONTINUOUS
 62
     7
 10
-276.28622468524469
 20
17.624726046868389
 30
0.0
 40
2.7499999999999791
  0
POLYLINE
  5
9E6
  8
DATA
  6
CONTINUOUS
 62
     7
 66
     1
 10
0.0
 20
0.0
 30
0.0
  0
VERTEX
  5
FFB
  8
DATA
  6
CONTINUOUS
 62
     7
 10
-276.0640814009908
 20
16.928136584538731
 30
0.0
  0
VERTEX
  5
FFC
  8
DATA
  6
CONTINUOUS
 62
     7
 10
-276.0640814009908
 20
15.87313658453875
 30
0.0
  0
VERTEX
  5
FFD
  8
DATA
  6
CONTINUOUS
 62
     7
 10
-276.4540814009909
 20
15.87313658453875
 30
0.0
  0
VERTEX
  5
FFE
  8
DATA
  6
CONTINUOUS
 62
     7
 10
-276.4540814009909
 20
16.928136584538731
 30
0.0
  0
SEQEND
  5
FFF
  8
DATA
  6
CONTINUOUS
 62
     7
  0
POLYLINE
  5
9EC
  8
DATA
  6
CONTINUOUS
 62
     7
 66
     1
 10
0.0
 20
0.0
 30
0.0
  0
VERTEX
  5
1000
  8
DATA
  6
CONTINUOUS
 62
     7
 10
-276.0640814009908
 20
18.31813658453866
 30
0.0
  0
VERTEX
  5
1001
  8
DATA
  6
CONTINUOUS
 62
     7
 10
-276.0640814009908
 20
19.37313658453867
 30
0.0
  0
VERTEX
  5
1002
  8
DATA
  6
CONTINUOUS
 62
     7
 10
-276.4540814009909
 20
19.37313658453867
 30
0.0
  0
VERTEX
  5
1003
  8
DATA
  6
CONTINUOUS
 62
     7
 10
-276.4540814009909
 20
18.31813658453866
 30
0.0
  0
SEQEND
  5
1004
  8
DATA
  6
CONTINUOUS
 62
     7
  0
POLYLINE
  5
9F2
  8
DATA
  6
CONTINUOUS
 62
     7
 66
     1
 10
0.0
 20
0.0
 30
0.0
  0
VERTEX
  5
1005
  8
DATA
  6
CONTINUOUS
 62
     7
 10
-275.5640814009908
 20
17.428136584538699
 30
0.0
  0
VERTEX
  5
1006
  8
DATA
  6
CONTINUOUS
 62
     7
 10
-274.50908140099091
 20
17.428136584538699
 30
0.0
  0
VERTEX
  5
1007
  8
DATA
  6
CONTINUOUS
 62
     7
 10
-274.50908140099091
 20
17.81813658453866
 30
0.0
  0
VERTEX
  5
1008
  8
DATA
  6
CONTINUOUS
 62
     7
 10
-275.5640814009908
 20
17.81813658453866
 30
0.0
  0
SEQEND
  5
1009
  8
DATA
  6
CONTINUOUS
 62
     7
  0
POLYLINE
  5
9F8
  8
DATA
  6
CONTINUOUS
 62
     7
 66
     1
 10
0.0
 20
0.0
 30
0.0
  0
VERTEX
  5
100A
  8
DATA
  6
CONTINUOUS
 62
     7
 10
-276.95408140099079
 20
17.428136584538699
 30
0.0
  0
VERTEX
  5
100B
  8
DATA
  6
CONTINUOUS
 62
     7
 10
-278.00908140099068
 20
17.428136584538699
 30
0.0
  0
VERTEX
  5
100C
  8
DATA
  6
CONTINUOUS
 62
     7
 10
-278.00908140099068
 20
17.81813658453866
 30
0.0
  0
VERTEX
  5
100D
  8
DATA
  6
CONTINUOUS
 62
     7
 10
-276.95408140099079
 20
17.81813658453866
 30
0.0
  0
SEQEND
  5
100E
  8
DATA
  6
CONTINUOUS
 62
     7
  0
ARC
  5
9FE
  8
DATA
  6
CONTINUOUS
 62
     7
 10
-276.95408140099079
 20
18.31813658453866
 30
0.0
 40
0.5
 50
270.0
 51
0.0
  0
ARC
  5
9FF
  8
DATA
  6
CONTINUOUS
 62
     7
 10
-276.95408140099079
 20
16.928136584538731
 30
0.0
 40
0.5
 50
0.0
 51
90.0
  0
ARC
  5
A00
  8
DATA
  6
CONTINUOUS
 62
     7
 10
-275.5640814009908
 20
16.928136584538731
 30
0.0
 40
0.4999999999999716
 50
90.0
 51
180.0
  0
ARC
  5
A01
  8
DATA
  6
CONTINUOUS
 62
     7
 10
-275.5640814009908
 20
18.31813658453866
 30
0.0
 40
0.5
 50
180.0
 51
270.0
  0
TEXT
  5
A02
  8
DATA
 62
     7
 10
-259.3906691873986
 20
19.676137007978671
 30
0.0
 40
1.923828125
  1
 channel 2
 50
180.0
 41
0.8
 11
-259.3906691873986
 21
17.752308882978671
 31
0.0
 73
     3
  0
TEXT
  5
A03
  8
DATA
 62
     7
 10
-241.89694844529009
 20
8.8685820364424064
 30
0.0
 40
2.30859375
  1
LINE OUTPUTS
 50
180.0
 41
0.8
 11
-241.89694844529009
 21
6.5599882864424064
 31
0.0
 73
     3
  0
ARC
  5
A04
  8
DATA
  6
CONTINUOUS
 62
     7
 10
-322.0011803818345
 20
9.4911930307196837
 30
0.0
 40
2.0
 50
180.0
 51
270.0
  0
ARC
  5
A05
  8
DATA
  6
CONTINUOUS
 62
     7
 10
-322.0011803818345
 20
40.491193030719678
 30
0.0
 40
2.0
 50
90.0
 51
180.0
  0
ARC
  5
A06
  8
DATA
  6
CONTINUOUS
 62
     7
 10
-302.0011803818345
 20
9.4911930307196837
 30
0.0
 40
2.0
 50
270.0
 51
0.0
  0
ARC
  5
A07
  8
DATA
  6
CONTINUOUS
 62
     7
 10
-302.0011803818345
 20
40.491193030719678
 30
0.0
 40
2.0
 50
0.0
 51
90.0
  0
LINE
  5
A08
  8
DATA
  6
CONTINUOUS
 62
     7
 10
-202.0011803818345
 20
42.491193030719678
 30
0.0
 11
-247.0011803818345
 21
42.491193030719678
 31
0.0
  0
LINE
  5
A09
  8
DATA
  6
CONTINUOUS
 62
     7
 10
-253.0011803818345
 20
42.491193030719678
 30
0.0
 11
-298.0011803818345
 21
42.491193030719678
 31
0.0
  0
ARC
  5
A0A
  8
DATA
  6
CONTINUOUS
 62
     7
 10
-298.0011803818345
 20
9.4911930307196837
 30
0.0
 40
2.0
 50
180.0
 51
270.0
  0
ARC
  5
A0B
  8
DATA
  6
CONTINUOUS
 62
     7
 10
-298.0011803818345
 20
40.491193030719678
 30
0.0
 40
2.0
 50
90.0
 51
180.0
  0
ARC
  5
A0C
  8
DATA
  6
CONTINUOUS
 62
     7
 10
-253.0011803818345
 20
40.491193030719678
 30
0.0
 40
2.0
 50
0.0
 51
90.0
  0
ARC
  5
A0D
  8
DATA
  6
CONTINUOUS
 62
     7
 10
-247.0011803818345
 20
40.491193030719678
 30
0.0
 40
2.0
 50
90.0
 51
180.0
  0
ARC
  5
A0E
  8
DATA
  6
CONTINUOUS
 62
     7
 10
-202.0011803818345
 20
9.4911930307196837
 30
0.0
 40
2.0
 50
270.0
 51
0.0
  0
ARC
  5
A0F
  8
DATA
  6
CONTINUOUS
 62
     7
 10
-202.0011803818345
 20
40.491193030719678
 30
0.0
 40
2.0
 50
0.0
 51
90.0
  0
TEXT
  5
A10
  8
DATA
 62
     7
 10
-305.25466316139779
 20
8.9759154853329921
 30
0.0
 40
2.30859375
  1
LINE INPUT
 50
180.0
 41
0.8
 11
-305.25466316139779
 21
6.6673217353329921
 31
0.0
 73
     3
  0
LINE
  5
A11
  8
DATA
  6
CONTINUOUS
 62
     7
 10
-202.0011803818345
 20
7.4911930307196837
 30
0.0
 11
-238.80236076367041
 21
7.4911930307196837
 31
0.0
  0
LINE
  5
A12
  8
DATA
  6
CONTINUOUS
 62
     7
 10
-298.0011803818345
 20
7.4911930307196837
 30
0.0
 11
-262.60236076367039
 21
7.4911930307196837
 31
0.0
  0
LINE
  5
A13
  8
DATA
  6
CONTINUOUS
 62
     7
 10
-302.0011803818345
 20
7.4911930307196837
 30
0.0
 11
-303.40236076367052
 21
7.4911930307196837
 31
0.0
  0
LINE
  5
A14
  8
DATA
  6
CONTINUOUS
 62
     7
 10
-322.0011803818345
 20
7.4911930307196837
 30
0.0
 11
-320.6023607636705
 21
7.4911930307196837
 31
0.0
  0
TEXT
  5
A15
  8
DATA
 62
     7
 10
-208.79261779530961
 20
19.676137007978671
 30
0.0
 40
1.923828125
  1
 channel 1
 50
180.0
 41
0.8
 11
-208.79261779530961
 21
17.752308882978671
 31
0.0
 73
     3
  0
TEXT
  5
A16
  8
DATA
 62
     7
 10
-181.2747883181261
 20
9.1919558251608908
 30
0.0
 40
2.30859375
  1
MIDI
 50
180.0
 41
0.8
 11
-181.2747883181261
 21
6.8833620751608899
 31
0.0
 73
     3
  0
CIRCLE
  5
A17
  8
DATA
  6
CONTINUOUS
 62
     7
 10
-162.0011803818345
 20
29.722122379728241
 30
0.0
 40
4.1500000000000048
  0
CIRCLE
  5
A18
  8
DATA
  6
CONTINUOUS
 62
     7
 10
-162.0011803818345
 20
29.722122379728241
 30
0.0
 40
1.5999999999999941
  0
TEXT
  5
A19
  8
DATA
 62
     7
 10
-157.90395098685531
 20
9.1919558251608908
 30
0.0
 40
2.30859375
  1
S/PDIF
 50
180.0
 41
0.8
 11
-157.90395098685531
 21
6.8833620751608899
 31
0.0
 73
     3
  0
TEXT
  5
A1A
  8
DATA
 62
     7
 10
-160.0789869749519
 20
11.891081078008011
 30
0.0
 40
1.923828125
  1
out
 50
180.0
 41
0.8
 11
-160.0789869749519
 21
9.9672529530080158
 31
0.0
 73
     3
  0
CIRCLE
  5
A1B
  8
DATA
  6
CONTINUOUS
 62
     7
 10
-162.02189783207041
 20
17.516790764375209
 30
0.0
 40
2.6464999999999739
  0
LINE
  5
A1C
  8
DATA
  6
CONTINUOUS
 62
     7
 10
-161.50839783207039
 20
15.818290764375231
 30
0.0
 11
-162.5353978320704
 21
15.818290764375231
 31
0.0
  0
LINE
  5
A1D
  8
DATA
  6
CONTINUOUS
 62
     7
 10
-161.50839783207039
 20
19.21529076437519
 30
0.0
 11
-162.5353978320704
 21
19.21529076437519
 31
0.0
  0
LINE
  5
A1E
  8
DATA
  6
CONTINUOUS
 62
     7
 10
-160.3233978320703
 20
17.00329076437518
 30
0.0
 11
-160.3233978320703
 21
18.030290764375192
 31
0.0
  0
LINE
  5
A1F
  8
DATA
  6
CONTINUOUS
 62
     7
 10
-163.7203978320704
 20
17.00329076437518
 30
0.0
 11
-163.7203978320704
 21
18.030290764375192
 31
0.0
  0
LINE
  5
A20
  8
DATA
  6
CONTINUOUS
 62
     7
 10
-161.50839783207039
 20
15.818290764375231
 30
0.0
 11
-161.50839783207039
 21
16.767330958905589
 31
0.0
  0
LINE
  5
A21
  8
DATA
  6
CONTINUOUS
 62
     7
 10
-162.5353978320704
 20
15.818290764375231
 30
0.0
 11
-162.5353978320704
 21
16.767330958905589
 31
0.0
  0
LINE
  5
A22
  8
DATA
  6
CONTINUOUS
 62
     7
 10
-163.7203978320704
 20
17.00329076437518
 30
0.0
 11
-162.7713576375331
 21
17.00329076437518
 31
0.0
  0
LINE
  5
A23
  8
DATA
  6
CONTINUOUS
 62
     7
 10
-163.7203978320704
 20
18.030290764375192
 30
0.0
 11
-162.7713576375331
 21
18.030290764375192
 31
0.0
  0
LINE
  5
A24
  8
DATA
  6
CONTINUOUS
 62
     7
 10
-160.3233978320703
 20
17.00329076437518
 30
0.0
 11
-161.27243802660769
 21
17.00329076437518
 31
0.0
  0
LINE
  5
A25
  8
DATA
  6
CONTINUOUS
 62
     7
 10
-162.5353978320704
 20
19.21529076437519
 30
0.0
 11
-162.5353978320704
 21
18.266250569844821
 31
0.0
  0
LINE
  5
A26
  8
DATA
  6
CONTINUOUS
 62
     7
 10
-161.50839783207039
 20
19.21529076437519
 30
0.0
 11
-161.50839783207039
 21
18.266250569844821
 31
0.0
  0
LINE
  5
A27
  8
DATA
  6
CONTINUOUS
 62
     7
 10
-160.3233978320703
 20
18.030290764375192
 30
0.0
 11
-161.27243802660769
 21
18.030290764375192
 31
0.0
  0
ARC
  5
A28
  8
DATA
  6
CONTINUOUS
 62
     7
 10
-162.02189783207041
 20
17.516790764375209
 30
0.0
 40
0.9085000000023155
 50
304.41738871009773
 51
325.58261128965762
  0
ARC
  5
A29
  8
DATA
  6
CONTINUOUS
 62
     7
 10
-162.02189783207041
 20
17.516790764375209
 30
0.0
 40
0.9085000000079846
 50
214.41738871034241
 51
235.58261128990571
  0
ARC
  5
A2A
  8
DATA
  6
CONTINUOUS
 62
     7
 10
-162.02189783207041
 20
17.516790764375209
 30
0.0
 40
0.9085000000022994
 50
124.4173887100962
 51
145.58261128965989
  0
ARC
  5
A2B
  8
DATA
  6
CONTINUOUS
 62
     7
 10
-162.02189783207041
 20
17.516790764375209
 30
0.0
 40
0.9085000000080316
 50
34.417388710340369
 51
55.582611289903689
  0
LINE
  5
A2C
  8
DATA
  6
CONTINUOUS
 62
     7
 10
-320.6957340307103
 20
-127.8577208954747
 30
0.0
 11
-320.6957340307103
 21
-130.34706109537629
 31
0.0
  0
LINE
  5
A2D
  8
DATA
  6
CONTINUOUS
 62
     7
 10
-305.6957340307103
 20
-127.8577208954747
 30
0.0
 11
-305.6957340307103
 21
-130.34706109537629
 31
0.0
  0
LINE
  5
A2E
  8
DATA
  6
CONTINUOUS
 62
     7
 10
-313.19573403071041
 20
-127.8577208954747
 30
0.0
 11
-313.19573403071041
 21
-130.34706109537629
 31
0.0
  0
LINE
  5
A2F
  8
DATA
  6
CONTINUOUS
 62
     7
 10
-318.4457340307103
 20
-125.3577208954747
 30
0.0
 11
-307.9457340307103
 21
-125.3577208954747
 31
0.0
  0
LINE
  5
A30
  8
DATA
  6
CONTINUOUS
 62
     7
 10
-318.4457340307103
 20
-125.3577208954747
 30
0.0
 11
-318.4457340307103
 21
-127.8577208954747
 31
0.0
  0
LINE
  5
A31
  8
DATA
  6
CONTINUOUS
 62
     7
 10
-307.9457340307103
 20
-125.3577208954747
 30
0.0
 11
-307.9457340307103
 21
-127.8577208954747
 31
0.0
  0
LINE
  5
A32
  8
DATA
  6
CONTINUOUS
 62
     7
 10
-317.29573403071032
 20
-127.8577208954747
 30
0.0
 11
-307.9457340307103
 21
-126.6077208954747
 31
0.0
  0
LINE
  5
A33
  8
DATA
  6
CONTINUOUS
 62
     7
 10
-318.4457340307103
 20
-126.6077208954747
 30
0.0
 11
-310.29573403071032
 21
-125.3577208954747
 31
0.0
  0
LINE
  5
A34
  8
DATA
  6
CONTINUOUS
 62
     7
 10
-320.6957340307103
 20
-127.8577208954747
 30
0.0
 11
-305.6957340307103
 21
-127.8577208954747
 31
0.0
  0
LINE
  5
A35
  8
DATA
  6
CONTINUOUS
 62
     7
 10
-269.60573403071032
 20
-127.8577208954747
 30
0.0
 11
-269.60573403071032
 21
-130.34706109537629
 31
0.0
  0
LINE
  5
A36
  8
DATA
  6
CONTINUOUS
 62
     7
 10
-254.60573403071041
 20
-127.8577208954747
 30
0.0
 11
-254.60573403071041
 21
-130.34706109537629
 31
0.0
  0
LINE
  5
A37
  8
DATA
  6
CONTINUOUS
 62
     7
 10
-262.10573403071032
 20
-127.8577208954747
 30
0.0
 11
-262.10573403071032
 21
-130.34706109537629
 31
0.0
  0
LINE
  5
A38
  8
DATA
  6
CONTINUOUS
 62
     7
 10
-267.35573403071032
 20
-125.3577208954747
 30
0.0
 11
-256.85573403071032
 21
-125.3577208954747
 31
0.0
  0
LINE
  5
A39
  8
DATA
  6
CONTINUOUS
 62
     7
 10
-267.35573403071032
 20
-125.3577208954747
 30
0.0
 11
-267.35573403071032
 21
-127.8577208954747
 31
0.0
  0
LINE
  5
A3A
  8
DATA
  6
CONTINUOUS
 62
     7
 10
-256.85573403071032
 20
-125.3577208954747
 30
0.0
 11
-256.85573403071032
 21
-127.8577208954747
 31
0.0
  0
LINE
  5
A3B
  8
DATA
  6
CONTINUOUS
 62
     7
 10
-266.2057340307104
 20
-127.8577208954747
 30
0.0
 11
-256.85573403071032
 21
-126.6077208954747
 31
0.0
  0
LINE
  5
A3C
  8
DATA
  6
CONTINUOUS
 62
     7
 10
-267.35573403071032
 20
-126.6077208954747
 30
0.0
 11
-259.20573403071029
 21
-125.3577208954747
 31
0.0
  0
LINE
  5
A3D
  8
DATA
  6
CONTINUOUS
 62
     7
 10
-269.60573403071032
 20
-127.8577208954747
 30
0.0
 11
-254.60573403071041
 21
-127.8577208954747
 31
0.0
  0
LINE
  5
A3E
  8
DATA
  6
CONTINUOUS
 62
     7
 10
-218.5957340307103
 20
-127.8577208954747
 30
0.0
 11
-218.5957340307103
 21
-130.34706109537629
 31
0.0
  0
LINE
  5
A3F
  8
DATA
  6
CONTINUOUS
 62
     7
 10
-203.59573403071039
 20
-127.8577208954747
 30
0.0
 11
-203.59573403071039
 21
-130.34706109537629
 31
0.0
  0
LINE
  5
A40
  8
DATA
  6
CONTINUOUS
 62
     7
 10
-211.09573403071039
 20
-127.8577208954747
 30
0.0
 11
-211.09573403071039
 21
-130.34706109537629
 31
0.0
  0
LINE
  5
A41
  8
DATA
  6
CONTINUOUS
 62
     7
 10
-216.34573403071039
 20
-125.3577208954747
 30
0.0
 11
-205.84573403071039
 21
-125.3577208954747
 31
0.0
  0
LINE
  5
A42
  8
DATA
  6
CONTINUOUS
 62
     7
 10
-216.34573403071039
 20
-125.3577208954747
 30
0.0
 11
-216.34573403071039
 21
-127.8577208954747
 31
0.0
  0
LINE
  5
A43
  8
DATA
  6
CONTINUOUS
 62
     7
 10
-205.84573403071039
 20
-125.3577208954747
 30
0.0
 11
-205.84573403071039
 21
-127.8577208954747
 31
0.0
  0
LINE
  5
A44
  8
DATA
  6
CONTINUOUS
 62
     7
 10
-215.19573403071041
 20
-127.8577208954747
 30
0.0
 11
-205.84573403071039
 21
-126.6077208954747
 31
0.0
  0
LINE
  5
A45
  8
DATA
  6
CONTINUOUS
 62
     7
 10
-216.34573403071039
 20
-126.6077208954747
 30
0.0
 11
-208.19573403071041
 21
-125.3577208954747
 31
0.0
  0
LINE
  5
A46
  8
DATA
  6
CONTINUOUS
 62
     7
 10
-218.5957340307103
 20
-127.8577208954747
 30
0.0
 11
-203.59573403071039
 21
-127.8577208954747
 31
0.0
  0
LINE
  5
A47
  8
DATA
  6
CONTINUOUS
 62
     7
 10
-166.15118038183451
 20
-125.65000000000001
 30
0.0
 11
-157.8511803818345
 21
-125.65000000000001
 31
0.0
  0
LINE
  5
A48
  8
DATA
  6
CONTINUOUS
 62
     7
 10
-166.15118038183451
 20
-125.65000000000001
 30
0.0
 11
-166.15118038183451
 21
-130.3463881873717
 31
0.0
  0
LINE
  5
A49
  8
DATA
  6
CONTINUOUS
 62
     7
 10
-157.8511803818345
 20
-125.65000000000001
 30
0.0
 11
-157.8511803818345
 21
-130.3463881873717
 31
0.0
  0
LINE
  5
A4A
  8
DATA
  6
CONTINUOUS
 62
     7
 10
-309.17180783570842
 20
-283.65408403588322
 30
0.0
 11
-309.17180783570842
 21
-280.6540840358831
 31
0.0
  0
LINE
  5
A4B
  8
DATA
  6
CONTINUOUS
 62
     7
 10
-313.97180783570832
 20
-283.65408403588322
 30
0.0
 11
-313.97180783570832
 21
-280.6540840358831
 31
0.0
  0
LINE
  5
A4C
  8
DATA
  6
CONTINUOUS
 62
     7
 10
-306.67180783570842
 20
-283.65408403588322
 30
0.0
 11
-316.47180783570832
 21
-283.65408403588322
 31
0.0
  0
LINE
  5
A4D
  8
DATA
  6
CONTINUOUS
 62
     7
 10
-306.67180783570842
 20
-283.8540840358832
 30
0.0
 11
-316.47180783570832
 21
-283.8540840358832
 31
0.0
  0
LINE
  5
A4E
  8
DATA
  6
CONTINUOUS
 62
     7
 10
-306.67180783570842
 20
-283.65408403588322
 30
0.0
 11
-306.67180783570842
 21
-283.8540840358832
 31
0.0
  0
LINE
  5
A4F
  8
DATA
  6
CONTINUOUS
 62
     7
 10
-316.47180783570832
 20
-283.65408403588322
 30
0.0
 11
-316.47180783570832
 21
-283.8540840358832
 31
0.0
  0
LINE
  5
A50
  8
DATA
  6
CONTINUOUS
 62
     7
 10
-309.17180783570842
 20
-280.6540840358831
 30
0.0
 11
-309.17180783570842
 21
-279.85515171579573
 31
0.0
  0
LINE
  5
A51
  8
DATA
  6
CONTINUOUS
 62
     7
 10
-313.97180783570832
 20
-280.6540840358831
 30
0.0
 11
-313.97180783570832
 21
-279.85515171579573
 31
0.0
  0
LINE
  5
A52
  8
DATA
  6
CONTINUOUS
 62
     7
 10
-313.97180783570832
 20
-279.85515171579573
 30
0.0
 11
-313.96674821021332
 21
-279.84638818737108
 31
0.0
  0
LINE
  5
A53
  8
DATA
  6
CONTINUOUS
 62
     7
 10
-309.17180783570842
 20
-279.85515171579573
 30
0.0
 11
-309.17180783570842
 21
-279.84638818737108
 31
0.0
  0
LINE
  5
A54
  8
DATA
  6
CONTINUOUS
 62
     7
 10
-292.0
 20
-283.84638818737119
 30
0.0
 11
-286.0
 21
-283.84638818737119
 31
0.0
  0
LINE
  5
A55
  8
DATA
  6
CONTINUOUS
 62
     7
 10
-260.0
 20
-283.84638818737119
 30
0.0
 11
-254.0
 21
-283.84638818737119
 31
0.0
  0
LINE
  5
A56
  8
DATA
  6
CONTINUOUS
 62
     7
 10
-248.0
 20
-283.84638818737119
 30
0.0
 11
-242.0
 21
-283.84638818737119
 31
0.0
  0
LINE
  5
A57
  8
DATA
  6
CONTINUOUS
 62
     7
 10
-292.0
 20
-283.84638818737119
 30
0.0
 11
-292.0
 21
-279.84638818737108
 31
0.0
  0
LINE
  5
A58
  8
DATA
  6
CONTINUOUS
 62
     7
 10
-286.0
 20
-283.84638818737119
 30
0.0
 11
-286.0
 21
-279.84638818737108
 31
0.0
  0
LINE
  5
A59
  8
DATA
  6
CONTINUOUS
 62
     7
 10
-260.0
 20
-283.84638818737119
 30
0.0
 11
-260.0
 21
-279.84638818737108
 31
0.0
  0
LINE
  5
A5A
  8
DATA
  6
CONTINUOUS
 62
     7
 10
-254.0
 20
-283.84638818737119
 30
0.0
 11
-254.0
 21
-279.84638818737108
 31
0.0
  0
LINE
  5
A5B
  8
DATA
  6
CONTINUOUS
 62
     7
 10
-248.0
 20
-283.84638818737119
 30
0.0
 11
-248.0
 21
-279.84638818737108
 31
0.0
  0
LINE
  5
A5C
  8
DATA
  6
CONTINUOUS
 62
     7
 10
-242.0
 20
-283.84638818737119
 30
0.0
 11
-242.0
 21
-279.84638818737108
 31
0.0
  0
LINE
  5
A5D
  8
DATA
  6
CONTINUOUS
 62
     7
 10
-184.18052430042559
 20
-282.84638818737119
 30
0.0
 11
-173.9805243004258
 21
-282.84638818737119
 31
0.0
  0
LINE
  5
A5E
  8
DATA
  6
CONTINUOUS
 62
     7
 10
-129.05525408330439
 20
-282.84638818737119
 30
0.0
 11
-119.27263356299279
 21
-282.84638818737119
 31
0.0
  0
LINE
  5
A5F
  8
DATA
  6
CONTINUOUS
 62
     7
 10
-184.18052430042559
 20
-282.84638818737119
 30
0.0
 11
-184.18052430042559
 21
-279.84638818737108
 31
0.0
  0
LINE
  5
A60
  8
DATA
  6
CONTINUOUS
 62
     7
 10
-173.9805243004258
 20
-282.84638818737119
 30
0.0
 11
-173.9805243004258
 21
-279.84638818737108
 31
0.0
  0
LINE
  5
A61
  8
DATA
  6
CONTINUOUS
 62
     7
 10
-129.05525408330439
 20
-282.84638818737119
 30
0.0
 11
-129.05525408330439
 21
-279.84638818737108
 31
0.0
  0
LINE
  5
A62
  8
DATA
  6
CONTINUOUS
 62
     7
 10
77.579881434644989
 20
-284.48569981944797
 30
0.0
 11
85.57652986959134
 21
-284.48569981944797
 31
0.0
  0
LINE
  5
A63
  8
DATA
  6
CONTINUOUS
 62
     7
 10
86.576529869591354
 20
-283.48569981944797
 30
0.0
 11
86.576529869591354
 21
-281.83984387465961
 31
0.0
  0
LINE
  5
A64
  8
DATA
  6
CONTINUOUS
 62
     7
 10
76.579881434644989
 20
-283.48569981944797
 30
0.0
 11
76.579881434644989
 21
-281.83984387465961
 31
0.0
  0
ARC
  5
A65
  8
DATA
  6
CONTINUOUS
 62
     7
 10
85.57652986959134
 20
-283.48569981944797
 30
0.0
 40
1.0
 50
270.0
 51
0.0
  0
ARC
  5
A66
  8
DATA
  6
CONTINUOUS
 62
     7
 10
77.579881434644989
 20
-283.48569981944797
 30
0.0
 40
1.0
 50
180.0
 51
270.0
  0
LINE
  5
A67
  8
DATA
  6
CONTINUOUS
 62
     7
 10
73.959458743358283
 20
-281.84638818737119
 30
0.0
 11
89.259458743358024
 21
-281.84638818737119
 31
0.0
  0
LINE
  5
A68
  8
DATA
  6
CONTINUOUS
 62
     7
 10
73.959458743358283
 20
-281.84638818737119
 30
0.0
 11
73.959458743358283
 21
-279.84638818737108
 31
0.0
  0
LINE
  5
A69
  8
DATA
  6
CONTINUOUS
 62
     7
 10
89.259458743358024
 20
-281.84638818737119
 30
0.0
 11
89.259458743358024
 21
-279.84638818737108
 31
0.0
  0
LINE
  5
A6A
  8
DATA
  6
CONTINUOUS
 62
     7
 10
370.56873500197258
 20
-436.25862635435089
 30
0.0
 11
369.05696663646762
 21
-436.25862635435089
 31
0.0
  0
LINE
  5
A6B
  8
DATA
  6
CONTINUOUS
 62
     7
 10
373.06873500197258
 20
-431.7973109805701
 30
0.0
 11
373.06873500197258
 21
-434.00862635435089
 31
0.0
  0
LINE
  5
A6C
  8
DATA
  6
CONTINUOUS
 62
     7
 10
373.06873500197258
 20
-423.50862635435078
 30
0.0
 11
370.56873500197258
 21
-423.50862635435078
 31
0.0
  0
LINE
  5
A6D
  8
DATA
  6
CONTINUOUS
 62
     7
 10
373.06873500197258
 20
-434.00862635435089
 30
0.0
 11
370.56873500197258
 21
-434.00862635435089
 31
0.0
  0
LINE
  5
A6E
  8
DATA
  6
CONTINUOUS
 62
     7
 10
371.52310460440827
 20
-431.7973109805701
 30
0.0
 11
371.81873500197258
 21
-434.00862635435089
 31
0.0
  0
LINE
  5
A6F
  8
DATA
  6
CONTINUOUS
 62
     7
 10
370.56873500197258
 20
-421.25862635435078
 30
0.0
 11
370.56873500197258
 21
-436.25862635435089
 31
0.0
  0
LINE
  5
A70
  8
DATA
  6
CONTINUOUS
 62
     7
 10
373.72491910267581
 20
-423.49731098057021
 30
0.0
 11
373.72491910267581
 21
-431.7973109805701
 31
0.0
  0
LINE
  5
A71
  8
DATA
  6
CONTINUOUS
 62
     7
 10
373.72491910267581
 20
-423.49731098057021
 30
0.0
 11
370.55696663646751
 21
-423.49731098057021
 31
0.0
  0
LINE
  5
A72
  8
DATA
  6
CONTINUOUS
 62
     7
 10
369.05696663646762
 20
-423.49731098057021
 30
0.0
 11
369.02853091530397
 21
-423.49731098057021
 31
0.0
  0
LINE
  5
A73
  8
DATA
  6
CONTINUOUS
 62
     7
 10
373.72491910267581
 20
-431.7973109805701
 30
0.0
 11
370.56873500197258
 21
-431.7973109805701
 31
0.0
  0
LINE
  5
A74
  8
DATA
  6
CONTINUOUS
 62
     7
 10
369.05696663646762
 20
-431.7973109805701
 30
0.0
 11
369.02853091530397
 21
-431.7973109805701
 31
0.0
  0
LINE
  5
A75
  8
DATA
  6
CONTINUOUS
 62
     7
 10
215.32941866668199
 20
-412.29540053554302
 30
0.0
 11
217.7038270944002
 21
-410.38012872979618
 31
0.0
  0
ARC
  5
A76
  8
DATA
  6
CONTINUOUS
 62
     7
 10
203.05104425304609
 20
-424.49138958262421
 30
0.0
 40
16.761713770495991
 50
29.051726663854652
 51
43.15612372309436
  0
ARC
  5
A77
  8
DATA
  6
CONTINUOUS
 62
     7
 10
215.64333722757081
 20
-412.68457291011413
 30
0.0
 40
0.4999999999999626
 50
128.89072896054259
 51
223.1561237230994
  0
LINE
  5
A78
  8
DATA
  6
CONTINUOUS
 62
     7
 10
218.0569666364668
 20
-409.24251026649398
 30
0.0
 11
218.0569666364668
 21
-426.97684416901728
 31
0.0
  0
LINE
  5
A79
  8
DATA
  6
CONTINUOUS
 62
     7
 10
217.7038270944
 20
-416.35191763856318
 30
0.0
 11
218.0569666364668
 21
-417.10000000000002
 31
0.0
  0
LINE
  5
A7A
  8
DATA
  6
CONTINUOUS
 62
     7
 10
217.6980963796548
 20
-410.38475130283388
 30
0.0
 11
218.0569666364668
 21
-410.0
 31
0.0
  0
TEXT
  5
A7B
  8
DATA
 62
     7
 10
217.76880099737221
 20
-593.72900605934888
 30
0.0
 40
12.21630859375
  1
ProVocal
 41
0.8
 11
217.76880099737221
 21
-581.51269746559888
 31
0.0
 73
     3
  0
TEXT
  5
A7C
  8
DATA
 62
     7
 10
217.667240624199
 20
-573.62004791953757
 30
0.0
 40
9.5015733506944446
  1
デジタル・ボーカル・プロセッサ
 41
0.8
 11
217.667240624199
 21
-564.118474568843
 31
0.0
 73
     3
  0
ENDSEC
  0
EOF
