  0
SECTION
  2
HEADER
  9
$ACADVER
  1
AC1009
  9
$INSBASE
 10
0.0
 20
0.0
 30
0.0
  9
$EXTMIN
 10
-350.05492912598987
 20
-533.92134323131711
 30
-0.0000000349181948
  9
$EXTMAX
 10
550.05493750814912
 20
804.20877005749651
 30
0.0000000814935747
  9
$LIMMIN
 10
0.0
 20
0.0
  9
$LIMMAX
 10
0.0
 20
0.0
  9
$ORTHOMODE
 70
     0
  9
$REGENMODE
 70
     1
  9
$FILLMODE
 70
     1
  9
$QTEXTMODE
 70
     0
  9
$MIRRTEXT
 70
     1
  9
$DRAGMODE
 70
     2
  9
$LTSCALE
 40
25.399999999999999
  9
$OSMODE
 70
   231
  9
$ATTMODE
 70
     1
  9
$TEXTSIZE
 40
0.0
  9
$TRACEWID
 40
1.0
  9
$TEXTSTYLE
  7
STANDARD
  9
$CLAYER
  8
DATA
  9
$CELTYPE
  6
BYLAYER
  9
$CECOLOR
 62
   256
  9
$DIMSCALE
 40
1.0
  9
$DIMASZ
 40
0.18
  9
$DIMEXO
 40
0.0625
  9
$DIMDLI
 40
0.38
  9
$DIMRND
 40
0.0
  9
$DIMDLE
 40
0.0
  9
$DIMEXE
 40
0.18
  9
$DIMTP
 40
0.0
  9
$DIMTM
 40
0.0
  9
$DIMTXT
 40
0.18
  9
$DIMCEN
 40
0.09
  9
$DIMTSZ
 40
0.0
  9
$DIMTOL
 70
     0
  9
$DIMLIM
 70
     0
  9
$DIMTIH
 70
     1
  9
$DIMTOH
 70
     1
  9
$DIMSE1
 70
     0
  9
$DIMSE2
 70
     0
  9
$DIMTAD
 70
     0
  9
$DIMZIN
 70
     0
  9
$DIMBLK
  1

  9
$DIMASO
 70
     1
  9
$DIMSHO
 70
     1
  9
$DIMPOST
  1

  9
$DIMAPOST
  1

  9
$DIMALT
 70
     0
  9
$DIMALTD
 70
     2
  9
$DIMALTF
 40
25.399999999999999
  9
$DIMLFAC
 40
1.0
  9
$DIMTOFL
 70
     0
  9
$DIMTVP
 40
0.0
  9
$DIMTIX
 70
     0
  9
$DIMSOXD
 70
     0
  9
$DIMSAH
 70
     0
  9
$DIMBLK1
  1

  9
$DIMBLK2
  1

  9
$DIMSTYLE
  2
STANDARD
  9
$DIMCLRD
 70
     0
  9
$DIMCLRE
 70
     0
  9
$DIMCLRT
 70
     0
  9
$DIMTFAC
 40
1.0
  9
$DIMGAP
 40
0.09
  9
$LUNITS
 70
     2
  9
$LUPREC
 70
     4
  9
$SKETCHINC
 40
0.1
  9
$FILLETRAD
 40
0.0
  9
$AUNITS
 70
     0
  9
$AUPREC
 70
     0
  9
$MENU
  1
acad
  9
$ELEVATION
 40
0.0
  9
$PELEVATION
 40
0.0
  9
$THICKNESS
 40
0.0
  9
$LIMCHECK
 70
     0
  9
$BLIPMODE
 70
     0
  9
$CHAMFERA
 40
0.0
  9
$CHAMFERB
 40
0.0
  9
$SKPOLY
 70
     0
  9
$TDCREATE
 40
2456059.698761574
  9
$TDUPDATE
 40
2456059.7749798489
  9
$TDINDWG
 40
0.0007130556
  9
$TDUSRTIMER
 40
0.0007128704
  9
$USRTIMER
 70
     1
  9
$ANGBASE
 50
0.0
  9
$ANGDIR
 70
     0
  9
$PDMODE
 70
     1
  9
$PDSIZE
 40
-2.0
  9
$PLINEWID
 40
0.0
  9
$COORDS
 70
     2
  9
$SPLFRAME
 70
     0
  9
$SPLINETYPE
 70
     6
  9
$SPLINESEGS
 70
     8
  9
$ATTDIA
 70
     0
  9
$ATTREQ
 70
     1
  9
$HANDLING
 70
     1
  9
$HANDSEED
  5
900
  9
$SURFTAB1
 70
     6
  9
$SURFTAB2
 70
     6
  9
$SURFTYPE
 70
     6
  9
$SURFU
 70
     6
  9
$SURFV
 70
     6
  9
$UCSNAME
  2

  9
$UCSORG
 10
0.0
 20
0.0
 30
0.0
  9
$UCSXDIR
 10
1.0
 20
0.0
 30
0.0
  9
$UCSYDIR
 10
0.0
 20
1.0
 30
0.0
  9
$PUCSNAME
  2

  9
$PUCSORG
 10
0.0
 20
0.0
 30
0.0
  9
$PUCSXDIR
 10
1.0
 20
0.0
 30
0.0
  9
$PUCSYDIR
 10
0.0
 20
1.0
 30
0.0
  9
$USERI1
 70
     0
  9
$USERI2
 70
     0
  9
$USERI3
 70
     0
  9
$USERI4
 70
     0
  9
$USERI5
 70
     0
  9
$USERR1
 40
0.0
  9
$USERR2
 40
0.0
  9
$USERR3
 40
0.0
  9
$USERR4
 40
0.0
  9
$USERR5
 40
0.0
  9
$WORLDVIEW
 70
     1
  9
$SHADEDGE
 70
     3
  9
$SHADEDIF
 70
    70
  9
$TILEMODE
 70
     1
  9
$MAXACTVP
 70
    64
  9
$PLIMCHECK
 70
     0
  9
$PEXTMIN
 10
1.0000000000000000E+020
 20
1.0000000000000000E+020
 30
1.0000000000000000E+020
  9
$PEXTMAX
 10
-1.0000000000000000E+020
 20
-1.0000000000000000E+020
 30
-1.0000000000000000E+020
  9
$PLIMMIN
 10
0.0
 20
0.0
  9
$PLIMMAX
 10
12.0
 20
9.0
  9
$UNITMODE
 70
     0
  9
$VISRETAIN
 70
     0
  9
$PLINEGEN
 70
     1
  9
$PSLTSCALE
 70
     0
  0
ENDSEC
  0
SECTION
  2
TABLES
  0
TABLE
  2
VPORT
 70
     1
  0
VPORT
  2
*ACTIVE
 70
     0
 10
0.0
 20
0.0
 11
1.0
 21
1.0
 12
100.0000041910795
 22
135.1437134130897
 13
0.0
 23
0.0
 14
1.0
 24
1.0
 15
0.0
 25
0.0
 16
0.0
 26
0.0
 36
1.0
 17
0.0
 27
0.0
 37
0.0
 40
1348.5978847095871
 41
2.1540469973890342
 42
50.0
 43
0.0
 44
0.0
 50
0.0
 51
0.0
 71
     0
 72
  2000
 73
     1
 74
     1
 75
     0
 76
     0
 77
     0
 78
     0
  0
ENDTAB
  0
TABLE
  2
LTYPE
 70
     1
  0
LTYPE
  2
CONTINUOUS
 70
     0
  3
Solid line
 72
    65
 73
     0
 40
0.0
  0
ENDTAB
  0
TABLE
  2
LAYER
 70
     5
  0
LAYER
  2
0
 70
     0
 62
     7
  6
CONTINUOUS
  0
LAYER
  2
DATA
 70
     0
 62
     7
  6
CONTINUOUS
  0
LAYER
  2
HIBINO-BASE
 70
     0
 62
     7
  6
CONTINUOUS
  0
LAYER
  2
SPEC
 70
     0
 62
     7
  6
CONTINUOUS
  0
LAYER
  2
DIMNSIONS
 70
     0
 62
     7
  6
CONTINUOUS
  0
ENDTAB
  0
TABLE
  2
STYLE
 70
     4
  0
STYLE
  2
STANDARD
 70
     0
 40
0.0
 41
1.0
 50
0.0
 71
     0
 42
0.0
  3
txt
  4
BIGFONT.SHX
  0
ENDTAB
  0
TABLE
  2
VIEW
 70
     0
  0
ENDTAB
  0
TABLE
  2
UCS
 70
     0
  0
ENDTAB
  0
TABLE
  2
APPID
 70
     4
  0
APPID
  2
ACAD
 70
     0
  0
APPID
  2
ACADANNOTATIVE
 70
     0
  0
APPID
  2
ACAD_NAV_VCDISPLAY
 70
     0
  0
APPID
  2
ACAD_MLEADERVER
 70
     0
  0
ENDTAB
  0
TABLE
  2
DIMSTYLE
 70
     2
  0
DIMSTYLE
  2
STANDARD
 70
     0
  3

  4

  5

  6

  7

 40
1.0
 41
0.18
 42
0.0625
 43
0.38
 44
0.18
 45
0.0
 46
0.0
 47
0.0
 48
0.0
140
0.18
141
0.09
142
0.0
143
25.399999999999999
144
1.0
145
0.0
146
1.0
147
0.09
 71
     0
 72
     0
 73
     1
 74
     1
 75
     0
 76
     0
 77
     0
 78
     0
170
     0
171
     2
172
     0
173
     0
174
     0
175
     0
176
     0
177
     0
178
     0
  0
ENDTAB
  0
ENDSEC
  0
SECTION
  2
BLOCKS
  0
BLOCK
  8
0
  2
$MODEL_SPACE
 70
     0
 10
0.0
 20
0.0
 30
0.0
  3
$MODEL_SPACE
  1

  0
ENDBLK
  5
89C
  8
0
  0
BLOCK
 67
     1
  8
0
  2
$PAPER_SPACE
 70
     0
 10
0.0
 20
0.0
 30
0.0
  3
$PAPER_SPACE
  1

  0
ENDBLK
  5
898
 67
     1
  8
0
  0
ENDSEC
  0
SECTION
  2
ENTITIES
  0
LINE
  5
2D
  8
HIBINO-BASE
  6
CONTINUOUS
 62
     7
 10
-350.0
 20
804.12725999999986
 30
0.0
 11
549.99999999999989
 21
804.12725999999986
 31
0.0
  0
LINE
  5
2E
  8
HIBINO-BASE
  6
CONTINUOUS
 62
     7
 10
549.99999999999989
 20
-495.87273999999991
 30
0.0
 11
-350.0
 21
-495.87273999999991
 31
0.0
  0
LINE
  5
2F
  8
HIBINO-BASE
  6
CONTINUOUS
 62
     7
 10
-350.0
 20
-495.87273999999991
 30
0.0
 11
-350.0
 21
804.12725999999986
 31
0.0
  0
TEXT
  5
30
  8
HIBINO-BASE
 62
     7
 10
-314.07999999999993
 20
-527.91612899999984
 30
0.0
 40
18.00022089843748
  1
Hibino Corporation
 41
0.7
 11
-314.07999999999993
 21
-509.91590810156231
 31
0.0
 73
     3
  0
LINE
  5
31
  8
HIBINO-BASE
  6
CONTINUOUS
 62
     7
 10
549.99999999999989
 20
804.12725999999986
 30
0.0
 11
549.99999999999989
 21
-495.87273999999991
 31
0.0
  0
LINE
  5
32
  8
HIBINO-BASE
  6
CONTINUOUS
 62
     7
 10
100.0
 20
-383.37274000000002
 30
0.0
 11
549.99999999999989
 21
-383.37274000000002
 31
0.0
  0
LINE
  5
33
  8
HIBINO-BASE
  6
CONTINUOUS
 62
     7
 10
100.0
 20
-495.87273999999991
 30
0.0
 11
100.0
 21
-383.37274000000002
 31
0.0
  0
TEXT
  5
34
  8
HIBINO-BASE
 62
     7
 10
104.5
 20
-395.91620666666671
 30
0.0
 40
8.1442057291666661
  1
NOTE
 41
0.7
 11
104.5
 21
-387.77200093750002
 31
0.0
 73
     3
  0
LINE
  5
35
  8
HIBINO-BASE
  6
CONTINUOUS
 62
     7
 10
275.0
 20
-495.87273999999991
 30
0.0
 11
275.0
 21
-383.37274000000002
 31
0.0
  0
TEXT
  5
36
  8
HIBINO-BASE
 62
     7
 10
279.5
 20
-395.91620666666671
 30
0.0
 40
8.1442057291666661
  1
TITLE
 41
0.7
 11
279.5
 21
-387.77200093750002
 31
0.0
 73
     3
  0
TEXT
  5
37
  8
HIBINO-BASE
 62
     7
 10
350.34195
 20
-527.91612899999984
 30
0.0
 40
18.00022089843748
  1
ヒビノ株式会社
 41
0.7
 11
350.34195
 21
-509.91590810156231
 31
0.0
 73
     3
  0
LINE
  5
38
  8
HIBINO-BASE
  6
CONTINUOUS
 62
     7
 10
100.0
 20
-445.87273999999991
 30
0.0
 11
549.99999999999989
 21
-445.87273999999991
 31
0.0
  0
TEXT
  5
39
  8
HIBINO-BASE
 62
     7
 10
342.0
 20
-458.13460666666663
 30
0.0
 40
8.1442057291666661
  1
DRAWN
 41
0.7
 11
342.0
 21
-449.9904009375
 31
0.0
 73
     3
  0
TEXT
  5
3A
  8
HIBINO-BASE
 62
     7
 10
217.0
 20
-458.13460666666663
 30
0.0
 40
8.1442057291666661
  1
DATE
 41
0.7
 11
217.0
 21
-449.9904009375
 31
0.0
 73
     3
  0
TEXT
  5
3B
  8
HIBINO-BASE
 62
     7
 10
167.0
 20
-458.13460666666663
 30
0.0
 40
8.1442057291666661
  1
SCALE
 41
0.7
 11
167.0
 21
-449.9904009375
 31
0.0
 73
     3
  0
TEXT
  5
3C
  8
HIBINO-BASE
 62
     7
 10
279.5
 20
-458.13460666666663
 30
0.0
 40
8.1442057291666661
  1
DESIGN
 41
0.7
 11
279.5
 21
-449.9904009375
 31
0.0
 73
     3
  0
TEXT
  5
3D
  8
HIBINO-BASE
 62
     7
 10
467.0
 20
-458.13460666666663
 30
0.0
 40
8.1442057291666661
  1
DRAWING NO.
 41
0.7
 11
467.0
 21
-449.9904009375
 31
0.0
 73
     3
  0
TEXT
  5
3E
  8
HIBINO-BASE
 62
     7
 10
404.49999999999989
 20
-458.13460666666663
 30
0.0
 40
8.1442057291666661
  1
CHECK
 41
0.7
 11
404.49999999999989
 21
-449.9904009375
 31
0.0
 73
     3
  0
LINE
  5
3F
  8
HIBINO-BASE
  6
CONTINUOUS
 62
     7
 10
171.875
 20
-489.62273999999991
 30
0.0
 11
190.625
 21
-470.87273999999991
 31
0.0
  0
TEXT
  5
40
  8
HIBINO-BASE
 62
     7
 10
168.75
 20
-476.41745666666651
 30
0.0
 40
8.1442057291666661
  1
1
 41
0.7
 11
168.75
 21
-468.27325093749982
 31
0.0
 73
     3
  0
LINE
  5
41
  8
HIBINO-BASE
  6
CONTINUOUS
 62
     7
 10
162.5
 20
-495.87273999999991
 30
0.0
 11
162.5
 21
-445.87273999999991
 31
0.0
  0
LINE
  5
42
  8
HIBINO-BASE
  6
CONTINUOUS
 62
     7
 10
212.5
 20
-495.87273999999991
 30
0.0
 11
212.5
 21
-445.87273999999991
 31
0.0
  0
LINE
  5
43
  8
HIBINO-BASE
  6
CONTINUOUS
 62
     7
 10
337.5
 20
-445.87273999999991
 30
0.0
 11
337.5
 21
-495.87273999999991
 31
0.0
  0
LINE
  5
44
  8
HIBINO-BASE
  6
CONTINUOUS
 62
     7
 10
462.5
 20
-445.87273999999991
 30
0.0
 11
462.5
 21
-495.87273999999991
 31
0.0
  0
LINE
  5
45
  8
HIBINO-BASE
  6
CONTINUOUS
 62
     7
 10
400.0
 20
-495.87273999999991
 30
0.0
 11
400.0
 21
-445.87273999999991
 31
0.0
  0
TEXT
  5
46
  8
HIBINO-BASE
 62
     7
 10
216.78270000000001
 20
-481.55450666666661
 30
0.0
 40
8.1442057291666661
  1
'12.03.
 41
0.7
 11
216.78270000000001
 21
-473.41030093749993
 31
0.0
 73
     3
  0
TEXT
  5
47
  8
HIBINO-BASE
 62
     7
 10
187.5
 20
-485.79245666666651
 30
0.0
 40
8.1442057291666661
  1
5
 41
0.7
 11
187.5
 21
-477.64825093749982
 31
0.0
 73
     3
  0
TEXT
  5
48
  8
HIBINO-BASE
 62
     7
 10
345.02905005517312
 20
-481.55450666666661
 30
0.0
 40
8.1442057291666661
  1
Ootake
 41
0.7
 11
345.02905005517312
 21
-473.41030093749993
 31
0.0
 73
     3
  0
TEXT
  5
49
  8
HIBINO-BASE
 62
     7
 10
119.4166666666667
 20
-485.99274000000003
 30
0.0
 40
16.288411458333329
  1
A4
 41
0.7
 11
119.4166666666667
 21
-469.70432854166671
 31
0.0
 73
     3
  0
TEXT
  5
4A
  8
HIBINO-BASE
 62
     7
 10
104.7916666666666
 20
-458.97001499999971
 30
0.0
 40
8.1442057291666661
  1
PAPER SIZE
 41
0.7
 11
104.7916666666666
 21
-450.82580927083302
 31
0.0
 73
     3
  0
TEXT
  5
4B
  8
SPEC
 62
     7
 10
-306.25
 20
761.09361000000013
 30
0.0
 40
12.21630859375
  1
仕様
 41
0.7
 11
-306.25
 21
773.30991859375013
 31
0.0
 73
     3
  0
LINE
  5
4C
  8
SPEC
  6
CONTINUOUS
 62
     7
 10
-312.5
 20
754.12726000009991
 30
0.0
 11
425.0
 21
754.12726000009991
 31
0.0
  0
LINE
  5
4D
  8
SPEC
  6
CONTINUOUS
 62
     7
 10
-150.0
 20
735.37726000009991
 30
0.0
 11
425.0
 21
735.37726000009991
 31
0.0
  0
LINE
  5
4E
  8
SPEC
  6
CONTINUOUS
 62
     7
 10
-150.0
 20
660.37726000009991
 30
0.0
 11
425.0
 21
660.37726000009991
 31
0.0
  0
LINE
  5
4F
  8
SPEC
  6
CONTINUOUS
 62
     7
 10
-150.0
 20
679.12726000009957
 30
0.0
 11
425.0
 21
679.12726000009957
 31
0.0
  0
LINE
  5
50
  8
SPEC
  6
CONTINUOUS
 62
     7
 10
-312.5
 20
697.8772600000998
 30
0.0
 11
425.0
 21
697.8772600000998
 31
0.0
  0
LINE
  5
51
  8
SPEC
  6
CONTINUOUS
 62
     7
 10
-312.5
 20
641.62726000009957
 30
0.0
 11
425.0
 21
641.62726000009957
 31
0.0
  0
LINE
  5
52
  8
SPEC
  6
CONTINUOUS
 62
     7
 10
-312.5
 20
604.12726000009957
 30
0.0
 11
425.0
 21
604.12726000009957
 31
0.0
  0
LINE
  5
53
  8
SPEC
  6
CONTINUOUS
 62
     7
 10
-312.5
 20
622.87726000009957
 30
0.0
 11
425.0
 21
622.87726000009957
 31
0.0
  0
LINE
  5
54
  8
SPEC
  6
CONTINUOUS
 62
     7
 10
-312.5
 20
585.37726000009957
 30
0.0
 11
425.0
 21
585.37726000009957
 31
0.0
  0
LINE
  5
55
  8
SPEC
  6
CONTINUOUS
 62
     7
 10
-312.5
 20
566.62726000009957
 30
0.0
 11
425.0
 21
566.62726000009957
 31
0.0
  0
LINE
  5
56
  8
SPEC
  6
CONTINUOUS
 62
     7
 10
-150.0
 20
716.6272600000998
 30
0.0
 11
425.0
 21
716.6272600000998
 31
0.0
  0
TEXT
  5
57
  8
SPEC
 62
     7
 10
-145.65993635524609
 20
739.47680435534585
 30
0.0
 40
9.5015562499999984
  1
端子・形式：XLR、電子バランス
 41
0.7
 11
-145.65993635524609
 21
748.97836060534587
 31
0.0
 73
     3
  0
LINE
  5
58
  8
SPEC
  6
CONTINUOUS
 62
     7
 10
-312.5
 20
754.12726000009991
 30
0.0
 11
-312.5
 21
510.3772600000998
 31
0.0
  0
LINE
  5
59
  8
SPEC
  6
CONTINUOUS
 62
     7
 10
-150.0
 20
754.12726000009991
 30
0.0
 11
-150.0
 21
510.3772600000998
 31
0.0
  0
LINE
  5
5A
  8
SPEC
  6
CONTINUOUS
 62
     7
 10
425.0
 20
754.12726000009991
 30
0.0
 11
425.0
 21
510.3772600000998
 31
0.0
  0
TEXT
  5
5B
  8
SPEC
 62
     7
 10
-145.03514110533521
 20
570.87677392987644
 30
0.0
 40
9.5015562499999984
  1
AC100V、50/60Hz
 41
0.7
 11
-145.03514110533521
 21
580.37833017987634
 31
0.0
 73
     3
  0
TEXT
  5
5C
  8
SPEC
 62
     7
 10
-146.12226918466041
 20
590.40583907325538
 30
0.0
 40
9.5015562499999984
  1
106dB(ウェイト無し)
 41
0.7
 11
-146.12226918466041
 21
599.90739532325551
 31
0.0
 73
     3
  0
TEXT
  5
5D
  8
SPEC
 62
     7
 10
-308.0
 20
739.87547088339159
 30
0.0
 40
9.5015562499999984
  1
音声入力
 41
0.7
 11
-308.0
 21
749.37702713339149
 31
0.0
 73
     3
  0
TEXT
  5
5E
  8
SPEC
 62
     7
 10
-308.0
 20
627.89251913311045
 30
0.0
 40
9.5015562499999984
  1
周波数特性
 41
0.7
 11
-308.0
 21
637.39407538311048
 31
0.0
 73
     3
  0
TEXT
  5
5F
  8
SPEC
 62
     7
 10
-308.04870015518981
 20
609.04087110389605
 30
0.0
 40
9.5015562499999984
  1
THD+N
 41
0.7
 11
-308.04870015518981
 21
618.54242735389596
 31
0.0
 73
     3
  0
TEXT
  5
60
  8
SPEC
 62
     7
 10
-308.07427437050518
 20
684.03243481666925
 30
0.0
 40
9.5015562499999984
  1
音声出力
 41
0.7
 11
-308.07427437050518
 21
693.53399106666927
 31
0.0
 73
     3
  0
TEXT
  5
61
  8
SPEC
 62
     7
 10
-309.01745624960807
 20
590.55235058890946
 30
0.0
 40
9.5015562499999984
  1
ダイナミックレンジ
 41
0.7
 11
-309.01745624960807
 21
600.0539068389096
 31
0.0
 73
     3
  0
TEXT
  5
62
  8
SPEC
 62
     7
 10
-308.43553541543969
 20
571.76459039255894
 30
0.0
 40
9.5015562499999984
  1
電源
 41
0.7
 11
-308.43553541543969
 21
581.26614664255897
 31
0.0
 73
     3
  0
TEXT
  5
63
  8
SPEC
 62
     7
 10
-145.343196724835
 20
627.44408110075938
 30
0.0
 40
9.5015562499999984
  1
3Hz～90kHz(+0/-3dB)
 41
0.7
 11
-145.343196724835
 21
636.94563735075951
 31
0.0
 73
     3
  0
TEXT
  5
64
  8
SPEC
 62
     7
 10
-145.29150726026671
 20
609.0050853288991
 30
0.0
 40
9.5015562499999984
  1
0.004%%%(+4dBu、1kHz）
 41
0.7
 11
-145.29150726026671
 21
618.50664157889912
 31
0.0
 73
     3
  0
TEXT
  5
65
  8
SPEC
 62
     7
 10
-145.5
 20
702.61339185343388
 30
0.0
 40
9.5015562499999984
  1
最大レベル：+21dBu
 41
0.7
 11
-145.5
 21
712.11494810343402
 31
0.0
 73
     3
  0
TEXT
  5
66
  8
SPEC
 62
     7
 10
-146.29968177623141
 20
721.20661342108497
 30
0.0
 40
9.5015562499999984
  1
インピーダンス：50k\U+03A9
 41
0.7
 11
-146.29968177623141
 21
730.70816967108499
 31
0.0
 73
     3
  0
TEXT
  5
67
  8
SPEC
 62
     7
 10
-145.7118188415003
 20
683.92491258374093
 30
0.0
 40
9.5015562499999984
  1
端子・形式：XLR、電子バランス
 41
0.7
 11
-145.7118188415003
 21
693.42646883374096
 31
0.0
 73
     3
  0
TEXT
  5
68
  8
SPEC
 62
     7
 10
-145.5
 20
646.52531433904323
 30
0.0
 40
9.5015562499999984
  1
最大レベル：+20dBu
 41
0.7
 11
-145.5
 21
656.02687058904326
 31
0.0
 73
     3
  0
TEXT
  5
69
  8
SPEC
 62
     7
 10
-146.2369788307854
 20
665.48762700088707
 30
0.0
 40
9.5015562499999984
  1
インピーダンス：120\U+03A9
 41
0.7
 11
-146.2369788307854
 21
674.98918325088721
 31
0.0
 73
     3
  0
LINE
  5
6A
  8
SPEC
  6
CONTINUOUS
 62
     7
 10
-312.5
 20
547.8772600000998
 30
0.0
 11
425.0
 21
547.8772600000998
 31
0.0
  0
LINE
  5
6B
  8
SPEC
  6
CONTINUOUS
 62
     7
 10
-312.5
 20
529.1272600000998
 30
0.0
 11
425.0
 21
529.1272600000998
 31
0.0
  0
LINE
  5
6C
  8
SPEC
  6
CONTINUOUS
 62
     7
 10
-312.5
 20
510.3772600000998
 30
0.0
 11
425.0
 21
510.3772600000998
 31
0.0
  0
TEXT
  5
6D
  8
SPEC
 62
     7
 10
-146.01781780284591
 20
552.50213891749672
 30
0.0
 40
9.5015733506944464
  1
15W
 41
0.7
 11
-146.01781780284591
 21
562.00371226819107
 31
0.0
 73
     3
  0
TEXT
  5
6E
  8
SPEC
 62
     7
 10
-308.20987156993101
 20
553.30334772060519
 30
0.0
 40
9.5015733506944464
  1
消費電力
 41
0.7
 11
-308.20987156993101
 21
562.80492107129965
 31
0.0
 73
     3
  0
TEXT
  5
6F
  8
SPEC
 62
     7
 10
-308.48939036367489
 20
534.59255444681628
 30
0.0
 40
9.5015733506944464
  1
寸法
 41
0.7
 11
-308.48939036367489
 21
544.09412779751074
 31
0.0
 73
     3
  0
TEXT
  5
70
  8
SPEC
 62
     7
 10
-308.41183861628087
 20
515.63151983000557
 30
0.0
 40
9.5015733506944464
  1
重量
 41
0.7
 11
-308.41183861628087
 21
525.13309318070014
 31
0.0
 73
     3
  0
TEXT
  5
71
  8
SPEC
 62
     7
 10
-145.12101756768831
 20
533.29242822729475
 30
0.0
 40
9.5015733506944464
  1
483(W)\U+00D745(H)\U+00D7150(D)mm(突起部含まず)
 41
0.7
 11
-145.12101756768831
 21
542.79400157798932
 31
0.0
 73
     3
  0
TEXT
  5
72
  8
SPEC
 62
     7
 10
-146.16142306099141
 20
514.61705531279836
 30
0.0
 40
9.5015733506944464
  1
約1.8kg
 41
0.7
 11
-146.16142306099141
 21
524.11862866349281
 31
0.0
 73
     3
  0
TEXT
  5
73
  8
DIMNSIONS
 62
     7
 10
-0.0000000000000149
 20
-434.52528999999993
 30
0.0
 40
12.21630859375
  1
(単位：mm)
 41
0.7
 11
-0.0000000000000142
 21
-422.30898140624993
 31
0.0
 73
     3
  0
LINE
  5
74
  8
DIMNSIONS
  6
CONTINUOUS
 62
     7
 10
-224.9999999999265
 20
-234.9999999997151
 30
0.0
 11
-224.9999999999265
 21
-285.0
 31
0.0
  0
LINE
  5
75
  8
DIMNSIONS
  6
CONTINUOUS
 62
     7
 10
258.00000000007338
 20
-234.9999999997151
 30
0.0
 11
258.00000000007338
 21
-285.0
 31
0.0
  0
LINE
  5
76
  8
DIMNSIONS
  6
CONTINUOUS
 62
     7
 10
-224.9999999999265
 20
-275.0
 30
0.0
 11
258.00000000007338
 21
-275.0
 31
0.0
  0
LINE
  5
77
  8
DIMNSIONS
  6
CONTINUOUS
 62
     7
 10
-224.9999999999265
 20
-275.0
 30
0.0
 11
-212.49688720695789
 21
-271.6498010242488
 31
0.0
  0
LINE
  5
78
  8
DIMNSIONS
  6
CONTINUOUS
 62
     7
 10
-224.9999999999265
 20
-275.0
 30
0.0
 11
-212.49688720695789
 21
-278.3501989757512
 31
0.0
  0
LINE
  5
79
  8
DIMNSIONS
  6
CONTINUOUS
 62
     7
 10
258.00000000007338
 20
-275.0
 30
0.0
 11
245.49688720710461
 21
-278.3501989757512
 31
0.0
  0
LINE
  5
7A
  8
DIMNSIONS
  6
CONTINUOUS
 62
     7
 10
258.00000000007338
 20
-275.0
 30
0.0
 11
245.49688720710461
 21
-271.6498010242488
 31
0.0
  0
TEXT
  5
7B
  8
DIMNSIONS
 62
     7
 10
3.270833333406697
 20
-270.03055555555551
 30
0.0
 40
13.57367621527778
  1
483
 41
0.7
 11
3.2708333334066979
 21
-256.45687934027768
 31
0.0
 73
     3
  0
LINE
  5
7C
  8
DIMNSIONS
  6
CONTINUOUS
 62
     7
 10
-234.99999999992659
 20
-224.9999999997151
 30
0.0
 11
-285.0
 21
-224.9999999997151
 31
0.0
  0
LINE
  5
7D
  8
DIMNSIONS
  6
CONTINUOUS
 62
     7
 10
-234.99999999992659
 20
-179.99900602341529
 30
0.0
 11
-285.0
 21
-179.99900602341529
 31
0.0
  0
LINE
  5
7E
  8
DIMNSIONS
  6
CONTINUOUS
 62
     7
 10
-275.0
 20
-224.9999999997151
 30
0.0
 11
-275.0
 21
-179.99900602341529
 31
0.0
  0
LINE
  5
7F
  8
DIMNSIONS
  6
CONTINUOUS
 62
     7
 10
-275.0
 20
-224.9999999997151
 30
0.0
 11
-278.3501989757512
 21
-212.49688720674641
 31
0.0
  0
LINE
  5
80
  8
DIMNSIONS
  6
CONTINUOUS
 62
     7
 10
-275.0
 20
-224.9999999997151
 30
0.0
 11
-271.6498010242488
 21
-212.49688720674641
 31
0.0
  0
LINE
  5
81
  8
DIMNSIONS
  6
CONTINUOUS
 62
     7
 10
-275.0
 20
-179.99900602341529
 30
0.0
 11
-271.6498010242488
 21
-192.50211881638401
 31
0.0
  0
LINE
  5
82
  8
DIMNSIONS
  6
CONTINUOUS
 62
     7
 10
-275.0
 20
-179.99900602341529
 30
0.0
 11
-278.3501989757512
 21
-192.50211881638401
 31
0.0
  0
TEXT
  5
83
  8
DIMNSIONS
 62
     7
 10
-279.96944444444449
 20
-211.3189474560096
 30
0.0
 40
13.57367621527778
  1
45
 50
90.0
 41
0.7
 11
-293.54312065972232
 21
-211.3189474560096
 31
0.0
 73
     3
  0
LINE
  5
84
  8
DIMNSIONS
  6
CONTINUOUS
 62
     7
 10
-234.99999999979889
 20
-75.000000000186262
 30
0.0
 11
-285.0
 21
-75.000000000186262
 31
0.0
  0
LINE
  5
85
  8
DIMNSIONS
  6
CONTINUOUS
 62
     7
 10
-212.99999999979889
 20
74.999999999813227
 30
0.0
 11
-285.0
 21
74.999999999813227
 31
0.0
  0
LINE
  5
86
  8
DIMNSIONS
  6
CONTINUOUS
 62
     7
 10
-275.0
 20
-75.000000000186262
 30
0.0
 11
-275.0
 21
74.999999999813227
 31
0.0
  0
LINE
  5
87
  8
DIMNSIONS
  6
CONTINUOUS
 62
     7
 10
-275.0
 20
-75.000000000186262
 30
0.0
 11
-278.3501989757512
 21
-62.496887207217533
 31
0.0
  0
LINE
  5
88
  8
DIMNSIONS
  6
CONTINUOUS
 62
     7
 10
-275.0
 20
-75.000000000186262
 30
0.0
 11
-271.6498010242488
 21
-62.496887207217533
 31
0.0
  0
LINE
  5
89
  8
DIMNSIONS
  6
CONTINUOUS
 62
     7
 10
-275.0
 20
74.999999999813227
 30
0.0
 11
-271.6498010242488
 21
62.496887206844463
 31
0.0
  0
LINE
  5
8A
  8
DIMNSIONS
  6
CONTINUOUS
 62
     7
 10
-275.0
 20
74.999999999813227
 30
0.0
 11
-278.3501989757512
 21
62.496887206844463
 31
0.0
  0
TEXT
  5
8B
  8
DIMNSIONS
 62
     7
 10
-279.96944444444449
 20
-13.22916666685321
 30
0.0
 40
13.57367621527778
  1
150
 50
90.0
 41
0.7
 11
-293.54312065972232
 21
-13.22916666685321
 31
0.0
 73
     3
  0
LINE
  5
8C
  8
DIMNSIONS
  6
CONTINUOUS
 62
     7
 10
-234.99999999979889
 20
-75.000000000186262
 30
0.0
 11
-260.0
 21
-75.000000000186262
 31
0.0
  0
LINE
  5
8D
  8
DIMNSIONS
  6
CONTINUOUS
 62
     7
 10
-234.99999999979889
 20
-72.000000000186276
 30
0.0
 11
-260.0
 21
-72.000000000186276
 31
0.0
  0
LINE
  5
8E
  8
DIMNSIONS
  6
CONTINUOUS
 62
     7
 10
-250.0
 20
-72.000000000186276
 30
0.0
 11
-250.0
 21
-75.000000000186262
 31
0.0
  0
LINE
  5
8F
  8
DIMNSIONS
  6
CONTINUOUS
 62
     7
 10
-250.0
 20
-75.000000000186262
 30
0.0
 11
-250.0
 21
-100.0000000001863
 31
0.0
  0
LINE
  5
90
  8
DIMNSIONS
  6
CONTINUOUS
 62
     7
 10
-250.0
 20
-75.000000000186262
 30
0.0
 11
-246.6498010242488
 21
-87.503112793155026
 31
0.0
  0
LINE
  5
91
  8
DIMNSIONS
  6
CONTINUOUS
 62
     7
 10
-250.0
 20
-75.000000000186262
 30
0.0
 11
-253.3501989757512
 21
-87.503112793155026
 31
0.0
  0
LINE
  5
92
  8
DIMNSIONS
  6
CONTINUOUS
 62
     7
 10
-250.0
 20
-72.000000000186276
 30
0.0
 11
-250.0
 21
-53.680555555555529
 31
0.0
  0
LINE
  5
93
  8
DIMNSIONS
  6
CONTINUOUS
 62
     7
 10
-250.0
 20
-72.000000000186276
 30
0.0
 11
-253.3501989757512
 21
-59.496887207217533
 31
0.0
  0
LINE
  5
94
  8
DIMNSIONS
  6
CONTINUOUS
 62
     7
 10
-250.0
 20
-72.000000000186276
 30
0.0
 11
-246.6498010242488
 21
-59.496887207217533
 31
0.0
  0
TEXT
  5
95
  8
DIMNSIONS
 62
     7
 10
-254.96944444444449
 20
-62.5
 30
0.0
 40
13.57367621527778
  1
3
 50
90.0
 41
0.7
 11
-268.54312065972232
 21
-62.5
 31
0.0
 73
     3
  0
LINE
  5
96
  8
DIMNSIONS
  6
CONTINUOUS
 62
     7
 10
-177.3533322209417
 20
-92.00000000018629
 30
0.0
 11
-285.0
 21
-92.00000000018629
 31
0.0
  0
LINE
  5
97
  8
DIMNSIONS
  6
CONTINUOUS
 62
     7
 10
-235.0
 20
-75.0
 30
0.0
 11
-285.0
 21
-75.0
 31
0.0
  0
LINE
  5
98
  8
DIMNSIONS
  6
CONTINUOUS
 62
     7
 10
-275.0
 20
-75.0
 30
0.0
 11
-275.0
 21
-92.00000000018629
 31
0.0
  0
LINE
  5
99
  8
DIMNSIONS
  6
CONTINUOUS
 62
     7
 10
-275.0
 20
-92.00000000018629
 30
0.0
 11
-275.0
 21
-117.0000000001863
 31
0.0
  0
LINE
  5
9A
  8
DIMNSIONS
  6
CONTINUOUS
 62
     7
 10
-275.0
 20
-92.00000000018629
 30
0.0
 11
-271.6498010242488
 21
-104.503112793155
 31
0.0
  0
LINE
  5
9B
  8
DIMNSIONS
  6
CONTINUOUS
 62
     7
 10
-275.0
 20
-92.00000000018629
 30
0.0
 11
-278.3501989757512
 21
-104.503112793155
 31
0.0
  0
LINE
  5
9C
  8
DIMNSIONS
  6
CONTINUOUS
 62
     7
 10
-275.0
 20
-75.0
 30
0.0
 11
-275.0
 21
-50.0
 31
0.0
  0
LINE
  5
9D
  8
DIMNSIONS
  6
CONTINUOUS
 62
     7
 10
-275.0
 20
-75.0
 30
0.0
 11
-278.3501989757512
 21
-62.49688720703125
 31
0.0
  0
LINE
  5
9E
  8
DIMNSIONS
  6
CONTINUOUS
 62
     7
 10
-275.0
 20
-75.0
 30
0.0
 11
-271.6498010242488
 21
-62.49688720703125
 31
0.0
  0
TEXT
  5
9F
  8
DIMNSIONS
 62
     7
 10
-279.96944444444449
 20
-92.319444444537595
 30
0.0
 40
13.57367621527778
  1
17
 50
90.0
 41
0.7
 11
-293.54312065972232
 21
-92.319444444537595
 31
0.0
 73
     3
  0
TEXT
  5
A0
  8
DIMNSIONS
 62
     7
 10
-300.0
 20
-474.68273999999991
 30
0.0
 40
8.1442057291666661
  1
仕様および外観は予告なく変更されることがありますので、ご了承ください。
 41
0.7
 11
-300.0
 21
-466.53853427083322
 31
0.0
 73
     3
  0
TEXT
  5
A1
  8
DATA
 62
     7
 10
351.70241964215609
 20
-440.2182899999998
 30
0.0
 40
12.21630859375
  1
234XS
 41
0.7
 11
351.70241964215609
 21
-428.00198140624991
 31
0.0
 73
     3
  0
TEXT
  5
A2
  8
DATA
 62
     7
 10
351.70241964215609
 20
-403.35984782777263
 30
0.0
 40
12.21630859375
  1
dbx
 41
0.7
 11
351.70241964215609
 21
-391.14353923402263
 31
0.0
 73
     3
  0
TEXT
  5
A3
  8
DATA
 62
     7
 10
292.01965168128402
 20
-419.30765503026191
 30
0.0
 40
8.1442057291666661
  1
ステレオ 2-Way/3-Way/モノラル4-Wayクロスオーバー
 41
0.7
 11
292.01965168128402
 21
-411.16344930109523
 31
0.0
 73
     3
  0
LINE
  5
A4
  8
DATA
  6
CONTINUOUS
 62
     7
 10
499.99999999974091
 20
-180.5999999996709
 30
0.0
 11
349.99999999974011
 21
-180.5999999996709
 31
0.0
  0
LINE
  5
A5
  8
DATA
  6
CONTINUOUS
 62
     7
 10
499.99999999974091
 20
-224.99999999967091
 30
0.0
 11
499.99999999974091
 21
-180.5999999996709
 31
0.0
  0
LINE
  5
A6
  8
DATA
  6
CONTINUOUS
 62
     7
 10
349.99999999974011
 20
-224.99999999967091
 30
0.0
 11
499.99999999974091
 21
-224.99999999967091
 31
0.0
  0
LINE
  5
A7
  8
DATA
  6
CONTINUOUS
 62
     7
 10
349.99999999974011
 20
-180.5999999996709
 30
0.0
 11
349.99999999974011
 21
-224.99999999967091
 31
0.0
  0
LINE
  5
A8
  8
DATA
  6
CONTINUOUS
 62
     7
 10
-224.99999999979889
 20
-75.000000000186262
 30
0.0
 11
-224.99999999979889
 21
-72.000000000186276
 31
0.0
  0
LINE
  5
A9
  8
DATA
  6
CONTINUOUS
 62
     7
 10
258.00000000020128
 20
-75.000000000186262
 30
0.0
 11
-224.99999999979889
 21
-75.000000000186262
 31
0.0
  0
LINE
  5
AA
  8
DATA
  6
CONTINUOUS
 62
     7
 10
-224.99999999979889
 20
-72.000000000186276
 30
0.0
 11
258.00000000020128
 21
-72.000000000186276
 31
0.0
  0
ARC
  5
AB
  8
DATA
  6
CONTINUOUS
 62
     7
 10
-217.8412975734536
 20
-186.9990060234154
 30
0.0
 40
3.2000000000000441
 50
90.0
 51
270.0
  0
ARC
  5
AC
  8
DATA
  6
CONTINUOUS
 62
     7
 10
-213.24129757345369
 20
-186.9990060234154
 30
0.0
 40
3.19999999999993
 50
270.0
 51
90.0
  0
LINE
  5
AD
  8
DATA
  6
CONTINUOUS
 62
     7
 10
-217.8412975734536
 20
-183.79900602341539
 30
0.0
 11
-213.24129757345369
 21
-183.79900602341539
 31
0.0
  0
LINE
  5
AE
  8
DATA
  6
CONTINUOUS
 62
     7
 10
-217.8412975734536
 20
-190.19900602341531
 30
0.0
 11
-213.24129757345369
 21
-190.19900602341531
 31
0.0
  0
ARC
  5
AF
  8
DATA
  6
CONTINUOUS
 62
     7
 10
247.15870242654549
 20
-186.9990060234154
 30
0.0
 40
3.2000000000000441
 50
90.0
 51
270.0
  0
ARC
  5
B0
  8
DATA
  6
CONTINUOUS
 62
     7
 10
251.75870242654551
 20
-186.9990060234154
 30
0.0
 40
3.19999999999993
 50
270.0
 51
90.0
  0
LINE
  5
B1
  8
DATA
  6
CONTINUOUS
 62
     7
 10
247.15870242654549
 20
-183.79900602341539
 30
0.0
 11
251.75870242654551
 21
-183.79900602341539
 31
0.0
  0
LINE
  5
B2
  8
DATA
  6
CONTINUOUS
 62
     7
 10
247.15870242654549
 20
-190.19900602341531
 30
0.0
 11
251.75870242654551
 21
-190.19900602341531
 31
0.0
  0
ARC
  5
B3
  8
DATA
  6
CONTINUOUS
 62
     7
 10
-217.8412975734536
 20
-218.5990060234154
 30
0.0
 40
3.2000000000000441
 50
90.0
 51
270.0
  0
ARC
  5
B4
  8
DATA
  6
CONTINUOUS
 62
     7
 10
-213.24129757345369
 20
-218.5990060234154
 30
0.0
 40
3.19999999999993
 50
270.0
 51
90.0
  0
LINE
  5
B5
  8
DATA
  6
CONTINUOUS
 62
     7
 10
-217.8412975734536
 20
-221.79900602341539
 30
0.0
 11
-213.24129757345369
 21
-221.79900602341539
 31
0.0
  0
LINE
  5
B6
  8
DATA
  6
CONTINUOUS
 62
     7
 10
-217.8412975734536
 20
-215.39900602341541
 30
0.0
 11
-213.24129757345369
 21
-215.39900602341541
 31
0.0
  0
ARC
  5
B7
  8
DATA
  6
CONTINUOUS
 62
     7
 10
247.15870242654549
 20
-218.5990060234154
 30
0.0
 40
3.2000000000000441
 50
90.0
 51
270.0
  0
ARC
  5
B8
  8
DATA
  6
CONTINUOUS
 62
     7
 10
251.75870242654551
 20
-218.5990060234154
 30
0.0
 40
3.19999999999993
 50
270.0
 51
90.0
  0
LINE
  5
B9
  8
DATA
  6
CONTINUOUS
 62
     7
 10
247.15870242654549
 20
-221.79900602341539
 30
0.0
 11
251.75870242654551
 21
-221.79900602341539
 31
0.0
  0
LINE
  5
BA
  8
DATA
  6
CONTINUOUS
 62
     7
 10
247.15870242654549
 20
-215.39900602341541
 30
0.0
 11
251.75870242654551
 21
-215.39900602341541
 31
0.0
  0
CIRCLE
  5
BB
  8
DATA
  6
CONTINUOUS
 62
     7
 10
16.9587024265455
 20
-185.6061113332434
 30
0.0
 40
2.8000000000000238
  0
LINE
  5
BC
  8
DATA
  6
CONTINUOUS
 62
     7
 10
17.65870242654551
 20
-186.81854689854171
 30
0.0
 11
18.35870242654552
 21
-185.6061113332434
 31
0.0
  0
LINE
  5
BD
  8
DATA
  6
CONTINUOUS
 62
     7
 10
16.258702426545479
 20
-186.81854689854171
 30
0.0
 11
17.65870242654551
 21
-186.81854689854171
 31
0.0
  0
LINE
  5
BE
  8
DATA
  6
CONTINUOUS
 62
     7
 10
15.558702426545491
 20
-185.6061113332434
 30
0.0
 11
16.258702426545479
 21
-186.81854689854171
 31
0.0
  0
LINE
  5
BF
  8
DATA
  6
CONTINUOUS
 62
     7
 10
16.258702426545511
 20
-184.3936757679453
 30
0.0
 11
15.558702426545491
 21
-185.6061113332434
 31
0.0
  0
LINE
  5
C0
  8
DATA
  6
CONTINUOUS
 62
     7
 10
17.65870242654551
 20
-184.3936757679453
 30
0.0
 11
16.258702426545511
 21
-184.3936757679453
 31
0.0
  0
LINE
  5
C1
  8
DATA
  6
CONTINUOUS
 62
     7
 10
18.35870242654552
 20
-185.6061113332434
 30
0.0
 11
17.65870242654551
 21
-184.3936757679453
 31
0.0
  0
CIRCLE
  5
C2
  8
DATA
  6
CONTINUOUS
 62
     7
 10
-194.83073940449509
 20
-191.0818390721538
 30
0.0
 40
2.7999999999999541
  0
LINE
  5
C3
  8
DATA
  6
CONTINUOUS
 62
     7
 10
-194.1307394044949
 20
-192.29427463745199
 30
0.0
 11
-193.43073940449511
 21
-191.0818390721538
 31
0.0
  0
LINE
  5
C4
  8
DATA
  6
CONTINUOUS
 62
     7
 10
-195.53073940449511
 20
-192.29427463745199
 30
0.0
 11
-194.1307394044949
 21
-192.29427463745199
 31
0.0
  0
LINE
  5
C5
  8
DATA
  6
CONTINUOUS
 62
     7
 10
-196.2307394044951
 20
-191.0818390721538
 30
0.0
 11
-195.53073940449511
 21
-192.29427463745199
 31
0.0
  0
LINE
  5
C6
  8
DATA
  6
CONTINUOUS
 62
     7
 10
-195.53073940449511
 20
-189.86940350685541
 30
0.0
 11
-196.2307394044951
 21
-191.0818390721538
 31
0.0
  0
LINE
  5
C7
  8
DATA
  6
CONTINUOUS
 62
     7
 10
-194.1307394044949
 20
-189.86940350685541
 30
0.0
 11
-195.53073940449511
 21
-189.86940350685541
 31
0.0
  0
LINE
  5
C8
  8
DATA
  6
CONTINUOUS
 62
     7
 10
-193.43073940449511
 20
-191.0818390721538
 30
0.0
 11
-194.1307394044949
 21
-189.86940350685541
 31
0.0
  0
CIRCLE
  5
C9
  8
DATA
  6
CONTINUOUS
 62
     7
 10
228.748144257587
 20
-191.0818390721538
 30
0.0
 40
2.8000000000000109
  0
LINE
  5
CA
  8
DATA
  6
CONTINUOUS
 62
     7
 10
228.04814425758701
 20
-192.29427463745199
 30
0.0
 11
227.34814425758699
 21
-191.0818390721538
 31
0.0
  0
LINE
  5
CB
  8
DATA
  6
CONTINUOUS
 62
     7
 10
229.44814425758699
 20
-192.29427463745199
 30
0.0
 11
228.04814425758701
 21
-192.29427463745199
 31
0.0
  0
LINE
  5
CC
  8
DATA
  6
CONTINUOUS
 62
     7
 10
230.14814425758701
 20
-191.0818390721538
 30
0.0
 11
229.44814425758699
 21
-192.29427463745199
 31
0.0
  0
LINE
  5
CD
  8
DATA
  6
CONTINUOUS
 62
     7
 10
229.44814425758699
 20
-189.86940350685541
 30
0.0
 11
230.14814425758701
 21
-191.0818390721538
 31
0.0
  0
LINE
  5
CE
  8
DATA
  6
CONTINUOUS
 62
     7
 10
228.04814425758701
 20
-189.86940350685541
 30
0.0
 11
229.44814425758699
 21
-189.86940350685541
 31
0.0
  0
LINE
  5
CF
  8
DATA
  6
CONTINUOUS
 62
     7
 10
227.34814425758699
 20
-191.0818390721538
 30
0.0
 11
228.04814425758701
 21
-189.86940350685541
 31
0.0
  0
CIRCLE
  5
D0
  8
DATA
  6
CONTINUOUS
 62
     7
 10
228.748144257587
 20
-214.51617297467709
 30
0.0
 40
2.8000000000000109
  0
LINE
  5
D1
  8
DATA
  6
CONTINUOUS
 62
     7
 10
228.04814425758701
 20
-213.3037374093787
 30
0.0
 11
227.34814425758699
 21
-214.51617297467709
 31
0.0
  0
LINE
  5
D2
  8
DATA
  6
CONTINUOUS
 62
     7
 10
229.44814425758699
 20
-213.3037374093787
 30
0.0
 11
228.04814425758701
 21
-213.3037374093787
 31
0.0
  0
LINE
  5
D3
  8
DATA
  6
CONTINUOUS
 62
     7
 10
230.14814425758701
 20
-214.51617297467709
 30
0.0
 11
229.44814425758699
 21
-213.3037374093787
 31
0.0
  0
LINE
  5
D4
  8
DATA
  6
CONTINUOUS
 62
     7
 10
229.44814425758699
 20
-215.7286085399752
 30
0.0
 11
230.14814425758701
 21
-214.51617297467709
 31
0.0
  0
LINE
  5
D5
  8
DATA
  6
CONTINUOUS
 62
     7
 10
228.04814425758701
 20
-215.7286085399752
 30
0.0
 11
229.44814425758699
 21
-215.7286085399752
 31
0.0
  0
LINE
  5
D6
  8
DATA
  6
CONTINUOUS
 62
     7
 10
227.34814425758699
 20
-214.51617297467709
 30
0.0
 11
228.04814425758701
 21
-215.7286085399752
 31
0.0
  0
LINE
  5
D7
  8
DATA
  6
CONTINUOUS
 62
     7
 10
-202.9999999997988
 20
-71.509467757603545
 30
0.0
 11
235.00000000020009
 21
-71.509467757603545
 31
0.0
  0
LINE
  5
D8
  8
DATA
  6
CONTINUOUS
 62
     7
 10
-202.9999999997988
 20
74.999999999813738
 30
0.0
 11
-202.9999999997988
 21
-71.509467757603545
 31
0.0
  0
LINE
  5
D9
  8
DATA
  6
CONTINUOUS
 62
     7
 10
235.00000000020009
 20
74.999999999813227
 30
0.0
 11
-202.9999999997988
 21
74.999999999813227
 31
0.0
  0
LINE
  5
DA
  8
DATA
  6
CONTINUOUS
 62
     7
 10
235.00000000020009
 20
-71.509467757603545
 30
0.0
 11
235.00000000020009
 21
74.999999999813738
 31
0.0
  0
LINE
  5
DB
  8
DATA
  6
CONTINUOUS
 62
     7
 10
-193.9999999997988
 20
-72.000000000186276
 30
0.0
 11
-193.9999999997988
 21
-71.510000000186267
 31
0.0
  0
LINE
  5
DC
  8
DATA
  6
CONTINUOUS
 62
     7
 10
226.00000000020009
 20
-72.000000000186276
 30
0.0
 11
-193.9999999997988
 21
-72.000000000186276
 31
0.0
  0
LINE
  5
DD
  8
DATA
  6
CONTINUOUS
 62
     7
 10
226.00000000020009
 20
-71.510000000186267
 30
0.0
 11
226.00000000020009
 21
-72.000000000186276
 31
0.0
  0
LINE
  5
DE
  8
DATA
  6
CONTINUOUS
 62
     7
 10
-193.9999999997988
 20
-71.510000000186267
 30
0.0
 11
226.00000000020009
 21
-71.510000000186267
 31
0.0
  0
LINE
  5
DF
  8
DATA
  6
CONTINUOUS
 62
     7
 10
-202.9999999997988
 20
-71.509467757603545
 30
0.0
 11
-202.9999999997988
 21
-72.000000000186276
 31
0.0
  0
LINE
  5
E0
  8
DATA
  6
CONTINUOUS
 62
     7
 10
235.00000000020009
 20
-71.509467757603545
 30
0.0
 11
235.0000000002002
 21
-72.000000000186276
 31
0.0
  0
ARC
  5
E1
  8
DATA
  6
CONTINUOUS
 62
     7
 10
-200.461538461337
 20
-55.000000000186283
 30
0.0
 40
4.8384615384617167
 50
136.99713135190601
 51
223.00286864809399
  0
LINE
  5
E2
  8
DATA
  6
CONTINUOUS
 62
     7
 10
-203.99999999979889
 20
-51.700000000186257
 30
0.0
 11
-202.9999999997988
 21
-51.700000000186257
 31
0.0
  0
LINE
  5
E3
  8
DATA
  6
CONTINUOUS
 62
     7
 10
-203.99999999979889
 20
-58.30000000018628
 30
0.0
 11
-202.9999999997988
 21
-58.30000000018628
 31
0.0
  0
ARC
  5
E4
  8
DATA
  6
CONTINUOUS
 62
     7
 10
-200.461538461337
 20
56.999999999813213
 30
0.0
 40
4.8384615384617167
 50
136.99713135190601
 51
223.00286864809399
  0
LINE
  5
E5
  8
DATA
  6
CONTINUOUS
 62
     7
 10
-203.99999999979889
 20
60.299999999813217
 30
0.0
 11
-202.9999999997988
 21
60.299999999813217
 31
0.0
  0
LINE
  5
E6
  8
DATA
  6
CONTINUOUS
 62
     7
 10
-203.99999999979889
 20
53.699999999813201
 30
0.0
 11
-202.9999999997988
 21
53.699999999813201
 31
0.0
  0
ARC
  5
E7
  8
DATA
  6
CONTINUOUS
 62
     7
 10
232.4615384617384
 20
-55.000000000186283
 30
0.0
 40
4.8384615384617167
 50
316.99713135190598
 51
43.002868648094001
  0
LINE
  5
E8
  8
DATA
  6
CONTINUOUS
 62
     7
 10
236.00000000020009
 20
-51.700000000186257
 30
0.0
 11
235.00000000020009
 21
-51.700000000186257
 31
0.0
  0
LINE
  5
E9
  8
DATA
  6
CONTINUOUS
 62
     7
 10
236.00000000020009
 20
-58.30000000018628
 30
0.0
 11
235.00000000020009
 21
-58.30000000018628
 31
0.0
  0
ARC
  5
EA
  8
DATA
  6
CONTINUOUS
 62
     7
 10
232.4615384617384
 20
56.999999999813213
 30
0.0
 40
4.8384615384617167
 50
316.99713135190598
 51
43.002868648094001
  0
LINE
  5
EB
  8
DATA
  6
CONTINUOUS
 62
     7
 10
236.00000000020009
 20
60.299999999813217
 30
0.0
 11
235.00000000020009
 21
60.299999999813217
 31
0.0
  0
LINE
  5
EC
  8
DATA
  6
CONTINUOUS
 62
     7
 10
236.00000000020009
 20
53.699999999813201
 30
0.0
 11
235.00000000020009
 21
53.699999999813201
 31
0.0
  0
LINE
  5
ED
  8
DATA
  6
CONTINUOUS
 62
     7
 10
-197.0894418308404
 20
-78.000000000186262
 30
0.0
 11
-194.48944183084041
 21
-78.000000000186262
 31
0.0
  0
LINE
  5
EE
  8
DATA
  6
CONTINUOUS
 62
     7
 10
-198.5894418308404
 20
-76.500000000186262
 30
0.0
 11
-198.5894418308404
 21
-75.000000000186262
 31
0.0
  0
LINE
  5
EF
  8
DATA
  6
CONTINUOUS
 62
     7
 10
-192.98944183084041
 20
-76.500000000186262
 30
0.0
 11
-192.98944183084041
 21
-75.000000000186262
 31
0.0
  0
ARC
  5
F0
  8
DATA
  6
CONTINUOUS
 62
     7
 10
-197.0894418308404
 20
-76.500000000186262
 30
0.0
 40
1.5
 50
180.0
 51
270.0
  0
ARC
  5
F1
  8
DATA
  6
CONTINUOUS
 62
     7
 10
-194.48944183084041
 20
-76.500000000186262
 30
0.0
 40
1.5
 50
270.0
 51
0.0
  0
LINE
  5
F2
  8
DATA
  6
CONTINUOUS
 62
     7
 10
229.08944183124169
 20
-78.000000000186262
 30
0.0
 11
226.48944183124169
 21
-78.000000000186262
 31
0.0
  0
LINE
  5
F3
  8
DATA
  6
CONTINUOUS
 62
     7
 10
230.58944183124169
 20
-76.500000000186262
 30
0.0
 11
230.58944183124169
 21
-75.000000000186262
 31
0.0
  0
LINE
  5
F4
  8
DATA
  6
CONTINUOUS
 62
     7
 10
224.98944183124169
 20
-76.500000000186262
 30
0.0
 11
224.98944183124169
 21
-75.000000000186262
 31
0.0
  0
ARC
  5
F5
  8
DATA
  6
CONTINUOUS
 62
     7
 10
229.08944183124169
 20
-76.500000000186262
 30
0.0
 40
1.5
 50
270.0
 51
0.0
  0
ARC
  5
F6
  8
DATA
  6
CONTINUOUS
 62
     7
 10
226.48944183124169
 20
-76.500000000186262
 30
0.0
 40
1.5
 50
180.0
 51
270.0
  0
LINE
  5
F7
  8
DATA
  6
CONTINUOUS
 62
     7
 10
195.50000000020009
 20
74.999999999813227
 30
0.0
 11
195.50000000020009
 21
76.499999999813227
 31
0.0
  0
LINE
  5
F8
  8
DATA
  6
CONTINUOUS
 62
     7
 10
225.50000000020009
 20
74.999999999813227
 30
0.0
 11
195.50000000020009
 21
74.999999999813227
 31
0.0
  0
LINE
  5
F9
  8
DATA
  6
CONTINUOUS
 62
     7
 10
225.50000000020009
 20
76.499999999813227
 30
0.0
 11
225.50000000020009
 21
74.999999999813227
 31
0.0
  0
LINE
  5
FA
  8
DATA
  6
CONTINUOUS
 62
     7
 10
195.50000000020009
 20
76.499999999813227
 30
0.0
 11
225.50000000020009
 21
76.499999999813227
 31
0.0
  0
ARC
  5
FB
  8
DATA
  6
CONTINUOUS
 62
     7
 10
251.800000000338
 20
206.40000000020731
 30
0.0
 40
3.1999999999999882
 50
270.0
 51
90.0
  0
ARC
  5
FC
  8
DATA
  6
CONTINUOUS
 62
     7
 10
247.20000000033801
 20
206.40000000020731
 30
0.0
 40
3.1999999999999882
 50
90.0
 51
270.0
  0
LINE
  5
FD
  8
DATA
  6
CONTINUOUS
 62
     7
 10
251.800000000338
 20
203.2000000002073
 30
0.0
 11
247.20000000033801
 21
203.2000000002073
 31
0.0
  0
LINE
  5
FE
  8
DATA
  6
CONTINUOUS
 62
     7
 10
251.800000000338
 20
209.6000000002073
 30
0.0
 11
247.20000000033801
 21
209.6000000002073
 31
0.0
  0
ARC
  5
FF
  8
DATA
  6
CONTINUOUS
 62
     7
 10
-213.1999999996612
 20
206.40000000020731
 30
0.0
 40
3.1999999999999882
 50
270.0
 51
90.0
  0
ARC
  5
100
  8
DATA
  6
CONTINUOUS
 62
     7
 10
-217.79999999966111
 20
206.40000000020731
 30
0.0
 40
3.1999999999999882
 50
90.0
 51
270.0
  0
LINE
  5
101
  8
DATA
  6
CONTINUOUS
 62
     7
 10
-213.1999999996612
 20
203.2000000002073
 30
0.0
 11
-217.79999999966111
 21
203.2000000002073
 31
0.0
  0
LINE
  5
102
  8
DATA
  6
CONTINUOUS
 62
     7
 10
-213.1999999996612
 20
209.6000000002073
 30
0.0
 11
-217.79999999966111
 21
209.6000000002073
 31
0.0
  0
ARC
  5
103
  8
DATA
  6
CONTINUOUS
 62
     7
 10
251.800000000338
 20
238.00000000020731
 30
0.0
 40
3.1999999999999882
 50
270.0
 51
90.0
  0
ARC
  5
104
  8
DATA
  6
CONTINUOUS
 62
     7
 10
247.20000000033801
 20
238.00000000020731
 30
0.0
 40
3.1999999999999882
 50
90.0
 51
270.0
  0
LINE
  5
105
  8
DATA
  6
CONTINUOUS
 62
     7
 10
251.800000000338
 20
241.2000000002073
 30
0.0
 11
247.20000000033801
 21
241.2000000002073
 31
0.0
  0
LINE
  5
106
  8
DATA
  6
CONTINUOUS
 62
     7
 10
251.800000000338
 20
234.80000000020729
 30
0.0
 11
247.20000000033801
 21
234.80000000020729
 31
0.0
  0
ARC
  5
107
  8
DATA
  6
CONTINUOUS
 62
     7
 10
-213.1999999996612
 20
238.00000000020731
 30
0.0
 40
3.1999999999999882
 50
270.0
 51
90.0
  0
ARC
  5
108
  8
DATA
  6
CONTINUOUS
 62
     7
 10
-217.79999999966111
 20
238.00000000020731
 30
0.0
 40
3.1999999999999882
 50
90.0
 51
270.0
  0
LINE
  5
109
  8
DATA
  6
CONTINUOUS
 62
     7
 10
-213.1999999996612
 20
241.2000000002073
 30
0.0
 11
-217.79999999966111
 21
241.2000000002073
 31
0.0
  0
LINE
  5
10A
  8
DATA
  6
CONTINUOUS
 62
     7
 10
-213.1999999996612
 20
234.80000000020729
 30
0.0
 11
-217.79999999966111
 21
234.80000000020729
 31
0.0
  0
LINE
  5
10B
  8
DATA
  6
CONTINUOUS
 62
     7
 10
236.00000000033799
 20
244.40000000020731
 30
0.0
 11
236.00000000033799
 21
200.00000000020739
 31
0.0
  0
LINE
  5
10C
  8
DATA
  6
CONTINUOUS
 62
     7
 10
-201.99999999966121
 20
244.40000000020731
 30
0.0
 11
-201.99999999966121
 21
200.00000000020739
 31
0.0
  0
LINE
  5
10D
  8
DATA
  6
CONTINUOUS
 62
     7
 10
230.70000000033801
 20
205.30000000020729
 30
0.0
 11
-196.69999999966109
 21
205.30000000020729
 31
0.0
  0
LINE
  5
10E
  8
DATA
  6
CONTINUOUS
 62
     7
 10
-196.69999999966109
 20
240.00000000020731
 30
0.0
 11
-196.69999999966109
 21
205.30000000020729
 31
0.0
  0
LINE
  5
10F
  8
DATA
  6
CONTINUOUS
 62
     7
 10
230.70000000033801
 20
240.00000000020731
 30
0.0
 11
230.70000000033801
 21
205.30000000020729
 31
0.0
  0
LINE
  5
110
  8
DATA
  6
CONTINUOUS
 62
     7
 10
230.70000000033801
 20
205.30000000020729
 30
0.0
 11
236.00000000033799
 21
200.00000000020739
 31
0.0
  0
LINE
  5
111
  8
DATA
  6
CONTINUOUS
 62
     7
 10
-196.69999999966109
 20
205.30000000020729
 30
0.0
 11
-201.99999999966121
 21
200.00000000020739
 31
0.0
  0
TEXT
  5
112
  8
DATA
 62
     7
 10
217.33221765205371
 20
208.74979345181839
 30
0.0
 40
2.171788194444443
  1
15 WATTS
 50
180.0
 41
0.7
 11
217.33221765205371
 21
206.578005257374
 31
0.0
 73
     3
  0
TEXT
  5
113
  8
DATA
 62
     7
 10
219.87597837609499
 20
237.33366634143559
 30
0.0
 40
2.171788194444443
  1
100V～50/60Hz
 50
180.0
 41
0.7
 11
219.87597837609499
 21
235.1618781469912
 31
0.0
 73
     3
  0
TEXT
  5
114
  8
DATA
 62
     7
 10
218.00000000033799
 20
240.75671976101569
 30
0.0
 40
2.171788194444443
  1
120～60Hz
 50
180.0
 41
0.7
 11
218.00000000033799
 21
238.5849315665713
 31
0.0
 73
     3
  0
ARC
  5
115
  8
DATA
  6
CONTINUOUS
 62
     7
 10
233.4615384618761
 20
238.4430111910369
 30
0.0
 40
4.8384615384617167
 50
316.99713135190598
 51
43.002868648094001
  0
LINE
  5
116
  8
DATA
  6
CONTINUOUS
 62
     7
 10
237.00000000033799
 20
235.14301119103689
 30
0.0
 11
236.00000000033799
 21
235.14301119103689
 31
0.0
  0
LINE
  5
117
  8
DATA
  6
CONTINUOUS
 62
     7
 10
237.00000000033799
 20
241.74301119103691
 30
0.0
 11
236.00000000033799
 21
241.74301119103691
 31
0.0
  0
ARC
  5
118
  8
DATA
  6
CONTINUOUS
 62
     7
 10
-199.4615384611995
 20
238.4430111910369
 30
0.0
 40
4.8384615384617167
 50
136.99713135190601
 51
223.00286864809399
  0
LINE
  5
119
  8
DATA
  6
CONTINUOUS
 62
     7
 10
-202.9999999996613
 20
235.14301119103689
 30
0.0
 11
-201.9999999996613
 21
235.14301119103689
 31
0.0
  0
LINE
  5
11A
  8
DATA
  6
CONTINUOUS
 62
     7
 10
-202.9999999996613
 20
241.74301119103691
 30
0.0
 11
-201.9999999996613
 21
241.74301119103691
 31
0.0
  0
LINE
  5
11B
  8
DATA
  6
CONTINUOUS
 62
     7
 10
352.99999999974
 20
-180.5999999996709
 30
0.0
 11
352.99999999974
 21
-224.99999999967091
 31
0.0
  0
CIRCLE
  5
11C
  8
DATA
  6
CONTINUOUS
 62
     7
 10
369.99999999974
 20
-219.99999999967091
 30
0.0
 40
3.350000000000021
  0
CIRCLE
  5
11D
  8
DATA
  6
CONTINUOUS
 62
     7
 10
481.99999999974091
 20
-219.99999999967091
 30
0.0
 40
3.350000000000021
  0
LINE
  5
11E
  8
DATA
  6
CONTINUOUS
 62
     7
 10
501.49999999974079
 20
-190.5999999996709
 30
0.0
 11
501.49999999974079
 21
-213.95800686963889
 31
0.0
  0
LINE
  5
11F
  8
DATA
  6
CONTINUOUS
 62
     7
 10
501.49999999974079
 20
-190.5999999996709
 30
0.0
 11
499.99999999974091
 21
-190.5999999996709
 31
0.0
  0
TEXT
  5
120
  8
DATA
 62
     7
 10
-223.0706058693678
 20
-207.74610277123139
 30
0.0
 40
1.923828125
  1
PROFESSIONAL PRODUCTS  
 41
0.7
 11
-223.0706058693678
 21
-205.82227464623139
 31
0.0
 73
     3
  0
TEXT
  5
121
  8
DATA
 62
     7
 10
231.1906024998693
 20
-201.41088419119001
 30
0.0
 40
6.7868381076388884
  1
234XS
 41
0.7
 11
231.1906024998693
 21
-194.62404608355109
 31
0.0
 73
     3
  0
TEXT
  5
122
  8
DATA
 62
     7
 10
234.97376614549171
 20
-206.02397840361959
 30
0.0
 40
2.8504720052083319
  1
 2/3/4-Way
 41
0.7
 11
234.97376614549171
 21
-203.17350639841129
 31
0.0
 73
     3
  0
TEXT
  5
123
  8
DATA
 62
     7
 10
234.97376614549171
 20
-209.7281450702863
 30
0.0
 40
2.8504720052083319
  1
 Crossover
 41
0.7
 11
234.97376614549171
 21
-206.877673065078
 31
0.0
 73
     3
  0
LINE
  5
124
  8
DATA
  6
CONTINUOUS
 62
     7
 10
346.99999999974
 20
-193.48283304840919
 30
0.0
 11
346.99999999974
 21
-188.7828330484092
 31
0.0
  0
ARC
  5
125
  8
DATA
  6
CONTINUOUS
 62
     7
 10
347.49999999974011
 20
-193.48283304840919
 30
0.0
 40
0.5
 50
180.0
 51
270.0
  0
LINE
  5
126
  8
DATA
  6
CONTINUOUS
 62
     7
 10
349.99999999974011
 20
-193.98283304840919
 30
0.0
 11
347.49999999974011
 21
-193.98283304840919
 31
0.0
  0
LINE
  5
127
  8
DATA
  6
CONTINUOUS
 62
     7
 10
349.99999999974011
 20
-188.2828330484092
 30
0.0
 11
349.99999999974011
 21
-193.98283304840919
 31
0.0
  0
LINE
  5
128
  8
DATA
  6
CONTINUOUS
 62
     7
 10
347.49999999974011
 20
-188.2828330484092
 30
0.0
 11
349.99999999974011
 21
-188.2828330484092
 31
0.0
  0
ARC
  5
129
  8
DATA
  6
CONTINUOUS
 62
     7
 10
347.49999999974011
 20
-188.7828330484092
 30
0.0
 40
0.5
 50
90.0
 51
180.0
  0
LINE
  5
12A
  8
DATA
  6
CONTINUOUS
 62
     7
 10
346.99999999974
 20
-216.9171669509324
 30
0.0
 11
346.99999999974
 21
-212.21716695093241
 31
0.0
  0
ARC
  5
12B
  8
DATA
  6
CONTINUOUS
 62
     7
 10
347.49999999974011
 20
-216.9171669509324
 30
0.0
 40
0.5
 50
180.0
 51
270.0
  0
LINE
  5
12C
  8
DATA
  6
CONTINUOUS
 62
     7
 10
349.99999999974011
 20
-217.41716695093251
 30
0.0
 11
347.49999999974011
 21
-217.41716695093251
 31
0.0
  0
LINE
  5
12D
  8
DATA
  6
CONTINUOUS
 62
     7
 10
349.99999999974011
 20
-211.71716695093241
 30
0.0
 11
349.99999999974011
 21
-217.41716695093251
 31
0.0
  0
LINE
  5
12E
  8
DATA
  6
CONTINUOUS
 62
     7
 10
347.49999999974011
 20
-211.71716695093241
 30
0.0
 11
349.99999999974011
 21
-211.71716695093241
 31
0.0
  0
ARC
  5
12F
  8
DATA
  6
CONTINUOUS
 62
     7
 10
347.49999999974011
 20
-212.21716695093241
 30
0.0
 40
0.5
 50
90.0
 51
180.0
  0
CIRCLE
  5
130
  8
DATA
  6
CONTINUOUS
 62
     7
 10
-194.83073940449509
 20
-214.51617297467709
 30
0.0
 40
2.7999999999999541
  0
LINE
  5
131
  8
DATA
  6
CONTINUOUS
 62
     7
 10
-194.1307394044949
 20
-213.3037374093787
 30
0.0
 11
-193.43073940449511
 21
-214.51617297467709
 31
0.0
  0
LINE
  5
132
  8
DATA
  6
CONTINUOUS
 62
     7
 10
-195.53073940449511
 20
-213.3037374093787
 30
0.0
 11
-194.1307394044949
 21
-213.3037374093787
 31
0.0
  0
LINE
  5
133
  8
DATA
  6
CONTINUOUS
 62
     7
 10
-196.2307394044951
 20
-214.51617297467709
 30
0.0
 11
-195.53073940449511
 21
-213.3037374093787
 31
0.0
  0
LINE
  5
134
  8
DATA
  6
CONTINUOUS
 62
     7
 10
-195.53073940449511
 20
-215.7286085399752
 30
0.0
 11
-196.2307394044951
 21
-214.51617297467709
 31
0.0
  0
LINE
  5
135
  8
DATA
  6
CONTINUOUS
 62
     7
 10
-194.1307394044949
 20
-215.7286085399752
 30
0.0
 11
-195.53073940449511
 21
-215.7286085399752
 31
0.0
  0
LINE
  5
136
  8
DATA
  6
CONTINUOUS
 62
     7
 10
-193.43073940449511
 20
-214.51617297467709
 30
0.0
 11
-194.1307394044949
 21
-215.7286085399752
 31
0.0
  0
LINE
  5
137
  8
DATA
  6
CONTINUOUS
 62
     7
 10
346.99999999974
 20
-187.7828330484092
 30
0.0
 11
346.99999999974
 21
-183.3471864916344
 31
0.0
  0
LINE
  5
138
  8
DATA
  6
CONTINUOUS
 62
     7
 10
347.49999999974011
 20
-182.8471864916344
 30
0.0
 11
349.99999999974011
 21
-182.8471864916344
 31
0.0
  0
ARC
  5
139
  8
DATA
  6
CONTINUOUS
 62
     7
 10
347.49999999974011
 20
-183.3471864916344
 30
0.0
 40
0.5
 50
90.0
 51
180.0
  0
ARC
  5
13A
  8
DATA
  6
CONTINUOUS
 62
     7
 10
347.49999999974011
 20
-187.7828330484092
 30
0.0
 40
0.5
 50
180.0
 51
270.0
  0
LINE
  5
13B
  8
DATA
  6
CONTINUOUS
 62
     7
 10
-224.9999999999265
 20
-224.9999999997151
 30
0.0
 11
-224.9999999999265
 21
-179.99900602341529
 31
0.0
  0
LINE
  5
13C
  8
DATA
  6
CONTINUOUS
 62
     7
 10
258.00000000007338
 20
-224.9999999997151
 30
0.0
 11
-224.9999999999265
 21
-224.9999999997151
 31
0.0
  0
LINE
  5
13D
  8
DATA
  6
CONTINUOUS
 62
     7
 10
-224.9999999999265
 20
-179.99900602341529
 30
0.0
 11
258.00000000007338
 21
-179.99900602341529
 31
0.0
  0
LINE
  5
13E
  8
DATA
  6
CONTINUOUS
 62
     7
 10
-224.99999999966181
 20
200.00000000020739
 30
0.0
 11
-224.99999999966181
 21
245.00000000020739
 31
0.0
  0
LINE
  5
13F
  8
DATA
  6
CONTINUOUS
 62
     7
 10
258.00000000033799
 20
200.00000000020739
 30
0.0
 11
-224.99999999966181
 21
200.00000000020739
 31
0.0
  0
LINE
  5
140
  8
DATA
  6
CONTINUOUS
 62
     7
 10
258.00000000033799
 20
245.00000000020739
 30
0.0
 11
258.00000000033799
 21
200.00000000020739
 31
0.0
  0
LINE
  5
141
  8
DATA
  6
CONTINUOUS
 62
     7
 10
-224.99999999966181
 20
245.00000000020739
 30
0.0
 11
258.00000000033799
 21
245.00000000020739
 31
0.0
  0
LINE
  5
142
  8
DATA
  6
CONTINUOUS
 62
     7
 10
236.00000000033799
 20
244.40000000020731
 30
0.0
 11
236.00000000033799
 21
245.00000000020739
 31
0.0
  0
LINE
  5
143
  8
DATA
  6
CONTINUOUS
 62
     7
 10
-201.99999999966121
 20
244.40000000020731
 30
0.0
 11
-201.99999999966121
 21
245.00000000020739
 31
0.0
  0
ARC
  5
144
  8
DATA
  6
CONTINUOUS
 62
     7
 10
-166.11396787085471
 20
-202.59490317055241
 30
0.0
 40
4.7500000000005631
 50
98.302906098068689
 51
78.905036031995621
  0
ARC
  5
145
  8
DATA
  6
CONTINUOUS
 62
     7
 10
-166.11396787085499
 20
-202.5949031705525
 30
0.0
 40
6.2500000000009832
 50
96.300838472252721
 51
81.590263166657138
  0
LINE
  5
146
  8
DATA
  6
CONTINUOUS
 62
     7
 10
-166.09989822588491
 20
-195.37856906325359
 30
0.0
 11
-165.8998982258851
 21
-195.37856906325359
 31
0.0
  0
ARC
  5
147
  8
DATA
  6
CONTINUOUS
 62
     7
 10
-166.09989822588491
 20
-196.07856906325381
 30
0.0
 40
0.7000000000001592
 50
90.0
 51
179.99999999998141
  0
LINE
  5
148
  8
DATA
  6
CONTINUOUS
 62
     7
 10
-166.79989822588519
 20
-201.83856906325369
 30
0.0
 11
-166.7998982258851
 21
-196.0785690632537
 31
0.0
  0
ARC
  5
149
  8
DATA
  6
CONTINUOUS
 62
     7
 10
-166.09989822588531
 20
-201.83856906325369
 30
0.0
 40
0.6999999999999318
 50
180.0
 51
270.0
  0
LINE
  5
14A
  8
DATA
  6
CONTINUOUS
 62
     7
 10
-165.8998982258851
 20
-202.5385690632537
 30
0.0
 11
-166.099898225885
 21
-202.5385690632537
 31
0.0
  0
ARC
  5
14B
  8
DATA
  6
CONTINUOUS
 62
     7
 10
-165.8998982258851
 20
-201.83856906325369
 30
0.0
 40
0.7000000000000455
 50
270.0
 51
359.99999999999068
  0
LINE
  5
14C
  8
DATA
  6
CONTINUOUS
 62
     7
 10
-165.19989822588511
 20
-196.0785690632537
 30
0.0
 11
-165.19989822588511
 21
-201.83856906325369
 31
0.0
  0
ARC
  5
14D
  8
DATA
  6
CONTINUOUS
 62
     7
 10
-165.8998982258851
 20
-196.0785690632537
 30
0.0
 40
0.7000000000000455
 50
0.0
 51
90.0
  0
LINE
  5
14E
  8
DATA
  6
CONTINUOUS
 62
     7
 10
-170.79611481430169
 20
-201.79490317055229
 30
0.0
 11
-172.3125564198721
 21
-201.79490317055229
 31
0.0
  0
LINE
  5
14F
  8
DATA
  6
CONTINUOUS
 62
     7
 10
-170.79611481430169
 20
-203.39490317055231
 30
0.0
 11
-172.3125564198721
 21
-203.39490317055231
 31
0.0
  0
LINE
  5
150
  8
DATA
  6
CONTINUOUS
 62
     7
 10
-161.43182092740761
 20
-201.79490317055229
 30
0.0
 11
-159.91537932183741
 21
-201.79490317055229
 31
0.0
  0
LINE
  5
151
  8
DATA
  6
CONTINUOUS
 62
     7
 10
-161.43182092740761
 20
-203.39490317055231
 30
0.0
 11
-159.91537932183741
 21
-203.39490317055231
 31
0.0
  0
LINE
  5
152
  8
DATA
  6
CONTINUOUS
 62
     7
 10
-169.99043115002391
 20
-199.84981074128191
 30
0.0
 11
-171.06271729259939
 21
-198.77752459870641
 31
0.0
  0
LINE
  5
153
  8
DATA
  6
CONTINUOUS
 62
     7
 10
-168.85906030012981
 20
-198.71843989137901
 30
0.0
 11
-169.93134644270069
 21
-197.6461537488081
 31
0.0
  0
LINE
  5
154
  8
DATA
  6
CONTINUOUS
 62
     7
 10
-163.36887544158409
 20
-198.71843989138341
 30
0.0
 11
-162.29658929900859
 21
-197.6461537488081
 31
0.0
  0
LINE
  5
155
  8
DATA
  6
CONTINUOUS
 62
     7
 10
-161.16521844910989
 20
-198.77752459870669
 30
0.0
 11
-162.23750459168099
 21
-199.84981074127771
 31
0.0
  0
LINE
  5
156
  8
DATA
  6
CONTINUOUS
 62
     7
 10
-161.16521844910989
 20
-206.41228174239799
 30
0.0
 11
-162.23750459168099
 21
-205.33999559982701
 31
0.0
  0
LINE
  5
157
  8
DATA
  6
CONTINUOUS
 62
     7
 10
-162.29658929900859
 20
-207.5436525922965
 30
0.0
 11
-163.36887544158409
 21
-206.47136644972119
 31
0.0
  0
ARC
  5
158
  8
DATA
  6
CONTINUOUS
 62
     7
 10
-166.1823856323989
 20
-202.46039801474521
 30
0.0
 40
6.8399999999999883
 50
93.853979695463693
 51
240.88271410566969
  0
ARC
  5
159
  8
DATA
  6
CONTINUOUS
 62
     7
 10
-166.1823856323989
 20
-202.46039801474521
 30
0.0
 40
6.840000000000261
 50
300.65928338484781
 51
82.830667981082513
  0
LINE
  5
15A
  8
DATA
  6
CONTINUOUS
 62
     7
 10
-158.32896787085369
 20
-202.5307454864753
 30
0.0
 11
-159.34274739392211
 21
-202.5307454864753
 31
0.0
  0
LINE
  5
15B
  8
DATA
  6
CONTINUOUS
 62
     7
 10
-169.51072259862161
 20
-208.43599614708731
 30
0.0
 11
-169.9839876768774
 21
-209.28568232562881
 31
0.0
  0
LINE
  5
15C
  8
DATA
  6
CONTINUOUS
 62
     7
 10
-170.9276349242007
 20
-207.3866754286405
 30
0.0
 11
-171.58502033208049
 21
-208.06913965505271
 31
0.0
  0
LINE
  5
15D
  8
DATA
  6
CONTINUOUS
 62
     7
 10
-172.05544135638851
 20
-205.96650931688009
 30
0.0
 11
-172.8536133912171
 21
-206.427334156048
 31
0.0
  0
LINE
  5
15E
  8
DATA
  6
CONTINUOUS
 62
     7
 10
-172.7290770924873
 20
-204.44192039069961
 30
0.0
 11
-173.58991691469109
 21
-204.7024754176484
 31
0.0
  0
LINE
  5
15F
  8
DATA
  6
CONTINUOUS
 62
     7
 10
-173.02202387087581
 20
-202.5307454864753
 30
0.0
 11
-173.8989678708538
 21
-202.5307454864753
 31
0.0
  0
LINE
  5
160
  8
DATA
  6
CONTINUOUS
 62
     7
 10
-172.78980079168639
 20
-200.69187747122879
 30
0.0
 11
-173.64642178626769
 21
-200.56393003702539
 31
0.0
  0
LINE
  5
161
  8
DATA
  6
CONTINUOUS
 62
     7
 10
-172.12579072259521
 20
-199.07490899041761
 30
0.0
 11
-172.8610654689042
 21
-198.6470746710755
 31
0.0
  0
LINE
  5
162
  8
DATA
  6
CONTINUOUS
 62
     7
 10
-171.0954643018012
 20
-197.70148448451411
 30
0.0
 11
-171.69438559475111
 21
-197.10256319156429
 31
0.0
  0
LINE
  5
163
  8
DATA
  6
CONTINUOUS
 62
     7
 10
-169.6360829206304
 20
-196.55636760822111
 30
0.0
 11
-170.06094498108081
 21
-195.82048493331271
 31
0.0
  0
LINE
  5
164
  8
DATA
  6
CONTINUOUS
 62
     7
 10
-167.7981996586407
 20
-195.8139895836367
 30
0.0
 11
-168.00143351942791
 21
-194.9780176067348
 31
0.0
  0
LINE
  5
165
  8
DATA
  6
CONTINUOUS
 62
     7
 10
-164.1901290289677
 20
-195.9169651522391
 30
0.0
 11
-163.92881836246639
 21
-195.0587078376121
 31
0.0
  0
LINE
  5
166
  8
DATA
  6
CONTINUOUS
 62
     7
 10
-162.65138821707609
 20
-196.6022705619707
 30
0.0
 11
-162.17672131021371
 21
-195.81477090933831
 31
0.0
  0
LINE
  5
167
  8
DATA
  6
CONTINUOUS
 62
     7
 10
-161.32109864969539
 20
-197.64859077923199
 30
0.0
 11
-160.6689061056143
 21
-196.97849771140611
 31
0.0
  0
LINE
  5
168
  8
DATA
  6
CONTINUOUS
 62
     7
 10
-160.167201107289
 20
-199.20414938650649
 30
0.0
 11
-159.32304370670559
 21
-198.7242281810156
 31
0.0
  0
LINE
  5
169
  8
DATA
  6
CONTINUOUS
 62
     7
 10
-159.5719369946795
 20
-200.70325009607279
 30
0.0
 11
-158.58940256537451
 21
-200.53396258302899
 31
0.0
  0
LINE
  5
16A
  8
DATA
  6
CONTINUOUS
 62
     7
 10
-158.6637391754474
 20
-204.57635288822431
 30
0.0
 11
-159.6000103247855
 21
-204.319950463514
 31
0.0
  0
LINE
  5
16B
  8
DATA
  6
CONTINUOUS
 62
     7
 10
-160.2848599966058
 20
-205.92519113629831
 30
0.0
 11
-159.3885209565743
 21
-206.45178983756259
 31
0.0
  0
LINE
  5
16C
  8
DATA
  6
CONTINUOUS
 62
     7
 10
-160.53355014695791
 20
-207.95892778138651
 30
0.0
 11
-161.27120629997859
 21
-207.2212716283658
 31
0.0
  0
LINE
  5
16D
  8
DATA
  6
CONTINUOUS
 62
     7
 10
-162.16699076063119
 20
-209.24100603963291
 30
0.0
 11
-162.6944525000485
 21
-208.3442676992604
 31
0.0
  0
LINE
  5
16E
  8
DATA
  6
CONTINUOUS
 62
     7
 10
-165.9847229421753
 20
-195.37856906325359
 30
0.0
 11
-165.9847229421753
 21
-194.60625464482081
 31
0.0
  0
TEXT
  5
16F
  8
DATA
 62
     7
 10
-173.0353686969811
 20
-211.61729378977199
 30
0.0
 40
1.5390625
  1
-12
 41
0.7
 11
-173.0353686969811
 21
-210.07823128977199
 31
0.0
 73
     3
  0
TEXT
  5
170
  8
DATA
 62
     7
 10
-162.42331111943329
 20
-211.56840970317941
 30
0.0
 40
1.5390625
  1
+12
 41
0.7
 11
-162.42331111943329
 21
-210.02934720317941
 31
0.0
 73
     3
  0
LINE
  5
171
  8
DATA
  6
CONTINUOUS
 62
     7
 10
-169.89644703747331
 20
-205.45747235478649
 30
0.0
 11
-170.93401408608011
 21
-206.56338815753281
 31
0.0
  0
LINE
  5
172
  8
DATA
  6
CONTINUOUS
 62
     7
 10
-169.76716052713721
 20
-207.65812683501809
 30
0.0
 11
-168.72959347853461
 21
-206.5522110322764
 31
0.0
  0
LINE
  5
173
  8
DATA
  6
CONTINUOUS
 62
     7
 10
-166.79989822588519
 20
-207.29511588361649
 30
0.0
 11
-166.79989822588519
 21
-208.80714910483809
 31
0.0
  0
LINE
  5
174
  8
DATA
  6
CONTINUOUS
 62
     7
 10
-165.19989822588511
 20
-207.25612368498281
 30
0.0
 11
-165.19989822588511
 21
-208.777700004037
 31
0.0
  0
LINE
  5
175
  8
DATA
  6
CONTINUOUS
 62
     7
 10
348.49580761544189
 20
-197.4305380102474
 30
0.0
 11
348.49580761544189
 21
-195.50343017411461
 31
0.0
  0
LINE
  5
176
  8
DATA
  6
CONTINUOUS
 62
     7
 10
348.49580761544189
 20
-195.50343017411461
 30
0.0
 11
344.995807615442
 21
-195.8034301741144
 31
0.0
  0
LINE
  5
177
  8
DATA
  6
CONTINUOUS
 62
     7
 10
344.995807615442
 20
-195.8034301741144
 30
0.0
 11
333.49580761544172
 21
-197.4305380102474
 31
0.0
  0
LINE
  5
178
  8
DATA
  6
CONTINUOUS
 62
     7
 10
344.995807615442
 20
-208.48967307838541
 30
0.0
 11
333.49580761544172
 21
-206.88601540923071
 31
0.0
  0
LINE
  5
179
  8
DATA
  6
CONTINUOUS
 62
     7
 10
333.49580761544172
 20
-197.4305380102474
 30
0.0
 11
333.49580761544172
 21
-206.88601540923071
 31
0.0
  0
LINE
  5
17A
  8
DATA
  6
CONTINUOUS
 62
     7
 10
349.99580761544189
 20
-197.75827670973911
 30
0.0
 11
348.49580761544189
 21
-197.75827670973911
 31
0.0
  0
LINE
  5
17B
  8
DATA
  6
CONTINUOUS
 62
     7
 10
349.99580761544189
 20
-206.558276709739
 30
0.0
 11
348.49580761544189
 21
-206.558276709739
 31
0.0
  0
LINE
  5
17C
  8
DATA
  6
CONTINUOUS
 62
     7
 10
333.49580761544172
 20
-198.55827670973889
 30
0.0
 11
344.995807615442
 21
-197.94655162625
 31
0.0
  0
LINE
  5
17D
  8
DATA
  6
CONTINUOUS
 62
     7
 10
333.49580761544172
 20
-205.75827670973911
 30
0.0
 11
344.995807615442
 21
-206.34655162625009
 31
0.0
  0
LINE
  5
17E
  8
DATA
  6
CONTINUOUS
 62
     7
 10
344.995807615442
 20
-198.8659310817558
 30
0.0
 11
344.995807615442
 21
-195.8034301741144
 31
0.0
  0
LINE
  5
17F
  8
DATA
  6
CONTINUOUS
 62
     7
 10
343.41704635360162
 20
-199.73053144057241
 30
0.0
 11
333.49580761544172
 21
-200.25827670973891
 31
0.0
  0
LINE
  5
180
  8
DATA
  6
CONTINUOUS
 62
     7
 10
348.49580761544189
 20
-197.4305380102474
 30
0.0
 11
348.49580761544189
 21
-198.8659310817558
 31
0.0
  0
LINE
  5
181
  8
DATA
  6
CONTINUOUS
 62
     7
 10
348.49580761544189
 20
-198.8659310817558
 30
0.0
 11
348.49580761544189
 21
-199.65108660277281
 31
0.0
  0
LINE
  5
182
  8
DATA
  6
CONTINUOUS
 62
     7
 10
344.995807615442
 20
-198.8659310817558
 30
0.0
 11
344.995807615442
 21
-199.65108660277281
 31
0.0
  0
LINE
  5
183
  8
DATA
  6
CONTINUOUS
 62
     7
 10
348.49580761544189
 20
-206.558276709739
 30
0.0
 11
348.49580761544189
 21
-204.8010866027729
 31
0.0
  0
LINE
  5
184
  8
DATA
  6
CONTINUOUS
 62
     7
 10
345.00425016407598
 20
-204.8010866027729
 30
0.0
 11
345.00425016407598
 21
-208.49085037906929
 31
0.0
  0
LINE
  5
185
  8
DATA
  6
CONTINUOUS
 62
     7
 10
333.49580761544172
 20
-204.058276709739
 30
0.0
 11
343.69791213717519
 21
-204.5801586389355
 31
0.0
  0
LINE
  5
186
  8
DATA
  6
CONTINUOUS
 62
     7
 10
348.49580761544189
 20
-206.558276709739
 30
0.0
 11
348.49580761544189
 21
-208.85362642097161
 31
0.0
  0
LINE
  5
187
  8
DATA
  6
CONTINUOUS
 62
     7
 10
348.49580761544189
 20
-195.0051204558988
 30
0.0
 11
333.85682030548048
 21
-197.0596952928006
 31
0.0
  0
LINE
  5
188
  8
DATA
  6
CONTINUOUS
 62
     7
 10
332.99580761544172
 20
-201.65827670973911
 30
0.0
 11
332.99580761544172
 21
-198.04998945499159
 31
0.0
  0
LINE
  5
189
  8
DATA
  6
CONTINUOUS
 62
     7
 10
348.49580761544189
 20
-195.50343017411461
 30
0.0
 11
348.49580761544189
 21
-195.0051204558988
 31
0.0
  0
ARC
  5
18A
  8
DATA
  6
CONTINUOUS
 62
     7
 10
333.99580761544172
 20
-198.04998945499159
 30
0.0
 40
1.000000000000085
 50
97.989250486650405
 51
180.0
  0
ARC
  5
18B
  8
DATA
  6
CONTINUOUS
 62
     7
 10
333.49580761544172
 20
-201.65827670973911
 30
0.0
 40
0.5
 50
180.0
 51
270.0
  0
LINE
  5
18C
  8
DATA
  6
CONTINUOUS
 62
     7
 10
343.41704635360162
 20
-199.73053144057241
 30
0.0
 11
343.73096417895169
 21
-199.713833057275
 31
0.0
  0
LINE
  5
18D
  8
DATA
  6
CONTINUOUS
 62
     7
 10
344.995807615442
 20
-208.48967307838541
 30
0.0
 11
348.49580761544189
 21
-208.85362642097161
 31
0.0
  0
LINE
  5
18E
  8
DATA
  6
CONTINUOUS
 62
     7
 10
345.00425016407598
 20
-204.8010866027729
 30
0.0
 11
345.00425016407598
 21
-199.53741646409759
 31
0.0
  0
LINE
  5
18F
  8
DATA
  6
CONTINUOUS
 62
     7
 10
348.49580761544189
 20
-204.8010866027729
 30
0.0
 11
348.49580761544189
 21
-199.53741646409759
 31
0.0
  0
LINE
  5
190
  8
DATA
  6
CONTINUOUS
 62
     7
 10
343.73096417895169
 20
-199.713833057275
 30
0.0
 11
344.995807615442
 21
-199.64655162624999
 31
0.0
  0
LINE
  5
191
  8
DATA
  6
CONTINUOUS
 62
     7
 10
343.69791213717519
 20
-204.5801586389355
 30
0.0
 11
345.00425016407598
 21
-204.64698349925811
 31
0.0
  0
LINE
  5
192
  8
DATA
  6
CONTINUOUS
 62
     7
 10
-170.649474983799
 20
-76.452407073418513
 30
0.0
 11
-172.5765828199321
 21
-76.452407073418513
 31
0.0
  0
LINE
  5
193
  8
DATA
  6
CONTINUOUS
 62
     7
 10
-172.5765828199321
 20
-76.452407073418513
 30
0.0
 11
-172.27658281993209
 21
-79.952407073418513
 31
0.0
  0
LINE
  5
194
  8
DATA
  6
CONTINUOUS
 62
     7
 10
-172.27658281993209
 20
-79.952407073418513
 30
0.0
 11
-170.649474983799
 21
-91.452407073418684
 31
0.0
  0
LINE
  5
195
  8
DATA
  6
CONTINUOUS
 62
     7
 10
-159.59033991566059
 20
-79.952407073418513
 30
0.0
 11
-161.19399758481541
 21
-91.452407073418684
 31
0.0
  0
LINE
  5
196
  8
DATA
  6
CONTINUOUS
 62
     7
 10
-161.19399758481541
 20
-76.452407073418513
 30
0.0
 11
-170.649474983799
 21
-76.452407073418513
 31
0.0
  0
LINE
  5
197
  8
DATA
  6
CONTINUOUS
 62
     7
 10
-159.2668897486823
 20
-76.452407073418513
 30
0.0
 11
-159.5668897486824
 21
-79.952407073418513
 31
0.0
  0
LINE
  5
198
  8
DATA
  6
CONTINUOUS
 62
     7
 10
-161.19399758481541
 20
-76.452407073418513
 30
0.0
 11
-159.2668897486823
 21
-76.452407073418513
 31
0.0
  0
LINE
  5
199
  8
DATA
  6
CONTINUOUS
 62
     7
 10
-167.82173628430741
 20
-91.452407073418712
 30
0.0
 11
-168.4334613677965
 21
-79.952407073418442
 31
0.0
  0
LINE
  5
19A
  8
DATA
  6
CONTINUOUS
 62
     7
 10
-169.52173628430739
 20
-91.452407073418712
 30
0.0
 11
-170.13346136779651
 21
-79.952407073418442
 31
0.0
  0
LINE
  5
19B
  8
DATA
  6
CONTINUOUS
 62
     7
 10
-164.0217362843072
 20
-91.452407073418712
 30
0.0
 11
-163.4334613677961
 21
-79.952407073418442
 31
0.0
  0
LINE
  5
19C
  8
DATA
  6
CONTINUOUS
 62
     7
 10
-162.32173628430701
 20
-91.452407073418712
 30
0.0
 11
-161.73346136779611
 21
-79.952407073418442
 31
0.0
  0
LINE
  5
19D
  8
DATA
  6
CONTINUOUS
 62
     7
 10
-165.2717362843072
 20
-79.952407073418513
 30
0.0
 11
-159.5668897486824
 21
-79.952407073418513
 31
0.0
  0
LINE
  5
19E
  8
DATA
  6
CONTINUOUS
 62
     7
 10
-166.57173628430721
 20
-79.952407073418513
 30
0.0
 11
-172.27658281993209
 21
-79.952407073418513
 31
0.0
  0
LINE
  5
19F
  8
DATA
  6
CONTINUOUS
 62
     7
 10
-165.2717362843072
 20
-91.452407073418684
 30
0.0
 11
-161.19399758481541
 21
-91.452407073418684
 31
0.0
  0
LINE
  5
1A0
  8
DATA
  6
CONTINUOUS
 62
     7
 10
-166.57173628430721
 20
-91.452407073418684
 30
0.0
 11
-170.64947498379891
 21
-91.452407073418684
 31
0.0
  0
LINE
  5
1A1
  8
DATA
  6
CONTINUOUS
 62
     7
 10
-166.57173628430721
 20
-79.952407073418513
 30
0.0
 11
-172.27658281993209
 21
-79.952407073418513
 31
0.0
  0
LINE
  5
1A2
  8
DATA
  6
CONTINUOUS
 62
     7
 10
-165.2717362843072
 20
-79.952407073418513
 30
0.0
 11
-159.5668897486824
 21
-79.952407073418513
 31
0.0
  0
LINE
  5
1A3
  8
DATA
  6
CONTINUOUS
 62
     7
 10
-166.57173628430721
 20
-91.452407073418684
 30
0.0
 11
-170.649474983799
 21
-91.452407073418684
 31
0.0
  0
LINE
  5
1A4
  8
DATA
  6
CONTINUOUS
 62
     7
 10
-165.2717362843072
 20
-91.452407073418684
 30
0.0
 11
-161.19399758481541
 21
-91.452407073418684
 31
0.0
  0
ARC
  5
1A5
  8
DATA
  6
CONTINUOUS
 62
     7
 10
-165.9217362843072
 20
-91.027507588309589
 30
0.0
 40
0.924899485108996
 50
225.34960338822449
 51
314.65039661177542
  0
LINE
  5
1A6
  8
DATA
  6
CONTINUOUS
 62
     7
 10
-166.57173628430721
 20
-91.685488634810866
 30
0.0
 11
-166.57173628430721
 21
-76.452407073418513
 31
0.0
  0
LINE
  5
1A7
  8
DATA
  6
CONTINUOUS
 62
     7
 10
-165.2717362843072
 20
-91.685488634810866
 30
0.0
 11
-165.2717362843072
 21
-76.452407073418513
 31
0.0
  0
LINE
  5
1A8
  8
DATA
  6
CONTINUOUS
 62
     7
 10
-170.30095320947461
 20
-75.94521739755011
 30
0.0
 11
-170.30095320947461
 21
-76.45587736174997
 31
0.0
  0
LINE
  5
1A9
  8
DATA
  6
CONTINUOUS
 62
     7
 10
-161.50095320947429
 20
-74.998085900527272
 30
0.0
 11
-161.50095320947429
 21
-76.452407073418513
 31
0.0
  0
LINE
  5
1AA
  8
DATA
  6
CONTINUOUS
 62
     7
 10
-170.30095320947461
 20
-75.94521739755011
 30
0.0
 11
-170.30095320947461
 21
-74.998085900527272
 31
0.0
  0
CIRCLE
  5
1AB
  8
DATA
  6
CONTINUOUS
 62
     7
 10
16.9587024265455
 20
-220.15977946335241
 30
0.0
 40
2.8000000000000238
  0
LINE
  5
1AC
  8
DATA
  6
CONTINUOUS
 62
     7
 10
17.65870242654551
 20
-221.43515276732191
 30
0.0
 11
18.35870242654552
 21
-220.22271720202349
 31
0.0
  0
LINE
  5
1AD
  8
DATA
  6
CONTINUOUS
 62
     7
 10
16.258702426545479
 20
-221.43515276732191
 30
0.0
 11
17.65870242654551
 21
-221.43515276732191
 31
0.0
  0
LINE
  5
1AE
  8
DATA
  6
CONTINUOUS
 62
     7
 10
15.558702426545491
 20
-220.22271720202349
 30
0.0
 11
16.258702426545479
 21
-221.43515276732191
 31
0.0
  0
LINE
  5
1AF
  8
DATA
  6
CONTINUOUS
 62
     7
 10
16.258702426545511
 20
-219.01028163672541
 30
0.0
 11
15.558702426545491
 21
-220.22271720202349
 31
0.0
  0
LINE
  5
1B0
  8
DATA
  6
CONTINUOUS
 62
     7
 10
17.65870242654551
 20
-219.01028163672541
 30
0.0
 11
16.258702426545511
 21
-219.01028163672541
 31
0.0
  0
LINE
  5
1B1
  8
DATA
  6
CONTINUOUS
 62
     7
 10
18.35870242654552
 20
-220.22271720202349
 30
0.0
 11
17.65870242654551
 21
-219.01028163672541
 31
0.0
  0
LINE
  5
1B2
  8
DATA
  6
CONTINUOUS
 62
     7
 10
346.99999999974
 20
-222.7035746035892
 30
0.0
 11
346.99999999974
 21
-218.0035746035891
 31
0.0
  0
ARC
  5
1B3
  8
DATA
  6
CONTINUOUS
 62
     7
 10
347.49999999974011
 20
-222.7035746035892
 30
0.0
 40
0.5
 50
180.0
 51
270.0
  0
LINE
  5
1B4
  8
DATA
  6
CONTINUOUS
 62
     7
 10
349.99999999974011
 20
-223.20357460358909
 30
0.0
 11
347.49999999974011
 21
-223.20357460358909
 31
0.0
  0
LINE
  5
1B5
  8
DATA
  6
CONTINUOUS
 62
     7
 10
349.99999999974011
 20
-217.5035746035891
 30
0.0
 11
349.99999999974011
 21
-223.20357460358909
 31
0.0
  0
LINE
  5
1B6
  8
DATA
  6
CONTINUOUS
 62
     7
 10
347.49999999974011
 20
-217.5035746035891
 30
0.0
 11
349.99999999974011
 21
-217.5035746035891
 31
0.0
  0
ARC
  5
1B7
  8
DATA
  6
CONTINUOUS
 62
     7
 10
347.49999999974011
 20
-218.0035746035891
 30
0.0
 40
0.5
 50
90.0
 51
180.0
  0
LINE
  5
1B8
  8
DATA
  6
CONTINUOUS
 62
     7
 10
-196.69999999966109
 20
240.00000000020731
 30
0.0
 11
-196.69999999966109
 21
245.00000000020739
 31
0.0
  0
LINE
  5
1B9
  8
DATA
  6
CONTINUOUS
 62
     7
 10
230.70000000033801
 20
240.00000000020731
 30
0.0
 11
230.70000000033801
 21
245.00000000020739
 31
0.0
  0
ARC
  5
1BA
  8
DATA
  6
CONTINUOUS
 62
     7
 10
-133.09792833783851
 20
-202.59490317055241
 30
0.0
 40
4.7500000000006839
 50
98.302906098069144
 51
78.905036031995891
  0
ARC
  5
1BB
  8
DATA
  6
CONTINUOUS
 62
     7
 10
-133.09792833783871
 20
-202.5949031705525
 30
0.0
 40
6.2500000000008802
 50
96.300838472253588
 51
81.590263166658033
  0
LINE
  5
1BC
  8
DATA
  6
CONTINUOUS
 62
     7
 10
-133.08385869286869
 20
-195.37856906325359
 30
0.0
 11
-132.8838586928689
 21
-195.37856906325359
 31
0.0
  0
ARC
  5
1BD
  8
DATA
  6
CONTINUOUS
 62
     7
 10
-133.08385869286869
 20
-196.07856906325401
 30
0.0
 40
0.7000000000002729
 50
90.0
 51
179.99999999997209
  0
LINE
  5
1BE
  8
DATA
  6
CONTINUOUS
 62
     7
 10
-133.78385869286899
 20
-201.83856906325369
 30
0.0
 11
-133.7838586928689
 21
-196.0785690632537
 31
0.0
  0
ARC
  5
1BF
  8
DATA
  6
CONTINUOUS
 62
     7
 10
-133.08385869286909
 20
-201.83856906325369
 30
0.0
 40
0.6999999999999318
 50
180.0
 51
270.00000000000921
  0
LINE
  5
1C0
  8
DATA
  6
CONTINUOUS
 62
     7
 10
-132.8838586928689
 20
-202.5385690632537
 30
0.0
 11
-133.0838586928688
 21
-202.5385690632537
 31
0.0
  0
ARC
  5
1C1
  8
DATA
  6
CONTINUOUS
 62
     7
 10
-132.8838586928689
 20
-201.83856906325369
 30
0.0
 40
0.6999999999999318
 50
270.0
 51
0.0
  0
LINE
  5
1C2
  8
DATA
  6
CONTINUOUS
 62
     7
 10
-132.1838586928688
 20
-196.0785690632537
 30
0.0
 11
-132.1838586928688
 21
-201.83856906325369
 31
0.0
  0
ARC
  5
1C3
  8
DATA
  6
CONTINUOUS
 62
     7
 10
-132.8838586928689
 20
-196.0785690632537
 30
0.0
 40
0.7000000000000455
 50
0.0
 51
90.0
  0
LINE
  5
1C4
  8
DATA
  6
CONTINUOUS
 62
     7
 10
-137.78007528128541
 20
-201.79490317055229
 30
0.0
 11
-139.29651688685581
 21
-201.79490317055229
 31
0.0
  0
LINE
  5
1C5
  8
DATA
  6
CONTINUOUS
 62
     7
 10
-137.78007528128541
 20
-203.39490317055231
 30
0.0
 11
-139.29651688685581
 21
-203.39490317055231
 31
0.0
  0
LINE
  5
1C6
  8
DATA
  6
CONTINUOUS
 62
     7
 10
-128.41578139439139
 20
-201.79490317055229
 30
0.0
 11
-126.89933978882109
 21
-201.79490317055229
 31
0.0
  0
LINE
  5
1C7
  8
DATA
  6
CONTINUOUS
 62
     7
 10
-128.41578139439139
 20
-203.39490317055231
 30
0.0
 11
-126.89933978882109
 21
-203.39490317055231
 31
0.0
  0
LINE
  5
1C8
  8
DATA
  6
CONTINUOUS
 62
     7
 10
-136.9743916170076
 20
-199.84981074128191
 30
0.0
 11
-138.04667775958319
 21
-198.77752459870641
 31
0.0
  0
LINE
  5
1C9
  8
DATA
  6
CONTINUOUS
 62
     7
 10
-135.8430207671135
 20
-198.71843989137901
 30
0.0
 11
-136.9153069096846
 21
-197.6461537488081
 31
0.0
  0
LINE
  5
1CA
  8
DATA
  6
CONTINUOUS
 62
     7
 10
-130.3528359085677
 20
-198.71843989138341
 30
0.0
 11
-129.2805497659923
 21
-197.6461537488081
 31
0.0
  0
LINE
  5
1CB
  8
DATA
  6
CONTINUOUS
 62
     7
 10
-128.1491789160936
 20
-198.77752459870669
 30
0.0
 11
-129.22146505866471
 21
-199.84981074127771
 31
0.0
  0
LINE
  5
1CC
  8
DATA
  6
CONTINUOUS
 62
     7
 10
-128.1491789160936
 20
-206.41228174239799
 30
0.0
 11
-129.22146505866471
 21
-205.33999559982701
 31
0.0
  0
LINE
  5
1CD
  8
DATA
  6
CONTINUOUS
 62
     7
 10
-129.2805497659923
 20
-207.5436525922965
 30
0.0
 11
-130.3528359085677
 21
-206.47136644972119
 31
0.0
  0
ARC
  5
1CE
  8
DATA
  6
CONTINUOUS
 62
     7
 10
-133.16634609938271
 20
-202.46039801474521
 30
0.0
 40
6.8399999999999883
 50
93.853979695463693
 51
240.88271410567049
  0
ARC
  5
1CF
  8
DATA
  6
CONTINUOUS
 62
     7
 10
-133.16634609938271
 20
-202.46039801474521
 30
0.0
 40
6.840000000000261
 50
300.65928338484781
 51
82.830667981081575
  0
LINE
  5
1D0
  8
DATA
  6
CONTINUOUS
 62
     7
 10
-125.31292833783741
 20
-202.5307454864753
 30
0.0
 11
-126.3267078609058
 21
-202.5307454864753
 31
0.0
  0
LINE
  5
1D1
  8
DATA
  6
CONTINUOUS
 62
     7
 10
-136.4946830656053
 20
-208.43599614708731
 30
0.0
 11
-136.96794814386109
 21
-209.28568232562881
 31
0.0
  0
LINE
  5
1D2
  8
DATA
  6
CONTINUOUS
 62
     7
 10
-137.91159539118451
 20
-207.3866754286405
 30
0.0
 11
-138.56898079906421
 21
-208.06913965505271
 31
0.0
  0
LINE
  5
1D3
  8
DATA
  6
CONTINUOUS
 62
     7
 10
-139.0394018233722
 20
-205.96650931688009
 30
0.0
 11
-139.8375738582009
 21
-206.427334156048
 31
0.0
  0
LINE
  5
1D4
  8
DATA
  6
CONTINUOUS
 62
     7
 10
-139.7130375594711
 20
-204.44192039069961
 30
0.0
 11
-140.57387738167489
 21
-204.7024754176484
 31
0.0
  0
LINE
  5
1D5
  8
DATA
  6
CONTINUOUS
 62
     7
 10
-140.0059843378595
 20
-202.5307454864753
 30
0.0
 11
-140.8829283378376
 21
-202.5307454864753
 31
0.0
  0
LINE
  5
1D6
  8
DATA
  6
CONTINUOUS
 62
     7
 10
-139.77376125867019
 20
-200.69187747122879
 30
0.0
 11
-140.63038225325141
 21
-200.56393003702539
 31
0.0
  0
LINE
  5
1D7
  8
DATA
  6
CONTINUOUS
 62
     7
 10
-139.10975118957899
 20
-199.07490899041761
 30
0.0
 11
-139.84502593588809
 21
-198.6470746710755
 31
0.0
  0
LINE
  5
1D8
  8
DATA
  6
CONTINUOUS
 62
     7
 10
-138.079424768785
 20
-197.70148448451411
 30
0.0
 11
-138.67834606173491
 21
-197.10256319156429
 31
0.0
  0
LINE
  5
1D9
  8
DATA
  6
CONTINUOUS
 62
     7
 10
-136.6200433876142
 20
-196.55636760822111
 30
0.0
 11
-137.0449054480647
 21
-195.82048493331271
 31
0.0
  0
LINE
  5
1DA
  8
DATA
  6
CONTINUOUS
 62
     7
 10
-134.7821601256245
 20
-195.8139895836367
 30
0.0
 11
-134.98539398641171
 21
-194.9780176067348
 31
0.0
  0
LINE
  5
1DB
  8
DATA
  6
CONTINUOUS
 62
     7
 10
-131.17408949595151
 20
-195.9169651522391
 30
0.0
 11
-130.91277882945019
 21
-195.0587078376121
 31
0.0
  0
LINE
  5
1DC
  8
DATA
  6
CONTINUOUS
 62
     7
 10
-129.63534868405969
 20
-196.6022705619707
 30
0.0
 11
-129.16068177719751
 21
-195.81477090933831
 31
0.0
  0
LINE
  5
1DD
  8
DATA
  6
CONTINUOUS
 62
     7
 10
-128.3050591166791
 20
-197.64859077923199
 30
0.0
 11
-127.652866572598
 21
-196.97849771140611
 31
0.0
  0
LINE
  5
1DE
  8
DATA
  6
CONTINUOUS
 62
     7
 10
-127.1511615742729
 20
-199.20414938650649
 30
0.0
 11
-126.30700417368941
 21
-198.7242281810156
 31
0.0
  0
LINE
  5
1DF
  8
DATA
  6
CONTINUOUS
 62
     7
 10
-126.55589746166321
 20
-200.70325009607279
 30
0.0
 11
-125.5733630323582
 21
-200.53396258302899
 31
0.0
  0
LINE
  5
1E0
  8
DATA
  6
CONTINUOUS
 62
     7
 10
-125.64769964243111
 20
-204.57635288822431
 30
0.0
 11
-126.5839707917691
 21
-204.319950463514
 31
0.0
  0
LINE
  5
1E1
  8
DATA
  6
CONTINUOUS
 62
     7
 10
-127.26882046358971
 20
-205.92519113629831
 30
0.0
 11
-126.3724814235579
 21
-206.45178983756259
 31
0.0
  0
LINE
  5
1E2
  8
DATA
  6
CONTINUOUS
 62
     7
 10
-127.5175106139415
 20
-207.95892778138651
 30
0.0
 11
-128.2551667669623
 21
-207.2212716283658
 31
0.0
  0
LINE
  5
1E3
  8
DATA
  6
CONTINUOUS
 62
     7
 10
-129.150951227615
 20
-209.24100603963291
 30
0.0
 11
-129.6784129670323
 21
-208.3442676992604
 31
0.0
  0
LINE
  5
1E4
  8
DATA
  6
CONTINUOUS
 62
     7
 10
-132.9686834091591
 20
-195.37856906325359
 30
0.0
 11
-132.9686834091591
 21
-194.60625464482081
 31
0.0
  0
TEXT
  5
1E5
  8
DATA
 62
     7
 10
-138.92086168482359
 20
-211.61729378977199
 30
0.0
 40
1.5390625
  1
45
 41
0.7
 11
-138.92086168482359
 21
-210.07823128977199
 31
0.0
 73
     3
  0
TEXT
  5
1E6
  8
DATA
 62
     7
 10
-129.40727158641701
 20
-211.56840970317941
 30
0.0
 40
1.5390625
  1
960
 41
0.7
 11
-129.40727158641701
 21
-210.02934720317941
 31
0.0
 73
     3
  0
LINE
  5
1E7
  8
DATA
  6
CONTINUOUS
 62
     7
 10
-136.88040750445711
 20
-205.45747235478649
 30
0.0
 11
-137.91797455306391
 21
-206.56338815753281
 31
0.0
  0
LINE
  5
1E8
  8
DATA
  6
CONTINUOUS
 62
     7
 10
-136.7511209941209
 20
-207.65812683501809
 30
0.0
 11
-135.7135539455183
 21
-206.5522110322764
 31
0.0
  0
LINE
  5
1E9
  8
DATA
  6
CONTINUOUS
 62
     7
 10
-133.78385869286899
 20
-207.29511588361649
 30
0.0
 11
-133.78385869286899
 21
-208.80714910483809
 31
0.0
  0
LINE
  5
1EA
  8
DATA
  6
CONTINUOUS
 62
     7
 10
-132.1838586928688
 20
-207.25612368498281
 30
0.0
 11
-132.1838586928688
 21
-208.777700004037
 31
0.0
  0
ARC
  5
1EB
  8
DATA
  6
CONTINUOUS
 62
     7
 10
-82.132222218666371
 20
-202.5949031705521
 30
0.0
 40
4.7499999999998943
 50
98.302906098070224
 51
78.905036031998861
  0
ARC
  5
1EC
  8
DATA
  6
CONTINUOUS
 62
     7
 10
-82.132222218666442
 20
-202.5949031705521
 30
0.0
 40
6.2500000000000044
 50
96.300838472256842
 51
81.590263166659895
  0
LINE
  5
1ED
  8
DATA
  6
CONTINUOUS
 62
     7
 10
-82.118152573696733
 20
-195.37856906325359
 30
0.0
 11
-81.918152573696943
 21
-195.37856906325359
 31
0.0
  0
ARC
  5
1EE
  8
DATA
  6
CONTINUOUS
 62
     7
 10
-82.118152573696733
 20
-196.0785690632537
 30
0.0
 40
0.7000000000000455
 50
90.0
 51
179.99999999999071
  0
LINE
  5
1EF
  8
DATA
  6
CONTINUOUS
 62
     7
 10
-82.818152573696906
 20
-201.83856906325369
 30
0.0
 11
-82.818152573696764
 21
-196.0785690632537
 31
0.0
  0
ARC
  5
1F0
  8
DATA
  6
CONTINUOUS
 62
     7
 10
-82.118152573696975
 20
-201.83856906325369
 30
0.0
 40
0.6999999999999318
 50
180.0
 51
270.0
  0
LINE
  5
1F1
  8
DATA
  6
CONTINUOUS
 62
     7
 10
-81.918152573696943
 20
-202.5385690632537
 30
0.0
 11
-82.118152573696861
 21
-202.5385690632537
 31
0.0
  0
ARC
  5
1F2
  8
DATA
  6
CONTINUOUS
 62
     7
 10
-81.918152573696943
 20
-201.83856906325369
 30
0.0
 40
0.6999999999999318
 50
270.0
 51
0.0
  0
LINE
  5
1F3
  8
DATA
  6
CONTINUOUS
 62
     7
 10
-81.218152573696983
 20
-196.0785690632537
 30
0.0
 11
-81.218152573696983
 21
-201.83856906325369
 31
0.0
  0
ARC
  5
1F4
  8
DATA
  6
CONTINUOUS
 62
     7
 10
-81.918152573697043
 20
-196.0785690632537
 30
0.0
 40
0.7000000000000455
 50
0.0
 51
89.999999999990649
  0
LINE
  5
1F5
  8
DATA
  6
CONTINUOUS
 62
     7
 10
-86.814369162112939
 20
-201.79490317055229
 30
0.0
 11
-88.330810767683147
 21
-201.79490317055229
 31
0.0
  0
LINE
  5
1F6
  8
DATA
  6
CONTINUOUS
 62
     7
 10
-86.814369162112939
 20
-203.39490317055231
 30
0.0
 11
-88.330810767683147
 21
-203.39490317055231
 31
0.0
  0
LINE
  5
1F7
  8
DATA
  6
CONTINUOUS
 62
     7
 10
-77.450075275219959
 20
-201.79490317055229
 30
0.0
 11
-75.933633669649893
 21
-201.79490317055229
 31
0.0
  0
LINE
  5
1F8
  8
DATA
  6
CONTINUOUS
 62
     7
 10
-77.450075275219959
 20
-203.39490317055231
 30
0.0
 11
-75.933633669649893
 21
-203.39490317055231
 31
0.0
  0
LINE
  5
1F9
  8
DATA
  6
CONTINUOUS
 62
     7
 10
-86.008685497835231
 20
-199.84981074128191
 30
0.0
 11
-87.080971640410652
 21
-198.77752459870641
 31
0.0
  0
LINE
  5
1FA
  8
DATA
  6
CONTINUOUS
 62
     7
 10
-84.877314647941247
 20
-198.71843989137901
 30
0.0
 11
-85.949600790512122
 21
-197.6461537488081
 31
0.0
  0
LINE
  5
1FB
  8
DATA
  6
CONTINUOUS
 62
     7
 10
-79.387129789396099
 20
-198.71843989138341
 30
0.0
 11
-78.31484364682079
 21
-197.6461537488081
 31
0.0
  0
LINE
  5
1FC
  8
DATA
  6
CONTINUOUS
 62
     7
 10
-77.18347279692226
 20
-198.77752459870669
 30
0.0
 11
-78.255758939493234
 21
-199.84981074127771
 31
0.0
  0
LINE
  5
1FD
  8
DATA
  6
CONTINUOUS
 62
     7
 10
-77.18347279692226
 20
-206.41228174239799
 30
0.0
 11
-78.255758939493234
 21
-205.33999559982701
 31
0.0
  0
LINE
  5
1FE
  8
DATA
  6
CONTINUOUS
 62
     7
 10
-78.31484364682079
 20
-207.5436525922965
 30
0.0
 11
-79.387129789396099
 21
-206.47136644972119
 31
0.0
  0
ARC
  5
1FF
  8
DATA
  6
CONTINUOUS
 62
     7
 10
-82.200639980210752
 20
-202.46039801474521
 30
0.0
 40
6.8399999999999812
 50
93.853979695462783
 51
240.8827141056729
  0
ARC
  5
200
  8
DATA
  6
CONTINUOUS
 62
     7
 10
-82.200639980210752
 20
-202.46039801474521
 30
0.0
 40
6.840000000000086
 50
300.6592833848452
 51
82.830667981082513
  0
LINE
  5
201
  8
DATA
  6
CONTINUOUS
 62
     7
 10
-74.347222218666374
 20
-202.5307454864753
 30
0.0
 11
-75.361001741734626
 21
-202.5307454864753
 31
0.0
  0
LINE
  5
202
  8
DATA
  6
CONTINUOUS
 62
     7
 10
-85.528976946432948
 20
-208.43599614708731
 30
0.0
 11
-86.002242024688698
 21
-209.28568232562881
 31
0.0
  0
LINE
  5
203
  8
DATA
  6
CONTINUOUS
 62
     7
 10
-86.945889272011968
 20
-207.3866754286405
 30
0.0
 11
-87.603274679891683
 21
-208.06913965505271
 31
0.0
  0
LINE
  5
204
  8
DATA
  6
CONTINUOUS
 62
     7
 10
-88.073695704199636
 20
-205.96650931688009
 30
0.0
 11
-88.871867739028147
 21
-206.427334156048
 31
0.0
  0
LINE
  5
205
  8
DATA
  6
CONTINUOUS
 62
     7
 10
-88.747331440298353
 20
-204.44192039069961
 30
0.0
 11
-89.608171262502083
 21
-204.7024754176484
 31
0.0
  0
LINE
  5
206
  8
DATA
  6
CONTINUOUS
 62
     7
 10
-89.040278218686794
 20
-202.5307454864753
 30
0.0
 11
-89.917222218664719
 21
-202.5307454864753
 31
0.0
  0
LINE
  5
207
  8
DATA
  6
CONTINUOUS
 62
     7
 10
-88.808055139497455
 20
-200.69187747122879
 30
0.0
 11
-89.664676134078604
 21
-200.56393003702539
 31
0.0
  0
LINE
  5
208
  8
DATA
  6
CONTINUOUS
 62
     7
 10
-88.144045070406378
 20
-199.07490899041761
 30
0.0
 11
-88.879319816715324
 21
-198.6470746710755
 31
0.0
  0
LINE
  5
209
  8
DATA
  6
CONTINUOUS
 62
     7
 10
-87.113718649612451
 20
-197.70148448451411
 30
0.0
 11
-87.712639942562276
 21
-197.10256319156429
 31
0.0
  0
LINE
  5
20A
  8
DATA
  6
CONTINUOUS
 62
     7
 10
-85.654337268441807
 20
-196.55636760822111
 30
0.0
 11
-86.079199328892273
 21
-195.82048493331271
 31
0.0
  0
LINE
  5
20B
  8
DATA
  6
CONTINUOUS
 62
     7
 10
-83.81645400645229
 20
-195.8139895836367
 30
0.0
 11
-84.019687867239554
 21
-194.9780176067348
 31
0.0
  0
LINE
  5
20C
  8
DATA
  6
CONTINUOUS
 62
     7
 10
-80.208383376779793
 20
-195.9169651522391
 30
0.0
 11
-79.947072710278434
 21
-195.0587078376121
 31
0.0
  0
LINE
  5
20D
  8
DATA
  6
CONTINUOUS
 62
     7
 10
-78.669642564888221
 20
-196.6022705619707
 30
0.0
 11
-78.194975658025982
 21
-195.81477090933831
 31
0.0
  0
LINE
  5
20E
  8
DATA
  6
CONTINUOUS
 62
     7
 10
-77.339352997507703
 20
-197.64859077923199
 30
0.0
 11
-76.687160453426685
 21
-196.97849771140611
 31
0.0
  0
LINE
  5
20F
  8
DATA
  6
CONTINUOUS
 62
     7
 10
-76.185455455101618
 20
-199.20414938650649
 30
0.0
 11
-75.341298054518219
 21
-198.7242281810156
 31
0.0
  0
LINE
  5
210
  8
DATA
  6
CONTINUOUS
 62
     7
 10
-75.590191342492034
 20
-200.70325009607279
 30
0.0
 11
-74.607656913187142
 21
-200.53396258302899
 31
0.0
  0
LINE
  5
211
  8
DATA
  6
CONTINUOUS
 62
     7
 10
-74.681993523260061
 20
-204.57635288822431
 30
0.0
 11
-75.618264672597974
 21
-204.319950463514
 31
0.0
  0
LINE
  5
212
  8
DATA
  6
CONTINUOUS
 62
     7
 10
-76.303114344418404
 20
-205.92519113629831
 30
0.0
 11
-75.406775304386755
 21
-206.45178983756259
 31
0.0
  0
LINE
  5
213
  8
DATA
  6
CONTINUOUS
 62
     7
 10
-76.55180449477028
 20
-207.95892778138651
 30
0.0
 11
-77.28946064779096
 21
-207.2212716283658
 31
0.0
  0
LINE
  5
214
  8
DATA
  6
CONTINUOUS
 62
     7
 10
-78.185245108443496
 20
-209.24100603963291
 30
0.0
 11
-78.712706847860645
 21
-208.3442676992604
 31
0.0
  0
LINE
  5
215
  8
DATA
  6
CONTINUOUS
 62
     7
 10
-82.002977289987143
 20
-195.37856906325359
 30
0.0
 11
-82.002977289987143
 21
-194.60625464482081
 31
0.0
  0
TEXT
  5
216
  8
DATA
 62
     7
 10
-89.248703441536904
 20
-211.761293789772
 30
0.0
 40
1.846875
  1
-∞
 41
0.7
 11
-89.248703441536904
 21
-209.91441878977199
 31
0.0
 73
     3
  0
TEXT
  5
217
  8
DATA
 62
     7
 10
-78.166948597460191
 20
-211.56840970317941
 30
0.0
 40
1.5390625
  1
+6
 41
0.7
 11
-78.166948597460191
 21
-210.02934720317941
 31
0.0
 73
     3
  0
LINE
  5
218
  8
DATA
  6
CONTINUOUS
 62
     7
 10
-85.914701385284715
 20
-205.45747235478649
 30
0.0
 11
-86.952268433891376
 21
-206.56338815753281
 31
0.0
  0
LINE
  5
219
  8
DATA
  6
CONTINUOUS
 62
     7
 10
-85.785414874948515
 20
-207.65812683501809
 30
0.0
 11
-84.747847826346046
 21
-206.5522110322764
 31
0.0
  0
LINE
  5
21A
  8
DATA
  6
CONTINUOUS
 62
     7
 10
-82.818152573696906
 20
-207.29511588361649
 30
0.0
 11
-82.818152573696906
 21
-208.80714910483809
 31
0.0
  0
LINE
  5
21B
  8
DATA
  6
CONTINUOUS
 62
     7
 10
-81.218152573696983
 20
-207.25612368498281
 30
0.0
 11
-81.218152573696983
 21
-208.777700004037
 31
0.0
  0
ARC
  5
21C
  8
DATA
  6
CONTINUOUS
 62
     7
 10
-49.124202452160041
 20
-202.5949031705521
 30
0.0
 40
4.7499999999998961
 50
98.302906098070494
 51
78.905036031999231
  0
ARC
  5
21D
  8
DATA
  6
CONTINUOUS
 62
     7
 10
-49.124202452160361
 20
-202.59490317055241
 30
0.0
 40
6.2500000000001483
 50
96.300838472254597
 51
81.590263166658076
  0
LINE
  5
21E
  8
DATA
  6
CONTINUOUS
 62
     7
 10
-49.110132807190453
 20
-195.37856906325359
 30
0.0
 11
-48.910132807190642
 21
-195.37856906325359
 31
0.0
  0
ARC
  5
21F
  8
DATA
  6
CONTINUOUS
 62
     7
 10
-49.110132807190453
 20
-196.0785690632537
 30
0.0
 40
0.7000000000000455
 50
90.0
 51
179.99999999999071
  0
LINE
  5
220
  8
DATA
  6
CONTINUOUS
 62
     7
 10
-49.810132807190612
 20
-201.83856906325369
 30
0.0
 11
-49.810132807190499
 21
-196.0785690632537
 31
0.0
  0
ARC
  5
221
  8
DATA
  6
CONTINUOUS
 62
     7
 10
-49.110132807190638
 20
-201.83856906325369
 30
0.0
 40
0.6999999999999602
 50
180.0
 51
270.00000000000239
  0
LINE
  5
222
  8
DATA
  6
CONTINUOUS
 62
     7
 10
-48.910132807190642
 20
-202.5385690632537
 30
0.0
 11
-49.110132807190567
 21
-202.5385690632537
 31
0.0
  0
ARC
  5
223
  8
DATA
  6
CONTINUOUS
 62
     7
 10
-48.910132807190642
 20
-201.83856906325369
 30
0.0
 40
0.6999999999999318
 50
270.0
 51
0.0
  0
LINE
  5
224
  8
DATA
  6
CONTINUOUS
 62
     7
 10
-48.210132807190703
 20
-196.0785690632537
 30
0.0
 11
-48.210132807190703
 21
-201.83856906325369
 31
0.0
  0
ARC
  5
225
  8
DATA
  6
CONTINUOUS
 62
     7
 10
-48.910132807190742
 20
-196.0785690632537
 30
0.0
 40
0.7000000000000455
 50
0.0
 51
89.999999999990649
  0
LINE
  5
226
  8
DATA
  6
CONTINUOUS
 62
     7
 10
-53.806349395606631
 20
-201.79490317055229
 30
0.0
 11
-55.322791001176817
 21
-201.79490317055229
 31
0.0
  0
LINE
  5
227
  8
DATA
  6
CONTINUOUS
 62
     7
 10
-53.806349395606631
 20
-203.39490317055231
 30
0.0
 11
-55.322791001176817
 21
-203.39490317055231
 31
0.0
  0
LINE
  5
228
  8
DATA
  6
CONTINUOUS
 62
     7
 10
-44.442055508713693
 20
-201.79490317055229
 30
0.0
 11
-42.925613903143599
 21
-201.79490317055229
 31
0.0
  0
LINE
  5
229
  8
DATA
  6
CONTINUOUS
 62
     7
 10
-44.442055508713693
 20
-203.39490317055231
 30
0.0
 11
-42.925613903143599
 21
-203.39490317055231
 31
0.0
  0
LINE
  5
22A
  8
DATA
  6
CONTINUOUS
 62
     7
 10
-53.000665731328937
 20
-199.84981074128191
 30
0.0
 11
-54.072951873904358
 21
-198.77752459870641
 31
0.0
  0
LINE
  5
22B
  8
DATA
  6
CONTINUOUS
 62
     7
 10
-51.869294881434953
 20
-198.71843989137901
 30
0.0
 11
-52.941581024005828
 21
-197.6461537488081
 31
0.0
  0
LINE
  5
22C
  8
DATA
  6
CONTINUOUS
 62
     7
 10
-46.379110022889812
 20
-198.71843989138341
 30
0.0
 11
-45.306823880314496
 21
-197.6461537488081
 31
0.0
  0
LINE
  5
22D
  8
DATA
  6
CONTINUOUS
 62
     7
 10
-44.175453030415959
 20
-198.77752459870669
 30
0.0
 11
-45.247739172986968
 21
-199.84981074127771
 31
0.0
  0
LINE
  5
22E
  8
DATA
  6
CONTINUOUS
 62
     7
 10
-44.175453030415959
 20
-206.41228174239799
 30
0.0
 11
-45.247739172986968
 21
-205.33999559982701
 31
0.0
  0
LINE
  5
22F
  8
DATA
  6
CONTINUOUS
 62
     7
 10
-45.306823880314496
 20
-207.5436525922965
 30
0.0
 11
-46.379110022889812
 21
-206.47136644972119
 31
0.0
  0
ARC
  5
230
  8
DATA
  6
CONTINUOUS
 62
     7
 10
-49.192620213704473
 20
-202.46039801474521
 30
0.0
 40
6.8399999999999812
 50
93.853979695462783
 51
240.8827141056729
  0
ARC
  5
231
  8
DATA
  6
CONTINUOUS
 62
     7
 10
-49.192620213704473
 20
-202.46039801474521
 30
0.0
 40
6.840000000000086
 50
300.6592833848452
 51
82.830667981082513
  0
LINE
  5
232
  8
DATA
  6
CONTINUOUS
 62
     7
 10
-41.33920245216008
 20
-202.5307454864753
 30
0.0
 11
-42.352981975228317
 21
-202.5307454864753
 31
0.0
  0
LINE
  5
233
  8
DATA
  6
CONTINUOUS
 62
     7
 10
-52.520957179926647
 20
-208.43599614708731
 30
0.0
 11
-52.994222258182397
 21
-209.28568232562881
 31
0.0
  0
LINE
  5
234
  8
DATA
  6
CONTINUOUS
 62
     7
 10
-53.937869505505667
 20
-207.3866754286405
 30
0.0
 11
-54.595254913385347
 21
-208.06913965505271
 31
0.0
  0
LINE
  5
235
  8
DATA
  6
CONTINUOUS
 62
     7
 10
-55.065675937693292
 20
-205.96650931688009
 30
0.0
 11
-55.863847972521839
 21
-206.427334156048
 31
0.0
  0
LINE
  5
236
  8
DATA
  6
CONTINUOUS
 62
     7
 10
-55.739311673792017
 20
-204.44192039069961
 30
0.0
 11
-56.600151495995753
 21
-204.7024754176484
 31
0.0
  0
LINE
  5
237
  8
DATA
  6
CONTINUOUS
 62
     7
 10
-56.032258452180471
 20
-202.5307454864753
 30
0.0
 11
-56.909202452158389
 21
-202.5307454864753
 31
0.0
  0
LINE
  5
238
  8
DATA
  6
CONTINUOUS
 62
     7
 10
-55.800035372991132
 20
-200.69187747122879
 30
0.0
 11
-56.656656367572261
 21
-200.56393003702539
 31
0.0
  0
LINE
  5
239
  8
DATA
  6
CONTINUOUS
 62
     7
 10
-55.136025303900041
 20
-199.07490899041761
 30
0.0
 11
-55.871300050209001
 21
-198.6470746710755
 31
0.0
  0
LINE
  5
23A
  8
DATA
  6
CONTINUOUS
 62
     7
 10
-54.105698883106143
 20
-197.70148448451411
 30
0.0
 11
-54.704620176055968
 21
-197.10256319156429
 31
0.0
  0
LINE
  5
23B
  8
DATA
  6
CONTINUOUS
 62
     7
 10
-52.646317501935542
 20
-196.55636760822111
 30
0.0
 11
-53.071179562385979
 21
-195.82048493331271
 31
0.0
  0
LINE
  5
23C
  8
DATA
  6
CONTINUOUS
 62
     7
 10
-50.808434239946003
 20
-195.8139895836367
 30
0.0
 11
-51.011668100733253
 21
-194.9780176067348
 31
0.0
  0
LINE
  5
23D
  8
DATA
  6
CONTINUOUS
 62
     7
 10
-47.200363610273499
 20
-195.9169651522391
 30
0.0
 11
-46.939052943772147
 21
-195.0587078376121
 31
0.0
  0
LINE
  5
23E
  8
DATA
  6
CONTINUOUS
 62
     7
 10
-45.661622798381941
 20
-196.6022705619707
 30
0.0
 11
-45.186955891519702
 21
-195.81477090933831
 31
0.0
  0
LINE
  5
23F
  8
DATA
  6
CONTINUOUS
 62
     7
 10
-44.331333231001409
 20
-197.64859077923199
 30
0.0
 11
-43.679140686920398
 21
-196.97849771140611
 31
0.0
  0
LINE
  5
240
  8
DATA
  6
CONTINUOUS
 62
     7
 10
-43.177435688595317
 20
-199.20414938650649
 30
0.0
 11
-42.333278288011932
 21
-198.7242281810156
 31
0.0
  0
LINE
  5
241
  8
DATA
  6
CONTINUOUS
 62
     7
 10
-42.582171575985747
 20
-200.70325009607279
 30
0.0
 11
-41.599637146680848
 21
-200.53396258302899
 31
0.0
  0
LINE
  5
242
  8
DATA
  6
CONTINUOUS
 62
     7
 10
-41.673973756753767
 20
-204.57635288822431
 30
0.0
 11
-42.610244906091687
 21
-204.319950463514
 31
0.0
  0
LINE
  5
243
  8
DATA
  6
CONTINUOUS
 62
     7
 10
-43.295094577912103
 20
-205.92519113629831
 30
0.0
 11
-42.398755537880469
 21
-206.45178983756259
 31
0.0
  0
LINE
  5
244
  8
DATA
  6
CONTINUOUS
 62
     7
 10
-43.543784728263986
 20
-207.95892778138651
 30
0.0
 11
-44.281440881284652
 21
-207.2212716283658
 31
0.0
  0
LINE
  5
245
  8
DATA
  6
CONTINUOUS
 62
     7
 10
-45.177225341937181
 20
-209.24100603963291
 30
0.0
 11
-45.704687081354351
 21
-208.3442676992604
 31
0.0
  0
LINE
  5
246
  8
DATA
  6
CONTINUOUS
 62
     7
 10
-48.994957523480842
 20
-195.37856906325359
 30
0.0
 11
-48.994957523480842
 21
-194.60625464482081
 31
0.0
  0
LINE
  5
247
  8
DATA
  6
CONTINUOUS
 62
     7
 10
-52.906681618778421
 20
-205.45747235478649
 30
0.0
 11
-53.944248667385082
 21
-206.56338815753281
 31
0.0
  0
LINE
  5
248
  8
DATA
  6
CONTINUOUS
 62
     7
 10
-52.777395108442207
 20
-207.65812683501809
 30
0.0
 11
-51.739828059839752
 21
-206.5522110322764
 31
0.0
  0
LINE
  5
249
  8
DATA
  6
CONTINUOUS
 62
     7
 10
-49.810132807190612
 20
-207.29511588361649
 30
0.0
 11
-49.810132807190612
 21
-208.80714910483809
 31
0.0
  0
LINE
  5
24A
  8
DATA
  6
CONTINUOUS
 62
     7
 10
-48.210132807190703
 20
-207.25612368498281
 30
0.0
 11
-48.210132807190703
 21
-208.777700004037
 31
0.0
  0
TEXT
  5
24B
  8
DATA
 62
     7
 10
-157.8847384248028
 20
-200.87672891248371
 30
0.0
 40
1.5390625
  1
+6
 41
0.7
 11
-157.8847384248028
 21
-199.33766641248371
 31
0.0
 73
     3
  0
TEXT
  5
24C
  8
DATA
 62
     7
 10
-176.44743004620551
 20
-201.15424339288921
 30
0.0
 40
1.5390625
  1
-6
 41
0.7
 11
-176.44743004620551
 21
-199.61518089288921
 31
0.0
 73
     3
  0
TEXT
  5
24D
  8
DATA
 62
     7
 10
-166.29223365429479
 20
-193.77519639162441
 30
0.0
 40
1.5390625
  1
0
 41
0.7
 11
-166.29223365429479
 21
-192.23613389162441
 31
0.0
 73
     3
  0
TEXT
  5
24E
  8
DATA
 62
     7
 10
-167.0891686125772
 20
-212.97952295069101
 30
0.0
 40
1.764577907986109
  1
dB
 41
0.7
 11
-167.0891686125772
 21
-211.2149450427049
 31
0.0
 73
     3
  0
TEXT
  5
24F
  8
DATA
 62
     7
 10
-168.24812932501081
 20
-215.79654503030341
 30
0.0
 40
1.764577907986109
  1
GAIN
 41
0.7
 11
-168.24812932501081
 21
-214.0319671223173
 31
0.0
 73
     3
  0
TEXT
  5
250
  8
DATA
 62
     7
 10
-168.68320596023841
 20
-220.42126151706319
 30
0.0
 40
1.764577907986109
  1
INPUT
 41
0.7
 11
-168.68320596023841
 21
-218.65668360907711
 31
0.0
 73
     3
  0
TEXT
  5
251
  8
DATA
 62
     7
 10
-169.2570516197581
 20
-224.0634674788559
 30
0.0
 40
2.1162109375
  1
INPUT
 41
0.7
 11
-169.2570516197581
 21
-221.9472565413559
 31
0.0
 73
     3
  0
TEXT
  5
252
  8
DATA
 62
     7
 10
-143.3686988917886
 20
-203.34828074055031
 30
0.0
 40
1.5390625
  1
70
 41
0.7
 11
-143.3686988917886
 21
-201.80921824055031
 31
0.0
 73
     3
  0
TEXT
  5
253
  8
DATA
 62
     7
 10
-124.9044748621136
 20
-203.25577591374849
 30
0.0
 40
1.5390625
  1
680
 41
0.7
 11
-124.9044748621136
 21
-201.71671341374849
 31
0.0
 73
     3
  0
TEXT
  5
254
  8
DATA
 62
     7
 10
-134.31793268765151
 20
-194.1990470009799
 30
0.0
 40
1.5390625
  1
240
 41
0.7
 11
-134.31793268765151
 21
-192.6599845009799
 31
0.0
 73
     3
  0
TEXT
  5
255
  8
DATA
 62
     7
 10
-142.11197003531331
 20
-197.3617385660873
 30
0.0
 40
1.5390625
  1
140
 41
0.7
 11
-142.11197003531331
 21
-195.8226760660873
 31
0.0
 73
     3
  0
TEXT
  5
256
  8
DATA
 62
     7
 10
-127.44927847020431
 20
-197.20057952183919
 30
0.0
 40
1.5390625
  1
350
 41
0.7
 11
-127.44927847020431
 21
-195.6615170218391
 31
0.0
 73
     3
  0
TEXT
  5
257
  8
DATA
 62
     7
 10
-139.16202619327129
 20
-215.79654503030341
 30
0.0
 40
1.764577907986109
  1
XOVER FREQ
 41
0.7
 11
-139.16202619327129
 21
-214.0319671223173
 31
0.0
 73
     3
  0
TEXT
  5
258
  8
DATA
 62
     7
 10
-139.7090910680603
 20
-220.42126151706319
 30
0.0
 40
1.764577907986109
  1
LOW/LOW-MID
 41
0.7
 11
-139.7090910680603
 21
-218.65668360907711
 31
0.0
 73
     3
  0
TEXT
  5
259
  8
DATA
 62
     7
 10
-138.22008900059279
 20
-224.0634674788559
 30
0.0
 40
2.1162109375
  1
LOW/MID
 41
0.7
 11
-138.22008900059279
 21
-221.9472565413559
 31
0.0
 73
     3
  0
TEXT
  5
25A
  8
DATA
 62
     7
 10
-134.2077073349287
 20
-212.97952295069101
 30
0.0
 40
1.764577907986109
  1
Hz
 41
0.7
 11
-134.2077073349287
 21
-211.2149450427049
 31
0.0
 73
     3
  0
TEXT
  5
25B
  8
DATA
 62
     7
 10
-154.5874686606206
 20
-220.42126151706319
 30
0.0
 40
1.764577907986109
  1
LOE CUT
 41
0.7
 11
-154.5874686606206
 21
-218.65668360907711
 31
0.0
 73
     3
  0
TEXT
  5
25C
  8
DATA
 62
     7
 10
-155.4232445746544
 20
-224.0634674788559
 30
0.0
 40
2.1162109375
  1
LOW CUT
 41
0.7
 11
-155.4232445746544
 21
-221.9472565413559
 31
0.0
 73
     3
  0
TEXT
  5
25D
  8
DATA
 62
     7
 10
-84.713054663964371
 20
-215.79654503030341
 30
0.0
 40
1.764577907986109
  1
GAIN
 41
0.7
 11
-84.713054663964371
 21
-214.0319671223173
 31
0.0
 73
     3
  0
TEXT
  5
25E
  8
DATA
 62
     7
 10
-89.210655433202987
 20
-224.0634674788559
 30
0.0
 40
2.1162109375
  1
LOW OUTPUT
 41
0.7
 11
-89.210655433202987
 21
-221.9472565413559
 31
0.0
 73
     3
  0
TEXT
  5
25F
  8
DATA
 62
     7
 10
-83.508955481247696
 20
-212.97952295069101
 30
0.0
 40
1.764577907986109
  1
dB
 41
0.7
 11
-83.508955481247696
 21
-211.2149450427049
 31
0.0
 73
     3
  0
TEXT
  5
260
  8
DATA
 62
     7
 10
-83.846263916140373
 20
-194.21846747885601
 30
0.0
 40
1.5390625
  1
-10
 41
0.7
 11
-83.846263916140373
 21
-192.67940497885601
 31
0.0
 73
     3
  0
TEXT
  5
261
  8
DATA
 62
     7
 10
-93.489535003371984
 20
-202.7811590439633
 30
0.0
 40
1.5390625
  1
-30
 41
0.7
 11
-93.489535003371984
 21
-201.2420965439633
 31
0.0
 73
     3
  0
TEXT
  5
262
  8
DATA
 62
     7
 10
-73.734338611462434
 20
-203.14981326140961
 30
0.0
 40
1.5390625
  1
0
 41
0.7
 11
-73.734338611462434
 21
-201.61075076140961
 31
0.0
 73
     3
  0
TEXT
  5
263
  8
DATA
 62
     7
 10
-45.118722785439942
 20
-211.56840970317941
 30
0.0
 40
1.5390625
  1
+6
 41
0.7
 11
-45.118722785439942
 21
-210.02934720317941
 31
0.0
 73
     3
  0
TEXT
  5
264
  8
DATA
 62
     7
 10
-51.664828851944073
 20
-215.79654503030341
 30
0.0
 40
1.764577907986109
  1
GAIN
 41
0.7
 11
-51.664828851944073
 21
-214.0319671223173
 31
0.0
 73
     3
  0
TEXT
  5
265
  8
DATA
 62
     7
 10
-56.623204536918152
 20
-224.0634674788559
 30
0.0
 40
2.1162109375
  1
MID OUTPUT
 41
0.7
 11
-56.623204536918152
 21
-221.9472565413559
 31
0.0
 73
     3
  0
TEXT
  5
266
  8
DATA
 62
     7
 10
-50.460729669227533
 20
-212.97952295069101
 30
0.0
 40
1.764577907986109
  1
dB
 41
0.7
 11
-50.460729669227533
 21
-211.2149450427049
 31
0.0
 73
     3
  0
TEXT
  5
267
  8
DATA
 62
     7
 10
-50.798038104120131
 20
-194.21846747885601
 30
0.0
 40
1.5390625
  1
-10
 41
0.7
 11
-50.798038104120131
 21
-192.67940497885601
 31
0.0
 73
     3
  0
TEXT
  5
268
  8
DATA
 62
     7
 10
-60.441309191351692
 20
-202.7811590439633
 30
0.0
 40
1.5390625
  1
-30
 41
0.7
 11
-60.441309191351692
 21
-201.2420965439633
 31
0.0
 73
     3
  0
TEXT
  5
269
  8
DATA
 62
     7
 10
-40.686112799442157
 20
-203.14981326140961
 30
0.0
 40
1.5390625
  1
0
 41
0.7
 11
-40.686112799442157
 21
-201.61075076140961
 31
0.0
 73
     3
  0
CIRCLE
  5
26A
  8
DATA
  6
CONTINUOUS
 62
     7
 10
-154.49607461004641
 20
-211.0007566065396
 30
0.0
 40
2.634999999998854
  0
CIRCLE
  5
26B
  8
DATA
  6
CONTINUOUS
 62
     7
 10
-154.49607461004641
 20
-211.0007566065396
 30
0.0
 40
1.6999999999984541
  0
CIRCLE
  5
26C
  8
DATA
  6
CONTINUOUS
 62
     7
 10
-147.48627100195381
 20
-211.0007566065396
 30
0.0
 40
1.500000000000226
  0
TEXT
  5
26D
  8
DATA
 62
     7
 10
-152.65339258595529
 20
-206.99614939035959
 30
0.0
 40
1.5390625
  1
40Hz
 41
0.7
 11
-152.65339258595529
 21
-205.45708689035959
 31
0.0
 73
     3
  0
CIRCLE
  5
26E
  8
DATA
  6
CONTINUOUS
 62
     7
 10
-120.9163460993813
 20
-211.0007566065396
 30
0.0
 40
1.5
  0
TEXT
  5
26F
  8
DATA
 62
     7
 10
-122.1865867925098
 20
-208.23192530439289
 30
0.0
 40
1.5390625
  1
X10
 41
0.7
 11
-122.1865867925098
 21
-206.69286280439289
 31
0.0
 73
     3
  0
CIRCLE
  5
270
  8
DATA
  6
CONTINUOUS
 62
     7
 10
-69.805636125995747
 20
-211.0007566065396
 30
0.0
 40
2.6349999999985121
  0
CIRCLE
  5
271
  8
DATA
  6
CONTINUOUS
 62
     7
 10
-69.805636125995747
 20
-211.0007566065396
 30
0.0
 40
1.6999999999983391
  0
CIRCLE
  5
272
  8
DATA
  6
CONTINUOUS
 62
     7
 10
-62.79583251790374
 20
-211.0007566065396
 30
0.0
 40
1.5
  0
TEXT
  5
273
  8
DATA
 62
     7
 10
-68.718150493814264
 20
-206.99614939035959
 30
0.0
 40
1.5390625
  1
\U+03A6INV
 41
0.7
 11
-68.718150493814264
 21
-205.45708689035959
 31
0.0
 73
     3
  0
CIRCLE
  5
274
  8
DATA
  6
CONTINUOUS
 62
     7
 10
-37.077165654043952
 20
-211.0007566065396
 30
0.0
 40
2.6349999999984841
  0
CIRCLE
  5
275
  8
DATA
  6
CONTINUOUS
 62
     7
 10
-37.077165654043952
 20
-211.0007566065396
 30
0.0
 40
1.6999999999982831
  0
CIRCLE
  5
276
  8
DATA
  6
CONTINUOUS
 62
     7
 10
-30.067362045951981
 20
-211.0007566065396
 30
0.0
 40
1.5
  0
TEXT
  5
277
  8
DATA
 62
     7
 10
-35.989680021862469
 20
-206.99614939035959
 30
0.0
 40
1.5390625
  1
\U+03A6INV
 41
0.7
 11
-35.989680021862469
 21
-205.45708689035959
 31
0.0
 73
     3
  0
CIRCLE
  5
278
  8
DATA
  6
CONTINUOUS
 62
     7
 10
13.20870242654548
 20
-211.0007566065396
 30
0.0
 40
1.500000000000014
  0
CIRCLE
  5
279
  8
DATA
  6
CONTINUOUS
 62
     7
 10
20.708702426545511
 20
-211.0007566065396
 30
0.0
 40
1.5
  0
TEXT
  5
27A
  8
DATA
 62
     7
 10
10.787106877328579
 20
-215.9346381346158
 30
0.0
 40
1.764577907986109
  1
MONO
 41
0.7
 11
10.787106877328579
 21
-214.17006022662969
 31
0.0
 73
     3
  0
TEXT
  5
27B
  8
DATA
 62
     7
 10
17.658839764242771
 20
-215.96070572237821
 30
0.0
 40
1.7699218750000001
  1
STEREO
 41
0.7
 11
17.658839764242771
 21
-214.19078384737821
 31
0.0
 73
     3
  0
LINE
  5
27C
  8
DATA
  6
CONTINUOUS
 62
     7
 10
345.99999999974011
 20
-213.37607938873799
 30
0.0
 11
345.99999999974011
 21
-208.59409569977541
 31
0.0
  0
LINE
  5
27D
  8
DATA
  6
CONTINUOUS
 62
     7
 10
346.99999999974
 20
-213.37607938873799
 30
0.0
 11
345.99999999974011
 21
-213.37607938873799
 31
0.0
  0
LINE
  5
27E
  8
DATA
  6
CONTINUOUS
 62
     7
 10
349.99999999974011
 20
-208.10607938874111
 30
0.0
 11
348.49580761544189
 21
-208.10607938874111
 31
0.0
  0
ARC
  5
27F
  8
DATA
  6
CONTINUOUS
 62
     7
 10
350.3388340263989
 20
-210.7416605871199
 30
0.0
 40
1.537499999999969
 50
102.68038349181479
 51
219.38110775284929
  0
ARC
  5
280
  8
DATA
  6
CONTINUOUS
 62
     7
 10
350.3388340263989
 20
-210.7416605871199
 30
0.0
 40
1.5375000000000461
 50
257.2686553372497
 51
257.31961650818511
  0
LINE
  5
281
  8
DATA
  6
CONTINUOUS
 62
     7
 10
501.49999999974079
 20
-213.95800686963889
 30
0.0
 11
499.99999999974091
 21
-213.95800686963889
 31
0.0
  0
LINE
  5
282
  8
DATA
  6
CONTINUOUS
 62
     7
 10
503.99837616826687
 20
-186.40122338451849
 30
0.0
 11
503.99837616826687
 21
-191.9012233845186
 31
0.0
  0
LINE
  5
283
  8
DATA
  6
CONTINUOUS
 62
     7
 10
502.99837616826687
 20
-192.9012233845186
 30
0.0
 11
502.49837616826687
 21
-192.9012233845186
 31
0.0
  0
LINE
  5
284
  8
DATA
  6
CONTINUOUS
 62
     7
 10
502.69837616826692
 20
-192.60122338451851
 30
0.0
 11
502.49837616826687
 21
-192.60122338451851
 31
0.0
  0
LINE
  5
285
  8
DATA
  6
CONTINUOUS
 62
     7
 10
503.69837616826692
 20
-186.40122338451849
 30
0.0
 11
503.69837616826692
 21
-191.60122338451851
 31
0.0
  0
LINE
  5
286
  8
DATA
  6
CONTINUOUS
 62
     7
 10
503.69837616826692
 20
-186.40122338451849
 30
0.0
 11
503.99837616826687
 21
-186.40122338451849
 31
0.0
  0
ARC
  5
287
  8
DATA
  6
CONTINUOUS
 62
     7
 10
502.69837616826692
 20
-191.60122338451851
 30
0.0
 40
1.0
 50
270.0
 51
0.0
  0
ARC
  5
288
  8
DATA
  6
CONTINUOUS
 62
     7
 10
502.99837616826687
 20
-191.9012233845186
 30
0.0
 40
1.0
 50
270.0
 51
0.0
  0
LINE
  5
289
  8
DATA
  6
CONTINUOUS
 62
     7
 10
502.69837616826692
 20
-192.60122338451851
 30
0.0
 11
501.49999999974079
 21
-192.60122338451851
 31
0.0
  0
LINE
  5
28A
  8
DATA
  6
CONTINUOUS
 62
     7
 10
499.99999999974091
 20
-192.60122338451851
 30
0.0
 11
499.99881094592479
 21
-192.60122338451851
 31
0.0
  0
LINE
  5
28B
  8
DATA
  6
CONTINUOUS
 62
     7
 10
502.49837616826687
 20
-192.9012233845186
 30
0.0
 11
501.49999999974079
 21
-192.9012233845186
 31
0.0
  0
LINE
  5
28C
  8
DATA
  6
CONTINUOUS
 62
     7
 10
499.99999999974091
 20
-192.9012233845186
 30
0.0
 11
499.99881094592479
 21
-192.9012233845186
 31
0.0
  0
CIRCLE
  5
28D
  8
DATA
  6
CONTINUOUS
 62
     7
 10
-56.640339902309009
 20
232.00401844163321
 30
0.0
 40
2.600000000000021
  0
CIRCLE
  5
28E
  8
DATA
  6
CONTINUOUS
 62
     7
 10
-56.640339902309009
 20
232.00401844163321
 30
0.0
 40
1.6499999999999759
  0
TEXT
  5
28F
  8
DATA
 62
     7
 10
-115.6188765006445
 20
208.84977818229009
 30
0.0
 40
2.714735243055554
  1
 CHANNEL ONE 
 50
180.0
 41
0.7
 11
-115.6188765006445
 21
206.13504293923461
 31
0.0
 73
     3
  0
TEXT
  5
290
  8
DATA
 62
     7
 10
-171.84698150114011
 20
241.09391432792981
 30
0.0
 40
1.923828125
  1
 INPUT
 50
180.0
 41
0.7
 11
-171.84698150114011
 21
239.17008620292981
 31
0.0
 73
     3
  0
LINE
  5
291
  8
DATA
  6
CONTINUOUS
 62
     7
 10
-53.939199186715143
 20
219.18064553884039
 30
0.0
 11
-58.289199186715052
 21
219.18064553884039
 31
0.0
  0
LINE
  5
292
  8
DATA
  6
CONTINUOUS
 62
     7
 10
-54.889199186715089
 20
216.38064553884041
 30
0.0
 11
-58.289199186715052
 21
216.38064553884041
 31
0.0
  0
LINE
  5
293
  8
DATA
  6
CONTINUOUS
 62
     7
 10
-58.289199186715052
 20
219.18064553884039
 30
0.0
 11
-59.239199186715112
 21
219.18064553884039
 31
0.0
  0
LINE
  5
294
  8
DATA
  6
CONTINUOUS
 62
     7
 10
-54.889199186715089
 20
216.38064553884041
 30
0.0
 11
-54.539199186715052
 21
218.98064553884041
 31
0.0
  0
LINE
  5
295
  8
DATA
  6
CONTINUOUS
 62
     7
 10
-58.289199186715052
 20
216.38064553884041
 30
0.0
 11
-58.639199186715089
 21
218.98064553884041
 31
0.0
  0
LINE
  5
296
  8
DATA
  6
CONTINUOUS
 62
     7
 10
-59.239199186715112
 20
219.18064553884039
 30
0.0
 11
-59.239199186715112
 21
218.98064553884041
 31
0.0
  0
LINE
  5
297
  8
DATA
  6
CONTINUOUS
 62
     7
 10
-53.939199186715143
 20
219.18064553884039
 30
0.0
 11
-53.939199186715143
 21
218.98064553884041
 31
0.0
  0
LINE
  5
298
  8
DATA
  6
CONTINUOUS
 62
     7
 10
-59.239199186715112
 20
218.98064553884041
 30
0.0
 11
-53.949199186715113
 21
218.98064553884041
 31
0.0
  0
LINE
  5
299
  8
DATA
  6
CONTINUOUS
 62
     7
 10
-53.939199186715143
 20
224.6905728790442
 30
0.0
 11
-58.289199186715052
 21
224.6905728790442
 31
0.0
  0
LINE
  5
29A
  8
DATA
  6
CONTINUOUS
 62
     7
 10
-58.289199186715052
 20
224.6905728790442
 30
0.0
 11
-59.239199186715112
 21
224.6905728790442
 31
0.0
  0
LINE
  5
29B
  8
DATA
  6
CONTINUOUS
 62
     7
 10
-54.741122263638147
 20
222.99057287904421
 30
0.0
 11
-54.539199186715052
 21
224.49057287904421
 31
0.0
  0
LINE
  5
29C
  8
DATA
  6
CONTINUOUS
 62
     7
 10
-58.437276109792002
 20
222.99057287904421
 30
0.0
 11
-58.639199186715089
 21
224.49057287904421
 31
0.0
  0
LINE
  5
29D
  8
DATA
  6
CONTINUOUS
 62
     7
 10
-59.239199186715112
 20
224.6905728790442
 30
0.0
 11
-59.239199186715112
 21
224.49057287904421
 31
0.0
  0
LINE
  5
29E
  8
DATA
  6
CONTINUOUS
 62
     7
 10
-53.939199186715143
 20
224.6905728790442
 30
0.0
 11
-53.939199186715143
 21
224.49057287904421
 31
0.0
  0
LINE
  5
29F
  8
DATA
  6
CONTINUOUS
 62
     7
 10
-59.239199186715112
 20
224.49057287904421
 30
0.0
 11
-53.949199186715113
 21
224.49057287904421
 31
0.0
  0
LINE
  5
2A0
  8
DATA
  6
CONTINUOUS
 62
     7
 10
-54.741122263638147
 20
222.99057287904421
 30
0.0
 11
-58.437276109792002
 21
222.99057287904421
 31
0.0
  0
TEXT
  5
2A1
  8
DATA
 62
     7
 10
-173.42692509075181
 20
211.24589531651901
 30
0.0
 40
2.0360514322916661
  1
PUSH
 50
180.0
 41
0.7
 11
-173.42692509075181
 21
209.2098438842273
 31
0.0
 73
     3
  0
ARC
  5
2A2
  8
DATA
  6
CONTINUOUS
 62
     7
 10
-176.07169593658159
 20
222.9127696565391
 30
0.0
 40
10.89999999999984
 50
289.23581260751109
 51
250.76418739248879
  0
CIRCLE
  5
2A3
  8
DATA
  6
CONTINUOUS
 62
     7
 10
-176.07169593658159
 20
222.9127696565391
 30
0.0
 40
9.8500000000001364
  0
CIRCLE
  5
2A4
  8
DATA
  6
CONTINUOUS
 62
     7
 10
-176.07169593658159
 20
222.9127696565391
 30
0.0
 40
7.8500000000001364
  0
CIRCLE
  5
2A5
  8
DATA
  6
CONTINUOUS
 62
     7
 10
-176.07169593658159
 20
226.83390767768159
 30
0.0
 40
1.264999999999985
  0
CIRCLE
  5
2A6
  8
DATA
  6
CONTINUOUS
 62
     7
 10
-172.1402143506954
 20
222.9127696565391
 30
0.0
 40
1.264999999999985
  0
CIRCLE
  5
2A7
  8
DATA
  6
CONTINUOUS
 62
     7
 10
-180.00614035596911
 20
222.9127696565391
 30
0.0
 40
1.2650000000001
  0
ARC
  5
2A8
  8
DATA
  6
CONTINUOUS
 62
     7
 10
-177.8995534964034
 20
209.8944358299531
 30
0.0
 40
3.172142440178161
 50
93.110794313929901
 51
266.88920568607011
  0
ARC
  5
2A9
  8
DATA
  6
CONTINUOUS
 62
     7
 10
-174.24383837676001
 20
209.8944358299531
 30
0.0
 40
3.172142440178161
 50
273.11079431392989
 51
86.889205686070085
  0
LINE
  5
2AA
  8
DATA
  6
CONTINUOUS
 62
     7
 10
-174.07169593658159
 20
206.72696765472719
 30
0.0
 11
-178.07169593658159
 21
206.72696765472719
 31
0.0
  0
LINE
  5
2AB
  8
DATA
  6
CONTINUOUS
 62
     7
 10
-178.07169593658159
 20
213.061904005179
 30
0.0
 11
-174.07169593663079
 21
213.061904005179
 31
0.0
  0
CIRCLE
  5
2AC
  8
DATA
  6
CONTINUOUS
 62
     7
 10
-186.05874373553399
 20
232.65269466469769
 30
0.0
 40
2.749999999999944
  0
CIRCLE
  5
2AD
  8
DATA
  6
CONTINUOUS
 62
     7
 10
-166.25784046521861
 20
212.85110520236819
 30
0.0
 40
2.749999999999944
  0
CIRCLE
  5
2AE
  8
DATA
  6
CONTINUOUS
 62
     7
 10
-104.7256481266659
 20
223.0854429225752
 30
0.0
 40
11.00000000000011
  0
CIRCLE
  5
2AF
  8
DATA
  6
CONTINUOUS
 62
     7
 10
-104.725556717708
 20
223.02028704496021
 30
0.0
 40
8.2500000000000409
  0
CIRCLE
  5
2B0
  8
DATA
  6
CONTINUOUS
 62
     7
 10
-100.7296899281048
 20
223.30261607505199
 30
0.0
 40
1.1749999999999781
  0
CIRCLE
  5
2B1
  8
DATA
  6
CONTINUOUS
 62
     7
 10
-108.7258616175646
 20
223.28544292257521
 30
0.0
 40
1.1750000000000671
  0
CIRCLE
  5
2B2
  8
DATA
  6
CONTINUOUS
 62
     7
 10
-104.7256990047096
 20
226.96920538091641
 30
0.0
 40
1.1750000000000671
  0
CIRCLE
  5
2B3
  8
DATA
  6
CONTINUOUS
 62
     7
 10
-114.65483037150101
 20
232.9209776358133
 30
0.0
 40
2.7500000000000462
  0
CIRCLE
  5
2B4
  8
DATA
  6
CONTINUOUS
 62
     7
 10
-94.857317237500425
 20
213.1191841579205
 30
0.0
 40
2.7499999999999631
  0
CIRCLE
  5
2B5
  8
DATA
  6
CONTINUOUS
 62
     7
 10
-78.235499388678292
 20
223.0854429225752
 30
0.0
 40
11.00000000000011
  0
CIRCLE
  5
2B6
  8
DATA
  6
CONTINUOUS
 62
     7
 10
-78.235407979720378
 20
223.02028704496021
 30
0.0
 40
8.2500000000000409
  0
CIRCLE
  5
2B7
  8
DATA
  6
CONTINUOUS
 62
     7
 10
-74.239541190117194
 20
223.30261607505199
 30
0.0
 40
1.1749999999999201
  0
CIRCLE
  5
2B8
  8
DATA
  6
CONTINUOUS
 62
     7
 10
-82.235712879576994
 20
223.28544292257521
 30
0.0
 40
1.1749999999999541
  0
CIRCLE
  5
2B9
  8
DATA
  6
CONTINUOUS
 62
     7
 10
-78.235550266722001
 20
226.96920538091641
 30
0.0
 40
1.1749999999999541
  0
CIRCLE
  5
2BA
  8
DATA
  6
CONTINUOUS
 62
     7
 10
-88.164681633513226
 20
232.9209776358133
 30
0.0
 40
2.750000000000087
  0
CIRCLE
  5
2BB
  8
DATA
  6
CONTINUOUS
 62
     7
 10
-68.367168499512857
 20
213.1191841579205
 30
0.0
 40
2.7499999999998832
  0
LINE
  5
2BC
  8
DATA
  6
CONTINUOUS
 62
     7
 10
-188.27348367310319
 20
242.85437616939089
 30
0.0
 11
-92.273483673103598
 21
242.85437616939089
 31
0.0
  0
ARC
  5
2BD
  8
DATA
  6
CONTINUOUS
 62
     7
 10
-188.27348367310319
 20
240.85437616939089
 30
0.0
 40
2.0
 50
90.0
 51
180.0
  0
LINE
  5
2BE
  8
DATA
  6
CONTINUOUS
 62
     7
 10
-190.27348367310319
 20
210.8543761693908
 30
0.0
 11
-190.27348367310319
 21
240.85437616939089
 31
0.0
  0
ARC
  5
2BF
  8
DATA
  6
CONTINUOUS
 62
     7
 10
-188.27348367310319
 20
210.8543761693908
 30
0.0
 40
2.0
 50
180.0
 51
270.0
  0
LINE
  5
2C0
  8
DATA
  6
CONTINUOUS
 62
     7
 10
-180.8963457086283
 20
208.8543761693908
 30
0.0
 11
-188.27348367310319
 21
208.8543761693908
 31
0.0
  0
CIRCLE
  5
2C1
  8
DATA
  6
CONTINUOUS
 62
     7
 10
-28.80981293655837
 20
229.1912872283452
 30
0.0
 40
2.600000000000021
  0
CIRCLE
  5
2C2
  8
DATA
  6
CONTINUOUS
 62
     7
 10
-28.80981293655837
 20
229.1912872283452
 30
0.0
 40
1.6500000000000341
  0
LINE
  5
2C3
  8
DATA
  6
CONTINUOUS
 62
     7
 10
-26.0949477592482
 20
217.40966662676999
 30
0.0
 11
-30.444947759248109
 21
217.40966662676999
 31
0.0
  0
LINE
  5
2C4
  8
DATA
  6
CONTINUOUS
 62
     7
 10
-27.044947759248188
 20
214.60966662677009
 30
0.0
 11
-30.444947759248109
 21
214.60966662677009
 31
0.0
  0
LINE
  5
2C5
  8
DATA
  6
CONTINUOUS
 62
     7
 10
-30.444947759248109
 20
217.40966662676999
 30
0.0
 11
-31.394947759248129
 21
217.40966662676999
 31
0.0
  0
LINE
  5
2C6
  8
DATA
  6
CONTINUOUS
 62
     7
 10
-27.044947759248188
 20
214.60966662677009
 30
0.0
 11
-26.694947759248169
 21
217.20966662677
 31
0.0
  0
LINE
  5
2C7
  8
DATA
  6
CONTINUOUS
 62
     7
 10
-30.444947759248109
 20
214.60966662677009
 30
0.0
 11
-30.794947759248132
 21
217.20966662677
 31
0.0
  0
LINE
  5
2C8
  8
DATA
  6
CONTINUOUS
 62
     7
 10
-31.394947759248129
 20
217.40966662676999
 30
0.0
 11
-31.394947759248129
 21
217.20966662677
 31
0.0
  0
LINE
  5
2C9
  8
DATA
  6
CONTINUOUS
 62
     7
 10
-26.0949477592482
 20
217.40966662676999
 30
0.0
 11
-26.0949477592482
 21
217.20966662677
 31
0.0
  0
LINE
  5
2CA
  8
DATA
  6
CONTINUOUS
 62
     7
 10
-31.394947759248129
 20
217.20966662677
 30
0.0
 11
-26.104947759248191
 21
217.20966662677
 31
0.0
  0
LINE
  5
2CB
  8
DATA
  6
CONTINUOUS
 62
     7
 10
-26.0949477592482
 20
222.91959396697391
 30
0.0
 11
-30.444947759248109
 21
222.91959396697391
 31
0.0
  0
LINE
  5
2CC
  8
DATA
  6
CONTINUOUS
 62
     7
 10
-30.444947759248109
 20
222.91959396697391
 30
0.0
 11
-31.394947759248129
 21
222.91959396697391
 31
0.0
  0
LINE
  5
2CD
  8
DATA
  6
CONTINUOUS
 62
     7
 10
-26.89687083617126
 20
221.2195939669738
 30
0.0
 11
-26.694947759248169
 21
222.7195939669738
 31
0.0
  0
LINE
  5
2CE
  8
DATA
  6
CONTINUOUS
 62
     7
 10
-30.593024682325041
 20
221.2195939669738
 30
0.0
 11
-30.794947759248132
 21
222.7195939669738
 31
0.0
  0
LINE
  5
2CF
  8
DATA
  6
CONTINUOUS
 62
     7
 10
-31.394947759248129
 20
222.91959396697391
 30
0.0
 11
-31.394947759248129
 21
222.7195939669738
 31
0.0
  0
LINE
  5
2D0
  8
DATA
  6
CONTINUOUS
 62
     7
 10
-26.0949477592482
 20
222.91959396697391
 30
0.0
 11
-26.0949477592482
 21
222.7195939669738
 31
0.0
  0
LINE
  5
2D1
  8
DATA
  6
CONTINUOUS
 62
     7
 10
-31.394947759248129
 20
222.7195939669738
 30
0.0
 11
-26.104947759248191
 21
222.7195939669738
 31
0.0
  0
LINE
  5
2D2
  8
DATA
  6
CONTINUOUS
 62
     7
 10
-26.89687083617126
 20
221.2195939669738
 30
0.0
 11
-30.593024682325041
 21
221.2195939669738
 31
0.0
  0
TEXT
  5
2D3
  8
DATA
 62
     7
 10
-171.79475472985209
 20
237.60052624427669
 30
0.0
 40
1.923828125
  1
 INPUT
 50
180.0
 41
0.7
 11
-171.79475472985209
 21
235.67669811927669
 31
0.0
 73
     3
  0
TEXT
  5
2D4
  8
DATA
 62
     7
 10
-149.1380257419718
 20
237.4194775425473
 30
0.0
 40
1.923828125
  1
 LOW/MID
 50
180.0
 41
0.7
 11
-149.1380257419718
 21
235.4956494175473
 31
0.0
 73
     3
  0
TEXT
  5
2D5
  8
DATA
 62
     7
 10
-127.9629831375405
 20
211.71821389198769
 30
0.0
 40
1.923828125
  1
 LOW
 50
180.0
 41
0.7
 11
-127.9629831375405
 21
209.79438576698769
 31
0.0
 73
     3
  0
TEXT
  5
2D6
  8
DATA
 62
     7
 10
-145.46840695005221
 20
217.5573941339473
 30
0.0
 40
1.923828125
  1
 XOVER FREQ
 50
180.0
 41
0.7
 11
-145.46840695005221
 21
215.6335660089473
 31
0.0
 73
     3
  0
CIRCLE
  5
2D7
  8
DATA
  6
CONTINUOUS
 62
     7
 10
-153.90819925966051
 20
230.82361935395369
 30
0.0
 40
2.5999999999999082
  0
CIRCLE
  5
2D8
  8
DATA
  6
CONTINUOUS
 62
     7
 10
-153.90819925966051
 20
230.82361935395369
 30
0.0
 40
1.649999999999862
  0
LINE
  5
2D9
  8
DATA
  6
CONTINUOUS
 62
     7
 10
-148.42485346860789
 20
222.15638359961369
 30
0.0
 11
-152.77485346860769
 21
222.15638359961369
 31
0.0
  0
LINE
  5
2DA
  8
DATA
  6
CONTINUOUS
 62
     7
 10
-149.37485346860791
 20
219.35638359961379
 30
0.0
 11
-152.77485346860769
 21
219.35638359961379
 31
0.0
  0
LINE
  5
2DB
  8
DATA
  6
CONTINUOUS
 62
     7
 10
-152.77485346860769
 20
222.15638359961369
 30
0.0
 11
-153.72485346860779
 21
222.15638359961369
 31
0.0
  0
LINE
  5
2DC
  8
DATA
  6
CONTINUOUS
 62
     7
 10
-149.37485346860791
 20
219.35638359961379
 30
0.0
 11
-149.02485346860789
 21
221.95638359961359
 31
0.0
  0
LINE
  5
2DD
  8
DATA
  6
CONTINUOUS
 62
     7
 10
-152.77485346860769
 20
219.35638359961379
 30
0.0
 11
-153.1248534686078
 21
221.95638359961359
 31
0.0
  0
LINE
  5
2DE
  8
DATA
  6
CONTINUOUS
 62
     7
 10
-153.72485346860779
 20
222.15638359961369
 30
0.0
 11
-153.72485346860779
 21
221.95638359961359
 31
0.0
  0
LINE
  5
2DF
  8
DATA
  6
CONTINUOUS
 62
     7
 10
-148.42485346860789
 20
222.15638359961369
 30
0.0
 11
-148.42485346860789
 21
221.95638359961359
 31
0.0
  0
LINE
  5
2E0
  8
DATA
  6
CONTINUOUS
 62
     7
 10
-153.72485346860779
 20
221.95638359961359
 30
0.0
 11
-148.43485346860791
 21
221.95638359961359
 31
0.0
  0
LINE
  5
2E1
  8
DATA
  6
CONTINUOUS
 62
     7
 10
-148.42485346860789
 20
225.15181814990089
 30
0.0
 11
-152.77485346860769
 21
225.15181814990089
 31
0.0
  0
LINE
  5
2E2
  8
DATA
  6
CONTINUOUS
 62
     7
 10
-152.77485346860769
 20
225.15181814990089
 30
0.0
 11
-153.72485346860779
 21
225.15181814990089
 31
0.0
  0
LINE
  5
2E3
  8
DATA
  6
CONTINUOUS
 62
     7
 10
-149.2267765455309
 20
223.4518181499009
 30
0.0
 11
-149.02485346860789
 21
224.9518181499009
 31
0.0
  0
LINE
  5
2E4
  8
DATA
  6
CONTINUOUS
 62
     7
 10
-152.9229303916847
 20
223.4518181499009
 30
0.0
 11
-153.1248534686078
 21
224.9518181499009
 31
0.0
  0
LINE
  5
2E5
  8
DATA
  6
CONTINUOUS
 62
     7
 10
-153.72485346860779
 20
225.15181814990089
 30
0.0
 11
-153.72485346860779
 21
224.9518181499009
 31
0.0
  0
LINE
  5
2E6
  8
DATA
  6
CONTINUOUS
 62
     7
 10
-148.42485346860789
 20
225.15181814990089
 30
0.0
 11
-148.42485346860789
 21
224.9518181499009
 31
0.0
  0
LINE
  5
2E7
  8
DATA
  6
CONTINUOUS
 62
     7
 10
-153.72485346860779
 20
224.9518181499009
 30
0.0
 11
-148.43485346860791
 21
224.9518181499009
 31
0.0
  0
LINE
  5
2E8
  8
DATA
  6
CONTINUOUS
 62
     7
 10
-149.2267765455309
 20
223.4518181499009
 30
0.0
 11
-152.9229303916847
 21
223.4518181499009
 31
0.0
  0
TEXT
  5
2E9
  8
DATA
 62
     7
 10
-144.9021332452362
 20
212.22650962994999
 30
0.0
 40
1.923828125
  1
 LOW/LOW-MID
 50
180.0
 41
0.7
 11
-144.9021332452362
 21
210.30268150494999
 31
0.0
 73
     3
  0
TEXT
  5
2EA
  8
DATA
 62
     7
 10
-155.3621972241248
 20
222.33378204251639
 30
0.0
 40
1.923828125
  1
X1
 50
180.0
 41
0.7
 11
-155.3621972241248
 21
220.40995391751639
 31
0.0
 73
     3
  0
TEXT
  5
2EB
  8
DATA
 62
     7
 10
-155.3621972241248
 20
224.83378204251639
 30
0.0
 40
1.923828125
  1
X10
 50
180.0
 41
0.7
 11
-155.3621972241248
 21
222.90995391751639
 31
0.0
 73
     3
  0
TEXT
  5
2EC
  8
DATA
 62
     7
 10
-31.867613956813031
 20
210.1513360201875
 30
0.0
 40
2.7318359375000001
  1
MODE
 50
180.0
 41
0.7
 11
-31.867613956813031
 21
207.41950008268751
 31
0.0
 73
     3
  0
TEXT
  5
2ED
  8
DATA
 62
     7
 10
-51.045621740137094
 20
210.1513360201875
 30
0.0
 40
2.7318359375000001
  1
LF SUM
 50
180.0
 41
0.7
 11
-51.045621740137094
 21
207.41950008268751
 31
0.0
 73
     3
  0
TEXT
  5
2EE
  8
DATA
 62
     7
 10
-25.362861801832089
 20
213.00509754626989
 30
0.0
 40
1.923828125
  1
 MONO
 50
180.0
 41
0.7
 11
-25.362861801832089
 21
211.08126942126989
 31
0.0
 73
     3
  0
TEXT
  5
2EF
  8
DATA
 62
     7
 10
-51.856485160836179
 20
213.56834585337859
 30
0.0
 40
1.923828125
  1
 ONLY
 50
180.0
 41
0.7
 11
-51.856485160836179
 21
211.64451772837859
 31
0.0
 73
     3
  0
TEXT
  5
2F0
  8
DATA
 62
     7
 10
-25.76785726329409
 20
220.21464677786449
 30
0.0
 40
1.923828125
  1
 NOT
 50
180.0
 41
0.7
 11
-25.76785726329409
 21
218.29081865286449
 31
0.0
 73
     3
  0
TEXT
  5
2F1
  8
DATA
 62
     7
 10
-51.991635263274233
 20
222.09517492152921
 30
0.0
 40
1.923828125
  1
 NORMAL
 50
180.0
 41
0.7
 11
-51.991635263274233
 21
220.17134679652921
 31
0.0
 73
     3
  0
TEXT
  5
2F2
  8
DATA
 62
     7
 10
-51.792702990243122
 20
227.8665272267458
 30
0.0
 40
1.923828125
  1
 SUMMED
 50
180.0
 41
0.7
 11
-51.792702990243122
 21
225.9426991017458
 31
0.0
 73
     3
  0
TEXT
  5
2F3
  8
DATA
 62
     7
 10
-20.33182383337304
 20
237.88702480197239
 30
0.0
 40
1.7314453125
  1
STEREO 3-WAY
 50
180.0
 41
0.7
 11
-20.33182383337304
 21
236.15557948947239
 31
0.0
 73
     3
  0
TEXT
  5
2F4
  8
DATA
 62
     7
 10
-51.28306776685109
 20
238.04429183444751
 30
0.0
 40
1.923828125
  1
 LOW SUM
 50
180.0
 41
0.7
 11
-51.28306776685109
 21
236.12046370944751
 31
0.0
 73
     3
  0
CIRCLE
  5
2F5
  8
DATA
  6
CONTINUOUS
 62
     7
 10
152.09986326501479
 20
220.10704684997921
 30
0.0
 40
3.350000000000021
  0
CIRCLE
  5
2F6
  8
DATA
  6
CONTINUOUS
 62
     7
 10
119.0998632650148
 20
220.10704684997921
 30
0.0
 40
3.350000000000021
  0
TEXT
  5
2F7
  8
DATA
 62
     7
 10
-175.12729840180111
 20
-185.5298793618081
 30
0.0
 40
2.693359375
  1
CHANNEL ONE
 41
0.7
 11
-175.12729840180111
 21
-182.8365199868081
 31
0.0
 73
     3
  0
TEXT
  5
2F8
  8
DATA
 62
     7
 10
-56.19024030806262
 20
-211.8169415786262
 30
0.0
 40
1.846875
  1
-∞
 41
0.7
 11
-56.19024030806262
 21
-209.97006657862619
 31
0.0
 73
     3
  0
LINE
  5
2F9
  8
DATA
  6
CONTINUOUS
 62
     7
 10
-178.2243055448248
 20
78.822927197942576
 30
0.0
 11
-178.2243055448248
 21
75.822927197943301
 31
0.0
  0
LINE
  5
2FA
  8
DATA
  6
CONTINUOUS
 62
     7
 10
-173.42430554483241
 20
78.822927197942576
 30
0.0
 11
-173.42430554483241
 21
75.822927197943301
 31
0.0
  0
LINE
  5
2FB
  8
DATA
  6
CONTINUOUS
 62
     7
 10
-180.72430554482131
 20
78.822927197942576
 30
0.0
 11
-170.92430554483241
 21
78.822927197942576
 31
0.0
  0
LINE
  5
2FC
  8
DATA
  6
CONTINUOUS
 62
     7
 10
-180.72430554482131
 20
79.022927197942636
 30
0.0
 11
-170.92430554483241
 21
79.022927197942636
 31
0.0
  0
LINE
  5
2FD
  8
DATA
  6
CONTINUOUS
 62
     7
 10
-180.72430554482131
 20
78.822927197942576
 30
0.0
 11
-180.72430554482131
 21
79.022927197942636
 31
0.0
  0
LINE
  5
2FE
  8
DATA
  6
CONTINUOUS
 62
     7
 10
-170.92430554483241
 20
78.822927197942576
 30
0.0
 11
-170.92430554483241
 21
79.022927197942636
 31
0.0
  0
LINE
  5
2FF
  8
DATA
  6
CONTINUOUS
 62
     7
 10
-178.2243055448248
 20
75.822927197943301
 30
0.0
 11
-178.2243055448248
 21
74.999999999813227
 31
0.0
  0
LINE
  5
300
  8
DATA
  6
CONTINUOUS
 62
     7
 10
-173.42430554483241
 20
75.822927197943301
 30
0.0
 11
-173.42430554483241
 21
74.999999999813227
 31
0.0
  0
LINE
  5
301
  8
DATA
  6
CONTINUOUS
 62
     7
 10
-10.26960220534859
 20
78.822927197942576
 30
0.0
 11
-10.26960220534859
 21
75.822927197943301
 31
0.0
  0
LINE
  5
302
  8
DATA
  6
CONTINUOUS
 62
     7
 10
-5.4696022053561393
 20
78.822927197942576
 30
0.0
 11
-5.4696022053561393
 21
75.822927197943301
 31
0.0
  0
LINE
  5
303
  8
DATA
  6
CONTINUOUS
 62
     7
 10
-12.76960220534523
 20
78.822927197942576
 30
0.0
 11
-2.9696022053561379
 21
78.822927197942576
 31
0.0
  0
LINE
  5
304
  8
DATA
  6
CONTINUOUS
 62
     7
 10
-12.76960220534523
 20
79.022927197942636
 30
0.0
 11
-2.9696022053561379
 21
79.022927197942636
 31
0.0
  0
LINE
  5
305
  8
DATA
  6
CONTINUOUS
 62
     7
 10
-12.76960220534523
 20
78.822927197942576
 30
0.0
 11
-12.76960220534523
 21
79.022927197942636
 31
0.0
  0
LINE
  5
306
  8
DATA
  6
CONTINUOUS
 62
     7
 10
-2.9696022053561379
 20
78.822927197942576
 30
0.0
 11
-2.9696022053561379
 21
79.022927197942636
 31
0.0
  0
LINE
  5
307
  8
DATA
  6
CONTINUOUS
 62
     7
 10
-10.26960220534859
 20
75.822927197943301
 30
0.0
 11
-10.26960220534859
 21
74.999999999813227
 31
0.0
  0
LINE
  5
308
  8
DATA
  6
CONTINUOUS
 62
     7
 10
-5.4696022053561393
 20
75.822927197943301
 30
0.0
 11
-5.4696022053561393
 21
74.999999999813227
 31
0.0
  0
ARC
  5
309
  8
DATA
  6
CONTINUOUS
 62
     7
 10
-16.124202452160031
 20
-202.5949031705521
 30
0.0
 40
4.7499999999998987
 50
98.302906098070679
 51
78.905036031999231
  0
ARC
  5
30A
  8
DATA
  6
CONTINUOUS
 62
     7
 10
-16.1242024521604
 20
-202.5949031705525
 30
0.0
 40
6.2500000000001981
 50
96.300838472254142
 51
81.590263166657877
  0
LINE
  5
30B
  8
DATA
  6
CONTINUOUS
 62
     7
 10
-16.11013280719045
 20
-195.37856906325359
 30
0.0
 11
-15.91013280719063
 21
-195.37856906325359
 31
0.0
  0
ARC
  5
30C
  8
DATA
  6
CONTINUOUS
 62
     7
 10
-16.11013280719045
 20
-196.0785690632537
 30
0.0
 40
0.7000000000000455
 50
90.0
 51
179.99999999999071
  0
LINE
  5
30D
  8
DATA
  6
CONTINUOUS
 62
     7
 10
-16.810132807190602
 20
-201.83856906325369
 30
0.0
 11
-16.810132807190499
 21
-196.0785690632537
 31
0.0
  0
ARC
  5
30E
  8
DATA
  6
CONTINUOUS
 62
     7
 10
-16.110132807190631
 20
-201.83856906325369
 30
0.0
 40
0.6999999999999889
 50
180.0
 51
270.0
  0
LINE
  5
30F
  8
DATA
  6
CONTINUOUS
 62
     7
 10
-15.91013280719063
 20
-202.5385690632537
 30
0.0
 11
-16.11013280719056
 21
-202.5385690632537
 31
0.0
  0
ARC
  5
310
  8
DATA
  6
CONTINUOUS
 62
     7
 10
-15.91013280719063
 20
-201.83856906325369
 30
0.0
 40
0.6999999999999318
 50
270.0
 51
0.0
  0
LINE
  5
311
  8
DATA
  6
CONTINUOUS
 62
     7
 10
-15.2101328071907
 20
-196.0785690632537
 30
0.0
 11
-15.2101328071907
 21
-201.83856906325369
 31
0.0
  0
ARC
  5
312
  8
DATA
  6
CONTINUOUS
 62
     7
 10
-15.910132807190751
 20
-196.0785690632537
 30
0.0
 40
0.7000000000000455
 50
0.0
 51
89.999999999990649
  0
LINE
  5
313
  8
DATA
  6
CONTINUOUS
 62
     7
 10
-20.806349395606631
 20
-201.79490317055229
 30
0.0
 11
-22.322791001176839
 21
-201.79490317055229
 31
0.0
  0
LINE
  5
314
  8
DATA
  6
CONTINUOUS
 62
     7
 10
-20.806349395606631
 20
-203.39490317055231
 30
0.0
 11
-22.322791001176839
 21
-203.39490317055231
 31
0.0
  0
LINE
  5
315
  8
DATA
  6
CONTINUOUS
 62
     7
 10
-11.44205550871369
 20
-201.79490317055229
 30
0.0
 11
-9.9256139031435993
 21
-201.79490317055229
 31
0.0
  0
LINE
  5
316
  8
DATA
  6
CONTINUOUS
 62
     7
 10
-11.44205550871369
 20
-203.39490317055231
 30
0.0
 11
-9.9256139031435993
 21
-203.39490317055231
 31
0.0
  0
LINE
  5
317
  8
DATA
  6
CONTINUOUS
 62
     7
 10
-20.00066573132893
 20
-199.84981074128191
 30
0.0
 11
-21.072951873904358
 21
-198.77752459870641
 31
0.0
  0
LINE
  5
318
  8
DATA
  6
CONTINUOUS
 62
     7
 10
-18.86929488143495
 20
-198.71843989137901
 30
0.0
 11
-19.941581024005821
 21
-197.6461537488081
 31
0.0
  0
LINE
  5
319
  8
DATA
  6
CONTINUOUS
 62
     7
 10
-13.379110022889799
 20
-198.71843989138341
 30
0.0
 11
-12.306823880314489
 21
-197.6461537488081
 31
0.0
  0
LINE
  5
31A
  8
DATA
  6
CONTINUOUS
 62
     7
 10
-11.17545303041596
 20
-198.77752459870669
 30
0.0
 11
-12.24773917298695
 21
-199.84981074127771
 31
0.0
  0
LINE
  5
31B
  8
DATA
  6
CONTINUOUS
 62
     7
 10
-11.17545303041596
 20
-206.41228174239799
 30
0.0
 11
-12.24773917298695
 21
-205.33999559982701
 31
0.0
  0
LINE
  5
31C
  8
DATA
  6
CONTINUOUS
 62
     7
 10
-12.306823880314489
 20
-207.5436525922965
 30
0.0
 11
-13.379110022889799
 21
-206.47136644972119
 31
0.0
  0
ARC
  5
31D
  8
DATA
  6
CONTINUOUS
 62
     7
 10
-16.192620213704458
 20
-202.46039801474521
 30
0.0
 40
6.8399999999999812
 50
93.853979695462783
 51
240.8827141056729
  0
ARC
  5
31E
  8
DATA
  6
CONTINUOUS
 62
     7
 10
-16.192620213704458
 20
-202.46039801474521
 30
0.0
 40
6.840000000000086
 50
300.6592833848452
 51
82.830667981082513
  0
LINE
  5
31F
  8
DATA
  6
CONTINUOUS
 62
     7
 10
-8.3392024521600803
 20
-202.5307454864753
 30
0.0
 11
-9.3529819752283334
 21
-202.5307454864753
 31
0.0
  0
LINE
  5
320
  8
DATA
  6
CONTINUOUS
 62
     7
 10
-19.520957179926668
 20
-208.43599614708731
 30
0.0
 11
-19.994222258182411
 21
-209.28568232562881
 31
0.0
  0
LINE
  5
321
  8
DATA
  6
CONTINUOUS
 62
     7
 10
-20.937869505505681
 20
-207.3866754286405
 30
0.0
 11
-21.595254913385372
 21
-208.06913965505271
 31
0.0
  0
LINE
  5
322
  8
DATA
  6
CONTINUOUS
 62
     7
 10
-22.065675937693321
 20
-205.96650931688009
 30
0.0
 11
-22.863847972521871
 21
-206.427334156048
 31
0.0
  0
LINE
  5
323
  8
DATA
  6
CONTINUOUS
 62
     7
 10
-22.739311673792049
 20
-204.44192039069961
 30
0.0
 11
-23.600151495995771
 21
-204.7024754176484
 31
0.0
  0
LINE
  5
324
  8
DATA
  6
CONTINUOUS
 62
     7
 10
-23.0322584521805
 20
-202.5307454864753
 30
0.0
 11
-23.909202452158429
 21
-202.5307454864753
 31
0.0
  0
LINE
  5
325
  8
DATA
  6
CONTINUOUS
 62
     7
 10
-22.800035372991161
 20
-200.69187747122879
 30
0.0
 11
-23.6566563675723
 21
-200.56393003702539
 31
0.0
  0
LINE
  5
326
  8
DATA
  6
CONTINUOUS
 62
     7
 10
-22.13602530390007
 20
-199.07490899041761
 30
0.0
 11
-22.87130005020903
 21
-198.6470746710755
 31
0.0
  0
LINE
  5
327
  8
DATA
  6
CONTINUOUS
 62
     7
 10
-21.10569888310614
 20
-197.70148448451411
 30
0.0
 11
-21.704620176056
 21
-197.10256319156429
 31
0.0
  0
LINE
  5
328
  8
DATA
  6
CONTINUOUS
 62
     7
 10
-19.646317501935531
 20
-196.55636760822111
 30
0.0
 11
-20.071179562385979
 21
-195.82048493331271
 31
0.0
  0
LINE
  5
329
  8
DATA
  6
CONTINUOUS
 62
     7
 10
-17.80843423994601
 20
-195.8139895836367
 30
0.0
 11
-18.011668100733239
 21
-194.9780176067348
 31
0.0
  0
LINE
  5
32A
  8
DATA
  6
CONTINUOUS
 62
     7
 10
-14.2003636102735
 20
-195.9169651522391
 30
0.0
 11
-13.93905294377215
 21
-195.0587078376121
 31
0.0
  0
LINE
  5
32B
  8
DATA
  6
CONTINUOUS
 62
     7
 10
-12.66162279838194
 20
-196.6022705619707
 30
0.0
 11
-12.1869558915197
 21
-195.81477090933831
 31
0.0
  0
LINE
  5
32C
  8
DATA
  6
CONTINUOUS
 62
     7
 10
-11.331333231001411
 20
-197.64859077923199
 30
0.0
 11
-10.6791406869204
 21
-196.97849771140611
 31
0.0
  0
LINE
  5
32D
  8
DATA
  6
CONTINUOUS
 62
     7
 10
-10.177435688595329
 20
-199.20414938650649
 30
0.0
 11
-9.3332782880119236
 21
-198.7242281810156
 31
0.0
  0
LINE
  5
32E
  8
DATA
  6
CONTINUOUS
 62
     7
 10
-9.5821715759857522
 20
-200.70325009607279
 30
0.0
 11
-8.5996371466808483
 21
-200.53396258302899
 31
0.0
  0
LINE
  5
32F
  8
DATA
  6
CONTINUOUS
 62
     7
 10
-8.6739737567537656
 20
-204.57635288822431
 30
0.0
 11
-9.6102449060916921
 21
-204.319950463514
 31
0.0
  0
LINE
  5
330
  8
DATA
  6
CONTINUOUS
 62
     7
 10
-10.29509457791211
 20
-205.92519113629831
 30
0.0
 11
-9.3987555378804615
 21
-206.45178983756259
 31
0.0
  0
LINE
  5
331
  8
DATA
  6
CONTINUOUS
 62
     7
 10
-10.543784728263979
 20
-207.95892778138651
 30
0.0
 11
-11.281440881284659
 21
-207.2212716283658
 31
0.0
  0
LINE
  5
332
  8
DATA
  6
CONTINUOUS
 62
     7
 10
-12.17722534193719
 20
-209.24100603963291
 30
0.0
 11
-12.704687081354351
 21
-208.3442676992604
 31
0.0
  0
LINE
  5
333
  8
DATA
  6
CONTINUOUS
 62
     7
 10
-15.99495752348083
 20
-195.37856906325359
 30
0.0
 11
-15.99495752348083
 21
-194.60625464482081
 31
0.0
  0
LINE
  5
334
  8
DATA
  6
CONTINUOUS
 62
     7
 10
-19.906681618778421
 20
-205.45747235478649
 30
0.0
 11
-20.944248667385079
 21
-206.56338815753281
 31
0.0
  0
LINE
  5
335
  8
DATA
  6
CONTINUOUS
 62
     7
 10
-19.77739510844221
 20
-207.65812683501809
 30
0.0
 11
-18.739828059839748
 21
-206.5522110322764
 31
0.0
  0
LINE
  5
336
  8
DATA
  6
CONTINUOUS
 62
     7
 10
-16.810132807190602
 20
-207.29511588361649
 30
0.0
 11
-16.810132807190602
 21
-208.80714910483809
 31
0.0
  0
LINE
  5
337
  8
DATA
  6
CONTINUOUS
 62
     7
 10
-15.2101328071907
 20
-207.25612368498281
 30
0.0
 11
-15.2101328071907
 21
-208.777700004037
 31
0.0
  0
TEXT
  5
338
  8
DATA
 62
     7
 10
-12.118722785439941
 20
-211.56840970317941
 30
0.0
 40
1.5390625
  1
+6
 41
0.7
 11
-12.118722785439941
 21
-210.02934720317941
 31
0.0
 73
     3
  0
TEXT
  5
339
  8
DATA
 62
     7
 10
-18.664828851944069
 20
-215.79654503030341
 30
0.0
 40
1.764577907986109
  1
GAIN
 41
0.7
 11
-18.664828851944069
 21
-214.0319671223173
 31
0.0
 73
     3
  0
TEXT
  5
33A
  8
DATA
 62
     7
 10
-23.16242962118271
 20
-224.0634674788559
 30
0.0
 40
2.1162109375
  1
HIGH OUTPUT
 41
0.7
 11
-23.16242962118271
 21
-221.9472565413559
 31
0.0
 73
     3
  0
TEXT
  5
33B
  8
DATA
 62
     7
 10
-17.460729669227511
 20
-212.97952295069101
 30
0.0
 40
1.764577907986109
  1
dB
 41
0.7
 11
-17.460729669227511
 21
-211.2149450427049
 31
0.0
 73
     3
  0
TEXT
  5
33C
  8
DATA
 62
     7
 10
-17.798038104120121
 20
-194.21846747885601
 30
0.0
 40
1.5390625
  1
-10
 41
0.7
 11
-17.798038104120121
 21
-192.67940497885601
 31
0.0
 73
     3
  0
TEXT
  5
33D
  8
DATA
 62
     7
 10
-27.441309191351721
 20
-202.7811590439633
 30
0.0
 40
1.5390625
  1
-30
 41
0.7
 11
-27.441309191351721
 21
-201.2420965439633
 31
0.0
 73
     3
  0
TEXT
  5
33E
  8
DATA
 62
     7
 10
-7.6861127994421681
 20
-203.14981326140961
 30
0.0
 40
1.5390625
  1
0
 41
0.7
 11
-7.6861127994421681
 21
-201.61075076140961
 31
0.0
 73
     3
  0
CIRCLE
  5
33F
  8
DATA
  6
CONTINUOUS
 62
     7
 10
-4.0771656540439523
 20
-211.0007566065396
 30
0.0
 40
2.6349999999984841
  0
CIRCLE
  5
340
  8
DATA
  6
CONTINUOUS
 62
     7
 10
-4.0771656540439523
 20
-211.0007566065396
 30
0.0
 40
1.6999999999982831
  0
CIRCLE
  5
341
  8
DATA
  6
CONTINUOUS
 62
     7
 10
2.9326379540480181
 20
-211.0007566065396
 30
0.0
 40
1.5
  0
TEXT
  5
342
  8
DATA
 62
     7
 10
-5.3944366408314863
 20
-207.38091044939469
 30
0.0
 40
1.5390625
  1
\U+03A6INV
 41
0.7
 11
-5.3944366408314863
 21
-205.84184794939469
 31
0.0
 73
     3
  0
TEXT
  5
343
  8
DATA
 62
     7
 10
-23.190240308062631
 20
-211.8169415786262
 30
0.0
 40
1.846875
  1
-∞
 41
0.7
 11
-23.190240308062631
 21
-209.97006657862619
 31
0.0
 73
     3
  0
ARC
  5
344
  8
DATA
  6
CONTINUOUS
 62
     7
 10
-105.0979283378385
 20
-202.59490317055241
 30
0.0
 40
4.7500000000006759
 50
98.302906098068433
 51
78.905036031995223
  0
ARC
  5
345
  8
DATA
  6
CONTINUOUS
 62
     7
 10
-105.0979283378387
 20
-202.5949031705525
 30
0.0
 40
6.2500000000008811
 50
96.300838472253872
 51
81.590263166658275
  0
LINE
  5
346
  8
DATA
  6
CONTINUOUS
 62
     7
 10
-105.0838586928687
 20
-195.37856906325359
 30
0.0
 11
-104.8838586928689
 21
-195.37856906325359
 31
0.0
  0
ARC
  5
347
  8
DATA
  6
CONTINUOUS
 62
     7
 10
-105.0838586928687
 20
-196.07856906325401
 30
0.0
 40
0.7000000000002729
 50
90.0
 51
179.99999999997209
  0
LINE
  5
348
  8
DATA
  6
CONTINUOUS
 62
     7
 10
-105.7838586928689
 20
-201.83856906325369
 30
0.0
 11
-105.7838586928688
 21
-196.0785690632537
 31
0.0
  0
ARC
  5
349
  8
DATA
  6
CONTINUOUS
 62
     7
 10
-105.083858692869
 20
-201.83856906325369
 30
0.0
 40
0.6999999999999889
 50
180.0
 51
270.00000000000472
  0
LINE
  5
34A
  8
DATA
  6
CONTINUOUS
 62
     7
 10
-104.8838586928689
 20
-202.5385690632537
 30
0.0
 11
-105.0838586928688
 21
-202.5385690632537
 31
0.0
  0
ARC
  5
34B
  8
DATA
  6
CONTINUOUS
 62
     7
 10
-104.8838586928689
 20
-201.83856906325369
 30
0.0
 40
0.6999999999999318
 50
270.0
 51
0.0
  0
LINE
  5
34C
  8
DATA
  6
CONTINUOUS
 62
     7
 10
-104.1838586928688
 20
-196.0785690632537
 30
0.0
 11
-104.1838586928688
 21
-201.83856906325369
 31
0.0
  0
ARC
  5
34D
  8
DATA
  6
CONTINUOUS
 62
     7
 10
-104.8838586928689
 20
-196.0785690632537
 30
0.0
 40
0.7000000000000455
 50
0.0
 51
90.0
  0
LINE
  5
34E
  8
DATA
  6
CONTINUOUS
 62
     7
 10
-109.78007528128541
 20
-201.79490317055229
 30
0.0
 11
-111.2965168868558
 21
-201.79490317055229
 31
0.0
  0
LINE
  5
34F
  8
DATA
  6
CONTINUOUS
 62
     7
 10
-109.78007528128541
 20
-203.39490317055231
 30
0.0
 11
-111.2965168868558
 21
-203.39490317055231
 31
0.0
  0
LINE
  5
350
  8
DATA
  6
CONTINUOUS
 62
     7
 10
-100.4157813943913
 20
-201.79490317055229
 30
0.0
 11
-98.899339788821166
 21
-201.79490317055229
 31
0.0
  0
LINE
  5
351
  8
DATA
  6
CONTINUOUS
 62
     7
 10
-100.4157813943913
 20
-203.39490317055231
 30
0.0
 11
-98.899339788821166
 21
-203.39490317055231
 31
0.0
  0
LINE
  5
352
  8
DATA
  6
CONTINUOUS
 62
     7
 10
-108.9743916170076
 20
-199.84981074128191
 30
0.0
 11
-110.0466777595832
 21
-198.77752459870641
 31
0.0
  0
LINE
  5
353
  8
DATA
  6
CONTINUOUS
 62
     7
 10
-107.8430207671135
 20
-198.71843989137901
 30
0.0
 11
-108.9153069096845
 21
-197.6461537488081
 31
0.0
  0
LINE
  5
354
  8
DATA
  6
CONTINUOUS
 62
     7
 10
-102.3528359085677
 20
-198.71843989138341
 30
0.0
 11
-101.2805497659923
 21
-197.6461537488081
 31
0.0
  0
LINE
  5
355
  8
DATA
  6
CONTINUOUS
 62
     7
 10
-100.1491789160936
 20
-198.77752459870669
 30
0.0
 11
-101.22146505866471
 21
-199.84981074127771
 31
0.0
  0
LINE
  5
356
  8
DATA
  6
CONTINUOUS
 62
     7
 10
-100.1491789160936
 20
-206.41228174239799
 30
0.0
 11
-101.22146505866471
 21
-205.33999559982701
 31
0.0
  0
LINE
  5
357
  8
DATA
  6
CONTINUOUS
 62
     7
 10
-101.2805497659923
 20
-207.5436525922965
 30
0.0
 11
-102.3528359085677
 21
-206.47136644972119
 31
0.0
  0
ARC
  5
358
  8
DATA
  6
CONTINUOUS
 62
     7
 10
-105.16634609938269
 20
-202.46039801474521
 30
0.0
 40
6.8399999999999883
 50
93.853979695463693
 51
240.88271410567049
  0
ARC
  5
359
  8
DATA
  6
CONTINUOUS
 62
     7
 10
-105.16634609938269
 20
-202.46039801474521
 30
0.0
 40
6.840000000000261
 50
300.65928338484781
 51
82.830667981081575
  0
LINE
  5
35A
  8
DATA
  6
CONTINUOUS
 62
     7
 10
-97.312928337837434
 20
-202.5307454864753
 30
0.0
 11
-98.326707860905785
 21
-202.5307454864753
 31
0.0
  0
LINE
  5
35B
  8
DATA
  6
CONTINUOUS
 62
     7
 10
-108.4946830656052
 20
-208.43599614708731
 30
0.0
 11
-108.96794814386109
 21
-209.28568232562881
 31
0.0
  0
LINE
  5
35C
  8
DATA
  6
CONTINUOUS
 62
     7
 10
-109.91159539118441
 20
-207.3866754286405
 30
0.0
 11
-110.56898079906431
 21
-208.06913965505271
 31
0.0
  0
LINE
  5
35D
  8
DATA
  6
CONTINUOUS
 62
     7
 10
-111.0394018233722
 20
-205.96650931688009
 30
0.0
 11
-111.8375738582009
 21
-206.427334156048
 31
0.0
  0
LINE
  5
35E
  8
DATA
  6
CONTINUOUS
 62
     7
 10
-111.7130375594711
 20
-204.44192039069961
 30
0.0
 11
-112.5738773816749
 21
-204.7024754176484
 31
0.0
  0
LINE
  5
35F
  8
DATA
  6
CONTINUOUS
 62
     7
 10
-112.0059843378595
 20
-202.5307454864753
 30
0.0
 11
-112.8829283378376
 21
-202.5307454864753
 31
0.0
  0
LINE
  5
360
  8
DATA
  6
CONTINUOUS
 62
     7
 10
-111.77376125867021
 20
-200.69187747122879
 30
0.0
 11
-112.6303822532514
 21
-200.56393003702539
 31
0.0
  0
LINE
  5
361
  8
DATA
  6
CONTINUOUS
 62
     7
 10
-111.109751189579
 20
-199.07490899041761
 30
0.0
 11
-111.845025935888
 21
-198.6470746710755
 31
0.0
  0
LINE
  5
362
  8
DATA
  6
CONTINUOUS
 62
     7
 10
-110.0794247687849
 20
-197.70148448451411
 30
0.0
 11
-110.6783460617349
 21
-197.10256319156429
 31
0.0
  0
LINE
  5
363
  8
DATA
  6
CONTINUOUS
 62
     7
 10
-108.6200433876142
 20
-196.55636760822111
 30
0.0
 11
-109.0449054480647
 21
-195.82048493331271
 31
0.0
  0
LINE
  5
364
  8
DATA
  6
CONTINUOUS
 62
     7
 10
-106.7821601256245
 20
-195.8139895836367
 30
0.0
 11
-106.98539398641169
 21
-194.9780176067348
 31
0.0
  0
LINE
  5
365
  8
DATA
  6
CONTINUOUS
 62
     7
 10
-103.17408949595151
 20
-195.9169651522391
 30
0.0
 11
-102.9127788294502
 21
-195.0587078376121
 31
0.0
  0
LINE
  5
366
  8
DATA
  6
CONTINUOUS
 62
     7
 10
-101.63534868405981
 20
-196.6022705619707
 30
0.0
 11
-101.1606817771975
 21
-195.81477090933831
 31
0.0
  0
LINE
  5
367
  8
DATA
  6
CONTINUOUS
 62
     7
 10
-100.3050591166791
 20
-197.64859077923199
 30
0.0
 11
-99.652866572598086
 21
-196.97849771140611
 31
0.0
  0
LINE
  5
368
  8
DATA
  6
CONTINUOUS
 62
     7
 10
-99.151161574272905
 20
-199.20414938650649
 30
0.0
 11
-98.307004173689364
 21
-198.7242281810156
 31
0.0
  0
LINE
  5
369
  8
DATA
  6
CONTINUOUS
 62
     7
 10
-98.555897461663207
 20
-200.70325009607279
 30
0.0
 11
-97.573363032358188
 21
-200.53396258302899
 31
0.0
  0
LINE
  5
36A
  8
DATA
  6
CONTINUOUS
 62
     7
 10
-97.647699642431093
 20
-204.57635288822431
 30
0.0
 11
-98.583970791769147
 21
-204.319950463514
 31
0.0
  0
LINE
  5
36B
  8
DATA
  6
CONTINUOUS
 62
     7
 10
-99.268820463589691
 20
-205.92519113629831
 30
0.0
 11
-98.372481423557929
 21
-206.45178983756259
 31
0.0
  0
LINE
  5
36C
  8
DATA
  6
CONTINUOUS
 62
     7
 10
-99.517510613941553
 20
-207.95892778138651
 30
0.0
 11
-100.2551667669623
 21
-207.2212716283658
 31
0.0
  0
LINE
  5
36D
  8
DATA
  6
CONTINUOUS
 62
     7
 10
-101.150951227615
 20
-209.24100603963291
 30
0.0
 11
-101.6784129670322
 21
-208.3442676992604
 31
0.0
  0
LINE
  5
36E
  8
DATA
  6
CONTINUOUS
 62
     7
 10
-104.9686834091591
 20
-195.37856906325359
 30
0.0
 11
-104.9686834091591
 21
-194.60625464482081
 31
0.0
  0
TEXT
  5
36F
  8
DATA
 62
     7
 10
-112.0727989741621
 20
-211.61729378977199
 30
0.0
 40
1.5390625
  1
450
 41
0.7
 11
-112.0727989741621
 21
-210.07823128977199
 31
0.0
 73
     3
  0
TEXT
  5
370
  8
DATA
 62
     7
 10
-101.4072715864169
 20
-211.56840970317941
 30
0.0
 40
1.5390625
  1
9.6k
 41
0.7
 11
-101.4072715864169
 21
-210.02934720317941
 31
0.0
 73
     3
  0
LINE
  5
371
  8
DATA
  6
CONTINUOUS
 62
     7
 10
-108.8804075044571
 20
-205.45747235478649
 30
0.0
 11
-109.9179745530639
 21
-206.56338815753281
 31
0.0
  0
LINE
  5
372
  8
DATA
  6
CONTINUOUS
 62
     7
 10
-108.7511209941209
 20
-207.65812683501809
 30
0.0
 11
-107.7135539455183
 21
-206.5522110322764
 31
0.0
  0
LINE
  5
373
  8
DATA
  6
CONTINUOUS
 62
     7
 10
-105.7838586928689
 20
-207.29511588361649
 30
0.0
 11
-105.7838586928689
 21
-208.80714910483809
 31
0.0
  0
LINE
  5
374
  8
DATA
  6
CONTINUOUS
 62
     7
 10
-104.1838586928688
 20
-207.25612368498281
 30
0.0
 11
-104.1838586928688
 21
-208.777700004037
 31
0.0
  0
TEXT
  5
375
  8
DATA
 62
     7
 10
-116.2902487232594
 20
-203.34828074055031
 30
0.0
 40
1.5390625
  1
700
 41
0.7
 11
-116.2902487232594
 21
-201.80921824055031
 31
0.0
 73
     3
  0
TEXT
  5
376
  8
DATA
 62
     7
 10
-96.904474862113588
 20
-204.7148964802432
 30
0.0
 40
1.5390625
  1
6.8k
 41
0.7
 11
-96.904474862113588
 21
-203.1758339802432
 31
0.0
 73
     3
  0
TEXT
  5
377
  8
DATA
 62
     7
 10
-106.31793268765141
 20
-194.1990470009799
 30
0.0
 40
1.5390625
  1
2.4k
 41
0.7
 11
-106.31793268765141
 21
-192.6599845009799
 31
0.0
 73
     3
  0
TEXT
  5
378
  8
DATA
 62
     7
 10
-115.340703143941
 20
-197.05455528893049
 30
0.0
 40
1.5390625
  1
1.4k
 41
0.7
 11
-115.340703143941
 21
-195.51549278893049
 31
0.0
 73
     3
  0
TEXT
  5
379
  8
DATA
 62
     7
 10
-99.449278470204348
 20
-197.12378370255001
 30
0.0
 40
1.5390625
  1
3.5k
 41
0.7
 11
-99.449278470204348
 21
-195.58472120255001
 31
0.0
 73
     3
  0
TEXT
  5
37A
  8
DATA
 62
     7
 10
-110.59341626733971
 20
-215.79654503030341
 30
0.0
 40
1.764577907986109
  1
XOVER FREQ
 41
0.7
 11
-110.59341626733971
 21
-214.0319671223173
 31
0.0
 73
     3
  0
TEXT
  5
37B
  8
DATA
 62
     7
 10
-115.011311297498
 20
-220.42126151706319
 30
0.0
 40
1.764577907986109
  1
LOW-MID/HIGH-MID
 41
0.7
 11
-115.011311297498
 21
-218.65668360907711
 31
0.0
 73
     3
  0
TEXT
  5
37C
  8
DATA
 62
     7
 10
-111.4488221092202
 20
-224.0634674788559
 30
0.0
 40
2.1162109375
  1
MID/HIGH
 41
0.7
 11
-111.4488221092202
 21
-221.9472565413559
 31
0.0
 73
     3
  0
TEXT
  5
37D
  8
DATA
 62
     7
 10
-106.2077073349287
 20
-212.97952295069101
 30
0.0
 40
1.764577907986109
  1
Hz
 41
0.7
 11
-106.2077073349287
 21
-211.2149450427049
 31
0.0
 73
     3
  0
TEXT
  5
37E
  8
DATA
 62
     7
 10
-58.026200440658087
 20
-220.42126151706319
 30
0.0
 40
1.764577907986109
  1
LOW-MID OUTPUT
 41
0.7
 11
-58.026200440658087
 21
-218.65668360907711
 31
0.0
 73
     3
  0
TEXT
  5
37F
  8
DATA
 62
     7
 10
-88.086452767547343
 20
-220.42126151706319
 30
0.0
 40
1.764577907986109
  1
LOW OUTPUT
 41
0.7
 11
-88.086452767547343
 21
-218.65668360907711
 31
0.0
 73
     3
  0
ARC
  5
380
  8
DATA
  6
CONTINUOUS
 62
     7
 10
37.386032129145008
 20
-202.5949031705525
 30
0.0
 40
4.7500000000007123
 50
98.302906098066515
 51
78.90503603199366
  0
ARC
  5
381
  8
DATA
  6
CONTINUOUS
 62
     7
 10
37.386032129145093
 20
-202.5949031705525
 30
0.0
 40
6.2500000000008882
 50
96.300838472254284
 51
81.590263166658715
  0
LINE
  5
382
  8
DATA
  6
CONTINUOUS
 62
     7
 10
37.400101774115022
 20
-195.37856906325359
 30
0.0
 11
37.600101774114833
 21
-195.37856906325359
 31
0.0
  0
ARC
  5
383
  8
DATA
  6
CONTINUOUS
 62
     7
 10
37.400101774115022
 20
-196.07856906325381
 30
0.0
 40
0.7000000000001592
 50
90.0
 51
179.99999999998141
  0
LINE
  5
384
  8
DATA
  6
CONTINUOUS
 62
     7
 10
36.700101774114728
 20
-201.83856906325369
 30
0.0
 11
36.700101774114849
 21
-196.0785690632537
 31
0.0
  0
ARC
  5
385
  8
DATA
  6
CONTINUOUS
 62
     7
 10
37.400101774114731
 20
-201.83856906325369
 30
0.0
 40
0.6999999999999889
 50
180.0
 51
270.00000000000239
  0
LINE
  5
386
  8
DATA
  6
CONTINUOUS
 62
     7
 10
37.600101774114833
 20
-202.5385690632537
 30
0.0
 11
37.400101774114901
 21
-202.5385690632537
 31
0.0
  0
ARC
  5
387
  8
DATA
  6
CONTINUOUS
 62
     7
 10
37.600101774114833
 20
-201.83856906325369
 30
0.0
 40
0.7000000000000455
 50
270.0
 51
359.99999999999068
  0
LINE
  5
388
  8
DATA
  6
CONTINUOUS
 62
     7
 10
38.300101774114879
 20
-196.0785690632537
 30
0.0
 11
38.300101774114879
 21
-201.83856906325369
 31
0.0
  0
ARC
  5
389
  8
DATA
  6
CONTINUOUS
 62
     7
 10
37.60010177411489
 20
-196.0785690632537
 30
0.0
 40
0.6999999999999889
 50
0.0
 51
90.000000000002345
  0
LINE
  5
38A
  8
DATA
  6
CONTINUOUS
 62
     7
 10
32.703885185698269
 20
-201.79490317055229
 30
0.0
 11
31.187443580127901
 21
-201.79490317055229
 31
0.0
  0
LINE
  5
38B
  8
DATA
  6
CONTINUOUS
 62
     7
 10
32.703885185698269
 20
-203.39490317055231
 30
0.0
 11
31.187443580127901
 21
-203.39490317055231
 31
0.0
  0
LINE
  5
38C
  8
DATA
  6
CONTINUOUS
 62
     7
 10
42.068179072592272
 20
-201.79490317055229
 30
0.0
 11
43.58462067816253
 21
-201.79490317055229
 31
0.0
  0
LINE
  5
38D
  8
DATA
  6
CONTINUOUS
 62
     7
 10
42.068179072592272
 20
-203.39490317055231
 30
0.0
 11
43.58462067816253
 21
-203.39490317055231
 31
0.0
  0
LINE
  5
38E
  8
DATA
  6
CONTINUOUS
 62
     7
 10
33.509568849976077
 20
-199.84981074128191
 30
0.0
 11
32.437282707400541
 21
-198.77752459870641
 31
0.0
  0
LINE
  5
38F
  8
DATA
  6
CONTINUOUS
 62
     7
 10
34.640939699870167
 20
-198.71843989137901
 30
0.0
 11
33.568653557299193
 21
-197.6461537488081
 31
0.0
  0
LINE
  5
390
  8
DATA
  6
CONTINUOUS
 62
     7
 10
40.131124558415948
 20
-198.71843989138341
 30
0.0
 11
41.203410700991363
 21
-197.6461537488081
 31
0.0
  0
LINE
  5
391
  8
DATA
  6
CONTINUOUS
 62
     7
 10
42.334781550890071
 20
-198.77752459870669
 30
0.0
 11
41.262495408318969
 21
-199.84981074127771
 31
0.0
  0
LINE
  5
392
  8
DATA
  6
CONTINUOUS
 62
     7
 10
42.334781550890071
 20
-206.41228174239799
 30
0.0
 11
41.262495408318969
 21
-205.33999559982701
 31
0.0
  0
LINE
  5
393
  8
DATA
  6
CONTINUOUS
 62
     7
 10
41.203410700991363
 20
-207.5436525922965
 30
0.0
 11
40.131124558415948
 21
-206.47136644972119
 31
0.0
  0
ARC
  5
394
  8
DATA
  6
CONTINUOUS
 62
     7
 10
37.317614367601003
 20
-202.46039801474521
 30
0.0
 40
6.839999999999983
 50
93.853979695463224
 51
240.88271410567009
  0
ARC
  5
395
  8
DATA
  6
CONTINUOUS
 62
     7
 10
37.317614367601003
 20
-202.46039801474521
 30
0.0
 40
6.8400000000002894
 50
300.65928338484821
 51
82.830667981082044
  0
LINE
  5
396
  8
DATA
  6
CONTINUOUS
 62
     7
 10
45.171032129146241
 20
-202.5307454864753
 30
0.0
 11
44.157252606077883
 21
-202.5307454864753
 31
0.0
  0
LINE
  5
397
  8
DATA
  6
CONTINUOUS
 62
     7
 10
33.989277401378388
 20
-208.43599614708731
 30
0.0
 11
33.516012323122609
 21
-209.28568232562881
 31
0.0
  0
LINE
  5
398
  8
DATA
  6
CONTINUOUS
 62
     7
 10
32.57236507579924
 20
-207.3866754286405
 30
0.0
 11
31.914979667919471
 21
-208.06913965505271
 31
0.0
  0
LINE
  5
399
  8
DATA
  6
CONTINUOUS
 62
     7
 10
31.444558643611469
 20
-205.96650931688009
 30
0.0
 11
30.646386608782802
 21
-206.427334156048
 31
0.0
  0
LINE
  5
39A
  8
DATA
  6
CONTINUOUS
 62
     7
 10
30.770922907512631
 20
-204.44192039069961
 30
0.0
 11
29.910083085308841
 21
-204.7024754176484
 31
0.0
  0
LINE
  5
39B
  8
DATA
  6
CONTINUOUS
 62
     7
 10
30.477976129124169
 20
-202.5307454864753
 30
0.0
 11
29.60103212914613
 21
-202.5307454864753
 31
0.0
  0
LINE
  5
39C
  8
DATA
  6
CONTINUOUS
 62
     7
 10
30.710199208313512
 20
-200.69187747122879
 30
0.0
 11
29.85357821373232
 21
-200.56393003702539
 31
0.0
  0
LINE
  5
39D
  8
DATA
  6
CONTINUOUS
 62
     7
 10
31.37420927740472
 20
-199.07490899041761
 30
0.0
 11
30.638934531095639
 21
-198.6470746710755
 31
0.0
  0
LINE
  5
39E
  8
DATA
  6
CONTINUOUS
 62
     7
 10
32.404535698198771
 20
-197.70148448451411
 30
0.0
 11
31.805614405248789
 21
-197.10256319156429
 31
0.0
  0
LINE
  5
39F
  8
DATA
  6
CONTINUOUS
 62
     7
 10
33.863917079369529
 20
-196.55636760822111
 30
0.0
 11
33.439055018919028
 21
-195.82048493331271
 31
0.0
  0
LINE
  5
3A0
  8
DATA
  6
CONTINUOUS
 62
     7
 10
35.701800341359231
 20
-195.8139895836367
 30
0.0
 11
35.498566480571988
 21
-194.9780176067348
 31
0.0
  0
LINE
  5
3A1
  8
DATA
  6
CONTINUOUS
 62
     7
 10
39.309870971032211
 20
-195.9169651522391
 30
0.0
 11
39.571181637533527
 21
-195.0587078376121
 31
0.0
  0
LINE
  5
3A2
  8
DATA
  6
CONTINUOUS
 62
     7
 10
40.848611782923918
 20
-196.6022705619707
 30
0.0
 11
41.323278689786221
 21
-195.81477090933831
 31
0.0
  0
LINE
  5
3A3
  8
DATA
  6
CONTINUOUS
 62
     7
 10
42.178901350304571
 20
-197.64859077923199
 30
0.0
 11
42.831093894385688
 21
-196.97849771140611
 31
0.0
  0
LINE
  5
3A4
  8
DATA
  6
CONTINUOUS
 62
     7
 10
43.332798892710812
 20
-199.20414938650649
 30
0.0
 11
44.176956293294261
 21
-198.7242281810156
 31
0.0
  0
LINE
  5
3A5
  8
DATA
  6
CONTINUOUS
 62
     7
 10
43.928063005320453
 20
-200.70325009607279
 30
0.0
 11
44.910597434625473
 21
-200.53396258302899
 31
0.0
  0
LINE
  5
3A6
  8
DATA
  6
CONTINUOUS
 62
     7
 10
44.836260824552561
 20
-204.57635288822431
 30
0.0
 11
43.899989675214513
 21
-204.319950463514
 31
0.0
  0
LINE
  5
3A7
  8
DATA
  6
CONTINUOUS
 62
     7
 10
43.21514000339404
 20
-205.92519113629831
 30
0.0
 11
44.111479043425753
 21
-206.45178983756259
 31
0.0
  0
LINE
  5
3A8
  8
DATA
  6
CONTINUOUS
 62
     7
 10
42.9664498530421
 20
-207.95892778138651
 30
0.0
 11
42.22879370002137
 21
-207.2212716283658
 31
0.0
  0
LINE
  5
3A9
  8
DATA
  6
CONTINUOUS
 62
     7
 10
41.333009239368721
 20
-209.24100603963291
 30
0.0
 11
40.805547499951523
 21
-208.3442676992604
 31
0.0
  0
LINE
  5
3AA
  8
DATA
  6
CONTINUOUS
 62
     7
 10
37.515277057824633
 20
-195.37856906325359
 30
0.0
 11
37.515277057824633
 21
-194.60625464482081
 31
0.0
  0
TEXT
  5
3AB
  8
DATA
 62
     7
 10
30.464631303018798
 20
-211.61729378977199
 30
0.0
 40
1.5390625
  1
-12
 41
0.7
 11
30.464631303018798
 21
-210.07823128977199
 31
0.0
 73
     3
  0
TEXT
  5
3AC
  8
DATA
 62
     7
 10
41.076688880566671
 20
-211.56840970317941
 30
0.0
 40
1.5390625
  1
+12
 41
0.7
 11
41.076688880566671
 21
-210.02934720317941
 31
0.0
 73
     3
  0
LINE
  5
3AD
  8
DATA
  6
CONTINUOUS
 62
     7
 10
33.603552962526592
 20
-205.45747235478649
 30
0.0
 11
32.565985913919818
 21
-206.56338815753281
 31
0.0
  0
LINE
  5
3AE
  8
DATA
  6
CONTINUOUS
 62
     7
 10
33.732839472862807
 20
-207.65812683501809
 30
0.0
 11
34.770406521465389
 21
-206.5522110322764
 31
0.0
  0
LINE
  5
3AF
  8
DATA
  6
CONTINUOUS
 62
     7
 10
36.700101774114728
 20
-207.29511588361649
 30
0.0
 11
36.700101774114728
 21
-208.80714910483809
 31
0.0
  0
LINE
  5
3B0
  8
DATA
  6
CONTINUOUS
 62
     7
 10
38.300101774114879
 20
-207.25612368498281
 30
0.0
 11
38.300101774114879
 21
-208.777700004037
 31
0.0
  0
ARC
  5
3B1
  8
DATA
  6
CONTINUOUS
 62
     7
 10
70.402071662161703
 20
-202.5949031705521
 30
0.0
 40
4.7500000000004832
 50
98.302906098071361
 51
78.905036031997696
  0
ARC
  5
3B2
  8
DATA
  6
CONTINUOUS
 62
     7
 10
70.402071662161774
 20
-202.59490317055199
 30
0.0
 40
6.2500000000005311
 50
96.300838472257922
 51
81.590263166661728
  0
LINE
  5
3B3
  8
DATA
  6
CONTINUOUS
 62
     7
 10
70.416141307131355
 20
-195.37856906325359
 30
0.0
 11
70.616141307131173
 21
-195.37856906325359
 31
0.0
  0
ARC
  5
3B4
  8
DATA
  6
CONTINUOUS
 62
     7
 10
70.416141307131355
 20
-196.07856906325381
 30
0.0
 40
0.7000000000001592
 50
90.0
 51
179.99999999998141
  0
LINE
  5
3B5
  8
DATA
  6
CONTINUOUS
 62
     7
 10
69.716141307131082
 20
-201.83856906325369
 30
0.0
 11
69.716141307131196
 21
-196.0785690632537
 31
0.0
  0
ARC
  5
3B6
  8
DATA
  6
CONTINUOUS
 62
     7
 10
70.416141307131014
 20
-201.83856906325369
 30
0.0
 40
0.6999999999999318
 50
180.0
 51
270.00000000000699
  0
LINE
  5
3B7
  8
DATA
  6
CONTINUOUS
 62
     7
 10
70.616141307131173
 20
-202.5385690632537
 30
0.0
 11
70.416141307131213
 21
-202.5385690632537
 31
0.0
  0
ARC
  5
3B8
  8
DATA
  6
CONTINUOUS
 62
     7
 10
70.616141307131173
 20
-201.83856906325369
 30
0.0
 40
0.6999999999999318
 50
270.0
 51
0.0
  0
LINE
  5
3B9
  8
DATA
  6
CONTINUOUS
 62
     7
 10
71.316141307131161
 20
-196.0785690632537
 30
0.0
 11
71.316141307131161
 21
-201.83856906325369
 31
0.0
  0
ARC
  5
3BA
  8
DATA
  6
CONTINUOUS
 62
     7
 10
70.61614130713113
 20
-196.0785690632537
 30
0.0
 40
0.7000000000000455
 50
0.0
 51
89.999999999995381
  0
LINE
  5
3BB
  8
DATA
  6
CONTINUOUS
 62
     7
 10
65.719924718714594
 20
-201.79490317055229
 30
0.0
 11
64.20348311314423
 21
-201.79490317055229
 31
0.0
  0
LINE
  5
3BC
  8
DATA
  6
CONTINUOUS
 62
     7
 10
65.719924718714594
 20
-203.39490317055231
 30
0.0
 11
64.20348311314423
 21
-203.39490317055231
 31
0.0
  0
LINE
  5
3BD
  8
DATA
  6
CONTINUOUS
 62
     7
 10
75.084218605608612
 20
-201.79490317055229
 30
0.0
 11
76.600660211178862
 21
-201.79490317055229
 31
0.0
  0
LINE
  5
3BE
  8
DATA
  6
CONTINUOUS
 62
     7
 10
75.084218605608612
 20
-203.39490317055231
 30
0.0
 11
76.600660211178862
 21
-203.39490317055231
 31
0.0
  0
LINE
  5
3BF
  8
DATA
  6
CONTINUOUS
 62
     7
 10
66.525608382992417
 20
-199.84981074128191
 30
0.0
 11
65.453322240416824
 21
-198.77752459870641
 31
0.0
  0
LINE
  5
3C0
  8
DATA
  6
CONTINUOUS
 62
     7
 10
67.656979232886499
 20
-198.71843989137901
 30
0.0
 11
66.58469309031554
 21
-197.6461537488081
 31
0.0
  0
LINE
  5
3C1
  8
DATA
  6
CONTINUOUS
 62
     7
 10
73.147164091432302
 20
-198.71843989138341
 30
0.0
 11
74.219450234007695
 21
-197.6461537488081
 31
0.0
  0
LINE
  5
3C2
  8
DATA
  6
CONTINUOUS
 62
     7
 10
75.350821083906339
 20
-198.77752459870669
 30
0.0
 11
74.278534941335252
 21
-199.84981074127771
 31
0.0
  0
LINE
  5
3C3
  8
DATA
  6
CONTINUOUS
 62
     7
 10
75.350821083906339
 20
-206.41228174239799
 30
0.0
 11
74.278534941335252
 21
-205.33999559982701
 31
0.0
  0
LINE
  5
3C4
  8
DATA
  6
CONTINUOUS
 62
     7
 10
74.219450234007695
 20
-207.5436525922965
 30
0.0
 11
73.147164091432302
 21
-206.47136644972119
 31
0.0
  0
ARC
  5
3C5
  8
DATA
  6
CONTINUOUS
 62
     7
 10
70.333653900617279
 20
-202.46039801474521
 30
0.0
 40
6.839999999999983
 50
93.853979695463224
 51
240.8827141056706
  0
ARC
  5
3C6
  8
DATA
  6
CONTINUOUS
 62
     7
 10
70.333653900617279
 20
-202.46039801474521
 30
0.0
 40
6.8400000000002894
 50
300.65928338484821
 51
82.830667981081575
  0
LINE
  5
3C7
  8
DATA
  6
CONTINUOUS
 62
     7
 10
78.18707166216258
 20
-202.5307454864753
 30
0.0
 11
77.173292139094201
 21
-202.5307454864753
 31
0.0
  0
LINE
  5
3C8
  8
DATA
  6
CONTINUOUS
 62
     7
 10
67.005316934394742
 20
-208.43599614708731
 30
0.0
 11
66.532051856138949
 21
-209.28568232562881
 31
0.0
  0
LINE
  5
3C9
  8
DATA
  6
CONTINUOUS
 62
     7
 10
65.58840460881558
 20
-207.3866754286405
 30
0.0
 11
64.931019200935751
 21
-208.06913965505271
 31
0.0
  0
LINE
  5
3CA
  8
DATA
  6
CONTINUOUS
 62
     7
 10
64.460598176627755
 20
-205.96650931688009
 30
0.0
 11
63.662426141799138
 21
-206.427334156048
 31
0.0
  0
LINE
  5
3CB
  8
DATA
  6
CONTINUOUS
 62
     7
 10
63.78696244052896
 20
-204.44192039069961
 30
0.0
 11
62.926122618325117
 21
-204.7024754176484
 31
0.0
  0
LINE
  5
3CC
  8
DATA
  6
CONTINUOUS
 62
     7
 10
63.494015662140512
 20
-202.5307454864753
 30
0.0
 11
62.617071662162473
 21
-202.5307454864753
 31
0.0
  0
LINE
  5
3CD
  8
DATA
  6
CONTINUOUS
 62
     7
 10
63.726238741329851
 20
-200.69187747122879
 30
0.0
 11
62.869617746748602
 21
-200.56393003702539
 31
0.0
  0
LINE
  5
3CE
  8
DATA
  6
CONTINUOUS
 62
     7
 10
64.390248810420999
 20
-199.07490899041761
 30
0.0
 11
63.654974064111968
 21
-198.6470746710755
 31
0.0
  0
LINE
  5
3CF
  8
DATA
  6
CONTINUOUS
 62
     7
 10
65.420575231215039
 20
-197.70148448451411
 30
0.0
 11
64.821653938265115
 21
-197.10256319156429
 31
0.0
  0
LINE
  5
3D0
  8
DATA
  6
CONTINUOUS
 62
     7
 10
66.879956612385811
 20
-196.55636760822111
 30
0.0
 11
66.455094551935318
 21
-195.82048493331271
 31
0.0
  0
LINE
  5
3D1
  8
DATA
  6
CONTINUOUS
 62
     7
 10
68.717839874375571
 20
-195.8139895836367
 30
0.0
 11
68.514606013588349
 21
-194.9780176067348
 31
0.0
  0
LINE
  5
3D2
  8
DATA
  6
CONTINUOUS
 62
     7
 10
72.32591050404848
 20
-195.9169651522391
 30
0.0
 11
72.587221170549896
 21
-195.0587078376121
 31
0.0
  0
LINE
  5
3D3
  8
DATA
  6
CONTINUOUS
 62
     7
 10
73.864651315940193
 20
-196.6022705619707
 30
0.0
 11
74.33931822280249
 21
-195.81477090933831
 31
0.0
  0
LINE
  5
3D4
  8
DATA
  6
CONTINUOUS
 62
     7
 10
75.194940883320911
 20
-197.64859077923199
 30
0.0
 11
75.847133427401957
 21
-196.97849771140611
 31
0.0
  0
LINE
  5
3D5
  8
DATA
  6
CONTINUOUS
 62
     7
 10
76.348838425727138
 20
-199.20414938650649
 30
0.0
 11
77.192995826310593
 21
-198.7242281810156
 31
0.0
  0
LINE
  5
3D6
  8
DATA
  6
CONTINUOUS
 62
     7
 10
76.944102538336779
 20
-200.70325009607279
 30
0.0
 11
77.926636967641812
 21
-200.53396258302899
 31
0.0
  0
LINE
  5
3D7
  8
DATA
  6
CONTINUOUS
 62
     7
 10
77.852300357568879
 20
-204.57635288822431
 30
0.0
 11
76.916029208230853
 21
-204.319950463514
 31
0.0
  0
LINE
  5
3D8
  8
DATA
  6
CONTINUOUS
 62
     7
 10
76.231179536410309
 20
-205.92519113629831
 30
0.0
 11
77.127518576442057
 21
-206.45178983756259
 31
0.0
  0
LINE
  5
3D9
  8
DATA
  6
CONTINUOUS
 62
     7
 10
75.982489386058433
 20
-207.95892778138651
 30
0.0
 11
75.244833233037653
 21
-207.2212716283658
 31
0.0
  0
LINE
  5
3DA
  8
DATA
  6
CONTINUOUS
 62
     7
 10
74.34904877238499
 20
-209.24100603963291
 30
0.0
 11
73.821587032967813
 21
-208.3442676992604
 31
0.0
  0
LINE
  5
3DB
  8
DATA
  6
CONTINUOUS
 62
     7
 10
70.531316590840973
 20
-195.37856906325359
 30
0.0
 11
70.531316590840973
 21
-194.60625464482081
 31
0.0
  0
TEXT
  5
3DC
  8
DATA
 62
     7
 10
64.579138315176422
 20
-211.61729378977199
 30
0.0
 40
1.5390625
  1
45
 41
0.7
 11
64.579138315176422
 21
-210.07823128977199
 31
0.0
 73
     3
  0
TEXT
  5
3DD
  8
DATA
 62
     7
 10
74.092728413583004
 20
-211.56840970317941
 30
0.0
 40
1.5390625
  1
960
 41
0.7
 11
74.092728413583004
 21
-210.02934720317941
 31
0.0
 73
     3
  0
LINE
  5
3DE
  8
DATA
  6
CONTINUOUS
 62
     7
 10
66.619592495542932
 20
-205.45747235478649
 30
0.0
 11
65.582025446936157
 21
-206.56338815753281
 31
0.0
  0
LINE
  5
3DF
  8
DATA
  6
CONTINUOUS
 62
     7
 10
66.748879005879147
 20
-207.65812683501809
 30
0.0
 11
67.786446054481715
 21
-206.5522110322764
 31
0.0
  0
LINE
  5
3E0
  8
DATA
  6
CONTINUOUS
 62
     7
 10
69.716141307131082
 20
-207.29511588361649
 30
0.0
 11
69.716141307131082
 21
-208.80714910483809
 31
0.0
  0
LINE
  5
3E1
  8
DATA
  6
CONTINUOUS
 62
     7
 10
71.316141307131161
 20
-207.25612368498281
 30
0.0
 11
71.316141307131161
 21
-208.777700004037
 31
0.0
  0
ARC
  5
3E2
  8
DATA
  6
CONTINUOUS
 62
     7
 10
121.3677777813335
 20
-202.5949031705521
 30
0.0
 40
4.7499999999999902
 50
98.302906098068689
 51
78.905036031997582
  0
ARC
  5
3E3
  8
DATA
  6
CONTINUOUS
 62
     7
 10
121.3677777813334
 20
-202.59490317055241
 30
0.0
 40
6.250000000000095
 50
96.300838472255023
 51
81.590263166658488
  0
LINE
  5
3E4
  8
DATA
  6
CONTINUOUS
 62
     7
 10
121.3818474263032
 20
-195.37856906325359
 30
0.0
 11
121.5818474263031
 21
-195.37856906325359
 31
0.0
  0
ARC
  5
3E5
  8
DATA
  6
CONTINUOUS
 62
     7
 10
121.3818474263032
 20
-196.0785690632537
 30
0.0
 40
0.7000000000000455
 50
90.0
 51
179.99999999999071
  0
LINE
  5
3E6
  8
DATA
  6
CONTINUOUS
 62
     7
 10
120.68184742630309
 20
-201.83856906325369
 30
0.0
 11
120.68184742630319
 21
-196.0785690632537
 31
0.0
  0
ARC
  5
3E7
  8
DATA
  6
CONTINUOUS
 62
     7
 10
121.3818474263031
 20
-201.83856906325369
 30
0.0
 40
0.6999999999999889
 50
180.0
 51
270.00000000000108
  0
LINE
  5
3E8
  8
DATA
  6
CONTINUOUS
 62
     7
 10
121.5818474263031
 20
-202.5385690632537
 30
0.0
 11
121.3818474263031
 21
-202.5385690632537
 31
0.0
  0
ARC
  5
3E9
  8
DATA
  6
CONTINUOUS
 62
     7
 10
121.5818474263031
 20
-201.83856906325369
 30
0.0
 40
0.6999999999999318
 50
270.0
 51
0.0
  0
LINE
  5
3EA
  8
DATA
  6
CONTINUOUS
 62
     7
 10
122.281847426303
 20
-196.0785690632537
 30
0.0
 11
122.281847426303
 21
-201.83856906325369
 31
0.0
  0
ARC
  5
3EB
  8
DATA
  6
CONTINUOUS
 62
     7
 10
121.5818474263029
 20
-196.0785690632537
 30
0.0
 40
0.7000000000000597
 50
0.0
 51
89.999999999989512
  0
LINE
  5
3EC
  8
DATA
  6
CONTINUOUS
 62
     7
 10
116.685630837887
 20
-201.79490317055229
 30
0.0
 11
115.1691892323169
 21
-201.79490317055229
 31
0.0
  0
LINE
  5
3ED
  8
DATA
  6
CONTINUOUS
 62
     7
 10
116.685630837887
 20
-203.39490317055231
 30
0.0
 11
115.1691892323169
 21
-203.39490317055231
 31
0.0
  0
LINE
  5
3EE
  8
DATA
  6
CONTINUOUS
 62
     7
 10
126.04992472478
 20
-201.79490317055229
 30
0.0
 11
127.56636633035011
 21
-201.79490317055229
 31
0.0
  0
LINE
  5
3EF
  8
DATA
  6
CONTINUOUS
 62
     7
 10
126.04992472478
 20
-203.39490317055231
 30
0.0
 11
127.56636633035011
 21
-203.39490317055231
 31
0.0
  0
LINE
  5
3F0
  8
DATA
  6
CONTINUOUS
 62
     7
 10
117.4913145021647
 20
-199.84981074128191
 30
0.0
 11
116.4190283595893
 21
-198.77752459870641
 31
0.0
  0
LINE
  5
3F1
  8
DATA
  6
CONTINUOUS
 62
     7
 10
118.6226853520587
 20
-198.71843989137901
 30
0.0
 11
117.55039920948791
 21
-197.6461537488081
 31
0.0
  0
LINE
  5
3F2
  8
DATA
  6
CONTINUOUS
 62
     7
 10
124.1128702106039
 20
-198.71843989138341
 30
0.0
 11
125.1851563531792
 21
-197.6461537488081
 31
0.0
  0
LINE
  5
3F3
  8
DATA
  6
CONTINUOUS
 62
     7
 10
126.3165272030777
 20
-198.77752459870669
 30
0.0
 11
125.24424106050679
 21
-199.84981074127771
 31
0.0
  0
LINE
  5
3F4
  8
DATA
  6
CONTINUOUS
 62
     7
 10
126.3165272030777
 20
-206.41228174239799
 30
0.0
 11
125.24424106050679
 21
-205.33999559982701
 31
0.0
  0
LINE
  5
3F5
  8
DATA
  6
CONTINUOUS
 62
     7
 10
125.1851563531792
 20
-207.5436525922965
 30
0.0
 11
124.1128702106039
 21
-206.47136644972119
 31
0.0
  0
ARC
  5
3F6
  8
DATA
  6
CONTINUOUS
 62
     7
 10
121.29936001978921
 20
-202.46039801474521
 30
0.0
 40
6.8399999999999812
 50
93.853979695462783
 51
240.8827141056729
  0
ARC
  5
3F7
  8
DATA
  6
CONTINUOUS
 62
     7
 10
121.29936001978921
 20
-202.46039801474521
 30
0.0
 40
6.840000000000086
 50
300.6592833848452
 51
82.830667981082513
  0
LINE
  5
3F8
  8
DATA
  6
CONTINUOUS
 62
     7
 10
129.15277778133361
 20
-202.5307454864753
 30
0.0
 11
128.1389982582653
 21
-202.5307454864753
 31
0.0
  0
LINE
  5
3F9
  8
DATA
  6
CONTINUOUS
 62
     7
 10
117.971023053567
 20
-208.43599614708731
 30
0.0
 11
117.4977579753113
 21
-209.28568232562881
 31
0.0
  0
LINE
  5
3FA
  8
DATA
  6
CONTINUOUS
 62
     7
 10
116.554110727988
 20
-207.3866754286405
 30
0.0
 11
115.8967253201083
 21
-208.06913965505271
 31
0.0
  0
LINE
  5
3FB
  8
DATA
  6
CONTINUOUS
 62
     7
 10
115.42630429580041
 20
-205.96650931688009
 30
0.0
 11
114.6281322609718
 21
-206.427334156048
 31
0.0
  0
LINE
  5
3FC
  8
DATA
  6
CONTINUOUS
 62
     7
 10
114.7526685597016
 20
-204.44192039069961
 30
0.0
 11
113.8918287374979
 21
-204.7024754176484
 31
0.0
  0
LINE
  5
3FD
  8
DATA
  6
CONTINUOUS
 62
     7
 10
114.45972178131321
 20
-202.5307454864753
 30
0.0
 11
113.5827777813352
 21
-202.5307454864753
 31
0.0
  0
LINE
  5
3FE
  8
DATA
  6
CONTINUOUS
 62
     7
 10
114.6919448605026
 20
-200.69187747122879
 30
0.0
 11
113.8353238659214
 21
-200.56393003702539
 31
0.0
  0
LINE
  5
3FF
  8
DATA
  6
CONTINUOUS
 62
     7
 10
115.35595492959359
 20
-199.07490899041761
 30
0.0
 11
114.6206801832847
 21
-198.6470746710755
 31
0.0
  0
LINE
  5
400
  8
DATA
  6
CONTINUOUS
 62
     7
 10
116.38628135038751
 20
-197.70148448451411
 30
0.0
 11
115.7873600574377
 21
-197.10256319156429
 31
0.0
  0
LINE
  5
401
  8
DATA
  6
CONTINUOUS
 62
     7
 10
117.84566273155799
 20
-196.55636760822111
 30
0.0
 11
117.4208006711077
 21
-195.82048493331271
 31
0.0
  0
LINE
  5
402
  8
DATA
  6
CONTINUOUS
 62
     7
 10
119.6835459935477
 20
-195.8139895836367
 30
0.0
 11
119.4803121327604
 21
-194.9780176067348
 31
0.0
  0
LINE
  5
403
  8
DATA
  6
CONTINUOUS
 62
     7
 10
123.29161662322019
 20
-195.9169651522391
 30
0.0
 11
123.5529272897215
 21
-195.0587078376121
 31
0.0
  0
LINE
  5
404
  8
DATA
  6
CONTINUOUS
 62
     7
 10
124.83035743511169
 20
-196.6022705619707
 30
0.0
 11
125.305024341974
 21
-195.81477090933831
 31
0.0
  0
LINE
  5
405
  8
DATA
  6
CONTINUOUS
 62
     7
 10
126.1606470024923
 20
-197.64859077923199
 30
0.0
 11
126.8128395465733
 21
-196.97849771140611
 31
0.0
  0
LINE
  5
406
  8
DATA
  6
CONTINUOUS
 62
     7
 10
127.3145445448983
 20
-199.20414938650649
 30
0.0
 11
128.15870194548179
 21
-198.7242281810156
 31
0.0
  0
LINE
  5
407
  8
DATA
  6
CONTINUOUS
 62
     7
 10
127.9098086575079
 20
-200.70325009607279
 30
0.0
 11
128.89234308681279
 21
-200.53396258302899
 31
0.0
  0
LINE
  5
408
  8
DATA
  6
CONTINUOUS
 62
     7
 10
128.8180064767399
 20
-204.57635288822431
 30
0.0
 11
127.881735327402
 21
-204.319950463514
 31
0.0
  0
LINE
  5
409
  8
DATA
  6
CONTINUOUS
 62
     7
 10
127.1968856555816
 20
-205.92519113629831
 30
0.0
 11
128.0932246956132
 21
-206.45178983756259
 31
0.0
  0
LINE
  5
40A
  8
DATA
  6
CONTINUOUS
 62
     7
 10
126.94819550522971
 20
-207.95892778138651
 30
0.0
 11
126.210539352209
 21
-207.2212716283658
 31
0.0
  0
LINE
  5
40B
  8
DATA
  6
CONTINUOUS
 62
     7
 10
125.3147548915565
 20
-209.24100603963291
 30
0.0
 11
124.7872931521393
 21
-208.3442676992604
 31
0.0
  0
LINE
  5
40C
  8
DATA
  6
CONTINUOUS
 62
     7
 10
121.4970227100129
 20
-195.37856906325359
 30
0.0
 11
121.4970227100129
 21
-194.60625464482081
 31
0.0
  0
TEXT
  5
40D
  8
DATA
 62
     7
 10
114.2512965584631
 20
-211.761293789772
 30
0.0
 40
1.846875
  1
-∞
 41
0.7
 11
114.2512965584631
 21
-209.91441878977199
 31
0.0
 73
     3
  0
TEXT
  5
40E
  8
DATA
 62
     7
 10
125.33305140253979
 20
-211.56840970317941
 30
0.0
 40
1.5390625
  1
+6
 41
0.7
 11
125.33305140253979
 21
-210.02934720317941
 31
0.0
 73
     3
  0
LINE
  5
40F
  8
DATA
  6
CONTINUOUS
 62
     7
 10
117.5852986147153
 20
-205.45747235478649
 30
0.0
 11
116.5477315661086
 21
-206.56338815753281
 31
0.0
  0
LINE
  5
410
  8
DATA
  6
CONTINUOUS
 62
     7
 10
117.7145851250515
 20
-207.65812683501809
 30
0.0
 11
118.7521521736539
 21
-206.5522110322764
 31
0.0
  0
LINE
  5
411
  8
DATA
  6
CONTINUOUS
 62
     7
 10
120.68184742630309
 20
-207.29511588361649
 30
0.0
 11
120.68184742630309
 21
-208.80714910483809
 31
0.0
  0
LINE
  5
412
  8
DATA
  6
CONTINUOUS
 62
     7
 10
122.281847426303
 20
-207.25612368498281
 30
0.0
 11
122.281847426303
 21
-208.777700004037
 31
0.0
  0
ARC
  5
413
  8
DATA
  6
CONTINUOUS
 62
     7
 10
154.37579754783999
 20
-202.5949031705521
 30
0.0
 40
4.7499999999998508
 50
98.302906098071503
 51
78.9050360319997
  0
ARC
  5
414
  8
DATA
  6
CONTINUOUS
 62
     7
 10
154.37579754783951
 20
-202.5949031705525
 30
0.0
 40
6.2500000000003038
 50
96.300838472253403
 51
81.590263166657394
  0
LINE
  5
415
  8
DATA
  6
CONTINUOUS
 62
     7
 10
154.3898671928095
 20
-195.37856906325359
 30
0.0
 11
154.58986719280941
 21
-195.37856906325359
 31
0.0
  0
ARC
  5
416
  8
DATA
  6
CONTINUOUS
 62
     7
 10
154.3898671928095
 20
-196.0785690632537
 30
0.0
 40
0.7000000000000455
 50
90.0
 51
179.99999999999071
  0
LINE
  5
417
  8
DATA
  6
CONTINUOUS
 62
     7
 10
153.6898671928094
 20
-201.83856906325369
 30
0.0
 11
153.6898671928094
 21
-196.0785690632537
 31
0.0
  0
ARC
  5
418
  8
DATA
  6
CONTINUOUS
 62
     7
 10
154.38986719280939
 20
-201.83856906325369
 30
0.0
 40
0.6999999999999889
 50
180.0
 51
270.00000000000108
  0
LINE
  5
419
  8
DATA
  6
CONTINUOUS
 62
     7
 10
154.58986719280941
 20
-202.5385690632537
 30
0.0
 11
154.38986719280939
 21
-202.5385690632537
 31
0.0
  0
ARC
  5
41A
  8
DATA
  6
CONTINUOUS
 62
     7
 10
154.58986719280941
 20
-201.83856906325369
 30
0.0
 40
0.6999999999999318
 50
270.0
 51
0.0
  0
LINE
  5
41B
  8
DATA
  6
CONTINUOUS
 62
     7
 10
155.28986719280931
 20
-196.0785690632537
 30
0.0
 11
155.28986719280931
 21
-201.83856906325369
 31
0.0
  0
ARC
  5
41C
  8
DATA
  6
CONTINUOUS
 62
     7
 10
154.58986719280921
 20
-196.0785690632537
 30
0.0
 40
0.7000000000000455
 50
0.0
 51
89.999999999990649
  0
LINE
  5
41D
  8
DATA
  6
CONTINUOUS
 62
     7
 10
149.6936506043933
 20
-201.79490317055229
 30
0.0
 11
148.1772089988232
 21
-201.79490317055229
 31
0.0
  0
LINE
  5
41E
  8
DATA
  6
CONTINUOUS
 62
     7
 10
149.6936506043933
 20
-203.39490317055231
 30
0.0
 11
148.1772089988232
 21
-203.39490317055231
 31
0.0
  0
LINE
  5
41F
  8
DATA
  6
CONTINUOUS
 62
     7
 10
159.05794449128621
 20
-201.79490317055229
 30
0.0
 11
160.57438609685639
 21
-201.79490317055229
 31
0.0
  0
LINE
  5
420
  8
DATA
  6
CONTINUOUS
 62
     7
 10
159.05794449128621
 20
-203.39490317055231
 30
0.0
 11
160.57438609685639
 21
-203.39490317055231
 31
0.0
  0
LINE
  5
421
  8
DATA
  6
CONTINUOUS
 62
     7
 10
150.49933426867111
 20
-199.84981074128191
 30
0.0
 11
149.4270481260956
 21
-198.77752459870641
 31
0.0
  0
LINE
  5
422
  8
DATA
  6
CONTINUOUS
 62
     7
 10
151.630705118565
 20
-198.71843989137901
 30
0.0
 11
150.5584189759941
 21
-197.6461537488081
 31
0.0
  0
LINE
  5
423
  8
DATA
  6
CONTINUOUS
 62
     7
 10
157.12088997711021
 20
-198.71843989138341
 30
0.0
 11
158.19317611968549
 21
-197.6461537488081
 31
0.0
  0
LINE
  5
424
  8
DATA
  6
CONTINUOUS
 62
     7
 10
159.32454696958399
 20
-198.77752459870669
 30
0.0
 11
158.252260827013
 21
-199.84981074127771
 31
0.0
  0
LINE
  5
425
  8
DATA
  6
CONTINUOUS
 62
     7
 10
159.32454696958399
 20
-206.41228174239799
 30
0.0
 11
158.252260827013
 21
-205.33999559982701
 31
0.0
  0
LINE
  5
426
  8
DATA
  6
CONTINUOUS
 62
     7
 10
158.19317611968549
 20
-207.5436525922965
 30
0.0
 11
157.12088997711021
 21
-206.47136644972119
 31
0.0
  0
ARC
  5
427
  8
DATA
  6
CONTINUOUS
 62
     7
 10
154.30737978629551
 20
-202.46039801474521
 30
0.0
 40
6.8399999999999812
 50
93.853979695462783
 51
240.8827141056729
  0
ARC
  5
428
  8
DATA
  6
CONTINUOUS
 62
     7
 10
154.30737978629551
 20
-202.46039801474521
 30
0.0
 40
6.840000000000086
 50
300.6592833848452
 51
82.830667981082513
  0
LINE
  5
429
  8
DATA
  6
CONTINUOUS
 62
     7
 10
162.16079754783991
 20
-202.5307454864753
 30
0.0
 11
161.14701802477171
 21
-202.5307454864753
 31
0.0
  0
LINE
  5
42A
  8
DATA
  6
CONTINUOUS
 62
     7
 10
150.97904282007329
 20
-208.43599614708731
 30
0.0
 11
150.50577774181761
 21
-209.28568232562881
 31
0.0
  0
LINE
  5
42B
  8
DATA
  6
CONTINUOUS
 62
     7
 10
149.56213049449431
 20
-207.3866754286405
 30
0.0
 11
148.9047450866145
 21
-208.06913965505271
 31
0.0
  0
LINE
  5
42C
  8
DATA
  6
CONTINUOUS
 62
     7
 10
148.4343240623067
 20
-205.96650931688009
 30
0.0
 11
147.63615202747809
 21
-206.427334156048
 31
0.0
  0
LINE
  5
42D
  8
DATA
  6
CONTINUOUS
 62
     7
 10
147.76068832620791
 20
-204.44192039069961
 30
0.0
 11
146.89984850400421
 21
-204.7024754176484
 31
0.0
  0
LINE
  5
42E
  8
DATA
  6
CONTINUOUS
 62
     7
 10
147.4677415478194
 20
-202.5307454864753
 30
0.0
 11
146.59079754784159
 21
-202.5307454864753
 31
0.0
  0
LINE
  5
42F
  8
DATA
  6
CONTINUOUS
 62
     7
 10
147.6999646270088
 20
-200.69187747122879
 30
0.0
 11
146.84334363242769
 21
-200.56393003702539
 31
0.0
  0
LINE
  5
430
  8
DATA
  6
CONTINUOUS
 62
     7
 10
148.3639746960998
 20
-199.07490899041761
 30
0.0
 11
147.62869994979101
 21
-198.6470746710755
 31
0.0
  0
LINE
  5
431
  8
DATA
  6
CONTINUOUS
 62
     7
 10
149.39430111689381
 20
-197.70148448451411
 30
0.0
 11
148.79537982394399
 21
-197.10256319156429
 31
0.0
  0
LINE
  5
432
  8
DATA
  6
CONTINUOUS
 62
     7
 10
150.8536824980645
 20
-196.55636760822111
 30
0.0
 11
150.42882043761401
 21
-195.82048493331271
 31
0.0
  0
LINE
  5
433
  8
DATA
  6
CONTINUOUS
 62
     7
 10
152.691565760054
 20
-195.8139895836367
 30
0.0
 11
152.4883318992668
 21
-194.9780176067348
 31
0.0
  0
LINE
  5
434
  8
DATA
  6
CONTINUOUS
 62
     7
 10
156.2996363897264
 20
-195.9169651522391
 30
0.0
 11
156.56094705622789
 21
-195.0587078376121
 31
0.0
  0
LINE
  5
435
  8
DATA
  6
CONTINUOUS
 62
     7
 10
157.8383772016181
 20
-196.6022705619707
 30
0.0
 11
158.31304410848031
 21
-195.81477090933831
 31
0.0
  0
LINE
  5
436
  8
DATA
  6
CONTINUOUS
 62
     7
 10
159.16866676899861
 20
-197.64859077923199
 30
0.0
 11
159.82085931307961
 21
-196.97849771140611
 31
0.0
  0
LINE
  5
437
  8
DATA
  6
CONTINUOUS
 62
     7
 10
160.3225643114047
 20
-199.20414938650649
 30
0.0
 11
161.16672171198809
 21
-198.7242281810156
 31
0.0
  0
LINE
  5
438
  8
DATA
  6
CONTINUOUS
 62
     7
 10
160.9178284240142
 20
-200.70325009607279
 30
0.0
 11
161.90036285331911
 21
-200.53396258302899
 31
0.0
  0
LINE
  5
439
  8
DATA
  6
CONTINUOUS
 62
     7
 10
161.82602624324619
 20
-204.57635288822431
 30
0.0
 11
160.88975509390821
 21
-204.319950463514
 31
0.0
  0
LINE
  5
43A
  8
DATA
  6
CONTINUOUS
 62
     7
 10
160.2049054220879
 20
-205.92519113629831
 30
0.0
 11
161.1012444621195
 21
-206.45178983756259
 31
0.0
  0
LINE
  5
43B
  8
DATA
  6
CONTINUOUS
 62
     7
 10
159.956215271736
 20
-207.95892778138651
 30
0.0
 11
159.2185591187154
 21
-207.2212716283658
 31
0.0
  0
LINE
  5
43C
  8
DATA
  6
CONTINUOUS
 62
     7
 10
158.3227746580628
 20
-209.24100603963291
 30
0.0
 11
157.79531291864561
 21
-208.3442676992604
 31
0.0
  0
LINE
  5
43D
  8
DATA
  6
CONTINUOUS
 62
     7
 10
154.50504247651909
 20
-195.37856906325359
 30
0.0
 11
154.50504247651909
 21
-194.60625464482081
 31
0.0
  0
LINE
  5
43E
  8
DATA
  6
CONTINUOUS
 62
     7
 10
150.59331838122159
 20
-205.45747235478649
 30
0.0
 11
149.5557513326149
 21
-206.56338815753281
 31
0.0
  0
LINE
  5
43F
  8
DATA
  6
CONTINUOUS
 62
     7
 10
150.72260489155781
 20
-207.65812683501809
 30
0.0
 11
151.76017194016021
 21
-206.5522110322764
 31
0.0
  0
LINE
  5
440
  8
DATA
  6
CONTINUOUS
 62
     7
 10
153.6898671928094
 20
-207.29511588361649
 30
0.0
 11
153.6898671928094
 21
-208.80714910483809
 31
0.0
  0
LINE
  5
441
  8
DATA
  6
CONTINUOUS
 62
     7
 10
155.28986719280931
 20
-207.25612368498281
 30
0.0
 11
155.28986719280931
 21
-208.777700004037
 31
0.0
  0
TEXT
  5
442
  8
DATA
 62
     7
 10
45.615261575197167
 20
-200.87672891248371
 30
0.0
 40
1.5390625
  1
+6
 41
0.7
 11
45.615261575197167
 21
-199.33766641248371
 31
0.0
 73
     3
  0
TEXT
  5
443
  8
DATA
 62
     7
 10
27.052569953794499
 20
-201.15424339288921
 30
0.0
 40
1.5390625
  1
-6
 41
0.7
 11
27.052569953794499
 21
-199.61518089288921
 31
0.0
 73
     3
  0
TEXT
  5
444
  8
DATA
 62
     7
 10
37.207766345705203
 20
-193.77519639162441
 30
0.0
 40
1.5390625
  1
0
 41
0.7
 11
37.207766345705203
 21
-192.23613389162441
 31
0.0
 73
     3
  0
TEXT
  5
445
  8
DATA
 62
     7
 10
36.410831387422732
 20
-212.97952295069101
 30
0.0
 40
1.764577907986109
  1
dB
 41
0.7
 11
36.410831387422732
 21
-211.2149450427049
 31
0.0
 73
     3
  0
TEXT
  5
446
  8
DATA
 62
     7
 10
35.251870674989242
 20
-215.79654503030341
 30
0.0
 40
1.764577907986109
  1
GAIN
 41
0.7
 11
35.251870674989242
 21
-214.0319671223173
 31
0.0
 73
     3
  0
TEXT
  5
447
  8
DATA
 62
     7
 10
33.6423194651871
 20
-224.0634674788559
 30
0.0
 40
2.1162109375
  1
INPUT
 41
0.7
 11
33.6423194651871
 21
-221.9472565413559
 31
0.0
 73
     3
  0
TEXT
  5
448
  8
DATA
 62
     7
 10
60.131301108211417
 20
-203.34828074055031
 30
0.0
 40
1.5390625
  1
70
 41
0.7
 11
60.131301108211417
 21
-201.80921824055031
 31
0.0
 73
     3
  0
TEXT
  5
449
  8
DATA
 62
     7
 10
78.595525137886483
 20
-203.25577591374849
 30
0.0
 40
1.5390625
  1
680
 41
0.7
 11
78.595525137886483
 21
-201.71671341374849
 31
0.0
 73
     3
  0
TEXT
  5
44A
  8
DATA
 62
     7
 10
69.182067312348593
 20
-194.1990470009799
 30
0.0
 40
1.5390625
  1
240
 41
0.7
 11
69.182067312348593
 21
-192.6599845009799
 31
0.0
 73
     3
  0
TEXT
  5
44B
  8
DATA
 62
     7
 10
61.388029964686737
 20
-197.3617385660873
 30
0.0
 40
1.5390625
  1
140
 41
0.7
 11
61.388029964686737
 21
-195.8226760660873
 31
0.0
 73
     3
  0
TEXT
  5
44C
  8
DATA
 62
     7
 10
76.05072152979568
 20
-197.20057952183919
 30
0.0
 40
1.5390625
  1
350
 41
0.7
 11
76.05072152979568
 21
-195.6615170218391
 31
0.0
 73
     3
  0
TEXT
  5
44D
  8
DATA
 62
     7
 10
64.906583732660252
 20
-215.79654503030341
 30
0.0
 40
1.764577907986109
  1
XOVER FREQ
 41
0.7
 11
64.906583732660252
 21
-214.0319671223173
 31
0.0
 73
     3
  0
TEXT
  5
44E
  8
DATA
 62
     7
 10
65.279910999407221
 20
-224.0634674788559
 30
0.0
 40
2.1162109375
  1
LOW/MID
 41
0.7
 11
65.279910999407221
 21
-221.9472565413559
 31
0.0
 73
     3
  0
TEXT
  5
44F
  8
DATA
 62
     7
 10
69.292292665071287
 20
-212.97952295069101
 30
0.0
 40
1.764577907986109
  1
Hz
 41
0.7
 11
69.292292665071287
 21
-211.2149450427049
 31
0.0
 73
     3
  0
TEXT
  5
450
  8
DATA
 62
     7
 10
48.076755425345503
 20
-224.0634674788559
 30
0.0
 40
2.1162109375
  1
LOW CUT
 41
0.7
 11
48.076755425345503
 21
-221.9472565413559
 31
0.0
 73
     3
  0
TEXT
  5
451
  8
DATA
 62
     7
 10
118.7869453360357
 20
-215.79654503030341
 30
0.0
 40
1.764577907986109
  1
GAIN
 41
0.7
 11
118.7869453360357
 21
-214.0319671223173
 31
0.0
 73
     3
  0
TEXT
  5
452
  8
DATA
 62
     7
 10
114.289344566797
 20
-224.0634674788559
 30
0.0
 40
2.1162109375
  1
LOW OUTPUT
 41
0.7
 11
114.289344566797
 21
-221.9472565413559
 31
0.0
 73
     3
  0
TEXT
  5
453
  8
DATA
 62
     7
 10
119.9910445187522
 20
-212.97952295069101
 30
0.0
 40
1.764577907986109
  1
dB
 41
0.7
 11
119.9910445187522
 21
-211.2149450427049
 31
0.0
 73
     3
  0
TEXT
  5
454
  8
DATA
 62
     7
 10
119.6537360838596
 20
-194.21846747885601
 30
0.0
 40
1.5390625
  1
-10
 41
0.7
 11
119.6537360838596
 21
-192.67940497885601
 31
0.0
 73
     3
  0
TEXT
  5
455
  8
DATA
 62
     7
 10
110.010464996628
 20
-202.7811590439633
 30
0.0
 40
1.5390625
  1
-30
 41
0.7
 11
110.010464996628
 21
-201.2420965439633
 31
0.0
 73
     3
  0
TEXT
  5
456
  8
DATA
 62
     7
 10
129.76566138853761
 20
-203.14981326140961
 30
0.0
 40
1.5390625
  1
0
 41
0.7
 11
129.76566138853761
 21
-201.61075076140961
 31
0.0
 73
     3
  0
TEXT
  5
457
  8
DATA
 62
     7
 10
158.38127721455999
 20
-211.56840970317941
 30
0.0
 40
1.5390625
  1
+6
 41
0.7
 11
158.38127721455999
 21
-210.02934720317941
 31
0.0
 73
     3
  0
TEXT
  5
458
  8
DATA
 62
     7
 10
151.83517114805591
 20
-215.79654503030341
 30
0.0
 40
1.764577907986109
  1
GAIN
 41
0.7
 11
151.83517114805591
 21
-214.0319671223173
 31
0.0
 73
     3
  0
TEXT
  5
459
  8
DATA
 62
     7
 10
146.87679546308181
 20
-224.0634674788559
 30
0.0
 40
2.1162109375
  1
MID OUTPUT
 41
0.7
 11
146.87679546308181
 21
-221.9472565413559
 31
0.0
 73
     3
  0
TEXT
  5
45A
  8
DATA
 62
     7
 10
153.03927033077241
 20
-212.97952295069101
 30
0.0
 40
1.764577907986109
  1
dB
 41
0.7
 11
153.03927033077241
 21
-211.2149450427049
 31
0.0
 73
     3
  0
TEXT
  5
45B
  8
DATA
 62
     7
 10
152.70196189587989
 20
-194.21846747885601
 30
0.0
 40
1.5390625
  1
-10
 41
0.7
 11
152.70196189587989
 21
-192.67940497885601
 31
0.0
 73
     3
  0
TEXT
  5
45C
  8
DATA
 62
     7
 10
143.05869080864829
 20
-202.7811590439633
 30
0.0
 40
1.5390625
  1
-30
 41
0.7
 11
143.05869080864829
 21
-201.2420965439633
 31
0.0
 73
     3
  0
TEXT
  5
45D
  8
DATA
 62
     7
 10
162.81388720055779
 20
-203.14981326140961
 30
0.0
 40
1.5390625
  1
0
 41
0.7
 11
162.81388720055779
 21
-201.61075076140961
 31
0.0
 73
     3
  0
CIRCLE
  5
45E
  8
DATA
  6
CONTINUOUS
 62
     7
 10
49.00392538995353
 20
-211.0007566065396
 30
0.0
 40
2.634999999998795
  0
CIRCLE
  5
45F
  8
DATA
  6
CONTINUOUS
 62
     7
 10
49.00392538995353
 20
-211.0007566065396
 30
0.0
 40
1.6999999999984541
  0
CIRCLE
  5
460
  8
DATA
  6
CONTINUOUS
 62
     7
 10
56.013728998046247
 20
-211.0007566065396
 30
0.0
 40
1.5000000000001701
  0
TEXT
  5
461
  8
DATA
 62
     7
 10
50.846607414044762
 20
-206.99614939035959
 30
0.0
 40
1.5390625
  1
40Hz
 41
0.7
 11
50.846607414044762
 21
-205.45708689035959
 31
0.0
 73
     3
  0
CIRCLE
  5
462
  8
DATA
  6
CONTINUOUS
 62
     7
 10
82.5836539006187
 20
-211.0007566065396
 30
0.0
 40
1.5
  0
TEXT
  5
463
  8
DATA
 62
     7
 10
81.313413207490214
 20
-208.23192530439289
 30
0.0
 40
1.5390625
  1
X10
 41
0.7
 11
81.313413207490214
 21
-206.69286280439289
 31
0.0
 73
     3
  0
CIRCLE
  5
464
  8
DATA
  6
CONTINUOUS
 62
     7
 10
133.6943638740043
 20
-211.0007566065396
 30
0.0
 40
2.6349999999984841
  0
CIRCLE
  5
465
  8
DATA
  6
CONTINUOUS
 62
     7
 10
133.6943638740043
 20
-211.0007566065396
 30
0.0
 40
1.6999999999982831
  0
CIRCLE
  5
466
  8
DATA
  6
CONTINUOUS
 62
     7
 10
140.7041674820963
 20
-211.0007566065396
 30
0.0
 40
1.5
  0
TEXT
  5
467
  8
DATA
 62
     7
 10
134.78184950618581
 20
-206.99614939035959
 30
0.0
 40
1.5390625
  1
\U+03A6INV
 41
0.7
 11
134.78184950618581
 21
-205.45708689035959
 31
0.0
 73
     3
  0
CIRCLE
  5
468
  8
DATA
  6
CONTINUOUS
 62
     7
 10
166.42283434595601
 20
-211.0007566065396
 30
0.0
 40
2.6349999999984841
  0
CIRCLE
  5
469
  8
DATA
  6
CONTINUOUS
 62
     7
 10
166.42283434595601
 20
-211.0007566065396
 30
0.0
 40
1.6999999999982831
  0
CIRCLE
  5
46A
  8
DATA
  6
CONTINUOUS
 62
     7
 10
173.432637954048
 20
-211.0007566065396
 30
0.0
 40
1.5
  0
TEXT
  5
46B
  8
DATA
 62
     7
 10
167.5103199781374
 20
-206.99614939035959
 30
0.0
 40
1.5390625
  1
\U+03A6INV
 41
0.7
 11
167.5103199781374
 21
-205.45708689035959
 31
0.0
 73
     3
  0
TEXT
  5
46C
  8
DATA
 62
     7
 10
37.633309804557491
 20
-185.29631802318031
 30
0.0
 40
2.693359375
  1
CHANNEL TWO
 41
0.7
 11
37.633309804557491
 21
-182.60295864818039
 31
0.0
 73
     3
  0
TEXT
  5
46D
  8
DATA
 62
     7
 10
147.3097596919373
 20
-211.8169415786262
 30
0.0
 40
1.846875
  1
-∞
 41
0.7
 11
147.3097596919373
 21
-209.97006657862619
 31
0.0
 73
     3
  0
ARC
  5
46E
  8
DATA
  6
CONTINUOUS
 62
     7
 10
187.37579754784011
 20
-202.59490317055199
 30
0.0
 40
4.7499999999998064
 50
98.302906098072398
 51
78.905036032000453
  0
ARC
  5
46F
  8
DATA
  6
CONTINUOUS
 62
     7
 10
187.37579754783971
 20
-202.59490317055241
 30
0.0
 40
6.2500000000001021
 50
96.30083847225572
 51
81.590263166659156
  0
LINE
  5
470
  8
DATA
  6
CONTINUOUS
 62
     7
 10
187.38986719280959
 20
-195.37856906325359
 30
0.0
 11
187.58986719280941
 21
-195.37856906325359
 31
0.0
  0
ARC
  5
471
  8
DATA
  6
CONTINUOUS
 62
     7
 10
187.38986719280959
 20
-196.0785690632537
 30
0.0
 40
0.7000000000000455
 50
90.0
 51
179.99999999999071
  0
LINE
  5
472
  8
DATA
  6
CONTINUOUS
 62
     7
 10
186.6898671928094
 20
-201.83856906325369
 30
0.0
 11
186.68986719280949
 21
-196.0785690632537
 31
0.0
  0
ARC
  5
473
  8
DATA
  6
CONTINUOUS
 62
     7
 10
187.38986719280931
 20
-201.83856906325369
 30
0.0
 40
0.6999999999999889
 50
180.0
 51
270.00000000000108
  0
LINE
  5
474
  8
DATA
  6
CONTINUOUS
 62
     7
 10
187.58986719280941
 20
-202.5385690632537
 30
0.0
 11
187.38986719280931
 21
-202.5385690632537
 31
0.0
  0
ARC
  5
475
  8
DATA
  6
CONTINUOUS
 62
     7
 10
187.58986719280941
 20
-201.83856906325369
 30
0.0
 40
0.6999999999999318
 50
270.0
 51
0.0
  0
LINE
  5
476
  8
DATA
  6
CONTINUOUS
 62
     7
 10
188.28986719280931
 20
-196.0785690632537
 30
0.0
 11
188.28986719280931
 21
-201.83856906325369
 31
0.0
  0
ARC
  5
477
  8
DATA
  6
CONTINUOUS
 62
     7
 10
187.58986719280929
 20
-196.0785690632537
 30
0.0
 40
0.7000000000000313
 50
0.0
 51
89.999999999991886
  0
LINE
  5
478
  8
DATA
  6
CONTINUOUS
 62
     7
 10
182.6936506043933
 20
-201.79490317055229
 30
0.0
 11
181.1772089988232
 21
-201.79490317055229
 31
0.0
  0
LINE
  5
479
  8
DATA
  6
CONTINUOUS
 62
     7
 10
182.6936506043933
 20
-203.39490317055231
 30
0.0
 11
181.1772089988232
 21
-203.39490317055231
 31
0.0
  0
LINE
  5
47A
  8
DATA
  6
CONTINUOUS
 62
     7
 10
192.05794449128621
 20
-201.79490317055229
 30
0.0
 11
193.57438609685639
 21
-201.79490317055229
 31
0.0
  0
LINE
  5
47B
  8
DATA
  6
CONTINUOUS
 62
     7
 10
192.05794449128621
 20
-203.39490317055231
 30
0.0
 11
193.57438609685639
 21
-203.39490317055231
 31
0.0
  0
LINE
  5
47C
  8
DATA
  6
CONTINUOUS
 62
     7
 10
183.49933426867111
 20
-199.84981074128191
 30
0.0
 11
182.42704812609571
 21
-198.77752459870641
 31
0.0
  0
LINE
  5
47D
  8
DATA
  6
CONTINUOUS
 62
     7
 10
184.630705118565
 20
-198.71843989137901
 30
0.0
 11
183.5584189759941
 21
-197.6461537488081
 31
0.0
  0
LINE
  5
47E
  8
DATA
  6
CONTINUOUS
 62
     7
 10
190.12088997711021
 20
-198.71843989138341
 30
0.0
 11
191.19317611968549
 21
-197.6461537488081
 31
0.0
  0
LINE
  5
47F
  8
DATA
  6
CONTINUOUS
 62
     7
 10
192.32454696958399
 20
-198.77752459870669
 30
0.0
 11
191.252260827013
 21
-199.84981074127771
 31
0.0
  0
LINE
  5
480
  8
DATA
  6
CONTINUOUS
 62
     7
 10
192.32454696958399
 20
-206.41228174239799
 30
0.0
 11
191.252260827013
 21
-205.33999559982701
 31
0.0
  0
LINE
  5
481
  8
DATA
  6
CONTINUOUS
 62
     7
 10
191.19317611968549
 20
-207.5436525922965
 30
0.0
 11
190.12088997711021
 21
-206.47136644972119
 31
0.0
  0
ARC
  5
482
  8
DATA
  6
CONTINUOUS
 62
     7
 10
187.30737978629551
 20
-202.46039801474521
 30
0.0
 40
6.8399999999999812
 50
93.853979695462783
 51
240.8827141056729
  0
ARC
  5
483
  8
DATA
  6
CONTINUOUS
 62
     7
 10
187.30737978629551
 20
-202.46039801474521
 30
0.0
 40
6.840000000000086
 50
300.6592833848452
 51
82.830667981082513
  0
LINE
  5
484
  8
DATA
  6
CONTINUOUS
 62
     7
 10
195.16079754783991
 20
-202.5307454864753
 30
0.0
 11
194.14701802477171
 21
-202.5307454864753
 31
0.0
  0
LINE
  5
485
  8
DATA
  6
CONTINUOUS
 62
     7
 10
183.97904282007329
 20
-208.43599614708731
 30
0.0
 11
183.5057777418175
 21
-209.28568232562881
 31
0.0
  0
LINE
  5
486
  8
DATA
  6
CONTINUOUS
 62
     7
 10
182.56213049449431
 20
-207.3866754286405
 30
0.0
 11
181.90474508661461
 21
-208.06913965505271
 31
0.0
  0
LINE
  5
487
  8
DATA
  6
CONTINUOUS
 62
     7
 10
181.4343240623067
 20
-205.96650931688009
 30
0.0
 11
180.63615202747809
 21
-206.427334156048
 31
0.0
  0
LINE
  5
488
  8
DATA
  6
CONTINUOUS
 62
     7
 10
180.760688326208
 20
-204.44192039069961
 30
0.0
 11
179.89984850400421
 21
-204.7024754176484
 31
0.0
  0
LINE
  5
489
  8
DATA
  6
CONTINUOUS
 62
     7
 10
180.46774154781949
 20
-202.5307454864753
 30
0.0
 11
179.59079754784159
 21
-202.5307454864753
 31
0.0
  0
LINE
  5
48A
  8
DATA
  6
CONTINUOUS
 62
     7
 10
180.6999646270088
 20
-200.69187747122879
 30
0.0
 11
179.8433436324276
 21
-200.56393003702539
 31
0.0
  0
LINE
  5
48B
  8
DATA
  6
CONTINUOUS
 62
     7
 10
181.36397469609989
 20
-199.07490899041761
 30
0.0
 11
180.6286999497909
 21
-198.6470746710755
 31
0.0
  0
LINE
  5
48C
  8
DATA
  6
CONTINUOUS
 62
     7
 10
182.3943011168939
 20
-197.70148448451411
 30
0.0
 11
181.79537982394399
 21
-197.10256319156429
 31
0.0
  0
LINE
  5
48D
  8
DATA
  6
CONTINUOUS
 62
     7
 10
183.8536824980645
 20
-196.55636760822111
 30
0.0
 11
183.42882043761401
 21
-195.82048493331271
 31
0.0
  0
LINE
  5
48E
  8
DATA
  6
CONTINUOUS
 62
     7
 10
185.691565760054
 20
-195.8139895836367
 30
0.0
 11
185.4883318992668
 21
-194.9780176067348
 31
0.0
  0
LINE
  5
48F
  8
DATA
  6
CONTINUOUS
 62
     7
 10
189.29963638972649
 20
-195.9169651522391
 30
0.0
 11
189.5609470562278
 21
-195.0587078376121
 31
0.0
  0
LINE
  5
490
  8
DATA
  6
CONTINUOUS
 62
     7
 10
190.8383772016181
 20
-196.6022705619707
 30
0.0
 11
191.31304410848031
 21
-195.81477090933831
 31
0.0
  0
LINE
  5
491
  8
DATA
  6
CONTINUOUS
 62
     7
 10
192.16866676899861
 20
-197.64859077923199
 30
0.0
 11
192.82085931307961
 21
-196.97849771140611
 31
0.0
  0
LINE
  5
492
  8
DATA
  6
CONTINUOUS
 62
     7
 10
193.3225643114047
 20
-199.20414938650649
 30
0.0
 11
194.16672171198809
 21
-198.7242281810156
 31
0.0
  0
LINE
  5
493
  8
DATA
  6
CONTINUOUS
 62
     7
 10
193.9178284240142
 20
-200.70325009607279
 30
0.0
 11
194.90036285331919
 21
-200.53396258302899
 31
0.0
  0
LINE
  5
494
  8
DATA
  6
CONTINUOUS
 62
     7
 10
194.8260262432461
 20
-204.57635288822431
 30
0.0
 11
193.88975509390821
 21
-204.319950463514
 31
0.0
  0
LINE
  5
495
  8
DATA
  6
CONTINUOUS
 62
     7
 10
193.2049054220879
 20
-205.92519113629831
 30
0.0
 11
194.1012444621195
 21
-206.45178983756259
 31
0.0
  0
LINE
  5
496
  8
DATA
  6
CONTINUOUS
 62
     7
 10
192.956215271736
 20
-207.95892778138651
 30
0.0
 11
192.21855911871529
 21
-207.2212716283658
 31
0.0
  0
LINE
  5
497
  8
DATA
  6
CONTINUOUS
 62
     7
 10
191.3227746580628
 20
-209.24100603963291
 30
0.0
 11
190.79531291864569
 21
-208.3442676992604
 31
0.0
  0
LINE
  5
498
  8
DATA
  6
CONTINUOUS
 62
     7
 10
187.50504247651921
 20
-195.37856906325359
 30
0.0
 11
187.50504247651921
 21
-194.60625464482081
 31
0.0
  0
LINE
  5
499
  8
DATA
  6
CONTINUOUS
 62
     7
 10
183.59331838122159
 20
-205.45747235478649
 30
0.0
 11
182.5557513326149
 21
-206.56338815753281
 31
0.0
  0
LINE
  5
49A
  8
DATA
  6
CONTINUOUS
 62
     7
 10
183.72260489155781
 20
-207.65812683501809
 30
0.0
 11
184.76017194016021
 21
-206.5522110322764
 31
0.0
  0
LINE
  5
49B
  8
DATA
  6
CONTINUOUS
 62
     7
 10
186.6898671928094
 20
-207.29511588361649
 30
0.0
 11
186.6898671928094
 21
-208.80714910483809
 31
0.0
  0
LINE
  5
49C
  8
DATA
  6
CONTINUOUS
 62
     7
 10
188.28986719280931
 20
-207.25612368498281
 30
0.0
 11
188.28986719280931
 21
-208.777700004037
 31
0.0
  0
TEXT
  5
49D
  8
DATA
 62
     7
 10
191.38127721455999
 20
-211.56840970317941
 30
0.0
 40
1.5390625
  1
+6
 41
0.7
 11
191.38127721455999
 21
-210.02934720317941
 31
0.0
 73
     3
  0
TEXT
  5
49E
  8
DATA
 62
     7
 10
184.94889313324211
 20
-215.79654503030341
 30
0.0
 40
1.764577907986109
  1
GAIN
 41
0.7
 11
184.94889313324211
 21
-214.0319671223173
 31
0.0
 73
     3
  0
TEXT
  5
49F
  8
DATA
 62
     7
 10
180.3375703788173
 20
-224.0634674788559
 30
0.0
 40
2.1162109375
  1
HIGH OUTPUT
 41
0.7
 11
180.3375703788173
 21
-221.9472565413559
 31
0.0
 73
     3
  0
TEXT
  5
4A0
  8
DATA
 62
     7
 10
186.03927033077241
 20
-212.97952295069101
 30
0.0
 40
1.764577907986109
  1
dB
 41
0.7
 11
186.03927033077241
 21
-211.2149450427049
 31
0.0
 73
     3
  0
TEXT
  5
4A1
  8
DATA
 62
     7
 10
185.7019618958798
 20
-194.21846747885601
 30
0.0
 40
1.5390625
  1
-10
 41
0.7
 11
185.7019618958798
 21
-192.67940497885601
 31
0.0
 73
     3
  0
TEXT
  5
4A2
  8
DATA
 62
     7
 10
176.05869080864829
 20
-202.7811590439633
 30
0.0
 40
1.5390625
  1
-30
 41
0.7
 11
176.05869080864829
 21
-201.2420965439633
 31
0.0
 73
     3
  0
TEXT
  5
4A3
  8
DATA
 62
     7
 10
195.8138872005577
 20
-203.14981326140961
 30
0.0
 40
1.5390625
  1
0
 41
0.7
 11
195.8138872005577
 21
-201.61075076140961
 31
0.0
 73
     3
  0
CIRCLE
  5
4A4
  8
DATA
  6
CONTINUOUS
 62
     7
 10
199.42283434595609
 20
-211.0007566065396
 30
0.0
 40
2.6349999999984841
  0
CIRCLE
  5
4A5
  8
DATA
  6
CONTINUOUS
 62
     7
 10
199.42283434595609
 20
-211.0007566065396
 30
0.0
 40
1.6999999999982831
  0
CIRCLE
  5
4A6
  8
DATA
  6
CONTINUOUS
 62
     7
 10
206.432637954048
 20
-211.0007566065396
 30
0.0
 40
1.5
  0
TEXT
  5
4A7
  8
DATA
 62
     7
 10
199.3936918461325
 20
-206.99614939035959
 30
0.0
 40
1.5390625
  1
\U+03A6INV
 41
0.7
 11
199.3936918461325
 21
-205.45708689035959
 31
0.0
 73
     3
  0
TEXT
  5
4A8
  8
DATA
 62
     7
 10
180.3097596919373
 20
-211.8169415786262
 30
0.0
 40
1.846875
  1
-∞
 41
0.7
 11
180.3097596919373
 21
-209.97006657862619
 31
0.0
 73
     3
  0
ARC
  5
4A9
  8
DATA
  6
CONTINUOUS
 62
     7
 10
98.402071662161632
 20
-202.5949031705521
 30
0.0
 40
4.7500000000005294
 50
98.302906098070494
 51
78.905036031997085
  0
ARC
  5
4AA
  8
DATA
  6
CONTINUOUS
 62
     7
 10
98.402071662161717
 20
-202.5949031705521
 30
0.0
 40
6.2500000000006404
 50
96.300838472257496
 51
81.590263166661543
  0
LINE
  5
4AB
  8
DATA
  6
CONTINUOUS
 62
     7
 10
98.416141307131369
 20
-195.37856906325359
 30
0.0
 11
98.616141307131215
 21
-195.37856906325359
 31
0.0
  0
ARC
  5
4AC
  8
DATA
  6
CONTINUOUS
 62
     7
 10
98.416141307131369
 20
-196.07856906325381
 30
0.0
 40
0.7000000000001592
 50
90.0
 51
179.99999999998141
  0
LINE
  5
4AD
  8
DATA
  6
CONTINUOUS
 62
     7
 10
97.716141307131096
 20
-201.83856906325369
 30
0.0
 11
97.716141307131196
 21
-196.0785690632537
 31
0.0
  0
ARC
  5
4AE
  8
DATA
  6
CONTINUOUS
 62
     7
 10
98.416141307131085
 20
-201.83856906325369
 30
0.0
 40
0.6999999999999889
 50
180.0
 51
270.00000000000108
  0
LINE
  5
4AF
  8
DATA
  6
CONTINUOUS
 62
     7
 10
98.616141307131215
 20
-202.5385690632537
 30
0.0
 11
98.416141307131213
 21
-202.5385690632537
 31
0.0
  0
ARC
  5
4B0
  8
DATA
  6
CONTINUOUS
 62
     7
 10
98.616141307131215
 20
-201.83856906325369
 30
0.0
 40
0.6999999999999318
 50
270.0
 51
0.0
  0
LINE
  5
4B1
  8
DATA
  6
CONTINUOUS
 62
     7
 10
99.316141307131161
 20
-196.0785690632537
 30
0.0
 11
99.316141307131161
 21
-201.83856906325369
 31
0.0
  0
ARC
  5
4B2
  8
DATA
  6
CONTINUOUS
 62
     7
 10
98.616141307131116
 20
-196.0785690632537
 30
0.0
 40
0.7000000000000455
 50
0.0
 51
89.999999999995381
  0
LINE
  5
4B3
  8
DATA
  6
CONTINUOUS
 62
     7
 10
93.719924718714594
 20
-201.79490317055229
 30
0.0
 11
92.203483113144202
 21
-201.79490317055229
 31
0.0
  0
LINE
  5
4B4
  8
DATA
  6
CONTINUOUS
 62
     7
 10
93.719924718714594
 20
-203.39490317055231
 30
0.0
 11
92.203483113144202
 21
-203.39490317055231
 31
0.0
  0
LINE
  5
4B5
  8
DATA
  6
CONTINUOUS
 62
     7
 10
103.0842186056086
 20
-201.79490317055229
 30
0.0
 11
104.60066021117891
 21
-201.79490317055229
 31
0.0
  0
LINE
  5
4B6
  8
DATA
  6
CONTINUOUS
 62
     7
 10
103.0842186056086
 20
-203.39490317055231
 30
0.0
 11
104.60066021117891
 21
-203.39490317055231
 31
0.0
  0
LINE
  5
4B7
  8
DATA
  6
CONTINUOUS
 62
     7
 10
94.525608382992388
 20
-199.84981074128191
 30
0.0
 11
93.453322240416824
 21
-198.77752459870641
 31
0.0
  0
LINE
  5
4B8
  8
DATA
  6
CONTINUOUS
 62
     7
 10
95.656979232886513
 20
-198.71843989137901
 30
0.0
 11
94.584693090315511
 21
-197.6461537488081
 31
0.0
  0
LINE
  5
4B9
  8
DATA
  6
CONTINUOUS
 62
     7
 10
101.1471640914323
 20
-198.71843989138341
 30
0.0
 11
102.2194502340077
 21
-197.6461537488081
 31
0.0
  0
LINE
  5
4BA
  8
DATA
  6
CONTINUOUS
 62
     7
 10
103.3508210839062
 20
-198.77752459870669
 30
0.0
 11
102.2785349413352
 21
-199.84981074127771
 31
0.0
  0
LINE
  5
4BB
  8
DATA
  6
CONTINUOUS
 62
     7
 10
103.3508210839062
 20
-206.41228174239799
 30
0.0
 11
102.2785349413352
 21
-205.33999559982701
 31
0.0
  0
LINE
  5
4BC
  8
DATA
  6
CONTINUOUS
 62
     7
 10
102.2194502340077
 20
-207.5436525922965
 30
0.0
 11
101.1471640914323
 21
-206.47136644972119
 31
0.0
  0
ARC
  5
4BD
  8
DATA
  6
CONTINUOUS
 62
     7
 10
98.333653900617293
 20
-202.46039801474521
 30
0.0
 40
6.839999999999983
 50
93.853979695463224
 51
240.88271410567049
  0
ARC
  5
4BE
  8
DATA
  6
CONTINUOUS
 62
     7
 10
98.333653900617293
 20
-202.46039801474521
 30
0.0
 40
6.8400000000002894
 50
300.65928338484821
 51
82.830667981081575
  0
LINE
  5
4BF
  8
DATA
  6
CONTINUOUS
 62
     7
 10
106.1870716621625
 20
-202.5307454864753
 30
0.0
 11
105.1732921390942
 21
-202.5307454864753
 31
0.0
  0
LINE
  5
4C0
  8
DATA
  6
CONTINUOUS
 62
     7
 10
95.005316934394756
 20
-208.43599614708731
 30
0.0
 11
94.532051856138921
 21
-209.28568232562881
 31
0.0
  0
LINE
  5
4C1
  8
DATA
  6
CONTINUOUS
 62
     7
 10
93.588404608815551
 20
-207.3866754286405
 30
0.0
 11
92.931019200935765
 21
-208.06913965505271
 31
0.0
  0
LINE
  5
4C2
  8
DATA
  6
CONTINUOUS
 62
     7
 10
92.460598176627784
 20
-205.96650931688009
 30
0.0
 11
91.662426141799145
 21
-206.427334156048
 31
0.0
  0
LINE
  5
4C3
  8
DATA
  6
CONTINUOUS
 62
     7
 10
91.786962440528953
 20
-204.44192039069961
 30
0.0
 11
90.926122618325124
 21
-204.7024754176484
 31
0.0
  0
LINE
  5
4C4
  8
DATA
  6
CONTINUOUS
 62
     7
 10
91.494015662140527
 20
-202.5307454864753
 30
0.0
 11
90.617071662162473
 21
-202.5307454864753
 31
0.0
  0
LINE
  5
4C5
  8
DATA
  6
CONTINUOUS
 62
     7
 10
91.726238741329837
 20
-200.69187747122879
 30
0.0
 11
90.869617746748574
 21
-200.56393003702539
 31
0.0
  0
LINE
  5
4C6
  8
DATA
  6
CONTINUOUS
 62
     7
 10
92.390248810421014
 20
-199.07490899041761
 30
0.0
 11
91.654974064111983
 21
-198.6470746710755
 31
0.0
  0
LINE
  5
4C7
  8
DATA
  6
CONTINUOUS
 62
     7
 10
93.420575231215025
 20
-197.70148448451411
 30
0.0
 11
92.821653938265129
 21
-197.10256319156429
 31
0.0
  0
LINE
  5
4C8
  8
DATA
  6
CONTINUOUS
 62
     7
 10
94.879956612385783
 20
-196.55636760822111
 30
0.0
 11
94.455094551935275
 21
-195.82048493331271
 31
0.0
  0
LINE
  5
4C9
  8
DATA
  6
CONTINUOUS
 62
     7
 10
96.717839874375571
 20
-195.8139895836367
 30
0.0
 11
96.514606013588335
 21
-194.9780176067348
 31
0.0
  0
LINE
  5
4CA
  8
DATA
  6
CONTINUOUS
 62
     7
 10
100.32591050404849
 20
-195.9169651522391
 30
0.0
 11
100.5872211705499
 21
-195.0587078376121
 31
0.0
  0
LINE
  5
4CB
  8
DATA
  6
CONTINUOUS
 62
     7
 10
101.86465131594019
 20
-196.6022705619707
 30
0.0
 11
102.3393182228025
 21
-195.81477090933831
 31
0.0
  0
LINE
  5
4CC
  8
DATA
  6
CONTINUOUS
 62
     7
 10
103.1949408833209
 20
-197.64859077923199
 30
0.0
 11
103.8471334274019
 21
-196.97849771140611
 31
0.0
  0
LINE
  5
4CD
  8
DATA
  6
CONTINUOUS
 62
     7
 10
104.3488384257271
 20
-199.20414938650649
 30
0.0
 11
105.19299582631059
 21
-198.7242281810156
 31
0.0
  0
LINE
  5
4CE
  8
DATA
  6
CONTINUOUS
 62
     7
 10
104.94410253833679
 20
-200.70325009607279
 30
0.0
 11
105.9266369676418
 21
-200.53396258302899
 31
0.0
  0
LINE
  5
4CF
  8
DATA
  6
CONTINUOUS
 62
     7
 10
105.85230035756879
 20
-204.57635288822431
 30
0.0
 11
104.9160292082308
 21
-204.319950463514
 31
0.0
  0
LINE
  5
4D0
  8
DATA
  6
CONTINUOUS
 62
     7
 10
104.23117953641029
 20
-205.92519113629831
 30
0.0
 11
105.127518576442
 21
-206.45178983756259
 31
0.0
  0
LINE
  5
4D1
  8
DATA
  6
CONTINUOUS
 62
     7
 10
103.9824893860584
 20
-207.95892778138651
 30
0.0
 11
103.2448332330376
 21
-207.2212716283658
 31
0.0
  0
LINE
  5
4D2
  8
DATA
  6
CONTINUOUS
 62
     7
 10
102.349048772385
 20
-209.24100603963291
 30
0.0
 11
101.8215870329678
 21
-208.3442676992604
 31
0.0
  0
LINE
  5
4D3
  8
DATA
  6
CONTINUOUS
 62
     7
 10
98.53131659084093
 20
-195.37856906325359
 30
0.0
 11
98.53131659084093
 21
-194.60625464482081
 31
0.0
  0
TEXT
  5
4D4
  8
DATA
 62
     7
 10
91.427201025837959
 20
-211.61729378977199
 30
0.0
 40
1.5390625
  1
450
 41
0.7
 11
91.427201025837959
 21
-210.07823128977199
 31
0.0
 73
     3
  0
TEXT
  5
4D5
  8
DATA
 62
     7
 10
102.092728413583
 20
-211.56840970317941
 30
0.0
 40
1.5390625
  1
9.6k
 41
0.7
 11
102.092728413583
 21
-210.02934720317941
 31
0.0
 73
     3
  0
LINE
  5
4D6
  8
DATA
  6
CONTINUOUS
 62
     7
 10
94.619592495542932
 20
-205.45747235478649
 30
0.0
 11
93.582025446936143
 21
-206.56338815753281
 31
0.0
  0
LINE
  5
4D7
  8
DATA
  6
CONTINUOUS
 62
     7
 10
94.748879005879147
 20
-207.65812683501809
 30
0.0
 11
95.786446054481715
 21
-206.5522110322764
 31
0.0
  0
LINE
  5
4D8
  8
DATA
  6
CONTINUOUS
 62
     7
 10
97.716141307131096
 20
-207.29511588361649
 30
0.0
 11
97.716141307131096
 21
-208.80714910483809
 31
0.0
  0
LINE
  5
4D9
  8
DATA
  6
CONTINUOUS
 62
     7
 10
99.316141307131161
 20
-207.25612368498281
 30
0.0
 11
99.316141307131161
 21
-208.777700004037
 31
0.0
  0
TEXT
  5
4DA
  8
DATA
 62
     7
 10
87.209751276740647
 20
-203.34828074055031
 30
0.0
 40
1.5390625
  1
700
 41
0.7
 11
87.209751276740647
 21
-201.80921824055031
 31
0.0
 73
     3
  0
TEXT
  5
4DB
  8
DATA
 62
     7
 10
106.5955251378865
 20
-204.7148964802432
 30
0.0
 40
1.5390625
  1
6.8k
 41
0.7
 11
106.5955251378865
 21
-203.1758339802432
 31
0.0
 73
     3
  0
TEXT
  5
4DC
  8
DATA
 62
     7
 10
97.182067312348593
 20
-194.1990470009799
 30
0.0
 40
1.5390625
  1
2.4k
 41
0.7
 11
97.182067312348593
 21
-192.6599845009799
 31
0.0
 73
     3
  0
TEXT
  5
4DD
  8
DATA
 62
     7
 10
88.159296856059058
 20
-197.05455528893049
 30
0.0
 40
1.5390625
  1
1.4k
 41
0.7
 11
88.159296856059058
 21
-195.51549278893049
 31
0.0
 73
     3
  0
TEXT
  5
4DE
  8
DATA
 62
     7
 10
104.05072152979569
 20
-197.12378370255001
 30
0.0
 40
1.5390625
  1
3.5k
 41
0.7
 11
104.05072152979569
 21
-195.58472120255001
 31
0.0
 73
     3
  0
TEXT
  5
4DF
  8
DATA
 62
     7
 10
92.90658373266028
 20
-215.79654503030341
 30
0.0
 40
1.764577907986109
  1
XOVER FREQ
 41
0.7
 11
92.90658373266028
 21
-214.0319671223173
 31
0.0
 73
     3
  0
TEXT
  5
4E0
  8
DATA
 62
     7
 10
90.789018552568763
 20
-220.42126151706319
 30
0.0
 40
1.764577907986109
  1
HIGH-MID/HIGH
 41
0.7
 11
90.789018552568763
 21
-218.65668360907711
 31
0.0
 73
     3
  0
TEXT
  5
4E1
  8
DATA
 62
     7
 10
92.051177890779783
 20
-224.0634674788559
 30
0.0
 40
2.1162109375
  1
MID/HIGH
 41
0.7
 11
92.051177890779783
 21
-221.9472565413559
 31
0.0
 73
     3
  0
TEXT
  5
4E2
  8
DATA
 62
     7
 10
97.292292665071272
 20
-212.97952295069101
 30
0.0
 40
1.764577907986109
  1
Hz
 41
0.7
 11
97.292292665071272
 21
-211.2149450427049
 31
0.0
 73
     3
  0
TEXT
  5
4E3
  8
DATA
 62
     7
 10
145.4737995593419
 20
-220.42126151706319
 30
0.0
 40
1.764577907986109
  1
HIGH-MID OUTPUT
 41
0.7
 11
145.4737995593419
 21
-218.65668360907711
 31
0.0
 73
     3
  0
CIRCLE
  5
4E4
  8
DATA
  6
CONTINUOUS
 62
     7
 10
-131.2256481266659
 20
223.0854429225752
 30
0.0
 40
11.00000000000011
  0
CIRCLE
  5
4E5
  8
DATA
  6
CONTINUOUS
 62
     7
 10
-131.225556717708
 20
223.02028704496021
 30
0.0
 40
8.2500000000000409
  0
CIRCLE
  5
4E6
  8
DATA
  6
CONTINUOUS
 62
     7
 10
-127.2296899281048
 20
223.30261607505199
 30
0.0
 40
1.1749999999999781
  0
CIRCLE
  5
4E7
  8
DATA
  6
CONTINUOUS
 62
     7
 10
-135.22586161756459
 20
223.28544292257521
 30
0.0
 40
1.1750000000000671
  0
CIRCLE
  5
4E8
  8
DATA
  6
CONTINUOUS
 62
     7
 10
-131.22569900470961
 20
226.96920538091641
 30
0.0
 40
1.1750000000000671
  0
CIRCLE
  5
4E9
  8
DATA
  6
CONTINUOUS
 62
     7
 10
-141.15483037150091
 20
232.9209776358133
 30
0.0
 40
2.7500000000000462
  0
CIRCLE
  5
4EA
  8
DATA
  6
CONTINUOUS
 62
     7
 10
-121.3573172375003
 20
213.1191841579205
 30
0.0
 40
2.7500000000000462
  0
TEXT
  5
4EB
  8
DATA
 62
     7
 10
-148.75245142757529
 20
240.7822354422257
 30
0.0
 40
1.923828125
  1
 LOW/HIGH
 50
180.0
 41
0.7
 11
-148.75245142757529
 21
238.8584073172257
 31
0.0
 73
     3
  0
TEXT
  5
4EC
  8
DATA
 62
     7
 10
-99.367077957567815
 20
211.71821389198769
 30
0.0
 40
1.923828125
  1
 LOW-MID
 50
180.0
 41
0.7
 11
-99.367077957567815
 21
209.79438576698769
 31
0.0
 73
     3
  0
TEXT
  5
4ED
  8
DATA
 62
     7
 10
-74.147407132621737
 20
211.71821389198769
 30
0.0
 40
1.923828125
  1
NOT USED
 50
180.0
 41
0.7
 11
-74.147407132621737
 21
209.79438576698769
 31
0.0
 73
     3
  0
TEXT
  5
4EE
  8
DATA
 62
     7
 10
-124.0573364803541
 20
237.4194775425473
 30
0.0
 40
1.923828125
  1
 LOW/LF SUM
 50
180.0
 41
0.7
 11
-124.0573364803541
 21
235.4956494175473
 31
0.0
 73
     3
  0
TEXT
  5
4EF
  8
DATA
 62
     7
 10
-124.0728692129275
 20
240.7822354422257
 30
0.0
 40
1.923828125
  1
 LOW/LF SUM
 50
180.0
 41
0.7
 11
-124.0728692129275
 21
238.8584073172257
 31
0.0
 73
     3
  0
TEXT
  5
4F0
  8
DATA
 62
     7
 10
-101.65069419853531
 20
237.4194775425473
 30
0.0
 40
1.923828125
  1
 MID
 50
180.0
 41
0.7
 11
-101.65069419853531
 21
235.4956494175473
 31
0.0
 73
     3
  0
TEXT
  5
4F1
  8
DATA
 62
     7
 10
-98.457370555350138
 20
240.7822354422257
 30
0.0
 40
1.923828125
  1
 NOT USED
 50
180.0
 41
0.7
 11
-98.457370555350138
 21
238.8584073172257
 31
0.0
 73
     3
  0
TEXT
  5
4F2
  8
DATA
 62
     7
 10
-74.486119701569308
 20
237.4194775425473
 30
0.0
 40
1.923828125
  1
 HIGH
 50
180.0
 41
0.7
 11
-74.486119701569308
 21
235.4956494175473
 31
0.0
 73
     3
  0
TEXT
  5
4F3
  8
DATA
 62
     7
 10
-74.501652434142628
 20
240.7822354422257
 30
0.0
 40
1.923828125
  1
 HIGH
 50
180.0
 41
0.7
 11
-74.501652434142628
 21
238.8584073172257
 31
0.0
 73
     3
  0
TEXT
  5
4F4
  8
DATA
 62
     7
 10
52.381123499355539
 20
209.31711058085861
 30
0.0
 40
2.714735243055554
  1
 CHANNEL TWO 
 50
180.0
 41
0.7
 11
52.381123499355539
 21
206.6023753378031
 31
0.0
 73
     3
  0
TEXT
  5
4F5
  8
DATA
 62
     7
 10
-4.604961536124577
 20
241.09391432792981
 30
0.0
 40
1.923828125
  1
 INPUT
 50
180.0
 41
0.7
 11
-4.604961536124577
 21
239.17008620292981
 31
0.0
 73
     3
  0
TEXT
  5
4F6
  8
DATA
 62
     7
 10
-5.4269250907519631
 20
211.24589531651901
 30
0.0
 40
2.0360514322916661
  1
PUSH
 50
180.0
 41
0.7
 11
-5.4269250907519631
 21
209.2098438842273
 31
0.0
 73
     3
  0
ARC
  5
4F7
  8
DATA
  6
CONTINUOUS
 62
     7
 10
-8.0716959365818042
 20
222.9127696565391
 30
0.0
 40
10.89999999999984
 50
289.23581260751109
 51
250.76418739248879
  0
CIRCLE
  5
4F8
  8
DATA
  6
CONTINUOUS
 62
     7
 10
-8.0716959365818042
 20
222.9127696565391
 30
0.0
 40
9.8500000000000796
  0
CIRCLE
  5
4F9
  8
DATA
  6
CONTINUOUS
 62
     7
 10
-8.0716959365818042
 20
222.9127696565391
 30
0.0
 40
7.850000000000076
  0
CIRCLE
  5
4FA
  8
DATA
  6
CONTINUOUS
 62
     7
 10
-8.0716959365818042
 20
226.83390767768159
 30
0.0
 40
1.264999999999985
  0
CIRCLE
  5
4FB
  8
DATA
  6
CONTINUOUS
 62
     7
 10
-4.1402143506955849
 20
222.9127696565391
 30
0.0
 40
1.264999999999985
  0
CIRCLE
  5
4FC
  8
DATA
  6
CONTINUOUS
 62
     7
 10
-12.006140355969119
 20
222.9127696565391
 30
0.0
 40
1.2650000000000421
  0
ARC
  5
4FD
  8
DATA
  6
CONTINUOUS
 62
     7
 10
-9.8995534964035272
 20
209.8944358299531
 30
0.0
 40
3.172142440178161
 50
93.110794313929901
 51
266.88920568607011
  0
ARC
  5
4FE
  8
DATA
  6
CONTINUOUS
 62
     7
 10
-6.2438383767600811
 20
209.8944358299531
 30
0.0
 40
3.172142440178161
 50
273.11079431392989
 51
86.889205686070085
  0
LINE
  5
4FF
  8
DATA
  6
CONTINUOUS
 62
     7
 10
-6.0716959365818042
 20
206.72696765472719
 30
0.0
 11
-10.071695936581801
 21
206.72696765472719
 31
0.0
  0
LINE
  5
500
  8
DATA
  6
CONTINUOUS
 62
     7
 10
-10.071695936581801
 20
213.061904005179
 30
0.0
 11
-6.071695936630916
 21
213.061904005179
 31
0.0
  0
CIRCLE
  5
501
  8
DATA
  6
CONTINUOUS
 62
     7
 10
-18.05874373553393
 20
232.65269466469769
 30
0.0
 40
2.749999999999944
  0
CIRCLE
  5
502
  8
DATA
  6
CONTINUOUS
 62
     7
 10
1.742159534781379
 20
212.85110520236819
 30
0.0
 40
2.7499999999999849
  0
CIRCLE
  5
503
  8
DATA
  6
CONTINUOUS
 62
     7
 10
63.274351873334062
 20
223.0854429225752
 30
0.0
 40
11.00000000000011
  0
CIRCLE
  5
504
  8
DATA
  6
CONTINUOUS
 62
     7
 10
63.274443282291998
 20
223.02028704496021
 30
0.0
 40
8.2500000000000409
  0
CIRCLE
  5
505
  8
DATA
  6
CONTINUOUS
 62
     7
 10
67.270310071895182
 20
223.30261607505199
 30
0.0
 40
1.1749999999999501
  0
CIRCLE
  5
506
  8
DATA
  6
CONTINUOUS
 62
     7
 10
59.274138382435382
 20
223.28544292257521
 30
0.0
 40
1.17500000000001
  0
CIRCLE
  5
507
  8
DATA
  6
CONTINUOUS
 62
     7
 10
63.274300995290382
 20
226.96920538091641
 30
0.0
 40
1.17500000000001
  0
CIRCLE
  5
508
  8
DATA
  6
CONTINUOUS
 62
     7
 10
53.3451696284991
 20
232.9209776358133
 30
0.0
 40
2.7500000000000462
  0
CIRCLE
  5
509
  8
DATA
  6
CONTINUOUS
 62
     7
 10
73.142682762499632
 20
213.1191841579205
 30
0.0
 40
2.7499999999999631
  0
CIRCLE
  5
50A
  8
DATA
  6
CONTINUOUS
 62
     7
 10
89.764500611321736
 20
223.0854429225752
 30
0.0
 40
11.00000000000011
  0
CIRCLE
  5
50B
  8
DATA
  6
CONTINUOUS
 62
     7
 10
89.764592020279693
 20
223.02028704496021
 30
0.0
 40
8.2500000000000391
  0
CIRCLE
  5
50C
  8
DATA
  6
CONTINUOUS
 62
     7
 10
93.760458809882834
 20
223.30261607505199
 30
0.0
 40
1.1749999999999501
  0
CIRCLE
  5
50D
  8
DATA
  6
CONTINUOUS
 62
     7
 10
85.764287120423091
 20
223.28544292257521
 30
0.0
 40
1.17500000000001
  0
CIRCLE
  5
50E
  8
DATA
  6
CONTINUOUS
 62
     7
 10
89.764449733278042
 20
226.96920538091641
 30
0.0
 40
1.17500000000001
  0
CIRCLE
  5
50F
  8
DATA
  6
CONTINUOUS
 62
     7
 10
79.835318366486774
 20
232.9209776358133
 30
0.0
 40
2.7500000000000679
  0
CIRCLE
  5
510
  8
DATA
  6
CONTINUOUS
 62
     7
 10
99.632831500487171
 20
213.1191841579205
 30
0.0
 40
2.7499999999998832
  0
LINE
  5
511
  8
DATA
  6
CONTINUOUS
 62
     7
 10
-20.2734836731032
 20
242.85437616939089
 30
0.0
 11
75.726516326896416
 21
242.85437616939089
 31
0.0
  0
ARC
  5
512
  8
DATA
  6
CONTINUOUS
 62
     7
 10
-20.2734836731032
 20
210.8543761693908
 30
0.0
 40
2.0
 50
180.0
 51
270.0
  0
LINE
  5
513
  8
DATA
  6
CONTINUOUS
 62
     7
 10
-12.89634570862828
 20
208.8543761693908
 30
0.0
 11
-20.2734836731032
 21
208.8543761693908
 31
0.0
  0
TEXT
  5
514
  8
DATA
 62
     7
 10
-4.5527347648366412
 20
237.60052624427669
 30
0.0
 40
1.923828125
  1
 INPUT
 50
180.0
 41
0.7
 11
-4.5527347648366412
 21
235.67669811927669
 31
0.0
 73
     3
  0
TEXT
  5
515
  8
DATA
 62
     7
 10
18.861974258028209
 20
237.4194775425473
 30
0.0
 40
1.923828125
  1
 LOW/MID
 50
180.0
 41
0.7
 11
18.861974258028209
 21
235.4956494175473
 31
0.0
 73
     3
  0
TEXT
  5
516
  8
DATA
 62
     7
 10
42.861918549832993
 20
211.87399135817719
 30
0.0
 40
1.923828125
  1
 NOT USED
 50
180.0
 41
0.7
 11
42.861918549832993
 21
209.95016323317719
 31
0.0
 73
     3
  0
TEXT
  5
517
  8
DATA
 62
     7
 10
22.53159304994772
 20
217.5573941339473
 30
0.0
 40
1.923828125
  1
 XOVER FREQ
 50
180.0
 41
0.7
 11
22.53159304994772
 21
215.6335660089473
 31
0.0
 73
     3
  0
CIRCLE
  5
518
  8
DATA
  6
CONTINUOUS
 62
     7
 10
14.09180074033951
 20
230.82361935395369
 30
0.0
 40
2.599999999999965
  0
CIRCLE
  5
519
  8
DATA
  6
CONTINUOUS
 62
     7
 10
14.09180074033951
 20
230.82361935395369
 30
0.0
 40
1.6499999999999759
  0
LINE
  5
51A
  8
DATA
  6
CONTINUOUS
 62
     7
 10
19.575146531392129
 20
222.15638359961369
 30
0.0
 11
15.225146531392211
 21
222.15638359961369
 31
0.0
  0
LINE
  5
51B
  8
DATA
  6
CONTINUOUS
 62
     7
 10
18.625146531392161
 20
219.35638359961379
 30
0.0
 11
15.225146531392211
 21
219.35638359961379
 31
0.0
  0
LINE
  5
51C
  8
DATA
  6
CONTINUOUS
 62
     7
 10
15.225146531392211
 20
222.15638359961369
 30
0.0
 11
14.275146531392171
 21
222.15638359961369
 31
0.0
  0
LINE
  5
51D
  8
DATA
  6
CONTINUOUS
 62
     7
 10
18.625146531392161
 20
219.35638359961379
 30
0.0
 11
18.975146531392181
 21
221.95638359961359
 31
0.0
  0
LINE
  5
51E
  8
DATA
  6
CONTINUOUS
 62
     7
 10
15.225146531392211
 20
219.35638359961379
 30
0.0
 11
14.87514653139219
 21
221.95638359961359
 31
0.0
  0
LINE
  5
51F
  8
DATA
  6
CONTINUOUS
 62
     7
 10
14.275146531392171
 20
222.15638359961369
 30
0.0
 11
14.275146531392171
 21
221.95638359961359
 31
0.0
  0
LINE
  5
520
  8
DATA
  6
CONTINUOUS
 62
     7
 10
19.575146531392129
 20
222.15638359961369
 30
0.0
 11
19.575146531392129
 21
221.95638359961359
 31
0.0
  0
LINE
  5
521
  8
DATA
  6
CONTINUOUS
 62
     7
 10
14.275146531392171
 20
221.95638359961359
 30
0.0
 11
19.565146531392159
 21
221.95638359961359
 31
0.0
  0
LINE
  5
522
  8
DATA
  6
CONTINUOUS
 62
     7
 10
19.575146531392129
 20
225.15181814990089
 30
0.0
 11
15.225146531392211
 21
225.15181814990089
 31
0.0
  0
LINE
  5
523
  8
DATA
  6
CONTINUOUS
 62
     7
 10
15.225146531392211
 20
225.15181814990089
 30
0.0
 11
14.275146531392171
 21
225.15181814990089
 31
0.0
  0
LINE
  5
524
  8
DATA
  6
CONTINUOUS
 62
     7
 10
18.77322345446909
 20
223.4518181499009
 30
0.0
 11
18.975146531392181
 21
224.9518181499009
 31
0.0
  0
LINE
  5
525
  8
DATA
  6
CONTINUOUS
 62
     7
 10
15.077069608315281
 20
223.4518181499009
 30
0.0
 11
14.87514653139219
 21
224.9518181499009
 31
0.0
  0
LINE
  5
526
  8
DATA
  6
CONTINUOUS
 62
     7
 10
14.275146531392171
 20
225.15181814990089
 30
0.0
 11
14.275146531392171
 21
224.9518181499009
 31
0.0
  0
LINE
  5
527
  8
DATA
  6
CONTINUOUS
 62
     7
 10
19.575146531392129
 20
225.15181814990089
 30
0.0
 11
19.575146531392129
 21
224.9518181499009
 31
0.0
  0
LINE
  5
528
  8
DATA
  6
CONTINUOUS
 62
     7
 10
14.275146531392171
 20
224.9518181499009
 30
0.0
 11
19.565146531392159
 21
224.9518181499009
 31
0.0
  0
LINE
  5
529
  8
DATA
  6
CONTINUOUS
 62
     7
 10
18.77322345446909
 20
223.4518181499009
 30
0.0
 11
15.077069608315281
 21
223.4518181499009
 31
0.0
  0
TEXT
  5
52A
  8
DATA
 62
     7
 10
21.228537160489921
 20
211.91495469757101
 30
0.0
 40
1.923828125
  1
 NOT USED
 50
180.0
 41
0.7
 11
21.228537160489921
 21
209.99112657257101
 31
0.0
 73
     3
  0
TEXT
  5
52B
  8
DATA
 62
     7
 10
12.63780277587516
 20
222.33378204251639
 30
0.0
 40
1.923828125
  1
X1
 50
180.0
 41
0.7
 11
12.63780277587516
 21
220.40995391751639
 31
0.0
 73
     3
  0
TEXT
  5
52C
  8
DATA
 62
     7
 10
12.63780277587516
 20
224.83378204251639
 30
0.0
 40
1.923828125
  1
X10
 50
180.0
 41
0.7
 11
12.63780277587516
 21
222.90995391751639
 31
0.0
 73
     3
  0
CIRCLE
  5
52D
  8
DATA
  6
CONTINUOUS
 62
     7
 10
36.774351873334069
 20
223.0854429225752
 30
0.0
 40
11.000000000000121
  0
CIRCLE
  5
52E
  8
DATA
  6
CONTINUOUS
 62
     7
 10
36.774443282291998
 20
223.02028704496021
 30
0.0
 40
8.2500000000000497
  0
CIRCLE
  5
52F
  8
DATA
  6
CONTINUOUS
 62
     7
 10
40.770310071895167
 20
223.30261607505199
 30
0.0
 40
1.1749999999999501
  0
CIRCLE
  5
530
  8
DATA
  6
CONTINUOUS
 62
     7
 10
32.77413838243541
 20
223.28544292257521
 30
0.0
 40
1.17500000000001
  0
CIRCLE
  5
531
  8
DATA
  6
CONTINUOUS
 62
     7
 10
36.774300995290382
 20
226.96920538091641
 30
0.0
 40
1.175000000000018
  0
CIRCLE
  5
532
  8
DATA
  6
CONTINUOUS
 62
     7
 10
26.845169628499079
 20
232.9209776358133
 30
0.0
 40
2.7500000000000462
  0
CIRCLE
  5
533
  8
DATA
  6
CONTINUOUS
 62
     7
 10
46.642682762499611
 20
213.1191841579205
 30
0.0
 40
2.749999999999984
  0
TEXT
  5
534
  8
DATA
 62
     7
 10
19.247548572424691
 20
240.7822354422257
 30
0.0
 40
1.923828125
  1
 LOW/HIGH
 50
180.0
 41
0.7
 11
19.247548572424691
 21
238.8584073172257
 31
0.0
 73
     3
  0
TEXT
  5
535
  8
DATA
 62
     7
 10
69.060131775147312
 20
211.71821389198769
 30
0.0
 40
1.923828125
  1
 HIGH-MID
 50
180.0
 41
0.7
 11
69.060131775147312
 21
209.79438576698769
 31
0.0
 73
     3
  0
TEXT
  5
536
  8
DATA
 62
     7
 10
91.983263273104569
 20
211.71821389198769
 30
0.0
 40
1.923828125
  1
HIGH
 50
180.0
 41
0.7
 11
91.983263273104569
 21
209.79438576698769
 31
0.0
 73
     3
  0
TEXT
  5
537
  8
DATA
 62
     7
 10
39.892449398719492
 20
237.4194775425473
 30
0.0
 40
1.923828125
  1
 LOW
 50
180.0
 41
0.7
 11
39.892449398719492
 21
235.4956494175473
 31
0.0
 73
     3
  0
TEXT
  5
538
  8
DATA
 62
     7
 10
39.876916666146172
 20
240.7822354422257
 30
0.0
 40
1.923828125
  1
 LOW
 50
180.0
 41
0.7
 11
39.876916666146172
 21
238.8584073172257
 31
0.0
 73
     3
  0
TEXT
  5
539
  8
DATA
 62
     7
 10
66.349305801464723
 20
237.4194775425473
 30
0.0
 40
1.923828125
  1
 MID
 50
180.0
 41
0.7
 11
66.349305801464723
 21
235.4956494175473
 31
0.0
 73
     3
  0
TEXT
  5
53A
  8
DATA
 62
     7
 10
69.54262944464989
 20
240.7822354422257
 30
0.0
 40
1.923828125
  1
 NOT USED
 50
180.0
 41
0.7
 11
69.54262944464989
 21
238.8584073172257
 31
0.0
 73
     3
  0
TEXT
  5
53B
  8
DATA
 62
     7
 10
93.513880298430706
 20
237.4194775425473
 30
0.0
 40
1.923828125
  1
 HIGH
 50
180.0
 41
0.7
 11
93.513880298430706
 21
235.4956494175473
 31
0.0
 73
     3
  0
TEXT
  5
53C
  8
DATA
 62
     7
 10
93.498347565857344
 20
240.7822354422257
 30
0.0
 40
1.923828125
  1
 HIGH
 50
180.0
 41
0.7
 11
93.498347565857344
 21
238.8584073172257
 31
0.0
 73
     3
  0
LINE
  5
53D
  8
DATA
  6
CONTINUOUS
 62
     7
 10
-58.731259772317067
 20
213.97270612444251
 30
0.0
 11
-63.081259772316983
 21
213.97270612444251
 31
0.0
  0
LINE
  5
53E
  8
DATA
  6
CONTINUOUS
 62
     7
 10
-59.681259772317112
 20
211.17270612444241
 30
0.0
 11
-63.081259772316983
 21
211.17270612444241
 31
0.0
  0
LINE
  5
53F
  8
DATA
  6
CONTINUOUS
 62
     7
 10
-63.081259772316983
 20
213.97270612444251
 30
0.0
 11
-64.031259772317014
 21
213.97270612444251
 31
0.0
  0
LINE
  5
540
  8
DATA
  6
CONTINUOUS
 62
     7
 10
-59.681259772317112
 20
211.17270612444241
 30
0.0
 11
-59.331259772317111
 21
213.77270612444249
 31
0.0
  0
LINE
  5
541
  8
DATA
  6
CONTINUOUS
 62
     7
 10
-63.081259772316983
 20
211.17270612444241
 30
0.0
 11
-63.431259772316999
 21
213.77270612444249
 31
0.0
  0
LINE
  5
542
  8
DATA
  6
CONTINUOUS
 62
     7
 10
-64.031259772317014
 20
213.97270612444251
 30
0.0
 11
-64.031259772317014
 21
213.77270612444249
 31
0.0
  0
LINE
  5
543
  8
DATA
  6
CONTINUOUS
 62
     7
 10
-58.731259772317067
 20
213.97270612444251
 30
0.0
 11
-58.731259772317067
 21
213.77270612444249
 31
0.0
  0
LINE
  5
544
  8
DATA
  6
CONTINUOUS
 62
     7
 10
-64.031259772317014
 20
213.77270612444249
 30
0.0
 11
-58.741259772317058
 21
213.77270612444249
 31
0.0
  0
TEXT
  5
545
  8
DATA
 62
     7
 10
-51.28306776685109
 20
241.4816633826207
 30
0.0
 40
1.923828125
  1
 LOW SUM
 50
180.0
 41
0.7
 11
-51.28306776685109
 21
239.5578352576207
 31
0.0
 73
     3
  0
CIRCLE
  5
546
  8
DATA
  6
CONTINUOUS
 62
     7
 10
-41.205843229359353
 20
229.1912872283452
 30
0.0
 40
2.600000000000021
  0
CIRCLE
  5
547
  8
DATA
  6
CONTINUOUS
 62
     7
 10
-41.205843229359353
 20
229.1912872283452
 30
0.0
 40
1.6500000000000341
  0
LINE
  5
548
  8
DATA
  6
CONTINUOUS
 62
     7
 10
-38.490978052049222
 20
217.40966662676999
 30
0.0
 11
-42.840978052049103
 21
217.40966662676999
 31
0.0
  0
LINE
  5
549
  8
DATA
  6
CONTINUOUS
 62
     7
 10
-39.440978052049211
 20
214.60966662677009
 30
0.0
 11
-42.840978052049103
 21
214.60966662677009
 31
0.0
  0
LINE
  5
54A
  8
DATA
  6
CONTINUOUS
 62
     7
 10
-42.840978052049103
 20
217.40966662676999
 30
0.0
 11
-43.790978052049113
 21
217.40966662676999
 31
0.0
  0
LINE
  5
54B
  8
DATA
  6
CONTINUOUS
 62
     7
 10
-39.440978052049211
 20
214.60966662677009
 30
0.0
 11
-39.090978052049188
 21
217.20966662677
 31
0.0
  0
LINE
  5
54C
  8
DATA
  6
CONTINUOUS
 62
     7
 10
-42.840978052049103
 20
214.60966662677009
 30
0.0
 11
-43.190978052049147
 21
217.20966662677
 31
0.0
  0
LINE
  5
54D
  8
DATA
  6
CONTINUOUS
 62
     7
 10
-43.790978052049113
 20
217.40966662676999
 30
0.0
 11
-43.790978052049113
 21
217.20966662677
 31
0.0
  0
LINE
  5
54E
  8
DATA
  6
CONTINUOUS
 62
     7
 10
-38.490978052049222
 20
217.40966662676999
 30
0.0
 11
-38.490978052049222
 21
217.20966662677
 31
0.0
  0
LINE
  5
54F
  8
DATA
  6
CONTINUOUS
 62
     7
 10
-43.790978052049113
 20
217.20966662677
 30
0.0
 11
-38.500978052049213
 21
217.20966662677
 31
0.0
  0
LINE
  5
550
  8
DATA
  6
CONTINUOUS
 62
     7
 10
-38.490978052049222
 20
222.91959396697391
 30
0.0
 11
-42.840978052049103
 21
222.91959396697391
 31
0.0
  0
LINE
  5
551
  8
DATA
  6
CONTINUOUS
 62
     7
 10
-42.840978052049103
 20
222.91959396697391
 30
0.0
 11
-43.790978052049113
 21
222.91959396697391
 31
0.0
  0
LINE
  5
552
  8
DATA
  6
CONTINUOUS
 62
     7
 10
-39.292901128972282
 20
221.2195939669738
 30
0.0
 11
-39.090978052049188
 21
222.7195939669738
 31
0.0
  0
LINE
  5
553
  8
DATA
  6
CONTINUOUS
 62
     7
 10
-42.989054975126031
 20
221.2195939669738
 30
0.0
 11
-43.190978052049147
 21
222.7195939669738
 31
0.0
  0
LINE
  5
554
  8
DATA
  6
CONTINUOUS
 62
     7
 10
-43.790978052049113
 20
222.91959396697391
 30
0.0
 11
-43.790978052049113
 21
222.7195939669738
 31
0.0
  0
LINE
  5
555
  8
DATA
  6
CONTINUOUS
 62
     7
 10
-38.490978052049222
 20
222.91959396697391
 30
0.0
 11
-38.490978052049222
 21
222.7195939669738
 31
0.0
  0
LINE
  5
556
  8
DATA
  6
CONTINUOUS
 62
     7
 10
-43.790978052049113
 20
222.7195939669738
 30
0.0
 11
-38.500978052049213
 21
222.7195939669738
 31
0.0
  0
LINE
  5
557
  8
DATA
  6
CONTINUOUS
 62
     7
 10
-39.292901128972282
 20
221.2195939669738
 30
0.0
 11
-42.989054975126031
 21
221.2195939669738
 31
0.0
  0
TEXT
  5
558
  8
DATA
 62
     7
 10
-36.824227297496229
 20
213.00509754626989
 30
0.0
 40
1.923828125
  1
 4-WAY
 50
180.0
 41
0.7
 11
-36.824227297496229
 21
211.08126942126989
 31
0.0
 73
     3
  0
TEXT
  5
559
  8
DATA
 62
     7
 10
-36.684001627295054
 20
220.21464677786449
 30
0.0
 40
1.923828125
  1
 VALID
 50
180.0
 41
0.7
 11
-36.684001627295054
 21
218.29081865286449
 31
0.0
 73
     3
  0
TEXT
  5
55A
  8
DATA
 62
     7
 10
-20.176046367183559
 20
241.58802339982509
 30
0.0
 40
1.7314453125
  1
STEREO 2-WAY
 50
180.0
 41
0.7
 11
-20.176046367183559
 21
239.85657808732509
 31
0.0
 73
     3
  0
LINE
  5
55B
  8
DATA
  6
CONTINUOUS
 62
     7
 10
-137.6294749837991
 20
-76.452407073418513
 30
0.0
 11
-139.55658281993209
 21
-76.452407073418513
 31
0.0
  0
LINE
  5
55C
  8
DATA
  6
CONTINUOUS
 62
     7
 10
-139.55658281993209
 20
-76.452407073418513
 30
0.0
 11
-139.25658281993219
 21
-79.952407073418513
 31
0.0
  0
LINE
  5
55D
  8
DATA
  6
CONTINUOUS
 62
     7
 10
-139.25658281993219
 20
-79.952407073418513
 30
0.0
 11
-137.6294749837991
 21
-91.452407073418684
 31
0.0
  0
LINE
  5
55E
  8
DATA
  6
CONTINUOUS
 62
     7
 10
-126.5703399156607
 20
-79.952407073418513
 30
0.0
 11
-128.17399758481551
 21
-91.452407073418684
 31
0.0
  0
LINE
  5
55F
  8
DATA
  6
CONTINUOUS
 62
     7
 10
-128.17399758481551
 20
-76.452407073418513
 30
0.0
 11
-137.6294749837991
 21
-76.452407073418513
 31
0.0
  0
LINE
  5
560
  8
DATA
  6
CONTINUOUS
 62
     7
 10
-126.24688974868241
 20
-76.452407073418513
 30
0.0
 11
-126.5468897486824
 21
-79.952407073418513
 31
0.0
  0
LINE
  5
561
  8
DATA
  6
CONTINUOUS
 62
     7
 10
-128.17399758481551
 20
-76.452407073418513
 30
0.0
 11
-126.24688974868241
 21
-76.452407073418513
 31
0.0
  0
LINE
  5
562
  8
DATA
  6
CONTINUOUS
 62
     7
 10
-134.80173628430751
 20
-91.452407073418712
 30
0.0
 11
-135.41346136779649
 21
-79.952407073418442
 31
0.0
  0
LINE
  5
563
  8
DATA
  6
CONTINUOUS
 62
     7
 10
-136.5017362843075
 20
-91.452407073418712
 30
0.0
 11
-137.11346136779659
 21
-79.952407073418442
 31
0.0
  0
LINE
  5
564
  8
DATA
  6
CONTINUOUS
 62
     7
 10
-131.0017362843073
 20
-91.452407073418712
 30
0.0
 11
-130.4134613677962
 21
-79.952407073418442
 31
0.0
  0
LINE
  5
565
  8
DATA
  6
CONTINUOUS
 62
     7
 10
-129.30173628430711
 20
-91.452407073418712
 30
0.0
 11
-128.71346136779621
 21
-79.952407073418442
 31
0.0
  0
LINE
  5
566
  8
DATA
  6
CONTINUOUS
 62
     7
 10
-132.2517362843073
 20
-79.952407073418513
 30
0.0
 11
-126.5468897486824
 21
-79.952407073418513
 31
0.0
  0
LINE
  5
567
  8
DATA
  6
CONTINUOUS
 62
     7
 10
-133.5517362843072
 20
-79.952407073418513
 30
0.0
 11
-139.25658281993219
 21
-79.952407073418513
 31
0.0
  0
LINE
  5
568
  8
DATA
  6
CONTINUOUS
 62
     7
 10
-132.2517362843073
 20
-91.452407073418684
 30
0.0
 11
-128.17399758481551
 21
-91.452407073418684
 31
0.0
  0
LINE
  5
569
  8
DATA
  6
CONTINUOUS
 62
     7
 10
-133.5517362843072
 20
-91.452407073418684
 30
0.0
 11
-137.62947498379901
 21
-91.452407073418684
 31
0.0
  0
LINE
  5
56A
  8
DATA
  6
CONTINUOUS
 62
     7
 10
-133.5517362843072
 20
-79.952407073418513
 30
0.0
 11
-139.25658281993219
 21
-79.952407073418513
 31
0.0
  0
LINE
  5
56B
  8
DATA
  6
CONTINUOUS
 62
     7
 10
-132.2517362843073
 20
-79.952407073418513
 30
0.0
 11
-126.5468897486824
 21
-79.952407073418513
 31
0.0
  0
LINE
  5
56C
  8
DATA
  6
CONTINUOUS
 62
     7
 10
-133.5517362843072
 20
-91.452407073418684
 30
0.0
 11
-137.6294749837991
 21
-91.452407073418684
 31
0.0
  0
LINE
  5
56D
  8
DATA
  6
CONTINUOUS
 62
     7
 10
-132.2517362843073
 20
-91.452407073418684
 30
0.0
 11
-128.17399758481551
 21
-91.452407073418684
 31
0.0
  0
ARC
  5
56E
  8
DATA
  6
CONTINUOUS
 62
     7
 10
-132.9017362843073
 20
-91.027507588309589
 30
0.0
 40
0.924899485108996
 50
225.34960338822449
 51
314.65039661177542
  0
LINE
  5
56F
  8
DATA
  6
CONTINUOUS
 62
     7
 10
-133.5517362843072
 20
-91.685488634810866
 30
0.0
 11
-133.5517362843072
 21
-76.452407073418513
 31
0.0
  0
LINE
  5
570
  8
DATA
  6
CONTINUOUS
 62
     7
 10
-132.2517362843073
 20
-91.685488634810866
 30
0.0
 11
-132.2517362843073
 21
-76.452407073418513
 31
0.0
  0
LINE
  5
571
  8
DATA
  6
CONTINUOUS
 62
     7
 10
-137.28095320947469
 20
-75.94521739755011
 30
0.0
 11
-137.28095320947469
 21
-76.45587736174997
 31
0.0
  0
LINE
  5
572
  8
DATA
  6
CONTINUOUS
 62
     7
 10
-128.48095320947431
 20
-74.998085900527272
 30
0.0
 11
-128.48095320947431
 21
-76.452407073418513
 31
0.0
  0
LINE
  5
573
  8
DATA
  6
CONTINUOUS
 62
     7
 10
-137.28095320947469
 20
-75.94521739755011
 30
0.0
 11
-137.28095320947469
 21
-74.998085900527272
 31
0.0
  0
LINE
  5
574
  8
DATA
  6
CONTINUOUS
 62
     7
 10
-109.6294749837991
 20
-76.452407073418513
 30
0.0
 11
-111.5565828199321
 21
-76.452407073418513
 31
0.0
  0
LINE
  5
575
  8
DATA
  6
CONTINUOUS
 62
     7
 10
-111.5565828199321
 20
-76.452407073418513
 30
0.0
 11
-111.25658281993221
 21
-79.952407073418513
 31
0.0
  0
LINE
  5
576
  8
DATA
  6
CONTINUOUS
 62
     7
 10
-111.25658281993221
 20
-79.952407073418513
 30
0.0
 11
-109.6294749837991
 21
-91.452407073418684
 31
0.0
  0
LINE
  5
577
  8
DATA
  6
CONTINUOUS
 62
     7
 10
-98.570339915660725
 20
-79.952407073418513
 30
0.0
 11
-100.1739975848155
 21
-91.452407073418684
 31
0.0
  0
LINE
  5
578
  8
DATA
  6
CONTINUOUS
 62
     7
 10
-100.1739975848155
 20
-76.452407073418513
 30
0.0
 11
-109.6294749837991
 21
-76.452407073418513
 31
0.0
  0
LINE
  5
579
  8
DATA
  6
CONTINUOUS
 62
     7
 10
-98.246889748682406
 20
-76.452407073418513
 30
0.0
 11
-98.54688974868246
 21
-79.952407073418513
 31
0.0
  0
LINE
  5
57A
  8
DATA
  6
CONTINUOUS
 62
     7
 10
-100.1739975848155
 20
-76.452407073418513
 30
0.0
 11
-98.246889748682406
 21
-76.452407073418513
 31
0.0
  0
LINE
  5
57B
  8
DATA
  6
CONTINUOUS
 62
     7
 10
-106.80173628430749
 20
-91.452407073418712
 30
0.0
 11
-107.4134613677965
 21
-79.952407073418442
 31
0.0
  0
LINE
  5
57C
  8
DATA
  6
CONTINUOUS
 62
     7
 10
-108.5017362843075
 20
-91.452407073418712
 30
0.0
 11
-109.1134613677966
 21
-79.952407073418442
 31
0.0
  0
LINE
  5
57D
  8
DATA
  6
CONTINUOUS
 62
     7
 10
-103.0017362843073
 20
-91.452407073418712
 30
0.0
 11
-102.4134613677962
 21
-79.952407073418442
 31
0.0
  0
LINE
  5
57E
  8
DATA
  6
CONTINUOUS
 62
     7
 10
-101.3017362843071
 20
-91.452407073418712
 30
0.0
 11
-100.7134613677961
 21
-79.952407073418442
 31
0.0
  0
LINE
  5
57F
  8
DATA
  6
CONTINUOUS
 62
     7
 10
-104.2517362843073
 20
-79.952407073418513
 30
0.0
 11
-98.54688974868246
 21
-79.952407073418513
 31
0.0
  0
LINE
  5
580
  8
DATA
  6
CONTINUOUS
 62
     7
 10
-105.5517362843072
 20
-79.952407073418513
 30
0.0
 11
-111.25658281993221
 21
-79.952407073418513
 31
0.0
  0
LINE
  5
581
  8
DATA
  6
CONTINUOUS
 62
     7
 10
-104.2517362843073
 20
-91.452407073418684
 30
0.0
 11
-100.1739975848155
 21
-91.452407073418684
 31
0.0
  0
LINE
  5
582
  8
DATA
  6
CONTINUOUS
 62
     7
 10
-105.5517362843072
 20
-91.452407073418684
 30
0.0
 11
-109.629474983799
 21
-91.452407073418684
 31
0.0
  0
LINE
  5
583
  8
DATA
  6
CONTINUOUS
 62
     7
 10
-105.5517362843072
 20
-79.952407073418513
 30
0.0
 11
-111.25658281993221
 21
-79.952407073418513
 31
0.0
  0
LINE
  5
584
  8
DATA
  6
CONTINUOUS
 62
     7
 10
-104.2517362843073
 20
-79.952407073418513
 30
0.0
 11
-98.54688974868246
 21
-79.952407073418513
 31
0.0
  0
LINE
  5
585
  8
DATA
  6
CONTINUOUS
 62
     7
 10
-105.5517362843072
 20
-91.452407073418684
 30
0.0
 11
-109.6294749837991
 21
-91.452407073418684
 31
0.0
  0
LINE
  5
586
  8
DATA
  6
CONTINUOUS
 62
     7
 10
-104.2517362843073
 20
-91.452407073418684
 30
0.0
 11
-100.1739975848155
 21
-91.452407073418684
 31
0.0
  0
ARC
  5
587
  8
DATA
  6
CONTINUOUS
 62
     7
 10
-104.9017362843073
 20
-91.027507588309589
 30
0.0
 40
0.924899485108996
 50
225.34960338822449
 51
314.65039661177542
  0
LINE
  5
588
  8
DATA
  6
CONTINUOUS
 62
     7
 10
-105.5517362843072
 20
-91.685488634810866
 30
0.0
 11
-105.5517362843072
 21
-76.452407073418513
 31
0.0
  0
LINE
  5
589
  8
DATA
  6
CONTINUOUS
 62
     7
 10
-104.2517362843073
 20
-91.685488634810866
 30
0.0
 11
-104.2517362843073
 21
-76.452407073418513
 31
0.0
  0
LINE
  5
58A
  8
DATA
  6
CONTINUOUS
 62
     7
 10
-109.2809532094747
 20
-75.94521739755011
 30
0.0
 11
-109.2809532094747
 21
-76.45587736174997
 31
0.0
  0
LINE
  5
58B
  8
DATA
  6
CONTINUOUS
 62
     7
 10
-100.48095320947419
 20
-74.998085900527272
 30
0.0
 11
-100.48095320947419
 21
-76.452407073418513
 31
0.0
  0
LINE
  5
58C
  8
DATA
  6
CONTINUOUS
 62
     7
 10
-109.2809532094747
 20
-75.94521739755011
 30
0.0
 11
-109.2809532094747
 21
-74.998085900527272
 31
0.0
  0
LINE
  5
58D
  8
DATA
  6
CONTINUOUS
 62
     7
 10
-86.649474983799095
 20
-76.452407073418513
 30
0.0
 11
-88.57658281993217
 21
-76.452407073418513
 31
0.0
  0
LINE
  5
58E
  8
DATA
  6
CONTINUOUS
 62
     7
 10
-88.57658281993217
 20
-76.452407073418513
 30
0.0
 11
-88.276582819932145
 21
-79.952407073418513
 31
0.0
  0
LINE
  5
58F
  8
DATA
  6
CONTINUOUS
 62
     7
 10
-88.276582819932145
 20
-79.952407073418513
 30
0.0
 11
-86.649474983799095
 21
-91.452407073418684
 31
0.0
  0
LINE
  5
590
  8
DATA
  6
CONTINUOUS
 62
     7
 10
-75.590339915660735
 20
-79.952407073418513
 30
0.0
 11
-77.193997584815506
 21
-91.452407073418684
 31
0.0
  0
LINE
  5
591
  8
DATA
  6
CONTINUOUS
 62
     7
 10
-77.193997584815506
 20
-76.452407073418513
 30
0.0
 11
-86.649474983799095
 21
-76.452407073418513
 31
0.0
  0
LINE
  5
592
  8
DATA
  6
CONTINUOUS
 62
     7
 10
-75.266889748682374
 20
-76.452407073418513
 30
0.0
 11
-75.566889748682442
 21
-79.952407073418513
 31
0.0
  0
LINE
  5
593
  8
DATA
  6
CONTINUOUS
 62
     7
 10
-77.193997584815506
 20
-76.452407073418513
 30
0.0
 11
-75.266889748682374
 21
-76.452407073418513
 31
0.0
  0
LINE
  5
594
  8
DATA
  6
CONTINUOUS
 62
     7
 10
-83.821736284307448
 20
-91.452407073418712
 30
0.0
 11
-84.433461367796539
 21
-79.952407073418442
 31
0.0
  0
LINE
  5
595
  8
DATA
  6
CONTINUOUS
 62
     7
 10
-85.521736284307565
 20
-91.452407073418712
 30
0.0
 11
-86.133461367796656
 21
-79.952407073418442
 31
0.0
  0
LINE
  5
596
  8
DATA
  6
CONTINUOUS
 62
     7
 10
-80.021736284307266
 20
-91.452407073418712
 30
0.0
 11
-79.433461367796269
 21
-79.952407073418442
 31
0.0
  0
LINE
  5
597
  8
DATA
  6
CONTINUOUS
 62
     7
 10
-78.321736284307178
 20
-91.452407073418712
 30
0.0
 11
-77.733461367796139
 21
-79.952407073418442
 31
0.0
  0
LINE
  5
598
  8
DATA
  6
CONTINUOUS
 62
     7
 10
-81.271736284307266
 20
-79.952407073418513
 30
0.0
 11
-75.566889748682442
 21
-79.952407073418513
 31
0.0
  0
LINE
  5
599
  8
DATA
  6
CONTINUOUS
 62
     7
 10
-82.571736284307249
 20
-79.952407073418513
 30
0.0
 11
-88.276582819932145
 21
-79.952407073418513
 31
0.0
  0
LINE
  5
59A
  8
DATA
  6
CONTINUOUS
 62
     7
 10
-81.271736284307266
 20
-91.452407073418684
 30
0.0
 11
-77.193997584815548
 21
-91.452407073418684
 31
0.0
  0
LINE
  5
59B
  8
DATA
  6
CONTINUOUS
 62
     7
 10
-82.571736284307249
 20
-91.452407073418684
 30
0.0
 11
-86.649474983799038
 21
-91.452407073418684
 31
0.0
  0
LINE
  5
59C
  8
DATA
  6
CONTINUOUS
 62
     7
 10
-82.571736284307249
 20
-79.952407073418513
 30
0.0
 11
-88.276582819932145
 21
-79.952407073418513
 31
0.0
  0
LINE
  5
59D
  8
DATA
  6
CONTINUOUS
 62
     7
 10
-81.271736284307266
 20
-79.952407073418513
 30
0.0
 11
-75.566889748682442
 21
-79.952407073418513
 31
0.0
  0
LINE
  5
59E
  8
DATA
  6
CONTINUOUS
 62
     7
 10
-82.571736284307249
 20
-91.452407073418684
 30
0.0
 11
-86.649474983799095
 21
-91.452407073418684
 31
0.0
  0
LINE
  5
59F
  8
DATA
  6
CONTINUOUS
 62
     7
 10
-81.271736284307266
 20
-91.452407073418684
 30
0.0
 11
-77.193997584815506
 21
-91.452407073418684
 31
0.0
  0
ARC
  5
5A0
  8
DATA
  6
CONTINUOUS
 62
     7
 10
-81.9217362843073
 20
-91.027507588309589
 30
0.0
 40
0.924899485108996
 50
225.34960338822449
 51
314.65039661177798
  0
LINE
  5
5A1
  8
DATA
  6
CONTINUOUS
 62
     7
 10
-82.571736284307249
 20
-91.685488634810866
 30
0.0
 11
-82.571736284307249
 21
-76.452407073418513
 31
0.0
  0
LINE
  5
5A2
  8
DATA
  6
CONTINUOUS
 62
     7
 10
-81.271736284307266
 20
-91.685488634810866
 30
0.0
 11
-81.271736284307266
 21
-76.452407073418513
 31
0.0
  0
LINE
  5
5A3
  8
DATA
  6
CONTINUOUS
 62
     7
 10
-86.300953209474713
 20
-75.94521739755011
 30
0.0
 11
-86.300953209474713
 21
-76.45587736174997
 31
0.0
  0
LINE
  5
5A4
  8
DATA
  6
CONTINUOUS
 62
     7
 10
-77.500953209474346
 20
-74.998085900527272
 30
0.0
 11
-77.500953209474346
 21
-76.452407073418513
 31
0.0
  0
LINE
  5
5A5
  8
DATA
  6
CONTINUOUS
 62
     7
 10
-86.300953209474713
 20
-75.94521739755011
 30
0.0
 11
-86.300953209474713
 21
-74.998085900527272
 31
0.0
  0
LINE
  5
5A6
  8
DATA
  6
CONTINUOUS
 62
     7
 10
-53.639474983799111
 20
-76.452407073418513
 30
0.0
 11
-55.566582819932179
 21
-76.452407073418513
 31
0.0
  0
LINE
  5
5A7
  8
DATA
  6
CONTINUOUS
 62
     7
 10
-55.566582819932179
 20
-76.452407073418513
 30
0.0
 11
-55.266582819932168
 21
-79.952407073418513
 31
0.0
  0
LINE
  5
5A8
  8
DATA
  6
CONTINUOUS
 62
     7
 10
-55.266582819932168
 20
-79.952407073418513
 30
0.0
 11
-53.639474983799111
 21
-91.452407073418684
 31
0.0
  0
LINE
  5
5A9
  8
DATA
  6
CONTINUOUS
 62
     7
 10
-42.580339915660751
 20
-79.952407073418513
 30
0.0
 11
-44.183997584815522
 21
-91.452407073418684
 31
0.0
  0
LINE
  5
5AA
  8
DATA
  6
CONTINUOUS
 62
     7
 10
-44.183997584815522
 20
-76.452407073418513
 30
0.0
 11
-53.639474983799111
 21
-76.452407073418513
 31
0.0
  0
LINE
  5
5AB
  8
DATA
  6
CONTINUOUS
 62
     7
 10
-42.256889748682383
 20
-76.452407073418513
 30
0.0
 11
-42.556889748682437
 21
-79.952407073418513
 31
0.0
  0
LINE
  5
5AC
  8
DATA
  6
CONTINUOUS
 62
     7
 10
-44.183997584815522
 20
-76.452407073418513
 30
0.0
 11
-42.256889748682383
 21
-76.452407073418513
 31
0.0
  0
LINE
  5
5AD
  8
DATA
  6
CONTINUOUS
 62
     7
 10
-50.811736284307457
 20
-91.452407073418712
 30
0.0
 11
-51.423461367796548
 21
-79.952407073418442
 31
0.0
  0
LINE
  5
5AE
  8
DATA
  6
CONTINUOUS
 62
     7
 10
-52.51173628430756
 20
-91.452407073418712
 30
0.0
 11
-53.123461367796651
 21
-79.952407073418442
 31
0.0
  0
LINE
  5
5AF
  8
DATA
  6
CONTINUOUS
 62
     7
 10
-47.011736284307283
 20
-91.452407073418712
 30
0.0
 11
-46.423461367796243
 21
-79.952407073418442
 31
0.0
  0
LINE
  5
5B0
  8
DATA
  6
CONTINUOUS
 62
     7
 10
-45.311736284307173
 20
-91.452407073418712
 30
0.0
 11
-44.723461367796162
 21
-79.952407073418442
 31
0.0
  0
LINE
  5
5B1
  8
DATA
  6
CONTINUOUS
 62
     7
 10
-48.261736284307283
 20
-79.952407073418513
 30
0.0
 11
-42.556889748682437
 21
-79.952407073418513
 31
0.0
  0
LINE
  5
5B2
  8
DATA
  6
CONTINUOUS
 62
     7
 10
-49.561736284307287
 20
-79.952407073418513
 30
0.0
 11
-55.266582819932168
 21
-79.952407073418513
 31
0.0
  0
LINE
  5
5B3
  8
DATA
  6
CONTINUOUS
 62
     7
 10
-48.261736284307283
 20
-91.452407073418684
 30
0.0
 11
-44.183997584815572
 21
-91.452407073418684
 31
0.0
  0
LINE
  5
5B4
  8
DATA
  6
CONTINUOUS
 62
     7
 10
-49.561736284307287
 20
-91.452407073418684
 30
0.0
 11
-53.63947498379904
 21
-91.452407073418684
 31
0.0
  0
LINE
  5
5B5
  8
DATA
  6
CONTINUOUS
 62
     7
 10
-49.561736284307287
 20
-79.952407073418513
 30
0.0
 11
-55.266582819932168
 21
-79.952407073418513
 31
0.0
  0
LINE
  5
5B6
  8
DATA
  6
CONTINUOUS
 62
     7
 10
-48.261736284307283
 20
-79.952407073418513
 30
0.0
 11
-42.556889748682437
 21
-79.952407073418513
 31
0.0
  0
LINE
  5
5B7
  8
DATA
  6
CONTINUOUS
 62
     7
 10
-49.561736284307287
 20
-91.452407073418684
 30
0.0
 11
-53.639474983799111
 21
-91.452407073418684
 31
0.0
  0
LINE
  5
5B8
  8
DATA
  6
CONTINUOUS
 62
     7
 10
-48.261736284307283
 20
-91.452407073418684
 30
0.0
 11
-44.183997584815522
 21
-91.452407073418684
 31
0.0
  0
ARC
  5
5B9
  8
DATA
  6
CONTINUOUS
 62
     7
 10
-48.91173628430731
 20
-91.027507588309589
 30
0.0
 40
0.924899485108996
 50
225.34960338822449
 51
314.65039661177798
  0
LINE
  5
5BA
  8
DATA
  6
CONTINUOUS
 62
     7
 10
-49.561736284307287
 20
-91.685488634810866
 30
0.0
 11
-49.561736284307287
 21
-76.452407073418513
 31
0.0
  0
LINE
  5
5BB
  8
DATA
  6
CONTINUOUS
 62
     7
 10
-48.261736284307283
 20
-91.685488634810866
 30
0.0
 11
-48.261736284307283
 21
-76.452407073418513
 31
0.0
  0
LINE
  5
5BC
  8
DATA
  6
CONTINUOUS
 62
     7
 10
-53.290953209474758
 20
-75.94521739755011
 30
0.0
 11
-53.290953209474758
 21
-76.45587736174997
 31
0.0
  0
LINE
  5
5BD
  8
DATA
  6
CONTINUOUS
 62
     7
 10
-44.49095320947432
 20
-74.998085900527272
 30
0.0
 11
-44.49095320947432
 21
-76.452407073418513
 31
0.0
  0
LINE
  5
5BE
  8
DATA
  6
CONTINUOUS
 62
     7
 10
-53.290953209474758
 20
-75.94521739755011
 30
0.0
 11
-53.290953209474758
 21
-74.998085900527272
 31
0.0
  0
LINE
  5
5BF
  8
DATA
  6
CONTINUOUS
 62
     7
 10
-20.639474983799101
 20
-76.452407073418513
 30
0.0
 11
-22.566582819932169
 21
-76.452407073418513
 31
0.0
  0
LINE
  5
5C0
  8
DATA
  6
CONTINUOUS
 62
     7
 10
-22.566582819932169
 20
-76.452407073418513
 30
0.0
 11
-22.266582819932172
 21
-79.952407073418513
 31
0.0
  0
LINE
  5
5C1
  8
DATA
  6
CONTINUOUS
 62
     7
 10
-22.266582819932172
 20
-79.952407073418513
 30
0.0
 11
-20.639474983799101
 21
-91.452407073418684
 31
0.0
  0
LINE
  5
5C2
  8
DATA
  6
CONTINUOUS
 62
     7
 10
-9.5803399156607583
 20
-79.952407073418513
 30
0.0
 11
-11.18399758481551
 21
-91.452407073418684
 31
0.0
  0
LINE
  5
5C3
  8
DATA
  6
CONTINUOUS
 62
     7
 10
-11.18399758481551
 20
-76.452407073418513
 30
0.0
 11
-20.639474983799101
 21
-76.452407073418513
 31
0.0
  0
LINE
  5
5C4
  8
DATA
  6
CONTINUOUS
 62
     7
 10
-9.2568897486823847
 20
-76.452407073418513
 30
0.0
 11
-9.5568897486824511
 21
-79.952407073418513
 31
0.0
  0
LINE
  5
5C5
  8
DATA
  6
CONTINUOUS
 62
     7
 10
-11.18399758481551
 20
-76.452407073418513
 30
0.0
 11
-9.2568897486823847
 21
-76.452407073418513
 31
0.0
  0
LINE
  5
5C6
  8
DATA
  6
CONTINUOUS
 62
     7
 10
-17.81173628430745
 20
-91.452407073418712
 30
0.0
 11
-18.423461367796548
 21
-79.952407073418442
 31
0.0
  0
LINE
  5
5C7
  8
DATA
  6
CONTINUOUS
 62
     7
 10
-19.51173628430756
 20
-91.452407073418712
 30
0.0
 11
-20.123461367796651
 21
-79.952407073418442
 31
0.0
  0
LINE
  5
5C8
  8
DATA
  6
CONTINUOUS
 62
     7
 10
-14.01173628430727
 20
-91.452407073418712
 30
0.0
 11
-13.423461367796261
 21
-79.952407073418442
 31
0.0
  0
LINE
  5
5C9
  8
DATA
  6
CONTINUOUS
 62
     7
 10
-12.31173628430717
 20
-91.452407073418712
 30
0.0
 11
-11.72346136779616
 21
-79.952407073418442
 31
0.0
  0
LINE
  5
5CA
  8
DATA
  6
CONTINUOUS
 62
     7
 10
-15.26173628430727
 20
-79.952407073418513
 30
0.0
 11
-9.5568897486824511
 21
-79.952407073418513
 31
0.0
  0
LINE
  5
5CB
  8
DATA
  6
CONTINUOUS
 62
     7
 10
-16.56173628430728
 20
-79.952407073418513
 30
0.0
 11
-22.266582819932172
 21
-79.952407073418513
 31
0.0
  0
LINE
  5
5CC
  8
DATA
  6
CONTINUOUS
 62
     7
 10
-15.26173628430727
 20
-91.452407073418684
 30
0.0
 11
-11.18399758481557
 21
-91.452407073418684
 31
0.0
  0
LINE
  5
5CD
  8
DATA
  6
CONTINUOUS
 62
     7
 10
-16.56173628430728
 20
-91.452407073418684
 30
0.0
 11
-20.639474983799051
 21
-91.452407073418684
 31
0.0
  0
LINE
  5
5CE
  8
DATA
  6
CONTINUOUS
 62
     7
 10
-16.56173628430728
 20
-79.952407073418513
 30
0.0
 11
-22.266582819932172
 21
-79.952407073418513
 31
0.0
  0
LINE
  5
5CF
  8
DATA
  6
CONTINUOUS
 62
     7
 10
-15.26173628430727
 20
-79.952407073418513
 30
0.0
 11
-9.5568897486824511
 21
-79.952407073418513
 31
0.0
  0
LINE
  5
5D0
  8
DATA
  6
CONTINUOUS
 62
     7
 10
-16.56173628430728
 20
-91.452407073418684
 30
0.0
 11
-20.639474983799101
 21
-91.452407073418684
 31
0.0
  0
LINE
  5
5D1
  8
DATA
  6
CONTINUOUS
 62
     7
 10
-15.26173628430727
 20
-91.452407073418684
 30
0.0
 11
-11.18399758481551
 21
-91.452407073418684
 31
0.0
  0
ARC
  5
5D2
  8
DATA
  6
CONTINUOUS
 62
     7
 10
-15.91173628430731
 20
-91.027507588309589
 30
0.0
 40
0.924899485108996
 50
225.34960338822449
 51
314.65039661177798
  0
LINE
  5
5D3
  8
DATA
  6
CONTINUOUS
 62
     7
 10
-16.56173628430728
 20
-91.685488634810866
 30
0.0
 11
-16.56173628430728
 21
-76.452407073418513
 31
0.0
  0
LINE
  5
5D4
  8
DATA
  6
CONTINUOUS
 62
     7
 10
-15.26173628430727
 20
-91.685488634810866
 30
0.0
 11
-15.26173628430727
 21
-76.452407073418513
 31
0.0
  0
LINE
  5
5D5
  8
DATA
  6
CONTINUOUS
 62
     7
 10
-20.29095320947475
 20
-75.94521739755011
 30
0.0
 11
-20.29095320947475
 21
-76.45587736174997
 31
0.0
  0
LINE
  5
5D6
  8
DATA
  6
CONTINUOUS
 62
     7
 10
-11.490953209474339
 20
-74.998085900527272
 30
0.0
 11
-11.490953209474339
 21
-76.452407073418513
 31
0.0
  0
LINE
  5
5D7
  8
DATA
  6
CONTINUOUS
 62
     7
 10
-20.29095320947475
 20
-75.94521739755011
 30
0.0
 11
-20.29095320947475
 21
-74.998085900527272
 31
0.0
  0
LINE
  5
5D8
  8
DATA
  6
CONTINUOUS
 62
     7
 10
15.89055816915956
 20
-78.000000000186262
 30
0.0
 11
18.490558169159598
 21
-78.000000000186262
 31
0.0
  0
LINE
  5
5D9
  8
DATA
  6
CONTINUOUS
 62
     7
 10
14.39055816915954
 20
-76.500000000186262
 30
0.0
 11
14.39055816915954
 21
-75.000000000186262
 31
0.0
  0
LINE
  5
5DA
  8
DATA
  6
CONTINUOUS
 62
     7
 10
19.990558169159598
 20
-76.500000000186262
 30
0.0
 11
19.990558169159598
 21
-75.000000000186262
 31
0.0
  0
ARC
  5
5DB
  8
DATA
  6
CONTINUOUS
 62
     7
 10
15.89055816915956
 20
-76.500000000186262
 30
0.0
 40
1.500000000000014
 50
180.0
 51
270.0
  0
ARC
  5
5DC
  8
DATA
  6
CONTINUOUS
 62
     7
 10
18.490558169159598
 20
-76.500000000186262
 30
0.0
 40
1.5
 50
270.0
 51
0.0
  0
LINE
  5
5DD
  8
DATA
  6
CONTINUOUS
 62
     7
 10
32.930525016200967
 20
-76.452407073418513
 30
0.0
 11
31.003417180067899
 21
-76.452407073418513
 31
0.0
  0
LINE
  5
5DE
  8
DATA
  6
CONTINUOUS
 62
     7
 10
31.003417180067899
 20
-76.452407073418513
 30
0.0
 11
31.30341718006791
 21
-79.952407073418513
 31
0.0
  0
LINE
  5
5DF
  8
DATA
  6
CONTINUOUS
 62
     7
 10
31.30341718006791
 20
-79.952407073418513
 30
0.0
 11
32.930525016200967
 21
-91.452407073418684
 31
0.0
  0
LINE
  5
5E0
  8
DATA
  6
CONTINUOUS
 62
     7
 10
43.989660084339313
 20
-79.952407073418513
 30
0.0
 11
42.386002415184556
 21
-91.452407073418684
 31
0.0
  0
LINE
  5
5E1
  8
DATA
  6
CONTINUOUS
 62
     7
 10
42.386002415184556
 20
-76.452407073418513
 30
0.0
 11
32.930525016200967
 21
-76.452407073418513
 31
0.0
  0
LINE
  5
5E2
  8
DATA
  6
CONTINUOUS
 62
     7
 10
44.313110251317681
 20
-76.452407073418513
 30
0.0
 11
44.013110251317599
 21
-79.952407073418513
 31
0.0
  0
LINE
  5
5E3
  8
DATA
  6
CONTINUOUS
 62
     7
 10
42.386002415184556
 20
-76.452407073418513
 30
0.0
 11
44.313110251317681
 21
-76.452407073418513
 31
0.0
  0
LINE
  5
5E4
  8
DATA
  6
CONTINUOUS
 62
     7
 10
35.758263715692621
 20
-91.452407073418712
 30
0.0
 11
35.14653863220353
 21
-79.952407073418442
 31
0.0
  0
LINE
  5
5E5
  8
DATA
  6
CONTINUOUS
 62
     7
 10
34.058263715692519
 20
-91.452407073418712
 30
0.0
 11
33.446538632203428
 21
-79.952407073418442
 31
0.0
  0
LINE
  5
5E6
  8
DATA
  6
CONTINUOUS
 62
     7
 10
39.558263715692803
 20
-91.452407073418712
 30
0.0
 11
40.146538632203807
 21
-79.952407073418442
 31
0.0
  0
LINE
  5
5E7
  8
DATA
  6
CONTINUOUS
 62
     7
 10
41.258263715692891
 20
-91.452407073418712
 30
0.0
 11
41.846538632203909
 21
-79.952407073418442
 31
0.0
  0
LINE
  5
5E8
  8
DATA
  6
CONTINUOUS
 62
     7
 10
38.308263715692803
 20
-79.952407073418513
 30
0.0
 11
44.013110251317599
 21
-79.952407073418513
 31
0.0
  0
LINE
  5
5E9
  8
DATA
  6
CONTINUOUS
 62
     7
 10
37.008263715692792
 20
-79.952407073418513
 30
0.0
 11
31.30341718006791
 21
-79.952407073418513
 31
0.0
  0
LINE
  5
5EA
  8
DATA
  6
CONTINUOUS
 62
     7
 10
38.308263715692803
 20
-91.452407073418684
 30
0.0
 11
42.3860024151845
 21
-91.452407073418684
 31
0.0
  0
LINE
  5
5EB
  8
DATA
  6
CONTINUOUS
 62
     7
 10
37.008263715692792
 20
-91.452407073418684
 30
0.0
 11
32.930525016201031
 21
-91.452407073418684
 31
0.0
  0
LINE
  5
5EC
  8
DATA
  6
CONTINUOUS
 62
     7
 10
37.008263715692792
 20
-79.952407073418513
 30
0.0
 11
31.30341718006791
 21
-79.952407073418513
 31
0.0
  0
LINE
  5
5ED
  8
DATA
  6
CONTINUOUS
 62
     7
 10
38.308263715692803
 20
-79.952407073418513
 30
0.0
 11
44.013110251317599
 21
-79.952407073418513
 31
0.0
  0
LINE
  5
5EE
  8
DATA
  6
CONTINUOUS
 62
     7
 10
37.008263715692792
 20
-91.452407073418684
 30
0.0
 11
32.930525016200967
 21
-91.452407073418684
 31
0.0
  0
LINE
  5
5EF
  8
DATA
  6
CONTINUOUS
 62
     7
 10
38.308263715692803
 20
-91.452407073418684
 30
0.0
 11
42.386002415184556
 21
-91.452407073418684
 31
0.0
  0
ARC
  5
5F0
  8
DATA
  6
CONTINUOUS
 62
     7
 10
37.658263715692762
 20
-91.027507588309589
 30
0.0
 40
0.924899485108996
 50
225.34960338822449
 51
314.65039661177798
  0
LINE
  5
5F1
  8
DATA
  6
CONTINUOUS
 62
     7
 10
37.008263715692792
 20
-91.685488634810866
 30
0.0
 11
37.008263715692792
 21
-76.452407073418513
 31
0.0
  0
LINE
  5
5F2
  8
DATA
  6
CONTINUOUS
 62
     7
 10
38.308263715692803
 20
-91.685488634810866
 30
0.0
 11
38.308263715692803
 21
-76.452407073418513
 31
0.0
  0
LINE
  5
5F3
  8
DATA
  6
CONTINUOUS
 62
     7
 10
33.279046790525328
 20
-75.94521739755011
 30
0.0
 11
33.279046790525328
 21
-76.45587736174997
 31
0.0
  0
LINE
  5
5F4
  8
DATA
  6
CONTINUOUS
 62
     7
 10
42.07904679052573
 20
-74.998085900527272
 30
0.0
 11
42.07904679052573
 21
-76.452407073418513
 31
0.0
  0
LINE
  5
5F5
  8
DATA
  6
CONTINUOUS
 62
     7
 10
33.279046790525328
 20
-75.94521739755011
 30
0.0
 11
33.279046790525328
 21
-74.998085900527272
 31
0.0
  0
LINE
  5
5F6
  8
DATA
  6
CONTINUOUS
 62
     7
 10
65.950525016200899
 20
-76.452407073418513
 30
0.0
 11
64.023417180067867
 21
-76.452407073418513
 31
0.0
  0
LINE
  5
5F7
  8
DATA
  6
CONTINUOUS
 62
     7
 10
64.023417180067867
 20
-76.452407073418513
 30
0.0
 11
64.323417180067878
 21
-79.952407073418513
 31
0.0
  0
LINE
  5
5F8
  8
DATA
  6
CONTINUOUS
 62
     7
 10
64.323417180067878
 20
-79.952407073418513
 30
0.0
 11
65.950525016200899
 21
-91.452407073418684
 31
0.0
  0
LINE
  5
5F9
  8
DATA
  6
CONTINUOUS
 62
     7
 10
77.009660084339288
 20
-79.952407073418513
 30
0.0
 11
75.406002415184531
 21
-91.452407073418684
 31
0.0
  0
LINE
  5
5FA
  8
DATA
  6
CONTINUOUS
 62
     7
 10
75.406002415184531
 20
-76.452407073418513
 30
0.0
 11
65.950525016200899
 21
-76.452407073418513
 31
0.0
  0
LINE
  5
5FB
  8
DATA
  6
CONTINUOUS
 62
     7
 10
77.333110251317649
 20
-76.452407073418513
 30
0.0
 11
77.033110251317581
 21
-79.952407073418513
 31
0.0
  0
LINE
  5
5FC
  8
DATA
  6
CONTINUOUS
 62
     7
 10
75.406002415184531
 20
-76.452407073418513
 30
0.0
 11
77.333110251317649
 21
-76.452407073418513
 31
0.0
  0
LINE
  5
5FD
  8
DATA
  6
CONTINUOUS
 62
     7
 10
68.778263715692574
 20
-91.452407073418712
 30
0.0
 11
68.166538632203469
 21
-79.952407073418442
 31
0.0
  0
LINE
  5
5FE
  8
DATA
  6
CONTINUOUS
 62
     7
 10
67.078263715692486
 20
-91.452407073418712
 30
0.0
 11
66.466538632203395
 21
-79.952407073418442
 31
0.0
  0
LINE
  5
5FF
  8
DATA
  6
CONTINUOUS
 62
     7
 10
72.578263715692771
 20
-91.452407073418712
 30
0.0
 11
73.166538632203782
 21
-79.952407073418442
 31
0.0
  0
LINE
  5
600
  8
DATA
  6
CONTINUOUS
 62
     7
 10
74.278263715692859
 20
-91.452407073418712
 30
0.0
 11
74.86653863220387
 21
-79.952407073418442
 31
0.0
  0
LINE
  5
601
  8
DATA
  6
CONTINUOUS
 62
     7
 10
71.328263715692771
 20
-79.952407073418513
 30
0.0
 11
77.033110251317581
 21
-79.952407073418513
 31
0.0
  0
LINE
  5
602
  8
DATA
  6
CONTINUOUS
 62
     7
 10
70.028263715692759
 20
-79.952407073418513
 30
0.0
 11
64.323417180067878
 21
-79.952407073418513
 31
0.0
  0
LINE
  5
603
  8
DATA
  6
CONTINUOUS
 62
     7
 10
71.328263715692771
 20
-91.452407073418684
 30
0.0
 11
75.406002415184446
 21
-91.452407073418684
 31
0.0
  0
LINE
  5
604
  8
DATA
  6
CONTINUOUS
 62
     7
 10
70.028263715692759
 20
-91.452407073418684
 30
0.0
 11
65.950525016200999
 21
-91.452407073418684
 31
0.0
  0
LINE
  5
605
  8
DATA
  6
CONTINUOUS
 62
     7
 10
70.028263715692759
 20
-79.952407073418513
 30
0.0
 11
64.323417180067878
 21
-79.952407073418513
 31
0.0
  0
LINE
  5
606
  8
DATA
  6
CONTINUOUS
 62
     7
 10
71.328263715692771
 20
-79.952407073418513
 30
0.0
 11
77.033110251317581
 21
-79.952407073418513
 31
0.0
  0
LINE
  5
607
  8
DATA
  6
CONTINUOUS
 62
     7
 10
70.028263715692759
 20
-91.452407073418684
 30
0.0
 11
65.950525016200899
 21
-91.452407073418684
 31
0.0
  0
LINE
  5
608
  8
DATA
  6
CONTINUOUS
 62
     7
 10
71.328263715692771
 20
-91.452407073418684
 30
0.0
 11
75.406002415184531
 21
-91.452407073418684
 31
0.0
  0
ARC
  5
609
  8
DATA
  6
CONTINUOUS
 62
     7
 10
70.678263715692736
 20
-91.027507588309589
 30
0.0
 40
0.924899485108996
 50
225.34960338822449
 51
314.65039661177798
  0
LINE
  5
60A
  8
DATA
  6
CONTINUOUS
 62
     7
 10
70.028263715692759
 20
-91.685488634810866
 30
0.0
 11
70.028263715692759
 21
-76.452407073418513
 31
0.0
  0
LINE
  5
60B
  8
DATA
  6
CONTINUOUS
 62
     7
 10
71.328263715692771
 20
-91.685488634810866
 30
0.0
 11
71.328263715692771
 21
-76.452407073418513
 31
0.0
  0
LINE
  5
60C
  8
DATA
  6
CONTINUOUS
 62
     7
 10
66.299046790525296
 20
-75.94521739755011
 30
0.0
 11
66.299046790525296
 21
-76.45587736174997
 31
0.0
  0
LINE
  5
60D
  8
DATA
  6
CONTINUOUS
 62
     7
 10
75.099046790525705
 20
-74.998085900527272
 30
0.0
 11
75.099046790525705
 21
-76.452407073418513
 31
0.0
  0
LINE
  5
60E
  8
DATA
  6
CONTINUOUS
 62
     7
 10
66.299046790525296
 20
-75.94521739755011
 30
0.0
 11
66.299046790525296
 21
-74.998085900527272
 31
0.0
  0
LINE
  5
60F
  8
DATA
  6
CONTINUOUS
 62
     7
 10
93.950525016200942
 20
-76.452407073418513
 30
0.0
 11
92.023417180067867
 21
-76.452407073418513
 31
0.0
  0
LINE
  5
610
  8
DATA
  6
CONTINUOUS
 62
     7
 10
92.023417180067867
 20
-76.452407073418513
 30
0.0
 11
92.323417180067878
 21
-79.952407073418513
 31
0.0
  0
LINE
  5
611
  8
DATA
  6
CONTINUOUS
 62
     7
 10
92.323417180067878
 20
-79.952407073418513
 30
0.0
 11
93.950525016200942
 21
-91.452407073418684
 31
0.0
  0
LINE
  5
612
  8
DATA
  6
CONTINUOUS
 62
     7
 10
105.0096600843392
 20
-79.952407073418513
 30
0.0
 11
103.4060024151845
 21
-91.452407073418684
 31
0.0
  0
LINE
  5
613
  8
DATA
  6
CONTINUOUS
 62
     7
 10
103.4060024151845
 20
-76.452407073418513
 30
0.0
 11
93.950525016200942
 21
-76.452407073418513
 31
0.0
  0
LINE
  5
614
  8
DATA
  6
CONTINUOUS
 62
     7
 10
105.33311025131761
 20
-76.452407073418513
 30
0.0
 11
105.03311025131759
 21
-79.952407073418513
 31
0.0
  0
LINE
  5
615
  8
DATA
  6
CONTINUOUS
 62
     7
 10
103.4060024151845
 20
-76.452407073418513
 30
0.0
 11
105.33311025131761
 21
-76.452407073418513
 31
0.0
  0
LINE
  5
616
  8
DATA
  6
CONTINUOUS
 62
     7
 10
96.778263715692603
 20
-91.452407073418712
 30
0.0
 11
96.166538632203483
 21
-79.952407073418442
 31
0.0
  0
LINE
  5
617
  8
DATA
  6
CONTINUOUS
 62
     7
 10
95.078263715692486
 20
-91.452407073418712
 30
0.0
 11
94.466538632203395
 21
-79.952407073418442
 31
0.0
  0
LINE
  5
618
  8
DATA
  6
CONTINUOUS
 62
     7
 10
100.5782637156927
 20
-91.452407073418712
 30
0.0
 11
101.1665386322037
 21
-79.952407073418442
 31
0.0
  0
LINE
  5
619
  8
DATA
  6
CONTINUOUS
 62
     7
 10
102.2782637156929
 20
-91.452407073418712
 30
0.0
 11
102.8665386322039
 21
-79.952407073418442
 31
0.0
  0
LINE
  5
61A
  8
DATA
  6
CONTINUOUS
 62
     7
 10
99.328263715692771
 20
-79.952407073418513
 30
0.0
 11
105.03311025131759
 21
-79.952407073418513
 31
0.0
  0
LINE
  5
61B
  8
DATA
  6
CONTINUOUS
 62
     7
 10
98.028263715692816
 20
-79.952407073418513
 30
0.0
 11
92.323417180067878
 21
-79.952407073418513
 31
0.0
  0
LINE
  5
61C
  8
DATA
  6
CONTINUOUS
 62
     7
 10
99.328263715692771
 20
-91.452407073418684
 30
0.0
 11
103.4060024151844
 21
-91.452407073418684
 31
0.0
  0
LINE
  5
61D
  8
DATA
  6
CONTINUOUS
 62
     7
 10
98.028263715692816
 20
-91.452407073418684
 30
0.0
 11
93.950525016200984
 21
-91.452407073418684
 31
0.0
  0
LINE
  5
61E
  8
DATA
  6
CONTINUOUS
 62
     7
 10
98.028263715692816
 20
-79.952407073418513
 30
0.0
 11
92.323417180067878
 21
-79.952407073418513
 31
0.0
  0
LINE
  5
61F
  8
DATA
  6
CONTINUOUS
 62
     7
 10
99.328263715692771
 20
-79.952407073418513
 30
0.0
 11
105.03311025131759
 21
-79.952407073418513
 31
0.0
  0
LINE
  5
620
  8
DATA
  6
CONTINUOUS
 62
     7
 10
98.028263715692816
 20
-91.452407073418684
 30
0.0
 11
93.950525016200942
 21
-91.452407073418684
 31
0.0
  0
LINE
  5
621
  8
DATA
  6
CONTINUOUS
 62
     7
 10
99.328263715692771
 20
-91.452407073418684
 30
0.0
 11
103.4060024151845
 21
-91.452407073418684
 31
0.0
  0
ARC
  5
622
  8
DATA
  6
CONTINUOUS
 62
     7
 10
98.678263715692722
 20
-91.027507588309589
 30
0.0
 40
0.924899485108996
 50
225.34960338822449
 51
314.65039661177798
  0
LINE
  5
623
  8
DATA
  6
CONTINUOUS
 62
     7
 10
98.028263715692816
 20
-91.685488634810866
 30
0.0
 11
98.028263715692816
 21
-76.452407073418513
 31
0.0
  0
LINE
  5
624
  8
DATA
  6
CONTINUOUS
 62
     7
 10
99.328263715692771
 20
-91.685488634810866
 30
0.0
 11
99.328263715692771
 21
-76.452407073418513
 31
0.0
  0
LINE
  5
625
  8
DATA
  6
CONTINUOUS
 62
     7
 10
94.299046790525281
 20
-75.94521739755011
 30
0.0
 11
94.299046790525281
 21
-76.45587736174997
 31
0.0
  0
LINE
  5
626
  8
DATA
  6
CONTINUOUS
 62
     7
 10
103.0990467905257
 20
-74.998085900527272
 30
0.0
 11
103.0990467905257
 21
-76.452407073418513
 31
0.0
  0
LINE
  5
627
  8
DATA
  6
CONTINUOUS
 62
     7
 10
94.299046790525281
 20
-75.94521739755011
 30
0.0
 11
94.299046790525281
 21
-74.998085900527272
 31
0.0
  0
LINE
  5
628
  8
DATA
  6
CONTINUOUS
 62
     7
 10
116.9305250162009
 20
-76.452407073418513
 30
0.0
 11
115.0034171800678
 21
-76.452407073418513
 31
0.0
  0
LINE
  5
629
  8
DATA
  6
CONTINUOUS
 62
     7
 10
115.0034171800678
 20
-76.452407073418513
 30
0.0
 11
115.3034171800679
 21
-79.952407073418513
 31
0.0
  0
LINE
  5
62A
  8
DATA
  6
CONTINUOUS
 62
     7
 10
115.3034171800679
 20
-79.952407073418513
 30
0.0
 11
116.9305250162009
 21
-91.452407073418684
 31
0.0
  0
LINE
  5
62B
  8
DATA
  6
CONTINUOUS
 62
     7
 10
127.98966008433921
 20
-79.952407073418513
 30
0.0
 11
126.38600241518451
 21
-91.452407073418684
 31
0.0
  0
LINE
  5
62C
  8
DATA
  6
CONTINUOUS
 62
     7
 10
126.38600241518451
 20
-76.452407073418513
 30
0.0
 11
116.9305250162009
 21
-76.452407073418513
 31
0.0
  0
LINE
  5
62D
  8
DATA
  6
CONTINUOUS
 62
     7
 10
128.3131102513176
 20
-76.452407073418513
 30
0.0
 11
128.01311025131761
 21
-79.952407073418513
 31
0.0
  0
LINE
  5
62E
  8
DATA
  6
CONTINUOUS
 62
     7
 10
126.38600241518451
 20
-76.452407073418513
 30
0.0
 11
128.3131102513176
 21
-76.452407073418513
 31
0.0
  0
LINE
  5
62F
  8
DATA
  6
CONTINUOUS
 62
     7
 10
119.75826371569261
 20
-91.452407073418712
 30
0.0
 11
119.1465386322035
 21
-79.952407073418442
 31
0.0
  0
LINE
  5
630
  8
DATA
  6
CONTINUOUS
 62
     7
 10
118.0582637156925
 20
-91.452407073418712
 30
0.0
 11
117.4465386322034
 21
-79.952407073418442
 31
0.0
  0
LINE
  5
631
  8
DATA
  6
CONTINUOUS
 62
     7
 10
123.5582637156928
 20
-91.452407073418712
 30
0.0
 11
124.1465386322037
 21
-79.952407073418442
 31
0.0
  0
LINE
  5
632
  8
DATA
  6
CONTINUOUS
 62
     7
 10
125.25826371569281
 20
-91.452407073418712
 30
0.0
 11
125.8465386322039
 21
-79.952407073418442
 31
0.0
  0
LINE
  5
633
  8
DATA
  6
CONTINUOUS
 62
     7
 10
122.3082637156927
 20
-79.952407073418513
 30
0.0
 11
128.01311025131761
 21
-79.952407073418513
 31
0.0
  0
LINE
  5
634
  8
DATA
  6
CONTINUOUS
 62
     7
 10
121.00826371569271
 20
-79.952407073418513
 30
0.0
 11
115.3034171800679
 21
-79.952407073418513
 31
0.0
  0
LINE
  5
635
  8
DATA
  6
CONTINUOUS
 62
     7
 10
122.3082637156927
 20
-91.452407073418684
 30
0.0
 11
126.38600241518439
 21
-91.452407073418684
 31
0.0
  0
LINE
  5
636
  8
DATA
  6
CONTINUOUS
 62
     7
 10
121.00826371569271
 20
-91.452407073418684
 30
0.0
 11
116.930525016201
 21
-91.452407073418684
 31
0.0
  0
LINE
  5
637
  8
DATA
  6
CONTINUOUS
 62
     7
 10
121.00826371569271
 20
-79.952407073418513
 30
0.0
 11
115.3034171800679
 21
-79.952407073418513
 31
0.0
  0
LINE
  5
638
  8
DATA
  6
CONTINUOUS
 62
     7
 10
122.3082637156927
 20
-79.952407073418513
 30
0.0
 11
128.01311025131761
 21
-79.952407073418513
 31
0.0
  0
LINE
  5
639
  8
DATA
  6
CONTINUOUS
 62
     7
 10
121.00826371569271
 20
-91.452407073418684
 30
0.0
 11
116.9305250162009
 21
-91.452407073418684
 31
0.0
  0
LINE
  5
63A
  8
DATA
  6
CONTINUOUS
 62
     7
 10
122.3082637156927
 20
-91.452407073418684
 30
0.0
 11
126.38600241518451
 21
-91.452407073418684
 31
0.0
  0
ARC
  5
63B
  8
DATA
  6
CONTINUOUS
 62
     7
 10
121.6582637156927
 20
-91.027507588309589
 30
0.0
 40
0.924899485108996
 50
225.34960338822449
 51
314.65039661177798
  0
LINE
  5
63C
  8
DATA
  6
CONTINUOUS
 62
     7
 10
121.00826371569271
 20
-91.685488634810866
 30
0.0
 11
121.00826371569271
 21
-76.452407073418513
 31
0.0
  0
LINE
  5
63D
  8
DATA
  6
CONTINUOUS
 62
     7
 10
122.3082637156927
 20
-91.685488634810866
 30
0.0
 11
122.3082637156927
 21
-76.452407073418513
 31
0.0
  0
LINE
  5
63E
  8
DATA
  6
CONTINUOUS
 62
     7
 10
117.2790467905253
 20
-75.94521739755011
 30
0.0
 11
117.2790467905253
 21
-76.45587736174997
 31
0.0
  0
LINE
  5
63F
  8
DATA
  6
CONTINUOUS
 62
     7
 10
126.07904679052569
 20
-74.998085900527272
 30
0.0
 11
126.07904679052569
 21
-76.452407073418513
 31
0.0
  0
LINE
  5
640
  8
DATA
  6
CONTINUOUS
 62
     7
 10
117.2790467905253
 20
-75.94521739755011
 30
0.0
 11
117.2790467905253
 21
-74.998085900527272
 31
0.0
  0
LINE
  5
641
  8
DATA
  6
CONTINUOUS
 62
     7
 10
149.94052501620081
 20
-76.452407073418513
 30
0.0
 11
148.01341718006779
 21
-76.452407073418513
 31
0.0
  0
LINE
  5
642
  8
DATA
  6
CONTINUOUS
 62
     7
 10
148.01341718006779
 20
-76.452407073418513
 30
0.0
 11
148.3134171800678
 21
-79.952407073418513
 31
0.0
  0
LINE
  5
643
  8
DATA
  6
CONTINUOUS
 62
     7
 10
148.3134171800678
 20
-79.952407073418513
 30
0.0
 11
149.94052501620081
 21
-91.452407073418684
 31
0.0
  0
LINE
  5
644
  8
DATA
  6
CONTINUOUS
 62
     7
 10
160.9996600843393
 20
-79.952407073418513
 30
0.0
 11
159.3960024151844
 21
-91.452407073418684
 31
0.0
  0
LINE
  5
645
  8
DATA
  6
CONTINUOUS
 62
     7
 10
159.3960024151844
 20
-76.452407073418513
 30
0.0
 11
149.94052501620081
 21
-76.452407073418513
 31
0.0
  0
LINE
  5
646
  8
DATA
  6
CONTINUOUS
 62
     7
 10
161.32311025131759
 20
-76.452407073418513
 30
0.0
 11
161.02311025131741
 21
-79.952407073418513
 31
0.0
  0
LINE
  5
647
  8
DATA
  6
CONTINUOUS
 62
     7
 10
159.3960024151844
 20
-76.452407073418513
 30
0.0
 11
161.32311025131759
 21
-76.452407073418513
 31
0.0
  0
LINE
  5
648
  8
DATA
  6
CONTINUOUS
 62
     7
 10
152.76826371569251
 20
-91.452407073418712
 30
0.0
 11
152.15653863220339
 21
-79.952407073418442
 31
0.0
  0
LINE
  5
649
  8
DATA
  6
CONTINUOUS
 62
     7
 10
151.06826371569241
 20
-91.452407073418712
 30
0.0
 11
150.4565386322034
 21
-79.952407073418442
 31
0.0
  0
LINE
  5
64A
  8
DATA
  6
CONTINUOUS
 62
     7
 10
156.56826371569269
 20
-91.452407073418712
 30
0.0
 11
157.15653863220371
 21
-79.952407073418442
 31
0.0
  0
LINE
  5
64B
  8
DATA
  6
CONTINUOUS
 62
     7
 10
158.2682637156928
 20
-91.452407073418712
 30
0.0
 11
158.85653863220381
 21
-79.952407073418442
 31
0.0
  0
LINE
  5
64C
  8
DATA
  6
CONTINUOUS
 62
     7
 10
155.31826371569269
 20
-79.952407073418513
 30
0.0
 11
161.02311025131741
 21
-79.952407073418513
 31
0.0
  0
LINE
  5
64D
  8
DATA
  6
CONTINUOUS
 62
     7
 10
154.01826371569271
 20
-79.952407073418513
 30
0.0
 11
148.3134171800678
 21
-79.952407073418513
 31
0.0
  0
LINE
  5
64E
  8
DATA
  6
CONTINUOUS
 62
     7
 10
155.31826371569269
 20
-91.452407073418684
 30
0.0
 11
159.3960024151844
 21
-91.452407073418684
 31
0.0
  0
LINE
  5
64F
  8
DATA
  6
CONTINUOUS
 62
     7
 10
154.01826371569271
 20
-91.452407073418684
 30
0.0
 11
149.94052501620081
 21
-91.452407073418684
 31
0.0
  0
LINE
  5
650
  8
DATA
  6
CONTINUOUS
 62
     7
 10
154.01826371569271
 20
-79.952407073418513
 30
0.0
 11
148.3134171800678
 21
-79.952407073418513
 31
0.0
  0
LINE
  5
651
  8
DATA
  6
CONTINUOUS
 62
     7
 10
155.31826371569269
 20
-79.952407073418513
 30
0.0
 11
161.02311025131741
 21
-79.952407073418513
 31
0.0
  0
LINE
  5
652
  8
DATA
  6
CONTINUOUS
 62
     7
 10
154.01826371569271
 20
-91.452407073418684
 30
0.0
 11
149.94052501620081
 21
-91.452407073418684
 31
0.0
  0
LINE
  5
653
  8
DATA
  6
CONTINUOUS
 62
     7
 10
155.31826371569269
 20
-91.452407073418684
 30
0.0
 11
159.3960024151844
 21
-91.452407073418684
 31
0.0
  0
ARC
  5
654
  8
DATA
  6
CONTINUOUS
 62
     7
 10
154.66826371569269
 20
-91.027507588309589
 30
0.0
 40
0.924899485108996
 50
225.34960338822449
 51
314.65039661177798
  0
LINE
  5
655
  8
DATA
  6
CONTINUOUS
 62
     7
 10
154.01826371569271
 20
-91.685488634810866
 30
0.0
 11
154.01826371569271
 21
-76.452407073418513
 31
0.0
  0
LINE
  5
656
  8
DATA
  6
CONTINUOUS
 62
     7
 10
155.31826371569269
 20
-91.685488634810866
 30
0.0
 11
155.31826371569269
 21
-76.452407073418513
 31
0.0
  0
LINE
  5
657
  8
DATA
  6
CONTINUOUS
 62
     7
 10
150.28904679052519
 20
-75.94521739755011
 30
0.0
 11
150.28904679052519
 21
-76.45587736174997
 31
0.0
  0
LINE
  5
658
  8
DATA
  6
CONTINUOUS
 62
     7
 10
159.0890467905256
 20
-74.998085900527272
 30
0.0
 11
159.0890467905256
 21
-76.452407073418513
 31
0.0
  0
LINE
  5
659
  8
DATA
  6
CONTINUOUS
 62
     7
 10
150.28904679052519
 20
-75.94521739755011
 30
0.0
 11
150.28904679052519
 21
-74.998085900527272
 31
0.0
  0
LINE
  5
65A
  8
DATA
  6
CONTINUOUS
 62
     7
 10
182.94052501620081
 20
-76.452407073418513
 30
0.0
 11
181.01341718006771
 21
-76.452407073418513
 31
0.0
  0
LINE
  5
65B
  8
DATA
  6
CONTINUOUS
 62
     7
 10
181.01341718006771
 20
-76.452407073418513
 30
0.0
 11
181.3134171800678
 21
-79.952407073418513
 31
0.0
  0
LINE
  5
65C
  8
DATA
  6
CONTINUOUS
 62
     7
 10
181.3134171800678
 20
-79.952407073418513
 30
0.0
 11
182.94052501620081
 21
-91.452407073418684
 31
0.0
  0
LINE
  5
65D
  8
DATA
  6
CONTINUOUS
 62
     7
 10
193.9996600843393
 20
-79.952407073418513
 30
0.0
 11
192.39600241518451
 21
-91.452407073418684
 31
0.0
  0
LINE
  5
65E
  8
DATA
  6
CONTINUOUS
 62
     7
 10
192.39600241518451
 20
-76.452407073418513
 30
0.0
 11
182.94052501620081
 21
-76.452407073418513
 31
0.0
  0
LINE
  5
65F
  8
DATA
  6
CONTINUOUS
 62
     7
 10
194.32311025131759
 20
-76.452407073418513
 30
0.0
 11
194.0231102513176
 21
-79.952407073418513
 31
0.0
  0
LINE
  5
660
  8
DATA
  6
CONTINUOUS
 62
     7
 10
192.39600241518451
 20
-76.452407073418513
 30
0.0
 11
194.32311025131759
 21
-76.452407073418513
 31
0.0
  0
LINE
  5
661
  8
DATA
  6
CONTINUOUS
 62
     7
 10
185.76826371569251
 20
-91.452407073418712
 30
0.0
 11
185.15653863220331
 21
-79.952407073418442
 31
0.0
  0
LINE
  5
662
  8
DATA
  6
CONTINUOUS
 62
     7
 10
184.0682637156925
 20
-91.452407073418712
 30
0.0
 11
183.45653863220329
 21
-79.952407073418442
 31
0.0
  0
LINE
  5
663
  8
DATA
  6
CONTINUOUS
 62
     7
 10
189.56826371569261
 20
-91.452407073418712
 30
0.0
 11
190.15653863220371
 21
-79.952407073418442
 31
0.0
  0
LINE
  5
664
  8
DATA
  6
CONTINUOUS
 62
     7
 10
191.2682637156928
 20
-91.452407073418712
 30
0.0
 11
191.85653863220381
 21
-79.952407073418442
 31
0.0
  0
LINE
  5
665
  8
DATA
  6
CONTINUOUS
 62
     7
 10
188.31826371569261
 20
-79.952407073418513
 30
0.0
 11
194.0231102513176
 21
-79.952407073418513
 31
0.0
  0
LINE
  5
666
  8
DATA
  6
CONTINUOUS
 62
     7
 10
187.01826371569271
 20
-79.952407073418513
 30
0.0
 11
181.3134171800678
 21
-79.952407073418513
 31
0.0
  0
LINE
  5
667
  8
DATA
  6
CONTINUOUS
 62
     7
 10
188.31826371569261
 20
-91.452407073418684
 30
0.0
 11
192.39600241518451
 21
-91.452407073418684
 31
0.0
  0
LINE
  5
668
  8
DATA
  6
CONTINUOUS
 62
     7
 10
187.01826371569271
 20
-91.452407073418684
 30
0.0
 11
182.94052501620081
 21
-91.452407073418684
 31
0.0
  0
LINE
  5
669
  8
DATA
  6
CONTINUOUS
 62
     7
 10
187.01826371569271
 20
-79.952407073418513
 30
0.0
 11
181.3134171800678
 21
-79.952407073418513
 31
0.0
  0
LINE
  5
66A
  8
DATA
  6
CONTINUOUS
 62
     7
 10
188.31826371569261
 20
-79.952407073418513
 30
0.0
 11
194.0231102513176
 21
-79.952407073418513
 31
0.0
  0
LINE
  5
66B
  8
DATA
  6
CONTINUOUS
 62
     7
 10
187.01826371569271
 20
-91.452407073418684
 30
0.0
 11
182.94052501620081
 21
-91.452407073418684
 31
0.0
  0
LINE
  5
66C
  8
DATA
  6
CONTINUOUS
 62
     7
 10
188.31826371569261
 20
-91.452407073418684
 30
0.0
 11
192.39600241518451
 21
-91.452407073418684
 31
0.0
  0
ARC
  5
66D
  8
DATA
  6
CONTINUOUS
 62
     7
 10
187.6682637156926
 20
-91.027507588309589
 30
0.0
 40
0.924899485108996
 50
225.34960338822449
 51
314.65039661177798
  0
LINE
  5
66E
  8
DATA
  6
CONTINUOUS
 62
     7
 10
187.01826371569271
 20
-91.685488634810866
 30
0.0
 11
187.01826371569271
 21
-76.452407073418513
 31
0.0
  0
LINE
  5
66F
  8
DATA
  6
CONTINUOUS
 62
     7
 10
188.31826371569261
 20
-91.685488634810866
 30
0.0
 11
188.31826371569261
 21
-76.452407073418513
 31
0.0
  0
LINE
  5
670
  8
DATA
  6
CONTINUOUS
 62
     7
 10
183.2890467905253
 20
-75.94521739755011
 30
0.0
 11
183.2890467905253
 21
-76.45587736174997
 31
0.0
  0
LINE
  5
671
  8
DATA
  6
CONTINUOUS
 62
     7
 10
192.08904679052571
 20
-74.998085900527272
 30
0.0
 11
192.08904679052571
 21
-76.452407073418513
 31
0.0
  0
LINE
  5
672
  8
DATA
  6
CONTINUOUS
 62
     7
 10
183.2890467905253
 20
-75.94521739755011
 30
0.0
 11
183.2890467905253
 21
-74.998085900527272
 31
0.0
  0
LINE
  5
673
  8
DATA
  6
CONTINUOUS
 62
     7
 10
-22.2734836731032
 20
210.8543761693908
 30
0.0
 11
-22.2734836731032
 21
234.89391432792991
 31
0.0
  0
LINE
  5
674
  8
DATA
  6
CONTINUOUS
 62
     7
 10
-22.8803042308882
 20
210.8543761693908
 30
0.0
 11
-22.8803042308882
 21
234.89391432792991
 31
0.0
  0
TEXT
  5
675
  8
DATA
 62
     7
 10
-180.23284938507601
 20
212.36502699698241
 30
0.0
 40
1.923828125
  1
 INPUT
 50
180.0
 41
0.7
 11
-180.23284938507601
 21
210.44119887198241
 31
0.0
 73
     3
  0
TEXT
  5
676
  8
DATA
 62
     7
 10
-11.87618054044286
 20
208.68435659125629
 30
0.0
 40
1.923828125
  1
 NOT USED
 50
180.0
 41
0.7
 11
-11.87618054044286
 21
206.76052846625629
 31
0.0
 73
     3
  0
TEXT
  5
677
  8
DATA
 62
     7
 10
120.5742432871905
 20
211.9739143279298
 30
0.0
 40
2.30859375
  1
MONO 4-WAY
 50
180.0
 41
0.7
 11
120.5742432871905
 21
209.6653205779298
 31
0.0
 73
     3
  0
TEXT
  5
678
  8
DATA
 62
     7
 10
123.3150759004353
 20
237.5549486656752
 30
0.0
 40
2.30859375
  1
STEREO 3-WAY
 50
180.0
 41
0.7
 11
123.3150759004353
 21
235.2463549156752
 31
0.0
 73
     3
  0
TEXT
  5
679
  8
DATA
 62
     7
 10
123.5042383791471
 20
241.08204246889611
 30
0.0
 40
2.30859375
  1
STEREO 2-WAY
 50
180.0
 41
0.7
 11
123.5042383791471
 21
238.77344871889611
 31
0.0
 73
     3
  0
LINE
  5
67A
  8
DATA
  6
CONTINUOUS
 62
     7
 10
-156.3461862142604
 20
77.499999999813227
 30
0.0
 11
-151.1461862142605
 21
77.499999999813227
 31
0.0
  0
LINE
  5
67B
  8
DATA
  6
CONTINUOUS
 62
     7
 10
-156.3461862142604
 20
74.999999999813227
 30
0.0
 11
-156.3461862142604
 21
77.499999999813227
 31
0.0
  0
LINE
  5
67C
  8
DATA
  6
CONTINUOUS
 62
     7
 10
-151.1461862142605
 20
74.999999999813227
 30
0.0
 11
-151.1461862142605
 21
77.499999999813227
 31
0.0
  0
LINE
  5
67D
  8
DATA
  6
CONTINUOUS
 62
     7
 10
-59.07832685690903
 20
74.999999999813227
 30
0.0
 11
-59.07832685690903
 21
77.499999999813227
 31
0.0
  0
LINE
  5
67E
  8
DATA
  6
CONTINUOUS
 62
     7
 10
-53.878326856909062
 20
74.999999999813227
 30
0.0
 11
-53.878326856909062
 21
77.499999999813227
 31
0.0
  0
LINE
  5
67F
  8
DATA
  6
CONTINUOUS
 62
     7
 10
-43.643830183959359
 20
74.999999999813227
 30
0.0
 11
-43.643830183959359
 21
77.499999999813227
 31
0.0
  0
LINE
  5
680
  8
DATA
  6
CONTINUOUS
 62
     7
 10
-38.443830183959321
 20
74.999999999813227
 30
0.0
 11
-38.443830183959321
 21
77.499999999813227
 31
0.0
  0
LINE
  5
681
  8
DATA
  6
CONTINUOUS
 62
     7
 10
-31.24779989115838
 20
74.999999999813227
 30
0.0
 11
-31.24779989115838
 21
77.499999999813227
 31
0.0
  0
LINE
  5
682
  8
DATA
  6
CONTINUOUS
 62
     7
 10
-26.047799891158331
 20
74.999999999813227
 30
0.0
 11
-26.047799891158331
 21
77.499999999813227
 31
0.0
  0
LINE
  5
683
  8
DATA
  6
CONTINUOUS
 62
     7
 10
11.65381378573956
 20
74.999999999813227
 30
0.0
 11
11.65381378573956
 21
77.499999999813227
 31
0.0
  0
LINE
  5
684
  8
DATA
  6
CONTINUOUS
 62
     7
 10
16.853813785739501
 20
74.999999999813227
 30
0.0
 11
16.853813785739501
 21
77.499999999813227
 31
0.0
  0
LINE
  5
685
  8
DATA
  6
CONTINUOUS
 62
     7
 10
16.853813785739501
 20
77.499999999813227
 30
0.0
 11
11.65381378573956
 21
77.499999999813227
 31
0.0
  0
LINE
  5
686
  8
DATA
  6
CONTINUOUS
 62
     7
 10
-26.047799891158331
 20
77.499999999813227
 30
0.0
 11
-31.24779989115838
 21
77.499999999813227
 31
0.0
  0
LINE
  5
687
  8
DATA
  6
CONTINUOUS
 62
     7
 10
-38.443830183959321
 20
77.499999999813227
 30
0.0
 11
-43.643830183959359
 21
77.499999999813227
 31
0.0
  0
LINE
  5
688
  8
DATA
  6
CONTINUOUS
 62
     7
 10
-53.878326856909062
 20
77.499999999813227
 30
0.0
 11
-59.07832685690903
 21
77.499999999813227
 31
0.0
  0
LINE
  5
689
  8
DATA
  6
CONTINUOUS
 62
     7
 10
-156.9678811825452
 20
-79.000000000186205
 30
0.0
 11
-151.69788118254769
 21
-79.000000000186205
 31
0.0
  0
LINE
  5
68A
  8
DATA
  6
CONTINUOUS
 62
     7
 10
-72.277442698494212
 20
-79.000000000186205
 30
0.0
 11
-67.007442698497215
 21
-79.000000000186205
 31
0.0
  0
LINE
  5
68B
  8
DATA
  6
CONTINUOUS
 62
     7
 10
-39.548972226542432
 20
-79.000000000186205
 30
0.0
 11
-34.278972226545463
 21
-79.000000000186205
 31
0.0
  0
LINE
  5
68C
  8
DATA
  6
CONTINUOUS
 62
     7
 10
-6.5489722265424311
 20
-79.000000000186205
 30
0.0
 11
-1.2789722265454611
 21
-79.000000000186205
 31
0.0
  0
LINE
  5
68D
  8
DATA
  6
CONTINUOUS
 62
     7
 10
-1.2789722265454611
 20
-79.000000000186205
 30
0.0
 11
-1.2789722265454611
 21
-75.000000000186262
 31
0.0
  0
LINE
  5
68E
  8
DATA
  6
CONTINUOUS
 62
     7
 10
-6.5489722265424311
 20
-79.000000000186205
 30
0.0
 11
-6.5489722265424311
 21
-75.000000000186262
 31
0.0
  0
LINE
  5
68F
  8
DATA
  6
CONTINUOUS
 62
     7
 10
-34.278972226545463
 20
-79.000000000186205
 30
0.0
 11
-34.278972226545463
 21
-75.000000000186262
 31
0.0
  0
LINE
  5
690
  8
DATA
  6
CONTINUOUS
 62
     7
 10
-39.548972226542432
 20
-79.000000000186205
 30
0.0
 11
-39.548972226542432
 21
-75.000000000186262
 31
0.0
  0
LINE
  5
691
  8
DATA
  6
CONTINUOUS
 62
     7
 10
-67.007442698497215
 20
-79.000000000186205
 30
0.0
 11
-67.007442698497215
 21
-75.000000000186262
 31
0.0
  0
LINE
  5
692
  8
DATA
  6
CONTINUOUS
 62
     7
 10
-72.277442698494212
 20
-79.000000000186205
 30
0.0
 11
-72.277442698494212
 21
-75.000000000186262
 31
0.0
  0
LINE
  5
693
  8
DATA
  6
CONTINUOUS
 62
     7
 10
-151.69788118254769
 20
-79.000000000186205
 30
0.0
 11
-151.69788118254769
 21
-75.000000000186262
 31
0.0
  0
LINE
  5
694
  8
DATA
  6
CONTINUOUS
 62
     7
 10
-156.9678811825452
 20
-79.000000000186205
 30
0.0
 11
-156.9678811825452
 21
-75.000000000186262
 31
0.0
  0
ARC
  5
695
  8
DATA
  6
CONTINUOUS
 62
     7
 10
-147.33328068965139
 20
-74.662159025240143
 30
0.0
 40
1.537499999999969
 50
192.68038349181489
 51
347.31961650818522
  0
ARC
  5
696
  8
DATA
  6
CONTINUOUS
 62
     7
 10
-120.7532806896514
 20
-74.662159025240143
 30
0.0
 40
1.537499999999969
 50
192.68038349181489
 51
347.31961650818522
  0
ARC
  5
697
  8
DATA
  6
CONTINUOUS
 62
     7
 10
-62.633280689651393
 20
-74.662159025240143
 30
0.0
 40
1.537499999999969
 50
192.68038349181489
 51
347.31961650818522
  0
ARC
  5
698
  8
DATA
  6
CONTINUOUS
 62
     7
 10
-29.9032806896514
 20
-74.662159025240143
 30
0.0
 40
1.537499999999969
 50
192.68038349181489
 51
347.31961650818522
  0
ARC
  5
699
  8
DATA
  6
CONTINUOUS
 62
     7
 10
3.096719310348603
 20
-74.662159025240143
 30
0.0
 40
1.537499999999969
 50
192.68038349181489
 51
347.31961650818522
  0
ARC
  5
69A
  8
DATA
  6
CONTINUOUS
 62
     7
 10
13.37671931034861
 20
-74.662159025240143
 30
0.0
 40
1.537499999999969
 50
192.68038349181489
 51
311.2546924691286
  0
ARC
  5
69B
  8
DATA
  6
CONTINUOUS
 62
     7
 10
13.37671931034861
 20
-74.662159025240143
 30
0.0
 40
1.5374999999999881
 50
347.30659189143302
 51
347.3196165081855
  0
ARC
  5
69C
  8
DATA
  6
CONTINUOUS
 62
     7
 10
20.876719310348641
 20
-74.662159025240143
 30
0.0
 40
1.537499999999969
 50
192.68038349181489
 51
192.6934081085997
  0
ARC
  5
69D
  8
DATA
  6
CONTINUOUS
 62
     7
 10
20.876719310348641
 20
-74.662159025240143
 30
0.0
 40
1.5375000000000001
 50
234.8047219851386
 51
347.31961650818528
  0
LINE
  5
69E
  8
DATA
  6
CONTINUOUS
 62
     7
 10
46.612118817454721
 20
-79.000000000186205
 30
0.0
 11
51.882118817452323
 21
-79.000000000186205
 31
0.0
  0
LINE
  5
69F
  8
DATA
  6
CONTINUOUS
 62
     7
 10
131.3025573015058
 20
-79.000000000186205
 30
0.0
 11
136.5725573015028
 21
-79.000000000186205
 31
0.0
  0
LINE
  5
6A0
  8
DATA
  6
CONTINUOUS
 62
     7
 10
164.03102777345759
 20
-79.000000000186205
 30
0.0
 11
169.30102777345451
 21
-79.000000000186205
 31
0.0
  0
LINE
  5
6A1
  8
DATA
  6
CONTINUOUS
 62
     7
 10
197.03102777345759
 20
-79.000000000186205
 30
0.0
 11
202.30102777345459
 21
-79.000000000186205
 31
0.0
  0
LINE
  5
6A2
  8
DATA
  6
CONTINUOUS
 62
     7
 10
202.30102777345459
 20
-79.000000000186205
 30
0.0
 11
202.30102777345459
 21
-75.000000000186262
 31
0.0
  0
LINE
  5
6A3
  8
DATA
  6
CONTINUOUS
 62
     7
 10
197.03102777345759
 20
-79.000000000186205
 30
0.0
 11
197.03102777345759
 21
-75.000000000186262
 31
0.0
  0
LINE
  5
6A4
  8
DATA
  6
CONTINUOUS
 62
     7
 10
169.30102777345451
 20
-79.000000000186205
 30
0.0
 11
169.30102777345451
 21
-75.000000000186262
 31
0.0
  0
LINE
  5
6A5
  8
DATA
  6
CONTINUOUS
 62
     7
 10
164.03102777345759
 20
-79.000000000186205
 30
0.0
 11
164.03102777345759
 21
-75.000000000186262
 31
0.0
  0
LINE
  5
6A6
  8
DATA
  6
CONTINUOUS
 62
     7
 10
136.5725573015028
 20
-79.000000000186205
 30
0.0
 11
136.5725573015028
 21
-75.000000000186262
 31
0.0
  0
LINE
  5
6A7
  8
DATA
  6
CONTINUOUS
 62
     7
 10
131.3025573015058
 20
-79.000000000186205
 30
0.0
 11
131.3025573015058
 21
-75.000000000186262
 31
0.0
  0
LINE
  5
6A8
  8
DATA
  6
CONTINUOUS
 62
     7
 10
51.882118817452323
 20
-79.000000000186205
 30
0.0
 11
51.882118817452323
 21
-75.000000000186262
 31
0.0
  0
LINE
  5
6A9
  8
DATA
  6
CONTINUOUS
 62
     7
 10
46.612118817454721
 20
-79.000000000186205
 30
0.0
 11
46.612118817454721
 21
-75.000000000186262
 31
0.0
  0
ARC
  5
6AA
  8
DATA
  6
CONTINUOUS
 62
     7
 10
56.246719310348638
 20
-74.662159025240143
 30
0.0
 40
1.537499999999969
 50
192.68038349181489
 51
347.31961650818522
  0
ARC
  5
6AB
  8
DATA
  6
CONTINUOUS
 62
     7
 10
82.826719310348622
 20
-74.662159025240143
 30
0.0
 40
1.537499999999969
 50
192.68038349181489
 51
347.31961650818522
  0
ARC
  5
6AC
  8
DATA
  6
CONTINUOUS
 62
     7
 10
140.94671931034861
 20
-74.662159025240143
 30
0.0
 40
1.537499999999969
 50
192.68038349181489
 51
347.31961650818522
  0
ARC
  5
6AD
  8
DATA
  6
CONTINUOUS
 62
     7
 10
173.6767193103486
 20
-74.662159025240143
 30
0.0
 40
1.537499999999969
 50
192.68038349181489
 51
347.31961650818522
  0
ARC
  5
6AE
  8
DATA
  6
CONTINUOUS
 62
     7
 10
206.6767193103486
 20
-74.662159025240143
 30
0.0
 40
1.537499999999969
 50
192.68038349181489
 51
347.31961650818522
  0
LINE
  5
6AF
  8
DATA
  6
CONTINUOUS
 62
     7
 10
503.99999999974091
 20
-213.49999999967091
 30
0.0
 11
503.99999999974091
 21
-208.49999999967091
 31
0.0
  0
LINE
  5
6B0
  8
DATA
  6
CONTINUOUS
 62
     7
 10
503.99999999974091
 20
-208.49999999967091
 30
0.0
 11
501.49999999974079
 21
-208.49999999967091
 31
0.0
  0
LINE
  5
6B1
  8
DATA
  6
CONTINUOUS
 62
     7
 10
503.99999999974091
 20
-213.49999999967091
 30
0.0
 11
501.49999999974079
 21
-213.49999999967091
 31
0.0
  0
LINE
  5
6B2
  8
DATA
  6
CONTINUOUS
 62
     7
 10
-92.273483673103598
 20
242.85437616939089
 30
0.0
 11
-67.273483673103172
 21
242.85437616939089
 31
0.0
  0
LINE
  5
6B3
  8
DATA
  6
CONTINUOUS
 62
     7
 10
-65.273483673103172
 20
240.85437616939089
 30
0.0
 11
-65.273483673103172
 21
210.8543761693908
 31
0.0
  0
ARC
  5
6B4
  8
DATA
  6
CONTINUOUS
 62
     7
 10
-67.273483673103172
 20
240.85437616939089
 30
0.0
 40
2.0
 50
0.0
 51
90.0
  0
ARC
  5
6B5
  8
DATA
  6
CONTINUOUS
 62
     7
 10
-67.273483673103172
 20
210.8543761693908
 30
0.0
 40
2.0
 50
270.0
 51
0.0
  0
LINE
  5
6B6
  8
DATA
  6
CONTINUOUS
 62
     7
 10
-67.273483673103172
 20
208.8543761693908
 30
0.0
 11
-115.8011803814971
 21
208.8543761693908
 31
0.0
  0
LINE
  5
6B7
  8
DATA
  6
CONTINUOUS
 62
     7
 10
-171.24704616453511
 20
208.8543761693908
 30
0.0
 11
-137.80118038149709
 21
208.8543761693908
 31
0.0
  0
LINE
  5
6B8
  8
DATA
  6
CONTINUOUS
 62
     7
 10
75.726516326896416
 20
242.85437616939089
 30
0.0
 11
100.7265163268968
 21
242.85437616939089
 31
0.0
  0
LINE
  5
6B9
  8
DATA
  6
CONTINUOUS
 62
     7
 10
102.7265163268968
 20
240.85437616939089
 30
0.0
 11
102.7265163268968
 21
210.8543761693908
 31
0.0
  0
ARC
  5
6BA
  8
DATA
  6
CONTINUOUS
 62
     7
 10
100.7265163268968
 20
240.85437616939089
 30
0.0
 40
2.0
 50
0.0
 51
90.0
  0
ARC
  5
6BB
  8
DATA
  6
CONTINUOUS
 62
     7
 10
100.7265163268968
 20
210.8543761693908
 30
0.0
 40
2.0
 50
270.0
 51
0.0
  0
LINE
  5
6BC
  8
DATA
  6
CONTINUOUS
 62
     7
 10
100.7265163268968
 20
208.8543761693908
 30
0.0
 11
52.198819618502903
 21
208.8543761693908
 31
0.0
  0
LINE
  5
6BD
  8
DATA
  6
CONTINUOUS
 62
     7
 10
-3.2470461645351469
 20
208.8543761693908
 30
0.0
 11
30.198819618502888
 21
208.8543761693908
 31
0.0
  0
LINE
  5
6BE
  8
DATA
  6
CONTINUOUS
 62
     7
 10
-24.8803042308882
 20
242.85437616939089
 30
0.0
 11
-45.734376699548577
 21
242.85437616939089
 31
0.0
  0
LINE
  5
6BF
  8
DATA
  6
CONTINUOUS
 62
     7
 10
-64.530406992349612
 20
210.8543761693908
 30
0.0
 11
-64.530406992349612
 21
240.85437616939089
 31
0.0
  0
LINE
  5
6C0
  8
DATA
  6
CONTINUOUS
 62
     7
 10
-47.734376699548577
 20
240.85437616939089
 30
0.0
 11
-47.734376699548577
 21
210.8543761693908
 31
0.0
  0
LINE
  5
6C1
  8
DATA
  6
CONTINUOUS
 62
     7
 10
-48.463603310401062
 20
240.85437616939089
 30
0.0
 11
-48.463603310401062
 21
210.8543761693908
 31
0.0
  0
ARC
  5
6C2
  8
DATA
  6
CONTINUOUS
 62
     7
 10
-24.8803042308882
 20
210.8543761693908
 30
0.0
 40
2.0
 50
270.0
 51
0.0
  0
ARC
  5
6C3
  8
DATA
  6
CONTINUOUS
 62
     7
 10
-45.734376699548577
 20
240.85437616939089
 30
0.0
 40
2.0
 50
90.0
 51
180.0
  0
ARC
  5
6C4
  8
DATA
  6
CONTINUOUS
 62
     7
 10
-45.734376699548577
 20
210.8543761693908
 30
0.0
 40
2.0
 50
180.0
 51
270.0
  0
LINE
  5
6C5
  8
DATA
  6
CONTINUOUS
 62
     7
 10
-50.463603310401048
 20
242.85437616939089
 30
0.0
 11
-62.530406992349597
 21
242.85437616939089
 31
0.0
  0
ARC
  5
6C6
  8
DATA
  6
CONTINUOUS
 62
     7
 10
-50.463603310401048
 20
240.85437616939089
 30
0.0
 40
2.0
 50
0.0
 51
90.0
  0
ARC
  5
6C7
  8
DATA
  6
CONTINUOUS
 62
     7
 10
-62.530406992349597
 20
240.85437616939089
 30
0.0
 40
2.0
 50
90.0
 51
180.0
  0
ARC
  5
6C8
  8
DATA
  6
CONTINUOUS
 62
     7
 10
-62.530406992349597
 20
210.8543761693908
 30
0.0
 40
2.0
 50
180.0
 51
270.0
  0
ARC
  5
6C9
  8
DATA
  6
CONTINUOUS
 62
     7
 10
-50.463603310401048
 20
210.8543761693908
 30
0.0
 40
2.0
 50
270.0
 51
0.0
  0
LINE
  5
6CA
  8
DATA
  6
CONTINUOUS
 62
     7
 10
-24.8803042308882
 20
208.8543761693908
 30
0.0
 11
-31.001180381497122
 21
208.8543761693908
 31
0.0
  0
LINE
  5
6CB
  8
DATA
  6
CONTINUOUS
 62
     7
 10
-45.734376699548577
 20
208.8543761693908
 30
0.0
 11
-40.001180381497107
 21
208.8543761693908
 31
0.0
  0
LINE
  5
6CC
  8
DATA
  6
CONTINUOUS
 62
     7
 10
-41.587625097758213
 20
241.3803683164561
 30
0.0
 11
-45.937625097758129
 21
241.3803683164561
 31
0.0
  0
LINE
  5
6CD
  8
DATA
  6
CONTINUOUS
 62
     7
 10
-42.537625097758202
 20
238.58036831645609
 30
0.0
 11
-45.937625097758129
 21
238.58036831645609
 31
0.0
  0
LINE
  5
6CE
  8
DATA
  6
CONTINUOUS
 62
     7
 10
-45.937625097758129
 20
241.3803683164561
 30
0.0
 11
-46.887625097758118
 21
241.3803683164561
 31
0.0
  0
LINE
  5
6CF
  8
DATA
  6
CONTINUOUS
 62
     7
 10
-42.537625097758202
 20
238.58036831645609
 30
0.0
 11
-42.187625097758172
 21
241.18036831645611
 31
0.0
  0
LINE
  5
6D0
  8
DATA
  6
CONTINUOUS
 62
     7
 10
-45.937625097758129
 20
238.58036831645609
 30
0.0
 11
-46.287625097758152
 21
241.18036831645611
 31
0.0
  0
LINE
  5
6D1
  8
DATA
  6
CONTINUOUS
 62
     7
 10
-46.887625097758118
 20
241.3803683164561
 30
0.0
 11
-46.887625097758118
 21
241.18036831645611
 31
0.0
  0
LINE
  5
6D2
  8
DATA
  6
CONTINUOUS
 62
     7
 10
-41.587625097758213
 20
241.3803683164561
 30
0.0
 11
-41.587625097758213
 21
241.18036831645611
 31
0.0
  0
LINE
  5
6D3
  8
DATA
  6
CONTINUOUS
 62
     7
 10
-46.887625097758118
 20
241.18036831645611
 30
0.0
 11
-41.597625097758211
 21
241.18036831645611
 31
0.0
  0
LINE
  5
6D4
  8
DATA
  6
CONTINUOUS
 62
     7
 10
-41.595170032081498
 20
237.99534204813091
 30
0.0
 11
-45.945170032081407
 21
237.99534204813091
 31
0.0
  0
LINE
  5
6D5
  8
DATA
  6
CONTINUOUS
 62
     7
 10
-42.545170032081487
 20
235.1953420481309
 30
0.0
 11
-45.945170032081407
 21
235.1953420481309
 31
0.0
  0
LINE
  5
6D6
  8
DATA
  6
CONTINUOUS
 62
     7
 10
-45.945170032081407
 20
237.99534204813091
 30
0.0
 11
-46.895170032081381
 21
237.99534204813091
 31
0.0
  0
LINE
  5
6D7
  8
DATA
  6
CONTINUOUS
 62
     7
 10
-42.545170032081487
 20
235.1953420481309
 30
0.0
 11
-42.19517003208145
 21
237.79534204813089
 31
0.0
  0
LINE
  5
6D8
  8
DATA
  6
CONTINUOUS
 62
     7
 10
-45.945170032081407
 20
235.1953420481309
 30
0.0
 11
-46.295170032081423
 21
237.79534204813089
 31
0.0
  0
LINE
  5
6D9
  8
DATA
  6
CONTINUOUS
 62
     7
 10
-46.895170032081381
 20
237.99534204813091
 30
0.0
 11
-46.895170032081381
 21
237.79534204813089
 31
0.0
  0
LINE
  5
6DA
  8
DATA
  6
CONTINUOUS
 62
     7
 10
-46.895170032081381
 20
237.79534204813089
 30
0.0
 11
-41.605170032081489
 21
237.79534204813089
 31
0.0
  0
LINE
  5
6DB
  8
DATA
  6
CONTINUOUS
 62
     7
 10
-34.916331666508952
 20
237.99534204813091
 30
0.0
 11
-39.266331666508663
 21
237.99534204813091
 31
0.0
  0
LINE
  5
6DC
  8
DATA
  6
CONTINUOUS
 62
     7
 10
-35.866331666508927
 20
235.1953420481309
 30
0.0
 11
-39.266331666508663
 21
235.1953420481309
 31
0.0
  0
LINE
  5
6DD
  8
DATA
  6
CONTINUOUS
 62
     7
 10
-39.266331666508663
 20
237.99534204813091
 30
0.0
 11
-40.216331666508673
 21
237.99534204813091
 31
0.0
  0
LINE
  5
6DE
  8
DATA
  6
CONTINUOUS
 62
     7
 10
-35.866331666508927
 20
235.1953420481309
 30
0.0
 11
-35.516331666508933
 21
237.79534204813089
 31
0.0
  0
LINE
  5
6DF
  8
DATA
  6
CONTINUOUS
 62
     7
 10
-39.266331666508663
 20
235.1953420481309
 30
0.0
 11
-39.616331666508692
 21
237.79534204813089
 31
0.0
  0
LINE
  5
6E0
  8
DATA
  6
CONTINUOUS
 62
     7
 10
-40.216331666508673
 20
237.99534204813091
 30
0.0
 11
-40.216331666508673
 21
237.79534204813089
 31
0.0
  0
LINE
  5
6E1
  8
DATA
  6
CONTINUOUS
 62
     7
 10
-34.916331666508952
 20
237.99534204813091
 30
0.0
 11
-34.916331666508952
 21
237.79534204813089
 31
0.0
  0
LINE
  5
6E2
  8
DATA
  6
CONTINUOUS
 62
     7
 10
-40.216331666508673
 20
237.79534204813089
 30
0.0
 11
-34.926331666508943
 21
237.79534204813089
 31
0.0
  0
LINE
  5
6E3
  8
DATA
  6
CONTINUOUS
 62
     7
 10
-34.80118038149709
 20
241.36755714227249
 30
0.0
 11
-39.151180381497007
 21
241.36755714227249
 31
0.0
  0
LINE
  5
6E4
  8
DATA
  6
CONTINUOUS
 62
     7
 10
-39.151180381497007
 20
241.36755714227249
 30
0.0
 11
-40.101180381497031
 21
241.36755714227249
 31
0.0
  0
LINE
  5
6E5
  8
DATA
  6
CONTINUOUS
 62
     7
 10
-35.603103458420172
 20
239.66755714227239
 30
0.0
 11
-35.40118038149707
 21
241.16755714227239
 31
0.0
  0
LINE
  5
6E6
  8
DATA
  6
CONTINUOUS
 62
     7
 10
-39.299257304573942
 20
239.66755714227239
 30
0.0
 11
-39.501180381497029
 21
241.16755714227239
 31
0.0
  0
LINE
  5
6E7
  8
DATA
  6
CONTINUOUS
 62
     7
 10
-40.101180381497031
 20
241.36755714227249
 30
0.0
 11
-40.101180381497031
 21
241.16755714227239
 31
0.0
  0
LINE
  5
6E8
  8
DATA
  6
CONTINUOUS
 62
     7
 10
-34.80118038149709
 20
241.36755714227249
 30
0.0
 11
-34.80118038149709
 21
241.16755714227239
 31
0.0
  0
LINE
  5
6E9
  8
DATA
  6
CONTINUOUS
 62
     7
 10
-40.101180381497031
 20
241.16755714227239
 30
0.0
 11
-34.811180381497088
 21
241.16755714227239
 31
0.0
  0
LINE
  5
6EA
  8
DATA
  6
CONTINUOUS
 62
     7
 10
-35.603103458420172
 20
239.66755714227239
 30
0.0
 11
-39.299257304573942
 21
239.66755714227239
 31
0.0
  0
LINE
  5
6EB
  8
DATA
  6
CONTINUOUS
 62
     7
 10
-41.595170032081498
 20
237.99534204813091
 30
0.0
 11
-41.595170032081498
 21
237.7939143279298
 31
0.0
  0
TEXT
  5
6EC
  8
DATA
 62
     7
 10
181.15989881865909
 20
-220.42126151706319
 30
0.0
 40
1.764577907986109
  1
HIGH OUTPUT
 41
0.7
 11
181.15989881865909
 21
-218.65668360907711
 31
0.0
 73
     3
  0
LINE
  5
6ED
  8
DATA
  6
CONTINUOUS
 62
     7
 10
258.00000000007338
 20
-224.9999999997151
 30
0.0
 11
258.00000000007338
 21
-179.99900602341529
 31
0.0
  0
LINE
  5
6EE
  8
DATA
  6
CONTINUOUS
 62
     7
 10
258.00000000020128
 20
-75.000000000186262
 30
0.0
 11
258.00000000020128
 21
-72.000000000186276
 31
0.0
  0
LINE
  5
6EF
  8
DATA
  6
CONTINUOUS
 62
     7
 10
235.00000000020009
 20
74.999999999813738
 30
0.0
 11
-202.9999999997988
 21
74.999999999813738
 31
0.0
  0
LINE
  5
6F0
  8
DATA
  6
CONTINUOUS
 62
     7
 10
-179.49999999992659
 20
-218.9999999997151
 30
0.0
 11
-179.49999999992659
 21
-188.99900602341529
 31
0.0
  0
LINE
  5
6F1
  8
DATA
  6
CONTINUOUS
 62
     7
 10
211.0000000000733
 20
-218.9999999997151
 30
0.0
 11
211.0000000000733
 21
-188.99900602341529
 31
0.0
  0
LINE
  5
6F2
  8
DATA
  6
CONTINUOUS
 62
     7
 10
-177.49999999992659
 20
-186.99900602341529
 30
0.0
 11
6.4587024265455124
 21
-186.99900602341529
 31
0.0
  0
LINE
  5
6F3
  8
DATA
  6
CONTINUOUS
 62
     7
 10
27.4587024265455
 20
-186.99900602341529
 30
0.0
 11
209.0000000000733
 21
-186.99900602341529
 31
0.0
  0
LINE
  5
6F4
  8
DATA
  6
CONTINUOUS
 62
     7
 10
-177.49999999992659
 20
-220.9999999997151
 30
0.0
 11
6.4587024265455124
 21
-220.9999999997151
 31
0.0
  0
LINE
  5
6F5
  8
DATA
  6
CONTINUOUS
 62
     7
 10
27.4587024265455
 20
-220.9999999997151
 30
0.0
 11
209.0000000000733
 21
-220.9999999997151
 31
0.0
  0
LINE
  5
6F6
  8
DATA
  6
CONTINUOUS
 62
     7
 10
8.4587024265455142
 20
-218.9999999997151
 30
0.0
 11
8.4587024265455142
 21
-188.99900602341529
 31
0.0
  0
LINE
  5
6F7
  8
DATA
  6
CONTINUOUS
 62
     7
 10
25.4587024265455
 20
-188.99900602341529
 30
0.0
 11
25.4587024265455
 21
-218.9999999997151
 31
0.0
  0
ARC
  5
6F8
  8
DATA
  6
CONTINUOUS
 62
     7
 10
-177.49999999992659
 20
-188.99900602341529
 30
0.0
 40
2.0
 50
90.0
 51
180.0
  0
ARC
  5
6F9
  8
DATA
  6
CONTINUOUS
 62
     7
 10
-177.49999999992659
 20
-218.9999999997151
 30
0.0
 40
2.0
 50
180.0
 51
270.0
  0
ARC
  5
6FA
  8
DATA
  6
CONTINUOUS
 62
     7
 10
6.4587024265455124
 20
-188.99900602341529
 30
0.0
 40
2.0
 50
0.0
 51
90.0
  0
ARC
  5
6FB
  8
DATA
  6
CONTINUOUS
 62
     7
 10
6.4587024265455124
 20
-218.9999999997151
 30
0.0
 40
2.0
 50
270.0
 51
0.0
  0
ARC
  5
6FC
  8
DATA
  6
CONTINUOUS
 62
     7
 10
27.4587024265455
 20
-188.99900602341529
 30
0.0
 40
2.0
 50
90.0
 51
180.0
  0
ARC
  5
6FD
  8
DATA
  6
CONTINUOUS
 62
     7
 10
27.4587024265455
 20
-218.9999999997151
 30
0.0
 40
2.0
 50
180.0
 51
270.0
  0
ARC
  5
6FE
  8
DATA
  6
CONTINUOUS
 62
     7
 10
209.0000000000733
 20
-188.99900602341529
 30
0.0
 40
2.0
 50
0.0
 51
90.0
  0
ARC
  5
6FF
  8
DATA
  6
CONTINUOUS
 62
     7
 10
209.0000000000733
 20
-218.9999999997151
 30
0.0
 40
2.0
 50
270.0
 51
0.0
  0
LINE
  5
700
  8
DATA
  6
CONTINUOUS
 62
     7
 10
223.48106362048929
 20
233.36417650222171
 30
0.0
 11
223.4213952752697
 21
233.36417650222171
 31
0.0
  0
LINE
  5
701
  8
DATA
  6
CONTINUOUS
 62
     7
 10
226.15837270181001
 20
230.69862405212339
 30
0.0
 11
226.15837270181001
 21
230.7567393341858
 31
0.0
  0
POLYLINE
  5
702
  8
DATA
  6
CONTINUOUS
 62
     7
 66
     1
 10
0.0
 20
0.0
 30
0.0
  0
VERTEX
  5
8BC
  8
DATA
  6
CONTINUOUS
 62
     7
 10
226.15837270181001
 20
212.6766288495181
 30
0.0
  0
VERTEX
  5
8BD
  8
DATA
  6
CONTINUOUS
 62
     7
 10
226.15837270181001
 20
212.70800413864961
 30
0.0
  0
VERTEX
  5
8BE
  8
DATA
  6
CONTINUOUS
 62
     7
 10
226.15837270181001
 20
212.70800413864961
 30
0.0
  0
SEQEND
  5
8BF
  8
DATA
  6
CONTINUOUS
 62
     7
  0
POLYLINE
  5
708
  8
DATA
  6
CONTINUOUS
 62
     7
 66
     1
 10
0.0
 20
0.0
 30
0.0
  0
VERTEX
  5
8C0
  8
DATA
  6
CONTINUOUS
 62
     7
 10
198.047715629935
 20
210.0424516885484
 30
0.0
  0
VERTEX
  5
8C1
  8
DATA
  6
CONTINUOUS
 62
     7
 10
198.10738056182871
 20
210.0424516885484
 30
0.0
  0
VERTEX
  5
8C2
  8
DATA
  6
CONTINUOUS
 62
     7
 10
198.10738056182871
 20
210.0424516885484
 30
0.0
  0
SEQEND
  5
8C3
  8
DATA
  6
CONTINUOUS
 62
     7
  0
LINE
  5
70E
  8
DATA
  6
CONTINUOUS
 62
     7
 10
223.13196356073971
 20
233.36417650222171
 30
0.0
 11
198.3703166643725
 21
233.36417650222171
 31
0.0
  0
LINE
  5
70F
  8
DATA
  6
CONTINUOUS
 62
     7
 10
223.13196356073971
 20
210.0424516885484
 30
0.0
 11
198.3703166643725
 21
210.0424516885484
 31
0.0
  0
LINE
  5
710
  8
DATA
  6
CONTINUOUS
 62
     7
 10
195.3703166643725
 20
213.0424516885484
 30
0.0
 11
195.3703166643725
 21
230.36417650222171
 31
0.0
  0
LINE
  5
711
  8
DATA
  6
CONTINUOUS
 62
     7
 10
226.13196356073991
 20
213.0424516885484
 30
0.0
 11
226.13196356073991
 21
230.36417650222171
 31
0.0
  0
ARC
  5
712
  8
DATA
  6
CONTINUOUS
 62
     7
 10
198.3703166643725
 20
230.36417650222171
 30
0.0
 40
3.0
 50
90.0
 51
180.0
  0
ARC
  5
713
  8
DATA
  6
CONTINUOUS
 62
     7
 10
198.3703166643725
 20
213.0424516885484
 30
0.0
 40
3.0
 50
180.0
 51
270.0
  0
ARC
  5
714
  8
DATA
  6
CONTINUOUS
 62
     7
 10
223.13196356073971
 20
230.36417650222171
 30
0.0
 40
3.0000000000000981
 50
0.0
 51
90.0
  0
ARC
  5
715
  8
DATA
  6
CONTINUOUS
 62
     7
 10
223.13196356073971
 20
213.0424516885484
 30
0.0
 40
3.0
 50
270.0
 51
0.0
  0
LINE
  5
716
  8
DATA
  6
CONTINUOUS
 62
     7
 10
220.81697615471779
 20
214.1983180711255
 30
0.0
 11
200.9916108173307
 21
214.1983180711255
 31
0.0
  0
LINE
  5
717
  8
DATA
  6
CONTINUOUS
 62
     7
 10
198.9916108173307
 20
223.4295982551501
 30
0.0
 11
198.9916108173307
 21
216.1983180711255
 31
0.0
  0
LINE
  5
718
  8
DATA
  6
CONTINUOUS
 62
     7
 10
222.81697615471771
 20
223.42408474117741
 30
0.0
 11
222.81697615471771
 21
216.1983180711255
 31
0.0
  0
ARC
  5
719
  8
DATA
  6
CONTINUOUS
 62
     7
 10
200.9916108173307
 20
216.1983180711255
 30
0.0
 40
2.0
 50
180.0
 51
270.0
  0
ARC
  5
71A
  8
DATA
  6
CONTINUOUS
 62
     7
 10
220.81697615471779
 20
216.1983180711255
 30
0.0
 40
2.0
 50
270.0
 51
0.0
  0
LINE
  5
71B
  8
DATA
  6
CONTINUOUS
 62
     7
 10
216.36454848740939
 20
229.8765124084857
 30
0.0
 11
205.31240450643611
 21
229.8765124084857
 31
0.0
  0
LINE
  5
71C
  8
DATA
  6
CONTINUOUS
 62
     7
 10
199.5572026738657
 20
224.82332465511581
 30
0.0
 11
203.8779963629712
 21
229.27023880845141
 31
0.0
  0
LINE
  5
71D
  8
DATA
  6
CONTINUOUS
 62
     7
 10
222.2311897170909
 20
224.8382983035504
 30
0.0
 11
217.7787620497825
 21
229.2907259708588
 31
0.0
  0
ARC
  5
71E
  8
DATA
  6
CONTINUOUS
 62
     7
 10
205.31240450643611
 20
227.87651240848561
 30
0.0
 40
2.0000000000000142
 50
90.0
 51
135.82412325926731
  0
ARC
  5
71F
  8
DATA
  6
CONTINUOUS
 62
     7
 10
216.36454848740939
 20
227.87651240848561
 30
0.0
 40
2.0000000000000262
 50
44.999999999999133
 51
89.999999999999176
  0
ARC
  5
720
  8
DATA
  6
CONTINUOUS
 62
     7
 10
200.9916108173307
 20
223.4295982551501
 30
0.0
 40
1.999999999999998
 50
135.82412325926961
 51
180.0
  0
ARC
  5
721
  8
DATA
  6
CONTINUOUS
 62
     7
 10
220.81697615471779
 20
223.4240847411773
 30
0.0
 40
1.9999999999998861
 50
0.0000000000003979
 51
45.000000000001421
  0
LINE
  5
722
  8
DATA
  6
CONTINUOUS
 62
     7
 10
202.8555800436709
 20
217.22903290205599
 30
0.0
 11
202.8555800436709
 21
222.45510790205759
 31
0.0
  0
LINE
  5
723
  8
DATA
  6
CONTINUOUS
 62
     7
 10
204.19665504367001
 20
217.22903290205599
 30
0.0
 11
202.8555800436709
 21
217.22903290205599
 31
0.0
  0
LINE
  5
724
  8
DATA
  6
CONTINUOUS
 62
     7
 10
204.19665504367001
 20
222.45510790205759
 30
0.0
 11
204.19665504367001
 21
217.22903290205599
 31
0.0
  0
LINE
  5
725
  8
DATA
  6
CONTINUOUS
 62
     7
 10
202.8555800436709
 20
222.45510790205759
 30
0.0
 11
204.19665504367001
 21
222.45510790205759
 31
0.0
  0
LINE
  5
726
  8
DATA
  6
CONTINUOUS
 62
     7
 10
210.2337550436701
 20
221.35743290205789
 30
0.0
 11
210.2337550436701
 21
226.5836579020592
 31
0.0
  0
LINE
  5
727
  8
DATA
  6
CONTINUOUS
 62
     7
 10
211.57490504367041
 20
221.35743290205789
 30
0.0
 11
210.2337550436701
 21
221.35743290205789
 31
0.0
  0
LINE
  5
728
  8
DATA
  6
CONTINUOUS
 62
     7
 10
211.57490504367041
 20
226.5836579020592
 30
0.0
 11
211.57490504367041
 21
221.35743290205789
 31
0.0
  0
LINE
  5
729
  8
DATA
  6
CONTINUOUS
 62
     7
 10
210.2337550436701
 20
226.5836579020592
 30
0.0
 11
211.57490504367041
 21
226.5836579020592
 31
0.0
  0
LINE
  5
72A
  8
DATA
  6
CONTINUOUS
 62
     7
 10
217.6120300436707
 20
217.22920790205839
 30
0.0
 11
217.6120300436707
 21
222.45528290205721
 31
0.0
  0
LINE
  5
72B
  8
DATA
  6
CONTINUOUS
 62
     7
 10
218.95308004367001
 20
217.22920790205839
 30
0.0
 11
217.6120300436707
 21
217.22920790205839
 31
0.0
  0
LINE
  5
72C
  8
DATA
  6
CONTINUOUS
 62
     7
 10
218.95308004367001
 20
222.45528290205721
 30
0.0
 11
218.95308004367001
 21
217.22920790205839
 31
0.0
  0
LINE
  5
72D
  8
DATA
  6
CONTINUOUS
 62
     7
 10
217.6120300436707
 20
222.45528290205721
 30
0.0
 11
218.95308004367001
 21
222.45528290205721
 31
0.0
  0
LINE
  5
72E
  8
DATA
  6
CONTINUOUS
 62
     7
 10
369.99999999974
 20
-222.1499999996708
 30
0.0
 11
369.99999999974
 21
-217.8499999996709
 31
0.0
  0
LINE
  5
72F
  8
DATA
  6
CONTINUOUS
 62
     7
 10
367.84999999974008
 20
-219.99999999967079
 30
0.0
 11
372.14999999974009
 21
-219.99999999967079
 31
0.0
  0
LINE
  5
730
  8
DATA
  6
CONTINUOUS
 62
     7
 10
481.99999999974091
 20
-222.1499999996708
 30
0.0
 11
481.99999999974091
 21
-217.8499999996709
 31
0.0
  0
LINE
  5
731
  8
DATA
  6
CONTINUOUS
 62
     7
 10
479.84999999974087
 20
-219.99999999967079
 30
0.0
 11
484.14999999974088
 21
-219.99999999967079
 31
0.0
  0
LINE
  5
732
  8
DATA
  6
CONTINUOUS
 62
     7
 10
-186.05874373553399
 20
230.90110520236809
 30
0.0
 11
-186.05874373553399
 21
234.401105202368
 31
0.0
  0
LINE
  5
733
  8
DATA
  6
CONTINUOUS
 62
     7
 10
-187.78160045128001
 20
232.651105202368
 30
0.0
 11
-184.28160045128001
 21
232.651105202368
 31
0.0
  0
LINE
  5
734
  8
DATA
  6
CONTINUOUS
 62
     7
 10
-166.25784046521861
 20
211.0995157400385
 30
0.0
 11
-166.25784046521861
 21
214.59951574003841
 31
0.0
  0
LINE
  5
735
  8
DATA
  6
CONTINUOUS
 62
     7
 10
-167.9806971809646
 20
212.8495157400385
 30
0.0
 11
-164.48069718096471
 21
212.8495157400385
 31
0.0
  0
LINE
  5
736
  8
DATA
  6
CONTINUOUS
 62
     7
 10
-142.87768708724701
 20
232.9209776358133
 30
0.0
 11
-139.3776870872469
 21
232.9209776358133
 31
0.0
  0
LINE
  5
737
  8
DATA
  6
CONTINUOUS
 62
     7
 10
-141.15483037150091
 20
231.16938817348361
 30
0.0
 11
-141.15483037150091
 21
234.66938817348361
 31
0.0
  0
LINE
  5
738
  8
DATA
  6
CONTINUOUS
 62
     7
 10
-123.0801739532464
 20
213.11759469559081
 30
0.0
 11
-119.5801739532464
 21
213.11759469559081
 31
0.0
  0
LINE
  5
739
  8
DATA
  6
CONTINUOUS
 62
     7
 10
-121.3573172375003
 20
211.36759469559081
 30
0.0
 11
-121.3573172375003
 21
214.86759469559081
 31
0.0
  0
LINE
  5
73A
  8
DATA
  6
CONTINUOUS
 62
     7
 10
-114.65483037150101
 20
231.16938817348361
 30
0.0
 11
-114.65483037150101
 21
234.66938817348361
 31
0.0
  0
LINE
  5
73B
  8
DATA
  6
CONTINUOUS
 62
     7
 10
-116.377687087247
 20
232.91938817348361
 30
0.0
 11
-112.8776870872469
 21
232.91938817348361
 31
0.0
  0
LINE
  5
73C
  8
DATA
  6
CONTINUOUS
 62
     7
 10
-96.580173953246415
 20
213.11759469559081
 30
0.0
 11
-93.080173953246472
 21
213.11759469559081
 31
0.0
  0
LINE
  5
73D
  8
DATA
  6
CONTINUOUS
 62
     7
 10
-94.857317237500425
 20
211.36759469559081
 30
0.0
 11
-94.857317237500425
 21
214.86759469559081
 31
0.0
  0
LINE
  5
73E
  8
DATA
  6
CONTINUOUS
 62
     7
 10
-88.164681633513226
 20
231.16938817348361
 30
0.0
 11
-88.164681633513226
 21
234.66938817348361
 31
0.0
  0
LINE
  5
73F
  8
DATA
  6
CONTINUOUS
 62
     7
 10
-89.887538349259401
 20
232.91938817348361
 30
0.0
 11
-86.387538349259259
 21
232.91938817348361
 31
0.0
  0
LINE
  5
740
  8
DATA
  6
CONTINUOUS
 62
     7
 10
-68.367168499512857
 20
211.36759469559081
 30
0.0
 11
-68.367168499512857
 21
214.86759469559081
 31
0.0
  0
LINE
  5
741
  8
DATA
  6
CONTINUOUS
 62
     7
 10
-70.090025215258791
 20
213.11759469559081
 30
0.0
 11
-66.590025215259075
 21
213.11759469559081
 31
0.0
  0
LINE
  5
742
  8
DATA
  6
CONTINUOUS
 62
     7
 10
-18.05874373553393
 20
230.90110520236809
 30
0.0
 11
-18.05874373553393
 21
234.401105202368
 31
0.0
  0
LINE
  5
743
  8
DATA
  6
CONTINUOUS
 62
     7
 10
-19.781600451279971
 20
232.65269466469769
 30
0.0
 11
-16.281600451279971
 21
232.65269466469769
 31
0.0
  0
LINE
  5
744
  8
DATA
  6
CONTINUOUS
 62
     7
 10
1.742159534781379
 20
211.0995157400385
 30
0.0
 11
1.742159534781379
 21
214.59951574003841
 31
0.0
  0
LINE
  5
745
  8
DATA
  6
CONTINUOUS
 62
     7
 10
1.742159534781379
 20
211.0995157400385
 30
0.0
 11
1.742159534781379
 21
214.59951574003841
 31
0.0
  0
LINE
  5
746
  8
DATA
  6
CONTINUOUS
 62
     7
 10
0.0193028190353601
 20
212.8495157400385
 30
0.0
 11
3.5193028190353322
 21
212.8495157400385
 31
0.0
  0
LINE
  5
747
  8
DATA
  6
CONTINUOUS
 62
     7
 10
119.0998632650148
 20
217.95704684997921
 30
0.0
 11
119.0998632650148
 21
222.25704684997919
 31
0.0
  0
LINE
  5
748
  8
DATA
  6
CONTINUOUS
 62
     7
 10
116.9498632650149
 20
220.10704684997921
 30
0.0
 11
121.2498632650148
 21
220.10704684997921
 31
0.0
  0
LINE
  5
749
  8
DATA
  6
CONTINUOUS
 62
     7
 10
152.09986326501479
 20
217.95704684997921
 30
0.0
 11
152.09986326501479
 21
222.25704684997919
 31
0.0
  0
LINE
  5
74A
  8
DATA
  6
CONTINUOUS
 62
     7
 10
149.94986326501481
 20
220.10704684997921
 30
0.0
 11
154.2498632650148
 21
220.10704684997921
 31
0.0
  0
LINE
  5
74B
  8
DATA
  6
CONTINUOUS
 62
     7
 10
149.94986326501481
 20
220.10704684997921
 30
0.0
 11
154.2498632650148
 21
220.10704684997921
 31
0.0
  0
LINE
  5
74C
  8
DATA
  6
CONTINUOUS
 62
     7
 10
26.845169628499079
 20
231.16938817348361
 30
0.0
 11
26.845169628499079
 21
234.66938817348361
 31
0.0
  0
LINE
  5
74D
  8
DATA
  6
CONTINUOUS
 62
     7
 10
25.122312912752971
 20
232.91938817348361
 30
0.0
 11
28.622312912753049
 21
232.91938817348361
 31
0.0
  0
LINE
  5
74E
  8
DATA
  6
CONTINUOUS
 62
     7
 10
46.642682762499611
 20
211.36759469559081
 30
0.0
 11
46.642682762499611
 21
214.86759469559081
 31
0.0
  0
LINE
  5
74F
  8
DATA
  6
CONTINUOUS
 62
     7
 10
44.919826046753641
 20
213.11759469559081
 30
0.0
 11
48.419826046753542
 21
213.11759469559081
 31
0.0
  0
LINE
  5
750
  8
DATA
  6
CONTINUOUS
 62
     7
 10
53.3451696284991
 20
231.16938817348361
 30
0.0
 11
53.3451696284991
 21
234.66938817348361
 31
0.0
  0
LINE
  5
751
  8
DATA
  6
CONTINUOUS
 62
     7
 10
51.622312912752982
 20
232.91938817348361
 30
0.0
 11
55.12231291275306
 21
232.91938817348361
 31
0.0
  0
LINE
  5
752
  8
DATA
  6
CONTINUOUS
 62
     7
 10
78.112461650740642
 20
232.9209776358133
 30
0.0
 11
81.612461650740713
 21
232.91938817348361
 31
0.0
  0
LINE
  5
753
  8
DATA
  6
CONTINUOUS
 62
     7
 10
79.862461650740698
 20
231.16938817348361
 30
0.0
 11
79.835318366486774
 21
234.66938817348361
 31
0.0
  0
LINE
  5
754
  8
DATA
  6
CONTINUOUS
 62
     7
 10
73.142682762499632
 20
211.36759469559081
 30
0.0
 11
73.142682762499632
 21
214.86759469559081
 31
0.0
  0
LINE
  5
755
  8
DATA
  6
CONTINUOUS
 62
     7
 10
71.419826046753656
 20
213.11759469559081
 30
0.0
 11
74.919826046753556
 21
213.11759469559081
 31
0.0
  0
LINE
  5
756
  8
DATA
  6
CONTINUOUS
 62
     7
 10
99.632831500487171
 20
211.36759469559081
 30
0.0
 11
99.632831500487171
 21
214.86759469559081
 31
0.0
  0
LINE
  5
757
  8
DATA
  6
CONTINUOUS
 62
     7
 10
97.909974784741294
 20
213.11759469559081
 30
0.0
 11
101.4099747847409
 21
213.11759469559081
 31
0.0
  0
ENDSEC
  0
EOF
