  0
SECTION
  2
HEADER
  9
$ACADVER
  1
AC1009
  9
$INSBASE
 10
0.0
 20
0.0
 30
0.0
  9
$EXTMIN
 10
-80.010985489947416
 20
-131.71201227911089
 30
-0.0015258207003583
  9
$EXTMAX
 10
280.01098716632811
 20
403.5481165140169
 30
0.0000000349246037
  9
$LIMMIN
 10
0.0
 20
0.0
  9
$LIMMAX
 10
0.0
 20
0.0
  9
$ORTHOMODE
 70
     0
  9
$REGENMODE
 70
     1
  9
$FILLMODE
 70
     1
  9
$QTEXTMODE
 70
     0
  9
$MIRRTEXT
 70
     1
  9
$DRAGMODE
 70
     2
  9
$LTSCALE
 40
10.16
  9
$OSMODE
 70
   167
  9
$ATTMODE
 70
     1
  9
$TEXTSIZE
 40
0.0
  9
$TRACEWID
 40
1.0
  9
$TEXTSTYLE
  7
STANDARD
  9
$CLAYER
  8
DATA
  9
$CELTYPE
  6
CONTINUOUS
  9
$CECOLOR
 62
   256
  9
$DIMSCALE
 40
1.0
  9
$DIMASZ
 40
0.18
  9
$DIMEXO
 40
0.0625
  9
$DIMDLI
 40
0.38
  9
$DIMRND
 40
0.0
  9
$DIMDLE
 40
0.0
  9
$DIMEXE
 40
0.18
  9
$DIMTP
 40
0.0
  9
$DIMTM
 40
0.0
  9
$DIMTXT
 40
0.18
  9
$DIMCEN
 40
0.09
  9
$DIMTSZ
 40
0.0
  9
$DIMTOL
 70
     0
  9
$DIMLIM
 70
     0
  9
$DIMTIH
 70
     1
  9
$DIMTOH
 70
     1
  9
$DIMSE1
 70
     0
  9
$DIMSE2
 70
     0
  9
$DIMTAD
 70
     0
  9
$DIMZIN
 70
     0
  9
$DIMBLK
  1

  9
$DIMASO
 70
     1
  9
$DIMSHO
 70
     1
  9
$DIMPOST
  1

  9
$DIMAPOST
  1

  9
$DIMALT
 70
     0
  9
$DIMALTD
 70
     2
  9
$DIMALTF
 40
25.399999999999999
  9
$DIMLFAC
 40
1.0
  9
$DIMTOFL
 70
     0
  9
$DIMTVP
 40
0.0
  9
$DIMTIX
 70
     0
  9
$DIMSOXD
 70
     0
  9
$DIMSAH
 70
     0
  9
$DIMBLK1
  1

  9
$DIMBLK2
  1

  9
$DIMSTYLE
  2
STANDARD
  9
$DIMCLRD
 70
     0
  9
$DIMCLRE
 70
     0
  9
$DIMCLRT
 70
     0
  9
$DIMTFAC
 40
1.0
  9
$DIMGAP
 40
0.09
  9
$LUNITS
 70
     2
  9
$LUPREC
 70
     4
  9
$SKETCHINC
 40
0.1
  9
$FILLETRAD
 40
0.0
  9
$AUNITS
 70
     0
  9
$AUPREC
 70
     0
  9
$MENU
  1
acad
  9
$ELEVATION
 40
0.0
  9
$PELEVATION
 40
0.0
  9
$THICKNESS
 40
0.0
  9
$LIMCHECK
 70
     0
  9
$BLIPMODE
 70
     0
  9
$CHAMFERA
 40
0.0
  9
$CHAMFERB
 40
0.0
  9
$SKPOLY
 70
     0
  9
$TDCREATE
 40
2453187.8201736109
  9
$TDUPDATE
 40
2453187.8383284491
  9
$TDINDWG
 40
0.0001953125
  9
$TDUSRTIMER
 40
0.0001951273
  9
$USRTIMER
 70
     1
  9
$ANGBASE
 50
0.0
  9
$ANGDIR
 70
     0
  9
$PDMODE
 70
     1
  9
$PDSIZE
 40
-2.0
  9
$PLINEWID
 40
0.0
  9
$COORDS
 70
     0
  9
$SPLFRAME
 70
     0
  9
$SPLINETYPE
 70
     6
  9
$SPLINESEGS
 70
     8
  9
$ATTDIA
 70
     0
  9
$ATTREQ
 70
     1
  9
$HANDLING
 70
     1
  9
$HANDSEED
  5
F9
  9
$SURFTAB1
 70
     6
  9
$SURFTAB2
 70
     6
  9
$SURFTYPE
 70
     6
  9
$SURFU
 70
     6
  9
$SURFV
 70
     6
  9
$UCSNAME
  2

  9
$UCSORG
 10
0.0
 20
0.0
 30
0.0
  9
$UCSXDIR
 10
1.0
 20
0.0
 30
0.0
  9
$UCSYDIR
 10
0.0
 20
1.0
 30
0.0
  9
$PUCSNAME
  2

  9
$PUCSORG
 10
0.0
 20
0.0
 30
0.0
  9
$PUCSXDIR
 10
1.0
 20
0.0
 30
0.0
  9
$PUCSYDIR
 10
0.0
 20
1.0
 30
0.0
  9
$USERI1
 70
     0
  9
$USERI2
 70
     0
  9
$USERI3
 70
     0
  9
$USERI4
 70
     0
  9
$USERI5
 70
     0
  9
$USERR1
 40
0.0
  9
$USERR2
 40
0.0
  9
$USERR3
 40
0.0
  9
$USERR4
 40
0.0
  9
$USERR5
 40
0.0
  9
$WORLDVIEW
 70
     1
  9
$SHADEDGE
 70
     3
  9
$SHADEDIF
 70
    70
  9
$TILEMODE
 70
     1
  9
$MAXACTVP
 70
    16
  9
$PLIMCHECK
 70
     0
  9
$PEXTMIN
 10
1.0000000000000000E+020
 20
1.0000000000000000E+020
 30
1.0000000000000000E+020
  9
$PEXTMAX
 10
-1.0000000000000000E+020
 20
-1.0000000000000000E+020
 30
-1.0000000000000000E+020
  9
$PLIMMIN
 10
0.0
 20
0.0
  9
$PLIMMAX
 10
12.0
 20
9.0
  9
$UNITMODE
 70
     0
  9
$VISRETAIN
 70
     0
  9
$PLINEGEN
 70
     1
  9
$PSLTSCALE
 70
     0
  0
ENDSEC
  0
SECTION
  2
TABLES
  0
TABLE
  2
VPORT
 70
     2
  0
VPORT
  2
*ACTIVE
 70
     0
 10
0.0
 20
0.0
 11
1.0
 21
1.0
 12
100.0000008381903
 22
135.91805211745299
 13
0.0
 23
0.0
 14
1.0
 24
1.0
 15
0.0
 25
0.0
 16
0.0
 26
0.0
 36
1.0
 17
0.0
 27
0.0
 37
0.0
 40
539.51385167095407
 41
1.5994694960212199
 42
50.0
 43
0.0
 44
0.0
 50
0.0
 51
0.0
 71
     0
 72
   100
 73
     1
 74
     1
 75
     0
 76
     0
 77
     0
 78
     0
  0
ENDTAB
  0
TABLE
  2
LTYPE
 70
    11
  0
LTYPE
  2
CONTINUOUS
 70
     0
  3
Solid line
 72
    65
 73
     0
 40
0.0
  0
ENDTAB
  0
TABLE
  2
LAYER
 70
     6
  0
LAYER
  2
0
 70
     0
 62
     7
  6
CONTINUOUS
  0
LAYER
  2
DATA
 70
     0
 62
     7
  6
CONTINUOUS
  0
LAYER
  2
DEFPOINTS
 70
     0
 62
     7
  6
CONTINUOUS
  0
LAYER
  2
HIBINO-BASE
 70
     0
 62
     7
  6
CONTINUOUS
  0
LAYER
  2
SPEC
 70
     0
 62
     7
  6
CONTINUOUS
  0
LAYER
  2
DIMNSIONS
 70
     0
 62
     7
  6
CONTINUOUS
  0
ENDTAB
  0
TABLE
  2
STYLE
 70
     3
  0
STYLE
  2
STANDARD
 70
     0
 40
0.0
 41
1.0
 50
0.0
 71
     0
 42
0.0
  3
txt
  4
BIGFONT.SHX
  0
ENDTAB
  0
TABLE
  2
VIEW
 70
     0
  0
ENDTAB
  0
TABLE
  2
UCS
 70
     0
  0
ENDTAB
  0
TABLE
  2
APPID
 70
     1
  0
APPID
  2
ACAD
 70
     0
  0
ENDTAB
  0
TABLE
  2
DIMSTYLE
 70
     1
  0
DIMSTYLE
  2
STANDARD
 70
     0
  3

  4

  5

  6

  7

 40
1.0
 41
0.18
 42
0.0625
 43
0.38
 44
0.18
 45
0.0
 46
0.0
 47
0.0
 48
0.0
140
0.18
141
0.09
142
0.0
143
25.399999999999999
144
1.0
145
0.0
146
1.0
147
0.09
 71
     0
 72
     0
 73
     1
 74
     1
 75
     0
 76
     0
 77
     0
 78
     0
170
     0
171
     2
172
     0
173
     0
174
     0
175
     0
176
     0
177
     0
178
     0
  0
ENDTAB
  0
ENDSEC
  0
SECTION
  2
BLOCKS
  0
BLOCK
  8
0
  2
$MODEL_SPACE
 70
     0
 10
0.0
 20
0.0
 30
0.0
  3
$MODEL_SPACE
  1

  0
ENDBLK
  5
CD
  8
0
  0
BLOCK
 67
     1
  8
0
  2
$PAPER_SPACE
 70
     0
 10
0.0
 20
0.0
 30
0.0
  3
$PAPER_SPACE
  1

  0
ENDBLK
  5
C9
 67
     1
  8
0
  0
ENDSEC
  0
SECTION
  2
ENTITIES
  0
LINE
  5
2E
  8
HIBINO-BASE
  6
CONTINUOUS
 62
     7
 10
-79.999999999999986
 20
403.53181499999999
 30
0.0
 11
279.99999999999989
 21
403.53181499999999
 31
0.0
  0
LINE
  5
2F
  8
HIBINO-BASE
  6
CONTINUOUS
 62
     7
 10
279.99999999999989
 20
-116.46818500000001
 30
0.0
 11
-79.999999999999986
 21
-116.46818500000001
 31
0.0
  0
LINE
  5
30
  8
HIBINO-BASE
  6
CONTINUOUS
 62
     7
 10
-79.999999999999986
 20
-116.46818500000001
 30
0.0
 11
-79.999999999999986
 21
403.53181499999999
 31
0.0
  0
TEXT
  5
31
  8
HIBINO-BASE
 62
     7
 10
-65.631999999999991
 20
-129.2855405999999
 30
0.0
 40
7.2000883593749991
  1
Hibino Corporation
 41
0.8
 11
-65.631999999999991
 21
-122.0854522406249
 31
0.0
 73
     3
  0
LINE
  5
32
  8
HIBINO-BASE
  6
CONTINUOUS
 62
     7
 10
279.99999999999989
 20
403.53181499999999
 30
0.0
 11
279.99999999999989
 21
-116.46818500000001
 31
0.0
  0
LINE
  5
33
  8
HIBINO-BASE
  6
CONTINUOUS
 62
     7
 10
100.0
 20
-71.468184999999977
 30
0.0
 11
279.99999999999989
 21
-71.468184999999977
 31
0.0
  0
LINE
  5
34
  8
HIBINO-BASE
  6
CONTINUOUS
 62
     7
 10
100.0
 20
-116.46818500000001
 30
0.0
 11
100.0
 21
-71.468184999999977
 31
0.0
  0
TEXT
  5
35
  8
HIBINO-BASE
 62
     7
 10
101.8
 20
-76.485571666666644
 30
0.0
 40
3.2576822916666659
  1
NOTE
 41
0.8
 11
101.8
 21
-73.227889374999975
 31
0.0
 73
     3
  0
LINE
  5
36
  8
HIBINO-BASE
  6
CONTINUOUS
 62
     7
 10
170.0
 20
-116.46818500000001
 30
0.0
 11
170.0
 21
-71.468184999999977
 31
0.0
  0
TEXT
  5
37
  8
HIBINO-BASE
 62
     7
 10
171.7999999999999
 20
-76.485571666666644
 30
0.0
 40
3.2576822916666659
  1
TITLE
 41
0.8
 11
171.7999999999999
 21
-73.227889374999975
 31
0.0
 73
     3
  0
TEXT
  5
38
  8
HIBINO-BASE
 62
     7
 10
200.13677999999999
 20
-129.2855405999999
 30
0.0
 40
7.2000883593749991
  1
ヒビノ株式会社
 41
0.8
 11
200.13677999999999
 21
-122.0854522406249
 31
0.0
 73
     3
  0
LINE
  5
39
  8
HIBINO-BASE
  6
CONTINUOUS
 62
     7
 10
100.0
 20
-96.468184999999963
 30
0.0
 11
279.99999999999989
 21
-96.468184999999963
 31
0.0
  0
TEXT
  5
3A
  8
HIBINO-BASE
 62
     7
 10
196.80000000000001
 20
-101.3729316666666
 30
0.0
 40
3.2576822916666659
  1
DRAWN
 41
0.8
 11
196.80000000000001
 21
-98.115249375000005
 31
0.0
 73
     3
  0
TEXT
  5
3B
  8
HIBINO-BASE
 62
     7
 10
146.7999999999999
 20
-101.3729316666666
 30
0.0
 40
3.2576822916666659
  1
DATE
 41
0.8
 11
146.7999999999999
 21
-98.115249375000005
 31
0.0
 73
     3
  0
TEXT
  5
3C
  8
HIBINO-BASE
 62
     7
 10
126.8
 20
-101.3729316666666
 30
0.0
 40
3.2576822916666659
  1
SCALE
 41
0.8
 11
126.8
 21
-98.115249375000005
 31
0.0
 73
     3
  0
TEXT
  5
3D
  8
HIBINO-BASE
 62
     7
 10
171.7999999999999
 20
-101.3729316666666
 30
0.0
 40
3.2576822916666659
  1
DESIGN
 41
0.8
 11
171.7999999999999
 21
-98.115249375000005
 31
0.0
 73
     3
  0
TEXT
  5
3E
  8
HIBINO-BASE
 62
     7
 10
246.7999999999999
 20
-101.3729316666666
 30
0.0
 40
3.2576822916666659
  1
DRAWING NO.
 41
0.8
 11
246.7999999999999
 21
-98.115249375000005
 31
0.0
 73
     3
  0
TEXT
  5
3F
  8
HIBINO-BASE
 62
     7
 10
221.7999999999999
 20
-101.3729316666666
 30
0.0
 40
3.2576822916666659
  1
CHECK
 41
0.8
 11
221.7999999999999
 21
-98.115249375000005
 31
0.0
 73
     3
  0
LINE
  5
40
  8
HIBINO-BASE
  6
CONTINUOUS
 62
     7
 10
128.74999999999989
 20
-113.96818500000001
 30
0.0
 11
136.25
 21
-106.46818499999991
 31
0.0
  0
TEXT
  5
41
  8
HIBINO-BASE
 62
     7
 10
127.5
 20
-108.68607166666661
 30
0.0
 40
3.2576822916666659
  1
1
 41
0.8
 11
127.5
 21
-105.42838937499999
 31
0.0
 73
     3
  0
LINE
  5
42
  8
HIBINO-BASE
  6
CONTINUOUS
 62
     7
 10
125.0
 20
-116.46818500000001
 30
0.0
 11
125.0
 21
-96.468184999999963
 31
0.0
  0
LINE
  5
43
  8
HIBINO-BASE
  6
CONTINUOUS
 62
     7
 10
145.0
 20
-116.46818500000001
 30
0.0
 11
145.0
 21
-96.468184999999963
 31
0.0
  0
LINE
  5
44
  8
HIBINO-BASE
  6
CONTINUOUS
 62
     7
 10
195.0
 20
-96.468184999999963
 30
0.0
 11
195.0
 21
-116.46818500000001
 31
0.0
  0
LINE
  5
45
  8
HIBINO-BASE
  6
CONTINUOUS
 62
     7
 10
245.0
 20
-96.468184999999963
 30
0.0
 11
245.0
 21
-116.46818500000001
 31
0.0
  0
LINE
  5
46
  8
HIBINO-BASE
  6
CONTINUOUS
 62
     7
 10
220.0
 20
-116.46818500000001
 30
0.0
 11
220.0
 21
-96.468184999999963
 31
0.0
  0
TEXT
  5
47
  8
HIBINO-BASE
 62
     7
 10
135.0
 20
-112.43607166666661
 30
0.0
 40
3.2576822916666659
  1
2
 41
0.8
 11
135.0
 21
-109.17838937499999
 31
0.0
 73
     3
  0
TEXT
  5
48
  8
HIBINO-BASE
 62
     7
 10
107.76666666666659
 20
-112.51618499999999
 30
0.0
 40
6.5153645833333318
  1
A4
 41
0.8
 11
107.76666666666659
 21
-106.0008204166666
 31
0.0
 73
     3
  0
TEXT
  5
49
  8
HIBINO-BASE
 62
     7
 10
101.9166666666666
 20
-101.707095
 30
0.0
 40
3.2576822916666659
  1
PAPER SIZE
 41
0.8
 11
101.9166666666666
 21
-98.449412708333327
 31
0.0
 73
     3
  0
TEXT
  5
4A
  8
HIBINO-BASE
 62
     7
 10
145.80226025436559
 20
-111.20530068703221
 30
0.0
 40
3.8014843749999989
  1
'04.6.
 41
0.8
 11
145.80226025436559
 21
-107.40381631203221
 31
0.0
 73
     3
  0
TEXT
  5
4B
  8
HIBINO-BASE
 62
     7
 10
-55.785732130701447
 20
-104.8892323848422
 30
0.0
 40
3.2576822916666659
  1
仕様および外観は予告なく変更されることがありますので、ご了承ください。
 41
0.8
 11
-55.785732130701447
 21
-101.6315500931756
 31
0.0
 73
     3
  0
LINE
  5
4C
  8
SPEC
  6
CONTINUOUS
 62
     7
 10
-64.999999999999986
 20
383.53181499999999
 30
0.0
 11
230.0
 21
383.53181499999999
 31
0.0
  0
LINE
  5
4D
  8
SPEC
  6
CONTINUOUS
 62
     7
 10
-64.999999999999986
 20
376.03181499999999
 30
0.0
 11
230.0
 21
376.03181499999999
 31
0.0
  0
LINE
  5
4E
  8
SPEC
  6
CONTINUOUS
 62
     7
 10
-64.999999999999986
 20
368.53181499999999
 30
0.0
 11
230.0
 21
368.53181499999999
 31
0.0
  0
LINE
  5
4F
  8
SPEC
  6
CONTINUOUS
 62
     7
 10
-64.999999999999986
 20
383.53181499999999
 30
0.0
 11
-64.999999999999986
 21
368.53181499999999
 31
0.0
  0
TEXT
  5
50
  8
SPEC
 62
     7
 10
-62.5
 20
386.318355
 30
0.0
 40
4.8865234375000002
  1
仕様
 41
0.8
 11
-62.5
 21
391.20487843749999
 31
0.0
 73
     3
  0
LINE
  5
51
  8
SPEC
  6
CONTINUOUS
 62
     7
 10
230.0
 20
368.53181499999999
 30
0.0
 11
230.0
 21
383.53181499999999
 31
0.0
  0
LINE
  5
52
  8
SPEC
  6
CONTINUOUS
 62
     7
 10
0.0000000000000142
 20
368.53181499999999
 30
0.0
 11
0.0000000000000142
 21
383.53181499999999
 31
0.0
  0
TEXT
  5
53
  8
SPEC
 62
     7
 10
-60.059395240423783
 20
377.86155372033301
 30
0.0
 40
3.8006293402777769
  1
形式
 41
0.8
 11
-60.059395240423783
 21
381.6621830606108
 31
0.0
 73
     3
  0
TEXT
  5
54
  8
SPEC
 62
     7
 10
-60.023221157361348
 20
370.38759704746252
 30
0.0
 40
3.8006293402777769
  1
寸法　
 41
0.8
 11
-60.023221157361348
 21
374.1882263877402
 31
0.0
 73
     3
  0
TEXT
  5
55
  8
SPEC
 62
     7
 10
4.8441482114833567
 20
370.62233019195259
 30
0.0
 40
3.8006293402777769
  1
145X19Φ（突起部含まず）
 41
0.8
 11
4.8441482114833567
 21
374.42295953223038
 31
0.0
 73
     3
  0
TEXT
  5
56
  8
SPEC
 62
     7
 10
4.9046307070543369
 20
378.05594444444449
 30
0.0
 40
3.5291558159722221
  1
Drive Rackリアルタイムアナライザ用マイクロホン 
 41
0.8
 11
4.9046307070543369
 21
381.58510026041671
 31
0.0
 73
     3
  0
TEXT
  5
57
  8
DIMNSIONS
 62
     7
 10
60.0
 20
-91.929204999999968
 30
0.0
 40
4.8865234375000002
  1
(単位：mm)
 41
0.8
 11
60.0
 21
-87.042681562499979
 31
0.0
 73
     3
  0
LINE
  5
58
  8
DIMNSIONS
  6
CONTINUOUS
 62
     7
 10
14.69147567812977
 20
78.150361618591788
 30
0.0
 11
22.248870397218429
 21
94.02485126119447
 31
0.0
  0
LINE
  5
59
  8
DIMNSIONS
  6
CONTINUOUS
 62
     7
 10
14.69147567812977
 20
78.150361618591788
 30
0.0
 11
15.679421678195419
 21
83.23290318079134
 31
0.0
  0
LINE
  5
5A
  8
DIMNSIONS
  6
CONTINUOUS
 62
     7
 10
14.69147567812977
 20
78.150361618591788
 30
0.0
 11
18.088332792853642
 21
82.057998727214013
 31
0.0
  0
LINE
  5
5B
  8
DIMNSIONS
  6
CONTINUOUS
 62
     7
 10
22.248870397218429
 20
94.02485126119447
 30
0.0
 11
40.35998150832954
 21
94.02485126119447
 31
0.0
  0
TEXT
  5
5C
  8
DIMNSIONS
 62
     7
 10
26.248870397218429
 20
96.01262903897225
 30
0.0
 40
5.4294704861111107
  1
φ19
 41
0.8
 11
26.248870397218429
 21
101.44209952508329
 31
0.0
 73
     3
  0
LINE
  5
5D
  8
DIMNSIONS
  6
CONTINUOUS
 62
     7
 10
40.107937417715277
 20
47.922529095117198
 30
0.0
 11
40.107937417715277
 21
30.422529095117209
 31
0.0
  0
LINE
  5
5E
  8
DIMNSIONS
  6
CONTINUOUS
 62
     7
 10
185.10793741771511
 20
47.922529095117198
 30
0.0
 11
185.10793741771511
 21
30.422529095117209
 31
0.0
  0
LINE
  5
5F
  8
DIMNSIONS
  6
CONTINUOUS
 62
     7
 10
40.107937417715277
 20
34.422529095117213
 30
0.0
 11
185.10793741771511
 21
34.422529095117213
 31
0.0
  0
LINE
  5
60
  8
DIMNSIONS
  6
CONTINUOUS
 62
     7
 10
40.107937417715277
 20
34.422529095117213
 30
0.0
 11
45.109182534902779
 21
35.762608685417703
 31
0.0
  0
LINE
  5
61
  8
DIMNSIONS
  6
CONTINUOUS
 62
     7
 10
40.107937417715277
 20
34.422529095117213
 30
0.0
 11
45.109182534902779
 21
33.082449504816722
 31
0.0
  0
LINE
  5
62
  8
DIMNSIONS
  6
CONTINUOUS
 62
     7
 10
185.10793741771511
 20
34.422529095117213
 30
0.0
 11
180.10669230052761
 21
33.082449504816722
 31
0.0
  0
LINE
  5
63
  8
DIMNSIONS
  6
CONTINUOUS
 62
     7
 10
185.10793741771511
 20
34.422529095117213
 30
0.0
 11
180.10669230052761
 21
35.762608685417703
 31
0.0
  0
TEXT
  5
64
  8
DIMNSIONS
 62
     7
 10
107.31627075104851
 20
36.410306872894992
 30
0.0
 40
5.4294704861111107
  1
145
 41
0.8
 11
107.31627075104851
 21
41.839777359006099
 31
0.0
 73
     3
  0
LINE
  5
65
  8
DIMNSIONS
  6
CONTINUOUS
 62
     7
 10
40.107937417715277
 20
47.922529095117198
 30
0.0
 11
40.107937417715277
 21
54.724851261194637
 31
0.0
  0
LINE
  5
66
  8
DIMNSIONS
  6
CONTINUOUS
 62
     7
 10
185.10793741771511
 20
47.922529095117198
 30
0.0
 11
185.10793741771511
 21
59.724851261194651
 31
0.0
  0
LINE
  5
67
  8
DIMNSIONS
  6
CONTINUOUS
 62
     7
 10
202.7488703972187
 20
73.855787709388807
 30
0.0
 11
209.0784051083896
 21
84.524851261194527
 31
0.0
  0
LINE
  5
68
  8
DIMNSIONS
  6
CONTINUOUS
 62
     7
 10
202.7488703972187
 20
73.855787709388807
 30
0.0
 11
204.17602964938439
 21
78.832883499052656
 31
0.0
  0
LINE
  5
69
  8
DIMNSIONS
  6
CONTINUOUS
 62
     7
 10
202.7488703972187
 20
73.855787709388807
 30
0.0
 11
206.4733744596721
 21
77.452499474223444
 31
0.0
  0
LINE
  5
6A
  8
DIMNSIONS
  6
CONTINUOUS
 62
     7
 10
209.0784051083896
 20
84.524851261194527
 30
0.0
 11
227.18951621950069
 21
84.524851261194527
 31
0.0
  0
TEXT
  5
6B
  8
DIMNSIONS
 62
     7
 10
213.0784051083896
 20
86.512629038972335
 30
0.0
 40
5.4294704861111107
  1
φ10
 41
0.8
 11
213.0784051083896
 21
91.942099525083435
 31
0.0
 73
     3
  0
LINE
  5
6C
  8
DATA
  6
CONTINUOUS
 62
     7
 10
180.2079374177151
 20
64.572791142302094
 30
0.0
 11
180.2079374177151
 21
74.572791142301995
 31
0.0
  0
POLYLINE
  5
6D
  8
DATA
  6
CONTINUOUS
 62
     7
 66
     1
 10
0.0
 20
0.0
 30
0.0
  0
VERTEX
  5
EC
  8
DATA
  6
CONTINUOUS
 62
     7
 10
126.10793741771511
 20
64.572791142302094
 30
0.0
  0
VERTEX
  5
ED
  8
DATA
  6
CONTINUOUS
 62
     7
 10
185.10793741771511
 20
64.572791142302094
 30
0.0
  0
VERTEX
  5
EE
  8
DATA
  6
CONTINUOUS
 62
     7
 10
185.10793741771511
 20
74.572791142301995
 30
0.0
  0
VERTEX
  5
EF
  8
DATA
  6
CONTINUOUS
 62
     7
 10
126.10793741771511
 20
74.572791142301995
 30
0.0
  0
SEQEND
  5
F0
  8
DATA
  6
CONTINUOUS
 62
     7
  0
LINE
  5
73
  8
DATA
  6
CONTINUOUS
 62
     7
 10
126.10793741771511
 20
74.572791142301995
 30
0.0
 11
185.10793741771511
 21
74.572791142301995
 31
0.0
  0
LINE
  5
74
  8
DATA
  6
CONTINUOUS
 62
     7
 10
126.10793741771511
 20
64.572791142302094
 30
0.0
 11
185.10793741771511
 21
64.572791142302094
 31
0.0
  0
LINE
  5
75
  8
DATA
  6
CONTINUOUS
 62
     7
 10
126.10793741771511
 20
74.572791142301995
 30
0.0
 11
126.10793741771511
 21
64.572791142302094
 31
0.0
  0
LINE
  5
76
  8
DATA
  6
CONTINUOUS
 62
     7
 10
40.107937417715277
 20
79.097791142301944
 30
0.0
 11
40.107937417715277
 21
60.047791142302103
 31
0.0
  0
LINE
  5
77
  8
DATA
  6
CONTINUOUS
 62
     7
 10
40.107937417715277
 20
79.097791142301944
 30
0.0
 11
97.10793741771505
 21
79.097791142301944
 31
0.0
  0
LINE
  5
78
  8
DATA
  6
CONTINUOUS
 62
     7
 10
40.107937417715277
 20
60.047791142302103
 30
0.0
 11
97.10793741771505
 21
60.047791142302103
 31
0.0
  0
LINE
  5
79
  8
DATA
  6
CONTINUOUS
 62
     7
 10
102.10793741771511
 20
79.097791142301944
 30
0.0
 11
105.10793741771499
 21
79.097791142301944
 31
0.0
  0
LINE
  5
7A
  8
DATA
  6
CONTINUOUS
 62
     7
 10
102.10793741771511
 20
60.047791142302103
 30
0.0
 11
105.10793741771499
 21
60.047791142302103
 31
0.0
  0
LINE
  5
7B
  8
DATA
  6
CONTINUOUS
 62
     7
 10
126.10793741771511
 20
74.572791142301995
 30
0.0
 11
116.60793741771511
 21
76.072791142301952
 31
0.0
  0
LINE
  5
7C
  8
DATA
  6
CONTINUOUS
 62
     7
 10
126.10793741771511
 20
64.572791142302094
 30
0.0
 11
116.60793741771511
 21
63.072791142302101
 31
0.0
  0
LINE
  5
7D
  8
DATA
  6
CONTINUOUS
 62
     7
 10
116.60793741771511
 20
76.072791142301952
 30
0.0
 11
116.60793741771511
 21
76.272791142301941
 31
0.0
  0
LINE
  5
7E
  8
DATA
  6
CONTINUOUS
 62
     7
 10
116.60793741771511
 20
63.072791142302101
 30
0.0
 11
116.60793741771511
 21
62.872791142302113
 31
0.0
  0
LINE
  5
7F
  8
DATA
  6
CONTINUOUS
 62
     7
 10
116.60793741771511
 20
76.272791142301941
 30
0.0
 11
105.10793741771499
 21
79.097791142301944
 31
0.0
  0
LINE
  5
80
  8
DATA
  6
CONTINUOUS
 62
     7
 10
116.60793741771511
 20
76.072791142301952
 30
0.0
 11
116.60793741771511
 21
63.072791142302101
 31
0.0
  0
LINE
  5
81
  8
DATA
  6
CONTINUOUS
 62
     7
 10
116.60793741771511
 20
62.872791142302113
 30
0.0
 11
105.10793741771499
 21
60.047791142302103
 31
0.0
  0
LINE
  5
82
  8
DATA
  6
CONTINUOUS
 62
     7
 10
105.10793741771499
 20
60.047791142302103
 30
0.0
 11
105.10793741771499
 21
79.097791142301944
 31
0.0
  0
LINE
  5
83
  8
DATA
  6
CONTINUOUS
 62
     7
 10
97.10793741771505
 20
78.822791142301952
 30
0.0
 11
102.10793741771511
 21
78.822791142301952
 31
0.0
  0
LINE
  5
84
  8
DATA
  6
CONTINUOUS
 62
     7
 10
102.10793741771511
 20
78.822791142301952
 30
0.0
 11
102.10793741771511
 21
79.097791142301944
 31
0.0
  0
LINE
  5
85
  8
DATA
  6
CONTINUOUS
 62
     7
 10
97.10793741771505
 20
78.822791142301952
 30
0.0
 11
97.10793741771505
 21
79.097791142301944
 31
0.0
  0
LINE
  5
86
  8
DATA
  6
CONTINUOUS
 62
     7
 10
97.10793741771505
 20
60.322791142302101
 30
0.0
 11
102.10793741771511
 21
60.322791142302101
 31
0.0
  0
LINE
  5
87
  8
DATA
  6
CONTINUOUS
 62
     7
 10
102.10793741771511
 20
60.322791142302101
 30
0.0
 11
102.10793741771511
 21
60.047791142302103
 31
0.0
  0
LINE
  5
88
  8
DATA
  6
CONTINUOUS
 62
     7
 10
97.10793741771505
 20
60.322791142302101
 30
0.0
 11
97.10793741771505
 21
60.047791142302103
 31
0.0
  0
LINE
  5
89
  8
DATA
  6
CONTINUOUS
 62
     7
 10
97.10793741771505
 20
60.322791142302101
 30
0.0
 11
97.10793741771505
 21
78.826831546342433
 31
0.0
  0
LINE
  5
8A
  8
DATA
  6
CONTINUOUS
 62
     7
 10
102.10793741771511
 20
78.822791142301952
 30
0.0
 11
102.10793741771511
 21
60.326831546342582
 31
0.0
  0
CIRCLE
  5
8B
  8
DATA
  6
CONTINUOUS
 62
     7
 10
57.306957419264741
 20
69.546515587888081
 30
0.0
 40
1.6749999999999821
  0
LINE
  5
8C
  8
DATA
  6
CONTINUOUS
 62
     7
 10
56.981957419264752
 20
70.621515587888126
 30
0.0
 11
57.631957419264737
 21
70.621515587888126
 31
0.0
  0
LINE
  5
8D
  8
DATA
  6
CONTINUOUS
 62
     7
 10
56.981957419264752
 20
68.471515587888092
 30
0.0
 11
57.631957419264737
 21
68.471515587888092
 31
0.0
  0
LINE
  5
8E
  8
DATA
  6
CONTINUOUS
 62
     7
 10
56.231957419264738
 20
69.871515587888112
 30
0.0
 11
56.231957419264738
 21
69.221515587888092
 31
0.0
  0
LINE
  5
8F
  8
DATA
  6
CONTINUOUS
 62
     7
 10
58.381957419264737
 20
69.871515587888112
 30
0.0
 11
58.381957419264737
 21
69.221515587888092
 31
0.0
  0
LINE
  5
90
  8
DATA
  6
CONTINUOUS
 62
     7
 10
56.981957419264752
 20
70.621515587888126
 30
0.0
 11
56.981957419264752
 21
70.020857236919511
 31
0.0
  0
LINE
  5
91
  8
DATA
  6
CONTINUOUS
 62
     7
 10
57.631957419264737
 20
70.621515587888126
 30
0.0
 11
57.631957419264737
 21
70.020857236919511
 31
0.0
  0
LINE
  5
92
  8
DATA
  6
CONTINUOUS
 62
     7
 10
58.381957419264737
 20
69.871515587888112
 30
0.0
 11
57.78129906829178
 21
69.871515587888112
 31
0.0
  0
LINE
  5
93
  8
DATA
  6
CONTINUOUS
 62
     7
 10
58.381957419264737
 20
69.221515587888092
 30
0.0
 11
57.78129906829178
 21
69.221515587888092
 31
0.0
  0
LINE
  5
94
  8
DATA
  6
CONTINUOUS
 62
     7
 10
56.231957419264738
 20
69.871515587888112
 30
0.0
 11
56.832615770237723
 21
69.871515587888112
 31
0.0
  0
LINE
  5
95
  8
DATA
  6
CONTINUOUS
 62
     7
 10
57.631957419264737
 20
68.471515587888092
 30
0.0
 11
57.631957419264737
 21
69.072173938856679
 31
0.0
  0
LINE
  5
96
  8
DATA
  6
CONTINUOUS
 62
     7
 10
56.981957419264752
 20
68.471515587888092
 30
0.0
 11
56.981957419264752
 21
69.072173938856679
 31
0.0
  0
LINE
  5
97
  8
DATA
  6
CONTINUOUS
 62
     7
 10
56.231957419264738
 20
69.221515587888092
 30
0.0
 11
56.832615770237723
 21
69.221515587888092
 31
0.0
  0
ARC
  5
98
  8
DATA
  6
CONTINUOUS
 62
     7
 10
57.306957419264741
 20
69.546515587888081
 30
0.0
 40
0.5750000000014839
 50
124.4173887100951
 51
145.58261128965549
  0
ARC
  5
99
  8
DATA
  6
CONTINUOUS
 62
     7
 10
57.306957419264741
 20
69.546515587888081
 30
0.0
 40
0.5750000000050611
 50
34.417388710343573
 51
55.582611289906261
  0
ARC
  5
9A
  8
DATA
  6
CONTINUOUS
 62
     7
 10
57.306957419264741
 20
69.546515587888081
 30
0.0
 40
0.5750000000014605
 50
304.41738871009687
 51
325.58261128965938
  0
ARC
  5
9B
  8
DATA
  6
CONTINUOUS
 62
     7
 10
57.306957419264741
 20
69.546515587888081
 30
0.0
 40
0.5750000000050706
 50
214.41738871034121
 51
235.5826112899054
  0
TEXT
  5
9C
  8
DATA
 62
     7
 10
42.990923713688282
 20
75.982541838044625
 30
0.0
 40
0.9234375000000001
  1
PROFESSIONAL PRODUCTS
 50
270.0
 41
0.8
 11
43.914361213688281
 21
75.982541838044625
 31
0.0
 73
     3
  0
CIRCLE
  5
9D
  8
DATA
  6
CONTINUOUS
 62
     7
 10
10.60793741771518
 20
69.572791142302094
 30
0.0
 40
9.5000000000001297
  0
ARC
  5
9E
  8
DATA
  6
CONTINUOUS
 62
     7
 10
10.60793741771518
 20
69.572791142302094
 30
0.0
 40
8.0000000000000462
 50
308.18413490549528
 51
295.80071774345492
  0
CIRCLE
  5
9F
  8
DATA
  6
CONTINUOUS
 62
     7
 10
6.9079374177151323
 20
69.572791142302094
 30
0.0
 40
1.150000000000019
  0
CIRCLE
  5
A0
  8
DATA
  6
CONTINUOUS
 62
     7
 10
10.60793741771518
 20
73.272791142302012
 30
0.0
 40
1.150000000000019
  0
CIRCLE
  5
A1
  8
DATA
  6
CONTINUOUS
 62
     7
 10
10.60793741771518
 20
65.872791142302106
 30
0.0
 40
1.150000000000019
  0
ARC
  5
A2
  8
DATA
  6
CONTINUOUS
 62
     7
 10
14.84639469674871
 20
62.787846050865532
 30
0.0
 40
0.8641049991030229
 50
208.8965720339591
 51
35.088280614989401
  0
CIRCLE
  5
A3
  8
DATA
  6
CONTINUOUS
 62
     7
 10
200.20793741771519
 20
69.572791142302094
 30
0.0
 40
4.9800000000000466
  0
CIRCLE
  5
A4
  8
DATA
  6
CONTINUOUS
 62
     7
 10
200.20793741771519
 20
69.572791142302094
 30
0.0
 40
3.000000000000028
  0
TEXT
  5
A5
  8
DATA
 62
     7
 10
189.88824974430921
 20
-78.206272823210654
 30
0.0
 40
4.8865234375000002
  1
dbx
 41
0.8
 11
189.88824974430921
 21
-73.319749385710665
 31
0.0
 73
     3
  0
TEXT
  5
A6
  8
DATA
 62
     7
 10
173.2062156995047
 20
-84.845185682738219
 30
0.0
 40
3.5291558159722221
  1
Drive Rackリアルタイムアナライザ用マイクロホン 
 41
0.8
 11
173.2062156995047
 21
-81.316029866766002
 31
0.0
 73
     3
  0
TEXT
  5
A7
  8
DATA
 62
     7
 10
185.6298630024944
 20
-93.004664376559063
 30
0.0
 40
4.8865234375000002
  1
RTA-M
 41
0.8
 11
185.6298630024944
 21
-88.118140939059074
 31
0.0
 73
     3
  0
ENDSEC
  0
EOF
