  0
SECTION
  2
HEADER
  9
$ACADVER
  1
AC1009
  9
$INSBASE
 10
0.0
 20
0.0
 30
0.0
  9
$EXTMIN
 10
-1700.2197165039599
 20
-2545.088752686368
 30
-0.0000001021143337
  9
$EXTMAX
 10
1900.219750032596
 20
2807.4308610308271
 30
0.0000002383186926
  9
$LIMMIN
 10
0.0
 20
0.0
  9
$LIMMAX
 10
0.0
 20
0.0
  9
$ORTHOMODE
 70
     0
  9
$REGENMODE
 70
     1
  9
$FILLMODE
 70
     1
  9
$QTEXTMODE
 70
     0
  9
$MIRRTEXT
 70
     1
  9
$DRAGMODE
 70
     2
  9
$LTSCALE
 40
101.59999999999999
  9
$OSMODE
 70
   231
  9
$ATTMODE
 70
     1
  9
$TEXTSIZE
 40
0.0
  9
$TRACEWID
 40
1.0
  9
$TEXTSTYLE
  7
STANDARD
  9
$CLAYER
  8
DATA
  9
$CELTYPE
  6
BYLAYER
  9
$CECOLOR
 62
   256
  9
$DIMSCALE
 40
1.0
  9
$DIMASZ
 40
0.18
  9
$DIMEXO
 40
0.0625
  9
$DIMDLI
 40
0.38
  9
$DIMRND
 40
0.0
  9
$DIMDLE
 40
0.0
  9
$DIMEXE
 40
0.18
  9
$DIMTP
 40
0.0
  9
$DIMTM
 40
0.0
  9
$DIMTXT
 40
0.18
  9
$DIMCEN
 40
0.09
  9
$DIMTSZ
 40
0.0
  9
$DIMTOL
 70
     0
  9
$DIMLIM
 70
     0
  9
$DIMTIH
 70
     1
  9
$DIMTOH
 70
     1
  9
$DIMSE1
 70
     0
  9
$DIMSE2
 70
     0
  9
$DIMTAD
 70
     0
  9
$DIMZIN
 70
     0
  9
$DIMBLK
  1

  9
$DIMASO
 70
     1
  9
$DIMSHO
 70
     1
  9
$DIMPOST
  1

  9
$DIMAPOST
  1

  9
$DIMALT
 70
     0
  9
$DIMALTD
 70
     2
  9
$DIMALTF
 40
25.399999999999999
  9
$DIMLFAC
 40
1.0
  9
$DIMTOFL
 70
     0
  9
$DIMTVP
 40
0.0
  9
$DIMTIX
 70
     0
  9
$DIMSOXD
 70
     0
  9
$DIMSAH
 70
     0
  9
$DIMBLK1
  1

  9
$DIMBLK2
  1

  9
$DIMSTYLE
  2
STANDARD
  9
$DIMCLRD
 70
     0
  9
$DIMCLRE
 70
     0
  9
$DIMCLRT
 70
     0
  9
$DIMTFAC
 40
1.0
  9
$DIMGAP
 40
0.09
  9
$LUNITS
 70
     2
  9
$LUPREC
 70
     4
  9
$SKETCHINC
 40
0.1
  9
$FILLETRAD
 40
0.0
  9
$AUNITS
 70
     0
  9
$AUPREC
 70
     0
  9
$MENU
  1
acad
  9
$ELEVATION
 40
0.0
  9
$PELEVATION
 40
0.0
  9
$THICKNESS
 40
0.0
  9
$LIMCHECK
 70
     0
  9
$BLIPMODE
 70
     0
  9
$CHAMFERA
 40
0.0
  9
$CHAMFERB
 40
0.0
  9
$SKPOLY
 70
     0
  9
$TDCREATE
 40
2453927.6488194438
  9
$TDUPDATE
 40
2455776.4144299538
  9
$TDINDWG
 40
0.0005531713
  9
$TDUSRTIMER
 40
0.0005528009
  9
$USRTIMER
 70
     1
  9
$ANGBASE
 50
0.0
  9
$ANGDIR
 70
     0
  9
$PDMODE
 70
     1
  9
$PDSIZE
 40
-2.0
  9
$PLINEWID
 40
0.0
  9
$COORDS
 70
     1
  9
$SPLFRAME
 70
     0
  9
$SPLINETYPE
 70
     6
  9
$SPLINESEGS
 70
     8
  9
$ATTDIA
 70
     0
  9
$ATTREQ
 70
     1
  9
$HANDLING
 70
     1
  9
$HANDSEED
  5
5CA
  9
$SURFTAB1
 70
     6
  9
$SURFTAB2
 70
     6
  9
$SURFTYPE
 70
     6
  9
$SURFU
 70
     6
  9
$SURFV
 70
     6
  9
$UCSNAME
  2

  9
$UCSORG
 10
0.0
 20
0.0
 30
0.0
  9
$UCSXDIR
 10
1.0
 20
0.0
 30
0.0
  9
$UCSYDIR
 10
0.0
 20
1.0
 30
0.0
  9
$PUCSNAME
  2

  9
$PUCSORG
 10
0.0
 20
0.0
 30
0.0
  9
$PUCSXDIR
 10
1.0
 20
0.0
 30
0.0
  9
$PUCSYDIR
 10
0.0
 20
1.0
 30
0.0
  9
$USERI1
 70
     0
  9
$USERI2
 70
     0
  9
$USERI3
 70
     0
  9
$USERI4
 70
     0
  9
$USERI5
 70
     0
  9
$USERR1
 40
0.0
  9
$USERR2
 40
0.0
  9
$USERR3
 40
0.0
  9
$USERR4
 40
0.0
  9
$USERR5
 40
0.0
  9
$WORLDVIEW
 70
     1
  9
$SHADEDGE
 70
     3
  9
$SHADEDIF
 70
    70
  9
$TILEMODE
 70
     1
  9
$MAXACTVP
 70
    64
  9
$PLIMCHECK
 70
     0
  9
$PEXTMIN
 10
1.0000000000000000E+020
 20
1.0000000000000000E+020
 30
1.0000000000000000E+020
  9
$PEXTMAX
 10
-1.0000000000000000E+020
 20
-1.0000000000000000E+020
 30
-1.0000000000000000E+020
  9
$PLIMMIN
 10
0.0
 20
0.0
  9
$PLIMMAX
 10
12.0
 20
9.0
  9
$UNITMODE
 70
     0
  9
$VISRETAIN
 70
     0
  9
$PLINEGEN
 70
     1
  9
$PSLTSCALE
 70
     0
  0
ENDSEC
  0
SECTION
  2
TABLES
  0
TABLE
  2
VPORT
 70
     1
  0
VPORT
  2
*ACTIVE
 70
     0
 10
0.0
 20
0.0
 11
1.0
 21
1.0
 12
100.00001676431791
 22
131.1710541722295
 13
0.0
 23
0.0
 14
1.0
 24
1.0
 15
0.0
 25
0.0
 16
0.0
 26
0.0
 36
1.0
 17
0.0
 27
0.0
 37
0.0
 40
5391.924666088119
 41
1.9619164619164611
 42
50.0
 43
0.0
 44
0.0
 50
0.0
 51
0.0
 71
     0
 72
  2000
 73
     1
 74
     1
 75
     0
 76
     0
 77
     0
 78
     0
  0
ENDTAB
  0
TABLE
  2
LTYPE
 70
     2
  0
LTYPE
  2
CONTINUOUS
 70
     0
  3
Solid line
 72
    65
 73
     0
 40
0.0
  0
LTYPE
  2
STYLE_01
 70
     0
  3

 72
    65
 73
     2
 40
0.4166412353515625
 49
0.208282470703125
 49
-0.2083587646484375
  0
ENDTAB
  0
TABLE
  2
LAYER
 70
     5
  0
LAYER
  2
0
 70
     0
 62
     7
  6
CONTINUOUS
  0
LAYER
  2
DATA
 70
     0
 62
     7
  6
CONTINUOUS
  0
LAYER
  2
HIBINO-BASE
 70
     0
 62
     7
  6
CONTINUOUS
  0
LAYER
  2
SPEC
 70
     0
 62
     7
  6
CONTINUOUS
  0
LAYER
  2
DIMNSIONS
 70
     0
 62
     7
  6
CONTINUOUS
  0
ENDTAB
  0
TABLE
  2
STYLE
 70
     2
  0
STYLE
  2
STANDARD
 70
     0
 40
0.0
 41
1.0
 50
0.0
 71
     0
 42
0.0
  3
txt
  4
BIGFONT.SHX
  0
ENDTAB
  0
TABLE
  2
VIEW
 70
     0
  0
ENDTAB
  0
TABLE
  2
UCS
 70
     0
  0
ENDTAB
  0
TABLE
  2
APPID
 70
     4
  0
APPID
  2
ACAD
 70
     0
  0
APPID
  2
ACADANNOTATIVE
 70
     0
  0
APPID
  2
ACAD_NAV_VCDISPLAY
 70
     0
  0
APPID
  2
ACAD_MLEADERVER
 70
     0
  0
ENDTAB
  0
TABLE
  2
DIMSTYLE
 70
     2
  0
DIMSTYLE
  2
STANDARD
 70
     0
  3

  4

  5

  6

  7

 40
1.0
 41
0.18
 42
0.0625
 43
0.38
 44
0.18
 45
0.0
 46
0.0
 47
0.0
 48
0.0
140
0.18
141
0.09
142
0.0
143
25.399999999999999
144
1.0
145
0.0
146
1.0
147
0.09
 71
     0
 72
     0
 73
     1
 74
     1
 75
     0
 76
     0
 77
     0
 78
     0
170
     0
171
     2
172
     0
173
     0
174
     0
175
     0
176
     0
177
     0
178
     0
  0
ENDTAB
  0
ENDSEC
  0
SECTION
  2
BLOCKS
  0
BLOCK
  8
0
  2
$MODEL_SPACE
 70
     0
 10
0.0
 20
0.0
 30
0.0
  3
$MODEL_SPACE
  1

  0
ENDBLK
  5
503
  8
0
  0
BLOCK
 67
     1
  8
0
  2
$PAPER_SPACE
 70
     0
 10
0.0
 20
0.0
 30
0.0
  3
$PAPER_SPACE
  1

  0
ENDBLK
  5
4FF
 67
     1
  8
0
  0
BLOCK
  8
DATA
  2
____
 70
     0
 10
0.0
 20
0.0
 30
0.0
  3
____
  1

  0
LINE
  5
31
  8
0
  6
CONTINUOUS
 62
     7
 10
-216.1841616831239
 20
-922.83800000000065
 30
0.0
 11
-216.92383644451161
 21
-924.48800000000074
 31
0.0
  0
LINE
  5
32
  8
0
  6
CONTINUOUS
 62
     7
 10
-215.44448692173609
 20
-924.48800000000074
 30
0.0
 11
-216.1841616831239
 21
-922.83800000000065
 31
0.0
  0
LINE
  5
33
  8
0
  6
CONTINUOUS
 62
     7
 10
-215.44448692173609
 20
-927.78800000000035
 30
0.0
 11
-215.44448692173609
 21
-924.48800000000074
 31
0.0
  0
LINE
  5
34
  8
0
  6
CONTINUOUS
 62
     7
 10
-216.1841616831239
 20
-929.43800000000033
 30
0.0
 11
-215.44448692173609
 21
-927.78800000000035
 31
0.0
  0
LINE
  5
35
  8
0
  6
CONTINUOUS
 62
     7
 10
-216.92383644451161
 20
-927.78800000000035
 30
0.0
 11
-216.1841616831239
 21
-929.43800000000033
 31
0.0
  0
LINE
  5
36
  8
0
  6
CONTINUOUS
 62
     7
 10
-216.92383644451161
 20
-924.48800000000074
 30
0.0
 11
-216.92383644451161
 21
-927.78800000000035
 31
0.0
  0
LINE
  5
37
  8
0
  6
CONTINUOUS
 62
     7
 10
-215.7444869217361
 20
-924.48800000000074
 30
0.0
 11
-216.3341616831238
 21
-923.17260652292146
 31
0.0
  0
LINE
  5
38
  8
0
  6
CONTINUOUS
 62
     7
 10
-215.7444869217361
 20
-927.78800000000035
 30
0.0
 11
-215.7444869217361
 21
-924.48800000000074
 31
0.0
  0
LINE
  5
39
  8
0
  6
CONTINUOUS
 62
     7
 10
-216.3341616831238
 20
-929.10339347708009
 30
0.0
 11
-215.7444869217361
 21
-927.78800000000035
 31
0.0
  0
LINE
  5
3A
  8
0
  6
CONTINUOUS
 62
     7
 10
-215.7444869217361
 20
-924.48800000000074
 30
0.0
 11
-215.44448692173609
 21
-924.48800000000074
 31
0.0
  0
LINE
  5
3B
  8
0
  6
CONTINUOUS
 62
     7
 10
-215.7444869217361
 20
-927.78800000000035
 30
0.0
 11
-215.44448692173609
 21
-927.78800000000035
 31
0.0
  0
ENDBLK
  5
3C
  8
DATA
  0
BLOCK
  8
DATA
  2
____-1
 70
     0
 10
0.0
 20
0.0
 30
0.0
  3
____-1
  1

  0
LINE
  5
3E
  8
0
  6
CONTINUOUS
 62
     7
 10
-216.1841616831239
 20
-1557.1619999999989
 30
0.0
 11
-216.92383644451161
 21
-1555.511999999999
 31
0.0
  0
LINE
  5
3F
  8
0
  6
CONTINUOUS
 62
     7
 10
-215.44448692173609
 20
-1555.511999999999
 30
0.0
 11
-216.1841616831239
 21
-1557.1619999999989
 31
0.0
  0
LINE
  5
40
  8
0
  6
CONTINUOUS
 62
     7
 10
-215.44448692173609
 20
-1552.2119999999991
 30
0.0
 11
-215.44448692173609
 21
-1555.511999999999
 31
0.0
  0
LINE
  5
41
  8
0
  6
CONTINUOUS
 62
     7
 10
-216.1841616831239
 20
-1550.561999999999
 30
0.0
 11
-215.44448692173609
 21
-1552.2119999999991
 31
0.0
  0
LINE
  5
42
  8
0
  6
CONTINUOUS
 62
     7
 10
-216.92383644451161
 20
-1552.2119999999991
 30
0.0
 11
-216.1841616831239
 21
-1550.561999999999
 31
0.0
  0
LINE
  5
43
  8
0
  6
CONTINUOUS
 62
     7
 10
-216.92383644451161
 20
-1555.511999999999
 30
0.0
 11
-216.92383644451161
 21
-1552.2119999999991
 31
0.0
  0
LINE
  5
44
  8
0
  6
CONTINUOUS
 62
     7
 10
-215.7444869217361
 20
-1555.511999999999
 30
0.0
 11
-216.3341616831238
 21
-1556.8273934770791
 31
0.0
  0
LINE
  5
45
  8
0
  6
CONTINUOUS
 62
     7
 10
-215.7444869217361
 20
-1552.2119999999991
 30
0.0
 11
-215.7444869217361
 21
-1555.511999999999
 31
0.0
  0
LINE
  5
46
  8
0
  6
CONTINUOUS
 62
     7
 10
-216.3341616831238
 20
-1550.8966065229199
 30
0.0
 11
-215.7444869217361
 21
-1552.2119999999991
 31
0.0
  0
LINE
  5
47
  8
0
  6
CONTINUOUS
 62
     7
 10
-215.7444869217361
 20
-1555.511999999999
 30
0.0
 11
-215.44448692173609
 21
-1555.511999999999
 31
0.0
  0
LINE
  5
48
  8
0
  6
CONTINUOUS
 62
     7
 10
-215.7444869217361
 20
-1552.2119999999991
 30
0.0
 11
-215.44448692173609
 21
-1552.2119999999991
 31
0.0
  0
ENDBLK
  5
49
  8
DATA
  0
BLOCK
  8
DATA
  2
____-2
 70
     0
 10
0.0
 20
0.0
 30
0.0
  3
____-2
  1

  0
LINE
  5
4B
  8
0
  6
CONTINUOUS
 62
     7
 10
116.1841616831239
 20
-922.83800000000065
 30
0.0
 11
116.92383644451159
 21
-924.48800000000074
 31
0.0
  0
LINE
  5
4C
  8
0
  6
CONTINUOUS
 62
     7
 10
115.4444869217361
 20
-924.48800000000074
 30
0.0
 11
116.1841616831239
 21
-922.83800000000065
 31
0.0
  0
LINE
  5
4D
  8
0
  6
CONTINUOUS
 62
     7
 10
115.4444869217361
 20
-927.78800000000035
 30
0.0
 11
115.4444869217361
 21
-924.48800000000074
 31
0.0
  0
LINE
  5
4E
  8
0
  6
CONTINUOUS
 62
     7
 10
116.1841616831239
 20
-929.43800000000033
 30
0.0
 11
115.4444869217361
 21
-927.78800000000035
 31
0.0
  0
LINE
  5
4F
  8
0
  6
CONTINUOUS
 62
     7
 10
116.92383644451159
 20
-927.78800000000035
 30
0.0
 11
116.1841616831239
 21
-929.43800000000033
 31
0.0
  0
LINE
  5
50
  8
0
  6
CONTINUOUS
 62
     7
 10
116.92383644451159
 20
-924.48800000000074
 30
0.0
 11
116.92383644451159
 21
-927.78800000000035
 31
0.0
  0
LINE
  5
51
  8
0
  6
CONTINUOUS
 62
     7
 10
115.7444869217361
 20
-924.48800000000074
 30
0.0
 11
116.3341616831238
 21
-923.17260652292146
 31
0.0
  0
LINE
  5
52
  8
0
  6
CONTINUOUS
 62
     7
 10
115.7444869217361
 20
-927.78800000000035
 30
0.0
 11
115.7444869217361
 21
-924.48800000000074
 31
0.0
  0
LINE
  5
53
  8
0
  6
CONTINUOUS
 62
     7
 10
116.3341616831238
 20
-929.10339347708009
 30
0.0
 11
115.7444869217361
 21
-927.78800000000035
 31
0.0
  0
LINE
  5
54
  8
0
  6
CONTINUOUS
 62
     7
 10
115.7444869217361
 20
-924.48800000000074
 30
0.0
 11
115.4444869217361
 21
-924.48800000000074
 31
0.0
  0
LINE
  5
55
  8
0
  6
CONTINUOUS
 62
     7
 10
115.7444869217361
 20
-927.78800000000035
 30
0.0
 11
115.4444869217361
 21
-927.78800000000035
 31
0.0
  0
ENDBLK
  5
56
  8
DATA
  0
BLOCK
  8
DATA
  2
____-3
 70
     0
 10
0.0
 20
0.0
 30
0.0
  3
____-3
  1

  0
LINE
  5
58
  8
0
  6
CONTINUOUS
 62
     7
 10
116.1841616831239
 20
-1557.1619999999989
 30
0.0
 11
116.92383644451159
 21
-1555.511999999999
 31
0.0
  0
LINE
  5
59
  8
0
  6
CONTINUOUS
 62
     7
 10
115.4444869217361
 20
-1555.511999999999
 30
0.0
 11
116.1841616831239
 21
-1557.1619999999989
 31
0.0
  0
LINE
  5
5A
  8
0
  6
CONTINUOUS
 62
     7
 10
115.4444869217361
 20
-1552.2119999999991
 30
0.0
 11
115.4444869217361
 21
-1555.511999999999
 31
0.0
  0
LINE
  5
5B
  8
0
  6
CONTINUOUS
 62
     7
 10
116.1841616831239
 20
-1550.561999999999
 30
0.0
 11
115.4444869217361
 21
-1552.2119999999991
 31
0.0
  0
LINE
  5
5C
  8
0
  6
CONTINUOUS
 62
     7
 10
116.92383644451159
 20
-1552.2119999999991
 30
0.0
 11
116.1841616831239
 21
-1550.561999999999
 31
0.0
  0
LINE
  5
5D
  8
0
  6
CONTINUOUS
 62
     7
 10
116.92383644451159
 20
-1555.511999999999
 30
0.0
 11
116.92383644451159
 21
-1552.2119999999991
 31
0.0
  0
LINE
  5
5E
  8
0
  6
CONTINUOUS
 62
     7
 10
115.7444869217361
 20
-1555.511999999999
 30
0.0
 11
116.3341616831238
 21
-1556.8273934770791
 31
0.0
  0
LINE
  5
5F
  8
0
  6
CONTINUOUS
 62
     7
 10
115.7444869217361
 20
-1552.2119999999991
 30
0.0
 11
115.7444869217361
 21
-1555.511999999999
 31
0.0
  0
LINE
  5
60
  8
0
  6
CONTINUOUS
 62
     7
 10
116.3341616831238
 20
-1550.8966065229199
 30
0.0
 11
115.7444869217361
 21
-1552.2119999999991
 31
0.0
  0
LINE
  5
61
  8
0
  6
CONTINUOUS
 62
     7
 10
115.7444869217361
 20
-1555.511999999999
 30
0.0
 11
115.4444869217361
 21
-1555.511999999999
 31
0.0
  0
LINE
  5
62
  8
0
  6
CONTINUOUS
 62
     7
 10
115.7444869217361
 20
-1552.2119999999991
 30
0.0
 11
115.4444869217361
 21
-1552.2119999999991
 31
0.0
  0
ENDBLK
  5
63
  8
DATA
  0
ENDSEC
  0
SECTION
  2
ENTITIES
  0
LINE
  5
64
  8
HIBINO-BASE
  6
CONTINUOUS
 62
     7
 10
-1700.0
 20
2807.1044850000021
 30
0.0
 11
1900.0
 21
2807.1044850000021
 31
0.0
  0
LINE
  5
65
  8
HIBINO-BASE
  6
CONTINUOUS
 62
     7
 10
1900.0
 20
-2392.8955150000011
 30
0.0
 11
-1700.0
 21
-2392.8955150000011
 31
0.0
  0
LINE
  5
66
  8
HIBINO-BASE
  6
CONTINUOUS
 62
     7
 10
-1700.0
 20
-2392.8955150000011
 30
0.0
 11
-1700.0
 21
2807.1044850000021
 31
0.0
  0
TEXT
  5
67
  8
HIBINO-BASE
 62
     7
 10
-1556.319999999999
 20
-2521.069070999999
 30
0.0
 40
72.000883593749975
  1
Hibino Corporation
 41
0.7
 11
-1556.319999999999
 21
-2449.0681874062489
 31
0.0
 73
     3
  0
LINE
  5
68
  8
HIBINO-BASE
  6
CONTINUOUS
 62
     7
 10
1900.0
 20
2807.1044850000021
 30
0.0
 11
1900.0
 21
-2392.8955150000011
 31
0.0
  0
LINE
  5
69
  8
HIBINO-BASE
  6
CONTINUOUS
 62
     7
 10
100.0
 20
-1942.8955149999999
 30
0.0
 11
1900.0
 21
-1942.8955149999999
 31
0.0
  0
LINE
  5
6A
  8
HIBINO-BASE
  6
CONTINUOUS
 62
     7
 10
100.0
 20
-2392.8955150000011
 30
0.0
 11
100.0
 21
-1942.8955149999999
 31
0.0
  0
TEXT
  5
6B
  8
HIBINO-BASE
 62
     7
 10
118.0
 20
-1993.0693816666669
 30
0.0
 40
32.576822916666671
  1
NOTE
 41
0.7
 11
118.0
 21
-1960.4925587499999
 31
0.0
 73
     3
  0
LINE
  5
6C
  8
HIBINO-BASE
  6
CONTINUOUS
 62
     7
 10
800.0
 20
-2392.8955150000011
 30
0.0
 11
800.0
 21
-1942.8955149999999
 31
0.0
  0
TEXT
  5
6D
  8
HIBINO-BASE
 62
     7
 10
818.0
 20
-1993.0693816666669
 30
0.0
 40
32.576822916666671
  1
TITLE
 41
0.7
 11
818.0
 21
-1960.4925587499999
 31
0.0
 73
     3
  0
TEXT
  5
6E
  8
HIBINO-BASE
 62
     7
 10
1101.3678
 20
-2521.069070999999
 30
0.0
 40
72.000883593749975
  1
ヒビノ株式会社
 41
0.7
 11
1101.3678
 21
-2449.0681874062489
 31
0.0
 73
     3
  0
LINE
  5
6F
  8
HIBINO-BASE
  6
CONTINUOUS
 62
     7
 10
100.0
 20
-2192.8955150000002
 30
0.0
 11
1900.0
 21
-2192.8955150000002
 31
0.0
  0
TEXT
  5
70
  8
HIBINO-BASE
 62
     7
 10
1068.0
 20
-2241.942981666667
 30
0.0
 40
32.576822916666671
  1
DRAWN
 41
0.7
 11
1068.0
 21
-2209.3661587500001
 31
0.0
 73
     3
  0
TEXT
  5
71
  8
HIBINO-BASE
 62
     7
 10
568.0
 20
-2241.942981666667
 30
0.0
 40
32.576822916666671
  1
DATE
 41
0.7
 11
568.0
 21
-2209.3661587500001
 31
0.0
 73
     3
  0
TEXT
  5
72
  8
HIBINO-BASE
 62
     7
 10
368.0
 20
-2241.942981666667
 30
0.0
 40
32.576822916666671
  1
SCALE
 41
0.7
 11
368.0
 21
-2209.3661587500001
 31
0.0
 73
     3
  0
TEXT
  5
73
  8
HIBINO-BASE
 62
     7
 10
818.0
 20
-2241.942981666667
 30
0.0
 40
32.576822916666671
  1
DESIGN
 41
0.7
 11
818.0
 21
-2209.3661587500001
 31
0.0
 73
     3
  0
TEXT
  5
74
  8
HIBINO-BASE
 62
     7
 10
1568.0
 20
-2241.942981666667
 30
0.0
 40
32.576822916666671
  1
DRAWING NO.
 41
0.7
 11
1568.0
 21
-2209.3661587500001
 31
0.0
 73
     3
  0
TEXT
  5
75
  8
HIBINO-BASE
 62
     7
 10
1318.0
 20
-2241.942981666667
 30
0.0
 40
32.576822916666671
  1
CHECK
 41
0.7
 11
1318.0
 21
-2209.3661587500001
 31
0.0
 73
     3
  0
LINE
  5
76
  8
HIBINO-BASE
  6
CONTINUOUS
 62
     7
 10
387.5
 20
-2367.8955150000002
 30
0.0
 11
462.5
 21
-2292.8955150000002
 31
0.0
  0
TEXT
  5
77
  8
HIBINO-BASE
 62
     7
 10
375.0
 20
-2315.0743816666668
 30
0.0
 40
32.576822916666671
  1
1
 41
0.7
 11
375.0
 21
-2282.4975587499998
 31
0.0
 73
     3
  0
LINE
  5
78
  8
HIBINO-BASE
  6
CONTINUOUS
 62
     7
 10
350.0
 20
-2392.8955150000011
 30
0.0
 11
350.0
 21
-2192.8955150000002
 31
0.0
  0
LINE
  5
79
  8
HIBINO-BASE
  6
CONTINUOUS
 62
     7
 10
549.99999999999989
 20
-2392.8955150000011
 30
0.0
 11
549.99999999999989
 21
-2192.8955150000002
 31
0.0
  0
LINE
  5
7A
  8
HIBINO-BASE
  6
CONTINUOUS
 62
     7
 10
1050.0
 20
-2192.8955150000002
 30
0.0
 11
1050.0
 21
-2392.8955150000011
 31
0.0
  0
LINE
  5
7B
  8
HIBINO-BASE
  6
CONTINUOUS
 62
     7
 10
1550.0
 20
-2192.8955150000002
 30
0.0
 11
1550.0
 21
-2392.8955150000011
 31
0.0
  0
LINE
  5
7C
  8
HIBINO-BASE
  6
CONTINUOUS
 62
     7
 10
1300.0
 20
-2392.8955150000011
 30
0.0
 11
1300.0
 21
-2192.8955150000002
 31
0.0
  0
TEXT
  5
7D
  8
HIBINO-BASE
 62
     7
 10
567.13079999999979
 20
-2287.9607156320822
 30
0.0
 40
27.147352430555561
  1
'02.09.
 41
0.7
 11
567.13079999999979
 21
-2260.813363201526
 31
0.0
 73
     3
  0
TEXT
  5
7E
  8
HIBINO-BASE
 62
     7
 10
450.0
 20
-2352.574381666665
 30
0.0
 40
32.576822916666671
  1
20
 41
0.7
 11
450.0
 21
-2319.9975587499989
 31
0.0
 73
     3
  0
TEXT
  5
7F
  8
HIBINO-BASE
 62
     7
 10
1080.116200220692
 20
-2335.622581666667
 30
0.0
 40
32.576822916666671
  1
N.Sasaki
 41
0.7
 11
1080.116200220692
 21
-2303.04575875
 31
0.0
 73
     3
  0
TEXT
  5
80
  8
HIBINO-BASE
 62
     7
 10
177.666666666667
 20
-2353.3755150000002
 30
0.0
 40
65.153645833333329
  1
A4
 41
0.7
 11
177.666666666667
 21
-2288.2218691666671
 31
0.0
 73
     3
  0
TEXT
  5
81
  8
HIBINO-BASE
 62
     7
 10
1330.116200220692
 20
-2335.622581666667
 30
0.0
 40
32.576822916666671
  1
T.Taki
 41
0.7
 11
1330.116200220692
 21
-2303.04575875
 31
0.0
 73
     3
  0
TEXT
  5
82
  8
HIBINO-BASE
 62
     7
 10
119.1666666666667
 20
-2245.2846149999991
 30
0.0
 40
32.576822916666671
  1
PAPER SIZE
 41
0.7
 11
119.1666666666667
 21
-2212.7077920833331
 31
0.0
 73
     3
  0
TEXT
  5
83
  8
HIBINO-BASE
 62
     7
 10
567.13079999999979
 20
-2330.338888888889
 30
0.0
 40
27.147352430555561
  1
'03.01.修正
 41
0.7
 11
567.13079999999979
 21
-2303.1915364583328
 31
0.0
 73
     3
  0
TEXT
  5
84
  8
HIBINO-BASE
 62
     7
 10
567.13079999999979
 20
-2379.180835753697
 30
0.0
 40
27.147352430555561
  1
'05.02.修正
 41
0.7
 11
567.13079999999979
 21
-2352.0334833231409
 31
0.0
 73
     3
  0
LINE
  5
85
  8
SPEC
  6
CONTINUOUS
 62
     7
 10
-1550.0
 20
2607.1044849999998
 30
0.0
 11
1400.0
 21
2607.1044849999998
 31
0.0
  0
LINE
  5
86
  8
SPEC
  6
CONTINUOUS
 62
     7
 10
-1550.0
 20
2532.1044849999998
 30
0.0
 11
1400.0
 21
2532.1044849999998
 31
0.0
  0
LINE
  5
87
  8
SPEC
  6
CONTINUOUS
 62
     7
 10
-1550.0
 20
2382.1044849999998
 30
0.0
 11
1400.0
 21
2382.1044849999998
 31
0.0
  0
LINE
  5
88
  8
SPEC
  6
CONTINUOUS
 62
     7
 10
-1550.0
 20
2457.1044849999998
 30
0.0
 11
1400.0
 21
2457.1044849999998
 31
0.0
  0
LINE
  5
89
  8
SPEC
  6
CONTINUOUS
 62
     7
 10
-1550.0
 20
1857.1044850000001
 30
0.0
 11
1400.0
 21
1857.1044850000001
 31
0.0
  0
LINE
  5
8A
  8
SPEC
  6
CONTINUOUS
 62
     7
 10
-1550.0
 20
1707.1044849999989
 30
0.0
 11
1400.0
 21
1707.1044849999989
 31
0.0
  0
LINE
  5
8B
  8
SPEC
  6
CONTINUOUS
 62
     7
 10
-1550.0
 20
1407.104484999998
 30
0.0
 11
1400.0
 21
1407.104484999998
 31
0.0
  0
LINE
  5
8C
  8
SPEC
  6
CONTINUOUS
 62
     7
 10
-1550.0
 20
1482.1044849999989
 30
0.0
 11
1400.0
 21
1482.1044849999989
 31
0.0
  0
LINE
  5
8D
  8
SPEC
  6
CONTINUOUS
 62
     7
 10
-1550.0
 20
2607.1044849999998
 30
0.0
 11
-1550.0
 21
882.10448499999984
 31
0.0
  0
TEXT
  5
8E
  8
SPEC
 62
     7
 10
-1525.0
 20
2634.969885
 30
0.0
 40
48.865234375000007
  1
仕様
 41
0.7
 11
-1525.0
 21
2683.835119375
 31
0.0
 73
     3
  0
LINE
  5
8F
  8
SPEC
  6
CONTINUOUS
 62
     7
 10
-900.0
 20
2607.1044849999998
 30
0.0
 11
-900.0
 21
882.10448499999984
 31
0.0
  0
LINE
  5
90
  8
SPEC
  6
CONTINUOUS
 62
     7
 10
1400.0
 20
2607.1044849999998
 30
0.0
 11
1400.0
 21
882.10448499999984
 31
0.0
  0
LINE
  5
91
  8
SPEC
  6
CONTINUOUS
 62
     7
 10
-1549.9999999999991
 20
2307.1044850000012
 30
0.0
 11
1400.0
 21
2307.1044850000012
 31
0.0
  0
LINE
  5
92
  8
SPEC
  6
CONTINUOUS
 62
     7
 10
-1550.0
 20
2157.1044849999998
 30
0.0
 11
1400.0
 21
2157.1044849999998
 31
0.0
  0
LINE
  5
93
  8
SPEC
  6
CONTINUOUS
 62
     7
 10
-1550.0
 20
2232.1044849999998
 30
0.0
 11
1400.0
 21
2232.1044849999998
 31
0.0
  0
LINE
  5
94
  8
SPEC
  6
CONTINUOUS
 62
     7
 10
-1550.0
 20
2007.1044850000001
 30
0.0
 11
1400.0
 21
2007.1044850000001
 31
0.0
  0
LINE
  5
95
  8
SPEC
  6
CONTINUOUS
 62
     7
 10
-1550.0
 20
1632.104484999998
 30
0.0
 11
1400.0
 21
1632.104484999998
 31
0.0
  0
TEXT
  5
96
  8
SPEC
 62
     7
 10
-882.0
 20
2547.8629294444431
 30
0.0
 40
38.006293402777771
  1
2Wayフルレンジ
 41
0.7
 11
-882.0
 21
2585.8692228472219
 31
0.0
 73
     3
  0
TEXT
  5
97
  8
SPEC
 62
     7
 10
-882.0
 20
1947.8629294444429
 30
0.0
 40
38.006293402777771
  1
PASSIVE:124dB
 41
0.7
 11
-882.0
 21
1985.869222847221
 31
0.0
 73
     3
  0
TEXT
  5
98
  8
SPEC
 62
     7
 10
-882.0
 20
2032.8629294444429
 30
0.0
 40
38.006293402777771
  1
BI-AMP駆動:95dB(低域),114dB(高域)
 41
0.7
 11
-882.0
 21
2070.869222847221
 31
0.0
 73
     3
  0
TEXT
  5
99
  8
SPEC
 62
     7
 10
-882.0
 20
1732.862929444444
 30
0.0
 40
38.006293402777771
  1
BI-AMP駆動:8\U+03A9(低域),8\U+03A9(高域)
 41
0.7
 11
-882.0
 21
1770.8692228472221
 31
0.0
 73
     3
  0
TEXT
  5
9A
  8
SPEC
 62
     7
 10
-1532.0
 20
1572.862929444444
 30
0.0
 40
38.006293402777771
  1
クロスオーバー
 41
0.7
 11
-1532.0
 21
1610.8692228472221
 31
0.0
 73
     3
  0
TEXT
  5
9B
  8
SPEC
 62
     7
 10
-1532.0
 20
2547.8629294444431
 30
0.0
 40
38.006293402777771
  1
形式
 41
0.7
 11
-1532.0
 21
2585.8692228472219
 31
0.0
 73
     3
  0
TEXT
  5
9C
  8
SPEC
 62
     7
 10
-1532.0
 20
2322.8629294444431
 30
0.0
 40
38.006293402777771
  1
公称カバレージ
 41
0.7
 11
-1532.0
 21
2360.8692228472219
 31
0.0
 73
     3
  0
TEXT
  5
9D
  8
SPEC
 62
     7
 10
-1532.0
 20
2472.862929444444
 30
0.0
 40
38.006293402777771
  1
周波数レンジ(-10dB)
 41
0.7
 11
-1532.0
 21
2510.8692228472219
 31
0.0
 73
     3
  0
TEXT
  5
9E
  8
SPEC
 62
     7
 10
-1532.0
 20
2397.862929444444
 30
0.0
 40
38.006293402777771
  1
周波数特性(\U+00B13dB)
 41
0.7
 11
-1532.0
 21
2435.8692228472219
 31
0.0
 73
     3
  0
TEXT
  5
9F
  8
SPEC
 62
     7
 10
-1532.0
 20
1947.8629294444429
 30
0.0
 40
38.006293402777771
  1
最大音圧(＠1m)
 41
0.7
 11
-1532.0
 21
1985.869222847221
 31
0.0
 73
     3
  0
TEXT
  5
A0
  8
SPEC
 62
     7
 10
-882.0
 20
1572.862929444444
 30
0.0
 40
38.006293402777771
  1
PASSIVE/BI-AMP駆動 切替可能
 41
0.7
 11
-882.0
 21
1610.8692228472221
 31
0.0
 73
     3
  0
TEXT
  5
A1
  8
SPEC
 62
     7
 10
-882.0
 20
1882.8629294444429
 30
0.0
 40
38.006293402777771
  1
BI-AMP駆動:124dB(低域),133dB(高域)
 41
0.7
 11
-882.0
 21
1920.869222847221
 31
0.0
 73
     3
  0
TEXT
  5
A2
  8
SPEC
 62
     7
 10
-882.0
 20
2322.8629294444431
 30
0.0
 40
38.006293402777771
  1
90\U+00B0x 50\U+00B0水平/垂直(90\U+00B0単位で回転可能)
 41
0.7
 11
-882.0
 21
2360.8692228472219
 31
0.0
 73
     3
  0
TEXT
  5
A3
  8
SPEC
 62
     7
 10
-882.0
 20
2397.862929444444
 30
0.0
 40
38.006293402777771
  1
60Hz～17kHz
 41
0.7
 11
-882.0
 21
2435.8692228472219
 31
0.0
 73
     3
  0
TEXT
  5
A4
  8
SPEC
 62
     7
 10
-882.0
 20
2472.862929444444
 30
0.0
 40
38.006293402777771
  1
40Hz～19kHz
 41
0.7
 11
-882.0
 21
2510.8692228472219
 31
0.0
 73
     3
  0
TEXT
  5
A5
  8
SPEC
 62
     7
 10
-1532.0
 20
2247.8629294444431
 30
0.0
 40
38.006293402777771
  1
低域ユニット
 41
0.7
 11
-1532.0
 21
2285.869222847221
 31
0.0
 73
     3
  0
TEXT
  5
A6
  8
SPEC
 62
     7
 10
-882.0
 20
2247.8629294444431
 30
0.0
 40
38.006293402777771
  1
2206H(口径:12インチ)
 41
0.7
 11
-882.0
 21
2285.869222847221
 31
0.0
 73
     3
  0
TEXT
  5
A7
  8
SPEC
 62
     7
 10
-1532.0
 20
2172.8629294444431
 30
0.0
 40
38.006293402777771
  1
高域ユニット
 41
0.7
 11
-1532.0
 21
2210.8692228472219
 31
0.0
 73
     3
  0
TEXT
  5
A8
  8
SPEC
 62
     7
 10
-882.0
 20
2172.8629294444431
 30
0.0
 40
38.006293402777771
  1
2431H(ダイアフラム径:3インチ)
 41
0.7
 11
-882.0
 21
2210.8692228472219
 31
0.0
 73
     3
  0
TEXT
  5
A9
  8
SPEC
 62
     7
 10
-882.0
 20
2097.862929444444
 30
0.0
 40
38.006293402777771
  1
PASSIVE:95dB
 41
0.7
 11
-882.0
 21
2135.8692228472219
 31
0.0
 73
     3
  0
TEXT
  5
AA
  8
SPEC
 62
     7
 10
-1532.0
 20
2097.862929444444
 30
0.0
 40
38.006293402777771
  1
音圧レベル(1W/1m)
 41
0.7
 11
-1532.0
 21
2135.8692228472219
 31
0.0
 73
     3
  0
TEXT
  5
AB
  8
SPEC
 62
     7
 10
-1532.0
 20
1797.8629294444429
 30
0.0
 40
38.006293402777771
  1
公称インピーダンス
 41
0.7
 11
-1532.0
 21
1835.869222847221
 31
0.0
 73
     3
  0
TEXT
  5
AC
  8
SPEC
 62
     7
 10
-882.0
 20
1797.8629294444429
 30
0.0
 40
38.006293402777771
  1
PASSIVE:8\U+03A9
 41
0.7
 11
-882.0
 21
1835.869222847221
 31
0.0
 73
     3
  0
TEXT
  5
AD
  8
SPEC
 62
     7
 10
-882.0
 20
1647.862929444444
 30
0.0
 40
38.006293402777771
  1
600W(PASSIVE)
 41
0.7
 11
-882.0
 21
1685.8692228472221
 31
0.0
 73
     3
  0
TEXT
  5
AE
  8
SPEC
 62
     7
 10
-1532.0
 20
1647.862929444444
 30
0.0
 40
38.006293402777771
  1
許容入力
 41
0.7
 11
-1532.0
 21
1685.8692228472221
 31
0.0
 73
     3
  0
TEXT
  5
AF
  8
SPEC
 62
     7
 10
-882.0
 20
1507.862929444444
 30
0.0
 40
38.006293402777771
  1
PASSIVE(低/高域):1.3kHz
 41
0.7
 11
-882.0
 21
1545.8692228472221
 31
0.0
 73
     3
  0
TEXT
  5
B0
  8
SPEC
 62
     7
 10
-1532.0
 20
1422.862929444444
 30
0.0
 40
38.006293402777771
  1
仕上げ
 41
0.7
 11
-1532.0
 21
1460.8692228472221
 31
0.0
 73
     3
  0
TEXT
  5
B1
  8
SPEC
 62
     7
 10
-882.0
 20
1422.862929444444
 30
0.0
 40
38.006293402777771
  1
黒のデュラフレックス塗装
 41
0.7
 11
-882.0
 21
1460.8692228472221
 31
0.0
 73
     3
  0
TEXT
  5
B2
  8
SPEC
 62
     7
 10
-1532.0
 20
1347.8628849999991
 30
0.0
 40
38.006293402777771
  1
極性
 41
0.7
 11
-1532.0
 21
1385.8691784027769
 31
0.0
 73
     3
  0
TEXT
  5
B3
  8
SPEC
 62
     7
 10
-882.0
 20
1347.8628849999991
 30
0.0
 40
38.006293402777771
  1
PASSIVE:正相(低域),逆相(高域)
 41
0.7
 11
-882.0
 21
1385.8691784027769
 31
0.0
 73
     3
  0
LINE
  5
B4
  8
SPEC
  6
CONTINUOUS
 62
     7
 10
-1550.0
 20
1182.1044849999989
 30
0.0
 11
1400.0
 21
1182.1044849999989
 31
0.0
  0
TEXT
  5
B5
  8
SPEC
 62
     7
 10
-1532.0
 20
1122.862929444444
 30
0.0
 40
38.006293402777771
  1
金具用取付穴
 41
0.7
 11
-1532.0
 21
1160.8692228472221
 31
0.0
 73
     3
  0
TEXT
  5
B6
  8
SPEC
 62
     7
 10
-882.0
 20
1122.862929444444
 30
0.0
 40
38.006293402777771
  1
M10-15ヶ所
 41
0.7
 11
-882.0
 21
1160.8692228472221
 31
0.0
 73
     3
  0
TEXT
  5
B7
  8
SPEC
 62
     7
 10
-1532.0
 20
1047.862929444444
 30
0.0
 40
38.006293402777771
  1
コネクタ 
 41
0.7
 11
-1532.0
 21
1085.8692228472221
 31
0.0
 73
     3
  0
TEXT
  5
B8
  8
SPEC
 62
     7
 10
-882.0
 20
1047.862929444444
 30
0.0
 40
38.006293402777771
  1
NEUTRIK NL4 スピコン,ストリップタ ーミナル
 41
0.7
 11
-882.0
 21
1085.8692228472221
 31
0.0
 73
     3
  0
TEXT
  5
B9
  8
SPEC
 62
     7
 10
-1532.0
 20
972.86292944444426
 30
0.0
 40
38.006293402777771
  1
寸法
 41
0.7
 11
-1532.0
 21
1010.869222847222
 31
0.0
 73
     3
  0
TEXT
  5
BA
  8
SPEC
 62
     7
 10
-1532.0
 20
897.86292944444381
 30
0.0
 40
38.006293402777771
  1
重量
 41
0.7
 11
-1532.0
 21
935.86922284722164
 31
0.0
 73
     3
  0
TEXT
  5
BB
  8
SPEC
 62
     7
 10
-882.0
 20
897.86292944444381
 30
0.0
 40
38.006293402777771
  1
約28.5kg
 41
0.7
 11
-882.0
 21
935.86922284722164
 31
0.0
 73
     3
  0
LINE
  5
BC
  8
SPEC
  6
CONTINUOUS
 62
     7
 10
-1550.0
 20
1107.104484999998
 30
0.0
 11
1400.0
 21
1107.104484999998
 31
0.0
  0
LINE
  5
BD
  8
SPEC
  6
CONTINUOUS
 62
     7
 10
-1550.0
 20
1032.104484999998
 30
0.0
 11
1400.0
 21
1032.104484999998
 31
0.0
  0
LINE
  5
BE
  8
SPEC
  6
CONTINUOUS
 62
     7
 10
-1550.0
 20
882.10448499999984
 30
0.0
 11
1400.0
 21
882.10448499999984
 31
0.0
  0
LINE
  5
BF
  8
SPEC
  6
CONTINUOUS
 62
     7
 10
-1550.0
 20
957.10448499999984
 30
0.0
 11
1400.0
 21
957.10448499999984
 31
0.0
  0
LINE
  5
C0
  8
SPEC
  6
CONTINUOUS
 62
     7
 10
-1550.0
 20
1257.1044849999989
 30
0.0
 11
1400.0
 21
1257.1044849999989
 31
0.0
  0
TEXT
  5
C1
  8
SPEC
 62
     7
 10
-1532.0
 20
1197.862929444444
 30
0.0
 40
38.006293402777771
  1
耐候性規格
 41
0.7
 11
-1532.0
 21
1235.8692228472221
 31
0.0
 73
     3
  0
TEXT
  5
C2
  8
SPEC
 62
     7
 10
-882.0
 20
1197.862929444444
 30
0.0
 40
38.006293402777771
  1
Mil-Std 810,IPX3 Per IEC 529
 41
0.7
 11
-882.0
 21
1235.8692228472221
 31
0.0
 73
     3
  0
TEXT
  5
C3
  8
SPEC
 62
     7
 10
-882.0
 20
1282.8628849999991
 30
0.0
 40
38.006293402777771
  1
BI-AMP:正相(低域),逆相(高域)
 41
0.7
 11
-882.0
 21
1320.8691784027769
 31
0.0
 73
     3
  0
TEXT
  5
C4
  8
SPEC
 62
     7
 10
-882.0
 20
972.86292944444426
 30
0.0
 40
38.006293402777771
  1
371(W)\U+00D7713(H)\U+00D7460(D)mm
 41
0.7
 11
-882.0
 21
1010.869222847222
 31
0.0
 73
     3
  0
LINE
  5
C5
  8
DIMNSIONS
  6
CONTINUOUS
 62
     7
 10
51.851324286844523
 20
-776.05657656950279
 30
0.0
 11
75.0
 21
-650.0
 31
0.0
  0
LINE
  5
C6
  8
DIMNSIONS
  6
CONTINUOUS
 62
     7
 10
51.851324286844523
 20
-776.05657656950279
 30
0.0
 11
48.962811970538503
 21
-734.74892595560834
 31
0.0
  0
LINE
  5
C7
  8
DIMNSIONS
  6
CONTINUOUS
 62
     7
 10
51.851324286844523
 20
-776.05657656950279
 30
0.0
 11
70.003624548726393
 21
-738.8388456090654
 31
0.0
  0
LINE
  5
C8
  8
DIMNSIONS
  6
CONTINUOUS
 62
     7
 10
75.0
 20
-650.0
 30
0.0
 11
115.0
 21
-650.0
 31
0.0
  0
TEXT
  5
C9
  8
DIMNSIONS
 62
     7
 10
115.0
 20
-675.39999999999986
 30
0.0
 40
54.2947048611111
  1
3-M10
 41
0.7
 11
115.0
 21
-621.10529513888889
 31
0.0
 73
     3
  0
LINE
  5
CA
  8
DIMNSIONS
  6
CONTINUOUS
 62
     7
 10
-1148.228805350456
 20
-32.404190497601121
 30
0.0
 11
-1125.0
 21
99.999999999999957
 31
0.0
  0
LINE
  5
CB
  8
DIMNSIONS
  6
CONTINUOUS
 62
     7
 10
-1148.228805350456
 20
-32.404190497601121
 30
0.0
 11
-1151.837795639829
 21
8.8467572700832022
 31
0.0
  0
LINE
  5
CC
  8
DIMNSIONS
  6
CONTINUOUS
 62
     7
 10
-1148.228805350456
 20
-32.404190497601121
 30
0.0
 11
-1130.7288087392219
 21
5.1246733440846679
 31
0.0
  0
LINE
  5
CD
  8
DIMNSIONS
  6
CONTINUOUS
 62
     7
 10
-1125.0
 20
99.999999999999957
 30
0.0
 11
-1085.0
 21
99.999999999999957
 31
0.0
  0
TEXT
  5
CE
  8
DIMNSIONS
 62
     7
 10
-1085.0
 20
74.600000000000023
 30
0.0
 40
54.2947048611111
  1
8-M10
 41
0.7
 11
-1085.0
 21
128.89470486111111
 31
0.0
 73
     3
  0
TEXT
  5
CF
  8
DIMNSIONS
 62
     7
 10
-300.0
 20
-2147.5057149999998
 30
0.0
 40
48.865234375000007
  1
(単位：mm)
 41
0.7
 11
-300.0
 21
-2098.6404806249998
 31
0.0
 73
     3
  0
LINE
  5
D0
  8
DIMNSIONS
  6
CONTINUOUS
 62
     7
 10
-1362.72
 20
-1456.3619999999989
 30
0.0
 11
-1590.0
 21
-1456.3619999999989
 31
0.0
  0
LINE
  5
D1
  8
DIMNSIONS
  6
CONTINUOUS
 62
     7
 10
-1362.72
 20
-743.63800000000049
 30
0.0
 11
-1590.0
 21
-743.63800000000049
 31
0.0
  0
LINE
  5
D2
  8
DIMNSIONS
  6
CONTINUOUS
 62
     7
 10
-1550.0
 20
-1456.3619999999989
 30
0.0
 11
-1550.0
 21
-743.63800000000049
 31
0.0
  0
LINE
  5
D3
  8
DIMNSIONS
  6
CONTINUOUS
 62
     7
 10
-1550.0
 20
-1456.3619999999989
 30
0.0
 11
-1563.400795903005
 21
-1406.3495488281239
 31
0.0
  0
LINE
  5
D4
  8
DIMNSIONS
  6
CONTINUOUS
 62
     7
 10
-1550.0
 20
-1456.3619999999989
 30
0.0
 11
-1536.599204096995
 21
-1406.3495488281239
 31
0.0
  0
LINE
  5
D5
  8
DIMNSIONS
  6
CONTINUOUS
 62
     7
 10
-1550.0
 20
-743.63800000000049
 30
0.0
 11
-1536.599204096995
 21
-793.65045117187515
 31
0.0
  0
LINE
  5
D6
  8
DIMNSIONS
  6
CONTINUOUS
 62
     7
 10
-1550.0
 20
-743.63800000000049
 30
0.0
 11
-1563.400795903005
 21
-793.65045117187515
 31
0.0
  0
TEXT
  5
D7
  8
DIMNSIONS
 62
     7
 10
-1569.877777777778
 20
-1152.916666666667
 30
0.0
 40
54.2947048611111
  1
713
 50
90.0
 41
0.7
 11
-1624.1724826388891
 21
-1152.916666666667
 31
0.0
 73
     3
  0
LINE
  5
D8
  8
DIMNSIONS
  6
CONTINUOUS
 62
     7
 10
-1335.4200000000001
 20
-1483.6619999999989
 30
0.0
 11
-1335.4200000000001
 21
-1690.0
 31
0.0
  0
LINE
  5
D9
  8
DIMNSIONS
  6
CONTINUOUS
 62
     7
 10
-964.58000000000015
 20
-1483.6619999999989
 30
0.0
 11
-964.58000000000015
 21
-1690.0
 31
0.0
  0
LINE
  5
DA
  8
DIMNSIONS
  6
CONTINUOUS
 62
     7
 10
-1335.4200000000001
 20
-1650.0
 30
0.0
 11
-964.58000000000015
 21
-1650.0
 31
0.0
  0
LINE
  5
DB
  8
DIMNSIONS
  6
CONTINUOUS
 62
     7
 10
-1335.4200000000001
 20
-1650.0
 30
0.0
 11
-1285.4075488281251
 21
-1636.599204096995
 31
0.0
  0
LINE
  5
DC
  8
DIMNSIONS
  6
CONTINUOUS
 62
     7
 10
-1335.4200000000001
 20
-1650.0
 30
0.0
 11
-1285.4075488281251
 21
-1663.400795903005
 31
0.0
  0
LINE
  5
DD
  8
DIMNSIONS
  6
CONTINUOUS
 62
     7
 10
-964.58000000000015
 20
-1650.0
 30
0.0
 11
-1014.592451171874
 21
-1663.400795903005
 31
0.0
  0
LINE
  5
DE
  8
DIMNSIONS
  6
CONTINUOUS
 62
     7
 10
-964.58000000000015
 20
-1650.0
 30
0.0
 11
-1014.592451171874
 21
-1636.599204096995
 31
0.0
  0
TEXT
  5
DF
  8
DIMNSIONS
 62
     7
 10
-1202.916666666667
 20
-1630.122222222222
 30
0.0
 40
54.2947048611111
  1
371
 41
0.7
 11
-1202.916666666667
 21
-1575.8275173611109
 31
0.0
 73
     3
  0
LINE
  5
E0
  8
DIMNSIONS
  6
CONTINUOUS
 62
     7
 10
-1255.6590000000001
 20
0.0
 30
0.0
 11
-1590.0
 21
0.0
 31
0.0
  0
LINE
  5
E1
  8
DIMNSIONS
  6
CONTINUOUS
 62
     7
 10
-1190.0
 20
-459.74000000000001
 30
0.0
 11
-1590.0
 21
-459.74000000000001
 31
0.0
  0
LINE
  5
E2
  8
DIMNSIONS
  6
CONTINUOUS
 62
     7
 10
-1550.0
 20
0.0
 30
0.0
 11
-1550.0
 21
-459.74000000000001
 31
0.0
  0
LINE
  5
E3
  8
DIMNSIONS
  6
CONTINUOUS
 62
     7
 10
-1550.0
 20
0.0
 30
0.0
 11
-1536.599204096995
 21
-50.012451171875
 31
0.0
  0
LINE
  5
E4
  8
DIMNSIONS
  6
CONTINUOUS
 62
     7
 10
-1550.0
 20
0.0
 30
0.0
 11
-1563.400795903005
 21
-50.012451171875
 31
0.0
  0
LINE
  5
E5
  8
DIMNSIONS
  6
CONTINUOUS
 62
     7
 10
-1550.0
 20
-459.74000000000001
 30
0.0
 11
-1563.400795903005
 21
-409.72754882812478
 31
0.0
  0
LINE
  5
E6
  8
DIMNSIONS
  6
CONTINUOUS
 62
     7
 10
-1550.0
 20
-459.74000000000001
 30
0.0
 11
-1536.599204096995
 21
-409.72754882812478
 31
0.0
  0
TEXT
  5
E7
  8
DIMNSIONS
 62
     7
 10
-1569.877777777778
 20
-282.78666666666669
 30
0.0
 40
54.2947048611111
  1
460
 50
90.0
 41
0.7
 11
-1624.1724826388891
 21
-282.78666666666669
 31
0.0
 73
     3
  0
LINE
  5
E8
  8
DIMNSIONS
  6
CONTINUOUS
 62
     7
 10
-859.73999999999842
 20
-1483.6619999999989
 30
0.0
 11
-859.73999999999842
 21
-1690.0
 31
0.0
  0
LINE
  5
E9
  8
DIMNSIONS
  6
CONTINUOUS
 62
     7
 10
-400.0
 20
-1483.6619999999989
 30
0.0
 11
-400.0
 21
-1690.0
 31
0.0
  0
LINE
  5
EA
  8
DIMNSIONS
  6
CONTINUOUS
 62
     7
 10
-859.73999999999842
 20
-1650.0
 30
0.0
 11
-400.0
 21
-1650.0
 31
0.0
  0
LINE
  5
EB
  8
DIMNSIONS
  6
CONTINUOUS
 62
     7
 10
-859.73999999999842
 20
-1650.0
 30
0.0
 11
-809.72754882812387
 21
-1636.599204096995
 31
0.0
  0
LINE
  5
EC
  8
DIMNSIONS
  6
CONTINUOUS
 62
     7
 10
-859.73999999999842
 20
-1650.0
 30
0.0
 11
-809.72754882812387
 21
-1663.400795903005
 31
0.0
  0
LINE
  5
ED
  8
DIMNSIONS
  6
CONTINUOUS
 62
     7
 10
-400.0
 20
-1650.0
 30
0.0
 11
-450.012451171875
 21
-1663.400795903005
 31
0.0
  0
LINE
  5
EE
  8
DIMNSIONS
  6
CONTINUOUS
 62
     7
 10
-400.0
 20
-1650.0
 30
0.0
 11
-450.012451171875
 21
-1636.599204096995
 31
0.0
  0
TEXT
  5
EF
  8
DIMNSIONS
 62
     7
 10
-682.78666666666595
 20
-1630.122222222222
 30
0.0
 40
54.2947048611111
  1
460
 41
0.7
 11
-682.78666666666595
 21
-1575.8275173611109
 31
0.0
 73
     3
  0
LINE
  5
F0
  8
DIMNSIONS
  6
CONTINUOUS
 62
     7
 10
-964.70699999999988
 20
-340.71800000000047
 30
0.0
 11
-964.70699999999988
 21
-33.136673614786893
 31
0.0
  0
ARC
  5
F1
  8
DIMNSIONS
  6
CONTINUOUS
 62
     7
 10
-964.70699999999988
 20
-410.71800000000081
 30
0.0
 40
337.58132638521408
 50
90.0
 51
104.98782841100579
  0
LINE
  5
F2
  8
DIMNSIONS
  6
CONTINUOUS
 62
     7
 10
-1052.0102043049831
 20
-84.620924818265124
 30
0.0
 11
-1015.793496943556
 21
-64.545676114009595
 31
0.0
  0
LINE
  5
F3
  8
DIMNSIONS
  6
CONTINUOUS
 62
     7
 10
-1052.0102043049831
 20
-84.620924818265124
 30
0.0
 11
-1010.607991336432
 21
-85.343603133803057
 31
0.0
  0
LINE
  5
F4
  8
DIMNSIONS
  6
CONTINUOUS
 62
     7
 10
-964.70699999999988
 20
-73.136673614786915
 30
0.0
 11
-1004.70455859375
 21
-83.853987139198722
 31
0.0
  0
LINE
  5
F5
  8
DIMNSIONS
  6
CONTINUOUS
 62
     7
 10
-964.70699999999988
 20
-73.136673614786915
 30
0.0
 11
-1004.70455859375
 21
-62.419360090375079
 31
0.0
  0
TEXT
  5
F6
  8
DIMNSIONS
 62
     7
 10
-1062.83883307985
 20
-54.73368581357505
 30
0.0
 40
54.2947048611111
  1
15\U+00B0
 50
4.3962517591963932
 41
0.7
 11
-1067.0007286156131
 21
-0.5987285169763937
 31
0.0
 73
     3
  0
LINE
  5
F7
  8
DIMNSIONS
  6
CONTINUOUS
 62
     7
 10
-1255.6590000000001
 20
0.0
 30
0.0
 11
-1315.0
 21
0.0
 31
0.0
  0
LINE
  5
F8
  8
DIMNSIONS
  6
CONTINUOUS
 62
     7
 10
-1200.25
 20
-42.5
 30
0.0
 11
-1315.0
 21
-42.5
 31
0.0
  0
LINE
  5
F9
  8
DIMNSIONS
  6
CONTINUOUS
 62
     7
 10
-1275.0
 20
-42.5
 30
0.0
 11
-1275.0
 21
0.0
 31
0.0
  0
LINE
  5
FA
  8
DIMNSIONS
  6
CONTINUOUS
 62
     7
 10
-1275.0
 20
0.0
 30
0.0
 11
-1275.0
 21
166.111111111111
 31
0.0
  0
LINE
  5
FB
  8
DIMNSIONS
  6
CONTINUOUS
 62
     7
 10
-1275.0
 20
0.0
 30
0.0
 11
-1288.400795903005
 21
50.012451171875
 31
0.0
  0
LINE
  5
FC
  8
DIMNSIONS
  6
CONTINUOUS
 62
     7
 10
-1275.0
 20
0.0
 30
0.0
 11
-1261.599204096995
 21
50.012451171875
 31
0.0
  0
LINE
  5
FD
  8
DIMNSIONS
  6
CONTINUOUS
 62
     7
 10
-1275.0
 20
-42.5
 30
0.0
 11
-1275.0
 21
-142.5
 31
0.0
  0
LINE
  5
FE
  8
DIMNSIONS
  6
CONTINUOUS
 62
     7
 10
-1275.0
 20
-42.5
 30
0.0
 11
-1261.599204096995
 21
-92.512451171874986
 31
0.0
  0
LINE
  5
FF
  8
DIMNSIONS
  6
CONTINUOUS
 62
     7
 10
-1275.0
 20
-42.5
 30
0.0
 11
-1288.400795903005
 21
-92.512451171874986
 31
0.0
  0
TEXT
  5
100
  8
DIMNSIONS
 62
     7
 10
-1294.877777777778
 20
24.999999999999879
 30
0.0
 40
54.2947048611111
  1
42.5
 50
90.0
 41
0.7
 11
-1349.1724826388891
 21
24.99999999999989
 31
0.0
 73
     3
  0
LINE
  5
101
  8
DIMNSIONS
  6
CONTINUOUS
 62
     7
 10
-1255.6590000000001
 20
0.0
 30
0.0
 11
-1390.0
 21
0.0
 31
0.0
  0
LINE
  5
102
  8
DIMNSIONS
  6
CONTINUOUS
 62
     7
 10
-1200.25
 20
-244.5
 30
0.0
 11
-1390.0
 21
-244.5
 31
0.0
  0
LINE
  5
103
  8
DIMNSIONS
  6
CONTINUOUS
 62
     7
 10
-1350.0
 20
0.0
 30
0.0
 11
-1350.0
 21
-244.5
 31
0.0
  0
LINE
  5
104
  8
DIMNSIONS
  6
CONTINUOUS
 62
     7
 10
-1350.0
 20
0.0
 30
0.0
 11
-1336.599204096995
 21
-50.012451171875
 31
0.0
  0
LINE
  5
105
  8
DIMNSIONS
  6
CONTINUOUS
 62
     7
 10
-1350.0
 20
0.0
 30
0.0
 11
-1363.400795903005
 21
-50.012451171875
 31
0.0
  0
LINE
  5
106
  8
DIMNSIONS
  6
CONTINUOUS
 62
     7
 10
-1350.0
 20
-244.5
 30
0.0
 11
-1363.400795903005
 21
-194.487548828125
 31
0.0
  0
LINE
  5
107
  8
DIMNSIONS
  6
CONTINUOUS
 62
     7
 10
-1350.0
 20
-244.5
 30
0.0
 11
-1336.599204096995
 21
-194.487548828125
 31
0.0
  0
TEXT
  5
108
  8
DIMNSIONS
 62
     7
 10
-1369.877777777778
 20
-210.44444444444451
 30
0.0
 40
54.2947048611111
  1
244.5
 50
90.0
 41
0.7
 11
-1424.1724826388891
 21
-210.44444444444451
 31
0.0
 73
     3
  0
LINE
  5
109
  8
DIMNSIONS
  6
CONTINUOUS
 62
     7
 10
-1274.3714477097201
 20
-397.75
 30
0.0
 11
-1274.3714477097201
 21
-640.0
 31
0.0
  0
LINE
  5
10A
  8
DIMNSIONS
  6
CONTINUOUS
 62
     7
 10
-1025.628552290279
 20
-397.75
 30
0.0
 11
-1025.628552290279
 21
-640.0
 31
0.0
  0
LINE
  5
10B
  8
DIMNSIONS
  6
CONTINUOUS
 62
     7
 10
-1274.3714477097201
 20
-600.0
 30
0.0
 11
-1025.628552290279
 21
-600.0
 31
0.0
  0
LINE
  5
10C
  8
DIMNSIONS
  6
CONTINUOUS
 62
     7
 10
-1274.3714477097201
 20
-600.0
 30
0.0
 11
-1224.3589965378451
 21
-586.59920409699521
 31
0.0
  0
LINE
  5
10D
  8
DIMNSIONS
  6
CONTINUOUS
 62
     7
 10
-1274.3714477097201
 20
-600.0
 30
0.0
 11
-1224.3589965378451
 21
-613.40079590300468
 31
0.0
  0
LINE
  5
10E
  8
DIMNSIONS
  6
CONTINUOUS
 62
     7
 10
-1025.628552290279
 20
-600.0
 30
0.0
 11
-1075.641003462154
 21
-613.40079590300468
 31
0.0
  0
LINE
  5
10F
  8
DIMNSIONS
  6
CONTINUOUS
 62
     7
 10
-1025.628552290279
 20
-600.0
 30
0.0
 11
-1075.641003462154
 21
-586.59920409699521
 31
0.0
  0
TEXT
  5
110
  8
DIMNSIONS
 62
     7
 10
-1202.916666666667
 20
-580.12222222222215
 30
0.0
 40
54.2947048611111
  1
249
 41
0.7
 11
-1202.916666666667
 21
-525.82751736111106
 31
0.0
 73
     3
  0
LINE
  5
111
  8
DIMNSIONS
  6
CONTINUOUS
 62
     7
 10
-1255.6590000000001
 20
0.0
 30
0.0
 11
-1490.0
 21
0.0
 31
0.0
  0
LINE
  5
112
  8
DIMNSIONS
  6
CONTINUOUS
 62
     7
 10
-1324.6214477097201
 20
-347.5
 30
0.0
 11
-1490.0
 21
-347.5
 31
0.0
  0
LINE
  5
113
  8
DIMNSIONS
  6
CONTINUOUS
 62
     7
 10
-1450.0
 20
0.0
 30
0.0
 11
-1450.0
 21
-347.5
 31
0.0
  0
LINE
  5
114
  8
DIMNSIONS
  6
CONTINUOUS
 62
     7
 10
-1450.0
 20
0.0
 30
0.0
 11
-1436.599204096995
 21
-50.012451171875
 31
0.0
  0
LINE
  5
115
  8
DIMNSIONS
  6
CONTINUOUS
 62
     7
 10
-1450.0
 20
0.0
 30
0.0
 11
-1463.400795903005
 21
-50.012451171875
 31
0.0
  0
LINE
  5
116
  8
DIMNSIONS
  6
CONTINUOUS
 62
     7
 10
-1450.0
 20
-347.5
 30
0.0
 11
-1463.400795903005
 21
-297.48754882812511
 31
0.0
  0
LINE
  5
117
  8
DIMNSIONS
  6
CONTINUOUS
 62
     7
 10
-1450.0
 20
-347.5
 30
0.0
 11
-1436.599204096995
 21
-297.48754882812511
 31
0.0
  0
TEXT
  5
118
  8
DIMNSIONS
 62
     7
 10
-1469.877777777778
 20
-261.9444444444444
 30
0.0
 40
54.2947048611111
  1
347.5
 50
90.0
 41
0.7
 11
-1524.1724826388891
 21
-261.9444444444444
 31
0.0
 73
     3
  0
LINE
  5
119
  8
DIMNSIONS
  6
CONTINUOUS
 62
     7
 10
-372.69999999999987
 20
-1456.3619999999989
 30
0.0
 11
-260.0
 21
-1456.3619999999989
 31
0.0
  0
LINE
  5
11A
  8
DIMNSIONS
  6
CONTINUOUS
 62
     7
 10
-686.39631824857531
 20
-1413.8619999999989
 30
0.0
 11
-260.0
 21
-1413.8619999999989
 31
0.0
  0
LINE
  5
11B
  8
DIMNSIONS
  6
CONTINUOUS
 62
     7
 10
-300.0
 20
-1413.8619999999989
 30
0.0
 11
-300.0
 21
-1456.3619999999989
 31
0.0
  0
LINE
  5
11C
  8
DIMNSIONS
  6
CONTINUOUS
 62
     7
 10
-300.0
 20
-1456.3619999999989
 30
0.0
 11
-300.0
 21
-1556.3619999999989
 31
0.0
  0
LINE
  5
11D
  8
DIMNSIONS
  6
CONTINUOUS
 62
     7
 10
-300.0
 20
-1456.3619999999989
 30
0.0
 11
-286.59920409699521
 21
-1506.3744511718739
 31
0.0
  0
LINE
  5
11E
  8
DIMNSIONS
  6
CONTINUOUS
 62
     7
 10
-300.0
 20
-1456.3619999999989
 30
0.0
 11
-313.40079590300479
 21
-1506.3744511718739
 31
0.0
  0
LINE
  5
11F
  8
DIMNSIONS
  6
CONTINUOUS
 62
     7
 10
-300.0
 20
-1413.8619999999989
 30
0.0
 11
-300.0
 21
-1208.888888888888
 31
0.0
  0
LINE
  5
120
  8
DIMNSIONS
  6
CONTINUOUS
 62
     7
 10
-300.0
 20
-1413.8619999999989
 30
0.0
 11
-313.40079590300479
 21
-1363.8495488281251
 31
0.0
  0
LINE
  5
121
  8
DIMNSIONS
  6
CONTINUOUS
 62
     7
 10
-300.0
 20
-1413.8619999999989
 30
0.0
 11
-286.59920409699521
 21
-1363.8495488281251
 31
0.0
  0
TEXT
  5
122
  8
DIMNSIONS
 62
     7
 10
-319.87777777777779
 20
-1350.0
 30
0.0
 40
54.2947048611111
  1
42.5
 50
90.0
 41
0.7
 11
-374.17248263888888
 21
-1350.0
 31
0.0
 73
     3
  0
LINE
  5
123
  8
DIMNSIONS
  6
CONTINUOUS
 62
     7
 10
-372.69999999999987
 20
-1456.3619999999989
 30
0.0
 11
-185.0
 21
-1456.3619999999989
 31
0.0
  0
LINE
  5
124
  8
DIMNSIONS
  6
CONTINUOUS
 62
     7
 10
-686.39631824857531
 20
-786.13800000000037
 30
0.0
 11
-185.0
 21
-786.13800000000037
 31
0.0
  0
LINE
  5
125
  8
DIMNSIONS
  6
CONTINUOUS
 62
     7
 10
-225.0
 20
-1456.3619999999989
 30
0.0
 11
-225.0
 21
-786.13800000000037
 31
0.0
  0
LINE
  5
126
  8
DIMNSIONS
  6
CONTINUOUS
 62
     7
 10
-225.0
 20
-1456.3619999999989
 30
0.0
 11
-238.40079590300491
 21
-1406.3495488281239
 31
0.0
  0
LINE
  5
127
  8
DIMNSIONS
  6
CONTINUOUS
 62
     7
 10
-225.0
 20
-1456.3619999999989
 30
0.0
 11
-211.59920409699521
 21
-1406.3495488281239
 31
0.0
  0
LINE
  5
128
  8
DIMNSIONS
  6
CONTINUOUS
 62
     7
 10
-225.0
 20
-786.13800000000037
 30
0.0
 11
-211.59920409699521
 21
-836.1504511718756
 31
0.0
  0
LINE
  5
129
  8
DIMNSIONS
  6
CONTINUOUS
 62
     7
 10
-225.0
 20
-786.13800000000037
 30
0.0
 11
-238.40079590300491
 21
-836.1504511718756
 31
0.0
  0
TEXT
  5
12A
  8
DIMNSIONS
 62
     7
 10
-244.87777777777771
 20
-1138.1944444444439
 30
0.0
 40
54.2947048611111
  1
670.2
 50
90.0
 41
0.7
 11
-299.17248263888888
 21
-1138.1944444444439
 31
0.0
 73
     3
  0
LINE
  5
12B
  8
DIMNSIONS
  6
CONTINUOUS
 62
     7
 10
-733.73835299217421
 20
-776.22396168315299
 30
0.0
 11
-700.0
 21
-650.0
 31
0.0
  0
LINE
  5
12C
  8
DIMNSIONS
  6
CONTINUOUS
 62
     7
 10
-733.73835299217421
 20
-776.22396168315299
 30
0.0
 11
-733.73835299217421
 21
-734.81544199648681
 31
0.0
  0
LINE
  5
12D
  8
DIMNSIONS
  6
CONTINUOUS
 62
     7
 10
-733.73835299217421
 20
-776.22396168315299
 30
0.0
 11
-713.03409314884152
 21
-740.36313170139204
 31
0.0
  0
LINE
  5
12E
  8
DIMNSIONS
  6
CONTINUOUS
 62
     7
 10
-700.0
 20
-650.0
 30
0.0
 11
-660.0
 21
-650.0
 31
0.0
  0
TEXT
  5
12F
  8
DIMNSIONS
 62
     7
 10
-660.0
 20
-675.39999999999986
 30
0.0
 40
54.2947048611111
  1
4-M10
 41
0.7
 11
-660.0
 21
-621.10529513888889
 31
0.0
 73
     3
  0
LINE
  5
130
  8
DIMNSIONS
  6
CONTINUOUS
 62
     7
 10
262.72000000000008
 20
-1456.3619999999989
 30
0.0
 11
315.0
 21
-1456.3619999999989
 31
0.0
  0
LINE
  5
131
  8
DIMNSIONS
  6
CONTINUOUS
 62
     7
 10
100.25
 20
-1413.8619999999989
 30
0.0
 11
315.0
 21
-1413.8619999999989
 31
0.0
  0
LINE
  5
132
  8
DIMNSIONS
  6
CONTINUOUS
 62
     7
 10
275.0
 20
-1413.8619999999989
 30
0.0
 11
275.0
 21
-1456.3619999999989
 31
0.0
  0
LINE
  5
133
  8
DIMNSIONS
  6
CONTINUOUS
 62
     7
 10
275.0
 20
-1456.3619999999989
 30
0.0
 11
275.0
 21
-1649.753111111103
 31
0.0
  0
LINE
  5
134
  8
DIMNSIONS
  6
CONTINUOUS
 62
     7
 10
275.0
 20
-1456.3619999999989
 30
0.0
 11
288.40079590300479
 21
-1506.3744511718739
 31
0.0
  0
LINE
  5
135
  8
DIMNSIONS
  6
CONTINUOUS
 62
     7
 10
275.0
 20
-1456.3619999999989
 30
0.0
 11
261.59920409699509
 21
-1506.3744511718739
 31
0.0
  0
LINE
  5
136
  8
DIMNSIONS
  6
CONTINUOUS
 62
     7
 10
275.0
 20
-1413.8619999999989
 30
0.0
 11
275.0
 21
-1313.861999999998
 31
0.0
  0
LINE
  5
137
  8
DIMNSIONS
  6
CONTINUOUS
 62
     7
 10
275.0
 20
-1413.8619999999989
 30
0.0
 11
261.59920409699509
 21
-1363.8495488281251
 31
0.0
  0
LINE
  5
138
  8
DIMNSIONS
  6
CONTINUOUS
 62
     7
 10
275.0
 20
-1413.8619999999989
 30
0.0
 11
288.40079590300479
 21
-1363.8495488281251
 31
0.0
  0
TEXT
  5
139
  8
DIMNSIONS
 62
     7
 10
255.12222222222221
 20
-1649.753111111103
 30
0.0
 40
54.2947048611111
  1
42.5
 50
90.0
 41
0.7
 11
200.82751736111109
 21
-1649.753111111103
 31
0.0
 73
     3
  0
LINE
  5
13A
  8
DIMNSIONS
  6
CONTINUOUS
 62
     7
 10
262.72000000000008
 20
-1456.3619999999989
 30
0.0
 11
390.0
 21
-1456.3619999999989
 31
0.0
  0
LINE
  5
13B
  8
DIMNSIONS
  6
CONTINUOUS
 62
     7
 10
100.25
 20
-1100.1379999999999
 30
0.0
 11
390.0
 21
-1100.1379999999999
 31
0.0
  0
LINE
  5
13C
  8
DIMNSIONS
  6
CONTINUOUS
 62
     7
 10
350.0
 20
-1456.3619999999989
 30
0.0
 11
350.0
 21
-1100.1379999999999
 31
0.0
  0
LINE
  5
13D
  8
DIMNSIONS
  6
CONTINUOUS
 62
     7
 10
350.0
 20
-1456.3619999999989
 30
0.0
 11
336.59920409699492
 21
-1406.3495488281239
 31
0.0
  0
LINE
  5
13E
  8
DIMNSIONS
  6
CONTINUOUS
 62
     7
 10
350.0
 20
-1456.3619999999989
 30
0.0
 11
363.40079590300491
 21
-1406.3495488281239
 31
0.0
  0
LINE
  5
13F
  8
DIMNSIONS
  6
CONTINUOUS
 62
     7
 10
350.0
 20
-1100.1379999999999
 30
0.0
 11
363.40079590300491
 21
-1150.150451171874
 31
0.0
  0
LINE
  5
140
  8
DIMNSIONS
  6
CONTINUOUS
 62
     7
 10
350.0
 20
-1100.1379999999999
 30
0.0
 11
336.59920409699492
 21
-1150.150451171874
 31
0.0
  0
TEXT
  5
141
  8
DIMNSIONS
 62
     7
 10
330.12222222222221
 20
-1313.1944444444439
 30
0.0
 40
54.2947048611111
  1
356.2
 50
90.0
 41
0.7
 11
275.82751736111112
 21
-1313.1944444444439
 31
0.0
 73
     3
  0
LINE
  5
142
  8
DIMNSIONS
  6
CONTINUOUS
 62
     7
 10
262.72000000000008
 20
-1456.3619999999989
 30
0.0
 11
465.0
 21
-1456.3619999999989
 31
0.0
  0
LINE
  5
143
  8
DIMNSIONS
  6
CONTINUOUS
 62
     7
 10
100.25
 20
-786.13800000000026
 30
0.0
 11
465.0
 21
-786.13800000000026
 31
0.0
  0
LINE
  5
144
  8
DIMNSIONS
  6
CONTINUOUS
 62
     7
 10
425.0
 20
-1456.3619999999989
 30
0.0
 11
425.0
 21
-786.13800000000026
 31
0.0
  0
LINE
  5
145
  8
DIMNSIONS
  6
CONTINUOUS
 62
     7
 10
425.0
 20
-1456.3619999999989
 30
0.0
 11
411.59920409699509
 21
-1406.3495488281239
 31
0.0
  0
LINE
  5
146
  8
DIMNSIONS
  6
CONTINUOUS
 62
     7
 10
425.0
 20
-1456.3619999999989
 30
0.0
 11
438.40079590300479
 21
-1406.3495488281239
 31
0.0
  0
LINE
  5
147
  8
DIMNSIONS
  6
CONTINUOUS
 62
     7
 10
425.0
 20
-786.13800000000026
 30
0.0
 11
438.40079590300479
 21
-836.15045117187515
 31
0.0
  0
LINE
  5
148
  8
DIMNSIONS
  6
CONTINUOUS
 62
     7
 10
425.0
 20
-786.13800000000026
 30
0.0
 11
411.59920409699509
 21
-836.15045117187515
 31
0.0
  0
TEXT
  5
149
  8
DIMNSIONS
 62
     7
 10
405.12222222222221
 20
-1063.1944444444439
 30
0.0
 40
54.2947048611111
  1
670.2
 50
90.0
 41
0.7
 11
350.82751736111112
 21
-1063.1944444444439
 31
0.0
 73
     3
  0
TEXT
  5
14A
  8
DATA
 62
     7
 10
1100.0
 20
-2025.2777149999999
 30
0.0
 40
48.865234375000007
  1
JBL
 41
0.7
 11
1100.0
 21
-1976.4124806249999
 31
0.0
 73
     3
  0
TEXT
  5
14B
  8
DATA
 62
     7
 10
942.69680000000005
 20
174.99993599999999
 30
0.0
 40
36.000518749999998
  1
コネクターパネル拡大図
 41
0.7
 11
942.69680000000005
 21
211.00045474999999
 31
0.0
 73
     3
  0
LINE
  5
14C
  8
DATA
  6
CONTINUOUS
 62
     7
 10
850.0
 20
150.0
 30
0.0
 11
1550.0
 21
150.0
 31
0.0
  0
TEXT
  5
14D
  8
DATA
 62
     7
 10
-1500.0
 20
-2308.1355149999999
 30
0.0
 40
32.576822916666671
  1
仕様および外観は予告なく変更されることがありますので、ご了承ください。
 41
0.7
 11
-1500.0
 21
-2275.558692083333
 31
0.0
 73
     3
  0
TEXT
  5
14E
  8
DATA
 62
     7
 10
-1319.1157752139441
 20
-1821.484450067531
 30
0.0
 40
54.2947048611111
  1
グリル付き
 41
0.7
 11
-1319.1157752139441
 21
-1767.18974520642
 31
0.0
 73
     3
  0
LINE
  5
14F
  8
DATA
  6
STYLE_01
 62
     7
 10
-810.9719999999985
 20
-1439.597999999999
 30
0.0
 11
-810.9719999999985
 21
-760.39999999999998
 31
0.0
  0
LINE
  5
150
  8
DATA
  6
CONTINUOUS
 62
     7
 10
-1305.447999999999
 20
-1426.897999999999
 30
0.0
 11
-1186.0333573734661
 21
-1426.897999999999
 31
0.0
  0
LINE
  5
151
  8
DATA
  6
CONTINUOUS
 62
     7
 10
-1335.4200000000001
 20
-1439.597999999999
 30
0.0
 11
-964.58000000000015
 21
-1439.597999999999
 31
0.0
  0
ARC
  5
152
  8
DATA
  6
CONTINUOUS
 62
     7
 10
-1306.21
 20
-1337.4899999999991
 30
0.0
 40
6.3499999999999117
 50
45.0
 51
180.0
  0
ARC
  5
153
  8
DATA
  6
CONTINUOUS
 62
     7
 10
-1306.21
 20
-1420.0399999999991
 30
0.0
 40
6.3499999999994543
 50
180.0
 51
270.0
  0
ARC
  5
154
  8
DATA
  6
CONTINUOUS
 62
     7
 10
-1223.6600000000001
 20
-1420.0399999999991
 30
0.0
 40
6.3499999999999091
 50
270.0
 51
45.000000000002899
  0
LINE
  5
155
  8
DATA
  6
CONTINUOUS
 62
     7
 10
-1219.0879999999991
 20
-1415.7219999999991
 30
0.0
 11
-1301.6379999999999
 21
-1333.1719999999989
 31
0.0
  0
LINE
  5
156
  8
DATA
  6
CONTINUOUS
 62
     7
 10
-1305.447999999999
 20
-1439.597999999999
 30
0.0
 11
-1305.447999999999
 21
-1426.897999999999
 31
0.0
  0
LINE
  5
157
  8
DATA
  6
CONTINUOUS
 62
     7
 10
-1312.559999999999
 20
-1337.4899999999991
 30
0.0
 11
-1312.559999999999
 21
-1420.0399999999991
 31
0.0
  0
LINE
  5
158
  8
DATA
  6
CONTINUOUS
 62
     7
 10
-1306.21
 20
-1426.389999999999
 30
0.0
 11
-1223.6600000000001
 21
-1426.389999999999
 31
0.0
  0
LINE
  5
159
  8
DATA
  6
STYLE_01
 62
     7
 10
-852.37399999999889
 20
-1426.897999999999
 30
0.0
 11
-810.9719999999985
 21
-1426.897999999999
 31
0.0
  0
LINE
  5
15A
  8
DATA
  6
STYLE_01
 62
     7
 10
-852.37399999999889
 20
-1439.597999999999
 30
0.0
 11
-852.37399999999889
 21
-1426.897999999999
 31
0.0
  0
LINE
  5
15B
  8
DATA
  6
STYLE_01
 62
     7
 10
-836.3719999999995
 20
-1439.597999999999
 30
0.0
 11
-836.3719999999995
 21
-1426.897999999999
 31
0.0
  0
LINE
  5
15C
  8
DATA
  6
CONTINUOUS
 62
     7
 10
-964.58000000000015
 20
-760.14800000000025
 30
0.0
 11
-1335.4200000000001
 21
-760.14800000000025
 31
0.0
  0
LINE
  5
15D
  8
DATA
  6
CONTINUOUS
 62
     7
 10
-1305.447999999999
 20
-772.84800000000018
 30
0.0
 11
-1130.4069792879211
 21
-772.84800000000018
 31
0.0
  0
LINE
  5
15E
  8
DATA
  6
CONTINUOUS
 62
     7
 10
-1305.447999999999
 20
-772.84800000000018
 30
0.0
 11
-1305.447999999999
 21
-760.14800000000025
 31
0.0
  0
LINE
  5
15F
  8
DATA
  6
STYLE_01
 62
     7
 10
-836.3719999999995
 20
-773.09999999999968
 30
0.0
 11
-836.3719999999995
 21
-760.39999999999998
 31
0.0
  0
LINE
  5
160
  8
DATA
  6
STYLE_01
 62
     7
 10
-852.37399999999889
 20
-773.09999999999968
 30
0.0
 11
-852.37399999999889
 21
-760.39999999999998
 31
0.0
  0
LINE
  5
161
  8
DATA
  6
STYLE_01
 62
     7
 10
-852.37399999999889
 20
-773.09999999999968
 30
0.0
 11
-810.9719999999985
 21
-773.09999999999968
 31
0.0
  0
LINE
  5
162
  8
DATA
  6
CONTINUOUS
 62
     7
 10
126.9620000000004
 20
-1456.3619999999989
 30
0.0
 11
126.9620000000004
 21
-743.63800000000049
 31
0.0
  0
LINE
  5
163
  8
DATA
  6
CONTINUOUS
 62
     7
 10
-26.962000000000451
 20
-1456.3619999999989
 30
0.0
 11
-26.962000000000451
 21
-743.63800000000049
 31
0.0
  0
CIRCLE
  5
164
  8
DATA
  6
CONTINUOUS
 62
     7
 10
-1150.0
 20
-42.5
 30
0.0
 40
10.25
  0
LINE
  5
165
  8
DATA
  6
CONTINUOUS
 62
     7
 10
-1162.952779664711
 20
-932.10717761021056
 30
0.0
 11
-1279.149136230965
 21
-819.97896481869532
 31
0.0
  0
LINE
  5
166
  8
DATA
  6
CONTINUOUS
 62
     7
 10
-1277.0
 20
-1098.475999999999
 30
0.0
 11
-1121.170163186192
 21
-1098.475999999999
 31
0.0
  0
LINE
  5
167
  8
DATA
  6
CONTINUOUS
 62
     7
 10
-1302.4000000000001
 20
-1073.076
 30
0.0
 11
-1302.4000000000001
 21
-819.07599999999934
 31
0.0
  0
LINE
  5
168
  8
DATA
  6
CONTINUOUS
 62
     7
 10
-1277.0
 20
-793.67599999999925
 30
0.0
 11
-1123.520377539382
 21
-793.67599999999925
 31
0.0
  0
ARC
  5
169
  8
DATA
  6
CONTINUOUS
 62
     7
 10
-1277.0
 20
-1073.076
 30
0.0
 40
25.400000000000549
 50
180.0
 51
270.0
  0
ARC
  5
16A
  8
DATA
  6
CONTINUOUS
 62
     7
 10
-1277.0
 20
-819.07599999999934
 30
0.0
 40
25.400000000000091
 50
90.0
 51
180.0
  0
LINE
  5
16B
  8
DATA
  6
CONTINUOUS
 62
     7
 10
-1260.7439999999999
 20
-1081.9659999999999
 30
0.0
 11
-1116.651576621148
 21
-1081.9659999999999
 31
0.0
  0
LINE
  5
16C
  8
DATA
  6
CONTINUOUS
 62
     7
 10
-1260.7439999999999
 20
-810.18599999999935
 30
0.0
 11
-1118.7281878748961
 21
-810.18599999999935
 31
0.0
  0
CIRCLE
  5
16D
  8
DATA
  6
CONTINUOUS
 62
     7
 10
-1293.002
 20
-946.07599999999957
 30
0.0
 40
2.793999999999869
  0
CIRCLE
  5
16E
  8
DATA
  6
CONTINUOUS
 62
     7
 10
-1293.002
 20
-946.07599999999957
 30
0.0
 40
5.0799999999999272
  0
CIRCLE
  5
16F
  8
DATA
  6
CONTINUOUS
 62
     7
 10
-1150.0
 20
-1089.0779999999991
 30
0.0
 40
2.793999999999869
  0
CIRCLE
  5
170
  8
DATA
  6
CONTINUOUS
 62
     7
 10
-1150.0
 20
-1089.0779999999991
 30
0.0
 40
5.0799999999999272
  0
CIRCLE
  5
171
  8
DATA
  6
CONTINUOUS
 62
     7
 10
-1150.0
 20
-803.07399999999973
 30
0.0
 40
2.793999999999869
  0
CIRCLE
  5
172
  8
DATA
  6
CONTINUOUS
 62
     7
 10
-1150.0
 20
-803.07399999999973
 30
0.0
 40
5.0799999999999272
  0
CIRCLE
  5
173
  8
DATA
  6
CONTINUOUS
 62
     7
 10
-1248.5519999999999
 20
-803.07399999999973
 30
0.0
 40
2.7940000000007781
  0
CIRCLE
  5
174
  8
DATA
  6
CONTINUOUS
 62
     7
 10
-1248.5519999999999
 20
-803.07399999999973
 30
0.0
 40
5.080000000000835
  0
CIRCLE
  5
175
  8
DATA
  6
CONTINUOUS
 62
     7
 10
-1248.5519999999999
 20
-1089.0779999999991
 30
0.0
 40
2.7940000000007781
  0
CIRCLE
  5
176
  8
DATA
  6
CONTINUOUS
 62
     7
 10
-1248.5519999999999
 20
-1089.0779999999991
 30
0.0
 40
5.080000000000835
  0
CIRCLE
  5
177
  8
DATA
  6
CONTINUOUS
 62
     7
 10
-1293.002
 20
-1044.627999999999
 30
0.0
 40
2.793999999999869
  0
CIRCLE
  5
178
  8
DATA
  6
CONTINUOUS
 62
     7
 10
-1293.002
 20
-1044.627999999999
 30
0.0
 40
5.0799999999999272
  0
CIRCLE
  5
179
  8
DATA
  6
CONTINUOUS
 62
     7
 10
-1293.002
 20
-847.52399999999943
 30
0.0
 40
2.793999999999869
  0
CIRCLE
  5
17A
  8
DATA
  6
CONTINUOUS
 62
     7
 10
-1293.002
 20
-847.52399999999943
 30
0.0
 40
5.0799999999999272
  0
CIRCLE
  5
17B
  8
DATA
  6
CONTINUOUS
 62
     7
 10
-1150.0
 20
-946.07599999999957
 30
0.0
 40
19.049999999999262
  0
ARC
  5
17C
  8
DATA
  6
CONTINUOUS
 62
     7
 10
-1150.0
 20
-1264.8459999999991
 30
0.0
 40
50.799999999999997
 50
120.2982387877472
 51
205.6828048138359
  0
ARC
  5
17D
  8
DATA
  6
CONTINUOUS
 62
     7
 10
-1150.0
 20
-1264.8459999999991
 30
0.0
 40
125.98400000000041
 50
83.182135909136207
 51
248.17294572732459
  0
ARC
  5
17E
  8
DATA
  6
CONTINUOUS
 62
     7
 10
-1150.0
 20
-1264.8459999999991
 30
0.0
 40
131.0639999999996
 50
82.636161843534339
 51
249.5121979982215
  0
ARC
  5
17F
  8
DATA
  6
CONTINUOUS
 62
     7
 10
-1150.0
 20
-1264.8459999999991
 30
0.0
 40
136.14399999999961
 50
82.154062183149506
 51
250.79355779286081
  0
CIRCLE
  5
180
  8
DATA
  6
CONTINUOUS
 62
     7
 10
-1206.2226980597879
 20
-1400.579600169146
 30
0.0
 40
3.5559999999995471
  0
CIRCLE
  5
181
  8
DATA
  6
CONTINUOUS
 62
     7
 10
-1206.2226980597879
 20
-1400.579600169146
 30
0.0
 40
4.3180000000002918
  0
CIRCLE
  5
182
  8
DATA
  6
CONTINUOUS
 62
     7
 10
-1285.636601927047
 20
-1321.0285200723829
 30
0.0
 40
3.556000000000386
  0
CIRCLE
  5
183
  8
DATA
  6
CONTINUOUS
 62
     7
 10
-1285.636601927047
 20
-1321.0285200723829
 30
0.0
 40
4.3179999999994543
  0
CIRCLE
  5
184
  8
DATA
  6
CONTINUOUS
 62
     7
 10
-1285.7336001691469
 20
-1208.6233019402109
 30
0.0
 40
3.5559999999995471
  0
CIRCLE
  5
185
  8
DATA
  6
CONTINUOUS
 62
     7
 10
-1285.7336001691469
 20
-1208.6233019402109
 30
0.0
 40
4.3180000000002918
  0
CIRCLE
  5
186
  8
DATA
  6
CONTINUOUS
 62
     7
 10
-1206.1825200723831
 20
-1129.2093980729519
 30
0.0
 40
3.5559999999995471
  0
CIRCLE
  5
187
  8
DATA
  6
CONTINUOUS
 62
     7
 10
-1206.1825200723831
 20
-1129.2093980729519
 30
0.0
 40
4.3179999999994543
  0
ARC
  5
188
  8
DATA
  6
CONTINUOUS
 62
     7
 10
-1150.0
 20
-1264.8459999999991
 30
0.0
 40
155.19399999999979
 50
80.801050743230405
 51
255.18921378311501
  0
ARC
  5
189
  8
DATA
  6
CONTINUOUS
 62
     7
 10
-1150.0
 20
-1264.8459999999991
 30
0.0
 40
141.22399999999971
 50
81.728432966889883
 51
252.02389831921761
  0
LINE
  5
18A
  8
DATA
  6
STYLE_01
 62
     7
 10
-814.27399999999943
 20
-793.67599999999925
 30
0.0
 11
-810.9719999999985
 21
-793.67599999999925
 31
0.0
  0
LINE
  5
18B
  8
DATA
  6
STYLE_01
 62
     7
 10
-814.27399999999921
 20
-1098.475999999999
 30
0.0
 11
-810.9719999999985
 21
-1098.475999999999
 31
0.0
  0
LINE
  5
18C
  8
DATA
  6
STYLE_01
 62
     7
 10
-815.54399999999885
 20
-795.19999999999925
 30
0.0
 11
-815.54399999999885
 21
-1096.570999999999
 31
0.0
  0
LINE
  5
18D
  8
DATA
  6
STYLE_01
 62
     7
 10
-815.54399999999885
 20
-795.19999999999925
 30
0.0
 11
-814.27399999999943
 21
-793.67599999999925
 31
0.0
  0
LINE
  5
18E
  8
DATA
  6
STYLE_01
 62
     7
 10
-814.27399999999921
 20
-1098.475999999999
 30
0.0
 11
-815.54399999999885
 21
-1096.570999999999
 31
0.0
  0
LINE
  5
18F
  8
DATA
  6
STYLE_01
 62
     7
 10
-829.76799999999889
 20
-1113.555979999999
 30
0.0
 11
-823.16399999999885
 21
-1113.555979999999
 31
0.0
  0
LINE
  5
190
  8
DATA
  6
STYLE_01
 62
     7
 10
-823.16399999999885
 20
-1109.6418399999991
 30
0.0
 11
-810.9719999999985
 21
-1109.6418399999991
 31
0.0
  0
LINE
  5
191
  8
DATA
  6
STYLE_01
 62
     7
 10
-823.16399999999885
 20
-1109.6418399999991
 30
0.0
 11
-823.16399999999885
 21
-1420.2203399999989
 31
0.0
  0
LINE
  5
192
  8
DATA
  6
STYLE_01
 62
     7
 10
-829.76799999999889
 20
-1113.555979999999
 30
0.0
 11
-829.76799999999889
 21
-1416.3061999999991
 31
0.0
  0
LINE
  5
193
  8
DATA
  6
STYLE_01
 62
     7
 10
-829.76799999999889
 20
-1416.3061999999991
 30
0.0
 11
-823.16399999999885
 21
-1416.3061999999991
 31
0.0
  0
LINE
  5
194
  8
DATA
  6
STYLE_01
 62
     7
 10
-823.16399999999885
 20
-1420.2203399999989
 30
0.0
 11
-810.9719999999985
 21
-1420.2203399999989
 31
0.0
  0
LINE
  5
195
  8
DATA
  6
CONTINUOUS
 62
     7
 10
-1228.5948012199931
 20
-9.4083606782770062
 30
0.0
 11
-1335.420004103273
 21
-408.08544536753112
 31
0.0
  0
LINE
  5
196
  8
DATA
  6
CONTINUOUS
 62
     7
 10
-964.58000410327304
 20
-408.08544536753038
 30
0.0
 11
-1071.4032660940391
 21
-9.4156041877503185
 31
0.0
  0
LINE
  5
197
  8
DATA
  6
CONTINUOUS
 62
     7
 10
-1216.328786766403
 20
0.0
 30
0.0
 11
-1083.671222083057
 21
0.0
 31
0.0
  0
LINE
  5
198
  8
DATA
  6
CONTINUOUS
 62
     7
 10
-122.72
 20
-743.63800000000049
 30
0.0
 11
222.72000000000011
 21
-743.63800000000049
 31
0.0
  0
LINE
  5
199
  8
DATA
  6
CONTINUOUS
 62
     7
 10
-135.41999999999999
 20
-1443.6619999999989
 30
0.0
 11
-135.41999999999999
 21
-756.33800000000031
 31
0.0
  0
LINE
  5
19A
  8
DATA
  6
CONTINUOUS
 62
     7
 10
235.4200000000001
 20
-756.33800000000031
 30
0.0
 11
235.4200000000001
 21
-1443.6619999999989
 31
0.0
  0
LINE
  5
19B
  8
DATA
  6
CONTINUOUS
 62
     7
 10
222.72000000000011
 20
-1456.3619999999989
 30
0.0
 11
-122.72
 21
-1456.3619999999989
 31
0.0
  0
LINE
  5
19C
  8
DATA
  6
STYLE_01
 62
     7
 10
-859.73999999999842
 20
-760.39999999999998
 30
0.0
 11
-810.9719999999985
 21
-760.39999999999998
 31
0.0
  0
LINE
  5
19D
  8
DATA
  6
STYLE_01
 62
     7
 10
-859.73999999999842
 20
-1439.597999999999
 30
0.0
 11
-810.9719999999985
 21
-1439.597999999999
 31
0.0
  0
LINE
  5
19E
  8
DATA
  6
CONTINUOUS
 62
     7
 10
-847.03999999999894
 20
-743.63800000000049
 30
0.0
 11
-412.69999999999987
 21
-743.63800000000049
 31
0.0
  0
LINE
  5
19F
  8
DATA
  6
CONTINUOUS
 62
     7
 10
-400.0
 20
-756.33800000000031
 30
0.0
 11
-400.0
 21
-1443.6619999999989
 31
0.0
  0
LINE
  5
1A0
  8
DATA
  6
CONTINUOUS
 62
     7
 10
-412.69999999999982
 20
-1456.3619999999989
 30
0.0
 11
-847.03999999999894
 21
-1456.3619999999989
 31
0.0
  0
LINE
  5
1A1
  8
DATA
  6
CONTINUOUS
 62
     7
 10
-859.73999999999842
 20
-1443.6619999999989
 30
0.0
 11
-859.73999999999842
 21
-756.33800000000031
 31
0.0
  0
POLYLINE
  5
1A2
  8
DATA
  6
CONTINUOUS
 62
     7
 66
     1
 10
0.0
 20
0.0
 30
0.0
 70
   128
  0
VERTEX
  5
532
  8
DATA
  6
CONTINUOUS
 62
     7
 10
-859.73999999999842
 20
-1443.6619999999989
 30
0.0
 42
0.4099999999999971
  0
VERTEX
  5
533
  8
DATA
  6
CONTINUOUS
 62
     7
 10
-847.03999999999894
 20
-1456.3619999999989
 30
0.0
  0
VERTEX
  5
534
  8
DATA
  6
CONTINUOUS
 62
     7
 10
-847.03999999999894
 20
-1456.3619999999989
 30
0.0
  0
SEQEND
  5
535
  8
DATA
  6
CONTINUOUS
 62
     7
  0
LINE
  5
1A7
  8
DATA
  6
CONTINUOUS
 62
     7
 10
-1322.72
 20
-743.63800000000049
 30
0.0
 11
-977.27999999999997
 21
-743.63800000000049
 31
0.0
  0
LINE
  5
1A8
  8
DATA
  6
CONTINUOUS
 62
     7
 10
-1335.4200000000001
 20
-756.33800000000031
 30
0.0
 11
-1335.4200000000001
 21
-1443.6619999999989
 31
0.0
  0
LINE
  5
1A9
  8
DATA
  6
CONTINUOUS
 62
     7
 10
-964.58000000000015
 20
-756.33800000000031
 30
0.0
 11
-964.58000000000015
 21
-1443.6619999999989
 31
0.0
  0
LINE
  5
1AA
  8
DATA
  6
CONTINUOUS
 62
     7
 10
-977.27999999999997
 20
-1456.3619999999989
 30
0.0
 11
-1322.72
 21
-1456.3619999999989
 31
0.0
  0
ARC
  5
1AB
  8
DATA
  6
CONTINUOUS
 62
     7
 10
-412.69999999999982
 20
-1443.6619999999989
 30
0.0
 40
12.69999999999982
 50
270.0
 51
0.0000000000020464
  0
TEXT
  5
1AC
  8
DATA
 62
     7
 10
1100.0
 20
-2170.2777150000002
 30
0.0
 40
48.865234375000007
  1
AM6212/95
 41
0.7
 11
1100.0
 21
-2121.4124806250002
 31
0.0
 73
     3
  0
TEXT
  5
1AD
  8
DATA
 62
     7
 10
1050.0
 20
-2094.8167816666669
 30
0.0
 40
32.576822916666671
  1
2WAYフルレンジラウドスピーカーシステム
 41
0.7
 11
1050.0
 21
-2062.2399587499999
 31
0.0
 73
     3
  0
LINE
  5
1AE
  8
DATA
  6
CONTINUOUS
 62
     7
 10
-1150.0
 20
-39.200000000000053
 30
0.0
 11
-1152.8578838324879
 21
-40.850000000000001
 31
0.0
  0
LINE
  5
1AF
  8
DATA
  6
CONTINUOUS
 62
     7
 10
-1147.1421161675109
 20
-40.850000000000001
 30
0.0
 11
-1150.0
 21
-39.200000000000053
 31
0.0
  0
LINE
  5
1B0
  8
DATA
  6
CONTINUOUS
 62
     7
 10
-1147.1421161675109
 20
-44.149999999999977
 30
0.0
 11
-1147.1421161675109
 21
-40.850000000000001
 31
0.0
  0
LINE
  5
1B1
  8
DATA
  6
CONTINUOUS
 62
     7
 10
-1150.0
 20
-45.799999999999962
 30
0.0
 11
-1147.1421161675109
 21
-44.149999999999977
 31
0.0
  0
LINE
  5
1B2
  8
DATA
  6
CONTINUOUS
 62
     7
 10
-1152.8578838324879
 20
-44.149999999999977
 30
0.0
 11
-1150.0
 21
-45.799999999999962
 31
0.0
  0
LINE
  5
1B3
  8
DATA
  6
CONTINUOUS
 62
     7
 10
-1152.8578838324879
 20
-40.850000000000001
 30
0.0
 11
-1152.8578838324879
 21
-44.149999999999977
 31
0.0
  0
CIRCLE
  5
1B4
  8
DATA
  6
CONTINUOUS
 62
     7
 10
-1025.628552290279
 20
-347.5
 30
0.0
 40
10.25
  0
LINE
  5
1B5
  8
DATA
  6
CONTINUOUS
 62
     7
 10
-1025.628552290279
 20
-344.2000000000001
 30
0.0
 11
-1028.4864361227681
 21
-345.85000000000008
 31
0.0
  0
LINE
  5
1B6
  8
DATA
  6
CONTINUOUS
 62
     7
 10
-1022.77066845779
 20
-345.85000000000008
 30
0.0
 11
-1025.628552290279
 21
-344.2000000000001
 31
0.0
  0
LINE
  5
1B7
  8
DATA
  6
CONTINUOUS
 62
     7
 10
-1022.77066845779
 20
-349.15000000000009
 30
0.0
 11
-1022.77066845779
 21
-345.85000000000008
 31
0.0
  0
LINE
  5
1B8
  8
DATA
  6
CONTINUOUS
 62
     7
 10
-1025.628552290279
 20
-350.80000000000013
 30
0.0
 11
-1022.77066845779
 21
-349.15000000000009
 31
0.0
  0
LINE
  5
1B9
  8
DATA
  6
CONTINUOUS
 62
     7
 10
-1028.4864361227681
 20
-349.15000000000009
 30
0.0
 11
-1025.628552290279
 21
-350.80000000000013
 31
0.0
  0
LINE
  5
1BA
  8
DATA
  6
CONTINUOUS
 62
     7
 10
-1028.4864361227681
 20
-345.85000000000008
 30
0.0
 11
-1028.4864361227681
 21
-349.15000000000009
 31
0.0
  0
CIRCLE
  5
1BB
  8
DATA
  6
CONTINUOUS
 62
     7
 10
-1274.3714477097201
 20
-347.5
 30
0.0
 40
10.25
  0
LINE
  5
1BC
  8
DATA
  6
CONTINUOUS
 62
     7
 10
-1274.3714477097201
 20
-344.2000000000001
 30
0.0
 11
-1277.2293315422089
 21
-345.85000000000008
 31
0.0
  0
LINE
  5
1BD
  8
DATA
  6
CONTINUOUS
 62
     7
 10
-1271.5135638772319
 20
-345.85000000000008
 30
0.0
 11
-1274.3714477097201
 21
-344.2000000000001
 31
0.0
  0
LINE
  5
1BE
  8
DATA
  6
CONTINUOUS
 62
     7
 10
-1271.5135638772319
 20
-349.15000000000009
 30
0.0
 11
-1271.5135638772319
 21
-345.85000000000008
 31
0.0
  0
LINE
  5
1BF
  8
DATA
  6
CONTINUOUS
 62
     7
 10
-1274.3714477097201
 20
-350.80000000000013
 30
0.0
 11
-1271.5135638772319
 21
-349.15000000000009
 31
0.0
  0
LINE
  5
1C0
  8
DATA
  6
CONTINUOUS
 62
     7
 10
-1277.2293315422089
 20
-349.15000000000009
 30
0.0
 11
-1274.3714477097201
 21
-350.80000000000013
 31
0.0
  0
LINE
  5
1C1
  8
DATA
  6
CONTINUOUS
 62
     7
 10
-1277.2293315422089
 20
-345.85000000000008
 30
0.0
 11
-1277.2293315422089
 21
-349.15000000000009
 31
0.0
  0
CIRCLE
  5
1C2
  8
DATA
  6
CONTINUOUS
 62
     7
 10
-1150.0
 20
-244.602
 30
0.0
 40
10.25
  0
LINE
  5
1C3
  8
DATA
  6
CONTINUOUS
 62
     7
 10
-1150.0
 20
-241.30199999999999
 30
0.0
 11
-1152.8578838324879
 21
-242.952
 31
0.0
  0
LINE
  5
1C4
  8
DATA
  6
CONTINUOUS
 62
     7
 10
-1147.1421161675109
 20
-242.952
 30
0.0
 11
-1150.0
 21
-241.30199999999999
 31
0.0
  0
LINE
  5
1C5
  8
DATA
  6
CONTINUOUS
 62
     7
 10
-1147.1421161675109
 20
-246.25200000000001
 30
0.0
 11
-1147.1421161675109
 21
-242.952
 31
0.0
  0
LINE
  5
1C6
  8
DATA
  6
CONTINUOUS
 62
     7
 10
-1150.0
 20
-247.90199999999999
 30
0.0
 11
-1147.1421161675109
 21
-246.25200000000001
 31
0.0
  0
LINE
  5
1C7
  8
DATA
  6
CONTINUOUS
 62
     7
 10
-1152.8578838324879
 20
-246.25200000000001
 30
0.0
 11
-1150.0
 21
-247.90199999999999
 31
0.0
  0
LINE
  5
1C8
  8
DATA
  6
CONTINUOUS
 62
     7
 10
-1152.8578838324879
 20
-242.952
 30
0.0
 11
-1152.8578838324879
 21
-246.25200000000001
 31
0.0
  0
ARC
  5
1C9
  8
DATA
  6
CONTINUOUS
 62
     7
 10
-1216.328786766403
 20
-12.69999999999999
 30
0.0
 40
12.69999999999999
 50
90.0
 51
164.97833911083131
  0
ARC
  5
1CA
  8
DATA
  6
CONTINUOUS
 62
     7
 10
-1083.671222083057
 20
-12.69999999999999
 30
0.0
 40
12.70000000000022
 50
14.98782841100557
 51
89.999999999998977
  0
LINE
  5
1CB
  8
DATA
  6
CONTINUOUS
 62
     7
 10
-964.58000410327304
 20
-416.74845635666719
 30
0.0
 11
-964.58000410327304
 21
-408.08544536753021
 31
0.0
  0
ARC
  5
1CC
  8
DATA
  6
CONTINUOUS
 62
     7
 10
-1150.0000041032731
 20
302.25999999999999
 30
0.0
 40
762.0
 50
257.45332224843008
 51
282.5474364455506
  0
ARC
  5
1CD
  8
DATA
  6
CONTINUOUS
 62
     7
 10
-989.98000410327325
 20
-416.74845635666719
 30
0.0
 40
25.399999999999931
 50
282.5356860228394
 51
0.0
  0
LINE
  5
1CE
  8
DATA
  6
CONTINUOUS
 62
     7
 10
-1335.419995896727
 20
-416.74845635666719
 30
0.0
 11
-1335.419995896727
 21
-408.08544536753021
 31
0.0
  0
ARC
  5
1CF
  8
DATA
  6
CONTINUOUS
 62
     7
 10
-1310.019995896726
 20
-416.74845635666719
 30
0.0
 40
25.400000000000091
 50
180.0
 51
257.46431397716037
  0
ARC
  5
1D0
  8
DATA
  6
CONTINUOUS
 62
     7
 10
-1322.72
 20
-756.33800000000031
 30
0.0
 40
12.70000000000004
 50
90.0
 51
180.0
  0
ARC
  5
1D1
  8
DATA
  6
CONTINUOUS
 62
     7
 10
-977.27999999999997
 20
-756.33800000000031
 30
0.0
 40
12.70000000000004
 50
0.0
 51
90.0
  0
ARC
  5
1D2
  8
DATA
  6
CONTINUOUS
 62
     7
 10
-1322.72
 20
-1443.6619999999989
 30
0.0
 40
12.69999999999982
 50
180.0
 51
270.00000000000102
  0
ARC
  5
1D3
  8
DATA
  6
CONTINUOUS
 62
     7
 10
-977.27999999999997
 20
-1443.6619999999989
 30
0.0
 40
12.69999999999982
 50
270.0
 51
0.0000000000010232
  0
ARC
  5
1D4
  8
DATA
  6
CONTINUOUS
 62
     7
 10
-847.03999999999894
 20
-756.33800000000031
 30
0.0
 40
12.70000000000004
 50
90.0
 51
180.0
  0
ARC
  5
1D5
  8
DATA
  6
CONTINUOUS
 62
     7
 10
-412.69999999999987
 20
-756.33800000000031
 30
0.0
 40
12.70000000000004
 50
0.0
 51
90.0
  0
ARC
  5
1D6
  8
DATA
  6
CONTINUOUS
 62
     7
 10
-1258.0965569201701
 20
-837.35368162494092
 30
0.0
 40
27.29637118254227
 50
95.565800030059123
 51
181.62133234567091
  0
ARC
  5
1D7
  8
DATA
  6
CONTINUOUS
 62
     7
 10
-81.368215076766532
 20
-804.3011973391948
 30
0.0
 40
1204.4888175322401
 50
181.60920817412321
 51
185.6294096008383
  0
ARC
  5
1D8
  8
DATA
  6
CONTINUOUS
 62
     7
 10
-1554.145749999863
 20
-946.07599999999957
 30
0.0
 40
275.11374999986288
 50
355.07436664816368
 51
4.9256333518362121
  0
ARC
  5
1D9
  8
DATA
  6
CONTINUOUS
 62
     7
 10
-1258.0965569201701
 20
-1054.798318375058
 30
0.0
 40
27.296371182542192
 50
178.37866765432861
 51
264.43419996994089
  0
ARC
  5
1DA
  8
DATA
  6
CONTINUOUS
 62
     7
 10
-81.368215076766532
 20
-1087.850802660804
 30
0.0
 40
1204.4888175322401
 50
174.3705903991615
 51
178.3907918258767
  0
LINE
  5
1DB
  8
DATA
  6
CONTINUOUS
 62
     7
 10
-1137.047220335289
 20
-932.10717761021056
 30
0.0
 11
-1102.4780056387219
 21
-898.74826364700027
 31
0.0
  0
LINE
  5
1DC
  8
DATA
  6
CONTINUOUS
 62
     7
 10
-1162.952779664711
 20
-960.04482238978846
 30
0.0
 11
-1279.149136230965
 21
-1072.173035181303
 31
0.0
  0
LINE
  5
1DD
  8
DATA
  6
CONTINUOUS
 62
     7
 10
-1137.047220335289
 20
-960.04482238978846
 30
0.0
 11
-1101.8278419302201
 21
-994.03113721831471
 31
0.0
  0
LINE
  5
1DE
  8
DATA
  6
CONTINUOUS
 62
     7
 10
-736.29631824307535
 20
-782.83800000000031
 30
0.0
 11
-739.05661579682328
 21
-784.48800000000051
 31
0.0
  0
LINE
  5
1DF
  8
DATA
  6
CONTINUOUS
 62
     7
 10
-733.53602068932696
 20
-784.48800000000051
 30
0.0
 11
-736.29631824307535
 21
-782.83800000000031
 31
0.0
  0
LINE
  5
1E0
  8
DATA
  6
CONTINUOUS
 62
     7
 10
-733.53602068932696
 20
-787.78800000000035
 30
0.0
 11
-733.53602068932696
 21
-784.48800000000051
 31
0.0
  0
LINE
  5
1E1
  8
DATA
  6
CONTINUOUS
 62
     7
 10
-736.29631824307535
 20
-789.43800000000033
 30
0.0
 11
-733.53602068932696
 21
-787.78800000000035
 31
0.0
  0
LINE
  5
1E2
  8
DATA
  6
CONTINUOUS
 62
     7
 10
-739.05661579682328
 20
-787.78800000000035
 30
0.0
 11
-736.29631824307535
 21
-789.43800000000033
 31
0.0
  0
LINE
  5
1E3
  8
DATA
  6
CONTINUOUS
 62
     7
 10
-739.05661579682328
 20
-784.48800000000051
 30
0.0
 11
-739.05661579682328
 21
-787.78800000000035
 31
0.0
  0
LINE
  5
1E4
  8
DATA
  6
CONTINUOUS
 62
     7
 10
-734.80602068932694
 20
-784.48800000000051
 30
0.0
 11
-736.93131824307545
 21
-783.21757864309905
 31
0.0
  0
LINE
  5
1E5
  8
DATA
  6
CONTINUOUS
 62
     7
 10
-734.80602068932694
 20
-787.78800000000035
 30
0.0
 11
-734.80602068932694
 21
-784.48800000000051
 31
0.0
  0
LINE
  5
1E6
  8
DATA
  6
CONTINUOUS
 62
     7
 10
-736.93131824307545
 20
-789.0584213569017
 30
0.0
 11
-734.80602068932694
 21
-787.78800000000035
 31
0.0
  0
LINE
  5
1E7
  8
DATA
  6
CONTINUOUS
 62
     7
 10
-734.80602068932694
 20
-784.48800000000051
 30
0.0
 11
-733.53602068932696
 21
-784.48800000000051
 31
0.0
  0
LINE
  5
1E8
  8
DATA
  6
CONTINUOUS
 62
     7
 10
-734.80602068932694
 20
-787.78800000000035
 30
0.0
 11
-733.53602068932696
 21
-787.78800000000035
 31
0.0
  0
LINE
  5
1E9
  8
DATA
  6
CONTINUOUS
 62
     7
 10
-736.29631824307535
 20
-1417.161999999998
 30
0.0
 11
-739.05661579682328
 21
-1415.511999999999
 31
0.0
  0
LINE
  5
1EA
  8
DATA
  6
CONTINUOUS
 62
     7
 10
-733.53602068932696
 20
-1415.511999999999
 30
0.0
 11
-736.29631824307535
 21
-1417.161999999998
 31
0.0
  0
LINE
  5
1EB
  8
DATA
  6
CONTINUOUS
 62
     7
 10
-733.53602068932696
 20
-1412.2119999999991
 30
0.0
 11
-733.53602068932696
 21
-1415.511999999999
 31
0.0
  0
LINE
  5
1EC
  8
DATA
  6
CONTINUOUS
 62
     7
 10
-736.29631824307535
 20
-1410.561999999999
 30
0.0
 11
-733.53602068932696
 21
-1412.2119999999991
 31
0.0
  0
LINE
  5
1ED
  8
DATA
  6
CONTINUOUS
 62
     7
 10
-739.05661579682328
 20
-1412.2119999999991
 30
0.0
 11
-736.29631824307535
 21
-1410.561999999999
 31
0.0
  0
LINE
  5
1EE
  8
DATA
  6
CONTINUOUS
 62
     7
 10
-739.05661579682328
 20
-1415.511999999999
 30
0.0
 11
-739.05661579682328
 21
-1412.2119999999991
 31
0.0
  0
LINE
  5
1EF
  8
DATA
  6
CONTINUOUS
 62
     7
 10
-734.80602068932694
 20
-1415.511999999999
 30
0.0
 11
-736.93131824307545
 21
-1416.7824213569011
 31
0.0
  0
LINE
  5
1F0
  8
DATA
  6
CONTINUOUS
 62
     7
 10
-734.80602068932694
 20
-1412.2119999999991
 30
0.0
 11
-734.80602068932694
 21
-1415.511999999999
 31
0.0
  0
LINE
  5
1F1
  8
DATA
  6
CONTINUOUS
 62
     7
 10
-736.93131824307545
 20
-1410.941578643098
 30
0.0
 11
-734.80602068932694
 21
-1412.2119999999991
 31
0.0
  0
LINE
  5
1F2
  8
DATA
  6
CONTINUOUS
 62
     7
 10
-734.80602068932694
 20
-1415.511999999999
 30
0.0
 11
-733.53602068932696
 21
-1415.511999999999
 31
0.0
  0
LINE
  5
1F3
  8
DATA
  6
CONTINUOUS
 62
     7
 10
-734.80602068932694
 20
-1412.2119999999991
 30
0.0
 11
-733.53602068932696
 21
-1412.2119999999991
 31
0.0
  0
ARC
  5
1F4
  8
DATA
  6
CONTINUOUS
 62
     7
 10
-736.29631824307535
 20
-785.79397560444443
 30
0.0
 40
9.9059756044439382
 50
358.00977600500619
 51
181.9902239949931
  0
ARC
  5
1F5
  8
DATA
  6
CONTINUOUS
 62
     7
 10
-736.29631824307535
 20
-786.48202439555655
 30
0.0
 40
9.9059756044439364
 50
178.00977600500681
 51
1.9902239949938121
  0
ARC
  5
1F6
  8
DATA
  6
CONTINUOUS
 62
     7
 10
-736.29631824307535
 20
-1414.206024395555
 30
0.0
 40
9.9059756044439364
 50
178.00977600500681
 51
1.9902239949944649
  0
ARC
  5
1F7
  8
DATA
  6
CONTINUOUS
 62
     7
 10
-736.29631824307535
 20
-1413.5179756044431
 30
0.0
 40
9.9059756044439435
 50
358.00977600500551
 51
181.9902239949931
  0
ARC
  5
1F8
  8
DATA
  6
CONTINUOUS
 62
     7
 10
-116.1841616831239
 20
-776.68396436373655
 30
0.0
 40
0.7959643637361693
 50
49.23432282777982
 51
130.76567717222019
  0
ARC
  5
1F9
  8
DATA
  6
CONTINUOUS
 62
     7
 10
-115.4445148589847
 20
-777.65211033734249
 30
0.0
 40
2.0134765120341389
 50
128.71728123946079
 51
150.4941218259612
  0
ARC
  5
1FA
  8
DATA
  6
CONTINUOUS
 62
     7
 10
-110.4859093184034
 20
-780.54746769698272
 30
0.0
 40
7.7553661830432628
 50
149.92031314853611
 51
167.62785733507161
  0
ARC
  5
1FB
  8
DATA
  6
CONTINUOUS
 62
     7
 10
-91.735218326023201
 20
-785.36992606837146
 30
0.0
 40
27.112720092122849
 50
166.16336170771109
 51
181.62334442297021
  0
INSERT
  5
1FC
  8
DATA
 62
     7
  2
____
 10
100.0
 20
140.0
 30
0.0
  0
ARC
  5
1FD
  8
DATA
  6
CONTINUOUS
 62
     7
 10
-116.923808507263
 20
-777.65211033734249
 30
0.0
 40
2.0134765120341109
 50
29.505878174038731
 51
51.282718760539197
  0
ARC
  5
1FE
  8
DATA
  6
CONTINUOUS
 62
     7
 10
-121.88241404784431
 20
-780.54746769698272
 30
0.0
 40
7.7553661830431988
 50
12.37214266492828
 51
30.07968685146388
  0
ARC
  5
1FF
  8
DATA
  6
CONTINUOUS
 62
     7
 10
-140.63310504022451
 20
-785.36992606837146
 30
0.0
 40
27.11272009212281
 50
358.37665557702979
 51
13.83663829228896
  0
ARC
  5
200
  8
DATA
  6
CONTINUOUS
 62
     7
 10
-116.1841616831239
 20
-795.59203563626431
 30
0.0
 40
0.7959643637361693
 50
229.23432282777981
 51
310.76567717222019
  0
ARC
  5
201
  8
DATA
  6
CONTINUOUS
 62
     7
 10
-115.4445148589847
 20
-794.62388966265814
 30
0.0
 40
2.0134765120341109
 50
209.50587817403871
 51
231.28271876053921
  0
ARC
  5
202
  8
DATA
  6
CONTINUOUS
 62
     7
 10
-110.4859093184034
 20
-791.72853230301814
 30
0.0
 40
7.7553661830431988
 50
192.3721426649283
 51
210.07968685146389
  0
ARC
  5
203
  8
DATA
  6
CONTINUOUS
 62
     7
 10
-91.735218326023201
 20
-786.90607393162952
 30
0.0
 40
27.11272009212281
 50
178.37665557702979
 51
193.8366382922888
  0
ARC
  5
204
  8
DATA
  6
CONTINUOUS
 62
     7
 10
-116.923808507263
 20
-794.62388966265814
 30
0.0
 40
2.0134765120341389
 50
308.71728123946082
 51
330.49412182596137
  0
ARC
  5
205
  8
DATA
  6
CONTINUOUS
 62
     7
 10
-121.88241404784431
 20
-791.72853230301814
 30
0.0
 40
7.7553661830432628
 50
329.9203131485362
 51
347.62785733507172
  0
ARC
  5
206
  8
DATA
  6
CONTINUOUS
 62
     7
 10
-140.63310504022451
 20
-786.90607393162952
 30
0.0
 40
27.112720092122849
 50
346.16336170771098
 51
1.6233444229702061
  0
ARC
  5
207
  8
DATA
  6
CONTINUOUS
 62
     7
 10
-116.1841616831239
 20
-1423.316035636263
 30
0.0
 40
0.7959643637362555
 50
229.23432282778521
 51
310.76567717221479
  0
ARC
  5
208
  8
DATA
  6
CONTINUOUS
 62
     7
 10
-115.4445148589847
 20
-1422.3478896626571
 30
0.0
 40
2.0134765120341109
 50
209.50587817403871
 51
231.2827187605412
  0
ARC
  5
209
  8
DATA
  6
CONTINUOUS
 62
     7
 10
-110.4859093184034
 20
-1419.4525323030171
 30
0.0
 40
7.7553661830432228
 50
192.3721426649289
 51
210.07968685146389
  0
ARC
  5
20A
  8
DATA
  6
CONTINUOUS
 62
     7
 10
-91.735218326023201
 20
-1414.630073931628
 30
0.0
 40
27.11272009212281
 50
178.37665557702979
 51
193.83663829228919
  0
INSERT
  5
20B
  8
DATA
 62
     7
  2
____-1
 10
100.0
 20
140.0
 30
0.0
  0
ARC
  5
20C
  8
DATA
  6
CONTINUOUS
 62
     7
 10
-116.923808507263
 20
-1422.3478896626571
 30
0.0
 40
2.0134765120342291
 50
308.71728123945883
 51
330.49412182596137
  0
ARC
  5
20D
  8
DATA
  6
CONTINUOUS
 62
     7
 10
-121.88241404784431
 20
-1419.4525323030171
 30
0.0
 40
7.7553661830432628
 50
329.9203131485362
 51
347.62785733507093
  0
ARC
  5
20E
  8
DATA
  6
CONTINUOUS
 62
     7
 10
-140.63310504022451
 20
-1414.630073931628
 30
0.0
 40
27.112720092122871
 50
346.16336170771081
 51
1.6233444229702061
  0
ARC
  5
20F
  8
DATA
  6
CONTINUOUS
 62
     7
 10
-116.1841616831239
 20
-1404.407964363734
 30
0.0
 40
0.7959643637362555
 50
49.234322827785171
 51
130.76567717221479
  0
ARC
  5
210
  8
DATA
  6
CONTINUOUS
 62
     7
 10
-115.4445148589847
 20
-1405.3761103373411
 30
0.0
 40
2.0134765120342291
 50
128.7172812394588
 51
150.4941218259612
  0
ARC
  5
211
  8
DATA
  6
CONTINUOUS
 62
     7
 10
-110.4859093184034
 20
-1408.2714676969811
 30
0.0
 40
7.7553661830432628
 50
149.92031314853611
 51
167.62785733507101
  0
ARC
  5
212
  8
DATA
  6
CONTINUOUS
 62
     7
 10
-91.735218326023201
 20
-1413.0939260683699
 30
0.0
 40
27.112720092122871
 50
166.16336170771081
 51
181.62334442297021
  0
ARC
  5
213
  8
DATA
  6
CONTINUOUS
 62
     7
 10
-116.923808507263
 20
-1405.3761103373411
 30
0.0
 40
2.0134765120341109
 50
29.505878174038731
 51
51.282718760541243
  0
ARC
  5
214
  8
DATA
  6
CONTINUOUS
 62
     7
 10
-121.88241404784431
 20
-1408.2714676969811
 30
0.0
 40
7.7553661830432228
 50
12.372142664929109
 51
30.07968685146388
  0
ARC
  5
215
  8
DATA
  6
CONTINUOUS
 62
     7
 10
-140.63310504022451
 20
-1413.0939260683699
 30
0.0
 40
27.11272009212281
 50
358.37665557702979
 51
13.836638292289191
  0
ARC
  5
216
  8
DATA
  6
CONTINUOUS
 62
     7
 10
216.1841616831239
 20
-776.68396436373655
 30
0.0
 40
0.7959643637361693
 50
49.23432282777982
 51
130.76567717222019
  0
ARC
  5
217
  8
DATA
  6
CONTINUOUS
 62
     7
 10
215.44451485898469
 20
-777.65211033734249
 30
0.0
 40
2.0134765120341109
 50
29.505878174038731
 51
51.282718760539197
  0
ARC
  5
218
  8
DATA
  6
CONTINUOUS
 62
     7
 10
210.4859093184034
 20
-780.54746769698272
 30
0.0
 40
7.7553661830431988
 50
12.37214266492828
 51
30.07968685146388
  0
ARC
  5
219
  8
DATA
  6
CONTINUOUS
 62
     7
 10
191.73521832602319
 20
-785.36992606837146
 30
0.0
 40
27.11272009212281
 50
358.37665557702979
 51
13.83663829228896
  0
INSERT
  5
21A
  8
DATA
 62
     7
  2
____-2
 10
100.0
 20
140.0
 30
0.0
  0
ARC
  5
21B
  8
DATA
  6
CONTINUOUS
 62
     7
 10
216.923808507263
 20
-777.65211033734249
 30
0.0
 40
2.0134765120341389
 50
128.71728123946079
 51
150.4941218259612
  0
ARC
  5
21C
  8
DATA
  6
CONTINUOUS
 62
     7
 10
221.88241404784441
 20
-780.54746769698272
 30
0.0
 40
7.7553661830432628
 50
149.92031314853611
 51
167.62785733507161
  0
ARC
  5
21D
  8
DATA
  6
CONTINUOUS
 62
     7
 10
240.63310504022459
 20
-785.36992606837146
 30
0.0
 40
27.112720092122849
 50
166.16336170771109
 51
181.62334442297021
  0
ARC
  5
21E
  8
DATA
  6
CONTINUOUS
 62
     7
 10
216.1841616831239
 20
-795.59203563626431
 30
0.0
 40
0.7959643637361693
 50
229.23432282777981
 51
310.76567717222019
  0
ARC
  5
21F
  8
DATA
  6
CONTINUOUS
 62
     7
 10
215.44451485898469
 20
-794.62388966265814
 30
0.0
 40
2.0134765120341389
 50
308.71728123946082
 51
330.49412182596137
  0
ARC
  5
220
  8
DATA
  6
CONTINUOUS
 62
     7
 10
210.4859093184034
 20
-791.72853230301814
 30
0.0
 40
7.7553661830432628
 50
329.9203131485362
 51
347.62785733507172
  0
ARC
  5
221
  8
DATA
  6
CONTINUOUS
 62
     7
 10
191.73521832602319
 20
-786.90607393162952
 30
0.0
 40
27.112720092122849
 50
346.16336170771098
 51
1.6233444229702061
  0
ARC
  5
222
  8
DATA
  6
CONTINUOUS
 62
     7
 10
216.923808507263
 20
-794.62388966265814
 30
0.0
 40
2.0134765120341109
 50
209.50587817403871
 51
231.28271876053921
  0
ARC
  5
223
  8
DATA
  6
CONTINUOUS
 62
     7
 10
221.88241404784441
 20
-791.72853230301814
 30
0.0
 40
7.7553661830431988
 50
192.3721426649283
 51
210.07968685146389
  0
ARC
  5
224
  8
DATA
  6
CONTINUOUS
 62
     7
 10
240.63310504022459
 20
-786.90607393162952
 30
0.0
 40
27.11272009212281
 50
178.37665557702979
 51
193.8366382922888
  0
ARC
  5
225
  8
DATA
  6
CONTINUOUS
 62
     7
 10
216.1841616831239
 20
-1423.316035636263
 30
0.0
 40
0.7959643637362555
 50
229.23432282778521
 51
310.76567717221479
  0
ARC
  5
226
  8
DATA
  6
CONTINUOUS
 62
     7
 10
215.44451485898469
 20
-1422.3478896626571
 30
0.0
 40
2.0134765120342291
 50
308.71728123945883
 51
330.49412182596137
  0
ARC
  5
227
  8
DATA
  6
CONTINUOUS
 62
     7
 10
210.4859093184034
 20
-1419.4525323030171
 30
0.0
 40
7.7553661830432628
 50
329.9203131485362
 51
347.62785733507093
  0
ARC
  5
228
  8
DATA
  6
CONTINUOUS
 62
     7
 10
191.73521832602319
 20
-1414.630073931628
 30
0.0
 40
27.112720092122871
 50
346.16336170771081
 51
1.6233444229702061
  0
INSERT
  5
229
  8
DATA
 62
     7
  2
____-3
 10
100.0
 20
140.0
 30
0.0
  0
ARC
  5
22A
  8
DATA
  6
CONTINUOUS
 62
     7
 10
216.923808507263
 20
-1422.3478896626571
 30
0.0
 40
2.0134765120341109
 50
209.50587817403871
 51
231.2827187605412
  0
ARC
  5
22B
  8
DATA
  6
CONTINUOUS
 62
     7
 10
221.88241404784441
 20
-1419.4525323030171
 30
0.0
 40
7.7553661830432228
 50
192.3721426649289
 51
210.07968685146389
  0
ARC
  5
22C
  8
DATA
  6
CONTINUOUS
 62
     7
 10
240.63310504022459
 20
-1414.630073931628
 30
0.0
 40
27.11272009212281
 50
178.37665557702979
 51
193.83663829228919
  0
ARC
  5
22D
  8
DATA
  6
CONTINUOUS
 62
     7
 10
216.1841616831239
 20
-1404.407964363734
 30
0.0
 40
0.7959643637362555
 50
49.234322827785171
 51
130.76567717221479
  0
ARC
  5
22E
  8
DATA
  6
CONTINUOUS
 62
     7
 10
215.44451485898469
 20
-1405.3761103373411
 30
0.0
 40
2.0134765120341109
 50
29.505878174038731
 51
51.282718760541243
  0
ARC
  5
22F
  8
DATA
  6
CONTINUOUS
 62
     7
 10
210.4859093184034
 20
-1408.2714676969811
 30
0.0
 40
7.7553661830432228
 50
12.372142664929109
 51
30.07968685146388
  0
ARC
  5
230
  8
DATA
  6
CONTINUOUS
 62
     7
 10
191.73521832602319
 20
-1413.0939260683699
 30
0.0
 40
27.11272009212281
 50
358.37665557702979
 51
13.836638292289191
  0
ARC
  5
231
  8
DATA
  6
CONTINUOUS
 62
     7
 10
216.923808507263
 20
-1405.3761103373411
 30
0.0
 40
2.0134765120342291
 50
128.7172812394588
 51
150.4941218259612
  0
ARC
  5
232
  8
DATA
  6
CONTINUOUS
 62
     7
 10
221.88241404784441
 20
-1408.2714676969811
 30
0.0
 40
7.7553661830432628
 50
149.92031314853611
 51
167.62785733507101
  0
ARC
  5
233
  8
DATA
  6
CONTINUOUS
 62
     7
 10
240.63310504022459
 20
-1413.0939260683699
 30
0.0
 40
27.112720092122871
 50
166.16336170771081
 51
181.62334442297021
  0
CIRCLE
  5
234
  8
DATA
  6
CONTINUOUS
 62
     7
 10
50.0
 20
-786.13800000000026
 30
0.0
 40
10.25
  0
LINE
  5
235
  8
DATA
  6
CONTINUOUS
 62
     7
 10
50.0
 20
-782.83800000000031
 30
0.0
 11
47.142116167511382
 21
-784.48800000000051
 31
0.0
  0
LINE
  5
236
  8
DATA
  6
CONTINUOUS
 62
     7
 10
52.857883832488568
 20
-784.48800000000051
 30
0.0
 11
50.0
 21
-782.83800000000031
 31
0.0
  0
LINE
  5
237
  8
DATA
  6
CONTINUOUS
 62
     7
 10
52.857883832488568
 20
-787.78800000000035
 30
0.0
 11
52.857883832488568
 21
-784.48800000000051
 31
0.0
  0
LINE
  5
238
  8
DATA
  6
CONTINUOUS
 62
     7
 10
50.0
 20
-789.43800000000033
 30
0.0
 11
52.857883832488568
 21
-787.78800000000035
 31
0.0
  0
LINE
  5
239
  8
DATA
  6
CONTINUOUS
 62
     7
 10
47.142116167511382
 20
-787.78800000000035
 30
0.0
 11
50.0
 21
-789.43800000000033
 31
0.0
  0
LINE
  5
23A
  8
DATA
  6
CONTINUOUS
 62
     7
 10
47.142116167511382
 20
-784.48800000000051
 30
0.0
 11
47.142116167511382
 21
-787.78800000000035
 31
0.0
  0
CIRCLE
  5
23B
  8
DATA
  6
CONTINUOUS
 62
     7
 10
50.0
 20
-1413.8619999999989
 30
0.0
 40
10.25
  0
LINE
  5
23C
  8
DATA
  6
CONTINUOUS
 62
     7
 10
50.0
 20
-1417.161999999998
 30
0.0
 11
47.142116167511382
 21
-1415.511999999999
 31
0.0
  0
LINE
  5
23D
  8
DATA
  6
CONTINUOUS
 62
     7
 10
52.857883832488568
 20
-1415.511999999999
 30
0.0
 11
50.0
 21
-1417.161999999998
 31
0.0
  0
LINE
  5
23E
  8
DATA
  6
CONTINUOUS
 62
     7
 10
52.857883832488568
 20
-1412.2119999999991
 30
0.0
 11
52.857883832488568
 21
-1415.511999999999
 31
0.0
  0
LINE
  5
23F
  8
DATA
  6
CONTINUOUS
 62
     7
 10
50.0
 20
-1410.561999999999
 30
0.0
 11
52.857883832488568
 21
-1412.2119999999991
 31
0.0
  0
LINE
  5
240
  8
DATA
  6
CONTINUOUS
 62
     7
 10
47.142116167511382
 20
-1412.2119999999991
 30
0.0
 11
50.0
 21
-1410.561999999999
 31
0.0
  0
LINE
  5
241
  8
DATA
  6
CONTINUOUS
 62
     7
 10
47.142116167511382
 20
-1415.511999999999
 30
0.0
 11
47.142116167511382
 21
-1412.2119999999991
 31
0.0
  0
ARC
  5
242
  8
DATA
  6
CONTINUOUS
 62
     7
 10
-122.72
 20
-756.33800000000031
 30
0.0
 40
12.70000000000004
 50
90.0
 51
180.0
  0
ARC
  5
243
  8
DATA
  6
CONTINUOUS
 62
     7
 10
222.72
 20
-756.33800000000031
 30
0.0
 40
12.70000000000004
 50
0.0
 51
89.999999999999787
  0
ARC
  5
244
  8
DATA
  6
CONTINUOUS
 62
     7
 10
222.72000000000011
 20
-1443.6619999999989
 30
0.0
 40
12.69999999999982
 50
270.0
 51
0.0000000000010232
  0
ARC
  5
245
  8
DATA
  6
CONTINUOUS
 62
     7
 10
-122.72
 20
-1443.6619999999989
 30
0.0
 40
12.70000000000004
 50
180.0
 51
270.0
  0
CIRCLE
  5
246
  8
DATA
  6
CONTINUOUS
 62
     7
 10
50.0
 20
-1100.1379999999999
 30
0.0
 40
10.25
  0
LINE
  5
247
  8
DATA
  6
CONTINUOUS
 62
     7
 10
50.0
 20
-1096.838
 30
0.0
 11
47.142116167511382
 21
-1098.4880000000001
 31
0.0
  0
LINE
  5
248
  8
DATA
  6
CONTINUOUS
 62
     7
 10
52.857883832488568
 20
-1098.4880000000001
 30
0.0
 11
50.0
 21
-1096.838
 31
0.0
  0
LINE
  5
249
  8
DATA
  6
CONTINUOUS
 62
     7
 10
52.857883832488568
 20
-1101.788
 30
0.0
 11
52.857883832488568
 21
-1098.4880000000001
 31
0.0
  0
LINE
  5
24A
  8
DATA
  6
CONTINUOUS
 62
     7
 10
50.0
 20
-1103.4380000000001
 30
0.0
 11
52.857883832488568
 21
-1101.788
 31
0.0
  0
LINE
  5
24B
  8
DATA
  6
CONTINUOUS
 62
     7
 10
47.142116167511382
 20
-1101.788
 30
0.0
 11
50.0
 21
-1103.4380000000001
 31
0.0
  0
LINE
  5
24C
  8
DATA
  6
CONTINUOUS
 62
     7
 10
47.142116167511382
 20
-1098.4880000000001
 30
0.0
 11
47.142116167511382
 21
-1101.788
 31
0.0
  0
LINE
  5
24D
  8
DATA
  6
CONTINUOUS
 62
     7
 10
-11.500000000000011
 20
-1365.1400000000001
 30
0.0
 11
-11.500000000000011
 21
-1175.1400000000001
 31
0.0
  0
LINE
  5
24E
  8
DATA
  6
CONTINUOUS
 62
     7
 10
106.5
 20
-1370.1400000000001
 30
0.0
 11
-6.5000000000000142
 21
-1370.1400000000001
 31
0.0
  0
LINE
  5
24F
  8
DATA
  6
CONTINUOUS
 62
     7
 10
111.5
 20
-1175.1400000000001
 30
0.0
 11
111.5
 21
-1365.1400000000001
 31
0.0
  0
LINE
  5
250
  8
DATA
  6
CONTINUOUS
 62
     7
 10
-6.5000000000000142
 20
-1170.1400000000001
 30
0.0
 11
106.5
 21
-1170.1400000000001
 31
0.0
  0
LINE
  5
251
  8
DATA
  6
CONTINUOUS
 62
     7
 10
3.499999999999984
 20
-1355.6400000000001
 30
0.0
 11
3.499999999999984
 21
-1184.6400000000001
 31
0.0
  0
LINE
  5
252
  8
DATA
  6
CONTINUOUS
 62
     7
 10
96.499999999999986
 20
-1355.6400000000001
 30
0.0
 11
3.499999999999984
 21
-1355.6400000000001
 31
0.0
  0
LINE
  5
253
  8
DATA
  6
CONTINUOUS
 62
     7
 10
96.499999999999986
 20
-1184.6400000000001
 30
0.0
 11
96.499999999999986
 21
-1355.6400000000001
 31
0.0
  0
LINE
  5
254
  8
DATA
  6
CONTINUOUS
 62
     7
 10
3.499999999999984
 20
-1184.6400000000001
 30
0.0
 11
96.499999999999986
 21
-1184.6400000000001
 31
0.0
  0
POLYLINE
  5
255
  8
DATA
  6
CONTINUOUS
 62
     7
 66
     1
 10
0.0
 20
0.0
 30
0.0
 70
     1
  0
VERTEX
  5
536
  8
DATA
  6
CONTINUOUS
 62
     7
 10
9.499999999999984
 20
-1307.6400000000001
 30
0.0
  0
VERTEX
  5
537
  8
DATA
  6
CONTINUOUS
 62
     7
 10
90.499999999999986
 20
-1307.6400000000001
 30
0.0
  0
VERTEX
  5
538
  8
DATA
  6
CONTINUOUS
 62
     7
 10
90.499999999999986
 20
-1325.6400000000001
 30
0.0
  0
VERTEX
  5
539
  8
DATA
  6
CONTINUOUS
 62
     7
 10
9.499999999999984
 20
-1325.6400000000001
 30
0.0
  0
SEQEND
  5
53A
  8
DATA
  6
CONTINUOUS
 62
     7
  0
POLYLINE
  5
25C
  8
DATA
  6
CONTINUOUS
 62
     7
 66
     1
 10
0.0
 20
0.0
 30
0.0
 70
   129
  0
VERTEX
  5
53B
  8
DATA
  6
CONTINUOUS
 62
     7
 10
38.249999999999993
 20
-1266.6400000000001
 30
0.0
 42
-0.4142135623730951
  0
VERTEX
  5
53C
  8
DATA
  6
CONTINUOUS
 62
     7
 10
50.0
 20
-1254.8900000000001
 30
0.0
 42
-0.4142135623730951
  0
VERTEX
  5
53D
  8
DATA
  6
CONTINUOUS
 62
     7
 10
61.749999999999993
 20
-1266.6400000000001
 30
0.0
 42
-0.4142135623730951
  0
VERTEX
  5
53E
  8
DATA
  6
CONTINUOUS
 62
     7
 10
50.0
 20
-1278.3900000000001
 30
0.0
 42
-0.4142135623730951
  0
VERTEX
  5
53F
  8
DATA
  6
CONTINUOUS
 62
     7
 10
38.249999999999993
 20
-1266.6400000000001
 30
0.0
  0
SEQEND
  5
540
  8
DATA
  6
CONTINUOUS
 62
     7
  0
LINE
  5
263
  8
DATA
  6
CONTINUOUS
 62
     7
 10
46.999999999999993
 20
-1256.6400000000001
 30
0.0
 11
52.999999999999993
 21
-1256.6400000000001
 31
0.0
  0
LINE
  5
264
  8
DATA
  6
CONTINUOUS
 62
     7
 10
47.999999999999993
 20
-1276.6400000000001
 30
0.0
 11
51.999999999999993
 21
-1276.6400000000001
 31
0.0
  0
LINE
  5
265
  8
DATA
  6
CONTINUOUS
 62
     7
 10
47.999999999999993
 20
-1276.6400000000001
 30
0.0
 11
47.999999999999993
 21
-1275.4400000000001
 31
0.0
  0
LINE
  5
266
  8
DATA
  6
CONTINUOUS
 62
     7
 10
51.999999999999993
 20
-1276.6400000000001
 30
0.0
 11
51.999999999999993
 21
-1275.4400000000001
 31
0.0
  0
LINE
  5
267
  8
DATA
  6
CONTINUOUS
 62
     7
 10
46.999999999999993
 20
-1256.6400000000001
 30
0.0
 11
46.999999999999993
 21
-1258.36715
 31
0.0
  0
LINE
  5
268
  8
DATA
  6
CONTINUOUS
 62
     7
 10
52.999999999999993
 20
-1256.6400000000001
 30
0.0
 11
52.999999999999993
 21
-1258.36715
 31
0.0
  0
ARC
  5
269
  8
DATA
  6
CONTINUOUS
 62
     7
 10
50.0
 20
-1266.6400000000001
 30
0.0
 40
8.8000026774142093
 50
109.9322641506793
 51
257.19616681970012
  0
ARC
  5
26A
  8
DATA
  6
CONTINUOUS
 62
     7
 10
50.0
 20
-1266.6400000000001
 30
0.0
 40
8.8000035043459288
 50
282.9999995554212
 51
69.999994237961545
  0
ARC
  5
26B
  8
DATA
  6
CONTINUOUS
 62
     7
 10
50.0
 20
-1266.6400000000001
 30
0.0
 40
6.2000021620640764
 50
60.000011535560219
 51
150.0000115355611
  0
LINE
  5
26C
  8
DATA
  6
CONTINUOUS
 62
     7
 10
44.63066000000002
 20
-1263.53997
 30
0.0
 11
45.128619999999927
 21
-1263.8274699999999
 31
0.0
  0
LINE
  5
26D
  8
DATA
  6
CONTINUOUS
 62
     7
 10
53.099969999999971
 20
-1261.27062
 30
0.0
 11
52.812469999999927
 21
-1261.7685899999999
 31
0.0
  0
ARC
  5
26E
  8
DATA
  6
CONTINUOUS
 62
     7
 10
50.0
 20
-1266.6400000000001
 30
0.0
 40
6.2000021620642727
 50
240.00001153556121
 51
330.00001153556229
  0
LINE
  5
26F
  8
DATA
  6
CONTINUOUS
 62
     7
 10
46.899999999999963
 20
-1272.00936
 30
0.0
 11
47.187499999999993
 21
-1271.5113899999999
 31
0.0
  0
LINE
  5
270
  8
DATA
  6
CONTINUOUS
 62
     7
 10
55.369369999999989
 20
-1269.7399800000001
 30
0.0
 11
54.87139999999998
 21
-1269.4524799999999
 31
0.0
  0
ARC
  5
271
  8
DATA
  6
CONTINUOUS
 62
     7
 10
50.0
 20
-1266.6400000000001
 30
0.0
 40
5.6250038315809183
 50
149.9996696821033
 51
240.00021260430319
  0
ARC
  5
272
  8
DATA
  6
CONTINUOUS
 62
     7
 10
50.0
 20
-1266.6400000000001
 30
0.0
 40
5.6249961520342593
 50
330.00021260430242
 51
60.000718243123622
  0
ARC
  5
273
  8
DATA
  6
CONTINUOUS
 62
     7
 10
50.0
 20
-1266.6400000000001
 30
0.0
 40
3.599990080875255
 50
59.999908854706391
 51
149.9999088547064
  0
ARC
  5
274
  8
DATA
  6
CONTINUOUS
 62
     7
 10
50.0
 20
-1266.6400000000001
 30
0.0
 40
3.599990080875255
 50
239.9999088547064
 51
329.9999088547064
  0
LINE
  5
275
  8
DATA
  6
CONTINUOUS
 62
     7
 10
51.799979999999991
 20
-1263.5223100000001
 30
0.0
 11
51.449989999999943
 21
-1264.12852
 31
0.0
  0
LINE
  5
276
  8
DATA
  6
CONTINUOUS
 62
     7
 10
46.88233000000001
 20
-1264.8399899999999
 30
0.0
 11
47.488529999999933
 21
-1265.1899900000001
 31
0.0
  0
LINE
  5
277
  8
DATA
  6
CONTINUOUS
 62
     7
 10
48.200000000000031
 20
-1269.7576799999999
 30
0.0
 11
48.549999999999933
 21
-1269.15147
 31
0.0
  0
LINE
  5
278
  8
DATA
  6
CONTINUOUS
 62
     7
 10
53.11769000000001
 20
-1268.4399800000001
 30
0.0
 11
52.511479999999992
 21
-1268.0899899999999
 31
0.0
  0
ARC
  5
279
  8
DATA
  6
CONTINUOUS
 62
     7
 10
50.0
 20
-1266.6400000000001
 30
0.0
 40
2.900001820861533
 50
149.9997926340304
 51
240.00023362383041
  0
ARC
  5
27A
  8
DATA
  6
CONTINUOUS
 62
     7
 10
50.0
 20
-1266.6400000000001
 30
0.0
 40
2.900000481120689
 50
330.0002336238291
 51
59.999792634030371
  0
LINE
  5
27B
  8
DATA
  6
CONTINUOUS
 62
     7
 10
22.50000000000033
 20
-1325.6400000000001
 30
0.0
 11
22.50000000000033
 21
-1307.6400000000001
 31
0.0
  0
LINE
  5
27C
  8
DATA
  6
CONTINUOUS
 62
     7
 10
25.50000000000033
 20
-1325.6400000000001
 30
0.0
 11
25.50000000000033
 21
-1307.6400000000001
 31
0.0
  0
LINE
  5
27D
  8
DATA
  6
CONTINUOUS
 62
     7
 10
35.500000000000327
 20
-1325.6400000000001
 30
0.0
 11
35.500000000000327
 21
-1307.6400000000001
 31
0.0
  0
LINE
  5
27E
  8
DATA
  6
CONTINUOUS
 62
     7
 10
38.500000000000327
 20
-1325.6400000000001
 30
0.0
 11
38.500000000000327
 21
-1307.6400000000001
 31
0.0
  0
LINE
  5
27F
  8
DATA
  6
CONTINUOUS
 62
     7
 10
48.500000000000327
 20
-1325.6400000000001
 30
0.0
 11
48.500000000000327
 21
-1307.6400000000001
 31
0.0
  0
LINE
  5
280
  8
DATA
  6
CONTINUOUS
 62
     7
 10
51.500000000000327
 20
-1325.6400000000001
 30
0.0
 11
51.500000000000327
 21
-1307.6400000000001
 31
0.0
  0
LINE
  5
281
  8
DATA
  6
CONTINUOUS
 62
     7
 10
61.500000000000327
 20
-1325.6400000000001
 30
0.0
 11
61.500000000000327
 21
-1307.6400000000001
 31
0.0
  0
LINE
  5
282
  8
DATA
  6
CONTINUOUS
 62
     7
 10
64.500000000000327
 20
-1325.6400000000001
 30
0.0
 11
64.500000000000327
 21
-1307.6400000000001
 31
0.0
  0
LINE
  5
283
  8
DATA
  6
CONTINUOUS
 62
     7
 10
74.500000000000298
 20
-1325.6400000000001
 30
0.0
 11
74.500000000000298
 21
-1307.6400000000001
 31
0.0
  0
LINE
  5
284
  8
DATA
  6
CONTINUOUS
 62
     7
 10
77.500000000000298
 20
-1325.6400000000001
 30
0.0
 11
77.500000000000298
 21
-1307.6400000000001
 31
0.0
  0
LINE
  5
285
  8
DATA
  6
CONTINUOUS
 62
     7
 10
12.49999999999998
 20
-1325.6400000000001
 30
0.0
 11
12.49999999999998
 21
-1307.6400000000001
 31
0.0
  0
LINE
  5
286
  8
DATA
  6
CONTINUOUS
 62
     7
 10
87.499999999999986
 20
-1307.6400000000001
 30
0.0
 11
87.499999999999986
 21
-1325.6400000000001
 31
0.0
  0
CIRCLE
  5
287
  8
DATA
  6
CONTINUOUS
 62
     7
 10
30.50000000000033
 20
-1316.6400000000001
 30
0.0
 40
3.9999999999999871
  0
POLYLINE
  5
288
  8
DATA
  6
CONTINUOUS
 62
     7
 66
     1
 10
0.0
 20
0.0
 30
0.0
 70
     1
  0
VERTEX
  5
541
  8
DATA
  6
CONTINUOUS
 62
     7
 10
27.695121951219772
 20
-1310.883902439024
 30
0.0
  0
VERTEX
  5
542
  8
DATA
  6
CONTINUOUS
 62
     7
 10
35.50000000000022
 20
-1312.6400000000001
 30
0.0
  0
VERTEX
  5
543
  8
DATA
  6
CONTINUOUS
 62
     7
 10
33.304878048780772
 20
-1322.396097560975
 30
0.0
  0
VERTEX
  5
544
  8
DATA
  6
CONTINUOUS
 62
     7
 10
25.50000000000021
 20
-1320.6400000000001
 30
0.0
  0
SEQEND
  5
545
  8
DATA
  6
CONTINUOUS
 62
     7
  0
LINE
  5
28F
  8
DATA
  6
CONTINUOUS
 62
     7
 10
26.741229516856691
 20
-1315.271919426697
 30
0.0
 11
34.258770483143948
 21
-1318.0080805733021
 31
0.0
  0
CIRCLE
  5
290
  8
DATA
  6
CONTINUOUS
 62
     7
 10
43.50000000000032
 20
-1316.6400000000001
 30
0.0
 40
3.9999999999999871
  0
POLYLINE
  5
291
  8
DATA
  6
CONTINUOUS
 62
     7
 66
     1
 10
0.0
 20
0.0
 30
0.0
 70
     1
  0
VERTEX
  5
546
  8
DATA
  6
CONTINUOUS
 62
     7
 10
40.695121951219768
 20
-1310.883902439024
 30
0.0
  0
VERTEX
  5
547
  8
DATA
  6
CONTINUOUS
 62
     7
 10
48.500000000000213
 20
-1312.6400000000001
 30
0.0
  0
VERTEX
  5
548
  8
DATA
  6
CONTINUOUS
 62
     7
 10
46.304878048780772
 20
-1322.396097560975
 30
0.0
  0
VERTEX
  5
549
  8
DATA
  6
CONTINUOUS
 62
     7
 10
38.500000000000213
 20
-1320.6400000000001
 30
0.0
  0
SEQEND
  5
54A
  8
DATA
  6
CONTINUOUS
 62
     7
  0
CIRCLE
  5
298
  8
DATA
  6
CONTINUOUS
 62
     7
 10
56.500000000000327
 20
-1316.6400000000001
 30
0.0
 40
3.9999999999999871
  0
POLYLINE
  5
299
  8
DATA
  6
CONTINUOUS
 62
     7
 66
     1
 10
0.0
 20
0.0
 30
0.0
 70
     1
  0
VERTEX
  5
54B
  8
DATA
  6
CONTINUOUS
 62
     7
 10
53.695121951219768
 20
-1310.883902439024
 30
0.0
  0
VERTEX
  5
54C
  8
DATA
  6
CONTINUOUS
 62
     7
 10
61.500000000000213
 20
-1312.6400000000001
 30
0.0
  0
VERTEX
  5
54D
  8
DATA
  6
CONTINUOUS
 62
     7
 10
59.304878048780772
 20
-1322.396097560975
 30
0.0
  0
VERTEX
  5
54E
  8
DATA
  6
CONTINUOUS
 62
     7
 10
51.500000000000213
 20
-1320.6400000000001
 30
0.0
  0
SEQEND
  5
54F
  8
DATA
  6
CONTINUOUS
 62
     7
  0
CIRCLE
  5
2A0
  8
DATA
  6
CONTINUOUS
 62
     7
 10
69.500000000000327
 20
-1316.6400000000001
 30
0.0
 40
3.9999999999999871
  0
POLYLINE
  5
2A1
  8
DATA
  6
CONTINUOUS
 62
     7
 66
     1
 10
0.0
 20
0.0
 30
0.0
 70
     1
  0
VERTEX
  5
550
  8
DATA
  6
CONTINUOUS
 62
     7
 10
66.695121951219775
 20
-1310.883902439024
 30
0.0
  0
VERTEX
  5
551
  8
DATA
  6
CONTINUOUS
 62
     7
 10
74.500000000000199
 20
-1312.6400000000001
 30
0.0
  0
VERTEX
  5
552
  8
DATA
  6
CONTINUOUS
 62
     7
 10
72.304878048780765
 20
-1322.396097560975
 30
0.0
  0
VERTEX
  5
553
  8
DATA
  6
CONTINUOUS
 62
     7
 10
64.500000000000213
 20
-1320.6400000000001
 30
0.0
  0
SEQEND
  5
554
  8
DATA
  6
CONTINUOUS
 62
     7
  0
CIRCLE
  5
2A8
  8
DATA
  6
CONTINUOUS
 62
     7
 10
82.500000000000185
 20
-1316.6400000000001
 30
0.0
 40
3.9999999999998042
  0
CIRCLE
  5
2A9
  8
DATA
  6
CONTINUOUS
 62
     7
 10
17.50000000000021
 20
-1316.6400000000001
 30
0.0
 40
3.999999999999881
  0
TEXT
  5
2AA
  8
DATA
 62
     7
 10
28.00000000000033
 20
-1301.4400000000001
 30
0.0
 40
3.84765625
  1
1+
 41
0.7
 11
28.00000000000033
 21
-1297.5923437500001
 31
0.0
 73
     3
  0
TEXT
  5
2AB
  8
DATA
 62
     7
 10
41.00000000000032
 20
-1301.4400000000001
 30
0.0
 40
3.84765625
  1
1-
 41
0.7
 11
41.00000000000032
 21
-1297.5923437500001
 31
0.0
 73
     3
  0
TEXT
  5
2AC
  8
DATA
 62
     7
 10
54.000000000000327
 20
-1301.4400000000001
 30
0.0
 40
3.84765625
  1
2+
 41
0.7
 11
54.000000000000327
 21
-1297.5923437500001
 31
0.0
 73
     3
  0
TEXT
  5
2AD
  8
DATA
 62
     7
 10
67.000000000000327
 20
-1301.4400000000001
 30
0.0
 40
3.84765625
  1
2-
 41
0.7
 11
67.000000000000327
 21
-1297.5923437500001
 31
0.0
 73
     3
  0
CIRCLE
  5
2AE
  8
DATA
  6
CONTINUOUS
 62
     7
 10
19.999999999999972
 20
-1244.6400000000001
 30
0.0
 40
3.0
  0
CIRCLE
  5
2AF
  8
DATA
  6
CONTINUOUS
 62
     7
 10
79.999999999999986
 20
-1244.6400000000001
 30
0.0
 40
3.0
  0
POLYLINE
  5
2B0
  8
DATA
  6
CONTINUOUS
 62
     7
 66
     1
 10
0.0
 20
0.0
 30
0.0
 70
     1
  0
VERTEX
  5
555
  8
DATA
  6
CONTINUOUS
 62
     7
 10
9.999999999999984
 20
-1201.6400000000001
 30
0.0
  0
VERTEX
  5
556
  8
DATA
  6
CONTINUOUS
 62
     7
 10
89.999999999999986
 20
-1201.6400000000001
 30
0.0
  0
VERTEX
  5
557
  8
DATA
  6
CONTINUOUS
 62
     7
 10
89.999999999999986
 20
-1239.6400000000001
 30
0.0
  0
VERTEX
  5
558
  8
DATA
  6
CONTINUOUS
 62
     7
 10
9.999999999999984
 20
-1239.6400000000001
 30
0.0
  0
SEQEND
  5
559
  8
DATA
  6
CONTINUOUS
 62
     7
  0
TEXT
  5
2B7
  8
DATA
 62
     7
 10
10.74999999999998
 20
-1236.9400000000001
 30
0.0
 40
3.84765625
  1
(Passive)
 41
0.7
 11
10.74999999999998
 21
-1233.0923437500001
 31
0.0
 73
     3
  0
TEXT
  5
2B8
  8
DATA
 62
     7
 10
67.999999999999986
 20
-1236.9400000000001
 30
0.0
 40
3.84765625
  1
(Bi-Amp)
 41
0.7
 11
67.999999999999986
 21
-1233.0923437500001
 31
0.0
 73
     3
  0
TEXT
  5
2B9
  8
DATA
 62
     7
 10
12.99999999999998
 20
-1208.9400000000001
 30
0.0
 40
3.84765625
  1
Model: AM6212/95
 41
0.7
 11
12.99999999999998
 21
-1205.0923437500001
 31
0.0
 73
     3
  0
POLYLINE
  5
2BA
  8
DATA
  6
CONTINUOUS
 62
     7
 66
     1
 10
0.0
 20
0.0
 30
0.0
 70
     1
  0
VERTEX
  5
55A
  8
DATA
  6
CONTINUOUS
 62
     7
 10
26.499999999999989
 20
-1216.1400000000001
 30
0.0
  0
VERTEX
  5
55B
  8
DATA
  6
CONTINUOUS
 62
     7
 10
73.499999999999986
 20
-1216.1400000000001
 30
0.0
  0
VERTEX
  5
55C
  8
DATA
  6
CONTINUOUS
 62
     7
 10
73.499999999999986
 20
-1227.1400000000001
 30
0.0
  0
VERTEX
  5
55D
  8
DATA
  6
CONTINUOUS
 62
     7
 10
26.499999999999989
 20
-1227.1400000000001
 30
0.0
  0
SEQEND
  5
55E
  8
DATA
  6
CONTINUOUS
 62
     7
  0
LINE
  5
2C1
  8
DATA
  6
CONTINUOUS
 62
     7
 10
26.499999999999989
 20
-1219.8066666666659
 30
0.0
 11
73.499999999999986
 21
-1219.8066666666659
 31
0.0
  0
LINE
  5
2C2
  8
DATA
  6
CONTINUOUS
 62
     7
 10
26.499999999999989
 20
-1223.4733333333329
 30
0.0
 11
73.499999999999986
 21
-1223.4733333333329
 31
0.0
  0
LINE
  5
2C3
  8
DATA
  6
CONTINUOUS
 62
     7
 10
40.499999999999993
 20
-1216.1400000000001
 30
0.0
 11
40.499999999999993
 21
-1227.1400000000001
 31
0.0
  0
LINE
  5
2C4
  8
DATA
  6
CONTINUOUS
 62
     7
 10
58.500000000000327
 20
-1227.1400000000001
 30
0.0
 11
58.500000000000327
 21
-1216.1400000000001
 31
0.0
  0
TEXT
  5
2C5
  8
DATA
 62
     7
 10
28.249999999999989
 20
-1219.0533333333331
 30
0.0
 40
2.30859375
  1
Wiring:
 41
0.7
 11
28.249999999999989
 21
-1216.7447395833331
 31
0.0
 73
     3
  0
TEXT
  5
2C6
  8
DATA
 62
     7
 10
44.250000000000213
 20
-1219.0533333333331
 30
0.0
 40
2.30859375
  1
Passive
 41
0.7
 11
44.250000000000213
 21
-1216.7447395833331
 31
0.0
 73
     3
  0
TEXT
  5
2C7
  8
DATA
 62
     7
 10
61.500000000000213
 20
-1219.0533333333331
 30
0.0
 40
2.30859375
  1
Bi-Amp
 41
0.7
 11
61.500000000000213
 21
-1216.7447395833331
 31
0.0
 73
     3
  0
TEXT
  5
2C8
  8
DATA
 62
     7
 10
29.749999999999989
 20
-1222.72
 30
0.0
 40
2.30859375
  1
1+/1-
 41
0.7
 11
29.749999999999989
 21
-1220.41140625
 31
0.0
 73
     3
  0
TEXT
  5
2C9
  8
DATA
 62
     7
 10
42.000000000000213
 20
-1222.72
 30
0.0
 40
2.30859375
  1
Full Renge
 41
0.7
 11
42.000000000000213
 21
-1220.41140625
 31
0.0
 73
     3
  0
TEXT
  5
2CA
  8
DATA
 62
     7
 10
63.750000000000213
 20
-1222.72
 30
0.0
 40
2.30859375
  1
Low
 41
0.7
 11
63.750000000000213
 21
-1220.41140625
 31
0.0
 73
     3
  0
TEXT
  5
2CB
  8
DATA
 62
     7
 10
29.749999999999989
 20
-1226.3866666666661
 30
0.0
 40
2.30859375
  1
2+/2-
 41
0.7
 11
29.749999999999989
 21
-1224.0780729166661
 31
0.0
 73
     3
  0
TEXT
  5
2CC
  8
DATA
 62
     7
 10
47.250000000000213
 20
-1226.3866666666661
 30
0.0
 40
2.30859375
  1
n/c
 41
0.7
 11
47.250000000000213
 21
-1224.0780729166661
 31
0.0
 73
     3
  0
TEXT
  5
2CD
  8
DATA
 62
     7
 10
62.999999937084212
 20
-1226.3866666666661
 30
0.0
 40
2.30859375
  1
High
 41
0.7
 11
62.999999937084212
 21
-1224.0780729166661
 31
0.0
 73
     3
  0
ARC
  5
2CE
  8
DATA
  6
CONTINUOUS
 62
     7
 10
-6.5000000000000142
 20
-1175.1400000000001
 30
0.0
 40
5.0
 50
90.0
 51
180.0
  0
ARC
  5
2CF
  8
DATA
  6
CONTINUOUS
 62
     7
 10
-6.5000000000000142
 20
-1365.1400000000001
 30
0.0
 40
5.0
 50
180.0
 51
270.0
  0
ARC
  5
2D0
  8
DATA
  6
CONTINUOUS
 62
     7
 10
106.5
 20
-1365.1400000000001
 30
0.0
 40
5.0
 50
270.0
 51
0.0
  0
ARC
  5
2D1
  8
DATA
  6
CONTINUOUS
 62
     7
 10
106.5
 20
-1175.1400000000001
 30
0.0
 40
5.0
 50
0.0
 51
90.0
  0
CIRCLE
  5
2D2
  8
DATA
  6
CONTINUOUS
 62
     7
 10
-5.0000000000000142
 20
-1177.1400000000001
 30
0.0
 40
3.25
  0
LINE
  5
2D3
  8
DATA
  6
CONTINUOUS
 62
     7
 10
31.098535250820291
 20
-1314.995537913625
 30
0.0
 11
29.90146474918048
 21
-1318.284462086375
 31
0.0
  0
LINE
  5
2D4
  8
DATA
  6
CONTINUOUS
 62
     7
 10
18.09853525082006
 20
-1318.284462086375
 30
0.0
 11
16.901464749180121
 21
-1314.995537913625
 31
0.0
  0
LINE
  5
2D5
  8
DATA
  6
CONTINUOUS
 62
     7
 10
15.85553791362484
 20
-1317.23853525082
 30
0.0
 11
19.144462086375359
 21
-1316.04146474918
 31
0.0
  0
LINE
  5
2D6
  8
DATA
  6
CONTINUOUS
 62
     7
 10
39.741229516856713
 20
-1315.271919426697
 30
0.0
 11
47.258770483143927
 21
-1318.0080805733021
 31
0.0
  0
LINE
  5
2D7
  8
DATA
  6
CONTINUOUS
 62
     7
 10
44.098535250820291
 20
-1314.995537913625
 30
0.0
 11
42.901464749180477
 21
-1318.284462086375
 31
0.0
  0
LINE
  5
2D8
  8
DATA
  6
CONTINUOUS
 62
     7
 10
52.741229516856698
 20
-1315.271919426697
 30
0.0
 11
60.258770483143941
 21
-1318.0080805733021
 31
0.0
  0
LINE
  5
2D9
  8
DATA
  6
CONTINUOUS
 62
     7
 10
57.098535250820291
 20
-1314.995537913625
 30
0.0
 11
55.901464749180462
 21
-1318.284462086375
 31
0.0
  0
LINE
  5
2DA
  8
DATA
  6
CONTINUOUS
 62
     7
 10
65.741229516856706
 20
-1315.271919426697
 30
0.0
 11
73.258770483143934
 21
-1318.0080805733021
 31
0.0
  0
LINE
  5
2DB
  8
DATA
  6
CONTINUOUS
 62
     7
 10
70.098535250820291
 20
-1314.995537913625
 30
0.0
 11
68.901464749180477
 21
-1318.284462086375
 31
0.0
  0
LINE
  5
2DC
  8
DATA
  6
CONTINUOUS
 62
     7
 10
80.855537913624829
 20
-1317.23853525082
 30
0.0
 11
84.144462086375327
 21
-1316.04146474918
 31
0.0
  0
LINE
  5
2DD
  8
DATA
  6
CONTINUOUS
 62
     7
 10
83.098535250820063
 20
-1318.284462086375
 30
0.0
 11
81.901464749180121
 21
-1314.995537913625
 31
0.0
  0
LINE
  5
2DE
  8
DATA
  6
CONTINUOUS
 62
     7
 10
-5.0000000000000142
 20
-1178.6400000000001
 30
0.0
 11
-5.0000000000000142
 21
-1175.6400000000001
 31
0.0
  0
LINE
  5
2DF
  8
DATA
  6
CONTINUOUS
 62
     7
 10
-3.5000000000000142
 20
-1177.1400000000001
 30
0.0
 11
-6.5000000000000142
 21
-1177.1400000000001
 31
0.0
  0
CIRCLE
  5
2E0
  8
DATA
  6
CONTINUOUS
 62
     7
 10
105.0
 20
-1177.1400000000001
 30
0.0
 40
3.25
  0
LINE
  5
2E1
  8
DATA
  6
CONTINUOUS
 62
     7
 10
105.0
 20
-1178.6400000000001
 30
0.0
 11
105.0
 21
-1175.6400000000001
 31
0.0
  0
LINE
  5
2E2
  8
DATA
  6
CONTINUOUS
 62
     7
 10
106.5
 20
-1177.1400000000001
 30
0.0
 11
103.5
 21
-1177.1400000000001
 31
0.0
  0
CIRCLE
  5
2E3
  8
DATA
  6
CONTINUOUS
 62
     7
 10
-5.0000000000000142
 20
-1270.1400000000001
 30
0.0
 40
3.25
  0
LINE
  5
2E4
  8
DATA
  6
CONTINUOUS
 62
     7
 10
-5.0000000000000142
 20
-1271.6400000000001
 30
0.0
 11
-5.0000000000000142
 21
-1268.6400000000001
 31
0.0
  0
LINE
  5
2E5
  8
DATA
  6
CONTINUOUS
 62
     7
 10
-3.5000000000000142
 20
-1270.1400000000001
 30
0.0
 11
-6.5000000000000142
 21
-1270.1400000000001
 31
0.0
  0
CIRCLE
  5
2E6
  8
DATA
  6
CONTINUOUS
 62
     7
 10
105.0
 20
-1270.1400000000001
 30
0.0
 40
3.25
  0
LINE
  5
2E7
  8
DATA
  6
CONTINUOUS
 62
     7
 10
105.0
 20
-1271.6400000000001
 30
0.0
 11
105.0
 21
-1268.6400000000001
 31
0.0
  0
LINE
  5
2E8
  8
DATA
  6
CONTINUOUS
 62
     7
 10
106.5
 20
-1270.1400000000001
 30
0.0
 11
103.5
 21
-1270.1400000000001
 31
0.0
  0
CIRCLE
  5
2E9
  8
DATA
  6
CONTINUOUS
 62
     7
 10
-5.0000000000000142
 20
-1363.1400000000001
 30
0.0
 40
3.25
  0
LINE
  5
2EA
  8
DATA
  6
CONTINUOUS
 62
     7
 10
-5.0000000000000142
 20
-1364.6400000000001
 30
0.0
 11
-5.0000000000000142
 21
-1361.6400000000001
 31
0.0
  0
LINE
  5
2EB
  8
DATA
  6
CONTINUOUS
 62
     7
 10
-3.5000000000000142
 20
-1363.1400000000001
 30
0.0
 11
-6.5000000000000142
 21
-1363.1400000000001
 31
0.0
  0
CIRCLE
  5
2EC
  8
DATA
  6
CONTINUOUS
 62
     7
 10
105.0
 20
-1363.1400000000001
 30
0.0
 40
3.25
  0
LINE
  5
2ED
  8
DATA
  6
CONTINUOUS
 62
     7
 10
105.0
 20
-1364.6400000000001
 30
0.0
 11
105.0
 21
-1361.6400000000001
 31
0.0
  0
LINE
  5
2EE
  8
DATA
  6
CONTINUOUS
 62
     7
 10
106.5
 20
-1363.1400000000001
 30
0.0
 11
103.5
 21
-1363.1400000000001
 31
0.0
  0
ARC
  5
2EF
  8
DATA
  6
CONTINUOUS
 62
     7
 10
-1631.25
 20
-950.0
 30
0.0
 40
531.25
 50
334.94238458169701
 51
20.938672477386209
  0
ARC
  5
2F0
  8
DATA
  6
CONTINUOUS
 62
     7
 10
-912.5
 20
-1337.5
 30
0.0
 40
287.77161083053352
 50
145.6196552761551
 51
200.78047021133
  0
POLYLINE
  5
2F1
  8
DATA
  6
CONTINUOUS
 62
     7
 66
     1
 10
0.0
 20
0.0
 30
0.0
 70
     1
  0
VERTEX
  5
55F
  8
DATA
  6
CONTINUOUS
 62
     7
 10
-1174.25
 20
-1325.8620000000001
 30
0.0
  0
VERTEX
  5
560
  8
DATA
  6
CONTINUOUS
 62
     7
 10
-1125.75
 20
-1325.8620000000001
 30
0.0
  0
VERTEX
  5
561
  8
DATA
  6
CONTINUOUS
 62
     7
 10
-1125.75
 20
-1374.361999999998
 30
0.0
  0
VERTEX
  5
562
  8
DATA
  6
CONTINUOUS
 62
     7
 10
-1174.25
 20
-1374.361999999998
 30
0.0
  0
SEQEND
  5
563
  8
DATA
  6
CONTINUOUS
 62
     7
  0
LINE
  5
2F8
  8
DATA
  6
CONTINUOUS
 62
     7
 10
-1125.75
 20
-1366.8620000000001
 30
0.0
 11
-1174.25
 21
-1366.8620000000001
 31
0.0
  0
ARC
  5
2F9
  8
DATA
  6
CONTINUOUS
 62
     7
 10
-1149.1586326137469
 20
-1352.624997920889
 30
0.0
 40
0.5578704509322502
 50
307.64190249755438
 51
354.26701928938138
  0
LINE
  5
2FA
  8
DATA
  6
CONTINUOUS
 62
     7
 10
-1163.4882124999999
 20
-1343.833862499999
 30
0.0
 11
-1160.8729075000001
 21
-1337.6023224999999
 31
0.0
  0
LINE
  5
2FB
  8
DATA
  6
CONTINUOUS
 62
     7
 10
-1163.4882124999999
 20
-1343.833862499999
 30
0.0
 11
-1166.0712475
 21
-1337.6023224999999
 31
0.0
  0
LINE
  5
2FC
  8
DATA
  6
CONTINUOUS
 62
     7
 10
-1143.6635125
 20
-1355.1023224999999
 30
0.0
 11
-1143.6635125
 21
-1337.6023224999999
 31
0.0
  0
LINE
  5
2FD
  8
DATA
  6
CONTINUOUS
 62
     7
 10
-1140.3055775
 20
-1337.6023224999999
 30
0.0
 11
-1140.3055775
 21
-1352.4224424999991
 31
0.0
  0
LINE
  5
2FE
  8
DATA
  6
CONTINUOUS
 62
     7
 10
-1159.6459649999999
 20
-1337.6023224999999
 30
0.0
 11
-1159.6459649999999
 21
-1352.4224424999991
 31
0.0
  0
LINE
  5
2FF
  8
DATA
  6
CONTINUOUS
 62
     7
 10
-1156.4171799999999
 20
-1337.6023224999999
 30
0.0
 11
-1156.4171799999999
 21
-1352.4224424999991
 31
0.0
  0
LINE
  5
300
  8
DATA
  6
CONTINUOUS
 62
     7
 10
-1154.7382124999999
 20
-1337.6023224999999
 30
0.0
 11
-1154.7382124999999
 21
-1355.1023224999999
 31
0.0
  0
LINE
  5
301
  8
DATA
  6
CONTINUOUS
 62
     7
 10
-1151.800015
 20
-1339.248984999999
 30
0.0
 11
-1151.800015
 21
-1344.86708
 31
0.0
  0
LINE
  5
302
  8
DATA
  6
CONTINUOUS
 62
     7
 10
-1145.5025000000001
 20
-1344.541999999999
 30
0.0
 11
-1145.5025000000001
 21
-1340.4436574999991
 31
0.0
  0
LINE
  5
303
  8
DATA
  6
CONTINUOUS
 62
     7
 10
-1148.6035525
 20
-1340.023902499998
 30
0.0
 11
-1148.6035525
 21
-1344.092179999999
 31
0.0
  0
ARC
  5
304
  8
DATA
  6
CONTINUOUS
 62
     7
 10
-1160.293885
 20
-1350.6086725
 30
0.0
 40
4.5129934940434158
 50
264.69085622153312
 51
323.9911991542441
  0
LINE
  5
305
  8
DATA
  6
CONTINUOUS
 62
     7
 10
-1162.0998325
 20
-1349.6133775000001
 30
0.0
 11
-1162.0998325
 21
-1352.4224074999991
 31
0.0
  0
LINE
  5
306
  8
DATA
  6
CONTINUOUS
 62
     7
 10
-1162.0998325
 20
-1349.6133775000001
 30
0.0
 11
-1165.0057425
 21
-1349.6133775000001
 31
0.0
  0
LINE
  5
307
  8
DATA
  6
CONTINUOUS
 62
     7
 10
-1165.0057425
 20
-1349.6133775000001
 30
0.0
 11
-1165.0057425
 21
-1352.4224074999991
 31
0.0
  0
ARC
  5
308
  8
DATA
  6
CONTINUOUS
 62
     7
 10
-1160.8667475
 20
-1352.460277499998
 30
0.0
 40
1.221375445924314
 50
269.711848792745
 51
1.775987005684327
  0
ARC
  5
309
  8
DATA
  6
CONTINUOUS
 62
     7
 10
-1160.87905
 20
-1352.460277499998
 30
0.0
 40
1.221369200554274
 50
178.22401299431971
 51
270.28815120725773
  0
ARC
  5
30A
  8
DATA
  6
CONTINUOUS
 62
     7
 10
-1161.1290375000001
 20
-1350.6086725
 30
0.0
 40
4.5129861646563931
 50
216.0088008457584
 51
275.30914377846341
  0
ARC
  5
30B
  8
DATA
  6
CONTINUOUS
 62
     7
 10
-1162.9662225
 20
-1352.3234799999991
 30
0.0
 40
2.041900364307899
 50
182.77699544999271
 51
207.35960666715161
  0
CIRCLE
  5
30C
  8
DATA
  6
CONTINUOUS
 62
     7
 10
-1163.3106224999999
 20
-1346.2554600000001
 30
0.0
 40
1.6628150000001349
  0
LINE
  5
30D
  8
DATA
  6
CONTINUOUS
 62
     7
 10
-1134.9135125
 20
-1355.102304999999
 30
0.0
 11
-1143.6635125
 21
-1355.102304999999
 31
0.0
  0
LINE
  5
30E
  8
DATA
  6
CONTINUOUS
 62
     7
 10
-1134.9135125
 20
-1355.102304999999
 30
0.0
 11
-1134.9135125
 21
-1349.6133599999989
 31
0.0
  0
LINE
  5
30F
  8
DATA
  6
CONTINUOUS
 62
     7
 10
-1134.9135125
 20
-1349.6133775000001
 30
0.0
 11
-1137.8516924999999
 21
-1349.6133775000001
 31
0.0
  0
LINE
  5
310
  8
DATA
  6
CONTINUOUS
 62
     7
 10
-1137.8516924999999
 20
-1349.6133775000001
 30
0.0
 11
-1137.8516924999999
 21
-1352.4224074999991
 31
0.0
  0
LINE
  5
311
  8
DATA
  6
CONTINUOUS
 62
     7
 10
-1154.7382124999999
 20
-1355.102304999999
 30
0.0
 11
-1148.6035525
 21
-1355.1022875000001
 31
0.0
  0
LINE
  5
312
  8
DATA
  6
CONTINUOUS
 62
     7
 10
-1151.800032499998
 20
-1353.455624999998
 30
0.0
 11
-1150.2179275000001
 21
-1353.455624999998
 31
0.0
  0
LINE
  5
313
  8
DATA
  6
CONTINUOUS
 62
     7
 10
-1151.800015
 20
-1353.455624999998
 30
0.0
 11
-1151.800015
 21
-1346.5460299999991
 31
0.0
  0
LINE
  5
314
  8
DATA
  6
CONTINUOUS
 62
     7
 10
-1151.800032499998
 20
-1346.5460299999991
 30
0.0
 11
-1150.2179275000001
 21
-1346.5460299999991
 31
0.0
  0
LINE
  5
315
  8
DATA
  6
CONTINUOUS
 62
     7
 10
-1148.6035525
 20
-1352.680724999999
 30
0.0
 11
-1148.6035525
 21
-1347.3209300000001
 31
0.0
  0
ARC
  5
316
  8
DATA
  6
CONTINUOUS
 62
     7
 10
-1158.4567
 20
-1352.3234799999991
 30
0.0
 40
2.041897458763922
 50
332.64039333284688
 51
357.2230045500088
  0
ARC
  5
317
  8
DATA
  6
CONTINUOUS
 62
     7
 10
-1139.0724925
 20
-1352.460277499998
 30
0.0
 40
1.221375445924312
 50
269.71184879275569
 51
1.775987005684327
  0
ARC
  5
318
  8
DATA
  6
CONTINUOUS
 62
     7
 10
-1139.0847774999991
 20
-1352.460277499998
 30
0.0
 40
1.221369200554274
 50
178.22401299431971
 51
270.28815120722572
  0
LINE
  5
319
  8
DATA
  6
CONTINUOUS
 62
     7
 10
-1145.5039174999999
 20
-1352.2932575
 30
0.0
 11
-1145.5039174999999
 21
-1347.643822499999
 31
0.0
  0
LINE
  5
31A
  8
DATA
  6
CONTINUOUS
 62
     7
 10
-1151.800032499998
 20
-1344.86708
 30
0.0
 11
-1150.2179275000001
 21
-1344.86708
 31
0.0
  0
ARC
  5
31B
  8
DATA
  6
CONTINUOUS
 62
     7
 10
-1148.8260124999999
 20
-1351.7801574999989
 30
0.0
 40
3.329569970506518
 50
273.8309816091222
 51
351.1351473098033
  0
LINE
  5
31C
  8
DATA
  6
CONTINUOUS
 62
     7
 10
-1159.6459649999999
 20
-1337.6023224999999
 30
0.0
 11
-1156.4171799999999
 21
-1337.6023224999999
 31
0.0
  0
LINE
  5
31D
  8
DATA
  6
CONTINUOUS
 62
     7
 10
-1166.0712475
 20
-1337.6023224999999
 30
0.0
 11
-1160.8729075000001
 21
-1337.6023224999999
 31
0.0
  0
LINE
  5
31E
  8
DATA
  6
CONTINUOUS
 62
     7
 10
-1143.6635125
 20
-1337.6023224999999
 30
0.0
 11
-1140.3055775
 21
-1337.6023224999999
 31
0.0
  0
LINE
  5
31F
  8
DATA
  6
CONTINUOUS
 62
     7
 10
-1154.7382124999999
 20
-1337.6023224999999
 30
0.0
 11
-1148.5698297757431
 21
-1337.602336664045
 31
0.0
  0
LINE
  5
320
  8
DATA
  6
CONTINUOUS
 62
     7
 10
-1151.800032499998
 20
-1339.2490024999991
 30
0.0
 11
-1150.2179275000001
 21
-1339.2490024999991
 31
0.0
  0
ARC
  5
321
  8
DATA
  6
CONTINUOUS
 62
     7
 10
-1148.792815
 20
-1340.919377499999
 30
0.0
 40
3.3245273825949151
 50
8.2269238590188021
 51
86.154126692155714
  0
ARC
  5
322
  8
DATA
  6
CONTINUOUS
 62
     7
 10
-1150.199245440444
 20
-1350.386671068972
 30
0.0
 40
3.0690107934182671
 50
269.65121993761278
 51
282.82648280686823
  0
ARC
  5
323
  8
DATA
  6
CONTINUOUS
 62
     7
 10
-1149.8545469519329
 20
-1351.684188044647
 30
0.0
 40
1.7280163314633661
 50
281.2331036226492
 51
306.86200889405052
  0
ARC
  5
324
  8
DATA
  6
CONTINUOUS
 62
     7
 10
-1149.1586326137469
 20
-1347.376657079109
 30
0.0
 40
0.5578704509325588
 50
5.7329807105674941
 51
52.358097502441417
  0
ARC
  5
325
  8
DATA
  6
CONTINUOUS
 62
     7
 10
-1150.199245440444
 20
-1349.614983931026
 30
0.0
 40
3.0690107934178141
 50
77.173517193129726
 51
90.348780062387206
  0
ARC
  5
326
  8
DATA
  6
CONTINUOUS
 62
     7
 10
-1149.8545469519329
 20
-1348.3174669553521
 30
0.0
 40
1.7280163314629811
 50
53.137991105951031
 51
78.766896377340515
  0
ARC
  5
327
  8
DATA
  6
CONTINUOUS
 62
     7
 10
-1147.1973575
 20
-1347.75829
 30
0.0
 40
1.6973042868491031
 50
3.8670063598311599
 51
88.361634567886696
  0
ARC
  5
328
  8
DATA
  6
CONTINUOUS
 62
     7
 10
-1147.1989149999999
 20
-1344.3634300000001
 30
0.0
 40
1.698990894908138
 50
271.68928210465128
 51
356.07828298266639
  0
ARC
  5
329
  8
DATA
  6
CONTINUOUS
 62
     7
 10
-1149.1586326137469
 20
-1344.0364529208889
 30
0.0
 40
0.5578704509320703
 50
307.64190249756848
 51
354.26701928940452
  0
ARC
  5
32A
  8
DATA
  6
CONTINUOUS
 62
     7
 10
-1150.199245440444
 20
-1341.798126068973
 30
0.0
 40
3.0690107934180402
 50
269.65121993761278
 51
282.82648280687351
  0
ARC
  5
32B
  8
DATA
  6
CONTINUOUS
 62
     7
 10
-1149.8545469519329
 20
-1343.095643044647
 30
0.0
 40
1.7280163314626951
 50
281.23310362265357
 51
306.86200889405359
  0
ARC
  5
32C
  8
DATA
  6
CONTINUOUS
 62
     7
 10
-1149.1586326137469
 20
-1340.0796295791099
 30
0.0
 40
0.5578704509326041
 50
5.7329807106139619
 51
52.358097502422929
  0
ARC
  5
32D
  8
DATA
  6
CONTINUOUS
 62
     7
 10
-1150.199245440444
 20
-1342.3179564310269
 30
0.0
 40
3.069010793418256
 50
77.17351719313163
 51
90.348780062387164
  0
ARC
  5
32E
  8
DATA
  6
CONTINUOUS
 62
     7
 10
-1149.8545469519329
 20
-1341.0204394553521
 30
0.0
 40
1.7280163314627981
 50
53.137991105946512
 51
78.766896377346441
  0
TEXT
  5
32F
  8
DATA
 62
     7
 10
-1168.0
 20
-1372.771999999999
 30
0.0
 40
4.6171875
  1
PROFESSIONAL
 41
0.7
 11
-1168.0
 21
-1368.154812499999
 31
0.0
 73
     3
  0
LINE
  5
330
  8
DATA
  6
CONTINUOUS
 62
     7
 10
585.0
 20
-1850.0
 30
0.0
 11
585.0
 21
50.0
 31
0.0
  0
LINE
  5
331
  8
DATA
  6
CONTINUOUS
 62
     7
 10
1765.0
 20
-1900.0
 30
0.0
 11
635.0
 21
-1900.0
 31
0.0
  0
LINE
  5
332
  8
DATA
  6
CONTINUOUS
 62
     7
 10
1815.0
 20
50.0
 30
0.0
 11
1815.0
 21
-1850.0
 31
0.0
  0
LINE
  5
333
  8
DATA
  6
CONTINUOUS
 62
     7
 10
635.0
 20
100.0
 30
0.0
 11
1765.0
 21
100.0
 31
0.0
  0
LINE
  5
334
  8
DATA
  6
CONTINUOUS
 62
     7
 10
735.0
 20
-1755.0
 30
0.0
 11
735.0
 21
-45.0
 31
0.0
  0
LINE
  5
335
  8
DATA
  6
CONTINUOUS
 62
     7
 10
1665.0
 20
-1755.0
 30
0.0
 11
735.0
 21
-1755.0
 31
0.0
  0
LINE
  5
336
  8
DATA
  6
CONTINUOUS
 62
     7
 10
1665.0
 20
-45.0
 30
0.0
 11
1665.0
 21
-1755.0
 31
0.0
  0
LINE
  5
337
  8
DATA
  6
CONTINUOUS
 62
     7
 10
735.0
 20
-45.0
 30
0.0
 11
1665.0
 21
-45.0
 31
0.0
  0
POLYLINE
  5
338
  8
DATA
  6
CONTINUOUS
 62
     7
 66
     1
 10
0.0
 20
0.0
 30
0.0
 70
     1
  0
VERTEX
  5
564
  8
DATA
  6
CONTINUOUS
 62
     7
 10
795.0
 20
-1275.0
 30
0.0
  0
VERTEX
  5
565
  8
DATA
  6
CONTINUOUS
 62
     7
 10
1605.0
 20
-1275.0
 30
0.0
  0
VERTEX
  5
566
  8
DATA
  6
CONTINUOUS
 62
     7
 10
1605.0
 20
-1455.0
 30
0.0
  0
VERTEX
  5
567
  8
DATA
  6
CONTINUOUS
 62
     7
 10
795.0
 20
-1455.0
 30
0.0
  0
SEQEND
  5
568
  8
DATA
  6
CONTINUOUS
 62
     7
  0
POLYLINE
  5
33F
  8
DATA
  6
CONTINUOUS
 62
     7
 66
     1
 10
0.0
 20
0.0
 30
0.0
 70
   129
  0
VERTEX
  5
569
  8
DATA
  6
CONTINUOUS
 62
     7
 10
1082.5
 20
-865.0
 30
0.0
 42
-0.4142135623730951
  0
VERTEX
  5
56A
  8
DATA
  6
CONTINUOUS
 62
     7
 10
1200.0
 20
-747.5
 30
0.0
 42
-0.4142135623730951
  0
VERTEX
  5
56B
  8
DATA
  6
CONTINUOUS
 62
     7
 10
1317.5
 20
-865.0
 30
0.0
 42
-0.4142135623730951
  0
VERTEX
  5
56C
  8
DATA
  6
CONTINUOUS
 62
     7
 10
1200.0
 20
-982.50000000000011
 30
0.0
 42
-0.4142135623730951
  0
VERTEX
  5
56D
  8
DATA
  6
CONTINUOUS
 62
     7
 10
1082.5
 20
-865.0
 30
0.0
  0
SEQEND
  5
56E
  8
DATA
  6
CONTINUOUS
 62
     7
  0
LINE
  5
346
  8
DATA
  6
CONTINUOUS
 62
     7
 10
1170.0
 20
-765.0
 30
0.0
 11
1230.0
 21
-765.0
 31
0.0
  0
LINE
  5
347
  8
DATA
  6
CONTINUOUS
 62
     7
 10
1180.0
 20
-965.0
 30
0.0
 11
1220.0
 21
-965.0
 31
0.0
  0
LINE
  5
348
  8
DATA
  6
CONTINUOUS
 62
     7
 10
1180.0
 20
-965.0
 30
0.0
 11
1180.0
 21
-952.99999999999966
 31
0.0
  0
LINE
  5
349
  8
DATA
  6
CONTINUOUS
 62
     7
 10
1220.0
 20
-965.0
 30
0.0
 11
1220.0
 21
-952.99999999999966
 31
0.0
  0
LINE
  5
34A
  8
DATA
  6
CONTINUOUS
 62
     7
 10
1170.0
 20
-765.0
 30
0.0
 11
1170.0
 21
-782.27150000000165
 31
0.0
  0
LINE
  5
34B
  8
DATA
  6
CONTINUOUS
 62
     7
 10
1230.0
 20
-765.0
 30
0.0
 11
1230.0
 21
-782.27150000000165
 31
0.0
  0
ARC
  5
34C
  8
DATA
  6
CONTINUOUS
 62
     7
 10
1200.0
 20
-865.0
 30
0.0
 40
88.000026774142114
 50
109.9322641506793
 51
257.1961668197003
  0
ARC
  5
34D
  8
DATA
  6
CONTINUOUS
 62
     7
 10
1200.0
 20
-865.0
 30
0.0
 40
88.000035043459306
 50
282.9999995554212
 51
69.999994237961602
  0
ARC
  5
34E
  8
DATA
  6
CONTINUOUS
 62
     7
 10
1200.0
 20
-865.0
 30
0.0
 40
62.000021620640659
 50
60.000011535560397
 51
150.0000115355611
  0
LINE
  5
34F
  8
DATA
  6
CONTINUOUS
 62
     7
 10
1146.3065999999999
 20
-833.99969999999939
 30
0.0
 11
1151.2861999999991
 21
-836.87470000000064
 31
0.0
  0
LINE
  5
350
  8
DATA
  6
CONTINUOUS
 62
     7
 10
1230.9996999999989
 20
-811.30619999999897
 30
0.0
 11
1228.1246999999989
 21
-816.2859000000002
 31
0.0
  0
ARC
  5
351
  8
DATA
  6
CONTINUOUS
 62
     7
 10
1200.0
 20
-865.0
 30
0.0
 40
62.000021620642627
 50
240.00001153556141
 51
330.00001153556229
  0
LINE
  5
352
  8
DATA
  6
CONTINUOUS
 62
     7
 10
1169.0
 20
-918.69360000000165
 30
0.0
 11
1171.875
 21
-913.71390000000031
 31
0.0
  0
LINE
  5
353
  8
DATA
  6
CONTINUOUS
 62
     7
 10
1253.6937
 20
-895.99979999999971
 30
0.0
 11
1248.7139999999999
 21
-893.1248000000005
 31
0.0
  0
ARC
  5
354
  8
DATA
  6
CONTINUOUS
 62
     7
 10
1200.0
 20
-865.0
 30
0.0
 40
56.250038315809192
 50
149.9996696821033
 51
240.0002126043033
  0
ARC
  5
355
  8
DATA
  6
CONTINUOUS
 62
     7
 10
1200.0
 20
-865.0
 30
0.0
 40
56.249961520342602
 50
330.00021260430242
 51
60.000718243123572
  0
ARC
  5
356
  8
DATA
  6
CONTINUOUS
 62
     7
 10
1200.0
 20
-865.0
 30
0.0
 40
35.999900808752571
 50
59.999908854706391
 51
149.9999088547064
  0
ARC
  5
357
  8
DATA
  6
CONTINUOUS
 62
     7
 10
1200.0
 20
-865.0
 30
0.0
 40
35.999900808752571
 50
239.9999088547064
 51
329.9999088547064
  0
LINE
  5
358
  8
DATA
  6
CONTINUOUS
 62
     7
 10
1217.9998000000001
 20
-833.82309999999961
 30
0.0
 11
1214.4999
 21
-839.88520000000096
 31
0.0
  0
LINE
  5
359
  8
DATA
  6
CONTINUOUS
 62
     7
 10
1168.8233
 20
-846.99990000000059
 30
0.0
 11
1174.8852999999999
 21
-850.49989999999957
 31
0.0
  0
LINE
  5
35A
  8
DATA
  6
CONTINUOUS
 62
     7
 10
1182.0
 20
-896.17680000000064
 30
0.0
 11
1185.4999999999991
 21
-890.11469999999895
 31
0.0
  0
LINE
  5
35B
  8
DATA
  6
CONTINUOUS
 62
     7
 10
1231.1768999999999
 20
-882.99980000000005
 30
0.0
 11
1225.1148000000001
 21
-879.49990000000059
 31
0.0
  0
ARC
  5
35C
  8
DATA
  6
CONTINUOUS
 62
     7
 10
1200.0
 20
-865.0
 30
0.0
 40
29.000018208615149
 50
149.9997926340302
 51
240.0002336238305
  0
ARC
  5
35D
  8
DATA
  6
CONTINUOUS
 62
     7
 10
1200.0
 20
-865.0
 30
0.0
 40
29.000004811207098
 50
330.00023362382922
 51
59.999792634029731
  0
LINE
  5
35E
  8
DATA
  6
CONTINUOUS
 62
     7
 10
925.00000000000352
 20
-1455.0
 30
0.0
 11
925.00000000000352
 21
-1275.0
 31
0.0
  0
LINE
  5
35F
  8
DATA
  6
CONTINUOUS
 62
     7
 10
955.00000000000364
 20
-1455.0
 30
0.0
 11
955.00000000000364
 21
-1275.0
 31
0.0
  0
LINE
  5
360
  8
DATA
  6
CONTINUOUS
 62
     7
 10
1055.000000000003
 20
-1455.0
 30
0.0
 11
1055.000000000003
 21
-1275.0
 31
0.0
  0
LINE
  5
361
  8
DATA
  6
CONTINUOUS
 62
     7
 10
1085.000000000003
 20
-1455.0
 30
0.0
 11
1085.000000000003
 21
-1275.0
 31
0.0
  0
LINE
  5
362
  8
DATA
  6
CONTINUOUS
 62
     7
 10
1185.000000000003
 20
-1455.0
 30
0.0
 11
1185.000000000003
 21
-1275.0
 31
0.0
  0
LINE
  5
363
  8
DATA
  6
CONTINUOUS
 62
     7
 10
1215.000000000003
 20
-1455.0
 30
0.0
 11
1215.000000000003
 21
-1275.0
 31
0.0
  0
LINE
  5
364
  8
DATA
  6
CONTINUOUS
 62
     7
 10
1315.000000000003
 20
-1455.0
 30
0.0
 11
1315.000000000003
 21
-1275.0
 31
0.0
  0
LINE
  5
365
  8
DATA
  6
CONTINUOUS
 62
     7
 10
1345.000000000003
 20
-1455.0
 30
0.0
 11
1345.000000000003
 21
-1275.0
 31
0.0
  0
LINE
  5
366
  8
DATA
  6
CONTINUOUS
 62
     7
 10
1445.000000000003
 20
-1455.0
 30
0.0
 11
1445.000000000003
 21
-1275.0
 31
0.0
  0
LINE
  5
367
  8
DATA
  6
CONTINUOUS
 62
     7
 10
1475.000000000003
 20
-1455.0
 30
0.0
 11
1475.000000000003
 21
-1275.0
 31
0.0
  0
LINE
  5
368
  8
DATA
  6
CONTINUOUS
 62
     7
 10
825.0
 20
-1455.0
 30
0.0
 11
825.0
 21
-1275.0
 31
0.0
  0
LINE
  5
369
  8
DATA
  6
CONTINUOUS
 62
     7
 10
1575.0
 20
-1275.0
 30
0.0
 11
1575.0
 21
-1455.0
 31
0.0
  0
CIRCLE
  5
36A
  8
DATA
  6
CONTINUOUS
 62
     7
 10
1005.000000000003
 20
-1365.0
 30
0.0
 40
39.99999999999968
  0
POLYLINE
  5
36B
  8
DATA
  6
CONTINUOUS
 62
     7
 66
     1
 10
0.0
 20
0.0
 30
0.0
 70
     1
  0
VERTEX
  5
56F
  8
DATA
  6
CONTINUOUS
 62
     7
 10
976.95121951219789
 20
-1307.439024390241
 30
0.0
  0
VERTEX
  5
570
  8
DATA
  6
CONTINUOUS
 62
     7
 10
1055.000000000002
 20
-1324.999999999997
 30
0.0
  0
VERTEX
  5
571
  8
DATA
  6
CONTINUOUS
 62
     7
 10
1033.0487804878071
 20
-1422.560975609754
 30
0.0
  0
VERTEX
  5
572
  8
DATA
  6
CONTINUOUS
 62
     7
 10
955.00000000000227
 20
-1404.999999999997
 30
0.0
  0
SEQEND
  5
573
  8
DATA
  6
CONTINUOUS
 62
     7
  0
LINE
  5
372
  8
DATA
  6
CONTINUOUS
 62
     7
 10
967.41229516856731
 20
-1351.319194266971
 30
0.0
 11
1042.587704831438
 21
-1378.680805733027
 31
0.0
  0
CIRCLE
  5
373
  8
DATA
  6
CONTINUOUS
 62
     7
 10
1135.000000000003
 20
-1365.0
 30
0.0
 40
39.99999999999968
  0
POLYLINE
  5
374
  8
DATA
  6
CONTINUOUS
 62
     7
 66
     1
 10
0.0
 20
0.0
 30
0.0
 70
     1
  0
VERTEX
  5
574
  8
DATA
  6
CONTINUOUS
 62
     7
 10
1106.9512195121979
 20
-1307.439024390241
 30
0.0
  0
VERTEX
  5
575
  8
DATA
  6
CONTINUOUS
 62
     7
 10
1185.000000000002
 20
-1324.999999999997
 30
0.0
  0
VERTEX
  5
576
  8
DATA
  6
CONTINUOUS
 62
     7
 10
1163.0487804878071
 20
-1422.560975609754
 30
0.0
  0
VERTEX
  5
577
  8
DATA
  6
CONTINUOUS
 62
     7
 10
1085.000000000002
 20
-1404.999999999997
 30
0.0
  0
SEQEND
  5
578
  8
DATA
  6
CONTINUOUS
 62
     7
  0
CIRCLE
  5
37B
  8
DATA
  6
CONTINUOUS
 62
     7
 10
1265.000000000003
 20
-1365.0
 30
0.0
 40
39.99999999999968
  0
POLYLINE
  5
37C
  8
DATA
  6
CONTINUOUS
 62
     7
 66
     1
 10
0.0
 20
0.0
 30
0.0
 70
     1
  0
VERTEX
  5
579
  8
DATA
  6
CONTINUOUS
 62
     7
 10
1236.9512195121979
 20
-1307.439024390241
 30
0.0
  0
VERTEX
  5
57A
  8
DATA
  6
CONTINUOUS
 62
     7
 10
1315.000000000002
 20
-1324.999999999997
 30
0.0
  0
VERTEX
  5
57B
  8
DATA
  6
CONTINUOUS
 62
     7
 10
1293.0487804878071
 20
-1422.560975609754
 30
0.0
  0
VERTEX
  5
57C
  8
DATA
  6
CONTINUOUS
 62
     7
 10
1215.000000000002
 20
-1404.999999999997
 30
0.0
  0
SEQEND
  5
57D
  8
DATA
  6
CONTINUOUS
 62
     7
  0
CIRCLE
  5
383
  8
DATA
  6
CONTINUOUS
 62
     7
 10
1395.000000000003
 20
-1365.0
 30
0.0
 40
39.99999999999968
  0
POLYLINE
  5
384
  8
DATA
  6
CONTINUOUS
 62
     7
 66
     1
 10
0.0
 20
0.0
 30
0.0
 70
     1
  0
VERTEX
  5
57E
  8
DATA
  6
CONTINUOUS
 62
     7
 10
1366.9512195121979
 20
-1307.439024390241
 30
0.0
  0
VERTEX
  5
57F
  8
DATA
  6
CONTINUOUS
 62
     7
 10
1445.000000000002
 20
-1324.999999999997
 30
0.0
  0
VERTEX
  5
580
  8
DATA
  6
CONTINUOUS
 62
     7
 10
1423.0487804878071
 20
-1422.560975609754
 30
0.0
  0
VERTEX
  5
581
  8
DATA
  6
CONTINUOUS
 62
     7
 10
1345.000000000002
 20
-1404.999999999997
 30
0.0
  0
SEQEND
  5
582
  8
DATA
  6
CONTINUOUS
 62
     7
  0
CIRCLE
  5
38B
  8
DATA
  6
CONTINUOUS
 62
     7
 10
1525.000000000002
 20
-1365.0
 30
0.0
 40
39.999999999998039
  0
CIRCLE
  5
38C
  8
DATA
  6
CONTINUOUS
 62
     7
 10
875.00000000000227
 20
-1365.0
 30
0.0
 40
39.99999999999882
  0
TEXT
  5
38D
  8
DATA
 62
     7
 10
980.00000000000364
 20
-1213.0
 30
0.0
 40
38.4765625
  1
1+
 41
0.7
 11
980.00000000000364
 21
-1174.5234375
 31
0.0
 73
     3
  0
TEXT
  5
38E
  8
DATA
 62
     7
 10
1110.000000000003
 20
-1213.0
 30
0.0
 40
38.4765625
  1
1-
 41
0.7
 11
1110.000000000003
 21
-1174.5234375
 31
0.0
 73
     3
  0
TEXT
  5
38F
  8
DATA
 62
     7
 10
1240.000000000003
 20
-1213.0
 30
0.0
 40
38.4765625
  1
2+
 41
0.7
 11
1240.000000000003
 21
-1174.5234375
 31
0.0
 73
     3
  0
TEXT
  5
390
  8
DATA
 62
     7
 10
1370.000000000003
 20
-1213.0
 30
0.0
 40
38.4765625
  1
2-
 41
0.7
 11
1370.000000000003
 21
-1174.5234375
 31
0.0
 73
     3
  0
CIRCLE
  5
391
  8
DATA
  6
CONTINUOUS
 62
     7
 10
900.0
 20
-645.0
 30
0.0
 40
30.0
  0
CIRCLE
  5
392
  8
DATA
  6
CONTINUOUS
 62
     7
 10
1500.0
 20
-645.0
 30
0.0
 40
30.0
  0
POLYLINE
  5
393
  8
DATA
  6
CONTINUOUS
 62
     7
 66
     1
 10
0.0
 20
0.0
 30
0.0
 70
     1
  0
VERTEX
  5
583
  8
DATA
  6
CONTINUOUS
 62
     7
 10
800.0
 20
-215.0
 30
0.0
  0
VERTEX
  5
584
  8
DATA
  6
CONTINUOUS
 62
     7
 10
1600.0
 20
-215.0
 30
0.0
  0
VERTEX
  5
585
  8
DATA
  6
CONTINUOUS
 62
     7
 10
1600.0
 20
-595.0
 30
0.0
  0
VERTEX
  5
586
  8
DATA
  6
CONTINUOUS
 62
     7
 10
800.0
 20
-595.0
 30
0.0
  0
SEQEND
  5
587
  8
DATA
  6
CONTINUOUS
 62
     7
  0
TEXT
  5
39A
  8
DATA
 62
     7
 10
807.49999999999989
 20
-567.99999999999977
 30
0.0
 40
38.4765625
  1
(Passive)
 41
0.7
 11
807.49999999999989
 21
-529.52343749999977
 31
0.0
 73
     3
  0
TEXT
  5
39B
  8
DATA
 62
     7
 10
1380.0
 20
-567.99999999999977
 30
0.0
 40
38.4765625
  1
(Bi-Amp)
 41
0.7
 11
1380.0
 21
-529.52343749999977
 31
0.0
 73
     3
  0
TEXT
  5
39C
  8
DATA
 62
     7
 10
830.0
 20
-288.0
 30
0.0
 40
38.4765625
  1
Model: AM6212/95
 41
0.7
 11
830.0
 21
-249.5234375
 31
0.0
 73
     3
  0
POLYLINE
  5
39D
  8
DATA
  6
CONTINUOUS
 62
     7
 66
     1
 10
0.0
 20
0.0
 30
0.0
 70
     1
  0
VERTEX
  5
588
  8
DATA
  6
CONTINUOUS
 62
     7
 10
965.0
 20
-360.0
 30
0.0
  0
VERTEX
  5
589
  8
DATA
  6
CONTINUOUS
 62
     7
 10
1435.0
 20
-360.0
 30
0.0
  0
VERTEX
  5
58A
  8
DATA
  6
CONTINUOUS
 62
     7
 10
1435.0
 20
-470.0
 30
0.0
  0
VERTEX
  5
58B
  8
DATA
  6
CONTINUOUS
 62
     7
 10
965.0
 20
-470.0
 30
0.0
  0
SEQEND
  5
58C
  8
DATA
  6
CONTINUOUS
 62
     7
  0
LINE
  5
3A4
  8
DATA
  6
CONTINUOUS
 62
     7
 10
965.0
 20
-396.66666666666742
 30
0.0
 11
1435.0
 21
-396.66666666666742
 31
0.0
  0
LINE
  5
3A5
  8
DATA
  6
CONTINUOUS
 62
     7
 10
965.0
 20
-433.33333333333252
 30
0.0
 11
1435.0
 21
-433.33333333333252
 31
0.0
  0
LINE
  5
3A6
  8
DATA
  6
CONTINUOUS
 62
     7
 10
1105.0
 20
-360.0
 30
0.0
 11
1105.0
 21
-470.0
 31
0.0
  0
LINE
  5
3A7
  8
DATA
  6
CONTINUOUS
 62
     7
 10
1285.000000000003
 20
-470.0
 30
0.0
 11
1285.000000000003
 21
-360.0
 31
0.0
  0
TEXT
  5
3A8
  8
DATA
 62
     7
 10
982.50000000000011
 20
-389.13333333333492
 30
0.0
 40
23.0859375
  1
Wiring:
 41
0.7
 11
982.50000000000011
 21
-366.04739583333492
 31
0.0
 73
     3
  0
TEXT
  5
3A9
  8
DATA
 62
     7
 10
1142.500000000002
 20
-389.13333333333492
 30
0.0
 40
23.0859375
  1
Passive
 41
0.7
 11
1142.500000000002
 21
-366.04739583333492
 31
0.0
 73
     3
  0
TEXT
  5
3AA
  8
DATA
 62
     7
 10
1315.000000000002
 20
-389.13333333333492
 30
0.0
 40
23.0859375
  1
Bi-Amp
 41
0.7
 11
1315.000000000002
 21
-366.04739583333492
 31
0.0
 73
     3
  0
TEXT
  5
3AB
  8
DATA
 62
     7
 10
997.49999999999989
 20
-425.80000000000001
 30
0.0
 40
23.0859375
  1
1+/1-
 41
0.7
 11
997.49999999999989
 21
-402.71406250000001
 31
0.0
 73
     3
  0
TEXT
  5
3AC
  8
DATA
 62
     7
 10
1120.000000000002
 20
-425.80000000000001
 30
0.0
 40
23.0859375
  1
Full Renge
 41
0.7
 11
1120.000000000002
 21
-402.71406250000001
 31
0.0
 73
     3
  0
TEXT
  5
3AD
  8
DATA
 62
     7
 10
1337.500000000002
 20
-425.80000000000001
 30
0.0
 40
23.0859375
  1
Low
 41
0.7
 11
1337.500000000002
 21
-402.71406250000001
 31
0.0
 73
     3
  0
TEXT
  5
3AE
  8
DATA
 62
     7
 10
997.49999999999989
 20
-462.46666666666511
 30
0.0
 40
23.0859375
  1
2+/2-
 41
0.7
 11
997.49999999999989
 21
-439.38072916666511
 31
0.0
 73
     3
  0
TEXT
  5
3AF
  8
DATA
 62
     7
 10
1172.500000000002
 20
-462.46666666666511
 30
0.0
 40
23.0859375
  1
n/c
 41
0.7
 11
1172.500000000002
 21
-439.38072916666511
 31
0.0
 73
     3
  0
TEXT
  5
3B0
  8
DATA
 62
     7
 10
1330.00000021193
 20
-462.46666666666511
 30
0.0
 40
23.0859375
  1
High
 41
0.7
 11
1330.00000021193
 21
-439.38072916666511
 31
0.0
 73
     3
  0
ARC
  5
3B1
  8
DATA
  6
CONTINUOUS
 62
     7
 10
635.0
 20
50.0
 30
0.0
 40
50.0
 50
90.0
 51
180.0
  0
ARC
  5
3B2
  8
DATA
  6
CONTINUOUS
 62
     7
 10
635.0
 20
-1850.0
 30
0.0
 40
50.0
 50
180.0
 51
270.0
  0
ARC
  5
3B3
  8
DATA
  6
CONTINUOUS
 62
     7
 10
1765.0
 20
-1850.0
 30
0.0
 40
50.0
 50
270.0
 51
0.0
  0
ARC
  5
3B4
  8
DATA
  6
CONTINUOUS
 62
     7
 10
1765.0
 20
50.0
 30
0.0
 40
50.0
 50
0.0
 51
90.0
  0
CIRCLE
  5
3B5
  8
DATA
  6
CONTINUOUS
 62
     7
 10
650.0
 20
30.0
 30
0.0
 40
32.5
  0
LINE
  5
3B6
  8
DATA
  6
CONTINUOUS
 62
     7
 10
1010.9853525082031
 20
-1348.5553791362461
 30
0.0
 11
999.01464749180468
 21
-1381.444620863753
 31
0.0
  0
LINE
  5
3B7
  8
DATA
  6
CONTINUOUS
 62
     7
 10
880.98535250820044
 20
-1381.444620863753
 30
0.0
 11
869.01464749180116
 21
-1348.5553791362461
 31
0.0
  0
LINE
  5
3B8
  8
DATA
  6
CONTINUOUS
 62
     7
 10
858.55537913624835
 20
-1370.985352508201
 30
0.0
 11
891.44462086375393
 21
-1359.014647491801
 31
0.0
  0
LINE
  5
3B9
  8
DATA
  6
CONTINUOUS
 62
     7
 10
1097.412295168567
 20
-1351.319194266971
 30
0.0
 11
1172.5877048314389
 21
-1378.680805733027
 31
0.0
  0
LINE
  5
3BA
  8
DATA
  6
CONTINUOUS
 62
     7
 10
1140.9853525082031
 20
-1348.5553791362461
 30
0.0
 11
1129.0146474918049
 21
-1381.444620863753
 31
0.0
  0
LINE
  5
3BB
  8
DATA
  6
CONTINUOUS
 62
     7
 10
1227.412295168567
 20
-1351.319194266971
 30
0.0
 11
1302.5877048314401
 21
-1378.680805733027
 31
0.0
  0
LINE
  5
3BC
  8
DATA
  6
CONTINUOUS
 62
     7
 10
1270.9853525082031
 20
-1348.5553791362461
 30
0.0
 11
1259.0146474918049
 21
-1381.444620863753
 31
0.0
  0
LINE
  5
3BD
  8
DATA
  6
CONTINUOUS
 62
     7
 10
1357.412295168567
 20
-1351.319194266971
 30
0.0
 11
1432.587704831438
 21
-1378.680805733027
 31
0.0
  0
LINE
  5
3BE
  8
DATA
  6
CONTINUOUS
 62
     7
 10
1400.9853525082031
 20
-1348.5553791362461
 30
0.0
 11
1389.0146474918049
 21
-1381.444620863753
 31
0.0
  0
LINE
  5
3BF
  8
DATA
  6
CONTINUOUS
 62
     7
 10
1508.5553791362479
 20
-1370.985352508201
 30
0.0
 11
1541.444620863753
 21
-1359.014647491801
 31
0.0
  0
LINE
  5
3C0
  8
DATA
  6
CONTINUOUS
 62
     7
 10
1530.985352508201
 20
-1381.444620863753
 30
0.0
 11
1519.014647491801
 21
-1348.5553791362461
 31
0.0
  0
LINE
  5
3C1
  8
DATA
  6
CONTINUOUS
 62
     7
 10
650.0
 20
15.0
 30
0.0
 11
650.0
 21
45.0
 31
0.0
  0
LINE
  5
3C2
  8
DATA
  6
CONTINUOUS
 62
     7
 10
665.0
 20
30.0
 30
0.0
 11
635.0
 21
30.0
 31
0.0
  0
CIRCLE
  5
3C3
  8
DATA
  6
CONTINUOUS
 62
     7
 10
1750.0
 20
30.0
 30
0.0
 40
32.5
  0
LINE
  5
3C4
  8
DATA
  6
CONTINUOUS
 62
     7
 10
1750.0
 20
15.0
 30
0.0
 11
1750.0
 21
45.0
 31
0.0
  0
LINE
  5
3C5
  8
DATA
  6
CONTINUOUS
 62
     7
 10
1765.0
 20
30.0
 30
0.0
 11
1735.0
 21
30.0
 31
0.0
  0
CIRCLE
  5
3C6
  8
DATA
  6
CONTINUOUS
 62
     7
 10
650.0
 20
-900.0
 30
0.0
 40
32.5
  0
LINE
  5
3C7
  8
DATA
  6
CONTINUOUS
 62
     7
 10
650.0
 20
-915.0
 30
0.0
 11
650.0
 21
-885.0
 31
0.0
  0
LINE
  5
3C8
  8
DATA
  6
CONTINUOUS
 62
     7
 10
665.0
 20
-900.0
 30
0.0
 11
635.0
 21
-900.0
 31
0.0
  0
CIRCLE
  5
3C9
  8
DATA
  6
CONTINUOUS
 62
     7
 10
1750.0
 20
-900.0
 30
0.0
 40
32.5
  0
LINE
  5
3CA
  8
DATA
  6
CONTINUOUS
 62
     7
 10
1750.0
 20
-915.0
 30
0.0
 11
1750.0
 21
-885.0
 31
0.0
  0
LINE
  5
3CB
  8
DATA
  6
CONTINUOUS
 62
     7
 10
1765.0
 20
-900.0
 30
0.0
 11
1735.0
 21
-900.0
 31
0.0
  0
CIRCLE
  5
3CC
  8
DATA
  6
CONTINUOUS
 62
     7
 10
650.0
 20
-1830.0
 30
0.0
 40
32.5
  0
LINE
  5
3CD
  8
DATA
  6
CONTINUOUS
 62
     7
 10
650.0
 20
-1845.0
 30
0.0
 11
650.0
 21
-1815.0
 31
0.0
  0
LINE
  5
3CE
  8
DATA
  6
CONTINUOUS
 62
     7
 10
665.0
 20
-1830.0
 30
0.0
 11
635.0
 21
-1830.0
 31
0.0
  0
CIRCLE
  5
3CF
  8
DATA
  6
CONTINUOUS
 62
     7
 10
1750.0
 20
-1830.0
 30
0.0
 40
32.5
  0
LINE
  5
3D0
  8
DATA
  6
CONTINUOUS
 62
     7
 10
1750.0
 20
-1845.0
 30
0.0
 11
1750.0
 21
-1815.0
 31
0.0
  0
LINE
  5
3D1
  8
DATA
  6
CONTINUOUS
 62
     7
 10
1765.0
 20
-1830.0
 30
0.0
 11
1735.0
 21
-1830.0
 31
0.0
  0
ENDSEC
  0
EOF
