  0
SECTION
  2
HEADER
  9
$ACADVER
  1
AC1009
  9
$INSBASE
 10
0.0
 20
0.0
 30
0.0
  9
$EXTMIN
 10
-170.0191273858149
 20
-265.08444836580992
 30
-0.0015258207003583
  9
$EXTMAX
 10
374.09591619656811
 20
537.12498979279303
 30
0.0000000349246037
  9
$LIMMIN
 10
0.0
 20
0.0
  9
$LIMMAX
 10
0.0
 20
0.0
  9
$ORTHOMODE
 70
     0
  9
$REGENMODE
 70
     1
  9
$FILLMODE
 70
     1
  9
$QTEXTMODE
 70
     0
  9
$MIRRTEXT
 70
     1
  9
$DRAGMODE
 70
     2
  9
$LTSCALE
 40
3.0
  9
$OSMODE
 70
    37
  9
$ATTMODE
 70
     1
  9
$TEXTSIZE
 40
0.0
  9
$TRACEWID
 40
0.05
  9
$TEXTSTYLE
  7
STANDARD
  9
$CLAYER
  8
0
  9
$CELTYPE
  6
CONTINUOUS
  9
$CECOLOR
 62
   256
  9
$DIMSCALE
 40
1.0
  9
$DIMASZ
 40
0.18
  9
$DIMEXO
 40
0.0625
  9
$DIMDLI
 40
0.38
  9
$DIMRND
 40
0.0
  9
$DIMDLE
 40
0.0
  9
$DIMEXE
 40
0.18
  9
$DIMTP
 40
0.0
  9
$DIMTM
 40
0.0
  9
$DIMTXT
 40
0.18
  9
$DIMCEN
 40
0.09
  9
$DIMTSZ
 40
0.0
  9
$DIMTOL
 70
     0
  9
$DIMLIM
 70
     0
  9
$DIMTIH
 70
     1
  9
$DIMTOH
 70
     1
  9
$DIMSE1
 70
     0
  9
$DIMSE2
 70
     0
  9
$DIMTAD
 70
     0
  9
$DIMZIN
 70
     0
  9
$DIMBLK
  1

  9
$DIMASO
 70
     1
  9
$DIMSHO
 70
     1
  9
$DIMPOST
  1

  9
$DIMAPOST
  1

  9
$DIMALT
 70
     0
  9
$DIMALTD
 70
     2
  9
$DIMALTF
 40
25.399999999999999
  9
$DIMLFAC
 40
1.0
  9
$DIMTOFL
 70
     0
  9
$DIMTVP
 40
0.0
  9
$DIMTIX
 70
     0
  9
$DIMSOXD
 70
     0
  9
$DIMSAH
 70
     0
  9
$DIMBLK1
  1

  9
$DIMBLK2
  1

  9
$DIMSTYLE
  2
STANDARD
  9
$DIMCLRD
 70
     0
  9
$DIMCLRE
 70
     0
  9
$DIMCLRT
 70
     0
  9
$DIMTFAC
 40
1.0
  9
$DIMGAP
 40
0.09
  9
$LUNITS
 70
     2
  9
$LUPREC
 70
     4
  9
$SKETCHINC
 40
0.1
  9
$FILLETRAD
 40
0.0
  9
$AUNITS
 70
     0
  9
$AUPREC
 70
     0
  9
$MENU
  1
acad
  9
$ELEVATION
 40
0.0
  9
$PELEVATION
 40
0.0
  9
$THICKNESS
 40
0.0
  9
$LIMCHECK
 70
     0
  9
$BLIPMODE
 70
     0
  9
$CHAMFERA
 40
0.0
  9
$CHAMFERB
 40
0.0
  9
$SKPOLY
 70
     0
  9
$TDCREATE
 40
2451856.4465393508
  9
$TDUPDATE
 40
2451856.4480693289
  9
$TDINDWG
 40
0.0009491898
  9
$TDUSRTIMER
 40
0.0009491898
  9
$USRTIMER
 70
     1
  9
$ANGBASE
 50
0.0
  9
$ANGDIR
 70
     0
  9
$PDMODE
 70
     0
  9
$PDSIZE
 40
0.0
  9
$PLINEWID
 40
0.0
  9
$COORDS
 70
     1
  9
$SPLFRAME
 70
     0
  9
$SPLINETYPE
 70
     6
  9
$SPLINESEGS
 70
     8
  9
$ATTDIA
 70
     0
  9
$ATTREQ
 70
     1
  9
$HANDLING
 70
-16383
  9
$HANDSEED
  5
171
  9
$SURFTAB1
 70
     6
  9
$SURFTAB2
 70
     6
  9
$SURFTYPE
 70
     6
  9
$SURFU
 70
     6
  9
$SURFV
 70
     6
  9
$UCSNAME
  2

  9
$UCSORG
 10
0.0
 20
0.0
 30
0.0
  9
$UCSXDIR
 10
1.0
 20
0.0
 30
0.0
  9
$UCSYDIR
 10
0.0
 20
1.0
 30
0.0
  9
$PUCSNAME
  2

  9
$PUCSORG
 10
0.0
 20
0.0
 30
0.0
  9
$PUCSXDIR
 10
1.0
 20
0.0
 30
0.0
  9
$PUCSYDIR
 10
0.0
 20
1.0
 30
0.0
  9
$USERI1
 70
     0
  9
$USERI2
 70
     0
  9
$USERI3
 70
     0
  9
$USERI4
 70
     0
  9
$USERI5
 70
     0
  9
$USERR1
 40
0.0
  9
$USERR2
 40
0.0
  9
$USERR3
 40
0.0
  9
$USERR4
 40
0.0
  9
$USERR5
 40
0.0
  9
$WORLDVIEW
 70
     1
  9
$SHADEDGE
 70
     3
  9
$SHADEDIF
 70
    70
  9
$TILEMODE
 70
     1
  9
$MAXACTVP
 70
    16
  9
$PLIMCHECK
 70
     0
  9
$PEXTMIN
 10
1.0000000000000000E+020
 20
1.0000000000000000E+020
 30
1.0000000000000000E+020
  9
$PEXTMAX
 10
-1.0000000000000000E+020
 20
-1.0000000000000000E+020
 30
-1.0000000000000000E+020
  9
$PLIMMIN
 10
0.0
 20
0.0
  9
$PLIMMAX
 10
12.0
 20
9.0
  9
$UNITMODE
 70
     0
  9
$VISRETAIN
 70
     0
  9
$PLINEGEN
 70
     1
  9
$PSLTSCALE
 70
     0
  0
ENDSEC
  0
SECTION
  2
TABLES
  0
TABLE
  2
VPORT
 70
     3
  0
VPORT
  2
*ACTIVE
 70
     0
 10
0.0
 20
0.0
 11
1.0
 21
1.0
 12
102.03839440537659
 22
136.0202707134915
 13
0.0
 23
0.0
 14
1.0
 24
1.0
 15
0.0
 25
0.0
 16
0.0
 26
0.0
 36
1.0
 17
0.0
 27
0.0
 37
0.0
 40
811.18939455590089
 41
1.743925233644859
 42
50.0
 43
0.0
 44
0.0
 50
0.0
 51
0.0
 71
     0
 72
   100
 73
     1
 74
     1
 75
     0
 76
     0
 77
     0
 78
     0
  0
ENDTAB
  0
TABLE
  2
LTYPE
 70
    12
  0
LTYPE
  2
CONTINUOUS
 70
     0
  3
Solid line
 72
    65
 73
     0
 40
0.0
  0
LTYPE
  2
VECTORWORKS_DASH_01
 70
     0
  3
(unavailable)
 72
    65
 73
     2
 40
1.411154174804687
 49
0.70538330078125
 49
-0.7057708740234375
  0
LTYPE
  2
VECTORWORKS_DASH_02
 70
     0
  3
(unavailable)
 72
    65
 73
     2
 40
3.5276916503906239
 49
2.469229125976562
 49
-1.058462524414062
  0
LTYPE
  2
VECTORWORKS_DASH_03
 70
     0
  3
(unavailable)
 72
    65
 73
     2
 40
6.3499999999999988
 49
5.2915374755859359
 49
-1.058462524414062
  0
LTYPE
  2
VECTORWORKS_DASH_04
 70
     0
  3
(unavailable)
 72
    65
 73
     2
 40
7.7607666015624988
 49
6.7026916503906238
 49
-1.058074951171875
  0
LTYPE
  2
VECTORWORKS_DASH_05
 70
     0
  3
(unavailable)
 72
    65
 73
     2
 40
1.058074951171875
 49
0.352691650390625
 49
-0.70538330078125
  0
LTYPE
  2
VECTORWORKS_DASH_06
 70
     0
  3
(unavailable)
 72
    65
 73
     4
 40
5.2915374755859359
 49
3.1749999999999989
 49
-1.058074951171875
 49
0.352691650390625
 49
-0.7057708740234375
  0
LTYPE
  2
VECTORWORKS_DASH_07
 70
     0
  3
(unavailable)
 72
    65
 73
     6
 40
9.5249999999999986
 49
3.1749999999999989
 49
-1.058074951171875
 49
3.1749999999999989
 49
-1.058462524414062
 49
0.352691650390625
 49
-0.7057708740234375
  0
LTYPE
  2
VECTORWORKS_DASH_08
 70
     0
  3
(unavailable)
 72
    65
 73
     6
 40
6.3499999999999988
 49
3.1749999999999989
 49
-1.058074951171875
 49
0.352691650390625
 49
-0.7057708740234375
 49
0.352691650390625
 49
-0.7057708740234375
  0
LTYPE
  2
VECTORWORKS_DASH_09
 70
     0
  3
(unavailable)
 72
    65
 73
     4
 40
25.399999999999999
 49
19.04999999999999
 49
-1.411154174804687
 49
3.5276916503906239
 49
-1.411154174804687
  0
LTYPE
  2
VECTORWORKS_DASH_10
 70
     0
  3
(unavailable)
 72
    65
 73
     6
 40
30.162499999999991
 49
19.04999999999999
 49
-1.411154174804687
 49
3.5276916503906239
 49
-1.411154174804687
 49
3.1749999999999989
 49
-1.587499999999999
  0
LTYPE
  2
VECTORWORKS_DASH_11
 70
     0
  3
(unavailable)
 72
    65
 73
     2
 40
2.99981689453125
 49
1.799890136718749
 49
-1.199926757812499
  0
ENDTAB
  0
TABLE
  2
LAYER
 70
     5
  0
LAYER
  2
0
 70
     0
 62
     7
  6
CONTINUOUS
  0
LAYER
  2
HIBINO-BASE
 70
     0
 62
     7
  6
CONTINUOUS
  0
LAYER
  2
SPEC
 70
     0
 62
     7
  6
CONTINUOUS
  0
LAYER
  2
DIMNSIONS
 70
     0
 62
     7
  6
CONTINUOUS
  0
LAYER
  2
DATA
 70
     0
 62
     7
  6
CONTINUOUS
  0
ENDTAB
  0
TABLE
  2
STYLE
 70
     1
  0
STYLE
  2
STANDARD
 70
     0
 40
0.0
 41
1.0
 50
0.0
 71
     0
 42
0.0
  3
txt
  4
BIGFONT.SHX
  0
ENDTAB
  0
TABLE
  2
VIEW
 70
     0
  0
ENDTAB
  0
TABLE
  2
UCS
 70
     0
  0
ENDTAB
  0
TABLE
  2
APPID
 70
     1
  0
APPID
  2
ACAD
 70
     0
  0
ENDTAB
  0
TABLE
  2
DIMSTYLE
 70
     1
  0
DIMSTYLE
  2
STANDARD
 70
     0
  3

  4

  5

  6

  7

 40
1.0
 41
0.18
 42
0.0625
 43
0.38
 44
0.18
 45
0.0
 46
0.0
 47
0.0
 48
0.0
140
0.18
141
0.09
142
0.0
143
25.399999999999999
144
1.0
145
0.0
146
1.0
147
0.09
 71
     0
 72
     0
 73
     1
 74
     1
 75
     0
 76
     0
 77
     0
 78
     0
170
     0
171
     2
172
     0
173
     0
174
     0
175
     0
176
     0
177
     0
178
     0
  0
ENDTAB
  0
ENDSEC
  0
SECTION
  2
BLOCKS
  0
BLOCK
  8
0
  2
$MODEL_SPACE
 70
     0
 10
0.0
 20
0.0
 30
0.0
  3
$MODEL_SPACE
  1

  0
ENDBLK
  5
163
  8
0
  0
BLOCK
 67
     1
  8
0
  2
$PAPER_SPACE
 70
     0
 10
0.0
 20
0.0
 30
0.0
  3
$PAPER_SPACE
  1

  0
ENDBLK
  5
161
 67
     1
  8
0
  0
BLOCK
  8
DIMNSIONS
  2
*G0
 70
     1
 10
0.0
 20
0.0
 30
0.0
  3
*G0
  1

  0
TEXT
  5
32
  8
DIMNSIONS
 62
     7
 10
-179.905
 20
30.237500000000001
 30
0.0
 40
7.6200000000000001
  1
30
 50
90.0
 11
-187.52500000000001
 21
30.237500000000001
 31
0.0
 73
     3
  0
ENDBLK
  5
33
  8
DIMNSIONS
  0
BLOCK
  8
DIMNSIONS
  2
*G1
 70
     1
 10
0.0
 20
0.0
 30
0.0
  3
*G1
  1

  0
TEXT
  5
35
  8
DIMNSIONS
 62
     7
 10
-204.905
 20
-127.1437499999999
 30
0.0
 40
7.6200000000000001
  1
140
 50
90.0
 11
-212.52500000000001
 21
-127.1437499999999
 31
0.0
 73
     3
  0
ENDBLK
  5
36
  8
DIMNSIONS
  0
BLOCK
  8
DIMNSIONS
  2
*G2
 70
     1
 10
0.0
 20
0.0
 30
0.0
  3
*G2
  1

  0
TEXT
  5
38
  8
DIMNSIONS
 62
     7
 10
-204.905
 20
52.856250000000003
 30
0.0
 40
7.6200000000000001
  1
100
 50
90.0
 11
-212.52500000000001
 21
52.856250000000003
 31
0.0
 73
     3
  0
ENDBLK
  5
39
  8
DIMNSIONS
  0
BLOCK
  8
DIMNSIONS
  2
*G3
 70
     1
 10
0.0
 20
0.0
 30
0.0
  3
*G3
  1

  0
TEXT
  5
3B
  8
DIMNSIONS
 62
     7
 10
-117.2625
 20
-235.095
 30
0.0
 40
7.6200000000000001
  1
75
 11
-117.2625
 21
-227.47499999999999
 31
0.0
 73
     3
  0
ENDBLK
  5
3C
  8
DIMNSIONS
  0
BLOCK
  8
DIMNSIONS
  2
*G4
 70
     1
 10
0.0
 20
0.0
 30
0.0
  3
*G4
  1

  0
TEXT
  5
3E
  8
DIMNSIONS
 62
     7
 10
-179.905
 20
60.23749999999999
 30
0.0
 40
7.6200000000000001
  1
30
 50
90.0
 11
-187.52500000000001
 21
60.23749999999999
 31
0.0
 73
     3
  0
ENDBLK
  5
3F
  8
DIMNSIONS
  0
ENDSEC
  0
SECTION
  2
ENTITIES
  0
LINE
  5
40
  8
HIBINO-BASE
  6
CONTINUOUS
 62
     7
 10
-170.0
 20
537.06364000000008
 30
0.0
 11
370.0
 21
537.06364000000008
 31
0.0
  0
LINE
  5
41
  8
HIBINO-BASE
  6
CONTINUOUS
 62
     7
 10
370.0
 20
-242.93635999999989
 30
0.0
 11
-170.0
 21
-242.93635999999989
 31
0.0
  0
LINE
  5
42
  8
HIBINO-BASE
  6
CONTINUOUS
 62
     7
 10
-170.0
 20
-242.93635999999989
 30
0.0
 11
-170.0
 21
537.06364000000008
 31
0.0
  0
TEXT
  5
43
  8
HIBINO-BASE
 62
     7
 10
-148.44800000000001
 20
-261.32031000000001
 30
0.0
 40
11.22775
  1
Hibino Corporation
 11
-148.44800000000001
 21
-250.09255999999991
 31
0.0
 73
     3
  0
LINE
  5
44
  8
HIBINO-BASE
  6
CONTINUOUS
 62
     7
 10
370.0
 20
537.06364000000008
 30
0.0
 11
370.0
 21
-242.93635999999989
 31
0.0
  0
LINE
  5
45
  8
HIBINO-BASE
  6
CONTINUOUS
 62
     7
 10
100.0
 20
-175.43635999999989
 30
0.0
 11
370.0
 21
-175.43635999999989
 31
0.0
  0
LINE
  5
46
  8
HIBINO-BASE
  6
CONTINUOUS
 62
     7
 10
100.0
 20
-242.93635999999989
 30
0.0
 11
100.0
 21
-175.43635999999989
 31
0.0
  0
TEXT
  5
47
  8
HIBINO-BASE
 62
     7
 10
102.7
 20
-183.11533
 30
0.0
 40
5.6138899999999987
  1
NOTE
 11
102.7
 21
-177.50144
 31
0.0
 73
     3
  0
LINE
  5
48
  8
HIBINO-BASE
  6
CONTINUOUS
 62
     7
 10
205.0
 20
-242.93635999999989
 30
0.0
 11
205.0
 21
-175.43635999999989
 31
0.0
  0
TEXT
  5
49
  8
HIBINO-BASE
 62
     7
 10
207.6999999999999
 20
-183.11533
 30
0.0
 40
5.6138899999999987
  1
TITLE
 11
207.6999999999999
 21
-177.50144
 31
0.0
 73
     3
  0
TEXT
  5
4A
  8
HIBINO-BASE
 62
     7
 10
250.2051699999999
 20
-261.32031000000001
 30
0.0
 40
11.22775
  1
ヒビノ株式会社
 11
250.2051699999999
 21
-250.09255999999991
 31
0.0
 73
     3
  0
LINE
  5
4B
  8
HIBINO-BASE
  6
CONTINUOUS
 62
     7
 10
100.0
 20
-212.93636000000001
 30
0.0
 11
370.0
 21
-212.93636000000001
 31
0.0
  0
TEXT
  5
4C
  8
HIBINO-BASE
 62
     7
 10
245.1999999999999
 20
-220.44636999999989
 30
0.0
 40
5.6138899999999987
  1
DRAWN
 11
245.1999999999999
 21
-214.83247999999989
 31
0.0
 73
     3
  0
TEXT
  5
4D
  8
HIBINO-BASE
 62
     7
 10
170.1999999999999
 20
-220.44636999999989
 30
0.0
 40
5.6138899999999987
  1
DATE
 11
170.1999999999999
 21
-214.83247999999989
 31
0.0
 73
     3
  0
TEXT
  5
4E
  8
HIBINO-BASE
 62
     7
 10
103.2999999999999
 20
-220.41372999999999
 30
0.0
 40
5.0800099999999988
  1
図面サイズ
 11
103.2999999999999
 21
-215.33372
 31
0.0
 73
     3
  0
TEXT
  5
4F
  8
HIBINO-BASE
 62
     7
 10
140.1999999999999
 20
-220.44636999999989
 30
0.0
 40
5.6138899999999987
  1
SCALE
 11
140.1999999999999
 21
-214.83247999999989
 31
0.0
 73
     3
  0
TEXT
  5
50
  8
HIBINO-BASE
 62
     7
 10
207.6999999999999
 20
-220.44636999999989
 30
0.0
 40
5.6138899999999987
  1
DESIGN
 11
207.6999999999999
 21
-214.83247999999989
 31
0.0
 73
     3
  0
TEXT
  5
51
  8
HIBINO-BASE
 62
     7
 10
320.19999999999987
 20
-220.44636999999989
 30
0.0
 40
5.6138899999999987
  1
DRAWING NO.
 11
320.19999999999987
 21
-214.83247999999989
 31
0.0
 73
     3
  0
TEXT
  5
52
  8
HIBINO-BASE
 62
     7
 10
282.69999999999987
 20
-220.44636999999989
 30
0.0
 40
5.6138899999999987
  1
CHECK
 11
282.69999999999987
 21
-214.83247999999989
 31
0.0
 73
     3
  0
LINE
  5
53
  8
HIBINO-BASE
  6
CONTINUOUS
 62
     7
 10
143.125
 20
-239.18635999999989
 30
0.0
 11
154.375
 21
-227.93635999999989
 31
0.0
  0
TEXT
  5
54
  8
HIBINO-BASE
 62
     7
 10
141.25
 20
-232.5755199999999
 30
0.0
 40
6.7733299999999987
  1
1
 11
141.25
 21
-225.80219
 31
0.0
 73
     3
  0
LINE
  5
55
  8
HIBINO-BASE
  6
CONTINUOUS
 62
     7
 10
137.5
 20
-242.93635999999989
 30
0.0
 11
137.5
 21
-212.93636000000001
 31
0.0
  0
LINE
  5
56
  8
HIBINO-BASE
  6
CONTINUOUS
 62
     7
 10
167.5
 20
-242.93635999999989
 30
0.0
 11
167.5
 21
-212.93636000000001
 31
0.0
  0
LINE
  5
57
  8
HIBINO-BASE
  6
CONTINUOUS
 62
     7
 10
242.5
 20
-212.93636000000001
 30
0.0
 11
242.5
 21
-242.93635999999989
 31
0.0
  0
LINE
  5
58
  8
HIBINO-BASE
  6
CONTINUOUS
 62
     7
 10
317.5
 20
-212.93636000000001
 30
0.0
 11
317.5
 21
-242.93635999999989
 31
0.0
  0
LINE
  5
59
  8
HIBINO-BASE
  6
CONTINUOUS
 62
     7
 10
280.0
 20
-242.93635999999989
 30
0.0
 11
280.0
 21
-212.93636000000001
 31
0.0
  0
TEXT
  5
5A
  8
HIBINO-BASE
 62
     7
 10
111.73267
 20
-234.67899
 30
0.0
 40
10.159990000000001
  1
A4
 11
111.73267
 21
-224.51900000000001
 31
0.0
 73
     3
  0
TEXT
  5
5B
  8
HIBINO-BASE
 62
     7
 10
170.0696199999999
 20
-234.49830999999989
 30
0.0
 40
5.6138899999999987
  1
'00.11.
 11
170.0696199999999
 21
-228.88441999999989
 31
0.0
 73
     3
  0
TEXT
  5
5C
  8
HIBINO-BASE
 62
     7
 10
152.5
 20
-238.20052000000001
 30
0.0
 40
6.7733299999999987
  1
3
 11
152.5
 21
-231.42719
 31
0.0
 73
     3
  0
LINE
  5
5D
  8
SPEC
  6
CONTINUOUS
 62
     7
 10
-147.5
 20
507.06364000000002
 30
0.0
 11
295.0
 21
507.06364000000002
 31
0.0
  0
LINE
  5
5E
  8
SPEC
  6
CONTINUOUS
 62
     7
 10
-147.5
 20
507.06364000000002
 30
0.0
 11
-147.5
 21
450.81364000000002
 31
0.0
  0
TEXT
  5
5F
  8
SPEC
 62
     7
 10
-143.75
 20
511.81495000000001
 30
0.0
 40
7.6200000000000001
  1
仕様
 11
-143.75
 21
519.43494999999996
 31
0.0
 73
     3
  0
LINE
  5
60
  8
SPEC
  6
CONTINUOUS
 62
     7
 10
-50.0
 20
507.06364000000002
 30
0.0
 11
-50.0
 21
450.81364000000002
 31
0.0
  0
LINE
  5
61
  8
SPEC
  6
CONTINUOUS
 62
     7
 10
295.0
 20
507.06364000000002
 30
0.0
 11
295.0
 21
450.81364000000002
 31
0.0
  0
LINE
  5
62
  8
SPEC
  6
CONTINUOUS
 62
     7
 10
-147.5
 20
450.81364000000002
 30
0.0
 11
295.0
 21
450.81364000000002
 31
0.0
  0
LINE
  5
63
  8
SPEC
  6
CONTINUOUS
 62
     7
 10
-147.5
 20
484.56364000000002
 30
0.0
 11
295.0
 21
484.56364000000002
 31
0.0
  0
LINE
  5
64
  8
SPEC
  6
CONTINUOUS
 62
     7
 10
-147.5
 20
495.81363999999991
 30
0.0
 11
295.0
 21
495.81363999999991
 31
0.0
  0
TEXT
  5
65
  8
SPEC
 62
     7
 10
-144.80000000000001
 20
476.12189999999993
 30
0.0
 40
5.92666
  1
パッケージ内容
 11
-144.80000000000001
 21
482.04856000000001
 31
0.0
 73
     3
  0
TEXT
  5
66
  8
SPEC
 62
     7
 10
-144.80000000000001
 20
498.62189999999998
 30
0.0
 40
5.92666
  1
寸法
 11
-144.80000000000001
 21
504.54856000000001
 31
0.0
 73
     3
  0
TEXT
  5
67
  8
SPEC
 62
     7
 10
-144.80000000000001
 20
487.37189999999998
 30
0.0
 40
5.92666
  1
重量
 11
-144.80000000000001
 21
493.29856000000001
 31
0.0
 73
     3
  0
TEXT
  5
68
  8
SPEC
 62
     7
 10
-47.300000000000011
 20
476.12189999999993
 30
0.0
 40
5.92666
  1
Lアダプター：2個、M6ボルト：2本、取付ボール：2個、ボ ール取付スペーサー：2枚、
 11
-47.300000000000011
 21
482.04856000000001
 31
0.0
 73
     3
  0
TEXT
  5
69
  8
SPEC
 62
     7
 10
-47.300000000000011
 20
498.62189999999998
 30
0.0
 40
5.92666
  1
75(W)×140(H)×100(D)mm（1個）
 11
-47.300000000000011
 21
504.54856000000001
 31
0.0
 73
     3
  0
TEXT
  5
6A
  8
SPEC
 62
     7
 10
-47.300000000000011
 20
487.37189999999998
 30
0.0
 40
5.92666
  1
約500g（1個）
 11
-47.300000000000011
 21
493.29856000000001
 31
0.0
 73
     3
  0
TEXT
  5
6B
  8
SPEC
 62
     7
 10
-144.80000000000001
 20
467.12189999999993
 30
0.0
 40
5.92666
  1
（1箱に2セット同梱）
 11
-144.80000000000001
 21
473.04856000000001
 31
0.0
 73
     3
  0
TEXT
  5
6C
  8
SPEC
 62
     7
 10
-47.300000000000011
 20
467.12189999999993
 30
0.0
 40
5.92666
  1
M6ワッシャー：2枚、M6ナット（ナイロンロック付）：2個、M5ネジ：4枚、
 11
-47.300000000000011
 21
473.04856000000001
 31
0.0
 73
     3
  0
TEXT
  5
6D
  8
SPEC
 62
     7
 10
-47.300000000000011
 20
458.12189999999993
 30
0.0
 40
5.92666
  1
M5ワッシャー：4枚、六角棒レンチ：1個、M6セムスネジ：4本、
 11
-47.300000000000011
 21
464.0485599999999
 31
0.0
 73
     3
  0
TEXT
  5
6E
  8
DIMNSIONS
 62
     7
 10
40.0
 20
-205.55638999999999
 30
0.0
 40
7.6200000000000001
  1
(単位：mm)
 11
40.0
 21
-197.93638999999999
 31
0.0
 73
     3
  0
LINE
  5
6F
  8
DIMNSIONS
  6
CONTINUOUS
 62
     7
 10
-22.599989999999998
 20
190.0
 30
0.0
 11
-81.0
 21
190.0
 31
0.0
  0
LINE
  5
70
  8
DIMNSIONS
  6
CONTINUOUS
 62
     7
 10
-23.099989999999998
 20
160.0
 30
0.0
 11
-81.0
 21
160.0
 31
0.0
  0
LINE
  5
72
  8
DIMNSIONS
 62
     7
 10
-75.0
 20
190.0
 30
0.0
 11
-72.447789999999998
 21
180.47499999999999
 31
0.0
  0
LINE
  5
73
  8
DIMNSIONS
 62
     7
 10
-75.0
 20
190.0
 30
0.0
 11
-77.552220000000005
 21
180.47499999999999
 31
0.0
  0
LINE
  5
74
  8
DIMNSIONS
 62
     7
 10
-75.0
 20
160.0
 30
0.0
 11
-77.552220000000005
 21
169.52499
 31
0.0
  0
LINE
  5
75
  8
DIMNSIONS
 62
     7
 10
-75.0
 20
160.0
 30
0.0
 11
-72.447789999999998
 21
169.52499
 31
0.0
  0
LINE
  5
71
  8
DIMNSIONS
  6
CONTINUOUS
 62
     7
 10
-75.0
 20
190.0
 30
0.0
 11
-75.0
 21
160.0
 31
0.0
  0
INSERT
  5
76
  8
DIMNSIONS
  2
*G0
 10
100.0
 20
140.0
 30
0.0
  0
LINE
  5
77
  8
DIMNSIONS
  6
CONTINUOUS
 62
     7
 10
-50.0
 20
-50.0
 30
0.0
 11
-106.0
 21
-50.0
 31
0.0
  0
LINE
  5
78
  8
DIMNSIONS
  6
CONTINUOUS
 62
     7
 10
-56.0
 20
90.0
 30
0.0
 11
-106.0
 21
90.0
 31
0.0
  0
LINE
  5
7A
  8
DIMNSIONS
 62
     7
 10
-100.0
 20
-50.0
 30
0.0
 11
-102.55222000000001
 21
-40.47500999999999
 31
0.0
  0
LINE
  5
7B
  8
DIMNSIONS
 62
     7
 10
-100.0
 20
-50.0
 30
0.0
 11
-97.447790000000012
 21
-40.47500999999999
 31
0.0
  0
LINE
  5
7C
  8
DIMNSIONS
 62
     7
 10
-100.0
 20
90.0
 30
0.0
 11
-97.447790000000012
 21
80.474999999999994
 31
0.0
  0
LINE
  5
7D
  8
DIMNSIONS
 62
     7
 10
-100.0
 20
90.0
 30
0.0
 11
-102.55222000000001
 21
80.474999999999994
 31
0.0
  0
LINE
  5
79
  8
DIMNSIONS
  6
CONTINUOUS
 62
     7
 10
-100.0
 20
-50.0
 30
0.0
 11
-100.0
 21
90.0
 31
0.0
  0
INSERT
  5
7E
  8
DIMNSIONS
  2
*G1
 10
100.0
 20
140.0
 30
0.0
  0
LINE
  5
7F
  8
DIMNSIONS
  6
CONTINUOUS
 62
     7
 10
-50.0
 20
150.0
 30
0.0
 11
-106.0
 21
150.0
 31
0.0
  0
LINE
  5
80
  8
DIMNSIONS
  6
CONTINUOUS
 62
     7
 10
-56.0
 20
250.0
 30
0.0
 11
-106.0
 21
250.0
 31
0.0
  0
LINE
  5
82
  8
DIMNSIONS
 62
     7
 10
-100.0
 20
150.0
 30
0.0
 11
-102.55222000000001
 21
159.52498999999989
 31
0.0
  0
LINE
  5
83
  8
DIMNSIONS
 62
     7
 10
-100.0
 20
150.0
 30
0.0
 11
-97.447790000000012
 21
159.52498999999989
 31
0.0
  0
LINE
  5
84
  8
DIMNSIONS
 62
     7
 10
-100.0
 20
250.0
 30
0.0
 11
-97.447790000000012
 21
240.47499999999991
 31
0.0
  0
LINE
  5
85
  8
DIMNSIONS
 62
     7
 10
-100.0
 20
250.0
 30
0.0
 11
-102.55222000000001
 21
240.47499999999991
 31
0.0
  0
LINE
  5
81
  8
DIMNSIONS
  6
CONTINUOUS
 62
     7
 10
-100.0
 20
150.0
 30
0.0
 11
-100.0
 21
250.0
 31
0.0
  0
INSERT
  5
86
  8
DIMNSIONS
  2
*G2
 10
100.0
 20
140.0
 30
0.0
  0
LINE
  5
87
  8
DIMNSIONS
  6
CONTINUOUS
 62
     7
 10
-50.0
 20
-50.0
 30
0.0
 11
-50.0
 21
-106.0
 31
0.0
  0
LINE
  5
88
  8
DIMNSIONS
  6
CONTINUOUS
 62
     7
 10
25.0
 20
-50.0
 30
0.0
 11
25.0
 21
-106.0
 31
0.0
  0
LINE
  5
8A
  8
DIMNSIONS
 62
     7
 10
-50.0
 20
-100.0
 30
0.0
 11
-40.47500999999999
 21
-97.447790000000012
 31
0.0
  0
LINE
  5
8B
  8
DIMNSIONS
 62
     7
 10
-50.0
 20
-100.0
 30
0.0
 11
-40.47500999999999
 21
-102.55222000000001
 31
0.0
  0
LINE
  5
8C
  8
DIMNSIONS
 62
     7
 10
25.0
 20
-100.0
 30
0.0
 11
15.474999999999991
 21
-102.55222000000001
 31
0.0
  0
LINE
  5
8D
  8
DIMNSIONS
 62
     7
 10
25.0
 20
-100.0
 30
0.0
 11
15.474999999999991
 21
-97.447790000000012
 31
0.0
  0
LINE
  5
89
  8
DIMNSIONS
  6
CONTINUOUS
 62
     7
 10
-50.0
 20
-100.0
 30
0.0
 11
25.0
 21
-100.0
 31
0.0
  0
INSERT
  5
8E
  8
DIMNSIONS
  2
*G3
 10
100.0
 20
140.0
 30
0.0
  0
LINE
  5
90
  8
DIMNSIONS
 62
     7
 10
-8.4514999999999958
 20
190.64776000000001
 30
0.0
 11
0.5569700000000069
 21
194.65859
 31
0.0
  0
LINE
  5
91
  8
DIMNSIONS
 62
     7
 10
-8.4514999999999958
 20
190.64776000000001
 30
0.0
 11
1.35548
 21
189.6169999999999
 31
0.0
  0
LINE
  5
8F
  8
DIMNSIONS
  6
CONTINUOUS
 62
     7
 10
-8.4514999999999958
 20
190.64776000000001
 30
0.0
 11
50.0
 21
200.0
 31
0.0
  0
LINE
  5
92
  8
DIMNSIONS
  6
CONTINUOUS
 62
     7
 10
50.0
 20
200.0
 30
0.0
 11
68.0
 21
200.0
 31
0.0
  0
TEXT
  5
93
  8
DIMNSIONS
 62
     7
 10
68.0
 20
197.1424999999999
 30
0.0
 40
7.6200000000000001
  1
5/16
 11
68.0
 21
204.76249999999999
 31
0.0
 73
     3
  0
LINE
  5
95
  8
DIMNSIONS
 62
     7
 10
-8.3529999999999944
 20
221.99055999999999
 30
0.0
 11
-0.7990400000000051
 21
228.32908
 31
0.0
  0
LINE
  5
96
  8
DIMNSIONS
 62
     7
 10
-8.3529999999999944
 20
221.99055999999999
 30
0.0
 11
1.3581800000000039
 21
223.7029
 31
0.0
  0
LINE
  5
94
  8
DIMNSIONS
  6
CONTINUOUS
 62
     7
 10
-8.3529999999999944
 20
221.99055999999999
 30
0.0
 11
50.0
 21
250.0
 31
0.0
  0
LINE
  5
97
  8
DIMNSIONS
  6
CONTINUOUS
 62
     7
 10
50.0
 20
250.0
 30
0.0
 11
68.0
 21
250.0
 31
0.0
  0
TEXT
  5
98
  8
DIMNSIONS
 62
     7
 10
68.0
 20
247.1424999999999
 30
0.0
 40
7.6200000000000001
  1
2-M6
 11
68.0
 21
254.76249999999999
 31
0.0
 73
     3
  0
LINE
  5
9A
  8
DIMNSIONS
 62
     7
 10
12.386409999999991
 20
-32.624029999999998
 30
0.0
 11
18.042439999999988
 21
-24.546379999999999
 31
0.0
  0
LINE
  5
9B
  8
DIMNSIONS
 62
     7
 10
12.386409999999991
 20
-32.624029999999998
 30
0.0
 11
21.323509999999992
 21
-28.456600000000002
 31
0.0
  0
LINE
  5
99
  8
DIMNSIONS
  6
CONTINUOUS
 62
     7
 10
12.386409999999991
 20
-32.624029999999998
 30
0.0
 11
50.0
 21
0.0
 31
0.0
  0
LINE
  5
9C
  8
DIMNSIONS
  6
CONTINUOUS
 62
     7
 10
50.0
 20
0.0
 30
0.0
 11
68.0
 21
0.0
 31
0.0
  0
LINE
  5
9E
  8
DIMNSIONS
 62
     7
 10
-9.9160399999999953
 20
-38.712649999999989
 30
0.0
 11
-0.5922900000000057
 21
-41.923079999999992
 31
0.0
  0
LINE
  5
9F
  8
DIMNSIONS
 62
     7
 10
-9.9160399999999953
 20
-38.712649999999989
 30
0.0
 11
-3.4466500000000049
 21
-46.15485000000001
 31
0.0
  0
LINE
  5
9D
  8
DIMNSIONS
  6
CONTINUOUS
 62
     7
 10
-9.9160399999999953
 20
-38.712649999999989
 30
0.0
 11
50.0
 21
-78.425019999999989
 31
0.0
  0
LINE
  5
A0
  8
DIMNSIONS
  6
CONTINUOUS
 62
     7
 10
50.0
 20
-78.425019999999989
 30
0.0
 11
68.0
 21
-78.425019999999989
 31
0.0
  0
TEXT
  5
A1
  8
DIMNSIONS
 62
     7
 10
68.0
 20
-2.857500000000011
 30
0.0
 40
7.6200000000000001
  1
サポートガイドネジ M5
 11
68.0
 21
4.7624999999999877
 31
0.0
 73
     3
  0
TEXT
  5
A2
  8
DIMNSIONS
 62
     7
 10
68.0
 20
-81.282520000000005
 30
0.0
 40
7.6200000000000001
  1
取付ボール M6
 11
68.0
 21
-73.662520000000001
 31
0.0
 73
     3
  0
LINE
  5
A3
  8
DIMNSIONS
  6
CONTINUOUS
 62
     7
 10
-22.599989999999998
 20
190.0
 30
0.0
 11
-81.0
 21
190.0
 31
0.0
  0
LINE
  5
A4
  8
DIMNSIONS
  6
CONTINUOUS
 62
     7
 10
-23.099989999999998
 20
220.0
 30
0.0
 11
-81.0
 21
220.0
 31
0.0
  0
LINE
  5
A6
  8
DIMNSIONS
 62
     7
 10
-75.0
 20
190.0
 30
0.0
 11
-77.552220000000005
 21
199.52499
 31
0.0
  0
LINE
  5
A7
  8
DIMNSIONS
 62
     7
 10
-75.0
 20
190.0
 30
0.0
 11
-72.447789999999998
 21
199.52499
 31
0.0
  0
LINE
  5
A8
  8
DIMNSIONS
 62
     7
 10
-75.0
 20
220.0
 30
0.0
 11
-72.447789999999998
 21
210.47499999999999
 31
0.0
  0
LINE
  5
A9
  8
DIMNSIONS
 62
     7
 10
-75.0
 20
220.0
 30
0.0
 11
-77.552220000000005
 21
210.47499999999999
 31
0.0
  0
LINE
  5
A5
  8
DIMNSIONS
  6
CONTINUOUS
 62
     7
 10
-75.0
 20
190.0
 30
0.0
 11
-75.0
 21
220.0
 31
0.0
  0
INSERT
  5
AA
  8
DIMNSIONS
  2
*G4
 10
100.0
 20
140.0
 30
0.0
  0
LINE
  5
AC
  8
DIMNSIONS
 62
     7
 10
-33.84767999999999
 20
-33.226400000000012
 30
0.0
 11
-25.869969999999991
 21
-27.430250000000001
 31
0.0
  0
LINE
  5
AD
  8
DIMNSIONS
 62
     7
 10
-33.84767999999999
 20
-33.226400000000012
 30
0.0
 11
-24.040700000000001
 21
-32.195650000000001
 31
0.0
  0
LINE
  5
AB
  8
DIMNSIONS
  6
CONTINUOUS
 62
     7
 10
-33.84767999999999
 20
-33.226400000000012
 30
0.0
 11
50.0
 21
0.0
 31
0.0
  0
TEXT
  5
AE
  8
DIMNSIONS
 62
     7
 10
68.0
 20
-38.857500000000009
 30
0.0
 40
7.6200000000000001
  1
　取付位置が変わります）
 11
68.0
 21
-31.237500000000011
 31
0.0
 73
     3
  0
TEXT
  5
AF
  8
DIMNSIONS
 62
     7
 10
68.0
 20
-26.857500000000009
 30
0.0
 40
7.6200000000000001
  1
(スピーカーの取付方向にて、
 11
68.0
 21
-19.237500000000011
 31
0.0
 73
     3
  0
TEXT
  5
B0
  8
DIMNSIONS
 62
     7
 10
68.0
 20
-14.857500000000011
 30
0.0
 40
7.6200000000000001
  1
(ツィータを上取付用)
 11
68.0
 21
-7.2375000000000114
 31
0.0
 73
     3
  0
TEXT
  5
B1
  8
DIMNSIONS
 62
     7
 10
68.0
 20
-117.28252000000001
 30
0.0
 40
7.6200000000000001
  1
　取付位置が変わります）
 11
68.0
 21
-109.66252
 31
0.0
 73
     3
  0
TEXT
  5
B2
  8
DIMNSIONS
 62
     7
 10
68.0
 20
-105.28252000000001
 30
0.0
 40
7.6200000000000001
  1
(スピーカーの取付方向にて、
 11
68.0
 21
-97.662520000000015
 31
0.0
 73
     3
  0
TEXT
  5
B3
  8
DIMNSIONS
 62
     7
 10
68.0
 20
-93.282520000000005
 30
0.0
 40
7.6200000000000001
  1
(ツィータを上取付用)
 11
68.0
 21
-85.662520000000001
 31
0.0
 73
     3
  0
TEXT
  5
B4
  8
DATA
 62
     7
 10
250.0
 20
-208.97219000000001
 30
0.0
 40
7.6200000000000001
  1
CTLB-23
 11
250.0
 21
-201.35219000000001
 31
0.0
 73
     3
  0
TEXT
  5
B5
  8
DATA
 62
     7
 10
250.0
 20
-187.22219000000001
 30
0.0
 40
7.6200000000000001
  1
JBL
 11
250.0
 21
-179.60219000000001
 31
0.0
 73
     3
  0
TEXT
  5
B6
  8
DATA
 62
     7
 10
242.5
 20
-197.84356
 30
0.0
 40
5.0800099999999988
  1
CONTROL 23/23T専用L字金具
 11
242.5
 21
-192.76355000000001
 31
0.0
 73
     3
  0
TEXT
  5
B7
  8
DATA
 62
     7
 10
225.0
 20
-152.32834
 30
0.0
 40
7.6200000000000001
  1
（ネジ類省略しています）
 11
225.0
 21
-144.70833999999999
 31
0.0
 73
     3
  0
CIRCLE
  5
B8
  8
DATA
  6
VECTORWORKS_DASH_01
 62
     7
 10
-12.5
 20
-37.0
 30
0.0
 40
3.1000000000000001
  0
ARC
  5
B9
  8
DATA
  6
CONTINUOUS
 62
     7
 10
4.4000000000000048
 20
21.599999999999991
 30
0.0
 40
3.1000000000000001
 50
270.0
 51
0.0
  0
LINE
  5
BA
  8
DATA
  6
CONTINUOUS
 62
     7
 10
-29.399989999999999
 20
18.5
 30
0.0
 11
4.3999900000000016
 21
18.5
 31
0.0
  0
LINE
  5
BB
  8
DATA
  6
CONTINUOUS
 62
     7
 10
-29.399989999999999
 20
55.5
 30
0.0
 11
4.3999900000000016
 21
55.5
 31
0.0
  0
ARC
  5
BC
  8
DATA
  6
CONTINUOUS
 62
     7
 10
-29.399999999999999
 20
52.400000000000013
 30
0.0
 40
3.1000000000000001
 50
89.999815174904796
 51
179.9998151749048
  0
ARC
  5
BD
  8
DATA
  6
CONTINUOUS
 62
     7
 10
4.4000000000000048
 20
52.400000000000013
 30
0.0
 40
3.1000000000000001
 50
0.0001848250952029
 51
90.0
  0
LINE
  5
BE
  8
DATA
  6
CONTINUOUS
 62
     7
 10
7.5
 20
52.400009999999988
 30
0.0
 11
7.5
 21
21.60000999999999
 31
0.0
  0
LINE
  5
BF
  8
DATA
  6
CONTINUOUS
 62
     7
 10
-32.5
 20
52.400009999999988
 30
0.0
 11
-32.5
 21
21.60000999999999
 31
0.0
  0
ARC
  5
C0
  8
DATA
  6
CONTINUOUS
 62
     7
 10
-29.399999999999999
 20
21.599999999999991
 30
0.0
 40
3.1000000000000001
 50
179.9998151749048
 51
270.00018482509518
  0
LINE
  5
C1
  8
DATA
  6
CONTINUOUS
 62
     7
 10
-50.0
 20
86.799999999999983
 30
0.0
 11
25.0
 21
86.799999999999983
 31
0.0
  0
LINE
  5
C2
  8
DATA
  6
CONTINUOUS
 62
     7
 10
-50.0
 20
90.0
 30
0.0
 11
25.0
 21
90.0
 31
0.0
  0
CIRCLE
  5
C3
  8
DATA
  6
CONTINUOUS
 62
     7
 10
-35.800000000000011
 20
-34.0
 30
0.0
 40
2.1000000000000001
  0
CIRCLE
  5
C4
  8
DATA
  6
CONTINUOUS
 62
     7
 10
10.79999999999999
 20
-34.0
 30
0.0
 40
2.1000000000000001
  0
CIRCLE
  5
C5
  8
DATA
  6
CONTINUOUS
 62
     7
 10
4.0
 20
-15.80000000000001
 30
0.0
 40
2.1000000000000001
  0
CIRCLE
  5
C6
  8
DATA
  6
CONTINUOUS
 62
     7
 10
7.0
 20
7.5
 30
0.0
 40
3.1000000000000001
  0
CIRCLE
  5
C7
  8
DATA
  6
CONTINUOUS
 62
     7
 10
-29.0
 20
-15.80000000000001
 30
0.0
 40
2.1000000000000001
  0
CIRCLE
  5
C8
  8
DATA
  6
CONTINUOUS
 62
     7
 10
-32.0
 20
7.5
 30
0.0
 40
3.1000000000000001
  0
CIRCLE
  5
C9
  8
DATA
  6
CONTINUOUS
 62
     7
 10
-12.5
 20
2.0
 30
0.0
 40
3.1000000000000001
  0
CIRCLE
  5
CA
  8
DATA
  6
CONTINUOUS
 62
     7
 10
10.79999999999999
 20
-1.0
 30
0.0
 40
2.1000000000000001
  0
CIRCLE
  5
CB
  8
DATA
  6
CONTINUOUS
 62
     7
 10
-35.800000000000011
 20
-1.0
 30
0.0
 40
2.1000000000000001
  0
LINE
  5
CC
  8
DATA
  6
CONTINUOUS
 62
     7
 10
225.86138
 20
-31.0
 30
0.0
 11
225.86138
 21
-43.0
 31
0.0
  0
LINE
  5
CD
  8
DATA
  6
VECTORWORKS_DASH_01
 62
     7
 10
228.86137999999991
 20
-34.0
 30
0.0
 11
228.86137999999991
 21
-40.0
 31
0.0
  0
LINE
  5
CE
  8
DATA
  6
VECTORWORKS_DASH_01
 62
     7
 10
225.86138
 20
-31.0
 30
0.0
 11
228.86137999999991
 21
-34.0
 31
0.0
  0
LINE
  5
CF
  8
DATA
  6
VECTORWORKS_DASH_01
 62
     7
 10
225.86138
 20
-43.0
 30
0.0
 11
228.86137999999991
 21
-40.0
 31
0.0
  0
LINE
  5
D0
  8
DATA
  6
VECTORWORKS_DASH_01
 62
     7
 10
245.1999999999999
 20
-42.75
 30
0.0
 11
245.1999999999999
 21
-31.25
 31
0.0
  0
LINE
  5
D1
  8
DATA
  6
CONTINUOUS
 62
     7
 10
246.7999999999999
 20
-31.25
 30
0.0
 11
245.1999999999999
 21
-31.25
 31
0.0
  0
LINE
  5
D2
  8
DATA
  6
CONTINUOUS
 62
     7
 10
246.7999999999999
 20
-42.75
 30
0.0
 11
245.1999999999999
 21
-42.75
 31
0.0
  0
LINE
  5
D3
  8
DATA
  6
CONTINUOUS
 62
     7
 10
246.8000099999999
 20
-32.399999999999999
 30
0.0
 11
245.30198999999999
 21
-32.399999999999999
 31
0.0
  0
LINE
  5
D4
  8
DATA
  6
CONTINUOUS
 62
     7
 10
246.8000099999999
 20
-29.0
 30
0.0
 11
245.30198999999999
 21
-29.0
 31
0.0
  0
LINE
  5
D5
  8
DATA
  6
CONTINUOUS
 62
     7
 10
245.30198999999999
 20
-29.0
 30
0.0
 11
245.30198999999999
 21
-32.399999999999999
 31
0.0
  0
LINE
  5
D6
  8
DATA
  6
CONTINUOUS
 62
     7
 10
246.8000099999999
 20
-41.599999999999987
 30
0.0
 11
245.30198999999999
 21
-41.599999999999987
 31
0.0
  0
LINE
  5
D7
  8
DATA
  6
CONTINUOUS
 62
     7
 10
246.8000099999999
 20
-45.0
 30
0.0
 11
245.30198999999999
 21
-45.0
 31
0.0
  0
LINE
  5
D8
  8
DATA
  6
CONTINUOUS
 62
     7
 10
245.30198999999999
 20
-45.0
 30
0.0
 11
245.30198999999999
 21
-41.599999999999987
 31
0.0
  0
LINE
  5
D9
  8
DATA
  6
CONTINUOUS
 62
     7
 10
250.0
 20
-50.0
 30
0.0
 11
246.7999999999999
 21
-50.0
 31
0.0
  0
LINE
  5
DA
  8
DATA
  6
VECTORWORKS_DASH_01
 62
     7
 10
250.0
 20
-34.0
 30
0.0
 11
228.86137999999991
 21
-34.0
 31
0.0
  0
LINE
  5
DB
  8
DATA
  6
VECTORWORKS_DASH_01
 62
     7
 10
250.0
 20
-40.0
 30
0.0
 11
228.86137999999991
 21
-40.0
 31
0.0
  0
LINE
  5
DC
  8
DATA
  6
CONTINUOUS
 62
     7
 10
150.0
 20
90.0
 30
0.0
 11
150.0
 21
86.799999999999983
 31
0.0
  0
LINE
  5
DD
  8
DATA
  6
CONTINUOUS
 62
     7
 10
250.0
 20
90.0
 30
0.0
 11
150.0
 21
90.0
 31
0.0
  0
LINE
  5
DE
  8
DATA
  6
CONTINUOUS
 62
     7
 10
250.0
 20
-50.0
 30
0.0
 11
250.0
 21
90.0
 31
0.0
  0
LINE
  5
DF
  8
DATA
  6
CONTINUOUS
 62
     7
 10
246.7999999999999
 20
86.799999999999983
 30
0.0
 11
150.0
 21
86.799999999999983
 31
0.0
  0
LINE
  5
E0
  8
DATA
  6
CONTINUOUS
 62
     7
 10
246.7999999999999
 20
-50.0
 30
0.0
 11
246.7999999999999
 21
86.799999999999983
 31
0.0
  0
LINE
  5
E1
  8
DATA
  6
VECTORWORKS_DASH_11
 62
     7
 10
25.0
 20
246.7999999999999
 30
0.0
 11
-50.0
 21
246.7999999999999
 31
0.0
  0
CIRCLE
  5
E2
  8
DATA
  6
CONTINUOUS
 62
     7
 10
-12.5
 20
160.0
 30
0.0
 40
4.59999
  0
CIRCLE
  5
E3
  8
DATA
  6
CONTINUOUS
 62
     7
 10
-12.5
 20
220.0
 30
0.0
 40
4.59999
  0
CIRCLE
  5
E4
  8
DATA
  6
CONTINUOUS
 62
     7
 10
-12.5
 20
190.0
 30
0.0
 40
4.09999
  0
LINE
  5
E5
  8
DATA
  6
CONTINUOUS
 62
     7
 10
25.0
 20
250.0
 30
0.0
 11
-50.0
 21
250.0
 31
0.0
  0
LINE
  5
E6
  8
DATA
  6
CONTINUOUS
 62
     7
 10
182.0
 20
80.299999999999983
 30
0.0
 11
182.0
 21
86.799999999999983
 31
0.0
  0
LINE
  5
E7
  8
DATA
  6
CONTINUOUS
 62
     7
 10
198.0
 20
80.299999999999983
 30
0.0
 11
182.0
 21
80.299999999999983
 31
0.0
  0
LINE
  5
E8
  8
DATA
  6
CONTINUOUS
 62
     7
 10
198.0
 20
80.299999999999983
 30
0.0
 11
198.0
 21
86.799999999999983
 31
0.0
  0
LINE
  5
E9
  8
DATA
  6
CONTINUOUS
 62
     7
 10
152.5
 20
86.799999999999983
 30
0.0
 11
152.5
 21
80.799999999999997
 31
0.0
  0
LINE
  5
EA
  8
DATA
  6
CONTINUOUS
 62
     7
 10
167.5
 20
80.799999999999997
 30
0.0
 11
152.5
 21
80.799999999999997
 31
0.0
  0
LINE
  5
EB
  8
DATA
  6
CONTINUOUS
 62
     7
 10
167.5
 20
86.799999999999983
 30
0.0
 11
167.5
 21
80.799999999999997
 31
0.0
  0
LINE
  5
EC
  8
DATA
  6
CONTINUOUS
 62
     7
 10
227.49999999999989
 20
86.799999999999983
 30
0.0
 11
227.49999999999989
 21
80.799999999999997
 31
0.0
  0
LINE
  5
ED
  8
DATA
  6
CONTINUOUS
 62
     7
 10
212.5
 20
80.799999999999997
 30
0.0
 11
227.49999999999989
 21
80.799999999999997
 31
0.0
  0
LINE
  5
EE
  8
DATA
  6
CONTINUOUS
 62
     7
 10
212.5
 20
86.799999999999983
 30
0.0
 11
212.5
 21
80.799999999999997
 31
0.0
  0
LINE
  5
EF
  8
DATA
  6
CONTINUOUS
 62
     7
 10
-50.0
 20
250.0
 30
0.0
 11
-50.0
 21
156.0
 31
0.0
  0
ARC
  5
F0
  8
DATA
  6
CONTINUOUS
 62
     7
 10
-44.0
 20
156.0
 30
0.0
 40
6.0
 50
180.0
 51
270.0
  0
LINE
  5
F1
  8
DATA
  6
CONTINUOUS
 62
     7
 10
25.0
 20
250.0
 30
0.0
 11
25.0
 21
156.0
 31
0.0
  0
LINE
  5
F2
  8
DATA
  6
CONTINUOUS
 62
     7
 10
-44.0
 20
150.0
 30
0.0
 11
19.0
 21
150.0
 31
0.0
  0
ARC
  5
F3
  8
DATA
  6
CONTINUOUS
 62
     7
 10
19.0
 20
156.0
 30
0.0
 40
6.0
 50
270.0
 51
0.0
  0
LINE
  5
F4
  8
DATA
  6
CONTINUOUS
 62
     7
 10
-50.0
 20
-44.0
 30
0.0
 11
-50.0
 21
90.0
 31
0.0
  0
ARC
  5
F5
  8
DATA
  6
CONTINUOUS
 62
     7
 10
-44.0
 20
-44.0
 30
0.0
 40
6.0
 50
180.0
 51
270.0
  0
LINE
  5
F6
  8
DATA
  6
CONTINUOUS
 62
     7
 10
25.0
 20
-44.0
 30
0.0
 11
25.0
 21
90.0
 31
0.0
  0
LINE
  5
F7
  8
DATA
  6
CONTINUOUS
 62
     7
 10
19.0
 20
-50.0
 30
0.0
 11
-44.0
 21
-50.0
 31
0.0
  0
ARC
  5
F8
  8
DATA
  6
CONTINUOUS
 62
     7
 10
19.0
 20
-44.0
 30
0.0
 40
6.0
 50
270.0
 51
0.0
  0
TEXT
  5
F9
  8
DATA
 62
     7
 10
-125.0
 20
-152.85749999999999
 30
0.0
 40
7.6200000000000001
  1
注）ツィータを右または左取付の場合、回り止めネジは１本のみ使用
 11
-125.0
 21
-145.23750000000001
 31
0.0
 73
     3
  0
ARC
  5
FA
  8
DATA
  6
CONTINUOUS
 62
     7
 10
235.1999999999999
 20
-37.0
 30
0.0
 40
11.1
 50
212.7204418311336
 51
147.27955816886629
  0
CIRCLE
  5
FB
  8
DATA
  6
CONTINUOUS
 62
     7
 10
-12.5
 20
-37.0
 30
0.0
 40
6.0
  0
CIRCLE
  5
FC
  8
DATA
  6
CONTINUOUS
 62
     7
 10
-12.5
 20
-37.0
 30
0.0
 40
11.099989999999989
  0
LINE
  5
FD
  8
DATA
  6
VECTORWORKS_DASH_01
 62
     7
 10
-18.5
 20
225.86138
 30
0.0
 11
-6.5
 21
225.86138
 31
0.0
  0
LINE
  5
FE
  8
DATA
  6
VECTORWORKS_DASH_01
 62
     7
 10
-15.5
 20
228.86137999999991
 30
0.0
 11
-9.5
 21
228.86137999999991
 31
0.0
  0
LINE
  5
FF
  8
DATA
  6
VECTORWORKS_DASH_01
 62
     7
 10
-18.5
 20
225.86138
 30
0.0
 11
-15.5
 21
228.86137999999991
 31
0.0
  0
LINE
  5
100
  8
DATA
  6
VECTORWORKS_DASH_01
 62
     7
 10
-6.5
 20
225.86138
 30
0.0
 11
-9.5
 21
228.86137999999991
 31
0.0
  0
LINE
  5
101
  8
DATA
  6
VECTORWORKS_DASH_01
 62
     7
 10
-6.75
 20
245.1999999999999
 30
0.0
 11
-18.25
 21
245.1999999999999
 31
0.0
  0
LINE
  5
102
  8
DATA
  6
VECTORWORKS_DASH_01
 62
     7
 10
-18.25
 20
246.7999999999999
 30
0.0
 11
-18.25
 21
245.1999999999999
 31
0.0
  0
LINE
  5
103
  8
DATA
  6
VECTORWORKS_DASH_01
 62
     7
 10
-6.75
 20
246.7999999999999
 30
0.0
 11
-6.75
 21
245.1999999999999
 31
0.0
  0
LINE
  5
104
  8
DATA
  6
VECTORWORKS_DASH_01
 62
     7
 10
-17.099999999999991
 20
246.8000099999999
 30
0.0
 11
-17.099999999999991
 21
245.30198999999999
 31
0.0
  0
LINE
  5
105
  8
DATA
  6
VECTORWORKS_DASH_01
 62
     7
 10
-20.5
 20
246.8000099999999
 30
0.0
 11
-20.5
 21
245.30198999999999
 31
0.0
  0
LINE
  5
106
  8
DATA
  6
VECTORWORKS_DASH_01
 62
     7
 10
-20.5
 20
245.30198999999999
 30
0.0
 11
-17.099999999999991
 21
245.30198999999999
 31
0.0
  0
LINE
  5
107
  8
DATA
  6
VECTORWORKS_DASH_01
 62
     7
 10
-7.9000000000000048
 20
246.8000099999999
 30
0.0
 11
-7.9000000000000048
 21
245.30198999999999
 31
0.0
  0
LINE
  5
108
  8
DATA
  6
VECTORWORKS_DASH_01
 62
     7
 10
-4.5
 20
246.8000099999999
 30
0.0
 11
-4.5
 21
245.30198999999999
 31
0.0
  0
LINE
  5
109
  8
DATA
  6
VECTORWORKS_DASH_01
 62
     7
 10
-4.5
 20
245.30198999999999
 30
0.0
 11
-7.9000000000000048
 21
245.30198999999999
 31
0.0
  0
LINE
  5
10A
  8
DATA
  6
VECTORWORKS_DASH_01
 62
     7
 10
-15.5
 20
250.0
 30
0.0
 11
-15.5
 21
228.86137999999991
 31
0.0
  0
LINE
  5
10B
  8
DATA
  6
VECTORWORKS_DASH_01
 62
     7
 10
-9.5
 20
250.0
 30
0.0
 11
-9.5
 21
228.86137999999991
 31
0.0
  0
ARC
  5
10C
  8
DATA
  6
VECTORWORKS_DASH_01
 62
     7
 10
-12.5
 20
235.1999999999999
 30
0.0
 40
11.1
 50
302.7204418311336
 51
237.27955816886629
  0
LINE
  5
10D
  8
DATA
  6
CONTINUOUS
 62
     7
 10
160.0
 20
80.799999999999997
 30
0.0
 11
160.0
 21
86.799999999999983
 31
0.0
  0
LINE
  5
10E
  8
DATA
  6
CONTINUOUS
 62
     7
 10
190.0
 20
80.299999999999983
 30
0.0
 11
190.0
 21
86.799999999999983
 31
0.0
  0
LINE
  5
10F
  8
DATA
  6
CONTINUOUS
 62
     7
 10
220.0
 20
80.799999999999997
 30
0.0
 11
220.0
 21
86.799999999999983
 31
0.0
  0
LINE
  5
110
  8
DATA
  6
VECTORWORKS_DASH_01
 62
     7
 10
-16.5
 20
196.92819999999989
 30
0.0
 11
-20.49997999999999
 21
190.00003000000001
 31
0.0
  0
LINE
  5
111
  8
DATA
  6
VECTORWORKS_DASH_01
 62
     7
 10
-20.49997999999999
 20
190.00003000000001
 30
0.0
 11
-16.49998999999999
 21
183.07181999999989
 31
0.0
  0
LINE
  5
112
  8
DATA
  6
VECTORWORKS_DASH_01
 62
     7
 10
-16.49998999999999
 20
183.07181999999989
 30
0.0
 11
-8.5000100000000032
 21
183.0718
 31
0.0
  0
LINE
  5
113
  8
DATA
  6
VECTORWORKS_DASH_01
 62
     7
 10
-8.5000100000000032
 20
183.0718
 30
0.0
 11
-4.4999799999999928
 21
190.00003000000001
 31
0.0
  0
LINE
  5
114
  8
DATA
  6
VECTORWORKS_DASH_01
 62
     7
 10
-4.4999799999999928
 20
190.00003000000001
 30
0.0
 11
-8.4999899999999968
 21
196.92822000000001
 31
0.0
  0
LINE
  5
115
  8
DATA
  6
VECTORWORKS_DASH_01
 62
     7
 10
-8.4999899999999968
 20
196.92822000000001
 30
0.0
 11
-16.5
 21
196.92819999999989
 31
0.0
  0
LINE
  5
116
  8
DATA
  6
VECTORWORKS_DASH_01
 62
     7
 10
-8.7500100000000032
 20
226.49515
 30
0.0
 11
-16.25
 21
226.49518999999989
 31
0.0
  0
LINE
  5
117
  8
DATA
  6
VECTORWORKS_DASH_01
 62
     7
 10
-16.25
 20
226.49518999999989
 30
0.0
 11
-19.99998999999999
 21
220.0
 31
0.0
  0
LINE
  5
118
  8
DATA
  6
VECTORWORKS_DASH_01
 62
     7
 10
-19.99998999999999
 20
220.0
 30
0.0
 11
-16.24998999999999
 21
213.50480999999999
 31
0.0
  0
LINE
  5
119
  8
DATA
  6
VECTORWORKS_DASH_01
 62
     7
 10
-16.250019999999999
 20
213.50477000000001
 30
0.0
 11
-8.75
 21
213.50480999999999
 31
0.0
  0
LINE
  5
11A
  8
DATA
  6
VECTORWORKS_DASH_01
 62
     7
 10
-8.75
 20
213.50480999999999
 30
0.0
 11
-4.9999899999999959
 21
220.0
 31
0.0
  0
LINE
  5
11B
  8
DATA
  6
VECTORWORKS_DASH_01
 62
     7
 10
-4.9999899999999959
 20
220.0
 30
0.0
 11
-8.7500100000000032
 21
226.49515
 31
0.0
  0
LINE
  5
11C
  8
DATA
  6
VECTORWORKS_DASH_01
 62
     7
 10
-8.75
 20
166.49519000000001
 30
0.0
 11
-16.24998999999999
 21
166.49522999999991
 31
0.0
  0
LINE
  5
11D
  8
DATA
  6
VECTORWORKS_DASH_01
 62
     7
 10
-16.24998999999999
 20
166.49522999999991
 30
0.0
 11
-19.99997999999999
 21
160.00004000000001
 31
0.0
  0
LINE
  5
11E
  8
DATA
  6
VECTORWORKS_DASH_01
 62
     7
 10
-19.99997999999999
 20
160.00004000000001
 30
0.0
 11
-16.24997999999999
 21
153.50485
 31
0.0
  0
LINE
  5
11F
  8
DATA
  6
VECTORWORKS_DASH_01
 62
     7
 10
-16.25001
 20
153.50480999999999
 30
0.0
 11
-8.7499899999999968
 21
153.50485
 31
0.0
  0
LINE
  5
120
  8
DATA
  6
VECTORWORKS_DASH_01
 62
     7
 10
-8.7499899999999968
 20
153.50485
 30
0.0
 11
-4.9999799999999928
 21
160.00004000000001
 31
0.0
  0
LINE
  5
121
  8
DATA
  6
VECTORWORKS_DASH_01
 62
     7
 10
-4.9999799999999928
 20
160.00004000000001
 30
0.0
 11
-8.75
 21
166.49519000000001
 31
0.0
  0
LINE
  5
122
  8
DATA
  6
CONTINUOUS
 62
     7
 10
-20.0
 20
86.799999999999983
 30
0.0
 11
-20.0
 21
80.799999999999997
 31
0.0
  0
LINE
  5
123
  8
DATA
  6
CONTINUOUS
 62
     7
 10
-5.0
 20
80.799999999999997
 30
0.0
 11
-20.0
 21
80.799999999999997
 31
0.0
  0
LINE
  5
124
  8
DATA
  6
CONTINUOUS
 62
     7
 10
-5.0
 20
86.799999999999983
 30
0.0
 11
-5.0
 21
80.799999999999997
 31
0.0
  0
LINE
  5
125
  8
DATA
  6
CONTINUOUS
 62
     7
 10
-16.25001
 20
86.799999999999983
 30
0.0
 11
-16.25001
 21
80.799999999999997
 31
0.0
  0
LINE
  5
126
  8
DATA
  6
CONTINUOUS
 62
     7
 10
-8.7499899999999968
 20
86.799999999999983
 30
0.0
 11
-8.7499899999999968
 21
80.799999999999997
 31
0.0
  0
ENDSEC
  0
EOF
