  0
SECTION
  2
HEADER
  9
$ACADVER
  1
AC1009
  9
$INSBASE
 10
0.0
 20
0.0
 30
0.0
  9
$EXTMIN
 10
-350.03187594443659
 20
-532.85728860924326
 30
-0.0015258207003583
  9
$EXTMAX
 10
556.82652391658257
 20
804.15842914695725
 30
0.0000000349246037
  9
$LIMMIN
 10
0.0
 20
0.0
  9
$LIMMAX
 10
0.0
 20
0.0
  9
$ORTHOMODE
 70
     0
  9
$REGENMODE
 70
     1
  9
$FILLMODE
 70
     1
  9
$QTEXTMODE
 70
     0
  9
$MIRRTEXT
 70
     1
  9
$DRAGMODE
 70
     2
  9
$LTSCALE
 40
5.0
  9
$OSMODE
 70
    37
  9
$ATTMODE
 70
     1
  9
$TEXTSIZE
 40
0.0
  9
$TRACEWID
 40
0.05
  9
$TEXTSTYLE
  7
STANDARD
  9
$CLAYER
  8
0
  9
$CELTYPE
  6
CONTINUOUS
  9
$CECOLOR
 62
   256
  9
$DIMSCALE
 40
1.0
  9
$DIMASZ
 40
0.18
  9
$DIMEXO
 40
0.0625
  9
$DIMDLI
 40
0.38
  9
$DIMRND
 40
0.0
  9
$DIMDLE
 40
0.0
  9
$DIMEXE
 40
0.18
  9
$DIMTP
 40
0.0
  9
$DIMTM
 40
0.0
  9
$DIMTXT
 40
0.18
  9
$DIMCEN
 40
0.09
  9
$DIMTSZ
 40
0.0
  9
$DIMTOL
 70
     0
  9
$DIMLIM
 70
     0
  9
$DIMTIH
 70
     1
  9
$DIMTOH
 70
     1
  9
$DIMSE1
 70
     0
  9
$DIMSE2
 70
     0
  9
$DIMTAD
 70
     0
  9
$DIMZIN
 70
     0
  9
$DIMBLK
  1

  9
$DIMASO
 70
     1
  9
$DIMSHO
 70
     1
  9
$DIMPOST
  1

  9
$DIMAPOST
  1

  9
$DIMALT
 70
     0
  9
$DIMALTD
 70
     2
  9
$DIMALTF
 40
25.399999999999999
  9
$DIMLFAC
 40
1.0
  9
$DIMTOFL
 70
     0
  9
$DIMTVP
 40
0.0
  9
$DIMTIX
 70
     0
  9
$DIMSOXD
 70
     0
  9
$DIMSAH
 70
     0
  9
$DIMBLK1
  1

  9
$DIMBLK2
  1

  9
$DIMSTYLE
  2
STANDARD
  9
$DIMCLRD
 70
     0
  9
$DIMCLRE
 70
     0
  9
$DIMCLRT
 70
     0
  9
$DIMTFAC
 40
1.0
  9
$DIMGAP
 40
0.09
  9
$LUNITS
 70
     2
  9
$LUPREC
 70
     4
  9
$SKETCHINC
 40
0.1
  9
$FILLETRAD
 40
0.0
  9
$AUNITS
 70
     0
  9
$AUPREC
 70
     0
  9
$MENU
  1
acad
  9
$ELEVATION
 40
0.0
  9
$PELEVATION
 40
0.0
  9
$THICKNESS
 40
0.0
  9
$LIMCHECK
 70
     0
  9
$BLIPMODE
 70
     0
  9
$CHAMFERA
 40
0.0
  9
$CHAMFERB
 40
0.0
  9
$SKPOLY
 70
     0
  9
$TDCREATE
 40
2451856.446886573
  9
$TDUPDATE
 40
2451856.4491023142
  9
$TDINDWG
 40
0.0001405093
  9
$TDUSRTIMER
 40
0.0001405093
  9
$USRTIMER
 70
     1
  9
$ANGBASE
 50
0.0
  9
$ANGDIR
 70
     0
  9
$PDMODE
 70
     0
  9
$PDSIZE
 40
0.0
  9
$PLINEWID
 40
0.0
  9
$COORDS
 70
     1
  9
$SPLFRAME
 70
     0
  9
$SPLINETYPE
 70
     6
  9
$SPLINESEGS
 70
     8
  9
$ATTDIA
 70
     0
  9
$ATTREQ
 70
     1
  9
$HANDLING
 70
-16383
  9
$HANDSEED
  5
17A
  9
$SURFTAB1
 70
     6
  9
$SURFTAB2
 70
     6
  9
$SURFTYPE
 70
     6
  9
$SURFU
 70
     6
  9
$SURFV
 70
     6
  9
$UCSNAME
  2

  9
$UCSORG
 10
0.0
 20
0.0
 30
0.0
  9
$UCSXDIR
 10
1.0
 20
0.0
 30
0.0
  9
$UCSYDIR
 10
0.0
 20
1.0
 30
0.0
  9
$PUCSNAME
  2

  9
$PUCSORG
 10
0.0
 20
0.0
 30
0.0
  9
$PUCSXDIR
 10
1.0
 20
0.0
 30
0.0
  9
$PUCSYDIR
 10
0.0
 20
1.0
 30
0.0
  9
$USERI1
 70
     0
  9
$USERI2
 70
     0
  9
$USERI3
 70
     0
  9
$USERI4
 70
     0
  9
$USERI5
 70
     0
  9
$USERR1
 40
0.0
  9
$USERR2
 40
0.0
  9
$USERR3
 40
0.0
  9
$USERR4
 40
0.0
  9
$USERR5
 40
0.0
  9
$WORLDVIEW
 70
     1
  9
$SHADEDGE
 70
     3
  9
$SHADEDIF
 70
    70
  9
$TILEMODE
 70
     1
  9
$MAXACTVP
 70
    16
  9
$PLIMCHECK
 70
     0
  9
$PEXTMIN
 10
1.0000000000000000E+020
 20
1.0000000000000000E+020
 30
1.0000000000000000E+020
  9
$PEXTMAX
 10
-1.0000000000000000E+020
 20
-1.0000000000000000E+020
 30
-1.0000000000000000E+020
  9
$PLIMMIN
 10
0.0
 20
0.0
  9
$PLIMMAX
 10
12.0
 20
9.0
  9
$UNITMODE
 70
     0
  9
$VISRETAIN
 70
     0
  9
$PLINEGEN
 70
     1
  9
$PSLTSCALE
 70
     0
  0
ENDSEC
  0
SECTION
  2
TABLES
  0
TABLE
  2
VPORT
 70
     2
  0
VPORT
  2
*ACTIVE
 70
     0
 10
0.0
 20
0.0
 11
1.0
 21
1.0
 12
103.39732398607281
 22
135.6505702688568
 13
0.0
 23
0.0
 14
1.0
 24
1.0
 15
0.0
 25
0.0
 16
0.0
 26
0.0
 36
1.0
 17
0.0
 27
0.0
 37
0.0
 40
1351.98231161168
 41
1.743925233644859
 42
50.0
 43
0.0
 44
0.0
 50
0.0
 51
0.0
 71
     0
 72
   100
 73
     1
 74
     1
 75
     0
 76
     0
 77
     0
 78
     0
  0
ENDTAB
  0
TABLE
  2
LTYPE
 70
    13
  0
LTYPE
  2
CONTINUOUS
 70
     0
  3
Solid line
 72
    65
 73
     0
 40
0.0
  0
LTYPE
  2
VECTORWORKS_DASH_01
 70
     0
  3
(unavailable)
 72
    65
 73
     2
 40
1.411154174804687
 49
0.70538330078125
 49
-0.7057708740234375
  0
LTYPE
  2
VECTORWORKS_DASH_02
 70
     0
  3
(unavailable)
 72
    65
 73
     2
 40
3.5276916503906239
 49
2.469229125976562
 49
-1.058462524414062
  0
LTYPE
  2
VECTORWORKS_DASH_03
 70
     0
  3
(unavailable)
 72
    65
 73
     2
 40
6.3499999999999988
 49
5.2915374755859359
 49
-1.058462524414062
  0
LTYPE
  2
VECTORWORKS_DASH_04
 70
     0
  3
(unavailable)
 72
    65
 73
     2
 40
7.7607666015624988
 49
6.7026916503906238
 49
-1.058074951171875
  0
LTYPE
  2
VECTORWORKS_DASH_05
 70
     0
  3
(unavailable)
 72
    65
 73
     2
 40
1.058074951171875
 49
0.352691650390625
 49
-0.70538330078125
  0
LTYPE
  2
VECTORWORKS_DASH_06
 70
     0
  3
(unavailable)
 72
    65
 73
     4
 40
5.2915374755859359
 49
3.1749999999999989
 49
-1.058074951171875
 49
0.352691650390625
 49
-0.7057708740234375
  0
LTYPE
  2
VECTORWORKS_DASH_07
 70
     0
  3
(unavailable)
 72
    65
 73
     6
 40
9.5249999999999986
 49
3.1749999999999989
 49
-1.058074951171875
 49
3.1749999999999989
 49
-1.058462524414062
 49
0.352691650390625
 49
-0.7057708740234375
  0
LTYPE
  2
VECTORWORKS_DASH_08
 70
     0
  3
(unavailable)
 72
    65
 73
     6
 40
6.3499999999999988
 49
3.1749999999999989
 49
-1.058074951171875
 49
0.352691650390625
 49
-0.7057708740234375
 49
0.352691650390625
 49
-0.7057708740234375
  0
LTYPE
  2
VECTORWORKS_DASH_09
 70
     0
  3
(unavailable)
 72
    65
 73
     4
 40
25.399999999999999
 49
19.04999999999999
 49
-1.411154174804687
 49
3.5276916503906239
 49
-1.411154174804687
  0
LTYPE
  2
VECTORWORKS_DASH_10
 70
     0
  3
(unavailable)
 72
    65
 73
     6
 40
30.162499999999991
 49
19.04999999999999
 49
-1.411154174804687
 49
3.5276916503906239
 49
-1.411154174804687
 49
3.1749999999999989
 49
-1.587499999999999
  0
LTYPE
  2
VECTORWORKS_DASH_11
 70
     0
  3
(unavailable)
 72
    65
 73
     2
 40
1.9998779296874989
 49
1.199926757812499
 49
-0.799951171875
  0
LTYPE
  2
VECTORWORKS_DASH_12
 70
     0
  3
(unavailable)
 72
    65
 73
     2
 40
2.99981689453125
 49
1.799890136718749
 49
-1.199926757812499
  0
ENDTAB
  0
TABLE
  2
LAYER
 70
     5
  0
LAYER
  2
0
 70
     0
 62
     7
  6
CONTINUOUS
  0
LAYER
  2
HIBINO-BASE
 70
     0
 62
     7
  6
CONTINUOUS
  0
LAYER
  2
SPEC
 70
     0
 62
     7
  6
CONTINUOUS
  0
LAYER
  2
DIMNSIONS
 70
     0
 62
     7
  6
CONTINUOUS
  0
LAYER
  2
DATA
 70
     0
 62
     7
  6
CONTINUOUS
  0
ENDTAB
  0
TABLE
  2
STYLE
 70
     1
  0
STYLE
  2
STANDARD
 70
     0
 40
0.0
 41
1.0
 50
0.0
 71
     0
 42
0.0
  3
txt
  4
BIGFONT.SHX
  0
ENDTAB
  0
TABLE
  2
VIEW
 70
     0
  0
ENDTAB
  0
TABLE
  2
UCS
 70
     0
  0
ENDTAB
  0
TABLE
  2
APPID
 70
     1
  0
APPID
  2
ACAD
 70
     0
  0
ENDTAB
  0
TABLE
  2
DIMSTYLE
 70
     1
  0
DIMSTYLE
  2
STANDARD
 70
     0
  3

  4

  5

  6

  7

 40
1.0
 41
0.18
 42
0.0625
 43
0.38
 44
0.18
 45
0.0
 46
0.0
 47
0.0
 48
0.0
140
0.18
141
0.09
142
0.0
143
25.399999999999999
144
1.0
145
0.0
146
1.0
147
0.09
 71
     0
 72
     0
 73
     1
 74
     1
 75
     0
 76
     0
 77
     0
 78
     0
170
     0
171
     2
172
     0
173
     0
174
     0
175
     0
176
     0
177
     0
178
     0
  0
ENDTAB
  0
ENDSEC
  0
SECTION
  2
BLOCKS
  0
BLOCK
  8
0
  2
$MODEL_SPACE
 70
     0
 10
0.0
 20
0.0
 30
0.0
  3
$MODEL_SPACE
  1

  0
ENDBLK
  5
171
  8
0
  0
BLOCK
 67
     1
  8
0
  2
$PAPER_SPACE
 70
     0
 10
0.0
 20
0.0
 30
0.0
  3
$PAPER_SPACE
  1

  0
ENDBLK
  5
16F
 67
     1
  8
0
  0
BLOCK
  8
DIMNSIONS
  2
*G0
 70
     1
 10
0.0
 20
0.0
 30
0.0
  3
*G0
  1

  0
TEXT
  5
34
  8
DIMNSIONS
 62
     7
 10
-196.90624999999989
 20
-281.82499999999987
 30
0.0
 40
12.699999999999999
  1
130
 11
-196.90624999999989
 21
-269.125
 31
0.0
 73
     3
  0
ENDBLK
  5
35
  8
DIMNSIONS
  0
BLOCK
  8
DIMNSIONS
  2
*G1
 70
     1
 10
0.0
 20
0.0
 30
0.0
  3
*G1
  1

  0
TEXT
  5
37
  8
DIMNSIONS
 62
     7
 10
-308.1749999999999
 20
-139.40624999999989
 30
0.0
 40
12.699999999999999
  1
225
 50
90.0
 11
-320.875
 21
-139.40624999999989
 31
0.0
 73
     3
  0
ENDBLK
  5
38
  8
DIMNSIONS
  0
BLOCK
  8
DIMNSIONS
  2
*G2
 70
     1
 10
0.0
 20
0.0
 30
0.0
  3
*G2
  1

  0
TEXT
  5
3A
  8
DIMNSIONS
 62
     7
 10
-70.000010000000003
 20
155.23750000000001
 30
0.0
 40
12.699999999999999
  1
3-M6
 11
-70.000010000000003
 21
167.9375
 31
0.0
 73
     3
  0
ENDBLK
  5
3B
  8
DIMNSIONS
  0
BLOCK
  8
DIMNSIONS
  2
*G3
 70
     1
 10
0.0
 20
0.0
 30
0.0
  3
*G3
  1

  0
TEXT
  5
3D
  8
DIMNSIONS
 62
     7
 10
-283.1749999999999
 20
147.0625
 30
0.0
 40
12.699999999999999
  1
60
 50
90.0
 11
-295.875
 21
147.0625
 31
0.0
 73
     3
  0
ENDBLK
  5
3E
  8
DIMNSIONS
  0
BLOCK
  8
DIMNSIONS
  2
*G4
 70
     1
 10
0.0
 20
0.0
 30
0.0
  3
*G4
  1

  0
TEXT
  5
40
  8
DIMNSIONS
 62
     7
 10
-283.1749999999999
 20
207.06248999999991
 30
0.0
 40
12.699999999999999
  1
60
 50
90.0
 11
-295.875
 21
207.06248999999991
 31
0.0
 73
     3
  0
ENDBLK
  5
41
  8
DIMNSIONS
  0
BLOCK
  8
DIMNSIONS
  2
*G5
 70
     1
 10
0.0
 20
0.0
 30
0.0
  3
*G5
  1

  0
TEXT
  5
43
  8
DIMNSIONS
 62
     7
 10
-308.1749999999999
 20
178.09374
 30
0.0
 40
12.699999999999999
  1
160
 50
90.0
 11
-320.875
 21
178.09374
 31
0.0
 73
     3
  0
ENDBLK
  5
44
  8
DIMNSIONS
  0
ENDSEC
  0
SECTION
  2
ENTITIES
  0
LINE
  5
45
  8
HIBINO-BASE
  6
CONTINUOUS
 62
     7
 10
-350.0
 20
804.12727999999993
 30
0.0
 11
550.0
 21
804.12727999999993
 31
0.0
  0
LINE
  5
46
  8
HIBINO-BASE
  6
CONTINUOUS
 62
     7
 10
550.0
 20
-495.8727199999999
 30
0.0
 11
-350.0
 21
-495.8727199999999
 31
0.0
  0
LINE
  5
47
  8
HIBINO-BASE
  6
CONTINUOUS
 62
     7
 10
-350.0
 20
-495.8727199999999
 30
0.0
 11
-350.0
 21
804.12727999999993
 31
0.0
  0
TEXT
  5
48
  8
HIBINO-BASE
 62
     7
 10
-314.07999999999998
 20
-526.51264000000003
 30
0.0
 40
18.71292
  1
Hibino Corporation
 11
-314.07999999999998
 21
-507.79971999999992
 31
0.0
 73
     3
  0
LINE
  5
49
  8
HIBINO-BASE
  6
CONTINUOUS
 62
     7
 10
550.0
 20
804.12727999999993
 30
0.0
 11
550.0
 21
-495.8727199999999
 31
0.0
  0
LINE
  5
4A
  8
HIBINO-BASE
  6
CONTINUOUS
 62
     7
 10
100.0
 20
-383.3727199999999
 30
0.0
 11
550.0
 21
-383.3727199999999
 31
0.0
  0
LINE
  5
4B
  8
HIBINO-BASE
  6
CONTINUOUS
 62
     7
 10
100.0
 20
-495.8727199999999
 30
0.0
 11
100.0
 21
-383.3727199999999
 31
0.0
  0
TEXT
  5
4C
  8
HIBINO-BASE
 62
     7
 10
104.4999999999999
 20
-396.17099999999999
 30
0.0
 40
9.3564799999999995
  1
NOTE
 11
104.4999999999999
 21
-386.81452000000002
 31
0.0
 73
     3
  0
LINE
  5
4D
  8
HIBINO-BASE
  6
CONTINUOUS
 62
     7
 10
275.0
 20
-495.8727199999999
 30
0.0
 11
275.0
 21
-383.3727199999999
 31
0.0
  0
TEXT
  5
4E
  8
HIBINO-BASE
 62
     7
 10
279.49999999999989
 20
-396.17099999999999
 30
0.0
 40
9.3564799999999995
  1
TITLE
 11
279.49999999999989
 21
-386.81452000000002
 31
0.0
 73
     3
  0
TEXT
  5
4F
  8
HIBINO-BASE
 62
     7
 10
350.34195
 20
-526.51264000000003
 30
0.0
 40
18.71292
  1
ヒビノ株式会社
 11
350.34195
 21
-507.79971999999992
 31
0.0
 73
     3
  0
LINE
  5
50
  8
HIBINO-BASE
  6
CONTINUOUS
 62
     7
 10
100.0
 20
-445.8727199999999
 30
0.0
 11
550.0
 21
-445.8727199999999
 31
0.0
  0
TEXT
  5
51
  8
HIBINO-BASE
 62
     7
 10
342.0
 20
-458.38939999999991
 30
0.0
 40
9.3564799999999995
  1
DRAWN
 11
342.0
 21
-449.03291999999988
 31
0.0
 73
     3
  0
TEXT
  5
52
  8
HIBINO-BASE
 62
     7
 10
217.0
 20
-458.38939999999991
 30
0.0
 40
9.3564799999999995
  1
DATE
 11
217.0
 21
-449.03291999999988
 31
0.0
 73
     3
  0
TEXT
  5
53
  8
HIBINO-BASE
 62
     7
 10
105.4999999999999
 20
-458.33499999999998
 30
0.0
 40
8.4666800000000002
  1
図面サイズ
 11
105.4999999999999
 21
-449.86831999999998
 31
0.0
 73
     3
  0
TEXT
  5
54
  8
HIBINO-BASE
 62
     7
 10
167.0
 20
-458.38939999999991
 30
0.0
 40
9.3564799999999995
  1
SCALE
 11
167.0
 21
-449.03291999999988
 31
0.0
 73
     3
  0
TEXT
  5
55
  8
HIBINO-BASE
 62
     7
 10
279.49999999999989
 20
-458.38939999999991
 30
0.0
 40
9.3564799999999995
  1
DESIGN
 11
279.49999999999989
 21
-449.03291999999988
 31
0.0
 73
     3
  0
TEXT
  5
56
  8
HIBINO-BASE
 62
     7
 10
467.0
 20
-458.38939999999991
 30
0.0
 40
9.3564799999999995
  1
DRAWING NO.
 11
467.0
 21
-449.03291999999988
 31
0.0
 73
     3
  0
TEXT
  5
57
  8
HIBINO-BASE
 62
     7
 10
404.49999999999989
 20
-458.38939999999991
 30
0.0
 40
9.3564799999999995
  1
CHECK
 11
404.49999999999989
 21
-449.03291999999988
 31
0.0
 73
     3
  0
LINE
  5
58
  8
HIBINO-BASE
  6
CONTINUOUS
 62
     7
 10
171.875
 20
-489.6227199999999
 30
0.0
 11
190.625
 21
-470.8727199999999
 31
0.0
  0
TEXT
  5
59
  8
HIBINO-BASE
 62
     7
 10
168.75
 20
-478.60464999999999
 30
0.0
 40
11.288880000000001
  1
1
 11
168.75
 21
-467.31576999999999
 31
0.0
 73
     3
  0
LINE
  5
5A
  8
HIBINO-BASE
  6
CONTINUOUS
 62
     7
 10
162.5
 20
-495.8727199999999
 30
0.0
 11
162.5
 21
-445.8727199999999
 31
0.0
  0
LINE
  5
5B
  8
HIBINO-BASE
  6
CONTINUOUS
 62
     7
 10
212.5
 20
-495.8727199999999
 30
0.0
 11
212.5
 21
-445.8727199999999
 31
0.0
  0
LINE
  5
5C
  8
HIBINO-BASE
  6
CONTINUOUS
 62
     7
 10
337.5
 20
-445.8727199999999
 30
0.0
 11
337.5
 21
-495.8727199999999
 31
0.0
  0
LINE
  5
5D
  8
HIBINO-BASE
  6
CONTINUOUS
 62
     7
 10
462.5
 20
-445.8727199999999
 30
0.0
 11
462.5
 21
-495.8727199999999
 31
0.0
  0
LINE
  5
5E
  8
HIBINO-BASE
  6
CONTINUOUS
 62
     7
 10
400.0
 20
-495.8727199999999
 30
0.0
 11
400.0
 21
-445.8727199999999
 31
0.0
  0
TEXT
  5
5F
  8
HIBINO-BASE
 62
     7
 10
119.55445
 20
-482.11043999999993
 30
0.0
 40
16.933319999999991
  1
A4
 11
119.55445
 21
-465.17711999999989
 31
0.0
 73
     3
  0
TEXT
  5
60
  8
HIBINO-BASE
 62
     7
 10
216.78269999999989
 20
-481.80929999999989
 30
0.0
 40
9.3564799999999995
  1
'00.11.
 11
216.78269999999989
 21
-472.45281999999992
 31
0.0
 73
     3
  0
TEXT
  5
61
  8
HIBINO-BASE
 62
     7
 10
187.5
 20
-487.97964999999999
 30
0.0
 40
11.288880000000001
  1
5
 11
187.5
 21
-476.69076999999999
 31
0.0
 73
     3
  0
LINE
  5
62
  8
SPEC
  6
CONTINUOUS
 62
     7
 10
-312.5
 20
716.62728000000004
 30
0.0
 11
425.0
 21
716.62728000000004
 31
0.0
  0
LINE
  5
63
  8
SPEC
  6
CONTINUOUS
 62
     7
 10
-312.5
 20
735.37728000000004
 30
0.0
 11
425.0
 21
735.37728000000004
 31
0.0
  0
LINE
  5
64
  8
SPEC
  6
CONTINUOUS
 62
     7
 10
-312.5
 20
754.12728000000004
 30
0.0
 11
425.0
 21
754.12728000000004
 31
0.0
  0
LINE
  5
65
  8
SPEC
  6
CONTINUOUS
 62
     7
 10
-312.5
 20
754.12728000000004
 30
0.0
 11
-312.5
 21
660.37728000000004
 31
0.0
  0
TEXT
  5
66
  8
SPEC
 62
     7
 10
-306.25
 20
762.04612999999995
 30
0.0
 40
12.699999999999999
  1
仕様
 11
-306.25
 21
774.74612999999999
 31
0.0
 73
     3
  0
LINE
  5
67
  8
SPEC
  6
CONTINUOUS
 62
     7
 10
-150.0
 20
754.12728000000004
 30
0.0
 11
-150.0
 21
660.37728000000004
 31
0.0
  0
LINE
  5
68
  8
SPEC
  6
CONTINUOUS
 62
     7
 10
425.0
 20
754.12728000000004
 30
0.0
 11
425.0
 21
660.37728000000004
 31
0.0
  0
TEXT
  5
69
  8
SPEC
 62
     7
 10
-308.0
 20
702.55772000000002
 30
0.0
 40
9.8777600000000003
  1
パッケージ内容
 11
-308.0
 21
712.43547999999987
 31
0.0
 73
     3
  0
TEXT
  5
6A
  8
SPEC
 62
     7
 10
-308.0
 20
740.05772000000002
 30
0.0
 40
9.8777600000000003
  1
寸法
 11
-308.0
 21
749.93547999999987
 31
0.0
 73
     3
  0
TEXT
  5
6B
  8
SPEC
 62
     7
 10
-308.0
 20
721.30772000000002
 30
0.0
 40
9.8777600000000003
  1
重量
 11
-308.0
 21
731.18547999999987
 31
0.0
 73
     3
  0
TEXT
  5
6C
  8
SPEC
 62
     7
 10
-145.5
 20
702.55772000000002
 30
0.0
 40
9.8777600000000003
  1
Lアダプター：2個、M8ボルト：2本、取付ボール：2個、ボ ール取付スペーサー：2枚、
 11
-145.5
 21
712.43547999999987
 31
0.0
 73
     3
  0
TEXT
  5
6D
  8
SPEC
 62
     7
 10
-145.5
 20
740.05772000000002
 30
0.0
 40
9.8777600000000003
  1
130(W)×225(H)×160(D)mm（1個）
 11
-145.5
 21
749.93547999999987
 31
0.0
 73
     3
  0
TEXT
  5
6E
  8
SPEC
 62
     7
 10
-145.5
 20
721.30772000000002
 30
0.0
 40
9.8777600000000003
  1
約1.1kg(1個）
 11
-145.5
 21
731.18547999999987
 31
0.0
 73
     3
  0
TEXT
  5
6F
  8
SPEC
 62
     7
 10
-308.0
 20
686.55772000000002
 30
0.0
 40
9.8777600000000003
  1
（1箱に2セット同梱）
 11
-308.0
 21
696.43547999999987
 31
0.0
 73
     3
  0
TEXT
  5
70
  8
SPEC
 62
     7
 10
-145.5
 20
686.55772000000002
 30
0.0
 40
9.8777600000000003
  1
M8ワッシャー：2枚、M8ナット（ナイロンロック付）：2個、M4ネジ：4枚、
 11
-145.5
 21
696.43547999999987
 31
0.0
 73
     3
  0
LINE
  5
71
  8
SPEC
  6
CONTINUOUS
 62
     7
 10
-312.5
 20
660.37728000000004
 30
0.0
 11
425.0
 21
660.37728000000004
 31
0.0
  0
TEXT
  5
72
  8
SPEC
 62
     7
 10
-145.5
 20
670.55772000000002
 30
0.0
 40
9.8777600000000003
  1
M4ワッシャー：4枚、六角棒レンチ：1個、M6セムスネジ：4本
 11
-145.5
 21
680.43547999999987
 31
0.0
 73
     3
  0
TEXT
  5
73
  8
DIMNSIONS
 62
     7
 10
-0.0000000000000008
 20
-433.57276999999988
 30
0.0
 40
12.699999999999999
  1
(単位：mm)
 11
0.0
 21
-420.87276999999989
 31
0.0
 73
     3
  0
LINE
  5
75
  8
DIMNSIONS
 62
     7
 10
-52.076330000000013
 20
-71.412569999999988
 30
0.0
 11
-43.125190000000003
 21
-57.629019999999997
 31
0.0
  0
LINE
  5
76
  8
DIMNSIONS
 62
     7
 10
-52.076330000000013
 20
-71.412569999999988
 30
0.0
 11
-37.432639999999992
 21
-63.951240000000013
 31
0.0
  0
LINE
  5
74
  8
DIMNSIONS
  6
CONTINUOUS
 62
     7
 10
-52.076330000000013
 20
-71.412569999999988
 30
0.0
 11
24.99998999999999
 21
0.0
 31
0.0
  0
LINE
  5
77
  8
DIMNSIONS
  6
CONTINUOUS
 62
     7
 10
24.99998999999999
 20
0.0
 30
0.0
 11
54.99998999999999
 21
0.0
 31
0.0
  0
LINE
  5
79
  8
DIMNSIONS
 62
     7
 10
-81.612480000000005
 20
-77.309679999999986
 30
0.0
 11
-66.168640000000011
 21
-82.930790000000002
 31
0.0
  0
LINE
  5
7A
  8
DIMNSIONS
 62
     7
 10
-81.612480000000005
 20
-77.309679999999986
 30
0.0
 11
-71.048270000000002
 21
-89.899630000000016
 31
0.0
  0
LINE
  5
78
  8
DIMNSIONS
  6
CONTINUOUS
 62
     7
 10
-81.612480000000005
 20
-77.309679999999986
 30
0.0
 11
24.99998999999999
 21
-150.00000999999989
 31
0.0
  0
LINE
  5
7B
  8
DIMNSIONS
  6
CONTINUOUS
 62
     7
 10
24.99998999999999
 20
-150.00000999999989
 30
0.0
 11
54.99998999999999
 21
-150.00000999999989
 31
0.0
  0
LINE
  5
7C
  8
DIMNSIONS
  6
CONTINUOUS
 62
     7
 10
-150.0
 20
-110.0
 30
0.0
 11
-150.0
 21
-160.0
 31
0.0
  0
LINE
  5
7D
  8
DIMNSIONS
  6
CONTINUOUS
 62
     7
 10
-20.0
 20
-110.0
 30
0.0
 11
-20.0
 21
-160.0
 31
0.0
  0
LINE
  5
7F
  8
DIMNSIONS
 62
     7
 10
-150.0
 20
-150.0
 30
0.0
 11
-134.12501
 21
-145.74630999999999
 31
0.0
  0
LINE
  5
80
  8
DIMNSIONS
 62
     7
 10
-150.0
 20
-150.0
 30
0.0
 11
-134.12501
 21
-154.2536999999999
 31
0.0
  0
LINE
  5
81
  8
DIMNSIONS
 62
     7
 10
-20.0
 20
-150.0
 30
0.0
 11
-35.875
 21
-154.2536999999999
 31
0.0
  0
LINE
  5
82
  8
DIMNSIONS
 62
     7
 10
-20.0
 20
-150.0
 30
0.0
 11
-35.875
 21
-145.74630999999999
 31
0.0
  0
LINE
  5
7E
  8
DIMNSIONS
  6
CONTINUOUS
 62
     7
 10
-150.0
 20
-150.0
 30
0.0
 11
-20.0
 21
-150.0
 31
0.0
  0
INSERT
  5
83
  8
DIMNSIONS
  2
*G0
 10
100.0
 20
140.0
 30
0.0
  0
LINE
  5
84
  8
DIMNSIONS
  6
CONTINUOUS
 62
     7
 10
-160.0
 20
-100.0
 30
0.0
 11
-210.0
 21
-100.0
 31
0.0
  0
LINE
  5
85
  8
DIMNSIONS
  6
CONTINUOUS
 62
     7
 10
-160.0
 20
125.0
 30
0.0
 11
-210.0
 21
125.0
 31
0.0
  0
LINE
  5
87
  8
DIMNSIONS
 62
     7
 10
-200.0
 20
-100.0
 30
0.0
 11
-204.2536999999999
 21
-84.125010000000003
 31
0.0
  0
LINE
  5
88
  8
DIMNSIONS
 62
     7
 10
-200.0
 20
-100.0
 30
0.0
 11
-195.74630999999999
 21
-84.125010000000003
 31
0.0
  0
LINE
  5
89
  8
DIMNSIONS
 62
     7
 10
-200.0
 20
125.0
 30
0.0
 11
-195.74630999999999
 21
109.125
 31
0.0
  0
LINE
  5
8A
  8
DIMNSIONS
 62
     7
 10
-200.0
 20
125.0
 30
0.0
 11
-204.2536999999999
 21
109.125
 31
0.0
  0
LINE
  5
86
  8
DIMNSIONS
  6
CONTINUOUS
 62
     7
 10
-200.0
 20
-100.0
 30
0.0
 11
-200.0
 21
125.0
 31
0.0
  0
INSERT
  5
8B
  8
DIMNSIONS
  2
*G1
 10
100.0
 20
140.0
 30
0.0
  0
TEXT
  5
8C
  8
DIMNSIONS
 62
     7
 10
-0.0000000000000008
 20
218.16667000000001
 30
0.0
 40
12.699999999999999
  1
注）天井金具取付ネジ（Ｍ６）は調整する角度が少ない場合は、
 11
0.0
 21
230.86666999999991
 31
0.0
 73
     3
  0
LINE
  5
8E
  8
DIMNSIONS
 62
     7
 10
-80.746489999999994
 20
266.75144999999992
 30
0.0
 11
-67.620920000000012
 21
276.64227
 31
0.0
  0
LINE
  5
8F
  8
DIMNSIONS
 62
     7
 10
-80.746489999999994
 20
266.75144999999992
 30
0.0
 11
-64.433999999999997
 21
268.75436999999988
 31
0.0
  0
LINE
  5
8D
  8
DIMNSIONS
  6
CONTINUOUS
 62
     7
 10
-80.746489999999994
 20
266.75144999999992
 30
0.0
 11
-0.0000100000000032
 21
300.0
 31
0.0
  0
LINE
  5
90
  8
DIMNSIONS
  6
CONTINUOUS
 62
     7
 10
-0.0000100000000032
 20
300.0
 30
0.0
 11
29.99998999999999
 21
300.0
 31
0.0
  0
INSERT
  5
91
  8
DIMNSIONS
  2
*G2
 10
100.0
 20
140.0
 30
0.0
  0
LINE
  5
92
  8
DIMNSIONS
  6
CONTINUOUS
 62
     7
 10
-99.599989999999991
 20
265.0
 30
0.0
 11
-185.0
 21
265.0
 31
0.0
  0
LINE
  5
93
  8
DIMNSIONS
  6
CONTINUOUS
 62
     7
 10
-99.599989999999991
 20
325.0
 30
0.0
 11
-185.0
 21
325.0
 31
0.0
  0
LINE
  5
95
  8
DIMNSIONS
 62
     7
 10
-175.0
 20
265.0
 30
0.0
 11
-179.2536999999999
 21
280.87499000000003
 31
0.0
  0
LINE
  5
96
  8
DIMNSIONS
 62
     7
 10
-175.0
 20
265.0
 30
0.0
 11
-170.74630999999999
 21
280.87499000000003
 31
0.0
  0
LINE
  5
97
  8
DIMNSIONS
 62
     7
 10
-175.0
 20
325.0
 30
0.0
 11
-170.74630999999999
 21
309.125
 31
0.0
  0
LINE
  5
98
  8
DIMNSIONS
 62
     7
 10
-175.0
 20
325.0
 30
0.0
 11
-179.2536999999999
 21
309.125
 31
0.0
  0
LINE
  5
94
  8
DIMNSIONS
  6
CONTINUOUS
 62
     7
 10
-175.0
 20
265.0
 30
0.0
 11
-175.0
 21
325.0
 31
0.0
  0
INSERT
  5
99
  8
DIMNSIONS
  2
*G3
 10
100.0
 20
140.0
 30
0.0
  0
LINE
  5
9A
  8
DIMNSIONS
  6
CONTINUOUS
 62
     7
 10
-99.599989999999991
 20
325.0
 30
0.0
 11
-185.0
 21
325.0
 31
0.0
  0
LINE
  5
9B
  8
DIMNSIONS
  6
CONTINUOUS
 62
     7
 10
-99.599989999999991
 20
384.99999000000003
 30
0.0
 11
-185.0
 21
384.99999000000003
 31
0.0
  0
LINE
  5
9D
  8
DIMNSIONS
 62
     7
 10
-175.0
 20
325.0
 30
0.0
 11
-179.2536999999999
 21
340.87499000000003
 31
0.0
  0
LINE
  5
9E
  8
DIMNSIONS
 62
     7
 10
-175.0
 20
325.0
 30
0.0
 11
-170.74630999999999
 21
340.87499000000003
 31
0.0
  0
LINE
  5
9F
  8
DIMNSIONS
 62
     7
 10
-175.0
 20
384.99999000000003
 30
0.0
 11
-170.74630999999999
 21
369.12499000000003
 31
0.0
  0
LINE
  5
A0
  8
DIMNSIONS
 62
     7
 10
-175.0
 20
384.99999000000003
 30
0.0
 11
-179.2536999999999
 21
369.12499000000003
 31
0.0
  0
LINE
  5
9C
  8
DIMNSIONS
  6
CONTINUOUS
 62
     7
 10
-175.0
 20
325.0
 30
0.0
 11
-175.0
 21
384.99999000000003
 31
0.0
  0
INSERT
  5
A1
  8
DIMNSIONS
  2
*G4
 10
100.0
 20
140.0
 30
0.0
  0
LINE
  5
A2
  8
DIMNSIONS
  6
CONTINUOUS
 62
     7
 10
-160.0
 20
409.99999000000003
 30
0.0
 11
-210.0
 21
409.99999000000003
 31
0.0
  0
LINE
  5
A3
  8
DIMNSIONS
  6
CONTINUOUS
 62
     7
 10
-120.0
 20
250.0
 30
0.0
 11
-210.0
 21
250.0
 31
0.0
  0
LINE
  5
A5
  8
DIMNSIONS
 62
     7
 10
-200.0
 20
409.99999000000003
 30
0.0
 11
-195.74630999999999
 21
394.12499000000003
 31
0.0
  0
LINE
  5
A6
  8
DIMNSIONS
 62
     7
 10
-200.0
 20
409.99999000000003
 30
0.0
 11
-204.2536999999999
 21
394.12499000000003
 31
0.0
  0
LINE
  5
A7
  8
DIMNSIONS
 62
     7
 10
-200.0
 20
250.0
 30
0.0
 11
-204.2536999999999
 21
265.87499000000003
 31
0.0
  0
LINE
  5
A8
  8
DIMNSIONS
 62
     7
 10
-200.0
 20
250.0
 30
0.0
 11
-195.74630999999999
 21
265.87499000000003
 31
0.0
  0
LINE
  5
A4
  8
DIMNSIONS
  6
CONTINUOUS
 62
     7
 10
-200.0
 20
409.99999000000003
 30
0.0
 11
-200.0
 21
250.0
 31
0.0
  0
INSERT
  5
A9
  8
DIMNSIONS
  2
*G5
 10
100.0
 20
140.0
 30
0.0
  0
TEXT
  5
AA
  8
DIMNSIONS
 62
     7
 10
54.99998999999999
 20
-4.7624999999999993
 30
0.0
 40
12.699999999999999
  1
サポートガイドネジ M4
 11
54.99998999999999
 21
7.9375
 31
0.0
 73
     3
  0
TEXT
  5
AB
  8
DIMNSIONS
 62
     7
 10
54.99998999999999
 20
-154.76250999999991
 30
0.0
 40
12.699999999999999
  1
取付ボール M8
 11
54.99998999999999
 21
-142.06250999999989
 31
0.0
 73
     3
  0
TEXT
  5
AC
  8
DIMNSIONS
 62
     7
 10
54.99998999999999
 20
-64.762500000000003
 30
0.0
 40
12.699999999999999
  1
　取付位置が変わります）
 11
54.99998999999999
 21
-52.0625
 31
0.0
 73
     3
  0
TEXT
  5
AD
  8
DIMNSIONS
 62
     7
 10
54.99998999999999
 20
-44.762500000000003
 30
0.0
 40
12.699999999999999
  1
(スピーカーの取付方向にて、
 11
54.99998999999999
 21
-32.0625
 31
0.0
 73
     3
  0
TEXT
  5
AE
  8
DIMNSIONS
 62
     7
 10
54.99998999999999
 20
-24.762499999999999
 30
0.0
 40
12.699999999999999
  1
(ツィータを上取付用)
 11
54.99998999999999
 21
-12.0625
 31
0.0
 73
     3
  0
TEXT
  5
AF
  8
DIMNSIONS
 62
     7
 10
54.99998999999999
 20
-214.76250999999991
 30
0.0
 40
12.699999999999999
  1
　取付位置が変わります）
 11
54.99998999999999
 21
-202.06250999999989
 31
0.0
 73
     3
  0
TEXT
  5
B0
  8
DIMNSIONS
 62
     7
 10
54.99998999999999
 20
-194.76250999999991
 30
0.0
 40
12.699999999999999
  1
(スピーカーの取付方向にて、
 11
54.99998999999999
 21
-182.06250999999989
 31
0.0
 73
     3
  0
TEXT
  5
B1
  8
DIMNSIONS
 62
     7
 10
54.99998999999999
 20
-174.76250999999991
 30
0.0
 40
12.699999999999999
  1
(ツィータを上取付用)
 11
54.99998999999999
 21
-162.06250999999989
 31
0.0
 73
     3
  0
LINE
  5
B3
  8
DIMNSIONS
 62
     7
 10
-115.32550000000001
 20
-71.771440000000013
 30
0.0
 11
-103.11192
 21
-60.774280000000012
 31
0.0
  0
LINE
  5
B4
  8
DIMNSIONS
 62
     7
 10
-115.32550000000001
 20
-71.771440000000013
 30
0.0
 11
-99.249650000000003
 21
-68.354420000000005
 31
0.0
  0
LINE
  5
B2
  8
DIMNSIONS
  6
CONTINUOUS
 62
     7
 10
-115.32550000000001
 20
-71.771440000000013
 30
0.0
 11
24.99998999999999
 21
0.0
 31
0.0
  0
TEXT
  5
B5
  8
DIMNSIONS
 62
     7
 10
-0.0000000000000008
 20
198.16667000000001
 30
0.0
 40
12.699999999999999
  1
前側角度が大きい場合は奧側を使用してください。
 11
0.0
 21
210.86667
 31
0.0
 73
     3
  0
TEXT
  5
B6
  8
DATA
 62
     7
 10
350.0
 20
-439.26576999999992
 30
0.0
 40
12.699999999999999
  1
CTLB-28
 11
350.0
 21
-426.56576999999999
 31
0.0
 73
     3
  0
TEXT
  5
B7
  8
DATA
 62
     7
 10
350.0
 20
-403.01576999999997
 30
0.0
 40
12.699999999999999
  1
JBL
 11
350.0
 21
-390.31576999999999
 31
0.0
 73
     3
  0
TEXT
  5
B8
  8
DATA
 62
     7
 10
337.5
 20
-420.71804999999989
 30
0.0
 40
8.4666800000000002
  1
CONTROL28/28T専用L字金具
 11
337.5
 21
-412.25136999999989
 31
0.0
 73
     3
  0
LINE
  5
B9
  8
DATA
  6
CONTINUOUS
 62
     7
 10
200.0
 20
125.0
 30
0.0
 11
360.0
 21
125.0
 31
0.0
  0
LINE
  5
BA
  8
DATA
  6
CONTINUOUS
 62
     7
 10
200.0
 20
125.0
 30
0.0
 11
200.0
 21
122.39999999999991
 31
0.0
  0
LINE
  5
BB
  8
DATA
  6
CONTINUOUS
 62
     7
 10
200.0
 20
122.39999999999991
 30
0.0
 11
357.39999999999992
 21
122.39999999999991
 31
0.0
  0
LINE
  5
BC
  8
DATA
  6
CONTINUOUS
 62
     7
 10
357.39999
 20
-100.0
 30
0.0
 11
357.39999
 21
122.39999999999991
 31
0.0
  0
LINE
  5
BD
  8
DATA
  6
CONTINUOUS
 62
     7
 10
357.39999
 20
-100.0
 30
0.0
 11
359.99999000000003
 21
-100.0
 31
0.0
  0
LINE
  5
BE
  8
DATA
  6
CONTINUOUS
 62
     7
 10
359.99999000000003
 20
-100.0
 30
0.0
 11
359.99999000000003
 21
125.0
 31
0.0
  0
LINE
  5
BF
  8
DATA
  6
VECTORWORKS_DASH_01
 62
     7
 10
327.91529000000003
 20
-71.0
 30
0.0
 11
327.91529000000003
 21
-79.0
 31
0.0
  0
LINE
  5
C0
  8
DATA
  6
VECTORWORKS_DASH_01
 62
     7
 10
327.91529000000003
 20
-71.0
 30
0.0
 11
359.99999000000003
 21
-71.0
 31
0.0
  0
LINE
  5
C1
  8
DATA
  6
VECTORWORKS_DASH_01
 62
     7
 10
323.91529000000003
 20
-67.0
 30
0.0
 11
327.91529000000003
 21
-71.0
 31
0.0
  0
LINE
  5
C2
  8
DATA
  6
VECTORWORKS_DASH_01
 62
     7
 10
327.91529000000003
 20
-79.0
 30
0.0
 11
359.99999000000003
 21
-79.0
 31
0.0
  0
LINE
  5
C3
  8
DATA
  6
VECTORWORKS_DASH_01
 62
     7
 10
323.91529000000003
 20
-83.0
 30
0.0
 11
327.91529000000003
 21
-79.0
 31
0.0
  0
ARC
  5
C4
  8
DATA
  6
CONTINUOUS
 62
     7
 10
339.43749000000003
 20
-75.0
 30
0.0
 40
17.462489999999988
 50
207.26616470511911
 51
339.55499454411029
  0
ARC
  5
C5
  8
DATA
  6
CONTINUOUS
 62
     7
 10
339.43749000000003
 20
-75.0
 30
0.0
 40
17.462489999999988
 50
20.44500545588965
 51
152.73383529488081
  0
LINE
  5
C6
  8
DATA
  6
CONTINUOUS
 62
     7
 10
323.91529000000003
 20
-67.0
 30
0.0
 11
323.91529000000003
 21
-83.0
 31
0.0
  0
LINE
  5
C7
  8
DATA
  6
CONTINUOUS
 62
     7
 10
355.79998999999992
 20
-84.0
 30
0.0
 11
355.79998999999992
 21
-66.0
 31
0.0
  0
LINE
  5
C8
  8
DATA
  6
CONTINUOUS
 62
     7
 10
355.79998999999992
 20
-84.0
 30
0.0
 11
357.39999
 21
-84.0
 31
0.0
  0
LINE
  5
C9
  8
DATA
  6
CONTINUOUS
 62
     7
 10
355.79998999999992
 20
-66.0
 30
0.0
 11
357.39999
 21
-66.0
 31
0.0
  0
CIRCLE
  5
CA
  8
DATA
  6
VECTORWORKS_DASH_01
 62
     7
 10
-85.0
 20
-75.0
 30
0.0
 40
4.09999
  0
LINE
  5
CB
  8
DATA
  6
CONTINUOUS
 62
     7
 10
-150.0
 20
125.0
 30
0.0
 11
-20.0
 21
125.0
 31
0.0
  0
LINE
  5
CC
  8
DATA
  6
CONTINUOUS
 62
     7
 10
-150.0
 20
122.39999999999991
 30
0.0
 11
-20.0
 21
122.39999999999991
 31
0.0
  0
LINE
  5
CD
  8
DATA
  6
CONTINUOUS
 62
     7
 10
-150.0
 20
-100.0
 30
0.0
 11
-150.0
 21
125.0
 31
0.0
  0
LINE
  5
CE
  8
DATA
  6
CONTINUOUS
 62
     7
 10
-150.0
 20
-100.0
 30
0.0
 11
-20.0
 21
-100.0
 31
0.0
  0
LINE
  5
CF
  8
DATA
  6
CONTINUOUS
 62
     7
 10
-20.0
 20
-100.0
 30
0.0
 11
-20.0
 21
125.0
 31
0.0
  0
ARC
  5
D0
  8
DATA
  6
CONTINUOUS
 62
     7
 10
-68.099999999999994
 20
29.599999999999991
 30
0.0
 40
3.1000000000000001
 50
270.0
 51
0.0
  0
LINE
  5
D1
  8
DATA
  6
CONTINUOUS
 62
     7
 10
-101.89999
 20
26.5
 30
0.0
 11
-68.100009999999983
 21
26.5
 31
0.0
  0
LINE
  5
D2
  8
DATA
  6
CONTINUOUS
 62
     7
 10
-101.89999
 20
63.5
 30
0.0
 11
-68.100009999999983
 21
63.5
 31
0.0
  0
ARC
  5
D3
  8
DATA
  6
CONTINUOUS
 62
     7
 10
-101.90000000000001
 20
60.399999999999999
 30
0.0
 40
3.1000000000000001
 50
89.999815174904796
 51
179.9998151749048
  0
ARC
  5
D4
  8
DATA
  6
CONTINUOUS
 62
     7
 10
-68.099999999999994
 20
60.399999999999999
 30
0.0
 40
3.1000000000000001
 50
0.0001848250952029
 51
90.0
  0
LINE
  5
D5
  8
DATA
  6
CONTINUOUS
 62
     7
 10
-65.0
 20
60.400010000000002
 30
0.0
 11
-65.0
 21
29.600010000000001
 31
0.0
  0
LINE
  5
D6
  8
DATA
  6
CONTINUOUS
 62
     7
 10
-105.0
 20
60.400010000000002
 30
0.0
 11
-105.0
 21
29.600010000000001
 31
0.0
  0
ARC
  5
D7
  8
DATA
  6
CONTINUOUS
 62
     7
 10
-101.90000000000001
 20
29.599999999999991
 30
0.0
 40
3.1000000000000001
 50
179.9998151749048
 51
270.00018482509518
  0
CIRCLE
  5
D8
  8
DATA
  6
CONTINUOUS
 62
     7
 10
-116.7499999999999
 20
-72.5
 30
0.0
 40
1.6000000000000001
  0
CIRCLE
  5
D9
  8
DATA
  6
CONTINUOUS
 62
     7
 10
-53.25
 20
-72.5
 30
0.0
 40
1.6000000000000001
  0
CIRCLE
  5
DA
  8
DATA
  6
CONTINUOUS
 62
     7
 10
-85.0
 20
18.25
 30
0.0
 40
1.6000000000000001
  0
CIRCLE
  5
DB
  8
DATA
  6
CONTINUOUS
 62
     7
 10
-85.0
 20
-45.25
 30
0.0
 40
1.6000000000000001
  0
ARC
  5
DC
  8
DATA
  6
CONTINUOUS
 62
     7
 10
-48.5
 20
2.1125000000000109
 30
0.0
 40
5.09999
 50
11.364925956700279
 51
168.63507404329971
  0
ARC
  5
DD
  8
DATA
  6
CONTINUOUS
 62
     7
 10
-48.5
 20
-29.112490000000012
 30
0.0
 40
5.09999
 50
168.63507404329971
 51
11.36492595670026
  0
ARC
  5
DE
  8
DATA
  6
CONTINUOUS
 62
     7
 10
-48.5
 20
-13.5
 30
0.0
 40
12.5
 50
0.0
 51
66.421822920017576
  0
LINE
  5
DF
  8
DATA
  6
CONTINUOUS
 62
     7
 10
-43.5
 20
3.11748
 30
0.0
 11
-43.5
 21
-2.0435600000000131
 31
0.0
  0
LINE
  5
E0
  8
DATA
  6
CONTINUOUS
 62
     7
 10
-53.5
 20
3.11748
 30
0.0
 11
-53.5
 21
-2.0435600000000131
 31
0.0
  0
LINE
  5
E1
  8
DATA
  6
CONTINUOUS
 62
     7
 10
-53.5
 20
-28.10749999999998
 30
0.0
 11
-53.5
 21
-24.956439999999979
 31
0.0
  0
LINE
  5
E2
  8
DATA
  6
CONTINUOUS
 62
     7
 10
-43.5
 20
-28.10749999999998
 30
0.0
 11
-43.5
 21
-24.956439999999979
 31
0.0
  0
ARC
  5
E3
  8
DATA
  6
CONTINUOUS
 62
     7
 10
-48.5
 20
-13.5
 30
0.0
 40
12.5
 50
113.5781770799824
 51
246.42182292001749
  0
ARC
  5
E4
  8
DATA
  6
CONTINUOUS
 62
     7
 10
-48.5
 20
-13.5
 30
0.0
 40
12.5
 50
293.57817707998242
 51
0.0
  0
ARC
  5
E5
  8
DATA
  6
CONTINUOUS
 62
     7
 10
-121.5
 20
2.1125000000000109
 30
0.0
 40
5.09999
 50
11.364925956700279
 51
191.3649259567002
  0
ARC
  5
E6
  8
DATA
  6
CONTINUOUS
 62
     7
 10
-121.5
 20
-29.112490000000012
 30
0.0
 40
5.09999
 50
191.3649259567002
 51
11.36492595670029
  0
ARC
  5
E7
  8
DATA
  6
CONTINUOUS
 62
     7
 10
-121.5
 20
-13.5
 30
0.0
 40
12.5
 50
113.5781770799824
 51
180.0
  0
LINE
  5
E8
  8
DATA
  6
CONTINUOUS
 62
     7
 10
-116.5
 20
3.11748
 30
0.0
 11
-116.5
 21
-2.0435600000000131
 31
0.0
  0
LINE
  5
E9
  8
DATA
  6
CONTINUOUS
 62
     7
 10
-126.5
 20
1.10750999999999
 30
0.0
 11
-126.5
 21
-2.04355000000001
 31
0.0
  0
LINE
  5
EA
  8
DATA
  6
CONTINUOUS
 62
     7
 10
-116.5
 20
-28.10749999999998
 30
0.0
 11
-116.5
 21
-24.956439999999979
 31
0.0
  0
LINE
  5
EB
  8
DATA
  6
CONTINUOUS
 62
     7
 10
-126.5
 20
-30.11748
 30
0.0
 11
-126.5
 21
-24.956439999999979
 31
0.0
  0
ARC
  5
EC
  8
DATA
  6
CONTINUOUS
 62
     7
 10
-121.5
 20
-13.5
 30
0.0
 40
12.5
 50
293.57817707998242
 51
66.421822920017519
  0
ARC
  5
ED
  8
DATA
  6
CONTINUOUS
 62
     7
 10
-121.5
 20
-13.5
 30
0.0
 40
12.5
 50
180.0
 51
246.42182292001749
  0
TEXT
  5
EE
  8
DATA
 62
     7
 10
269.47644000000003
 20
-354.76249999999999
 30
0.0
 40
12.699999999999999
  1
（ネジ類は省略しております）
 11
269.47644000000003
 21
-342.0625
 31
0.0
 73
     3
  0
LINE
  5
EF
  8
DATA
  6
CONTINUOUS
 62
     7
 10
207.5
 20
122.39999999999991
 30
0.0
 11
207.5
 21
116.40000000000001
 31
0.0
  0
LINE
  5
F0
  8
DATA
  6
CONTINUOUS
 62
     7
 10
222.5
 20
116.40000000000001
 30
0.0
 11
207.5
 21
116.40000000000001
 31
0.0
  0
LINE
  5
F1
  8
DATA
  6
CONTINUOUS
 62
     7
 10
222.5
 20
122.39999999999991
 30
0.0
 11
222.5
 21
116.40000000000001
 31
0.0
  0
LINE
  5
F2
  8
DATA
  6
CONTINUOUS
 62
     7
 10
282.5
 20
122.39999999999991
 30
0.0
 11
282.5
 21
116.40000000000001
 31
0.0
  0
LINE
  5
F3
  8
DATA
  6
CONTINUOUS
 62
     7
 10
267.5
 20
116.40000000000001
 30
0.0
 11
282.5
 21
116.40000000000001
 31
0.0
  0
LINE
  5
F4
  8
DATA
  6
CONTINUOUS
 62
     7
 10
267.5
 20
122.39999999999991
 30
0.0
 11
267.5
 21
116.40000000000001
 31
0.0
  0
LINE
  5
F5
  8
DATA
  6
CONTINUOUS
 62
     7
 10
342.49999000000003
 20
122.39999999999991
 30
0.0
 11
342.49999000000003
 21
116.40000000000001
 31
0.0
  0
LINE
  5
F6
  8
DATA
  6
CONTINUOUS
 62
     7
 10
327.49999000000003
 20
116.40000000000001
 30
0.0
 11
342.49999000000003
 21
116.40000000000001
 31
0.0
  0
LINE
  5
F7
  8
DATA
  6
CONTINUOUS
 62
     7
 10
327.49999000000003
 20
122.39999999999991
 30
0.0
 11
327.49999000000003
 21
116.40000000000001
 31
0.0
  0
CIRCLE
  5
F8
  8
DATA
  6
CONTINUOUS
 62
     7
 10
-85.0
 20
265.0
 30
0.0
 40
4.59999
  0
CIRCLE
  5
F9
  8
DATA
  6
CONTINUOUS
 62
     7
 10
-85.0
 20
325.0
 30
0.0
 40
4.59999
  0
LINE
  5
FA
  8
DATA
  6
CONTINUOUS
 62
     7
 10
-20.0
 20
409.99999000000003
 30
0.0
 11
-150.0
 21
409.99999000000003
 31
0.0
  0
CIRCLE
  5
FB
  8
DATA
  6
CONTINUOUS
 62
     7
 10
-85.0
 20
384.99999000000003
 30
0.0
 40
4.59999
  0
LINE
  5
FC
  8
DATA
  6
VECTORWORKS_DASH_01
 62
     7
 10
-20.0
 20
407.39999
 30
0.0
 11
-150.0
 21
407.39999
 31
0.0
  0
LINE
  5
FD
  8
DATA
  6
CONTINUOUS
 62
     7
 10
-60.0
 20
250.0
 30
0.0
 11
-20.0
 21
390.0
 31
0.0
  0
LINE
  5
FE
  8
DATA
  6
CONTINUOUS
 62
     7
 10
-20.0
 20
389.99999000000003
 30
0.0
 11
-20.0
 21
409.99999000000003
 31
0.0
  0
LINE
  5
FF
  8
DATA
  6
CONTINUOUS
 62
     7
 10
-150.0
 20
389.99999000000003
 30
0.0
 11
-150.0
 21
409.99999000000003
 31
0.0
  0
LINE
  5
100
  8
DATA
  6
CONTINUOUS
 62
     7
 10
-110.0
 20
250.0
 30
0.0
 11
-150.0
 21
390.0
 31
0.0
  0
LINE
  5
101
  8
DATA
  6
CONTINUOUS
 62
     7
 10
-110.0
 20
250.0
 30
0.0
 11
-60.0
 21
250.0
 31
0.0
  0
ARC
  5
102
  8
DATA
  6
CONTINUOUS
 62
     7
 10
-82.5
 20
-13.5
 30
0.0
 40
4.0999999999999988
 50
232.42797423055009
 51
127.57202576944979
  0
ARC
  5
103
  8
DATA
  6
CONTINUOUS
 62
     7
 10
-87.5
 20
-13.5
 30
0.0
 40
4.0999999999999988
 50
52.428170202302681
 51
307.57202576944979
  0
LINE
  5
104
  8
DATA
  6
VECTORWORKS_DASH_01
 62
     7
 10
-87.899149999999977
 20
-77.899149999999992
 30
0.0
 11
-82.100889999999993
 21
-72.100889999999993
 31
0.0
  0
LINE
  5
105
  8
DATA
  6
VECTORWORKS_DASH_01
 62
     7
 10
-85.980919999999983
 20
-78.980919999999998
 30
0.0
 11
-81.019079999999988
 21
-74.019080000000002
 31
0.0
  0
LINE
  5
106
  8
DATA
  6
VECTORWORKS_DASH_01
 62
     7
 10
-88.980919999999998
 20
-75.980919999999998
 30
0.0
 11
-84.019080000000002
 21
-71.019080000000002
 31
0.0
  0
LINE
  5
107
  8
DATA
  6
CONTINUOUS
 62
     7
 10
-86.467989999999986
 20
-17.467989999999979
 30
0.0
 11
-79.600869999999986
 21
-10.600869999999979
 31
0.0
  0
LINE
  5
108
  8
DATA
  6
CONTINUOUS
 62
     7
 10
-83.480899999999991
 20
-17.480899999999991
 30
0.0
 11
-78.519059999999996
 21
-12.519059999999991
 31
0.0
  0
LINE
  5
109
  8
DATA
  6
CONTINUOUS
 62
     7
 10
-89.221210000000013
 20
-17.22121000000001
 30
0.0
 11
-81.519059999999996
 21
-9.5190599999999961
 31
0.0
  0
LINE
  5
10A
  8
DATA
  6
CONTINUOUS
 62
     7
 10
-90.721209999999999
 20
-15.72121000000001
 30
0.0
 11
-85.144299999999987
 21
-10.14429999999998
 31
0.0
  0
LINE
  5
10B
  8
DATA
  6
CONTINUOUS
 62
     7
 10
-91.598809999999986
 20
-13.598809999999981
 30
0.0
 11
-87.401190000000014
 21
-9.4011900000000121
 31
0.0
  0
CIRCLE
  5
10C
  8
DATA
  6
CONTINUOUS
 62
     7
 10
-85.000020000000006
 20
-75.000020000000006
 30
0.0
 40
8.0
  0
CIRCLE
  5
10D
  8
DATA
  6
CONTINUOUS
 62
     7
 10
-85.000020000000006
 20
-75.000020000000006
 30
0.0
 40
17.462489999999988
  0
LINE
  5
10E
  8
DATA
  6
CONTINUOUS
 62
     7
 10
215.0
 20
116.40000000000001
 30
0.0
 11
215.0
 21
122.39999999999991
 31
0.0
  0
LINE
  5
10F
  8
DATA
  6
CONTINUOUS
 62
     7
 10
275.0
 20
116.40000000000001
 30
0.0
 11
275.0
 21
122.39999999999991
 31
0.0
  0
LINE
  5
110
  8
DATA
  6
CONTINUOUS
 62
     7
 10
334.99999000000003
 20
116.40000000000001
 30
0.0
 11
334.99999000000003
 21
122.39999999999991
 31
0.0
  0
LINE
  5
111
  8
DATA
  6
VECTORWORKS_DASH_01
 62
     7
 10
-88.749989999999997
 20
271.49523999999991
 30
0.0
 11
-92.499989999999997
 21
265.00002999999992
 31
0.0
  0
LINE
  5
112
  8
DATA
  6
VECTORWORKS_DASH_01
 62
     7
 10
-92.499989999999997
 20
265.00002999999992
 30
0.0
 11
-88.75
 21
258.50481000000002
 31
0.0
  0
LINE
  5
113
  8
DATA
  6
VECTORWORKS_DASH_01
 62
     7
 10
-88.75
 20
258.50481000000002
 30
0.0
 11
-81.249989999999997
 21
258.50484999999998
 31
0.0
  0
LINE
  5
114
  8
DATA
  6
VECTORWORKS_DASH_01
 62
     7
 10
-81.249989999999997
 20
258.50484999999998
 30
0.0
 11
-77.499989999999997
 21
265.00002999999992
 31
0.0
  0
LINE
  5
115
  8
DATA
  6
VECTORWORKS_DASH_01
 62
     7
 10
-77.499989999999997
 20
265.00002999999992
 30
0.0
 11
-81.25
 21
271.49518999999992
 31
0.0
  0
LINE
  5
116
  8
DATA
  6
VECTORWORKS_DASH_01
 62
     7
 10
-81.25
 20
271.49518999999992
 30
0.0
 11
-88.749989999999997
 21
271.49523999999991
 31
0.0
  0
LINE
  5
117
  8
DATA
  6
VECTORWORKS_DASH_01
 62
     7
 10
-88.749989999999997
 20
331.49523999999991
 30
0.0
 11
-92.499989999999997
 21
325.00002999999998
 31
0.0
  0
LINE
  5
118
  8
DATA
  6
VECTORWORKS_DASH_01
 62
     7
 10
-92.499989999999997
 20
325.00002999999998
 30
0.0
 11
-88.75
 21
318.50481000000002
 31
0.0
  0
LINE
  5
119
  8
DATA
  6
VECTORWORKS_DASH_01
 62
     7
 10
-88.75
 20
318.50481000000002
 30
0.0
 11
-81.249989999999997
 21
318.50484999999998
 31
0.0
  0
LINE
  5
11A
  8
DATA
  6
VECTORWORKS_DASH_01
 62
     7
 10
-81.249989999999997
 20
318.50484999999998
 30
0.0
 11
-77.499989999999997
 21
325.00002999999998
 31
0.0
  0
LINE
  5
11B
  8
DATA
  6
VECTORWORKS_DASH_01
 62
     7
 10
-77.499989999999997
 20
325.00002999999998
 30
0.0
 11
-81.25
 21
331.49518999999998
 31
0.0
  0
LINE
  5
11C
  8
DATA
  6
VECTORWORKS_DASH_01
 62
     7
 10
-81.25
 20
331.49518999999998
 30
0.0
 11
-88.749989999999997
 21
331.49523999999991
 31
0.0
  0
LINE
  5
11D
  8
DATA
  6
VECTORWORKS_DASH_01
 62
     7
 10
-88.749989999999997
 20
391.49523999999991
 30
0.0
 11
-92.499989999999997
 21
385.00002999999998
 31
0.0
  0
LINE
  5
11E
  8
DATA
  6
VECTORWORKS_DASH_01
 62
     7
 10
-92.499989999999997
 20
385.00002999999998
 30
0.0
 11
-88.75
 21
378.50481000000002
 31
0.0
  0
LINE
  5
11F
  8
DATA
  6
VECTORWORKS_DASH_01
 62
     7
 10
-88.75
 20
378.50481000000002
 30
0.0
 11
-81.249989999999997
 21
378.50484999999998
 31
0.0
  0
LINE
  5
120
  8
DATA
  6
VECTORWORKS_DASH_01
 62
     7
 10
-81.249989999999997
 20
378.50484999999998
 30
0.0
 11
-77.499989999999997
 21
385.00002999999998
 31
0.0
  0
LINE
  5
121
  8
DATA
  6
VECTORWORKS_DASH_01
 62
     7
 10
-77.499989999999997
 20
385.00002999999998
 30
0.0
 11
-81.25
 21
391.49518999999992
 31
0.0
  0
LINE
  5
122
  8
DATA
  6
VECTORWORKS_DASH_01
 62
     7
 10
-81.25
 20
391.49518999999992
 30
0.0
 11
-88.749989999999997
 21
391.49523999999991
 31
0.0
  0
LINE
  5
123
  8
DATA
  6
CONTINUOUS
 62
     7
 10
-92.5
 20
122.39999999999991
 30
0.0
 11
-92.5
 21
116.40000000000001
 31
0.0
  0
LINE
  5
124
  8
DATA
  6
CONTINUOUS
 62
     7
 10
-77.5
 20
116.40000000000001
 30
0.0
 11
-92.5
 21
116.40000000000001
 31
0.0
  0
LINE
  5
125
  8
DATA
  6
CONTINUOUS
 62
     7
 10
-77.5
 20
122.39999999999991
 30
0.0
 11
-77.5
 21
116.40000000000001
 31
0.0
  0
LINE
  5
126
  8
DATA
  6
CONTINUOUS
 62
     7
 10
-88.75
 20
116.40000000000001
 30
0.0
 11
-88.75
 21
122.39999999999991
 31
0.0
  0
LINE
  5
127
  8
DATA
  6
CONTINUOUS
 62
     7
 10
-81.249989999999997
 20
116.40000000000001
 30
0.0
 11
-81.249989999999997
 21
122.39999999999991
 31
0.0
  0
LINE
  5
128
  8
DATA
  6
VECTORWORKS_DASH_01
 62
     7
 10
-89.0
 20
377.91529000000003
 30
0.0
 11
-81.0
 21
377.91529000000003
 31
0.0
  0
LINE
  5
129
  8
DATA
  6
VECTORWORKS_DASH_01
 62
     7
 10
-89.0
 20
377.91529000000003
 30
0.0
 11
-89.0
 21
409.99999000000003
 31
0.0
  0
LINE
  5
12A
  8
DATA
  6
VECTORWORKS_DASH_01
 62
     7
 10
-93.0
 20
373.91529000000003
 30
0.0
 11
-89.0
 21
377.91529000000003
 31
0.0
  0
LINE
  5
12B
  8
DATA
  6
VECTORWORKS_DASH_01
 62
     7
 10
-81.0
 20
377.91529000000003
 30
0.0
 11
-81.0
 21
409.99999000000003
 31
0.0
  0
LINE
  5
12C
  8
DATA
  6
VECTORWORKS_DASH_01
 62
     7
 10
-77.0
 20
373.91529000000003
 30
0.0
 11
-81.0
 21
377.91529000000003
 31
0.0
  0
ARC
  5
12D
  8
DATA
  6
VECTORWORKS_DASH_01
 62
     7
 10
-85.0
 20
389.43749000000003
 30
0.0
 40
17.462489999999988
 50
297.26616470511919
 51
69.554994544110372
  0
ARC
  5
12E
  8
DATA
  6
VECTORWORKS_DASH_01
 62
     7
 10
-85.0
 20
389.43749000000003
 30
0.0
 40
17.462489999999988
 50
110.4450054558896
 51
242.73383529488069
  0
LINE
  5
12F
  8
DATA
  6
VECTORWORKS_DASH_01
 62
     7
 10
-93.0
 20
373.91529000000003
 30
0.0
 11
-77.0
 21
373.91529000000003
 31
0.0
  0
LINE
  5
130
  8
DATA
  6
VECTORWORKS_DASH_01
 62
     7
 10
-76.0
 20
405.79998999999992
 30
0.0
 11
-94.0
 21
405.79998999999992
 31
0.0
  0
LINE
  5
131
  8
DATA
  6
VECTORWORKS_DASH_01
 62
     7
 10
-76.0
 20
405.79998999999992
 30
0.0
 11
-76.0
 21
407.39999
 31
0.0
  0
LINE
  5
132
  8
DATA
  6
VECTORWORKS_DASH_01
 62
     7
 10
-94.0
 20
405.79998999999992
 30
0.0
 11
-94.0
 21
407.39999
 31
0.0
  0
ENDSEC
  0
EOF
