  0
SECTION
  2
HEADER
  9
$ACADVER
  1
AC1009
  9
$INSBASE
 10
0.0
 20
0.0
 30
0.0
  9
$EXTMIN
 10
-350.08239117460653
 20
-986.88329459333454
 30
-0.0033426916993164
  9
$EXTMAX
 10
2350.0824037474599
 20
3027.5676713551261
 30
0.0000000765110713
  9
$LIMMIN
 10
0.0
 20
0.0
  9
$LIMMAX
 10
0.0
 20
0.0
  9
$ORTHOMODE
 70
     0
  9
$REGENMODE
 70
     1
  9
$FILLMODE
 70
     1
  9
$QTEXTMODE
 70
     0
  9
$MIRRTEXT
 70
     1
  9
$DRAGMODE
 70
     2
  9
$LTSCALE
 40
76.200000000000003
  9
$OSMODE
 70
   167
  9
$ATTMODE
 70
     1
  9
$TEXTSIZE
 40
0.0
  9
$TRACEWID
 40
1.0
  9
$TEXTSTYLE
  7
STANDARD
  9
$CLAYER
  8
DATA
  9
$CELTYPE
  6
CONTINUOUS
  9
$CECOLOR
 62
   256
  9
$DIMSCALE
 40
1.0
  9
$DIMASZ
 40
0.18
  9
$DIMEXO
 40
0.0625
  9
$DIMDLI
 40
0.38
  9
$DIMRND
 40
0.0
  9
$DIMDLE
 40
0.0
  9
$DIMEXE
 40
0.18
  9
$DIMTP
 40
0.0
  9
$DIMTM
 40
0.0
  9
$DIMTXT
 40
0.18
  9
$DIMCEN
 40
0.09
  9
$DIMTSZ
 40
0.0
  9
$DIMTOL
 70
     0
  9
$DIMLIM
 70
     0
  9
$DIMTIH
 70
     1
  9
$DIMTOH
 70
     1
  9
$DIMSE1
 70
     0
  9
$DIMSE2
 70
     0
  9
$DIMTAD
 70
     0
  9
$DIMZIN
 70
     0
  9
$DIMBLK
  1

  9
$DIMASO
 70
     1
  9
$DIMSHO
 70
     1
  9
$DIMPOST
  1

  9
$DIMAPOST
  1

  9
$DIMALT
 70
     0
  9
$DIMALTD
 70
     2
  9
$DIMALTF
 40
25.399999999999999
  9
$DIMLFAC
 40
1.0
  9
$DIMTOFL
 70
     0
  9
$DIMTVP
 40
0.0
  9
$DIMTIX
 70
     0
  9
$DIMSOXD
 70
     0
  9
$DIMSAH
 70
     0
  9
$DIMBLK1
  1

  9
$DIMBLK2
  1

  9
$DIMSTYLE
  2
STANDARD
  9
$DIMCLRD
 70
     0
  9
$DIMCLRE
 70
     0
  9
$DIMCLRT
 70
     0
  9
$DIMTFAC
 40
1.0
  9
$DIMGAP
 40
0.09
  9
$LUNITS
 70
     2
  9
$LUPREC
 70
     4
  9
$SKETCHINC
 40
0.1
  9
$FILLETRAD
 40
0.0
  9
$AUNITS
 70
     0
  9
$AUPREC
 70
     0
  9
$MENU
  1
acad
  9
$ELEVATION
 40
0.0
  9
$PELEVATION
 40
0.0
  9
$THICKNESS
 40
0.0
  9
$LIMCHECK
 70
     0
  9
$BLIPMODE
 70
     0
  9
$CHAMFERA
 40
0.0
  9
$CHAMFERB
 40
0.0
  9
$SKPOLY
 70
     0
  9
$TDCREATE
 40
2453404.6926157409
  9
$TDUPDATE
 40
2453404.6938033449
  9
$TDINDWG
 40
0.0002875463
  9
$TDUSRTIMER
 40
0.0002857407
  9
$USRTIMER
 70
     1
  9
$ANGBASE
 50
0.0
  9
$ANGDIR
 70
     0
  9
$PDMODE
 70
     1
  9
$PDSIZE
 40
-2.0
  9
$PLINEWID
 40
0.0
  9
$COORDS
 70
     0
  9
$SPLFRAME
 70
     0
  9
$SPLINETYPE
 70
     6
  9
$SPLINESEGS
 70
     8
  9
$ATTDIA
 70
     0
  9
$ATTREQ
 70
     1
  9
$HANDLING
 70
     1
  9
$HANDSEED
  5
A2D
  9
$SURFTAB1
 70
     6
  9
$SURFTAB2
 70
     6
  9
$SURFTYPE
 70
     6
  9
$SURFU
 70
     6
  9
$SURFV
 70
     6
  9
$UCSNAME
  2

  9
$UCSORG
 10
0.0
 20
0.0
 30
0.0
  9
$UCSXDIR
 10
1.0
 20
0.0
 30
0.0
  9
$UCSYDIR
 10
0.0
 20
1.0
 30
0.0
  9
$PUCSNAME
  2

  9
$PUCSORG
 10
0.0
 20
0.0
 30
0.0
  9
$PUCSXDIR
 10
1.0
 20
0.0
 30
0.0
  9
$PUCSYDIR
 10
0.0
 20
1.0
 30
0.0
  9
$USERI1
 70
     0
  9
$USERI2
 70
     0
  9
$USERI3
 70
     0
  9
$USERI4
 70
     0
  9
$USERI5
 70
     0
  9
$USERR1
 40
0.0
  9
$USERR2
 40
0.0
  9
$USERR3
 40
0.0
  9
$USERR4
 40
0.0
  9
$USERR5
 40
0.0
  9
$WORLDVIEW
 70
     1
  9
$SHADEDGE
 70
     3
  9
$SHADEDIF
 70
    70
  9
$TILEMODE
 70
     1
  9
$MAXACTVP
 70
    64
  9
$PLIMCHECK
 70
     0
  9
$PEXTMIN
 10
1.0000000000000000E+020
 20
1.0000000000000000E+020
 30
1.0000000000000000E+020
  9
$PEXTMAX
 10
-1.0000000000000000E+020
 20
-1.0000000000000000E+020
 30
-1.0000000000000000E+020
  9
$PLIMMIN
 10
0.0
 20
0.0
  9
$PLIMMAX
 10
12.0
 20
9.0
  9
$UNITMODE
 70
     0
  9
$VISRETAIN
 70
     0
  9
$PLINEGEN
 70
     1
  9
$PSLTSCALE
 70
     0
  0
ENDSEC
  0
SECTION
  2
TABLES
  0
TABLE
  2
VPORT
 70
     2
  0
VPORT
  2
*ACTIVE
 70
     0
 10
0.0
 20
0.0
 11
1.0
 21
1.0
 12
1000.000006286427
 22
1020.342188380895
 13
0.0
 23
0.0
 14
1.0
 24
1.0
 15
0.0
 25
0.0
 16
0.0
 26
0.0
 36
1.0
 17
0.0
 27
0.0
 37
0.0
 40
4047.2219942419169
 41
1.6430517711171659
 42
50.0
 43
0.0
 44
0.0
 50
0.0
 51
0.0
 71
     0
 72
  2000
 73
     1
 74
     1
 75
     0
 76
     0
 77
     0
 78
     0
  0
ENDTAB
  0
TABLE
  2
LTYPE
 70
    11
  0
LTYPE
  2
CONTINUOUS
 70
     0
  3
Solid line
 72
    65
 73
     0
 40
0.0
  0
LTYPE
  2
STYLE_01
 70
     0
  3

 72
    65
 73
     2
 40
0.4166412353515625
 49
0.208282470703125
 49
-0.2083587646484375
  0
ENDTAB
  0
TABLE
  2
LAYER
 70
     6
  0
LAYER
  2
0
 70
     0
 62
     7
  6
CONTINUOUS
  0
LAYER
  2
DATA
 70
     0
 62
     7
  6
CONTINUOUS
  0
LAYER
  2
HIBINO-BASE
 70
     0
 62
     7
  6
CONTINUOUS
  0
LAYER
  2
PATTERN_FILL
 70
     0
 62
     7
  6
CONTINUOUS
  0
LAYER
  2
SPEC
 70
     0
 62
     7
  6
CONTINUOUS
  0
LAYER
  2
DIMNSIONS
 70
     0
 62
     7
  6
CONTINUOUS
  0
ENDTAB
  0
TABLE
  2
STYLE
 70
     2
  0
STYLE
  2
STANDARD
 70
     0
 40
0.0
 41
1.0
 50
0.0
 71
     0
 42
0.0
  3
txt
  4
BIGFONT.SHX
  0
ENDTAB
  0
TABLE
  2
VIEW
 70
     0
  0
ENDTAB
  0
TABLE
  2
UCS
 70
     0
  0
ENDTAB
  0
TABLE
  2
APPID
 70
     1
  0
APPID
  2
ACAD
 70
     0
  0
ENDTAB
  0
TABLE
  2
DIMSTYLE
 70
     1
  0
DIMSTYLE
  2
STANDARD
 70
     0
  3

  4

  5

  6

  7

 40
1.0
 41
0.18
 42
0.0625
 43
0.38
 44
0.18
 45
0.0
 46
0.0
 47
0.0
 48
0.0
140
0.18
141
0.09
142
0.0
143
25.399999999999999
144
1.0
145
0.0
146
1.0
147
0.09
 71
     0
 72
     0
 73
     1
 74
     1
 75
     0
 76
     0
 77
     0
 78
     0
170
     0
171
     2
172
     0
173
     0
174
     0
175
     0
176
     0
177
     0
178
     0
  0
ENDTAB
  0
ENDSEC
  0
SECTION
  2
BLOCKS
  0
BLOCK
  8
0
  2
$MODEL_SPACE
 70
     0
 10
0.0
 20
0.0
 30
0.0
  3
$MODEL_SPACE
  1

  0
ENDBLK
  5
9BD
  8
0
  0
BLOCK
 67
     1
  8
0
  2
$PAPER_SPACE
 70
     0
 10
0.0
 20
0.0
 30
0.0
  3
$PAPER_SPACE
  1

  0
ENDBLK
  5
9B9
 67
     1
  8
0
  0
BLOCK
  8
PATTERN_FILL
  2
____
 70
     0
 10
0.0
 20
0.0
 30
0.0
  3
____
  1

  0
LINE
  5
32
  8
0
  6
CONTINUOUS
 62
     7
 10
-45.525126265846822
 20
712.35355339059345
 30
0.0
 11
-40.853553390593071
 21
717.02512626584735
 31
0.0
  0
LINE
  5
33
  8
0
  6
CONTINUOUS
 62
     7
 10
-46.282485578727652
 20
709.47487373415333
 30
0.0
 11
-37.974873734152851
 21
717.78248557872803
 31
0.0
  0
LINE
  5
34
  8
0
  6
CONTINUOUS
 62
     7
 10
-45.661165235167992
 20
707.97487373415333
 30
0.0
 11
-36.47487373415283
 21
717.16116523516826
 31
0.0
  0
LINE
  5
35
  8
0
  6
CONTINUOUS
 62
     7
 10
-45.039844891608382
 20
706.47487373415333
 30
0.0
 11
-34.974873734152887
 21
716.53984489160871
 31
0.0
  0
LINE
  5
36
  8
0
  6
CONTINUOUS
 62
     7
 10
-44.418524548048772
 20
704.97487373415333
 30
0.0
 11
-33.474873734152943
 21
715.91852454804916
 31
0.0
  0
LINE
  5
37
  8
0
  6
CONTINUOUS
 62
     7
 10
-43.28858223313776
 20
703.98349570550465
 30
0.0
 11
-32.483495705504332
 21
714.78858223313807
 31
0.0
  0
LINE
  5
38
  8
0
  6
CONTINUOUS
 62
     7
 10
-41.788582233137817
 20
703.36217536194522
 30
0.0
 11
-31.862175361944711
 21
713.28858223313796
 31
0.0
  0
LINE
  5
39
  8
0
  6
CONTINUOUS
 62
     7
 10
-40.288582233137788
 20
702.74085501838545
 30
0.0
 11
-31.240855018385069
 21
711.78858223313807
 31
0.0
  0
LINE
  5
3A
  8
0
  6
CONTINUOUS
 62
     7
 10
-38.788582233137852
 20
702.1195346748259
 30
0.0
 11
-30.619534674825449
 21
710.2885822331383
 31
0.0
  0
LINE
  5
3B
  8
0
  6
CONTINUOUS
 62
     7
 10
-35.575378797542001
 20
703.21141776686216
 30
0.0
 11
-31.711417766861651
 21
707.07537879754261
 31
0.0
  0
ENDBLK
  5
3C
  8
PATTERN_FILL
  0
BLOCK
  8
PATTERN_FILL
  2
____-1
 70
     0
 10
0.0
 20
0.0
 30
0.0
  3
____-1
  1

  0
LINE
  5
3E
  8
0
  6
CONTINUOUS
 62
     7
 10
130.34314575050769
 20
714.44974746830644
 30
0.0
 11
132.0502525316939
 21
716.15685424949231
 31
0.0
  0
LINE
  5
3F
  8
0
  6
CONTINUOUS
 62
     7
 10
128.84314575050769
 20
710.82842712474655
 30
0.0
 11
135.6715728752535
 21
717.65685424949231
 31
0.0
  0
LINE
  5
40
  8
0
  6
CONTINUOUS
 62
     7
 10
128.9791847198286
 20
708.84314575050792
 30
0.0
 11
137.65685424949231
 21
717.52081528017163
 31
0.0
  0
LINE
  5
41
  8
0
  6
CONTINUOUS
 62
     7
 10
129.6005050633882
 20
707.34314575050792
 30
0.0
 11
139.1568542494922
 21
716.89949493661186
 31
0.0
  0
LINE
  5
42
  8
0
  6
CONTINUOUS
 62
     7
 10
130.22182540694789
 20
705.84314575050792
 30
0.0
 11
140.6568542494922
 21
716.27817459305231
 31
0.0
  0
LINE
  5
43
  8
0
  6
CONTINUOUS
 62
     7
 10
130.84314575050729
 20
704.34314575050792
 30
0.0
 11
142.1568542494922
 21
715.65685424949277
 31
0.0
  0
LINE
  5
44
  8
0
  6
CONTINUOUS
 62
     7
 10
132.34314575050729
 20
703.72182540694826
 30
0.0
 11
142.77817459305189
 21
714.15685424949299
 31
0.0
  0
LINE
  5
45
  8
0
  6
CONTINUOUS
 62
     7
 10
133.8431457505072
 20
703.10050506338882
 30
0.0
 11
143.39949493661149
 21
712.65685424949288
 31
0.0
  0
LINE
  5
46
  8
0
  6
CONTINUOUS
 62
     7
 10
135.34314575050729
 20
702.47918471982894
 30
0.0
 11
144.02081528017121
 21
711.15685424949288
 31
0.0
  0
LINE
  5
47
  8
0
  6
CONTINUOUS
 62
     7
 10
137.3284271247451
 20
702.34314575050735
 30
0.0
 11
144.15685424949271
 21
709.1715728752547
 31
0.0
  0
LINE
  5
48
  8
0
  6
CONTINUOUS
 62
     7
 10
140.94974746830479
 20
703.84314575050735
 30
0.0
 11
142.65685424949271
 21
705.55025253169526
 31
0.0
  0
ENDBLK
  5
49
  8
PATTERN_FILL
  0
BLOCK
  8
PATTERN_FILL
  2
____-2
 70
     0
 10
0.0
 20
0.0
 30
0.0
  3
____-2
  1

  0
LINE
  5
4B
  8
0
  6
CONTINUOUS
 62
     7
 10
4.7972042044891552
 20
613.13172798364553
 30
0.0
 11
8.3682720163548616
 21
616.70279579551095
 31
0.0
  0
LINE
  5
4C
  8
0
  6
CONTINUOUS
 62
     7
 10
3.584000768892813
 20
609.79720420448939
 30
0.0
 11
11.702795795510831
 21
617.91599923110743
 31
0.0
  0
LINE
  5
4D
  8
0
  6
CONTINUOUS
 62
     7
 10
4.2053211124524248
 20
608.2972042044895
 30
0.0
 11
13.20279579551077
 21
617.29467888754778
 31
0.0
  0
LINE
  5
4E
  8
0
  6
CONTINUOUS
 62
     7
 10
4.8266414560120356
 20
606.79720420448939
 30
0.0
 11
14.70279579551072
 21
616.67335854398812
 31
0.0
  0
LINE
  5
4F
  8
0
  6
CONTINUOUS
 62
     7
 10
5.4479617995716811
 20
605.2972042044895
 30
0.0
 11
16.202795795510749
 21
616.05203820042846
 31
0.0
  0
LINE
  5
50
  8
0
  6
CONTINUOUS
 62
     7
 10
6.3890872965258412
 20
604.11700935788406
 30
0.0
 11
17.382990642116091
 21
615.11091270347436
 31
0.0
  0
LINE
  5
51
  8
0
  6
CONTINUOUS
 62
     7
 10
7.889087296525866
 20
603.49568901432451
 30
0.0
 11
18.00431098567574
 21
613.61091270347436
 31
0.0
  0
LINE
  5
52
  8
0
  6
CONTINUOUS
 62
     7
 10
9.3890872965258101
 20
602.87436867076485
 30
0.0
 11
18.62563132923534
 21
612.11091270347436
 31
0.0
  0
LINE
  5
53
  8
0
  6
CONTINUOUS
 62
     7
 10
10.88908729652575
 20
602.25304832720531
 30
0.0
 11
19.24695167279496
 21
610.61091270347436
 31
0.0
  0
LINE
  5
54
  8
0
  6
CONTINUOUS
 62
     7
 10
13.646446609406141
 20
602.88908729652587
 30
0.0
 11
18.610912703474192
 21
607.85355339059402
 31
0.0
  0
ENDBLK
  5
55
  8
PATTERN_FILL
  0
BLOCK
  8
PATTERN_FILL
  2
____-3
 70
     0
 10
0.0
 20
0.0
 30
0.0
  3
____-3
  1

  0
LINE
  5
57
  8
0
  6
CONTINUOUS
 62
     7
 10
79.797204204488807
 20
613.13172798364496
 30
0.0
 11
83.368272016354979
 21
616.70279579551129
 31
0.0
  0
LINE
  5
58
  8
0
  6
CONTINUOUS
 62
     7
 10
78.584000768892665
 20
609.79720420448905
 30
0.0
 11
86.702795795510767
 21
617.91599923110709
 31
0.0
  0
LINE
  5
59
  8
0
  6
CONTINUOUS
 62
     7
 10
79.205321112452253
 20
608.29720420448928
 30
0.0
 11
88.202795795510696
 21
617.29467888754755
 31
0.0
  0
LINE
  5
5A
  8
0
  6
CONTINUOUS
 62
     7
 10
79.82664145601187
 20
606.79720420448928
 30
0.0
 11
89.70279579551061
 21
616.67335854398812
 31
0.0
  0
LINE
  5
5B
  8
0
  6
CONTINUOUS
 62
     7
 10
80.44796179957153
 20
605.29720420448939
 30
0.0
 11
91.202795795510639
 21
616.05203820042846
 31
0.0
  0
LINE
  5
5C
  8
0
  6
CONTINUOUS
 62
     7
 10
81.38908729652573
 20
604.11700935788406
 30
0.0
 11
92.382990642115928
 21
615.11091270347424
 31
0.0
  0
LINE
  5
5D
  8
0
  6
CONTINUOUS
 62
     7
 10
82.889087296525702
 20
603.49568901432417
 30
0.0
 11
93.004310985675545
 21
613.61091270347424
 31
0.0
  0
LINE
  5
5E
  8
0
  6
CONTINUOUS
 62
     7
 10
84.389087296525702
 20
602.87436867076485
 30
0.0
 11
93.625631329235205
 21
612.11091270347424
 31
0.0
  0
LINE
  5
5F
  8
0
  6
CONTINUOUS
 62
     7
 10
85.889087296525645
 20
602.25304832720531
 30
0.0
 11
94.246951672794822
 21
610.61091270347436
 31
0.0
  0
LINE
  5
60
  8
0
  6
CONTINUOUS
 62
     7
 10
88.64644660940607
 20
602.8890872965261
 30
0.0
 11
93.610912703473943
 21
607.8535533905939
 31
0.0
  0
ENDBLK
  5
61
  8
PATTERN_FILL
  0
ENDSEC
  0
SECTION
  2
ENTITIES
  0
LINE
  5
62
  8
HIBINO-BASE
  6
CONTINUOUS
 62
     7
 10
-349.99999999999977
 20
3027.4454099999998
 30
0.0
 11
2350.0
 21
3027.4454099999998
 31
0.0
  0
LINE
  5
63
  8
HIBINO-BASE
  6
CONTINUOUS
 62
     7
 10
2350.0
 20
-872.5545900000003
 30
0.0
 11
-349.99999999999977
 21
-872.5545900000003
 31
0.0
  0
LINE
  5
64
  8
HIBINO-BASE
  6
CONTINUOUS
 62
     7
 10
-349.99999999999977
 20
-872.5545900000003
 30
0.0
 11
-349.99999999999977
 21
3027.4454099999998
 31
0.0
  0
TEXT
  5
65
  8
HIBINO-BASE
 62
     7
 10
-242.2399999999997
 20
-968.6847570000001
 30
0.0
 40
54.000662695312492
  1
Hibino Corporation
 41
0.85
 11
-242.2399999999997
 21
-914.68409430468773
 31
0.0
 73
     3
  0
LINE
  5
66
  8
HIBINO-BASE
  6
CONTINUOUS
 62
     7
 10
2350.0
 20
3027.4454099999998
 30
0.0
 11
2350.0
 21
-872.5545900000003
 31
0.0
  0
LINE
  5
67
  8
HIBINO-BASE
  6
CONTINUOUS
 62
     7
 10
1000.0
 20
-535.05459000000008
 30
0.0
 11
2350.0
 21
-535.05459000000008
 31
0.0
  0
LINE
  5
68
  8
HIBINO-BASE
  6
CONTINUOUS
 62
     7
 10
1000.0
 20
-872.5545900000003
 30
0.0
 11
1000.0
 21
-535.05459000000008
 31
0.0
  0
TEXT
  5
69
  8
HIBINO-BASE
 62
     7
 10
1013.5
 20
-572.6849900000002
 30
0.0
 40
24.4326171875
  1
NOTE
 41
0.85
 11
1013.5
 21
-548.25237281250008
 31
0.0
 73
     3
  0
LINE
  5
6A
  8
HIBINO-BASE
  6
CONTINUOUS
 62
     7
 10
1525.0
 20
-872.5545900000003
 30
0.0
 11
1525.0
 21
-535.05459000000008
 31
0.0
  0
TEXT
  5
6B
  8
HIBINO-BASE
 62
     7
 10
1538.5
 20
-572.6849900000002
 30
0.0
 40
24.4326171875
  1
TITLE
 41
0.85
 11
1538.5
 21
-548.25237281250008
 31
0.0
 73
     3
  0
TEXT
  5
6C
  8
HIBINO-BASE
 62
     7
 10
1751.02585
 20
-968.6847570000001
 30
0.0
 40
54.000662695312492
  1
ヒビノ株式会社
 41
0.85
 11
1751.02585
 21
-914.68409430468773
 31
0.0
 73
     3
  0
LINE
  5
6D
  8
HIBINO-BASE
  6
CONTINUOUS
 62
     7
 10
1000.0
 20
-722.55459000000019
 30
0.0
 11
2350.0
 21
-722.55459000000019
 31
0.0
  0
TEXT
  5
6E
  8
HIBINO-BASE
 62
     7
 10
1726.0
 20
-759.34019000000035
 30
0.0
 40
24.4326171875
  1
DRAWN
 41
0.85
 11
1726.0
 21
-734.90757281250035
 31
0.0
 73
     3
  0
TEXT
  5
6F
  8
HIBINO-BASE
 62
     7
 10
1351.0
 20
-759.34019000000035
 30
0.0
 40
24.4326171875
  1
DATE
 41
0.85
 11
1351.0
 21
-734.90757281250035
 31
0.0
 73
     3
  0
TEXT
  5
70
  8
HIBINO-BASE
 62
     7
 10
1016.5
 20
-761.84643300000005
 30
0.0
 40
24.432655664062501
  1
図面サイズ
 41
0.85
 11
1016.5
 21
-737.41377733593754
 31
0.0
 73
     3
  0
TEXT
  5
71
  8
HIBINO-BASE
 62
     7
 10
1201.0
 20
-759.34019000000035
 30
0.0
 40
24.4326171875
  1
SCALE
 41
0.85
 11
1201.0
 21
-734.90757281250035
 31
0.0
 73
     3
  0
TEXT
  5
72
  8
HIBINO-BASE
 62
     7
 10
1538.5
 20
-759.34019000000035
 30
0.0
 40
24.4326171875
  1
DESIGN
 41
0.85
 11
1538.5
 21
-734.90757281250035
 31
0.0
 73
     3
  0
TEXT
  5
73
  8
HIBINO-BASE
 62
     7
 10
2101.0
 20
-759.34019000000035
 30
0.0
 40
24.4326171875
  1
DRAWING NO.
 41
0.85
 11
2101.0
 21
-734.90757281250035
 31
0.0
 73
     3
  0
TEXT
  5
74
  8
HIBINO-BASE
 62
     7
 10
1913.5
 20
-759.34019000000035
 30
0.0
 40
24.4326171875
  1
CHECK
 41
0.85
 11
1913.5
 21
-734.90757281250035
 31
0.0
 73
     3
  0
LINE
  5
75
  8
HIBINO-BASE
  6
CONTINUOUS
 62
     7
 10
1215.625
 20
-853.8045900000003
 30
0.0
 11
1271.875
 21
-797.55459000000019
 31
0.0
  0
TEXT
  5
76
  8
HIBINO-BASE
 62
     7
 10
1206.25
 20
-814.18874000000005
 30
0.0
 40
24.4326171875
  1
1
 41
0.85
 11
1206.25
 21
-789.75612281250017
 31
0.0
 73
     3
  0
LINE
  5
77
  8
HIBINO-BASE
  6
CONTINUOUS
 62
     7
 10
1187.5
 20
-872.5545900000003
 30
0.0
 11
1187.5
 21
-722.55459000000019
 31
0.0
  0
LINE
  5
78
  8
HIBINO-BASE
  6
CONTINUOUS
 62
     7
 10
1337.5
 20
-872.5545900000003
 30
0.0
 11
1337.5
 21
-722.55459000000019
 31
0.0
  0
LINE
  5
79
  8
HIBINO-BASE
  6
CONTINUOUS
 62
     7
 10
1712.5
 20
-722.55459000000019
 30
0.0
 11
1712.5
 21
-872.5545900000003
 31
0.0
  0
LINE
  5
7A
  8
HIBINO-BASE
  6
CONTINUOUS
 62
     7
 10
2087.5
 20
-722.55459000000019
 30
0.0
 11
2087.5
 21
-872.5545900000003
 31
0.0
  0
LINE
  5
7B
  8
HIBINO-BASE
  6
CONTINUOUS
 62
     7
 10
1900.0
 20
-872.5545900000003
 30
0.0
 11
1900.0
 21
-722.55459000000019
 31
0.0
  0
TEXT
  5
7C
  8
HIBINO-BASE
 62
     7
 10
1350.3480999999999
 20
-829.59989000000041
 30
0.0
 40
24.4326171875
  1
'04.08.
 41
0.85
 11
1350.3480999999999
 21
-805.1672728125003
 31
0.0
 73
     3
  0
TEXT
  5
7D
  8
HIBINO-BASE
 62
     7
 10
1262.5
 20
-842.31374000000005
 30
0.0
 40
24.4326171875
  1
15
 41
0.85
 11
1262.5
 21
-817.88112281250005
 31
0.0
 73
     3
  0
TEXT
  5
7E
  8
HIBINO-BASE
 62
     7
 10
1735.087150165519
 20
-829.59989000000041
 30
0.0
 40
24.4326171875
  1
N.Sasaki
 41
0.85
 11
1735.087150165519
 21
-805.1672728125003
 31
0.0
 73
     3
  0
TEXT
  5
7F
  8
HIBINO-BASE
 62
     7
 10
1058.25
 20
-842.91459000000009
 30
0.0
 40
48.865234374999993
  1
A4
 41
0.85
 11
1058.25
 21
-794.0493556250002
 31
0.0
 73
     3
  0
TEXT
  5
80
  8
HIBINO-BASE
 62
     7
 10
1952.375
 20
-829.59989000000041
 30
0.0
 40
24.4326171875
  1
T.Taki
 41
0.85
 11
1952.375
 21
-805.1672728125003
 31
0.0
 73
     3
  0
CIRCLE
  5
81
  8
PATTERN_FILL
  6
CONTINUOUS
 62
     7
 10
42.0
 20
34.450000000000962
 30
0.0
 40
3.0
  0
CIRCLE
  5
82
  8
PATTERN_FILL
  6
CONTINUOUS
 62
     7
 10
49.899999999999977
 20
34.450000000000962
 30
0.0
 40
3.0
  0
CIRCLE
  5
83
  8
PATTERN_FILL
  6
CONTINUOUS
 62
     7
 10
57.799999999999962
 20
34.450000000000962
 30
0.0
 40
3.0
  0
CIRCLE
  5
84
  8
PATTERN_FILL
  6
CONTINUOUS
 62
     7
 10
65.700000000000045
 20
34.450000000000962
 30
0.0
 40
3.0
  0
CIRCLE
  5
85
  8
PATTERN_FILL
  6
CONTINUOUS
 62
     7
 10
73.600000000000023
 20
34.450000000000962
 30
0.0
 40
3.0
  0
CIRCLE
  5
86
  8
PATTERN_FILL
  6
CONTINUOUS
 62
     7
 10
81.5
 20
34.450000000000962
 30
0.0
 40
3.0
  0
CIRCLE
  5
87
  8
PATTERN_FILL
  6
CONTINUOUS
 62
     7
 10
89.399999999999949
 20
34.450000000000962
 30
0.0
 40
3.0
  0
CIRCLE
  5
88
  8
PATTERN_FILL
  6
CONTINUOUS
 62
     7
 10
97.299999999999955
 20
34.450000000000962
 30
0.0
 40
3.0
  0
CIRCLE
  5
89
  8
PATTERN_FILL
  6
CONTINUOUS
 62
     7
 10
105.2
 20
34.450000000000962
 30
0.0
 40
3.0
  0
CIRCLE
  5
8A
  8
PATTERN_FILL
  6
CONTINUOUS
 62
     7
 10
113.09999999999999
 20
34.450000000000962
 30
0.0
 40
3.0
  0
CIRCLE
  5
8B
  8
PATTERN_FILL
  6
CONTINUOUS
 62
     7
 10
121.0
 20
34.450000000000962
 30
0.0
 40
3.0
  0
CIRCLE
  5
8C
  8
PATTERN_FILL
  6
CONTINUOUS
 62
     7
 10
128.89999999999989
 20
34.450000000000962
 30
0.0
 40
3.0
  0
CIRCLE
  5
8D
  8
PATTERN_FILL
  6
CONTINUOUS
 62
     7
 10
136.7999999999999
 20
34.450000000000962
 30
0.0
 40
3.0
  0
CIRCLE
  5
8E
  8
PATTERN_FILL
  6
CONTINUOUS
 62
     7
 10
144.69999999999999
 20
34.450000000000962
 30
0.0
 40
3.0
  0
CIRCLE
  5
8F
  8
PATTERN_FILL
  6
CONTINUOUS
 62
     7
 10
152.59999999999999
 20
34.450000000000962
 30
0.0
 40
3.0
  0
CIRCLE
  5
90
  8
PATTERN_FILL
  6
CONTINUOUS
 62
     7
 10
160.5
 20
34.450000000000962
 30
0.0
 40
3.0
  0
CIRCLE
  5
91
  8
PATTERN_FILL
  6
CONTINUOUS
 62
     7
 10
168.40000000000009
 20
34.450000000000962
 30
0.0
 40
3.0
  0
CIRCLE
  5
92
  8
PATTERN_FILL
  6
CONTINUOUS
 62
     7
 10
176.30000000000001
 20
34.450000000000962
 30
0.0
 40
3.0
  0
CIRCLE
  5
93
  8
PATTERN_FILL
  6
CONTINUOUS
 62
     7
 10
184.19999999999999
 20
34.450000000000962
 30
0.0
 40
3.0
  0
CIRCLE
  5
94
  8
PATTERN_FILL
  6
CONTINUOUS
 62
     7
 10
192.09999999999999
 20
34.450000000000962
 30
0.0
 40
3.0
  0
CIRCLE
  5
95
  8
PATTERN_FILL
  6
CONTINUOUS
 62
     7
 10
200.0
 20
34.450000000000962
 30
0.0
 40
3.0
  0
CIRCLE
  5
96
  8
PATTERN_FILL
  6
CONTINUOUS
 62
     7
 10
207.90000000000009
 20
34.450000000000962
 30
0.0
 40
3.0
  0
CIRCLE
  5
97
  8
PATTERN_FILL
  6
CONTINUOUS
 62
     7
 10
215.8000000000001
 20
34.450000000000962
 30
0.0
 40
3.0
  0
CIRCLE
  5
98
  8
PATTERN_FILL
  6
CONTINUOUS
 62
     7
 10
223.69999999999999
 20
34.450000000000962
 30
0.0
 40
3.0
  0
CIRCLE
  5
99
  8
PATTERN_FILL
  6
CONTINUOUS
 62
     7
 10
231.60000000000011
 20
34.450000000000962
 30
0.0
 40
3.0
  0
CIRCLE
  5
9A
  8
PATTERN_FILL
  6
CONTINUOUS
 62
     7
 10
239.50000000000011
 20
34.450000000000962
 30
0.0
 40
3.0
  0
CIRCLE
  5
9B
  8
PATTERN_FILL
  6
CONTINUOUS
 62
     7
 10
42.0
 20
48.100000000000819
 30
0.0
 40
3.0
  0
CIRCLE
  5
9C
  8
PATTERN_FILL
  6
CONTINUOUS
 62
     7
 10
42.0
 20
61.750000000000888
 30
0.0
 40
3.0
  0
CIRCLE
  5
9D
  8
PATTERN_FILL
  6
CONTINUOUS
 62
     7
 10
42.0
 20
75.400000000001
 30
0.0
 40
3.0
  0
CIRCLE
  5
9E
  8
PATTERN_FILL
  6
CONTINUOUS
 62
     7
 10
42.0
 20
89.050000000000864
 30
0.0
 40
3.0
  0
CIRCLE
  5
9F
  8
PATTERN_FILL
  6
CONTINUOUS
 62
     7
 10
42.0
 20
102.7000000000009
 30
0.0
 40
3.0
  0
CIRCLE
  5
A0
  8
PATTERN_FILL
  6
CONTINUOUS
 62
     7
 10
42.0
 20
116.3500000000008
 30
0.0
 40
3.0
  0
CIRCLE
  5
A1
  8
PATTERN_FILL
  6
CONTINUOUS
 62
     7
 10
42.0
 20
130.00000000000091
 30
0.0
 40
3.0
  0
CIRCLE
  5
A2
  8
PATTERN_FILL
  6
CONTINUOUS
 62
     7
 10
42.0
 20
143.650000000001
 30
0.0
 40
3.0
  0
CIRCLE
  5
A3
  8
PATTERN_FILL
  6
CONTINUOUS
 62
     7
 10
42.0
 20
157.30000000000081
 30
0.0
 40
3.0
  0
CIRCLE
  5
A4
  8
PATTERN_FILL
  6
CONTINUOUS
 62
     7
 10
42.0
 20
170.95000000000101
 30
0.0
 40
3.0
  0
CIRCLE
  5
A5
  8
PATTERN_FILL
  6
CONTINUOUS
 62
     7
 10
42.0
 20
184.60000000000099
 30
0.0
 40
3.0
  0
CIRCLE
  5
A6
  8
PATTERN_FILL
  6
CONTINUOUS
 62
     7
 10
42.0
 20
198.2500000000008
 30
0.0
 40
3.0
  0
CIRCLE
  5
A7
  8
PATTERN_FILL
  6
CONTINUOUS
 62
     7
 10
42.0
 20
211.900000000001
 30
0.0
 40
3.0
  0
CIRCLE
  5
A8
  8
PATTERN_FILL
  6
CONTINUOUS
 62
     7
 10
42.0
 20
225.55000000000081
 30
0.0
 40
3.0
  0
CIRCLE
  5
A9
  8
PATTERN_FILL
  6
CONTINUOUS
 62
     7
 10
42.0
 20
239.2000000000009
 30
0.0
 40
3.0
  0
CIRCLE
  5
AA
  8
PATTERN_FILL
  6
CONTINUOUS
 62
     7
 10
42.0
 20
252.85000000000099
 30
0.0
 40
3.0
  0
CIRCLE
  5
AB
  8
PATTERN_FILL
  6
CONTINUOUS
 62
     7
 10
42.0
 20
266.5000000000008
 30
0.0
 40
3.0
  0
CIRCLE
  5
AC
  8
PATTERN_FILL
  6
CONTINUOUS
 62
     7
 10
42.0
 20
280.150000000001
 30
0.0
 40
3.0
  0
CIRCLE
  5
AD
  8
PATTERN_FILL
  6
CONTINUOUS
 62
     7
 10
42.0
 20
293.80000000000109
 30
0.0
 40
3.0
  0
CIRCLE
  5
AE
  8
PATTERN_FILL
  6
CONTINUOUS
 62
     7
 10
42.0
 20
307.45000000000101
 30
0.0
 40
3.0
  0
CIRCLE
  5
AF
  8
PATTERN_FILL
  6
CONTINUOUS
 62
     7
 10
42.0
 20
321.10000000000099
 30
0.0
 40
3.0
  0
CIRCLE
  5
B0
  8
PATTERN_FILL
  6
CONTINUOUS
 62
     7
 10
42.0
 20
334.75000000000091
 30
0.0
 40
3.0
  0
CIRCLE
  5
B1
  8
PATTERN_FILL
  6
CONTINUOUS
 62
     7
 10
42.0
 20
348.400000000001
 30
0.0
 40
3.0
  0
CIRCLE
  5
B2
  8
PATTERN_FILL
  6
CONTINUOUS
 62
     7
 10
42.0
 20
362.05000000000092
 30
0.0
 40
3.0
  0
CIRCLE
  5
B3
  8
PATTERN_FILL
  6
CONTINUOUS
 62
     7
 10
42.0
 20
375.7000000000009
 30
0.0
 40
3.0
  0
CIRCLE
  5
B4
  8
PATTERN_FILL
  6
CONTINUOUS
 62
     7
 10
42.0
 20
389.35000000000082
 30
0.0
 40
3.0
  0
CIRCLE
  5
B5
  8
PATTERN_FILL
  6
CONTINUOUS
 62
     7
 10
42.0
 20
403.0000000000008
 30
0.0
 40
3.0
  0
CIRCLE
  5
B6
  8
PATTERN_FILL
  6
CONTINUOUS
 62
     7
 10
42.0
 20
416.65000000000077
 30
0.0
 40
3.0
  0
CIRCLE
  5
B7
  8
PATTERN_FILL
  6
CONTINUOUS
 62
     7
 10
42.0
 20
430.30000000000081
 30
0.0
 40
3.0
  0
CIRCLE
  5
B8
  8
PATTERN_FILL
  6
CONTINUOUS
 62
     7
 10
42.0
 20
443.95000000000073
 30
0.0
 40
3.0
  0
CIRCLE
  5
B9
  8
PATTERN_FILL
  6
CONTINUOUS
 62
     7
 10
42.0
 20
457.60000000000082
 30
0.0
 40
3.0
  0
CIRCLE
  5
BA
  8
PATTERN_FILL
  6
CONTINUOUS
 62
     7
 10
42.0
 20
471.25000000000068
 30
0.0
 40
3.0
  0
CIRCLE
  5
BB
  8
PATTERN_FILL
  6
CONTINUOUS
 62
     7
 10
42.0
 20
484.90000000000077
 30
0.0
 40
3.0
  0
CIRCLE
  5
BC
  8
PATTERN_FILL
  6
CONTINUOUS
 62
     7
 10
42.0
 20
498.55000000000058
 30
0.0
 40
3.0
  0
CIRCLE
  5
BD
  8
PATTERN_FILL
  6
CONTINUOUS
 62
     7
 10
42.0
 20
512.20000000000061
 30
0.0
 40
3.0
  0
CIRCLE
  5
BE
  8
PATTERN_FILL
  6
CONTINUOUS
 62
     7
 10
42.0
 20
525.85000000000002
 30
0.0
 40
3.0
  0
CIRCLE
  5
BF
  8
PATTERN_FILL
  6
CONTINUOUS
 62
     7
 10
42.0
 20
539.5
 30
0.0
 40
3.0
  0
CIRCLE
  5
C0
  8
PATTERN_FILL
  6
CONTINUOUS
 62
     7
 10
45.950000000000053
 20
41.275000000000993
 30
0.0
 40
3.0
  0
CIRCLE
  5
C1
  8
PATTERN_FILL
  6
CONTINUOUS
 62
     7
 10
53.850000000000009
 20
41.275000000000993
 30
0.0
 40
3.0
  0
CIRCLE
  5
C2
  8
PATTERN_FILL
  6
CONTINUOUS
 62
     7
 10
61.750000000000107
 20
41.275000000000993
 30
0.0
 40
3.0
  0
CIRCLE
  5
C3
  8
PATTERN_FILL
  6
CONTINUOUS
 62
     7
 10
69.650000000000091
 20
41.275000000000993
 30
0.0
 40
3.0
  0
CIRCLE
  5
C4
  8
PATTERN_FILL
  6
CONTINUOUS
 62
     7
 10
77.550000000000054
 20
41.275000000000993
 30
0.0
 40
3.0
  0
CIRCLE
  5
C5
  8
PATTERN_FILL
  6
CONTINUOUS
 62
     7
 10
85.450000000000031
 20
41.275000000000993
 30
0.0
 40
3.0
  0
CIRCLE
  5
C6
  8
PATTERN_FILL
  6
CONTINUOUS
 62
     7
 10
93.350000000000023
 20
41.275000000000993
 30
0.0
 40
3.0
  0
CIRCLE
  5
C7
  8
PATTERN_FILL
  6
CONTINUOUS
 62
     7
 10
101.2500000000001
 20
41.275000000000993
 30
0.0
 40
3.0
  0
CIRCLE
  5
C8
  8
PATTERN_FILL
  6
CONTINUOUS
 62
     7
 10
109.15000000000011
 20
41.275000000000993
 30
0.0
 40
3.0
  0
CIRCLE
  5
C9
  8
PATTERN_FILL
  6
CONTINUOUS
 62
     7
 10
117.05
 20
41.275000000000993
 30
0.0
 40
3.0
  0
CIRCLE
  5
CA
  8
PATTERN_FILL
  6
CONTINUOUS
 62
     7
 10
124.95
 20
41.275000000000993
 30
0.0
 40
3.0
  0
CIRCLE
  5
CB
  8
PATTERN_FILL
  6
CONTINUOUS
 62
     7
 10
132.84999999999999
 20
41.275000000000993
 30
0.0
 40
3.0
  0
CIRCLE
  5
CC
  8
PATTERN_FILL
  6
CONTINUOUS
 62
     7
 10
140.75000000000011
 20
41.275000000000993
 30
0.0
 40
3.0
  0
CIRCLE
  5
CD
  8
PATTERN_FILL
  6
CONTINUOUS
 62
     7
 10
148.65000000000009
 20
41.275000000000993
 30
0.0
 40
3.0
  0
CIRCLE
  5
CE
  8
PATTERN_FILL
  6
CONTINUOUS
 62
     7
 10
156.5500000000001
 20
41.275000000000993
 30
0.0
 40
3.0
  0
CIRCLE
  5
CF
  8
PATTERN_FILL
  6
CONTINUOUS
 62
     7
 10
164.4500000000001
 20
41.275000000000993
 30
0.0
 40
3.0
  0
CIRCLE
  5
D0
  8
PATTERN_FILL
  6
CONTINUOUS
 62
     7
 10
172.35000000000011
 20
41.275000000000993
 30
0.0
 40
3.0
  0
ARC
  5
D1
  8
PATTERN_FILL
  6
CONTINUOUS
 62
     7
 10
180.25000000000011
 20
41.275000000000993
 30
0.0
 40
3.0000000000000902
 50
144.90036780467881
 51
35.099632195321171
  0
ARC
  5
D2
  8
PATTERN_FILL
  6
CONTINUOUS
 62
     7
 10
188.15000000000001
 20
41.275000000000993
 30
0.0
 40
2.9999999999999378
 50
144.90036780509081
 51
35.09963219490924
  0
ARC
  5
D3
  8
PATTERN_FILL
  6
CONTINUOUS
 62
     7
 10
196.0500000000001
 20
41.275000000000993
 30
0.0
 40
3.0000000000001008
 50
144.9003678044746
 51
35.099632195525373
  0
ARC
  5
D4
  8
PATTERN_FILL
  6
CONTINUOUS
 62
     7
 10
203.95000000000019
 20
41.275000000000993
 30
0.0
 40
3.0000000000000902
 50
144.90036780467881
 51
35.099632195321171
  0
ARC
  5
D5
  8
PATTERN_FILL
  6
CONTINUOUS
 62
     7
 10
211.85000000000011
 20
41.275000000000993
 30
0.0
 40
3.0000000000000142
 50
144.90036780488481
 51
35.099632195113429
  0
ARC
  5
D6
  8
PATTERN_FILL
  6
CONTINUOUS
 62
     7
 10
219.75000000000011
 20
41.275000000000993
 30
0.0
 40
3.000000000000024
 50
144.9003678046806
 51
35.099632195319401
  0
CIRCLE
  5
D7
  8
PATTERN_FILL
  6
CONTINUOUS
 62
     7
 10
227.6500000000002
 20
41.275000000000993
 30
0.0
 40
3.0
  0
CIRCLE
  5
D8
  8
PATTERN_FILL
  6
CONTINUOUS
 62
     7
 10
235.5500000000001
 20
41.275000000000993
 30
0.0
 40
3.0
  0
ARC
  5
D9
  8
PATTERN_FILL
  6
CONTINUOUS
 62
     7
 10
243.45000000000019
 20
41.275000000000993
 30
0.0
 40
2.999999999999968
 50
59.157456122746261
 51
272.29051105829097
  0
CIRCLE
  5
DA
  8
PATTERN_FILL
  6
CONTINUOUS
 62
     7
 10
49.899999999999977
 20
48.100000000000819
 30
0.0
 40
3.0
  0
CIRCLE
  5
DB
  8
PATTERN_FILL
  6
CONTINUOUS
 62
     7
 10
57.799999999999962
 20
48.100000000000819
 30
0.0
 40
3.0
  0
CIRCLE
  5
DC
  8
PATTERN_FILL
  6
CONTINUOUS
 62
     7
 10
65.700000000000045
 20
48.100000000000819
 30
0.0
 40
3.0
  0
CIRCLE
  5
DD
  8
PATTERN_FILL
  6
CONTINUOUS
 62
     7
 10
73.600000000000023
 20
48.100000000000819
 30
0.0
 40
3.0
  0
CIRCLE
  5
DE
  8
PATTERN_FILL
  6
CONTINUOUS
 62
     7
 10
81.5
 20
48.100000000000819
 30
0.0
 40
3.0
  0
CIRCLE
  5
DF
  8
PATTERN_FILL
  6
CONTINUOUS
 62
     7
 10
89.399999999999949
 20
48.100000000000819
 30
0.0
 40
3.0
  0
CIRCLE
  5
E0
  8
PATTERN_FILL
  6
CONTINUOUS
 62
     7
 10
97.299999999999955
 20
48.100000000000819
 30
0.0
 40
3.0
  0
CIRCLE
  5
E1
  8
PATTERN_FILL
  6
CONTINUOUS
 62
     7
 10
105.2
 20
48.100000000000819
 30
0.0
 40
3.0
  0
CIRCLE
  5
E2
  8
PATTERN_FILL
  6
CONTINUOUS
 62
     7
 10
113.09999999999999
 20
48.100000000000819
 30
0.0
 40
3.0
  0
CIRCLE
  5
E3
  8
PATTERN_FILL
  6
CONTINUOUS
 62
     7
 10
121.0
 20
48.100000000000819
 30
0.0
 40
3.0
  0
CIRCLE
  5
E4
  8
PATTERN_FILL
  6
CONTINUOUS
 62
     7
 10
128.89999999999989
 20
48.100000000000819
 30
0.0
 40
3.0
  0
CIRCLE
  5
E5
  8
PATTERN_FILL
  6
CONTINUOUS
 62
     7
 10
136.7999999999999
 20
48.100000000000819
 30
0.0
 40
3.0
  0
CIRCLE
  5
E6
  8
PATTERN_FILL
  6
CONTINUOUS
 62
     7
 10
144.69999999999999
 20
48.100000000000819
 30
0.0
 40
3.0
  0
CIRCLE
  5
E7
  8
PATTERN_FILL
  6
CONTINUOUS
 62
     7
 10
152.59999999999999
 20
48.100000000000819
 30
0.0
 40
3.0
  0
CIRCLE
  5
E8
  8
PATTERN_FILL
  6
CONTINUOUS
 62
     7
 10
160.5
 20
48.100000000000819
 30
0.0
 40
3.0
  0
CIRCLE
  5
E9
  8
PATTERN_FILL
  6
CONTINUOUS
 62
     7
 10
231.60000000000011
 20
48.100000000000819
 30
0.0
 40
3.0
  0
CIRCLE
  5
EA
  8
PATTERN_FILL
  6
CONTINUOUS
 62
     7
 10
239.50000000000011
 20
48.100000000000819
 30
0.0
 40
3.0
  0
ARC
  5
EB
  8
PATTERN_FILL
  6
CONTINUOUS
 62
     7
 10
247.40000000000009
 20
48.100000000000819
 30
0.0
 40
2.9999999999999791
 50
106.761498641781
 51
229.35902647652841
  0
CIRCLE
  5
EC
  8
PATTERN_FILL
  6
CONTINUOUS
 62
     7
 10
45.950000000000053
 20
54.92500000000085
 30
0.0
 40
3.0
  0
CIRCLE
  5
ED
  8
PATTERN_FILL
  6
CONTINUOUS
 62
     7
 10
53.850000000000009
 20
54.92500000000085
 30
0.0
 40
3.0
  0
CIRCLE
  5
EE
  8
PATTERN_FILL
  6
CONTINUOUS
 62
     7
 10
61.750000000000107
 20
54.92500000000085
 30
0.0
 40
3.0
  0
CIRCLE
  5
EF
  8
PATTERN_FILL
  6
CONTINUOUS
 62
     7
 10
69.650000000000091
 20
54.92500000000085
 30
0.0
 40
3.0
  0
CIRCLE
  5
F0
  8
PATTERN_FILL
  6
CONTINUOUS
 62
     7
 10
77.550000000000054
 20
54.92500000000085
 30
0.0
 40
3.0
  0
CIRCLE
  5
F1
  8
PATTERN_FILL
  6
CONTINUOUS
 62
     7
 10
85.450000000000031
 20
54.92500000000085
 30
0.0
 40
3.0
  0
CIRCLE
  5
F2
  8
PATTERN_FILL
  6
CONTINUOUS
 62
     7
 10
93.350000000000023
 20
54.92500000000085
 30
0.0
 40
3.0
  0
CIRCLE
  5
F3
  8
PATTERN_FILL
  6
CONTINUOUS
 62
     7
 10
101.2500000000001
 20
54.92500000000085
 30
0.0
 40
3.0
  0
CIRCLE
  5
F4
  8
PATTERN_FILL
  6
CONTINUOUS
 62
     7
 10
109.15000000000011
 20
54.92500000000085
 30
0.0
 40
3.0
  0
CIRCLE
  5
F5
  8
PATTERN_FILL
  6
CONTINUOUS
 62
     7
 10
117.05
 20
54.92500000000085
 30
0.0
 40
3.0
  0
CIRCLE
  5
F6
  8
PATTERN_FILL
  6
CONTINUOUS
 62
     7
 10
124.95
 20
54.92500000000085
 30
0.0
 40
3.0
  0
CIRCLE
  5
F7
  8
PATTERN_FILL
  6
CONTINUOUS
 62
     7
 10
132.84999999999999
 20
54.92500000000085
 30
0.0
 40
3.0
  0
CIRCLE
  5
F8
  8
PATTERN_FILL
  6
CONTINUOUS
 62
     7
 10
140.75000000000011
 20
54.92500000000085
 30
0.0
 40
3.0
  0
CIRCLE
  5
F9
  8
PATTERN_FILL
  6
CONTINUOUS
 62
     7
 10
148.65000000000009
 20
54.92500000000085
 30
0.0
 40
3.0
  0
CIRCLE
  5
FA
  8
PATTERN_FILL
  6
CONTINUOUS
 62
     7
 10
156.5500000000001
 20
54.92500000000085
 30
0.0
 40
3.0
  0
CIRCLE
  5
FB
  8
PATTERN_FILL
  6
CONTINUOUS
 62
     7
 10
164.4500000000001
 20
54.92500000000085
 30
0.0
 40
3.0
  0
CIRCLE
  5
FC
  8
PATTERN_FILL
  6
CONTINUOUS
 62
     7
 10
235.5500000000001
 20
54.92500000000085
 30
0.0
 40
3.0
  0
CIRCLE
  5
FD
  8
PATTERN_FILL
  6
CONTINUOUS
 62
     7
 10
243.45000000000019
 20
54.92500000000085
 30
0.0
 40
3.0
  0
CIRCLE
  5
FE
  8
PATTERN_FILL
  6
CONTINUOUS
 62
     7
 10
49.899999999999977
 20
61.750000000000888
 30
0.0
 40
3.0
  0
CIRCLE
  5
FF
  8
PATTERN_FILL
  6
CONTINUOUS
 62
     7
 10
57.799999999999962
 20
61.750000000000888
 30
0.0
 40
3.0
  0
CIRCLE
  5
100
  8
PATTERN_FILL
  6
CONTINUOUS
 62
     7
 10
65.700000000000045
 20
61.750000000000888
 30
0.0
 40
3.0
  0
CIRCLE
  5
101
  8
PATTERN_FILL
  6
CONTINUOUS
 62
     7
 10
73.600000000000023
 20
61.750000000000888
 30
0.0
 40
3.0
  0
CIRCLE
  5
102
  8
PATTERN_FILL
  6
CONTINUOUS
 62
     7
 10
81.5
 20
61.750000000000888
 30
0.0
 40
3.0
  0
CIRCLE
  5
103
  8
PATTERN_FILL
  6
CONTINUOUS
 62
     7
 10
89.399999999999949
 20
61.750000000000888
 30
0.0
 40
3.0
  0
CIRCLE
  5
104
  8
PATTERN_FILL
  6
CONTINUOUS
 62
     7
 10
97.299999999999955
 20
61.750000000000888
 30
0.0
 40
3.0
  0
CIRCLE
  5
105
  8
PATTERN_FILL
  6
CONTINUOUS
 62
     7
 10
105.2
 20
61.750000000000888
 30
0.0
 40
3.0
  0
CIRCLE
  5
106
  8
PATTERN_FILL
  6
CONTINUOUS
 62
     7
 10
113.09999999999999
 20
61.750000000000888
 30
0.0
 40
3.0
  0
CIRCLE
  5
107
  8
PATTERN_FILL
  6
CONTINUOUS
 62
     7
 10
121.0
 20
61.750000000000888
 30
0.0
 40
3.0
  0
CIRCLE
  5
108
  8
PATTERN_FILL
  6
CONTINUOUS
 62
     7
 10
128.89999999999989
 20
61.750000000000888
 30
0.0
 40
3.0
  0
CIRCLE
  5
109
  8
PATTERN_FILL
  6
CONTINUOUS
 62
     7
 10
136.7999999999999
 20
61.750000000000888
 30
0.0
 40
3.0
  0
CIRCLE
  5
10A
  8
PATTERN_FILL
  6
CONTINUOUS
 62
     7
 10
144.69999999999999
 20
61.750000000000888
 30
0.0
 40
3.0
  0
CIRCLE
  5
10B
  8
PATTERN_FILL
  6
CONTINUOUS
 62
     7
 10
152.59999999999999
 20
61.750000000000888
 30
0.0
 40
3.0
  0
CIRCLE
  5
10C
  8
PATTERN_FILL
  6
CONTINUOUS
 62
     7
 10
160.5
 20
61.750000000000888
 30
0.0
 40
3.0
  0
CIRCLE
  5
10D
  8
PATTERN_FILL
  6
CONTINUOUS
 62
     7
 10
239.50000000000011
 20
61.750000000000888
 30
0.0
 40
3.0
  0
ARC
  5
10E
  8
PATTERN_FILL
  6
CONTINUOUS
 62
     7
 10
247.40000000000009
 20
61.750000000000888
 30
0.0
 40
3.0000000000000049
 50
64.889466361988283
 51
279.56397909693339
  0
CIRCLE
  5
10F
  8
PATTERN_FILL
  6
CONTINUOUS
 62
     7
 10
45.950000000000053
 20
68.575000000000969
 30
0.0
 40
3.0
  0
CIRCLE
  5
110
  8
PATTERN_FILL
  6
CONTINUOUS
 62
     7
 10
53.850000000000009
 20
68.575000000000969
 30
0.0
 40
3.0
  0
CIRCLE
  5
111
  8
PATTERN_FILL
  6
CONTINUOUS
 62
     7
 10
61.750000000000107
 20
68.575000000000969
 30
0.0
 40
3.0
  0
CIRCLE
  5
112
  8
PATTERN_FILL
  6
CONTINUOUS
 62
     7
 10
69.650000000000091
 20
68.575000000000969
 30
0.0
 40
3.0
  0
CIRCLE
  5
113
  8
PATTERN_FILL
  6
CONTINUOUS
 62
     7
 10
77.550000000000054
 20
68.575000000000969
 30
0.0
 40
3.0
  0
CIRCLE
  5
114
  8
PATTERN_FILL
  6
CONTINUOUS
 62
     7
 10
85.450000000000031
 20
68.575000000000969
 30
0.0
 40
3.0
  0
CIRCLE
  5
115
  8
PATTERN_FILL
  6
CONTINUOUS
 62
     7
 10
93.350000000000023
 20
68.575000000000969
 30
0.0
 40
3.0
  0
CIRCLE
  5
116
  8
PATTERN_FILL
  6
CONTINUOUS
 62
     7
 10
101.2500000000001
 20
68.575000000000969
 30
0.0
 40
3.0
  0
CIRCLE
  5
117
  8
PATTERN_FILL
  6
CONTINUOUS
 62
     7
 10
109.15000000000011
 20
68.575000000000969
 30
0.0
 40
3.0
  0
CIRCLE
  5
118
  8
PATTERN_FILL
  6
CONTINUOUS
 62
     7
 10
117.05
 20
68.575000000000969
 30
0.0
 40
3.0
  0
CIRCLE
  5
119
  8
PATTERN_FILL
  6
CONTINUOUS
 62
     7
 10
124.95
 20
68.575000000000969
 30
0.0
 40
3.0
  0
CIRCLE
  5
11A
  8
PATTERN_FILL
  6
CONTINUOUS
 62
     7
 10
132.84999999999999
 20
68.575000000000969
 30
0.0
 40
3.0
  0
CIRCLE
  5
11B
  8
PATTERN_FILL
  6
CONTINUOUS
 62
     7
 10
140.75000000000011
 20
68.575000000000969
 30
0.0
 40
3.0
  0
CIRCLE
  5
11C
  8
PATTERN_FILL
  6
CONTINUOUS
 62
     7
 10
148.65000000000009
 20
68.575000000000969
 30
0.0
 40
3.0
  0
CIRCLE
  5
11D
  8
PATTERN_FILL
  6
CONTINUOUS
 62
     7
 10
156.5500000000001
 20
68.575000000000969
 30
0.0
 40
3.0
  0
CIRCLE
  5
11E
  8
PATTERN_FILL
  6
CONTINUOUS
 62
     7
 10
164.4500000000001
 20
68.575000000000969
 30
0.0
 40
3.0
  0
CIRCLE
  5
11F
  8
PATTERN_FILL
  6
CONTINUOUS
 62
     7
 10
235.5500000000001
 20
68.575000000000969
 30
0.0
 40
3.0
  0
CIRCLE
  5
120
  8
PATTERN_FILL
  6
CONTINUOUS
 62
     7
 10
243.45000000000019
 20
68.575000000000969
 30
0.0
 40
3.0
  0
CIRCLE
  5
121
  8
PATTERN_FILL
  6
CONTINUOUS
 62
     7
 10
49.899999999999977
 20
75.400000000001
 30
0.0
 40
3.0
  0
CIRCLE
  5
122
  8
PATTERN_FILL
  6
CONTINUOUS
 62
     7
 10
57.799999999999962
 20
75.400000000001
 30
0.0
 40
3.0
  0
CIRCLE
  5
123
  8
PATTERN_FILL
  6
CONTINUOUS
 62
     7
 10
65.700000000000045
 20
75.400000000001
 30
0.0
 40
3.0
  0
CIRCLE
  5
124
  8
PATTERN_FILL
  6
CONTINUOUS
 62
     7
 10
73.600000000000023
 20
75.400000000001
 30
0.0
 40
3.0
  0
CIRCLE
  5
125
  8
PATTERN_FILL
  6
CONTINUOUS
 62
     7
 10
81.5
 20
75.400000000001
 30
0.0
 40
3.0
  0
CIRCLE
  5
126
  8
PATTERN_FILL
  6
CONTINUOUS
 62
     7
 10
89.399999999999949
 20
75.400000000001
 30
0.0
 40
3.0
  0
CIRCLE
  5
127
  8
PATTERN_FILL
  6
CONTINUOUS
 62
     7
 10
97.299999999999955
 20
75.400000000001
 30
0.0
 40
3.0
  0
CIRCLE
  5
128
  8
PATTERN_FILL
  6
CONTINUOUS
 62
     7
 10
105.2
 20
75.400000000001
 30
0.0
 40
3.0
  0
CIRCLE
  5
129
  8
PATTERN_FILL
  6
CONTINUOUS
 62
     7
 10
113.09999999999999
 20
75.400000000001
 30
0.0
 40
3.0
  0
CIRCLE
  5
12A
  8
PATTERN_FILL
  6
CONTINUOUS
 62
     7
 10
121.0
 20
75.400000000001
 30
0.0
 40
3.0
  0
CIRCLE
  5
12B
  8
PATTERN_FILL
  6
CONTINUOUS
 62
     7
 10
128.89999999999989
 20
75.400000000001
 30
0.0
 40
3.0
  0
CIRCLE
  5
12C
  8
PATTERN_FILL
  6
CONTINUOUS
 62
     7
 10
136.7999999999999
 20
75.400000000001
 30
0.0
 40
3.0
  0
CIRCLE
  5
12D
  8
PATTERN_FILL
  6
CONTINUOUS
 62
     7
 10
144.69999999999999
 20
75.400000000001
 30
0.0
 40
3.0
  0
CIRCLE
  5
12E
  8
PATTERN_FILL
  6
CONTINUOUS
 62
     7
 10
152.59999999999999
 20
75.400000000001
 30
0.0
 40
3.0
  0
CIRCLE
  5
12F
  8
PATTERN_FILL
  6
CONTINUOUS
 62
     7
 10
160.5
 20
75.400000000001
 30
0.0
 40
3.0
  0
CIRCLE
  5
130
  8
PATTERN_FILL
  6
CONTINUOUS
 62
     7
 10
239.50000000000011
 20
75.400000000001
 30
0.0
 40
3.0
  0
ARC
  5
131
  8
PATTERN_FILL
  6
CONTINUOUS
 62
     7
 10
247.40000000000009
 20
75.400000000001
 30
0.0
 40
2.9999999999999871
 50
37.892248130382633
 51
315.06259496858462
  0
CIRCLE
  5
132
  8
PATTERN_FILL
  6
CONTINUOUS
 62
     7
 10
45.950000000000053
 20
82.225000000001046
 30
0.0
 40
3.0
  0
CIRCLE
  5
133
  8
PATTERN_FILL
  6
CONTINUOUS
 62
     7
 10
53.850000000000009
 20
82.225000000001046
 30
0.0
 40
3.0
  0
CIRCLE
  5
134
  8
PATTERN_FILL
  6
CONTINUOUS
 62
     7
 10
61.750000000000107
 20
82.225000000001046
 30
0.0
 40
3.0
  0
CIRCLE
  5
135
  8
PATTERN_FILL
  6
CONTINUOUS
 62
     7
 10
69.650000000000091
 20
82.225000000001046
 30
0.0
 40
3.0
  0
CIRCLE
  5
136
  8
PATTERN_FILL
  6
CONTINUOUS
 62
     7
 10
77.550000000000054
 20
82.225000000001046
 30
0.0
 40
3.0
  0
CIRCLE
  5
137
  8
PATTERN_FILL
  6
CONTINUOUS
 62
     7
 10
85.450000000000031
 20
82.225000000001046
 30
0.0
 40
3.0
  0
CIRCLE
  5
138
  8
PATTERN_FILL
  6
CONTINUOUS
 62
     7
 10
93.350000000000023
 20
82.225000000001046
 30
0.0
 40
3.0
  0
CIRCLE
  5
139
  8
PATTERN_FILL
  6
CONTINUOUS
 62
     7
 10
101.2500000000001
 20
82.225000000001046
 30
0.0
 40
3.0
  0
CIRCLE
  5
13A
  8
PATTERN_FILL
  6
CONTINUOUS
 62
     7
 10
109.15000000000011
 20
82.225000000001046
 30
0.0
 40
3.0
  0
CIRCLE
  5
13B
  8
PATTERN_FILL
  6
CONTINUOUS
 62
     7
 10
117.05
 20
82.225000000001046
 30
0.0
 40
3.0
  0
CIRCLE
  5
13C
  8
PATTERN_FILL
  6
CONTINUOUS
 62
     7
 10
124.95
 20
82.225000000001046
 30
0.0
 40
3.0
  0
CIRCLE
  5
13D
  8
PATTERN_FILL
  6
CONTINUOUS
 62
     7
 10
132.84999999999999
 20
82.225000000001046
 30
0.0
 40
3.0
  0
CIRCLE
  5
13E
  8
PATTERN_FILL
  6
CONTINUOUS
 62
     7
 10
140.75000000000011
 20
82.225000000001046
 30
0.0
 40
3.0
  0
CIRCLE
  5
13F
  8
PATTERN_FILL
  6
CONTINUOUS
 62
     7
 10
148.65000000000009
 20
82.225000000001046
 30
0.0
 40
3.0
  0
CIRCLE
  5
140
  8
PATTERN_FILL
  6
CONTINUOUS
 62
     7
 10
156.5500000000001
 20
82.225000000001046
 30
0.0
 40
3.0
  0
CIRCLE
  5
141
  8
PATTERN_FILL
  6
CONTINUOUS
 62
     7
 10
164.4500000000001
 20
82.225000000001046
 30
0.0
 40
3.0
  0
CIRCLE
  5
142
  8
PATTERN_FILL
  6
CONTINUOUS
 62
     7
 10
235.5500000000001
 20
82.225000000001046
 30
0.0
 40
3.0
  0
CIRCLE
  5
143
  8
PATTERN_FILL
  6
CONTINUOUS
 62
     7
 10
243.45000000000019
 20
82.225000000001046
 30
0.0
 40
3.0
  0
ARC
  5
144
  8
PATTERN_FILL
  6
CONTINUOUS
 62
     7
 10
251.35000000000011
 20
82.225000000001046
 30
0.0
 40
2.999999999999968
 50
116.80098102706221
 51
240.49835659315929
  0
CIRCLE
  5
145
  8
PATTERN_FILL
  6
CONTINUOUS
 62
     7
 10
49.899999999999977
 20
89.050000000000864
 30
0.0
 40
3.0
  0
CIRCLE
  5
146
  8
PATTERN_FILL
  6
CONTINUOUS
 62
     7
 10
57.799999999999962
 20
89.050000000000864
 30
0.0
 40
3.0
  0
CIRCLE
  5
147
  8
PATTERN_FILL
  6
CONTINUOUS
 62
     7
 10
65.700000000000045
 20
89.050000000000864
 30
0.0
 40
3.0
  0
CIRCLE
  5
148
  8
PATTERN_FILL
  6
CONTINUOUS
 62
     7
 10
73.600000000000023
 20
89.050000000000864
 30
0.0
 40
3.0
  0
CIRCLE
  5
149
  8
PATTERN_FILL
  6
CONTINUOUS
 62
     7
 10
81.5
 20
89.050000000000864
 30
0.0
 40
3.0
  0
CIRCLE
  5
14A
  8
PATTERN_FILL
  6
CONTINUOUS
 62
     7
 10
89.399999999999949
 20
89.050000000000864
 30
0.0
 40
3.0
  0
CIRCLE
  5
14B
  8
PATTERN_FILL
  6
CONTINUOUS
 62
     7
 10
97.299999999999955
 20
89.050000000000864
 30
0.0
 40
3.0
  0
CIRCLE
  5
14C
  8
PATTERN_FILL
  6
CONTINUOUS
 62
     7
 10
105.2
 20
89.050000000000864
 30
0.0
 40
3.0
  0
CIRCLE
  5
14D
  8
PATTERN_FILL
  6
CONTINUOUS
 62
     7
 10
113.09999999999999
 20
89.050000000000864
 30
0.0
 40
3.0
  0
CIRCLE
  5
14E
  8
PATTERN_FILL
  6
CONTINUOUS
 62
     7
 10
121.0
 20
89.050000000000864
 30
0.0
 40
3.0
  0
CIRCLE
  5
14F
  8
PATTERN_FILL
  6
CONTINUOUS
 62
     7
 10
128.89999999999989
 20
89.050000000000864
 30
0.0
 40
3.0
  0
CIRCLE
  5
150
  8
PATTERN_FILL
  6
CONTINUOUS
 62
     7
 10
136.7999999999999
 20
89.050000000000864
 30
0.0
 40
3.0
  0
CIRCLE
  5
151
  8
PATTERN_FILL
  6
CONTINUOUS
 62
     7
 10
144.69999999999999
 20
89.050000000000864
 30
0.0
 40
3.0
  0
CIRCLE
  5
152
  8
PATTERN_FILL
  6
CONTINUOUS
 62
     7
 10
152.59999999999999
 20
89.050000000000864
 30
0.0
 40
3.0
  0
CIRCLE
  5
153
  8
PATTERN_FILL
  6
CONTINUOUS
 62
     7
 10
160.5
 20
89.050000000000864
 30
0.0
 40
3.0
  0
CIRCLE
  5
154
  8
PATTERN_FILL
  6
CONTINUOUS
 62
     7
 10
239.50000000000011
 20
89.050000000000864
 30
0.0
 40
3.0
  0
ARC
  5
155
  8
PATTERN_FILL
  6
CONTINUOUS
 62
     7
 10
247.40000000000009
 20
89.050000000000864
 30
0.0
 40
2.9999999999999818
 50
31.35378143239393
 51
330.18067917232901
  0
CIRCLE
  5
156
  8
PATTERN_FILL
  6
CONTINUOUS
 62
     7
 10
45.950000000000053
 20
95.875000000000895
 30
0.0
 40
3.0
  0
CIRCLE
  5
157
  8
PATTERN_FILL
  6
CONTINUOUS
 62
     7
 10
53.850000000000009
 20
95.875000000000895
 30
0.0
 40
3.0
  0
CIRCLE
  5
158
  8
PATTERN_FILL
  6
CONTINUOUS
 62
     7
 10
61.750000000000107
 20
95.875000000000895
 30
0.0
 40
3.0
  0
CIRCLE
  5
159
  8
PATTERN_FILL
  6
CONTINUOUS
 62
     7
 10
69.650000000000091
 20
95.875000000000895
 30
0.0
 40
3.0
  0
CIRCLE
  5
15A
  8
PATTERN_FILL
  6
CONTINUOUS
 62
     7
 10
77.550000000000054
 20
95.875000000000895
 30
0.0
 40
3.0
  0
CIRCLE
  5
15B
  8
PATTERN_FILL
  6
CONTINUOUS
 62
     7
 10
85.450000000000031
 20
95.875000000000895
 30
0.0
 40
3.0
  0
CIRCLE
  5
15C
  8
PATTERN_FILL
  6
CONTINUOUS
 62
     7
 10
93.350000000000023
 20
95.875000000000895
 30
0.0
 40
3.0
  0
CIRCLE
  5
15D
  8
PATTERN_FILL
  6
CONTINUOUS
 62
     7
 10
101.2500000000001
 20
95.875000000000895
 30
0.0
 40
3.0
  0
CIRCLE
  5
15E
  8
PATTERN_FILL
  6
CONTINUOUS
 62
     7
 10
109.15000000000011
 20
95.875000000000895
 30
0.0
 40
3.0
  0
CIRCLE
  5
15F
  8
PATTERN_FILL
  6
CONTINUOUS
 62
     7
 10
117.05
 20
95.875000000000895
 30
0.0
 40
3.0
  0
CIRCLE
  5
160
  8
PATTERN_FILL
  6
CONTINUOUS
 62
     7
 10
124.95
 20
95.875000000000895
 30
0.0
 40
3.0
  0
CIRCLE
  5
161
  8
PATTERN_FILL
  6
CONTINUOUS
 62
     7
 10
132.84999999999999
 20
95.875000000000895
 30
0.0
 40
3.0
  0
CIRCLE
  5
162
  8
PATTERN_FILL
  6
CONTINUOUS
 62
     7
 10
140.75000000000011
 20
95.875000000000895
 30
0.0
 40
3.0
  0
CIRCLE
  5
163
  8
PATTERN_FILL
  6
CONTINUOUS
 62
     7
 10
148.65000000000009
 20
95.875000000000895
 30
0.0
 40
3.0
  0
CIRCLE
  5
164
  8
PATTERN_FILL
  6
CONTINUOUS
 62
     7
 10
156.5500000000001
 20
95.875000000000895
 30
0.0
 40
3.0
  0
CIRCLE
  5
165
  8
PATTERN_FILL
  6
CONTINUOUS
 62
     7
 10
164.4500000000001
 20
95.875000000000895
 30
0.0
 40
3.0
  0
CIRCLE
  5
166
  8
PATTERN_FILL
  6
CONTINUOUS
 62
     7
 10
235.5500000000001
 20
95.875000000000895
 30
0.0
 40
3.0
  0
CIRCLE
  5
167
  8
PATTERN_FILL
  6
CONTINUOUS
 62
     7
 10
243.45000000000019
 20
95.875000000000895
 30
0.0
 40
3.0
  0
ARC
  5
168
  8
PATTERN_FILL
  6
CONTINUOUS
 62
     7
 10
251.35000000000011
 20
95.875000000000895
 30
0.0
 40
2.9999999999999378
 50
124.9173682635663
 51
240.78304022048721
  0
CIRCLE
  5
169
  8
PATTERN_FILL
  6
CONTINUOUS
 62
     7
 10
49.899999999999977
 20
102.7000000000009
 30
0.0
 40
3.0
  0
CIRCLE
  5
16A
  8
PATTERN_FILL
  6
CONTINUOUS
 62
     7
 10
57.799999999999962
 20
102.7000000000009
 30
0.0
 40
3.0
  0
CIRCLE
  5
16B
  8
PATTERN_FILL
  6
CONTINUOUS
 62
     7
 10
65.700000000000045
 20
102.7000000000009
 30
0.0
 40
3.0
  0
CIRCLE
  5
16C
  8
PATTERN_FILL
  6
CONTINUOUS
 62
     7
 10
73.600000000000023
 20
102.7000000000009
 30
0.0
 40
3.0
  0
CIRCLE
  5
16D
  8
PATTERN_FILL
  6
CONTINUOUS
 62
     7
 10
81.5
 20
102.7000000000009
 30
0.0
 40
3.0
  0
CIRCLE
  5
16E
  8
PATTERN_FILL
  6
CONTINUOUS
 62
     7
 10
89.399999999999949
 20
102.7000000000009
 30
0.0
 40
3.0
  0
CIRCLE
  5
16F
  8
PATTERN_FILL
  6
CONTINUOUS
 62
     7
 10
97.299999999999955
 20
102.7000000000009
 30
0.0
 40
3.0
  0
CIRCLE
  5
170
  8
PATTERN_FILL
  6
CONTINUOUS
 62
     7
 10
105.2
 20
102.7000000000009
 30
0.0
 40
3.0
  0
CIRCLE
  5
171
  8
PATTERN_FILL
  6
CONTINUOUS
 62
     7
 10
113.09999999999999
 20
102.7000000000009
 30
0.0
 40
3.0
  0
CIRCLE
  5
172
  8
PATTERN_FILL
  6
CONTINUOUS
 62
     7
 10
121.0
 20
102.7000000000009
 30
0.0
 40
3.0
  0
CIRCLE
  5
173
  8
PATTERN_FILL
  6
CONTINUOUS
 62
     7
 10
128.89999999999989
 20
102.7000000000009
 30
0.0
 40
3.0
  0
CIRCLE
  5
174
  8
PATTERN_FILL
  6
CONTINUOUS
 62
     7
 10
136.7999999999999
 20
102.7000000000009
 30
0.0
 40
3.0
  0
CIRCLE
  5
175
  8
PATTERN_FILL
  6
CONTINUOUS
 62
     7
 10
144.69999999999999
 20
102.7000000000009
 30
0.0
 40
3.0
  0
CIRCLE
  5
176
  8
PATTERN_FILL
  6
CONTINUOUS
 62
     7
 10
152.59999999999999
 20
102.7000000000009
 30
0.0
 40
3.0
  0
CIRCLE
  5
177
  8
PATTERN_FILL
  6
CONTINUOUS
 62
     7
 10
160.5
 20
102.7000000000009
 30
0.0
 40
3.0
  0
CIRCLE
  5
178
  8
PATTERN_FILL
  6
CONTINUOUS
 62
     7
 10
239.50000000000011
 20
102.7000000000009
 30
0.0
 40
3.0
  0
ARC
  5
179
  8
PATTERN_FILL
  6
CONTINUOUS
 62
     7
 10
247.40000000000009
 20
102.7000000000009
 30
0.0
 40
3.0000000000000311
 50
56.21530511986122
 51
313.88163484707678
  0
CIRCLE
  5
17A
  8
PATTERN_FILL
  6
CONTINUOUS
 62
     7
 10
45.950000000000053
 20
109.525000000001
 30
0.0
 40
3.0
  0
CIRCLE
  5
17B
  8
PATTERN_FILL
  6
CONTINUOUS
 62
     7
 10
53.850000000000009
 20
109.525000000001
 30
0.0
 40
3.0
  0
CIRCLE
  5
17C
  8
PATTERN_FILL
  6
CONTINUOUS
 62
     7
 10
61.750000000000107
 20
109.525000000001
 30
0.0
 40
3.0
  0
CIRCLE
  5
17D
  8
PATTERN_FILL
  6
CONTINUOUS
 62
     7
 10
69.650000000000091
 20
109.525000000001
 30
0.0
 40
3.0
  0
CIRCLE
  5
17E
  8
PATTERN_FILL
  6
CONTINUOUS
 62
     7
 10
77.550000000000054
 20
109.525000000001
 30
0.0
 40
3.0
  0
CIRCLE
  5
17F
  8
PATTERN_FILL
  6
CONTINUOUS
 62
     7
 10
85.450000000000031
 20
109.525000000001
 30
0.0
 40
3.0
  0
CIRCLE
  5
180
  8
PATTERN_FILL
  6
CONTINUOUS
 62
     7
 10
93.350000000000023
 20
109.525000000001
 30
0.0
 40
3.0
  0
CIRCLE
  5
181
  8
PATTERN_FILL
  6
CONTINUOUS
 62
     7
 10
101.2500000000001
 20
109.525000000001
 30
0.0
 40
3.0
  0
CIRCLE
  5
182
  8
PATTERN_FILL
  6
CONTINUOUS
 62
     7
 10
109.15000000000011
 20
109.525000000001
 30
0.0
 40
3.0
  0
CIRCLE
  5
183
  8
PATTERN_FILL
  6
CONTINUOUS
 62
     7
 10
117.05
 20
109.525000000001
 30
0.0
 40
3.0
  0
CIRCLE
  5
184
  8
PATTERN_FILL
  6
CONTINUOUS
 62
     7
 10
124.95
 20
109.525000000001
 30
0.0
 40
3.0
  0
CIRCLE
  5
185
  8
PATTERN_FILL
  6
CONTINUOUS
 62
     7
 10
132.84999999999999
 20
109.525000000001
 30
0.0
 40
3.0
  0
CIRCLE
  5
186
  8
PATTERN_FILL
  6
CONTINUOUS
 62
     7
 10
140.75000000000011
 20
109.525000000001
 30
0.0
 40
3.0
  0
CIRCLE
  5
187
  8
PATTERN_FILL
  6
CONTINUOUS
 62
     7
 10
148.65000000000009
 20
109.525000000001
 30
0.0
 40
3.0
  0
CIRCLE
  5
188
  8
PATTERN_FILL
  6
CONTINUOUS
 62
     7
 10
156.5500000000001
 20
109.525000000001
 30
0.0
 40
3.0
  0
CIRCLE
  5
189
  8
PATTERN_FILL
  6
CONTINUOUS
 62
     7
 10
164.4500000000001
 20
109.525000000001
 30
0.0
 40
3.0
  0
CIRCLE
  5
18A
  8
PATTERN_FILL
  6
CONTINUOUS
 62
     7
 10
235.5500000000001
 20
109.525000000001
 30
0.0
 40
3.0
  0
CIRCLE
  5
18B
  8
PATTERN_FILL
  6
CONTINUOUS
 62
     7
 10
243.45000000000019
 20
109.525000000001
 30
0.0
 40
3.0
  0
CIRCLE
  5
18C
  8
PATTERN_FILL
  6
CONTINUOUS
 62
     7
 10
49.899999999999977
 20
116.3500000000008
 30
0.0
 40
3.0
  0
CIRCLE
  5
18D
  8
PATTERN_FILL
  6
CONTINUOUS
 62
     7
 10
57.799999999999962
 20
116.3500000000008
 30
0.0
 40
3.0
  0
CIRCLE
  5
18E
  8
PATTERN_FILL
  6
CONTINUOUS
 62
     7
 10
65.700000000000045
 20
116.3500000000008
 30
0.0
 40
3.0
  0
CIRCLE
  5
18F
  8
PATTERN_FILL
  6
CONTINUOUS
 62
     7
 10
73.600000000000023
 20
116.3500000000008
 30
0.0
 40
3.0
  0
CIRCLE
  5
190
  8
PATTERN_FILL
  6
CONTINUOUS
 62
     7
 10
81.5
 20
116.3500000000008
 30
0.0
 40
3.0
  0
CIRCLE
  5
191
  8
PATTERN_FILL
  6
CONTINUOUS
 62
     7
 10
89.399999999999949
 20
116.3500000000008
 30
0.0
 40
3.0
  0
CIRCLE
  5
192
  8
PATTERN_FILL
  6
CONTINUOUS
 62
     7
 10
97.299999999999955
 20
116.3500000000008
 30
0.0
 40
3.0
  0
CIRCLE
  5
193
  8
PATTERN_FILL
  6
CONTINUOUS
 62
     7
 10
105.2
 20
116.3500000000008
 30
0.0
 40
3.0
  0
CIRCLE
  5
194
  8
PATTERN_FILL
  6
CONTINUOUS
 62
     7
 10
113.09999999999999
 20
116.3500000000008
 30
0.0
 40
3.0
  0
CIRCLE
  5
195
  8
PATTERN_FILL
  6
CONTINUOUS
 62
     7
 10
121.0
 20
116.3500000000008
 30
0.0
 40
3.0
  0
CIRCLE
  5
196
  8
PATTERN_FILL
  6
CONTINUOUS
 62
     7
 10
128.89999999999989
 20
116.3500000000008
 30
0.0
 40
3.0
  0
CIRCLE
  5
197
  8
PATTERN_FILL
  6
CONTINUOUS
 62
     7
 10
136.7999999999999
 20
116.3500000000008
 30
0.0
 40
3.0
  0
CIRCLE
  5
198
  8
PATTERN_FILL
  6
CONTINUOUS
 62
     7
 10
144.69999999999999
 20
116.3500000000008
 30
0.0
 40
3.0
  0
CIRCLE
  5
199
  8
PATTERN_FILL
  6
CONTINUOUS
 62
     7
 10
152.59999999999999
 20
116.3500000000008
 30
0.0
 40
3.0
  0
CIRCLE
  5
19A
  8
PATTERN_FILL
  6
CONTINUOUS
 62
     7
 10
160.5
 20
116.3500000000008
 30
0.0
 40
3.0
  0
CIRCLE
  5
19B
  8
PATTERN_FILL
  6
CONTINUOUS
 62
     7
 10
168.40000000000009
 20
116.3500000000008
 30
0.0
 40
3.0
  0
CIRCLE
  5
19C
  8
PATTERN_FILL
  6
CONTINUOUS
 62
     7
 10
176.30000000000001
 20
116.3500000000008
 30
0.0
 40
3.0
  0
CIRCLE
  5
19D
  8
PATTERN_FILL
  6
CONTINUOUS
 62
     7
 10
184.19999999999999
 20
116.3500000000008
 30
0.0
 40
3.0
  0
CIRCLE
  5
19E
  8
PATTERN_FILL
  6
CONTINUOUS
 62
     7
 10
192.09999999999999
 20
116.3500000000008
 30
0.0
 40
3.0
  0
CIRCLE
  5
19F
  8
PATTERN_FILL
  6
CONTINUOUS
 62
     7
 10
200.0
 20
116.3500000000008
 30
0.0
 40
3.0
  0
CIRCLE
  5
1A0
  8
PATTERN_FILL
  6
CONTINUOUS
 62
     7
 10
207.90000000000009
 20
116.3500000000008
 30
0.0
 40
3.0
  0
CIRCLE
  5
1A1
  8
PATTERN_FILL
  6
CONTINUOUS
 62
     7
 10
215.8000000000001
 20
116.3500000000008
 30
0.0
 40
3.0
  0
CIRCLE
  5
1A2
  8
PATTERN_FILL
  6
CONTINUOUS
 62
     7
 10
223.69999999999999
 20
116.3500000000008
 30
0.0
 40
3.0
  0
CIRCLE
  5
1A3
  8
PATTERN_FILL
  6
CONTINUOUS
 62
     7
 10
231.60000000000011
 20
116.3500000000008
 30
0.0
 40
3.0
  0
CIRCLE
  5
1A4
  8
PATTERN_FILL
  6
CONTINUOUS
 62
     7
 10
239.50000000000011
 20
116.3500000000008
 30
0.0
 40
3.0
  0
ARC
  5
1A5
  8
PATTERN_FILL
  6
CONTINUOUS
 62
     7
 10
247.40000000000009
 20
116.3500000000008
 30
0.0
 40
2.9999999999999698
 50
96.047221850660918
 51
282.50083061188258
  0
CIRCLE
  5
1A6
  8
PATTERN_FILL
  6
CONTINUOUS
 62
     7
 10
45.950000000000053
 20
123.17500000000079
 30
0.0
 40
3.0
  0
CIRCLE
  5
1A7
  8
PATTERN_FILL
  6
CONTINUOUS
 62
     7
 10
53.850000000000009
 20
123.17500000000079
 30
0.0
 40
3.0
  0
CIRCLE
  5
1A8
  8
PATTERN_FILL
  6
CONTINUOUS
 62
     7
 10
61.750000000000107
 20
123.17500000000079
 30
0.0
 40
3.0
  0
CIRCLE
  5
1A9
  8
PATTERN_FILL
  6
CONTINUOUS
 62
     7
 10
69.650000000000091
 20
123.17500000000079
 30
0.0
 40
3.0
  0
CIRCLE
  5
1AA
  8
PATTERN_FILL
  6
CONTINUOUS
 62
     7
 10
77.550000000000054
 20
123.17500000000079
 30
0.0
 40
3.0
  0
CIRCLE
  5
1AB
  8
PATTERN_FILL
  6
CONTINUOUS
 62
     7
 10
85.450000000000031
 20
123.17500000000079
 30
0.0
 40
3.0
  0
CIRCLE
  5
1AC
  8
PATTERN_FILL
  6
CONTINUOUS
 62
     7
 10
93.350000000000023
 20
123.17500000000079
 30
0.0
 40
3.0
  0
CIRCLE
  5
1AD
  8
PATTERN_FILL
  6
CONTINUOUS
 62
     7
 10
101.2500000000001
 20
123.17500000000079
 30
0.0
 40
3.0
  0
CIRCLE
  5
1AE
  8
PATTERN_FILL
  6
CONTINUOUS
 62
     7
 10
109.15000000000011
 20
123.17500000000079
 30
0.0
 40
3.0
  0
CIRCLE
  5
1AF
  8
PATTERN_FILL
  6
CONTINUOUS
 62
     7
 10
117.05
 20
123.17500000000079
 30
0.0
 40
3.0
  0
CIRCLE
  5
1B0
  8
PATTERN_FILL
  6
CONTINUOUS
 62
     7
 10
124.95
 20
123.17500000000079
 30
0.0
 40
3.0
  0
CIRCLE
  5
1B1
  8
PATTERN_FILL
  6
CONTINUOUS
 62
     7
 10
132.84999999999999
 20
123.17500000000079
 30
0.0
 40
3.0
  0
CIRCLE
  5
1B2
  8
PATTERN_FILL
  6
CONTINUOUS
 62
     7
 10
140.75000000000011
 20
123.17500000000079
 30
0.0
 40
3.0
  0
CIRCLE
  5
1B3
  8
PATTERN_FILL
  6
CONTINUOUS
 62
     7
 10
148.65000000000009
 20
123.17500000000079
 30
0.0
 40
3.0
  0
CIRCLE
  5
1B4
  8
PATTERN_FILL
  6
CONTINUOUS
 62
     7
 10
156.5500000000001
 20
123.17500000000079
 30
0.0
 40
3.0
  0
CIRCLE
  5
1B5
  8
PATTERN_FILL
  6
CONTINUOUS
 62
     7
 10
164.4500000000001
 20
123.17500000000079
 30
0.0
 40
3.0
  0
CIRCLE
  5
1B6
  8
PATTERN_FILL
  6
CONTINUOUS
 62
     7
 10
172.35000000000011
 20
123.17500000000079
 30
0.0
 40
3.0
  0
CIRCLE
  5
1B7
  8
PATTERN_FILL
  6
CONTINUOUS
 62
     7
 10
180.25000000000011
 20
123.17500000000079
 30
0.0
 40
3.0
  0
CIRCLE
  5
1B8
  8
PATTERN_FILL
  6
CONTINUOUS
 62
     7
 10
188.15000000000001
 20
123.17500000000079
 30
0.0
 40
3.0
  0
CIRCLE
  5
1B9
  8
PATTERN_FILL
  6
CONTINUOUS
 62
     7
 10
196.0500000000001
 20
123.17500000000079
 30
0.0
 40
3.0
  0
CIRCLE
  5
1BA
  8
PATTERN_FILL
  6
CONTINUOUS
 62
     7
 10
203.95000000000019
 20
123.17500000000079
 30
0.0
 40
3.0
  0
CIRCLE
  5
1BB
  8
PATTERN_FILL
  6
CONTINUOUS
 62
     7
 10
211.85000000000011
 20
123.17500000000079
 30
0.0
 40
3.0
  0
CIRCLE
  5
1BC
  8
PATTERN_FILL
  6
CONTINUOUS
 62
     7
 10
219.75000000000011
 20
123.17500000000079
 30
0.0
 40
3.0
  0
CIRCLE
  5
1BD
  8
PATTERN_FILL
  6
CONTINUOUS
 62
     7
 10
227.6500000000002
 20
123.17500000000079
 30
0.0
 40
3.0
  0
CIRCLE
  5
1BE
  8
PATTERN_FILL
  6
CONTINUOUS
 62
     7
 10
235.5500000000001
 20
123.17500000000079
 30
0.0
 40
3.0
  0
ARC
  5
1BF
  8
PATTERN_FILL
  6
CONTINUOUS
 62
     7
 10
243.45000000000019
 20
123.17500000000079
 30
0.0
 40
3.0000000000000151
 50
30.416539979654271
 51
352.77752555932852
  0
CIRCLE
  5
1C0
  8
PATTERN_FILL
  6
CONTINUOUS
 62
     7
 10
49.899999999999977
 20
130.00000000000091
 30
0.0
 40
3.0
  0
CIRCLE
  5
1C1
  8
PATTERN_FILL
  6
CONTINUOUS
 62
     7
 10
57.799999999999962
 20
130.00000000000091
 30
0.0
 40
3.0
  0
CIRCLE
  5
1C2
  8
PATTERN_FILL
  6
CONTINUOUS
 62
     7
 10
65.700000000000045
 20
130.00000000000091
 30
0.0
 40
3.0
  0
CIRCLE
  5
1C3
  8
PATTERN_FILL
  6
CONTINUOUS
 62
     7
 10
73.600000000000023
 20
130.00000000000091
 30
0.0
 40
3.0
  0
CIRCLE
  5
1C4
  8
PATTERN_FILL
  6
CONTINUOUS
 62
     7
 10
81.5
 20
130.00000000000091
 30
0.0
 40
3.0
  0
CIRCLE
  5
1C5
  8
PATTERN_FILL
  6
CONTINUOUS
 62
     7
 10
89.399999999999949
 20
130.00000000000091
 30
0.0
 40
3.0
  0
CIRCLE
  5
1C6
  8
PATTERN_FILL
  6
CONTINUOUS
 62
     7
 10
97.299999999999955
 20
130.00000000000091
 30
0.0
 40
3.0
  0
CIRCLE
  5
1C7
  8
PATTERN_FILL
  6
CONTINUOUS
 62
     7
 10
105.2
 20
130.00000000000091
 30
0.0
 40
3.0
  0
CIRCLE
  5
1C8
  8
PATTERN_FILL
  6
CONTINUOUS
 62
     7
 10
113.09999999999999
 20
130.00000000000091
 30
0.0
 40
3.0
  0
CIRCLE
  5
1C9
  8
PATTERN_FILL
  6
CONTINUOUS
 62
     7
 10
121.0
 20
130.00000000000091
 30
0.0
 40
3.0
  0
CIRCLE
  5
1CA
  8
PATTERN_FILL
  6
CONTINUOUS
 62
     7
 10
128.89999999999989
 20
130.00000000000091
 30
0.0
 40
3.0
  0
CIRCLE
  5
1CB
  8
PATTERN_FILL
  6
CONTINUOUS
 62
     7
 10
136.7999999999999
 20
130.00000000000091
 30
0.0
 40
3.0
  0
CIRCLE
  5
1CC
  8
PATTERN_FILL
  6
CONTINUOUS
 62
     7
 10
144.69999999999999
 20
130.00000000000091
 30
0.0
 40
3.0
  0
CIRCLE
  5
1CD
  8
PATTERN_FILL
  6
CONTINUOUS
 62
     7
 10
152.59999999999999
 20
130.00000000000091
 30
0.0
 40
3.0
  0
CIRCLE
  5
1CE
  8
PATTERN_FILL
  6
CONTINUOUS
 62
     7
 10
160.5
 20
130.00000000000091
 30
0.0
 40
3.0
  0
CIRCLE
  5
1CF
  8
PATTERN_FILL
  6
CONTINUOUS
 62
     7
 10
168.40000000000009
 20
130.00000000000091
 30
0.0
 40
3.0
  0
CIRCLE
  5
1D0
  8
PATTERN_FILL
  6
CONTINUOUS
 62
     7
 10
176.30000000000001
 20
130.00000000000091
 30
0.0
 40
3.0
  0
CIRCLE
  5
1D1
  8
PATTERN_FILL
  6
CONTINUOUS
 62
     7
 10
184.19999999999999
 20
130.00000000000091
 30
0.0
 40
3.0
  0
CIRCLE
  5
1D2
  8
PATTERN_FILL
  6
CONTINUOUS
 62
     7
 10
192.09999999999999
 20
130.00000000000091
 30
0.0
 40
3.0
  0
CIRCLE
  5
1D3
  8
PATTERN_FILL
  6
CONTINUOUS
 62
     7
 10
200.0
 20
130.00000000000091
 30
0.0
 40
3.0
  0
CIRCLE
  5
1D4
  8
PATTERN_FILL
  6
CONTINUOUS
 62
     7
 10
207.90000000000009
 20
130.00000000000091
 30
0.0
 40
3.0
  0
CIRCLE
  5
1D5
  8
PATTERN_FILL
  6
CONTINUOUS
 62
     7
 10
215.8000000000001
 20
130.00000000000091
 30
0.0
 40
3.0
  0
CIRCLE
  5
1D6
  8
PATTERN_FILL
  6
CONTINUOUS
 62
     7
 10
223.69999999999999
 20
130.00000000000091
 30
0.0
 40
3.0
  0
CIRCLE
  5
1D7
  8
PATTERN_FILL
  6
CONTINUOUS
 62
     7
 10
231.60000000000011
 20
130.00000000000091
 30
0.0
 40
3.0
  0
CIRCLE
  5
1D8
  8
PATTERN_FILL
  6
CONTINUOUS
 62
     7
 10
239.50000000000011
 20
130.00000000000091
 30
0.0
 40
3.0
  0
CIRCLE
  5
1D9
  8
PATTERN_FILL
  6
CONTINUOUS
 62
     7
 10
45.950000000000053
 20
136.8250000000009
 30
0.0
 40
3.0
  0
CIRCLE
  5
1DA
  8
PATTERN_FILL
  6
CONTINUOUS
 62
     7
 10
53.850000000000009
 20
136.8250000000009
 30
0.0
 40
3.0
  0
CIRCLE
  5
1DB
  8
PATTERN_FILL
  6
CONTINUOUS
 62
     7
 10
61.750000000000107
 20
136.8250000000009
 30
0.0
 40
3.0
  0
CIRCLE
  5
1DC
  8
PATTERN_FILL
  6
CONTINUOUS
 62
     7
 10
69.650000000000091
 20
136.8250000000009
 30
0.0
 40
3.0
  0
CIRCLE
  5
1DD
  8
PATTERN_FILL
  6
CONTINUOUS
 62
     7
 10
77.550000000000054
 20
136.8250000000009
 30
0.0
 40
3.0
  0
CIRCLE
  5
1DE
  8
PATTERN_FILL
  6
CONTINUOUS
 62
     7
 10
85.450000000000031
 20
136.8250000000009
 30
0.0
 40
3.0
  0
CIRCLE
  5
1DF
  8
PATTERN_FILL
  6
CONTINUOUS
 62
     7
 10
93.350000000000023
 20
136.8250000000009
 30
0.0
 40
3.0
  0
CIRCLE
  5
1E0
  8
PATTERN_FILL
  6
CONTINUOUS
 62
     7
 10
101.2500000000001
 20
136.8250000000009
 30
0.0
 40
3.0
  0
CIRCLE
  5
1E1
  8
PATTERN_FILL
  6
CONTINUOUS
 62
     7
 10
109.15000000000011
 20
136.8250000000009
 30
0.0
 40
3.0
  0
CIRCLE
  5
1E2
  8
PATTERN_FILL
  6
CONTINUOUS
 62
     7
 10
117.05
 20
136.8250000000009
 30
0.0
 40
3.0
  0
CIRCLE
  5
1E3
  8
PATTERN_FILL
  6
CONTINUOUS
 62
     7
 10
124.95
 20
136.8250000000009
 30
0.0
 40
3.0
  0
CIRCLE
  5
1E4
  8
PATTERN_FILL
  6
CONTINUOUS
 62
     7
 10
132.84999999999999
 20
136.8250000000009
 30
0.0
 40
3.0
  0
CIRCLE
  5
1E5
  8
PATTERN_FILL
  6
CONTINUOUS
 62
     7
 10
140.75000000000011
 20
136.8250000000009
 30
0.0
 40
3.0
  0
CIRCLE
  5
1E6
  8
PATTERN_FILL
  6
CONTINUOUS
 62
     7
 10
148.65000000000009
 20
136.8250000000009
 30
0.0
 40
3.0
  0
CIRCLE
  5
1E7
  8
PATTERN_FILL
  6
CONTINUOUS
 62
     7
 10
156.5500000000001
 20
136.8250000000009
 30
0.0
 40
3.0
  0
CIRCLE
  5
1E8
  8
PATTERN_FILL
  6
CONTINUOUS
 62
     7
 10
164.4500000000001
 20
136.8250000000009
 30
0.0
 40
3.0
  0
CIRCLE
  5
1E9
  8
PATTERN_FILL
  6
CONTINUOUS
 62
     7
 10
172.35000000000011
 20
136.8250000000009
 30
0.0
 40
3.0
  0
CIRCLE
  5
1EA
  8
PATTERN_FILL
  6
CONTINUOUS
 62
     7
 10
180.25000000000011
 20
136.8250000000009
 30
0.0
 40
3.0
  0
CIRCLE
  5
1EB
  8
PATTERN_FILL
  6
CONTINUOUS
 62
     7
 10
188.15000000000001
 20
136.8250000000009
 30
0.0
 40
3.0
  0
CIRCLE
  5
1EC
  8
PATTERN_FILL
  6
CONTINUOUS
 62
     7
 10
196.0500000000001
 20
136.8250000000009
 30
0.0
 40
3.0
  0
CIRCLE
  5
1ED
  8
PATTERN_FILL
  6
CONTINUOUS
 62
     7
 10
203.95000000000019
 20
136.8250000000009
 30
0.0
 40
3.0
  0
CIRCLE
  5
1EE
  8
PATTERN_FILL
  6
CONTINUOUS
 62
     7
 10
211.85000000000011
 20
136.8250000000009
 30
0.0
 40
3.0
  0
CIRCLE
  5
1EF
  8
PATTERN_FILL
  6
CONTINUOUS
 62
     7
 10
219.75000000000011
 20
136.8250000000009
 30
0.0
 40
3.0
  0
CIRCLE
  5
1F0
  8
PATTERN_FILL
  6
CONTINUOUS
 62
     7
 10
227.6500000000002
 20
136.8250000000009
 30
0.0
 40
3.0
  0
CIRCLE
  5
1F1
  8
PATTERN_FILL
  6
CONTINUOUS
 62
     7
 10
235.5500000000001
 20
136.8250000000009
 30
0.0
 40
3.0
  0
ARC
  5
1F2
  8
PATTERN_FILL
  6
CONTINUOUS
 62
     7
 10
243.45000000000019
 20
136.8250000000009
 30
0.0
 40
3.0000000000000031
 50
113.58153285760049
 51
277.89709315526858
  0
CIRCLE
  5
1F3
  8
PATTERN_FILL
  6
CONTINUOUS
 62
     7
 10
49.899999999999977
 20
143.650000000001
 30
0.0
 40
3.0
  0
CIRCLE
  5
1F4
  8
PATTERN_FILL
  6
CONTINUOUS
 62
     7
 10
57.799999999999962
 20
143.650000000001
 30
0.0
 40
3.0
  0
CIRCLE
  5
1F5
  8
PATTERN_FILL
  6
CONTINUOUS
 62
     7
 10
65.700000000000045
 20
143.650000000001
 30
0.0
 40
3.0
  0
CIRCLE
  5
1F6
  8
PATTERN_FILL
  6
CONTINUOUS
 62
     7
 10
73.600000000000023
 20
143.650000000001
 30
0.0
 40
3.0
  0
CIRCLE
  5
1F7
  8
PATTERN_FILL
  6
CONTINUOUS
 62
     7
 10
81.5
 20
143.650000000001
 30
0.0
 40
3.0
  0
CIRCLE
  5
1F8
  8
PATTERN_FILL
  6
CONTINUOUS
 62
     7
 10
89.399999999999949
 20
143.650000000001
 30
0.0
 40
3.0
  0
CIRCLE
  5
1F9
  8
PATTERN_FILL
  6
CONTINUOUS
 62
     7
 10
97.299999999999955
 20
143.650000000001
 30
0.0
 40
3.0
  0
CIRCLE
  5
1FA
  8
PATTERN_FILL
  6
CONTINUOUS
 62
     7
 10
105.2
 20
143.650000000001
 30
0.0
 40
3.0
  0
CIRCLE
  5
1FB
  8
PATTERN_FILL
  6
CONTINUOUS
 62
     7
 10
113.09999999999999
 20
143.650000000001
 30
0.0
 40
3.0
  0
CIRCLE
  5
1FC
  8
PATTERN_FILL
  6
CONTINUOUS
 62
     7
 10
121.0
 20
143.650000000001
 30
0.0
 40
3.0
  0
CIRCLE
  5
1FD
  8
PATTERN_FILL
  6
CONTINUOUS
 62
     7
 10
128.89999999999989
 20
143.650000000001
 30
0.0
 40
3.0
  0
CIRCLE
  5
1FE
  8
PATTERN_FILL
  6
CONTINUOUS
 62
     7
 10
136.7999999999999
 20
143.650000000001
 30
0.0
 40
3.0
  0
CIRCLE
  5
1FF
  8
PATTERN_FILL
  6
CONTINUOUS
 62
     7
 10
144.69999999999999
 20
143.650000000001
 30
0.0
 40
3.0
  0
CIRCLE
  5
200
  8
PATTERN_FILL
  6
CONTINUOUS
 62
     7
 10
152.59999999999999
 20
143.650000000001
 30
0.0
 40
3.0
  0
CIRCLE
  5
201
  8
PATTERN_FILL
  6
CONTINUOUS
 62
     7
 10
160.5
 20
143.650000000001
 30
0.0
 40
3.0
  0
CIRCLE
  5
202
  8
PATTERN_FILL
  6
CONTINUOUS
 62
     7
 10
168.40000000000009
 20
143.650000000001
 30
0.0
 40
3.0
  0
CIRCLE
  5
203
  8
PATTERN_FILL
  6
CONTINUOUS
 62
     7
 10
176.30000000000001
 20
143.650000000001
 30
0.0
 40
3.0
  0
CIRCLE
  5
204
  8
PATTERN_FILL
  6
CONTINUOUS
 62
     7
 10
184.19999999999999
 20
143.650000000001
 30
0.0
 40
3.0
  0
CIRCLE
  5
205
  8
PATTERN_FILL
  6
CONTINUOUS
 62
     7
 10
192.09999999999999
 20
143.650000000001
 30
0.0
 40
3.0
  0
CIRCLE
  5
206
  8
PATTERN_FILL
  6
CONTINUOUS
 62
     7
 10
200.0
 20
143.650000000001
 30
0.0
 40
3.0
  0
CIRCLE
  5
207
  8
PATTERN_FILL
  6
CONTINUOUS
 62
     7
 10
207.90000000000009
 20
143.650000000001
 30
0.0
 40
3.0
  0
CIRCLE
  5
208
  8
PATTERN_FILL
  6
CONTINUOUS
 62
     7
 10
215.8000000000001
 20
143.650000000001
 30
0.0
 40
3.0
  0
CIRCLE
  5
209
  8
PATTERN_FILL
  6
CONTINUOUS
 62
     7
 10
223.69999999999999
 20
143.650000000001
 30
0.0
 40
3.0
  0
CIRCLE
  5
20A
  8
PATTERN_FILL
  6
CONTINUOUS
 62
     7
 10
231.60000000000011
 20
143.650000000001
 30
0.0
 40
3.0
  0
ARC
  5
20B
  8
PATTERN_FILL
  6
CONTINUOUS
 62
     7
 10
239.50000000000011
 20
143.650000000001
 30
0.0
 40
2.9999999999999538
 50
80.597481088484216
 51
315.65854103889222
  0
CIRCLE
  5
20C
  8
PATTERN_FILL
  6
CONTINUOUS
 62
     7
 10
45.950000000000053
 20
150.47500000000099
 30
0.0
 40
3.0
  0
CIRCLE
  5
20D
  8
PATTERN_FILL
  6
CONTINUOUS
 62
     7
 10
53.850000000000009
 20
150.47500000000099
 30
0.0
 40
3.0
  0
CIRCLE
  5
20E
  8
PATTERN_FILL
  6
CONTINUOUS
 62
     7
 10
61.750000000000107
 20
150.47500000000099
 30
0.0
 40
3.0
  0
CIRCLE
  5
20F
  8
PATTERN_FILL
  6
CONTINUOUS
 62
     7
 10
69.650000000000091
 20
150.47500000000099
 30
0.0
 40
3.0
  0
CIRCLE
  5
210
  8
PATTERN_FILL
  6
CONTINUOUS
 62
     7
 10
77.550000000000054
 20
150.47500000000099
 30
0.0
 40
3.0
  0
CIRCLE
  5
211
  8
PATTERN_FILL
  6
CONTINUOUS
 62
     7
 10
85.450000000000031
 20
150.47500000000099
 30
0.0
 40
3.0
  0
CIRCLE
  5
212
  8
PATTERN_FILL
  6
CONTINUOUS
 62
     7
 10
93.350000000000023
 20
150.47500000000099
 30
0.0
 40
3.0
  0
CIRCLE
  5
213
  8
PATTERN_FILL
  6
CONTINUOUS
 62
     7
 10
101.2500000000001
 20
150.47500000000099
 30
0.0
 40
3.0
  0
CIRCLE
  5
214
  8
PATTERN_FILL
  6
CONTINUOUS
 62
     7
 10
109.15000000000011
 20
150.47500000000099
 30
0.0
 40
3.0
  0
CIRCLE
  5
215
  8
PATTERN_FILL
  6
CONTINUOUS
 62
     7
 10
117.05
 20
150.47500000000099
 30
0.0
 40
3.0
  0
CIRCLE
  5
216
  8
PATTERN_FILL
  6
CONTINUOUS
 62
     7
 10
124.95
 20
150.47500000000099
 30
0.0
 40
3.0
  0
CIRCLE
  5
217
  8
PATTERN_FILL
  6
CONTINUOUS
 62
     7
 10
132.84999999999999
 20
150.47500000000099
 30
0.0
 40
3.0
  0
CIRCLE
  5
218
  8
PATTERN_FILL
  6
CONTINUOUS
 62
     7
 10
140.75000000000011
 20
150.47500000000099
 30
0.0
 40
3.0
  0
CIRCLE
  5
219
  8
PATTERN_FILL
  6
CONTINUOUS
 62
     7
 10
148.65000000000009
 20
150.47500000000099
 30
0.0
 40
3.0
  0
CIRCLE
  5
21A
  8
PATTERN_FILL
  6
CONTINUOUS
 62
     7
 10
156.5500000000001
 20
150.47500000000099
 30
0.0
 40
3.0
  0
CIRCLE
  5
21B
  8
PATTERN_FILL
  6
CONTINUOUS
 62
     7
 10
164.4500000000001
 20
150.47500000000099
 30
0.0
 40
3.0
  0
CIRCLE
  5
21C
  8
PATTERN_FILL
  6
CONTINUOUS
 62
     7
 10
172.35000000000011
 20
150.47500000000099
 30
0.0
 40
3.0
  0
CIRCLE
  5
21D
  8
PATTERN_FILL
  6
CONTINUOUS
 62
     7
 10
180.25000000000011
 20
150.47500000000099
 30
0.0
 40
3.0
  0
CIRCLE
  5
21E
  8
PATTERN_FILL
  6
CONTINUOUS
 62
     7
 10
188.15000000000001
 20
150.47500000000099
 30
0.0
 40
3.0
  0
CIRCLE
  5
21F
  8
PATTERN_FILL
  6
CONTINUOUS
 62
     7
 10
196.0500000000001
 20
150.47500000000099
 30
0.0
 40
3.0
  0
CIRCLE
  5
220
  8
PATTERN_FILL
  6
CONTINUOUS
 62
     7
 10
203.95000000000019
 20
150.47500000000099
 30
0.0
 40
3.0
  0
CIRCLE
  5
221
  8
PATTERN_FILL
  6
CONTINUOUS
 62
     7
 10
211.85000000000011
 20
150.47500000000099
 30
0.0
 40
3.0
  0
CIRCLE
  5
222
  8
PATTERN_FILL
  6
CONTINUOUS
 62
     7
 10
219.75000000000011
 20
150.47500000000099
 30
0.0
 40
3.0
  0
CIRCLE
  5
223
  8
PATTERN_FILL
  6
CONTINUOUS
 62
     7
 10
227.6500000000002
 20
150.47500000000099
 30
0.0
 40
3.0
  0
ARC
  5
224
  8
PATTERN_FILL
  6
CONTINUOUS
 62
     7
 10
235.5500000000001
 20
150.47500000000099
 30
0.0
 40
3.0000000000000671
 50
37.460492030449991
 51
3.658563751609754
  0
CIRCLE
  5
225
  8
PATTERN_FILL
  6
CONTINUOUS
 62
     7
 10
49.899999999999977
 20
157.30000000000081
 30
0.0
 40
3.0
  0
CIRCLE
  5
226
  8
PATTERN_FILL
  6
CONTINUOUS
 62
     7
 10
57.799999999999962
 20
157.30000000000081
 30
0.0
 40
3.0
  0
CIRCLE
  5
227
  8
PATTERN_FILL
  6
CONTINUOUS
 62
     7
 10
65.700000000000045
 20
157.30000000000081
 30
0.0
 40
3.0
  0
CIRCLE
  5
228
  8
PATTERN_FILL
  6
CONTINUOUS
 62
     7
 10
73.600000000000023
 20
157.30000000000081
 30
0.0
 40
3.0
  0
CIRCLE
  5
229
  8
PATTERN_FILL
  6
CONTINUOUS
 62
     7
 10
81.5
 20
157.30000000000081
 30
0.0
 40
3.0
  0
CIRCLE
  5
22A
  8
PATTERN_FILL
  6
CONTINUOUS
 62
     7
 10
89.399999999999949
 20
157.30000000000081
 30
0.0
 40
3.0
  0
CIRCLE
  5
22B
  8
PATTERN_FILL
  6
CONTINUOUS
 62
     7
 10
97.299999999999955
 20
157.30000000000081
 30
0.0
 40
3.0
  0
CIRCLE
  5
22C
  8
PATTERN_FILL
  6
CONTINUOUS
 62
     7
 10
105.2
 20
157.30000000000081
 30
0.0
 40
3.0
  0
CIRCLE
  5
22D
  8
PATTERN_FILL
  6
CONTINUOUS
 62
     7
 10
113.09999999999999
 20
157.30000000000081
 30
0.0
 40
3.0
  0
CIRCLE
  5
22E
  8
PATTERN_FILL
  6
CONTINUOUS
 62
     7
 10
121.0
 20
157.30000000000081
 30
0.0
 40
3.0
  0
CIRCLE
  5
22F
  8
PATTERN_FILL
  6
CONTINUOUS
 62
     7
 10
128.89999999999989
 20
157.30000000000081
 30
0.0
 40
3.0
  0
CIRCLE
  5
230
  8
PATTERN_FILL
  6
CONTINUOUS
 62
     7
 10
136.7999999999999
 20
157.30000000000081
 30
0.0
 40
3.0
  0
CIRCLE
  5
231
  8
PATTERN_FILL
  6
CONTINUOUS
 62
     7
 10
144.69999999999999
 20
157.30000000000081
 30
0.0
 40
3.0
  0
CIRCLE
  5
232
  8
PATTERN_FILL
  6
CONTINUOUS
 62
     7
 10
152.59999999999999
 20
157.30000000000081
 30
0.0
 40
3.0
  0
CIRCLE
  5
233
  8
PATTERN_FILL
  6
CONTINUOUS
 62
     7
 10
160.5
 20
157.30000000000081
 30
0.0
 40
3.0
  0
CIRCLE
  5
234
  8
PATTERN_FILL
  6
CONTINUOUS
 62
     7
 10
168.40000000000009
 20
157.30000000000081
 30
0.0
 40
3.0
  0
CIRCLE
  5
235
  8
PATTERN_FILL
  6
CONTINUOUS
 62
     7
 10
176.30000000000001
 20
157.30000000000081
 30
0.0
 40
3.0
  0
CIRCLE
  5
236
  8
PATTERN_FILL
  6
CONTINUOUS
 62
     7
 10
184.19999999999999
 20
157.30000000000081
 30
0.0
 40
3.0
  0
CIRCLE
  5
237
  8
PATTERN_FILL
  6
CONTINUOUS
 62
     7
 10
192.09999999999999
 20
157.30000000000081
 30
0.0
 40
3.0
  0
CIRCLE
  5
238
  8
PATTERN_FILL
  6
CONTINUOUS
 62
     7
 10
200.0
 20
157.30000000000081
 30
0.0
 40
3.0
  0
CIRCLE
  5
239
  8
PATTERN_FILL
  6
CONTINUOUS
 62
     7
 10
207.90000000000009
 20
157.30000000000081
 30
0.0
 40
3.0
  0
CIRCLE
  5
23A
  8
PATTERN_FILL
  6
CONTINUOUS
 62
     7
 10
215.8000000000001
 20
157.30000000000081
 30
0.0
 40
3.0
  0
CIRCLE
  5
23B
  8
PATTERN_FILL
  6
CONTINUOUS
 62
     7
 10
223.69999999999999
 20
157.30000000000081
 30
0.0
 40
3.0
  0
CIRCLE
  5
23C
  8
PATTERN_FILL
  6
CONTINUOUS
 62
     7
 10
231.60000000000011
 20
157.30000000000081
 30
0.0
 40
3.0
  0
CIRCLE
  5
23D
  8
PATTERN_FILL
  6
CONTINUOUS
 62
     7
 10
45.950000000000053
 20
164.12500000000091
 30
0.0
 40
3.0
  0
CIRCLE
  5
23E
  8
PATTERN_FILL
  6
CONTINUOUS
 62
     7
 10
53.850000000000009
 20
164.12500000000091
 30
0.0
 40
3.0
  0
CIRCLE
  5
23F
  8
PATTERN_FILL
  6
CONTINUOUS
 62
     7
 10
61.750000000000107
 20
164.12500000000091
 30
0.0
 40
3.0
  0
CIRCLE
  5
240
  8
PATTERN_FILL
  6
CONTINUOUS
 62
     7
 10
69.650000000000091
 20
164.12500000000091
 30
0.0
 40
3.0
  0
CIRCLE
  5
241
  8
PATTERN_FILL
  6
CONTINUOUS
 62
     7
 10
77.550000000000054
 20
164.12500000000091
 30
0.0
 40
3.0
  0
CIRCLE
  5
242
  8
PATTERN_FILL
  6
CONTINUOUS
 62
     7
 10
85.450000000000031
 20
164.12500000000091
 30
0.0
 40
3.0
  0
CIRCLE
  5
243
  8
PATTERN_FILL
  6
CONTINUOUS
 62
     7
 10
93.350000000000023
 20
164.12500000000091
 30
0.0
 40
3.0
  0
CIRCLE
  5
244
  8
PATTERN_FILL
  6
CONTINUOUS
 62
     7
 10
101.2500000000001
 20
164.12500000000091
 30
0.0
 40
3.0
  0
CIRCLE
  5
245
  8
PATTERN_FILL
  6
CONTINUOUS
 62
     7
 10
109.15000000000011
 20
164.12500000000091
 30
0.0
 40
3.0
  0
CIRCLE
  5
246
  8
PATTERN_FILL
  6
CONTINUOUS
 62
     7
 10
117.05
 20
164.12500000000091
 30
0.0
 40
3.0
  0
CIRCLE
  5
247
  8
PATTERN_FILL
  6
CONTINUOUS
 62
     7
 10
124.95
 20
164.12500000000091
 30
0.0
 40
3.0
  0
CIRCLE
  5
248
  8
PATTERN_FILL
  6
CONTINUOUS
 62
     7
 10
132.84999999999999
 20
164.12500000000091
 30
0.0
 40
3.0
  0
CIRCLE
  5
249
  8
PATTERN_FILL
  6
CONTINUOUS
 62
     7
 10
140.75000000000011
 20
164.12500000000091
 30
0.0
 40
3.0
  0
CIRCLE
  5
24A
  8
PATTERN_FILL
  6
CONTINUOUS
 62
     7
 10
148.65000000000009
 20
164.12500000000091
 30
0.0
 40
3.0
  0
CIRCLE
  5
24B
  8
PATTERN_FILL
  6
CONTINUOUS
 62
     7
 10
156.5500000000001
 20
164.12500000000091
 30
0.0
 40
3.0
  0
CIRCLE
  5
24C
  8
PATTERN_FILL
  6
CONTINUOUS
 62
     7
 10
164.4500000000001
 20
164.12500000000091
 30
0.0
 40
3.0
  0
CIRCLE
  5
24D
  8
PATTERN_FILL
  6
CONTINUOUS
 62
     7
 10
172.35000000000011
 20
164.12500000000091
 30
0.0
 40
3.0
  0
CIRCLE
  5
24E
  8
PATTERN_FILL
  6
CONTINUOUS
 62
     7
 10
180.25000000000011
 20
164.12500000000091
 30
0.0
 40
3.0
  0
CIRCLE
  5
24F
  8
PATTERN_FILL
  6
CONTINUOUS
 62
     7
 10
188.15000000000001
 20
164.12500000000091
 30
0.0
 40
3.0
  0
CIRCLE
  5
250
  8
PATTERN_FILL
  6
CONTINUOUS
 62
     7
 10
196.0500000000001
 20
164.12500000000091
 30
0.0
 40
3.0
  0
CIRCLE
  5
251
  8
PATTERN_FILL
  6
CONTINUOUS
 62
     7
 10
203.95000000000019
 20
164.12500000000091
 30
0.0
 40
3.0
  0
CIRCLE
  5
252
  8
PATTERN_FILL
  6
CONTINUOUS
 62
     7
 10
211.85000000000011
 20
164.12500000000091
 30
0.0
 40
3.0
  0
CIRCLE
  5
253
  8
PATTERN_FILL
  6
CONTINUOUS
 62
     7
 10
219.75000000000011
 20
164.12500000000091
 30
0.0
 40
3.0
  0
CIRCLE
  5
254
  8
PATTERN_FILL
  6
CONTINUOUS
 62
     7
 10
227.6500000000002
 20
164.12500000000091
 30
0.0
 40
3.0
  0
CIRCLE
  5
255
  8
PATTERN_FILL
  6
CONTINUOUS
 62
     7
 10
49.899999999999977
 20
170.95000000000101
 30
0.0
 40
3.0
  0
CIRCLE
  5
256
  8
PATTERN_FILL
  6
CONTINUOUS
 62
     7
 10
57.799999999999962
 20
170.95000000000101
 30
0.0
 40
3.0
  0
CIRCLE
  5
257
  8
PATTERN_FILL
  6
CONTINUOUS
 62
     7
 10
65.700000000000045
 20
170.95000000000101
 30
0.0
 40
3.0
  0
CIRCLE
  5
258
  8
PATTERN_FILL
  6
CONTINUOUS
 62
     7
 10
73.600000000000023
 20
170.95000000000101
 30
0.0
 40
3.0
  0
CIRCLE
  5
259
  8
PATTERN_FILL
  6
CONTINUOUS
 62
     7
 10
81.5
 20
170.95000000000101
 30
0.0
 40
3.0
  0
CIRCLE
  5
25A
  8
PATTERN_FILL
  6
CONTINUOUS
 62
     7
 10
89.399999999999949
 20
170.95000000000101
 30
0.0
 40
3.0
  0
CIRCLE
  5
25B
  8
PATTERN_FILL
  6
CONTINUOUS
 62
     7
 10
97.299999999999955
 20
170.95000000000101
 30
0.0
 40
3.0
  0
CIRCLE
  5
25C
  8
PATTERN_FILL
  6
CONTINUOUS
 62
     7
 10
105.2
 20
170.95000000000101
 30
0.0
 40
3.0
  0
CIRCLE
  5
25D
  8
PATTERN_FILL
  6
CONTINUOUS
 62
     7
 10
113.09999999999999
 20
170.95000000000101
 30
0.0
 40
3.0
  0
CIRCLE
  5
25E
  8
PATTERN_FILL
  6
CONTINUOUS
 62
     7
 10
121.0
 20
170.95000000000101
 30
0.0
 40
3.0
  0
CIRCLE
  5
25F
  8
PATTERN_FILL
  6
CONTINUOUS
 62
     7
 10
128.89999999999989
 20
170.95000000000101
 30
0.0
 40
3.0
  0
CIRCLE
  5
260
  8
PATTERN_FILL
  6
CONTINUOUS
 62
     7
 10
136.7999999999999
 20
170.95000000000101
 30
0.0
 40
3.0
  0
CIRCLE
  5
261
  8
PATTERN_FILL
  6
CONTINUOUS
 62
     7
 10
144.69999999999999
 20
170.95000000000101
 30
0.0
 40
3.0
  0
CIRCLE
  5
262
  8
PATTERN_FILL
  6
CONTINUOUS
 62
     7
 10
152.59999999999999
 20
170.95000000000101
 30
0.0
 40
3.0
  0
CIRCLE
  5
263
  8
PATTERN_FILL
  6
CONTINUOUS
 62
     7
 10
160.5
 20
170.95000000000101
 30
0.0
 40
3.0
  0
CIRCLE
  5
264
  8
PATTERN_FILL
  6
CONTINUOUS
 62
     7
 10
168.40000000000009
 20
170.95000000000101
 30
0.0
 40
3.0
  0
CIRCLE
  5
265
  8
PATTERN_FILL
  6
CONTINUOUS
 62
     7
 10
176.30000000000001
 20
170.95000000000101
 30
0.0
 40
3.0
  0
CIRCLE
  5
266
  8
PATTERN_FILL
  6
CONTINUOUS
 62
     7
 10
184.19999999999999
 20
170.95000000000101
 30
0.0
 40
3.0
  0
CIRCLE
  5
267
  8
PATTERN_FILL
  6
CONTINUOUS
 62
     7
 10
192.09999999999999
 20
170.95000000000101
 30
0.0
 40
3.0
  0
CIRCLE
  5
268
  8
PATTERN_FILL
  6
CONTINUOUS
 62
     7
 10
200.0
 20
170.95000000000101
 30
0.0
 40
3.0
  0
CIRCLE
  5
269
  8
PATTERN_FILL
  6
CONTINUOUS
 62
     7
 10
207.90000000000009
 20
170.95000000000101
 30
0.0
 40
3.0
  0
CIRCLE
  5
26A
  8
PATTERN_FILL
  6
CONTINUOUS
 62
     7
 10
215.8000000000001
 20
170.95000000000101
 30
0.0
 40
3.0
  0
CIRCLE
  5
26B
  8
PATTERN_FILL
  6
CONTINUOUS
 62
     7
 10
223.69999999999999
 20
170.95000000000101
 30
0.0
 40
3.0
  0
ARC
  5
26C
  8
PATTERN_FILL
  6
CONTINUOUS
 62
     7
 10
231.60000000000011
 20
170.95000000000101
 30
0.0
 40
3.0000000000000009
 50
153.09326981918761
 51
260.68415795709438
  0
CIRCLE
  5
26D
  8
PATTERN_FILL
  6
CONTINUOUS
 62
     7
 10
45.950000000000053
 20
177.775000000001
 30
0.0
 40
3.0
  0
CIRCLE
  5
26E
  8
PATTERN_FILL
  6
CONTINUOUS
 62
     7
 10
53.850000000000009
 20
177.775000000001
 30
0.0
 40
3.0
  0
CIRCLE
  5
26F
  8
PATTERN_FILL
  6
CONTINUOUS
 62
     7
 10
61.750000000000107
 20
177.775000000001
 30
0.0
 40
3.0
  0
CIRCLE
  5
270
  8
PATTERN_FILL
  6
CONTINUOUS
 62
     7
 10
69.650000000000091
 20
177.775000000001
 30
0.0
 40
3.0
  0
CIRCLE
  5
271
  8
PATTERN_FILL
  6
CONTINUOUS
 62
     7
 10
77.550000000000054
 20
177.775000000001
 30
0.0
 40
3.0
  0
CIRCLE
  5
272
  8
PATTERN_FILL
  6
CONTINUOUS
 62
     7
 10
85.450000000000031
 20
177.775000000001
 30
0.0
 40
3.0
  0
CIRCLE
  5
273
  8
PATTERN_FILL
  6
CONTINUOUS
 62
     7
 10
93.350000000000023
 20
177.775000000001
 30
0.0
 40
3.0
  0
CIRCLE
  5
274
  8
PATTERN_FILL
  6
CONTINUOUS
 62
     7
 10
101.2500000000001
 20
177.775000000001
 30
0.0
 40
3.0
  0
CIRCLE
  5
275
  8
PATTERN_FILL
  6
CONTINUOUS
 62
     7
 10
109.15000000000011
 20
177.775000000001
 30
0.0
 40
3.0
  0
CIRCLE
  5
276
  8
PATTERN_FILL
  6
CONTINUOUS
 62
     7
 10
117.05
 20
177.775000000001
 30
0.0
 40
3.0
  0
CIRCLE
  5
277
  8
PATTERN_FILL
  6
CONTINUOUS
 62
     7
 10
124.95
 20
177.775000000001
 30
0.0
 40
3.0
  0
CIRCLE
  5
278
  8
PATTERN_FILL
  6
CONTINUOUS
 62
     7
 10
132.84999999999999
 20
177.775000000001
 30
0.0
 40
3.0
  0
CIRCLE
  5
279
  8
PATTERN_FILL
  6
CONTINUOUS
 62
     7
 10
140.75000000000011
 20
177.775000000001
 30
0.0
 40
3.0
  0
CIRCLE
  5
27A
  8
PATTERN_FILL
  6
CONTINUOUS
 62
     7
 10
148.65000000000009
 20
177.775000000001
 30
0.0
 40
3.0
  0
CIRCLE
  5
27B
  8
PATTERN_FILL
  6
CONTINUOUS
 62
     7
 10
156.5500000000001
 20
177.775000000001
 30
0.0
 40
3.0
  0
CIRCLE
  5
27C
  8
PATTERN_FILL
  6
CONTINUOUS
 62
     7
 10
164.4500000000001
 20
177.775000000001
 30
0.0
 40
3.0
  0
CIRCLE
  5
27D
  8
PATTERN_FILL
  6
CONTINUOUS
 62
     7
 10
172.35000000000011
 20
177.775000000001
 30
0.0
 40
3.0
  0
CIRCLE
  5
27E
  8
PATTERN_FILL
  6
CONTINUOUS
 62
     7
 10
180.25000000000011
 20
177.775000000001
 30
0.0
 40
3.0
  0
CIRCLE
  5
27F
  8
PATTERN_FILL
  6
CONTINUOUS
 62
     7
 10
188.15000000000001
 20
177.775000000001
 30
0.0
 40
3.0
  0
CIRCLE
  5
280
  8
PATTERN_FILL
  6
CONTINUOUS
 62
     7
 10
196.0500000000001
 20
177.775000000001
 30
0.0
 40
3.0
  0
CIRCLE
  5
281
  8
PATTERN_FILL
  6
CONTINUOUS
 62
     7
 10
203.95000000000019
 20
177.775000000001
 30
0.0
 40
3.0
  0
CIRCLE
  5
282
  8
PATTERN_FILL
  6
CONTINUOUS
 62
     7
 10
211.85000000000011
 20
177.775000000001
 30
0.0
 40
3.0
  0
CIRCLE
  5
283
  8
PATTERN_FILL
  6
CONTINUOUS
 62
     7
 10
219.75000000000011
 20
177.775000000001
 30
0.0
 40
3.0
  0
ARC
  5
284
  8
PATTERN_FILL
  6
CONTINUOUS
 62
     7
 10
227.6500000000002
 20
177.775000000001
 30
0.0
 40
3.0000000000000182
 50
149.41412959710871
 51
269.20993779511872
  0
CIRCLE
  5
285
  8
PATTERN_FILL
  6
CONTINUOUS
 62
     7
 10
49.899999999999977
 20
184.60000000000099
 30
0.0
 40
3.0
  0
CIRCLE
  5
286
  8
PATTERN_FILL
  6
CONTINUOUS
 62
     7
 10
57.799999999999962
 20
184.60000000000099
 30
0.0
 40
3.0
  0
CIRCLE
  5
287
  8
PATTERN_FILL
  6
CONTINUOUS
 62
     7
 10
65.700000000000045
 20
184.60000000000099
 30
0.0
 40
3.0
  0
CIRCLE
  5
288
  8
PATTERN_FILL
  6
CONTINUOUS
 62
     7
 10
73.600000000000023
 20
184.60000000000099
 30
0.0
 40
3.0
  0
CIRCLE
  5
289
  8
PATTERN_FILL
  6
CONTINUOUS
 62
     7
 10
81.5
 20
184.60000000000099
 30
0.0
 40
3.0
  0
CIRCLE
  5
28A
  8
PATTERN_FILL
  6
CONTINUOUS
 62
     7
 10
89.399999999999949
 20
184.60000000000099
 30
0.0
 40
3.0
  0
CIRCLE
  5
28B
  8
PATTERN_FILL
  6
CONTINUOUS
 62
     7
 10
97.299999999999955
 20
184.60000000000099
 30
0.0
 40
3.0
  0
CIRCLE
  5
28C
  8
PATTERN_FILL
  6
CONTINUOUS
 62
     7
 10
105.2
 20
184.60000000000099
 30
0.0
 40
3.0
  0
CIRCLE
  5
28D
  8
PATTERN_FILL
  6
CONTINUOUS
 62
     7
 10
113.09999999999999
 20
184.60000000000099
 30
0.0
 40
3.0
  0
CIRCLE
  5
28E
  8
PATTERN_FILL
  6
CONTINUOUS
 62
     7
 10
121.0
 20
184.60000000000099
 30
0.0
 40
3.0
  0
CIRCLE
  5
28F
  8
PATTERN_FILL
  6
CONTINUOUS
 62
     7
 10
128.89999999999989
 20
184.60000000000099
 30
0.0
 40
3.0
  0
CIRCLE
  5
290
  8
PATTERN_FILL
  6
CONTINUOUS
 62
     7
 10
136.7999999999999
 20
184.60000000000099
 30
0.0
 40
3.0
  0
CIRCLE
  5
291
  8
PATTERN_FILL
  6
CONTINUOUS
 62
     7
 10
144.69999999999999
 20
184.60000000000099
 30
0.0
 40
3.0
  0
CIRCLE
  5
292
  8
PATTERN_FILL
  6
CONTINUOUS
 62
     7
 10
152.59999999999999
 20
184.60000000000099
 30
0.0
 40
3.0
  0
CIRCLE
  5
293
  8
PATTERN_FILL
  6
CONTINUOUS
 62
     7
 10
160.5
 20
184.60000000000099
 30
0.0
 40
3.0
  0
CIRCLE
  5
294
  8
PATTERN_FILL
  6
CONTINUOUS
 62
     7
 10
168.40000000000009
 20
184.60000000000099
 30
0.0
 40
3.0
  0
CIRCLE
  5
295
  8
PATTERN_FILL
  6
CONTINUOUS
 62
     7
 10
176.30000000000001
 20
184.60000000000099
 30
0.0
 40
3.0
  0
CIRCLE
  5
296
  8
PATTERN_FILL
  6
CONTINUOUS
 62
     7
 10
184.19999999999999
 20
184.60000000000099
 30
0.0
 40
3.0
  0
CIRCLE
  5
297
  8
PATTERN_FILL
  6
CONTINUOUS
 62
     7
 10
192.09999999999999
 20
184.60000000000099
 30
0.0
 40
3.0
  0
CIRCLE
  5
298
  8
PATTERN_FILL
  6
CONTINUOUS
 62
     7
 10
200.0
 20
184.60000000000099
 30
0.0
 40
3.0
  0
CIRCLE
  5
299
  8
PATTERN_FILL
  6
CONTINUOUS
 62
     7
 10
207.90000000000009
 20
184.60000000000099
 30
0.0
 40
3.0
  0
CIRCLE
  5
29A
  8
PATTERN_FILL
  6
CONTINUOUS
 62
     7
 10
215.8000000000001
 20
184.60000000000099
 30
0.0
 40
3.0
  0
ARC
  5
29B
  8
PATTERN_FILL
  6
CONTINUOUS
 62
     7
 10
223.69999999999999
 20
184.60000000000099
 30
0.0
 40
2.9999999999999658
 50
153.250966285841
 51
270.22509798379031
  0
CIRCLE
  5
29C
  8
PATTERN_FILL
  6
CONTINUOUS
 62
     7
 10
45.950000000000053
 20
191.42500000000109
 30
0.0
 40
3.0
  0
CIRCLE
  5
29D
  8
PATTERN_FILL
  6
CONTINUOUS
 62
     7
 10
53.850000000000009
 20
191.42500000000109
 30
0.0
 40
3.0
  0
CIRCLE
  5
29E
  8
PATTERN_FILL
  6
CONTINUOUS
 62
     7
 10
61.750000000000107
 20
191.42500000000109
 30
0.0
 40
3.0
  0
CIRCLE
  5
29F
  8
PATTERN_FILL
  6
CONTINUOUS
 62
     7
 10
69.650000000000091
 20
191.42500000000109
 30
0.0
 40
3.0
  0
CIRCLE
  5
2A0
  8
PATTERN_FILL
  6
CONTINUOUS
 62
     7
 10
77.550000000000054
 20
191.42500000000109
 30
0.0
 40
3.0
  0
CIRCLE
  5
2A1
  8
PATTERN_FILL
  6
CONTINUOUS
 62
     7
 10
85.450000000000031
 20
191.42500000000109
 30
0.0
 40
3.0
  0
CIRCLE
  5
2A2
  8
PATTERN_FILL
  6
CONTINUOUS
 62
     7
 10
93.350000000000023
 20
191.42500000000109
 30
0.0
 40
3.0
  0
CIRCLE
  5
2A3
  8
PATTERN_FILL
  6
CONTINUOUS
 62
     7
 10
101.2500000000001
 20
191.42500000000109
 30
0.0
 40
3.0
  0
CIRCLE
  5
2A4
  8
PATTERN_FILL
  6
CONTINUOUS
 62
     7
 10
109.15000000000011
 20
191.42500000000109
 30
0.0
 40
3.0
  0
CIRCLE
  5
2A5
  8
PATTERN_FILL
  6
CONTINUOUS
 62
     7
 10
117.05
 20
191.42500000000109
 30
0.0
 40
3.0
  0
CIRCLE
  5
2A6
  8
PATTERN_FILL
  6
CONTINUOUS
 62
     7
 10
124.95
 20
191.42500000000109
 30
0.0
 40
3.0
  0
CIRCLE
  5
2A7
  8
PATTERN_FILL
  6
CONTINUOUS
 62
     7
 10
132.84999999999999
 20
191.42500000000109
 30
0.0
 40
3.0
  0
CIRCLE
  5
2A8
  8
PATTERN_FILL
  6
CONTINUOUS
 62
     7
 10
140.75000000000011
 20
191.42500000000109
 30
0.0
 40
3.0
  0
CIRCLE
  5
2A9
  8
PATTERN_FILL
  6
CONTINUOUS
 62
     7
 10
148.65000000000009
 20
191.42500000000109
 30
0.0
 40
3.0
  0
CIRCLE
  5
2AA
  8
PATTERN_FILL
  6
CONTINUOUS
 62
     7
 10
156.5500000000001
 20
191.42500000000109
 30
0.0
 40
3.0
  0
CIRCLE
  5
2AB
  8
PATTERN_FILL
  6
CONTINUOUS
 62
     7
 10
164.4500000000001
 20
191.42500000000109
 30
0.0
 40
3.0
  0
CIRCLE
  5
2AC
  8
PATTERN_FILL
  6
CONTINUOUS
 62
     7
 10
172.35000000000011
 20
191.42500000000109
 30
0.0
 40
3.0
  0
CIRCLE
  5
2AD
  8
PATTERN_FILL
  6
CONTINUOUS
 62
     7
 10
180.25000000000011
 20
191.42500000000109
 30
0.0
 40
3.0
  0
CIRCLE
  5
2AE
  8
PATTERN_FILL
  6
CONTINUOUS
 62
     7
 10
188.15000000000001
 20
191.42500000000109
 30
0.0
 40
3.0
  0
CIRCLE
  5
2AF
  8
PATTERN_FILL
  6
CONTINUOUS
 62
     7
 10
196.0500000000001
 20
191.42500000000109
 30
0.0
 40
3.0
  0
CIRCLE
  5
2B0
  8
PATTERN_FILL
  6
CONTINUOUS
 62
     7
 10
203.95000000000019
 20
191.42500000000109
 30
0.0
 40
3.0
  0
CIRCLE
  5
2B1
  8
PATTERN_FILL
  6
CONTINUOUS
 62
     7
 10
211.85000000000011
 20
191.42500000000109
 30
0.0
 40
3.0
  0
ARC
  5
2B2
  8
PATTERN_FILL
  6
CONTINUOUS
 62
     7
 10
219.75000000000011
 20
191.42500000000109
 30
0.0
 40
3.000000000000024
 50
164.99358179205069
 51
263.32248143315888
  0
CIRCLE
  5
2B3
  8
PATTERN_FILL
  6
CONTINUOUS
 62
     7
 10
49.899999999999977
 20
198.2500000000008
 30
0.0
 40
3.0
  0
CIRCLE
  5
2B4
  8
PATTERN_FILL
  6
CONTINUOUS
 62
     7
 10
57.799999999999962
 20
198.2500000000008
 30
0.0
 40
3.0
  0
CIRCLE
  5
2B5
  8
PATTERN_FILL
  6
CONTINUOUS
 62
     7
 10
65.700000000000045
 20
198.2500000000008
 30
0.0
 40
3.0
  0
CIRCLE
  5
2B6
  8
PATTERN_FILL
  6
CONTINUOUS
 62
     7
 10
73.600000000000023
 20
198.2500000000008
 30
0.0
 40
3.0
  0
CIRCLE
  5
2B7
  8
PATTERN_FILL
  6
CONTINUOUS
 62
     7
 10
81.5
 20
198.2500000000008
 30
0.0
 40
3.0
  0
CIRCLE
  5
2B8
  8
PATTERN_FILL
  6
CONTINUOUS
 62
     7
 10
89.399999999999949
 20
198.2500000000008
 30
0.0
 40
3.0
  0
CIRCLE
  5
2B9
  8
PATTERN_FILL
  6
CONTINUOUS
 62
     7
 10
97.299999999999955
 20
198.2500000000008
 30
0.0
 40
3.0
  0
CIRCLE
  5
2BA
  8
PATTERN_FILL
  6
CONTINUOUS
 62
     7
 10
105.2
 20
198.2500000000008
 30
0.0
 40
3.0
  0
CIRCLE
  5
2BB
  8
PATTERN_FILL
  6
CONTINUOUS
 62
     7
 10
113.09999999999999
 20
198.2500000000008
 30
0.0
 40
3.0
  0
CIRCLE
  5
2BC
  8
PATTERN_FILL
  6
CONTINUOUS
 62
     7
 10
121.0
 20
198.2500000000008
 30
0.0
 40
3.0
  0
CIRCLE
  5
2BD
  8
PATTERN_FILL
  6
CONTINUOUS
 62
     7
 10
128.89999999999989
 20
198.2500000000008
 30
0.0
 40
3.0
  0
CIRCLE
  5
2BE
  8
PATTERN_FILL
  6
CONTINUOUS
 62
     7
 10
136.7999999999999
 20
198.2500000000008
 30
0.0
 40
3.0
  0
CIRCLE
  5
2BF
  8
PATTERN_FILL
  6
CONTINUOUS
 62
     7
 10
144.69999999999999
 20
198.2500000000008
 30
0.0
 40
3.0
  0
CIRCLE
  5
2C0
  8
PATTERN_FILL
  6
CONTINUOUS
 62
     7
 10
152.59999999999999
 20
198.2500000000008
 30
0.0
 40
3.0
  0
CIRCLE
  5
2C1
  8
PATTERN_FILL
  6
CONTINUOUS
 62
     7
 10
160.5
 20
198.2500000000008
 30
0.0
 40
3.0
  0
CIRCLE
  5
2C2
  8
PATTERN_FILL
  6
CONTINUOUS
 62
     7
 10
168.40000000000009
 20
198.2500000000008
 30
0.0
 40
3.0
  0
CIRCLE
  5
2C3
  8
PATTERN_FILL
  6
CONTINUOUS
 62
     7
 10
176.30000000000001
 20
198.2500000000008
 30
0.0
 40
3.0
  0
CIRCLE
  5
2C4
  8
PATTERN_FILL
  6
CONTINUOUS
 62
     7
 10
184.19999999999999
 20
198.2500000000008
 30
0.0
 40
3.0
  0
CIRCLE
  5
2C5
  8
PATTERN_FILL
  6
CONTINUOUS
 62
     7
 10
192.09999999999999
 20
198.2500000000008
 30
0.0
 40
3.0
  0
CIRCLE
  5
2C6
  8
PATTERN_FILL
  6
CONTINUOUS
 62
     7
 10
200.0
 20
198.2500000000008
 30
0.0
 40
3.0
  0
CIRCLE
  5
2C7
  8
PATTERN_FILL
  6
CONTINUOUS
 62
     7
 10
207.90000000000009
 20
198.2500000000008
 30
0.0
 40
3.0
  0
CIRCLE
  5
2C8
  8
PATTERN_FILL
  6
CONTINUOUS
 62
     7
 10
45.950000000000053
 20
205.0750000000009
 30
0.0
 40
3.0
  0
CIRCLE
  5
2C9
  8
PATTERN_FILL
  6
CONTINUOUS
 62
     7
 10
53.850000000000009
 20
205.0750000000009
 30
0.0
 40
3.0
  0
CIRCLE
  5
2CA
  8
PATTERN_FILL
  6
CONTINUOUS
 62
     7
 10
61.750000000000107
 20
205.0750000000009
 30
0.0
 40
3.0
  0
CIRCLE
  5
2CB
  8
PATTERN_FILL
  6
CONTINUOUS
 62
     7
 10
69.650000000000091
 20
205.0750000000009
 30
0.0
 40
3.0
  0
CIRCLE
  5
2CC
  8
PATTERN_FILL
  6
CONTINUOUS
 62
     7
 10
77.550000000000054
 20
205.0750000000009
 30
0.0
 40
3.0
  0
CIRCLE
  5
2CD
  8
PATTERN_FILL
  6
CONTINUOUS
 62
     7
 10
85.450000000000031
 20
205.0750000000009
 30
0.0
 40
3.0
  0
CIRCLE
  5
2CE
  8
PATTERN_FILL
  6
CONTINUOUS
 62
     7
 10
93.350000000000023
 20
205.0750000000009
 30
0.0
 40
3.0
  0
CIRCLE
  5
2CF
  8
PATTERN_FILL
  6
CONTINUOUS
 62
     7
 10
101.2500000000001
 20
205.0750000000009
 30
0.0
 40
3.0
  0
CIRCLE
  5
2D0
  8
PATTERN_FILL
  6
CONTINUOUS
 62
     7
 10
109.15000000000011
 20
205.0750000000009
 30
0.0
 40
3.0
  0
CIRCLE
  5
2D1
  8
PATTERN_FILL
  6
CONTINUOUS
 62
     7
 10
117.05
 20
205.0750000000009
 30
0.0
 40
3.0
  0
CIRCLE
  5
2D2
  8
PATTERN_FILL
  6
CONTINUOUS
 62
     7
 10
124.95
 20
205.0750000000009
 30
0.0
 40
3.0
  0
CIRCLE
  5
2D3
  8
PATTERN_FILL
  6
CONTINUOUS
 62
     7
 10
132.84999999999999
 20
205.0750000000009
 30
0.0
 40
3.0
  0
CIRCLE
  5
2D4
  8
PATTERN_FILL
  6
CONTINUOUS
 62
     7
 10
140.75000000000011
 20
205.0750000000009
 30
0.0
 40
3.0
  0
CIRCLE
  5
2D5
  8
PATTERN_FILL
  6
CONTINUOUS
 62
     7
 10
148.65000000000009
 20
205.0750000000009
 30
0.0
 40
3.0
  0
CIRCLE
  5
2D6
  8
PATTERN_FILL
  6
CONTINUOUS
 62
     7
 10
156.5500000000001
 20
205.0750000000009
 30
0.0
 40
3.0
  0
CIRCLE
  5
2D7
  8
PATTERN_FILL
  6
CONTINUOUS
 62
     7
 10
164.4500000000001
 20
205.0750000000009
 30
0.0
 40
3.0
  0
CIRCLE
  5
2D8
  8
PATTERN_FILL
  6
CONTINUOUS
 62
     7
 10
172.35000000000011
 20
205.0750000000009
 30
0.0
 40
3.0
  0
CIRCLE
  5
2D9
  8
PATTERN_FILL
  6
CONTINUOUS
 62
     7
 10
180.25000000000011
 20
205.0750000000009
 30
0.0
 40
3.0
  0
CIRCLE
  5
2DA
  8
PATTERN_FILL
  6
CONTINUOUS
 62
     7
 10
188.15000000000001
 20
205.0750000000009
 30
0.0
 40
3.0
  0
CIRCLE
  5
2DB
  8
PATTERN_FILL
  6
CONTINUOUS
 62
     7
 10
196.0500000000001
 20
205.0750000000009
 30
0.0
 40
3.0
  0
ARC
  5
2DC
  8
PATTERN_FILL
  6
CONTINUOUS
 62
     7
 10
203.95000000000019
 20
205.0750000000009
 30
0.0
 40
2.9999999999999321
 50
79.413132914573055
 51
1.59958624038731
  0
CIRCLE
  5
2DD
  8
PATTERN_FILL
  6
CONTINUOUS
 62
     7
 10
49.899999999999977
 20
211.900000000001
 30
0.0
 40
3.0
  0
CIRCLE
  5
2DE
  8
PATTERN_FILL
  6
CONTINUOUS
 62
     7
 10
57.799999999999962
 20
211.900000000001
 30
0.0
 40
3.0
  0
CIRCLE
  5
2DF
  8
PATTERN_FILL
  6
CONTINUOUS
 62
     7
 10
65.700000000000045
 20
211.900000000001
 30
0.0
 40
3.0
  0
CIRCLE
  5
2E0
  8
PATTERN_FILL
  6
CONTINUOUS
 62
     7
 10
73.600000000000023
 20
211.900000000001
 30
0.0
 40
3.0
  0
CIRCLE
  5
2E1
  8
PATTERN_FILL
  6
CONTINUOUS
 62
     7
 10
81.5
 20
211.900000000001
 30
0.0
 40
3.0
  0
CIRCLE
  5
2E2
  8
PATTERN_FILL
  6
CONTINUOUS
 62
     7
 10
89.399999999999949
 20
211.900000000001
 30
0.0
 40
3.0
  0
CIRCLE
  5
2E3
  8
PATTERN_FILL
  6
CONTINUOUS
 62
     7
 10
97.299999999999955
 20
211.900000000001
 30
0.0
 40
3.0
  0
CIRCLE
  5
2E4
  8
PATTERN_FILL
  6
CONTINUOUS
 62
     7
 10
105.2
 20
211.900000000001
 30
0.0
 40
3.0
  0
CIRCLE
  5
2E5
  8
PATTERN_FILL
  6
CONTINUOUS
 62
     7
 10
113.09999999999999
 20
211.900000000001
 30
0.0
 40
3.0
  0
CIRCLE
  5
2E6
  8
PATTERN_FILL
  6
CONTINUOUS
 62
     7
 10
121.0
 20
211.900000000001
 30
0.0
 40
3.0
  0
CIRCLE
  5
2E7
  8
PATTERN_FILL
  6
CONTINUOUS
 62
     7
 10
128.89999999999989
 20
211.900000000001
 30
0.0
 40
3.0
  0
CIRCLE
  5
2E8
  8
PATTERN_FILL
  6
CONTINUOUS
 62
     7
 10
136.7999999999999
 20
211.900000000001
 30
0.0
 40
3.0
  0
CIRCLE
  5
2E9
  8
PATTERN_FILL
  6
CONTINUOUS
 62
     7
 10
144.69999999999999
 20
211.900000000001
 30
0.0
 40
3.0
  0
CIRCLE
  5
2EA
  8
PATTERN_FILL
  6
CONTINUOUS
 62
     7
 10
152.59999999999999
 20
211.900000000001
 30
0.0
 40
3.0
  0
CIRCLE
  5
2EB
  8
PATTERN_FILL
  6
CONTINUOUS
 62
     7
 10
160.5
 20
211.900000000001
 30
0.0
 40
3.0
  0
CIRCLE
  5
2EC
  8
PATTERN_FILL
  6
CONTINUOUS
 62
     7
 10
168.40000000000009
 20
211.900000000001
 30
0.0
 40
3.0
  0
CIRCLE
  5
2ED
  8
PATTERN_FILL
  6
CONTINUOUS
 62
     7
 10
176.30000000000001
 20
211.900000000001
 30
0.0
 40
3.0
  0
CIRCLE
  5
2EE
  8
PATTERN_FILL
  6
CONTINUOUS
 62
     7
 10
184.19999999999999
 20
211.900000000001
 30
0.0
 40
3.0
  0
CIRCLE
  5
2EF
  8
PATTERN_FILL
  6
CONTINUOUS
 62
     7
 10
192.09999999999999
 20
211.900000000001
 30
0.0
 40
3.0
  0
ARC
  5
2F0
  8
PATTERN_FILL
  6
CONTINUOUS
 62
     7
 10
200.0
 20
211.900000000001
 30
0.0
 40
3.0000000000000329
 50
110.99713265408209
 51
326.96487183118558
  0
CIRCLE
  5
2F1
  8
PATTERN_FILL
  6
CONTINUOUS
 62
     7
 10
45.950000000000053
 20
218.72500000000099
 30
0.0
 40
3.0
  0
CIRCLE
  5
2F2
  8
PATTERN_FILL
  6
CONTINUOUS
 62
     7
 10
53.850000000000009
 20
218.72500000000099
 30
0.0
 40
3.0
  0
CIRCLE
  5
2F3
  8
PATTERN_FILL
  6
CONTINUOUS
 62
     7
 10
61.750000000000107
 20
218.72500000000099
 30
0.0
 40
3.0
  0
CIRCLE
  5
2F4
  8
PATTERN_FILL
  6
CONTINUOUS
 62
     7
 10
69.650000000000091
 20
218.72500000000099
 30
0.0
 40
3.0
  0
CIRCLE
  5
2F5
  8
PATTERN_FILL
  6
CONTINUOUS
 62
     7
 10
77.550000000000054
 20
218.72500000000099
 30
0.0
 40
3.0
  0
CIRCLE
  5
2F6
  8
PATTERN_FILL
  6
CONTINUOUS
 62
     7
 10
85.450000000000031
 20
218.72500000000099
 30
0.0
 40
3.0
  0
CIRCLE
  5
2F7
  8
PATTERN_FILL
  6
CONTINUOUS
 62
     7
 10
93.350000000000023
 20
218.72500000000099
 30
0.0
 40
3.0
  0
CIRCLE
  5
2F8
  8
PATTERN_FILL
  6
CONTINUOUS
 62
     7
 10
101.2500000000001
 20
218.72500000000099
 30
0.0
 40
3.0
  0
CIRCLE
  5
2F9
  8
PATTERN_FILL
  6
CONTINUOUS
 62
     7
 10
109.15000000000011
 20
218.72500000000099
 30
0.0
 40
3.0
  0
CIRCLE
  5
2FA
  8
PATTERN_FILL
  6
CONTINUOUS
 62
     7
 10
117.05
 20
218.72500000000099
 30
0.0
 40
3.0
  0
CIRCLE
  5
2FB
  8
PATTERN_FILL
  6
CONTINUOUS
 62
     7
 10
124.95
 20
218.72500000000099
 30
0.0
 40
3.0
  0
CIRCLE
  5
2FC
  8
PATTERN_FILL
  6
CONTINUOUS
 62
     7
 10
132.84999999999999
 20
218.72500000000099
 30
0.0
 40
3.0
  0
CIRCLE
  5
2FD
  8
PATTERN_FILL
  6
CONTINUOUS
 62
     7
 10
140.75000000000011
 20
218.72500000000099
 30
0.0
 40
3.0
  0
CIRCLE
  5
2FE
  8
PATTERN_FILL
  6
CONTINUOUS
 62
     7
 10
148.65000000000009
 20
218.72500000000099
 30
0.0
 40
3.0
  0
CIRCLE
  5
2FF
  8
PATTERN_FILL
  6
CONTINUOUS
 62
     7
 10
156.5500000000001
 20
218.72500000000099
 30
0.0
 40
3.0
  0
CIRCLE
  5
300
  8
PATTERN_FILL
  6
CONTINUOUS
 62
     7
 10
164.4500000000001
 20
218.72500000000099
 30
0.0
 40
3.0
  0
CIRCLE
  5
301
  8
PATTERN_FILL
  6
CONTINUOUS
 62
     7
 10
172.35000000000011
 20
218.72500000000099
 30
0.0
 40
3.0
  0
CIRCLE
  5
302
  8
PATTERN_FILL
  6
CONTINUOUS
 62
     7
 10
180.25000000000011
 20
218.72500000000099
 30
0.0
 40
3.0
  0
CIRCLE
  5
303
  8
PATTERN_FILL
  6
CONTINUOUS
 62
     7
 10
188.15000000000001
 20
218.72500000000099
 30
0.0
 40
3.0
  0
ARC
  5
304
  8
PATTERN_FILL
  6
CONTINUOUS
 62
     7
 10
196.0500000000001
 20
218.72500000000099
 30
0.0
 40
2.9999999999999711
 50
114.6179247765857
 51
307.8832715752668
  0
CIRCLE
  5
305
  8
PATTERN_FILL
  6
CONTINUOUS
 62
     7
 10
49.899999999999977
 20
225.55000000000081
 30
0.0
 40
3.0
  0
CIRCLE
  5
306
  8
PATTERN_FILL
  6
CONTINUOUS
 62
     7
 10
57.799999999999962
 20
225.55000000000081
 30
0.0
 40
3.0
  0
CIRCLE
  5
307
  8
PATTERN_FILL
  6
CONTINUOUS
 62
     7
 10
65.700000000000045
 20
225.55000000000081
 30
0.0
 40
3.0
  0
CIRCLE
  5
308
  8
PATTERN_FILL
  6
CONTINUOUS
 62
     7
 10
73.600000000000023
 20
225.55000000000081
 30
0.0
 40
3.0
  0
CIRCLE
  5
309
  8
PATTERN_FILL
  6
CONTINUOUS
 62
     7
 10
81.5
 20
225.55000000000081
 30
0.0
 40
3.0
  0
CIRCLE
  5
30A
  8
PATTERN_FILL
  6
CONTINUOUS
 62
     7
 10
89.399999999999949
 20
225.55000000000081
 30
0.0
 40
3.0
  0
CIRCLE
  5
30B
  8
PATTERN_FILL
  6
CONTINUOUS
 62
     7
 10
97.299999999999955
 20
225.55000000000081
 30
0.0
 40
3.0
  0
CIRCLE
  5
30C
  8
PATTERN_FILL
  6
CONTINUOUS
 62
     7
 10
105.2
 20
225.55000000000081
 30
0.0
 40
3.0
  0
CIRCLE
  5
30D
  8
PATTERN_FILL
  6
CONTINUOUS
 62
     7
 10
113.09999999999999
 20
225.55000000000081
 30
0.0
 40
3.0
  0
CIRCLE
  5
30E
  8
PATTERN_FILL
  6
CONTINUOUS
 62
     7
 10
121.0
 20
225.55000000000081
 30
0.0
 40
3.0
  0
CIRCLE
  5
30F
  8
PATTERN_FILL
  6
CONTINUOUS
 62
     7
 10
128.89999999999989
 20
225.55000000000081
 30
0.0
 40
3.0
  0
CIRCLE
  5
310
  8
PATTERN_FILL
  6
CONTINUOUS
 62
     7
 10
136.7999999999999
 20
225.55000000000081
 30
0.0
 40
3.0
  0
CIRCLE
  5
311
  8
PATTERN_FILL
  6
CONTINUOUS
 62
     7
 10
144.69999999999999
 20
225.55000000000081
 30
0.0
 40
3.0
  0
CIRCLE
  5
312
  8
PATTERN_FILL
  6
CONTINUOUS
 62
     7
 10
152.59999999999999
 20
225.55000000000081
 30
0.0
 40
3.0
  0
CIRCLE
  5
313
  8
PATTERN_FILL
  6
CONTINUOUS
 62
     7
 10
160.5
 20
225.55000000000081
 30
0.0
 40
3.0
  0
CIRCLE
  5
314
  8
PATTERN_FILL
  6
CONTINUOUS
 62
     7
 10
168.40000000000009
 20
225.55000000000081
 30
0.0
 40
3.0
  0
CIRCLE
  5
315
  8
PATTERN_FILL
  6
CONTINUOUS
 62
     7
 10
176.30000000000001
 20
225.55000000000081
 30
0.0
 40
3.0
  0
CIRCLE
  5
316
  8
PATTERN_FILL
  6
CONTINUOUS
 62
     7
 10
184.19999999999999
 20
225.55000000000081
 30
0.0
 40
3.0
  0
ARC
  5
317
  8
PATTERN_FILL
  6
CONTINUOUS
 62
     7
 10
192.09999999999999
 20
225.55000000000081
 30
0.0
 40
3.0
 50
114.5478171123266
 51
305.183754617462
  0
CIRCLE
  5
318
  8
PATTERN_FILL
  6
CONTINUOUS
 62
     7
 10
45.950000000000053
 20
232.37500000000091
 30
0.0
 40
3.0
  0
CIRCLE
  5
319
  8
PATTERN_FILL
  6
CONTINUOUS
 62
     7
 10
53.850000000000009
 20
232.37500000000091
 30
0.0
 40
3.0
  0
CIRCLE
  5
31A
  8
PATTERN_FILL
  6
CONTINUOUS
 62
     7
 10
61.750000000000107
 20
232.37500000000091
 30
0.0
 40
3.0
  0
CIRCLE
  5
31B
  8
PATTERN_FILL
  6
CONTINUOUS
 62
     7
 10
69.650000000000091
 20
232.37500000000091
 30
0.0
 40
3.0
  0
CIRCLE
  5
31C
  8
PATTERN_FILL
  6
CONTINUOUS
 62
     7
 10
77.550000000000054
 20
232.37500000000091
 30
0.0
 40
3.0
  0
CIRCLE
  5
31D
  8
PATTERN_FILL
  6
CONTINUOUS
 62
     7
 10
85.450000000000031
 20
232.37500000000091
 30
0.0
 40
3.0
  0
CIRCLE
  5
31E
  8
PATTERN_FILL
  6
CONTINUOUS
 62
     7
 10
93.350000000000023
 20
232.37500000000091
 30
0.0
 40
3.0
  0
CIRCLE
  5
31F
  8
PATTERN_FILL
  6
CONTINUOUS
 62
     7
 10
101.2500000000001
 20
232.37500000000091
 30
0.0
 40
3.0
  0
CIRCLE
  5
320
  8
PATTERN_FILL
  6
CONTINUOUS
 62
     7
 10
109.15000000000011
 20
232.37500000000091
 30
0.0
 40
3.0
  0
CIRCLE
  5
321
  8
PATTERN_FILL
  6
CONTINUOUS
 62
     7
 10
117.05
 20
232.37500000000091
 30
0.0
 40
3.0
  0
CIRCLE
  5
322
  8
PATTERN_FILL
  6
CONTINUOUS
 62
     7
 10
124.95
 20
232.37500000000091
 30
0.0
 40
3.0
  0
CIRCLE
  5
323
  8
PATTERN_FILL
  6
CONTINUOUS
 62
     7
 10
132.84999999999999
 20
232.37500000000091
 30
0.0
 40
3.0
  0
CIRCLE
  5
324
  8
PATTERN_FILL
  6
CONTINUOUS
 62
     7
 10
140.75000000000011
 20
232.37500000000091
 30
0.0
 40
3.0
  0
CIRCLE
  5
325
  8
PATTERN_FILL
  6
CONTINUOUS
 62
     7
 10
148.65000000000009
 20
232.37500000000091
 30
0.0
 40
3.0
  0
CIRCLE
  5
326
  8
PATTERN_FILL
  6
CONTINUOUS
 62
     7
 10
156.5500000000001
 20
232.37500000000091
 30
0.0
 40
3.0
  0
CIRCLE
  5
327
  8
PATTERN_FILL
  6
CONTINUOUS
 62
     7
 10
164.4500000000001
 20
232.37500000000091
 30
0.0
 40
3.0
  0
CIRCLE
  5
328
  8
PATTERN_FILL
  6
CONTINUOUS
 62
     7
 10
172.35000000000011
 20
232.37500000000091
 30
0.0
 40
3.0
  0
CIRCLE
  5
329
  8
PATTERN_FILL
  6
CONTINUOUS
 62
     7
 10
180.25000000000011
 20
232.37500000000091
 30
0.0
 40
3.0
  0
ARC
  5
32A
  8
PATTERN_FILL
  6
CONTINUOUS
 62
     7
 10
188.15000000000001
 20
232.37500000000091
 30
0.0
 40
3.0000000000000742
 50
110.8193615492581
 51
306.14303993308181
  0
CIRCLE
  5
32B
  8
PATTERN_FILL
  6
CONTINUOUS
 62
     7
 10
49.899999999999977
 20
239.2000000000009
 30
0.0
 40
3.0
  0
CIRCLE
  5
32C
  8
PATTERN_FILL
  6
CONTINUOUS
 62
     7
 10
57.799999999999962
 20
239.2000000000009
 30
0.0
 40
3.0
  0
CIRCLE
  5
32D
  8
PATTERN_FILL
  6
CONTINUOUS
 62
     7
 10
65.700000000000045
 20
239.2000000000009
 30
0.0
 40
3.0
  0
CIRCLE
  5
32E
  8
PATTERN_FILL
  6
CONTINUOUS
 62
     7
 10
73.600000000000023
 20
239.2000000000009
 30
0.0
 40
3.0
  0
CIRCLE
  5
32F
  8
PATTERN_FILL
  6
CONTINUOUS
 62
     7
 10
81.5
 20
239.2000000000009
 30
0.0
 40
3.0
  0
CIRCLE
  5
330
  8
PATTERN_FILL
  6
CONTINUOUS
 62
     7
 10
89.399999999999949
 20
239.2000000000009
 30
0.0
 40
3.0
  0
CIRCLE
  5
331
  8
PATTERN_FILL
  6
CONTINUOUS
 62
     7
 10
97.299999999999955
 20
239.2000000000009
 30
0.0
 40
3.0
  0
CIRCLE
  5
332
  8
PATTERN_FILL
  6
CONTINUOUS
 62
     7
 10
105.2
 20
239.2000000000009
 30
0.0
 40
3.0
  0
CIRCLE
  5
333
  8
PATTERN_FILL
  6
CONTINUOUS
 62
     7
 10
113.09999999999999
 20
239.2000000000009
 30
0.0
 40
3.0
  0
CIRCLE
  5
334
  8
PATTERN_FILL
  6
CONTINUOUS
 62
     7
 10
121.0
 20
239.2000000000009
 30
0.0
 40
3.0
  0
CIRCLE
  5
335
  8
PATTERN_FILL
  6
CONTINUOUS
 62
     7
 10
128.89999999999989
 20
239.2000000000009
 30
0.0
 40
3.0
  0
CIRCLE
  5
336
  8
PATTERN_FILL
  6
CONTINUOUS
 62
     7
 10
136.7999999999999
 20
239.2000000000009
 30
0.0
 40
3.0
  0
CIRCLE
  5
337
  8
PATTERN_FILL
  6
CONTINUOUS
 62
     7
 10
144.69999999999999
 20
239.2000000000009
 30
0.0
 40
3.0
  0
CIRCLE
  5
338
  8
PATTERN_FILL
  6
CONTINUOUS
 62
     7
 10
152.59999999999999
 20
239.2000000000009
 30
0.0
 40
3.0
  0
CIRCLE
  5
339
  8
PATTERN_FILL
  6
CONTINUOUS
 62
     7
 10
160.5
 20
239.2000000000009
 30
0.0
 40
3.0
  0
CIRCLE
  5
33A
  8
PATTERN_FILL
  6
CONTINUOUS
 62
     7
 10
168.40000000000009
 20
239.2000000000009
 30
0.0
 40
3.0
  0
CIRCLE
  5
33B
  8
PATTERN_FILL
  6
CONTINUOUS
 62
     7
 10
176.30000000000001
 20
239.2000000000009
 30
0.0
 40
3.0
  0
ARC
  5
33C
  8
PATTERN_FILL
  6
CONTINUOUS
 62
     7
 10
184.19999999999999
 20
239.2000000000009
 30
0.0
 40
3.000000000000052
 50
103.3717314573599
 51
310.82518372454081
  0
CIRCLE
  5
33D
  8
PATTERN_FILL
  6
CONTINUOUS
 62
     7
 10
45.950000000000053
 20
246.025000000001
 30
0.0
 40
3.0
  0
CIRCLE
  5
33E
  8
PATTERN_FILL
  6
CONTINUOUS
 62
     7
 10
53.850000000000009
 20
246.025000000001
 30
0.0
 40
3.0
  0
CIRCLE
  5
33F
  8
PATTERN_FILL
  6
CONTINUOUS
 62
     7
 10
61.750000000000107
 20
246.025000000001
 30
0.0
 40
3.0
  0
CIRCLE
  5
340
  8
PATTERN_FILL
  6
CONTINUOUS
 62
     7
 10
69.650000000000091
 20
246.025000000001
 30
0.0
 40
3.0
  0
CIRCLE
  5
341
  8
PATTERN_FILL
  6
CONTINUOUS
 62
     7
 10
77.550000000000054
 20
246.025000000001
 30
0.0
 40
3.0
  0
CIRCLE
  5
342
  8
PATTERN_FILL
  6
CONTINUOUS
 62
     7
 10
85.450000000000031
 20
246.025000000001
 30
0.0
 40
3.0
  0
CIRCLE
  5
343
  8
PATTERN_FILL
  6
CONTINUOUS
 62
     7
 10
93.350000000000023
 20
246.025000000001
 30
0.0
 40
3.0
  0
CIRCLE
  5
344
  8
PATTERN_FILL
  6
CONTINUOUS
 62
     7
 10
101.2500000000001
 20
246.025000000001
 30
0.0
 40
3.0
  0
CIRCLE
  5
345
  8
PATTERN_FILL
  6
CONTINUOUS
 62
     7
 10
109.15000000000011
 20
246.025000000001
 30
0.0
 40
3.0
  0
CIRCLE
  5
346
  8
PATTERN_FILL
  6
CONTINUOUS
 62
     7
 10
117.05
 20
246.025000000001
 30
0.0
 40
3.0
  0
CIRCLE
  5
347
  8
PATTERN_FILL
  6
CONTINUOUS
 62
     7
 10
124.95
 20
246.025000000001
 30
0.0
 40
3.0
  0
CIRCLE
  5
348
  8
PATTERN_FILL
  6
CONTINUOUS
 62
     7
 10
132.84999999999999
 20
246.025000000001
 30
0.0
 40
3.0
  0
CIRCLE
  5
349
  8
PATTERN_FILL
  6
CONTINUOUS
 62
     7
 10
140.75000000000011
 20
246.025000000001
 30
0.0
 40
3.0
  0
CIRCLE
  5
34A
  8
PATTERN_FILL
  6
CONTINUOUS
 62
     7
 10
148.65000000000009
 20
246.025000000001
 30
0.0
 40
3.0
  0
CIRCLE
  5
34B
  8
PATTERN_FILL
  6
CONTINUOUS
 62
     7
 10
156.5500000000001
 20
246.025000000001
 30
0.0
 40
3.0
  0
CIRCLE
  5
34C
  8
PATTERN_FILL
  6
CONTINUOUS
 62
     7
 10
164.4500000000001
 20
246.025000000001
 30
0.0
 40
3.0
  0
CIRCLE
  5
34D
  8
PATTERN_FILL
  6
CONTINUOUS
 62
     7
 10
172.35000000000011
 20
246.025000000001
 30
0.0
 40
3.0
  0
ARC
  5
34E
  8
PATTERN_FILL
  6
CONTINUOUS
 62
     7
 10
180.25000000000011
 20
246.025000000001
 30
0.0
 40
3.000000000000004
 50
91.877140833389987
 51
319.56117585549572
  0
CIRCLE
  5
34F
  8
PATTERN_FILL
  6
CONTINUOUS
 62
     7
 10
49.899999999999977
 20
252.85000000000099
 30
0.0
 40
3.0
  0
CIRCLE
  5
350
  8
PATTERN_FILL
  6
CONTINUOUS
 62
     7
 10
57.799999999999962
 20
252.85000000000099
 30
0.0
 40
3.0
  0
CIRCLE
  5
351
  8
PATTERN_FILL
  6
CONTINUOUS
 62
     7
 10
65.700000000000045
 20
252.85000000000099
 30
0.0
 40
3.0
  0
CIRCLE
  5
352
  8
PATTERN_FILL
  6
CONTINUOUS
 62
     7
 10
73.600000000000023
 20
252.85000000000099
 30
0.0
 40
3.0
  0
CIRCLE
  5
353
  8
PATTERN_FILL
  6
CONTINUOUS
 62
     7
 10
81.5
 20
252.85000000000099
 30
0.0
 40
3.0
  0
CIRCLE
  5
354
  8
PATTERN_FILL
  6
CONTINUOUS
 62
     7
 10
89.399999999999949
 20
252.85000000000099
 30
0.0
 40
3.0
  0
CIRCLE
  5
355
  8
PATTERN_FILL
  6
CONTINUOUS
 62
     7
 10
97.299999999999955
 20
252.85000000000099
 30
0.0
 40
3.0
  0
CIRCLE
  5
356
  8
PATTERN_FILL
  6
CONTINUOUS
 62
     7
 10
105.2
 20
252.85000000000099
 30
0.0
 40
3.0
  0
CIRCLE
  5
357
  8
PATTERN_FILL
  6
CONTINUOUS
 62
     7
 10
113.09999999999999
 20
252.85000000000099
 30
0.0
 40
3.0
  0
CIRCLE
  5
358
  8
PATTERN_FILL
  6
CONTINUOUS
 62
     7
 10
121.0
 20
252.85000000000099
 30
0.0
 40
3.0
  0
CIRCLE
  5
359
  8
PATTERN_FILL
  6
CONTINUOUS
 62
     7
 10
128.89999999999989
 20
252.85000000000099
 30
0.0
 40
3.0
  0
CIRCLE
  5
35A
  8
PATTERN_FILL
  6
CONTINUOUS
 62
     7
 10
136.7999999999999
 20
252.85000000000099
 30
0.0
 40
3.0
  0
CIRCLE
  5
35B
  8
PATTERN_FILL
  6
CONTINUOUS
 62
     7
 10
144.69999999999999
 20
252.85000000000099
 30
0.0
 40
3.0
  0
CIRCLE
  5
35C
  8
PATTERN_FILL
  6
CONTINUOUS
 62
     7
 10
152.59999999999999
 20
252.85000000000099
 30
0.0
 40
3.0
  0
CIRCLE
  5
35D
  8
PATTERN_FILL
  6
CONTINUOUS
 62
     7
 10
160.5
 20
252.85000000000099
 30
0.0
 40
3.0
  0
CIRCLE
  5
35E
  8
PATTERN_FILL
  6
CONTINUOUS
 62
     7
 10
168.40000000000009
 20
252.85000000000099
 30
0.0
 40
3.0
  0
ARC
  5
35F
  8
PATTERN_FILL
  6
CONTINUOUS
 62
     7
 10
176.30000000000001
 20
252.85000000000099
 30
0.0
 40
2.9999999999999551
 50
75.034349881535022
 51
333.65541218352598
  0
CIRCLE
  5
360
  8
PATTERN_FILL
  6
CONTINUOUS
 62
     7
 10
45.950000000000053
 20
259.67500000000109
 30
0.0
 40
3.0
  0
CIRCLE
  5
361
  8
PATTERN_FILL
  6
CONTINUOUS
 62
     7
 10
53.850000000000009
 20
259.67500000000109
 30
0.0
 40
3.0
  0
CIRCLE
  5
362
  8
PATTERN_FILL
  6
CONTINUOUS
 62
     7
 10
61.750000000000107
 20
259.67500000000109
 30
0.0
 40
3.0
  0
CIRCLE
  5
363
  8
PATTERN_FILL
  6
CONTINUOUS
 62
     7
 10
69.650000000000091
 20
259.67500000000109
 30
0.0
 40
3.0
  0
CIRCLE
  5
364
  8
PATTERN_FILL
  6
CONTINUOUS
 62
     7
 10
77.550000000000054
 20
259.67500000000109
 30
0.0
 40
3.0
  0
CIRCLE
  5
365
  8
PATTERN_FILL
  6
CONTINUOUS
 62
     7
 10
85.450000000000031
 20
259.67500000000109
 30
0.0
 40
3.0
  0
CIRCLE
  5
366
  8
PATTERN_FILL
  6
CONTINUOUS
 62
     7
 10
93.350000000000023
 20
259.67500000000109
 30
0.0
 40
3.0
  0
CIRCLE
  5
367
  8
PATTERN_FILL
  6
CONTINUOUS
 62
     7
 10
101.2500000000001
 20
259.67500000000109
 30
0.0
 40
3.0
  0
CIRCLE
  5
368
  8
PATTERN_FILL
  6
CONTINUOUS
 62
     7
 10
109.15000000000011
 20
259.67500000000109
 30
0.0
 40
3.0
  0
CIRCLE
  5
369
  8
PATTERN_FILL
  6
CONTINUOUS
 62
     7
 10
117.05
 20
259.67500000000109
 30
0.0
 40
3.0
  0
CIRCLE
  5
36A
  8
PATTERN_FILL
  6
CONTINUOUS
 62
     7
 10
124.95
 20
259.67500000000109
 30
0.0
 40
3.0
  0
CIRCLE
  5
36B
  8
PATTERN_FILL
  6
CONTINUOUS
 62
     7
 10
132.84999999999999
 20
259.67500000000109
 30
0.0
 40
3.0
  0
CIRCLE
  5
36C
  8
PATTERN_FILL
  6
CONTINUOUS
 62
     7
 10
140.75000000000011
 20
259.67500000000109
 30
0.0
 40
3.0
  0
CIRCLE
  5
36D
  8
PATTERN_FILL
  6
CONTINUOUS
 62
     7
 10
148.65000000000009
 20
259.67500000000109
 30
0.0
 40
3.0
  0
CIRCLE
  5
36E
  8
PATTERN_FILL
  6
CONTINUOUS
 62
     7
 10
156.5500000000001
 20
259.67500000000109
 30
0.0
 40
3.0
  0
CIRCLE
  5
36F
  8
PATTERN_FILL
  6
CONTINUOUS
 62
     7
 10
164.4500000000001
 20
259.67500000000109
 30
0.0
 40
3.0
  0
ARC
  5
370
  8
PATTERN_FILL
  6
CONTINUOUS
 62
     7
 10
172.35000000000011
 20
259.67500000000109
 30
0.0
 40
2.9999999999999578
 50
45.39512992057626
 51
0.5592083987646747
  0
CIRCLE
  5
371
  8
PATTERN_FILL
  6
CONTINUOUS
 62
     7
 10
49.899999999999977
 20
266.5000000000008
 30
0.0
 40
3.0
  0
CIRCLE
  5
372
  8
PATTERN_FILL
  6
CONTINUOUS
 62
     7
 10
57.799999999999962
 20
266.5000000000008
 30
0.0
 40
3.0
  0
CIRCLE
  5
373
  8
PATTERN_FILL
  6
CONTINUOUS
 62
     7
 10
65.700000000000045
 20
266.5000000000008
 30
0.0
 40
3.0
  0
CIRCLE
  5
374
  8
PATTERN_FILL
  6
CONTINUOUS
 62
     7
 10
73.600000000000023
 20
266.5000000000008
 30
0.0
 40
3.0
  0
CIRCLE
  5
375
  8
PATTERN_FILL
  6
CONTINUOUS
 62
     7
 10
81.5
 20
266.5000000000008
 30
0.0
 40
3.0
  0
CIRCLE
  5
376
  8
PATTERN_FILL
  6
CONTINUOUS
 62
     7
 10
89.399999999999949
 20
266.5000000000008
 30
0.0
 40
3.0
  0
CIRCLE
  5
377
  8
PATTERN_FILL
  6
CONTINUOUS
 62
     7
 10
97.299999999999955
 20
266.5000000000008
 30
0.0
 40
3.0
  0
CIRCLE
  5
378
  8
PATTERN_FILL
  6
CONTINUOUS
 62
     7
 10
105.2
 20
266.5000000000008
 30
0.0
 40
3.0
  0
CIRCLE
  5
379
  8
PATTERN_FILL
  6
CONTINUOUS
 62
     7
 10
113.09999999999999
 20
266.5000000000008
 30
0.0
 40
3.0
  0
CIRCLE
  5
37A
  8
PATTERN_FILL
  6
CONTINUOUS
 62
     7
 10
121.0
 20
266.5000000000008
 30
0.0
 40
3.0
  0
CIRCLE
  5
37B
  8
PATTERN_FILL
  6
CONTINUOUS
 62
     7
 10
128.89999999999989
 20
266.5000000000008
 30
0.0
 40
3.0
  0
CIRCLE
  5
37C
  8
PATTERN_FILL
  6
CONTINUOUS
 62
     7
 10
136.7999999999999
 20
266.5000000000008
 30
0.0
 40
3.0
  0
CIRCLE
  5
37D
  8
PATTERN_FILL
  6
CONTINUOUS
 62
     7
 10
144.69999999999999
 20
266.5000000000008
 30
0.0
 40
3.0
  0
CIRCLE
  5
37E
  8
PATTERN_FILL
  6
CONTINUOUS
 62
     7
 10
152.59999999999999
 20
266.5000000000008
 30
0.0
 40
3.0
  0
CIRCLE
  5
37F
  8
PATTERN_FILL
  6
CONTINUOUS
 62
     7
 10
160.5
 20
266.5000000000008
 30
0.0
 40
3.0
  0
CIRCLE
  5
380
  8
PATTERN_FILL
  6
CONTINUOUS
 62
     7
 10
168.40000000000009
 20
266.5000000000008
 30
0.0
 40
3.0
  0
CIRCLE
  5
381
  8
PATTERN_FILL
  6
CONTINUOUS
 62
     7
 10
45.950000000000053
 20
273.3250000000009
 30
0.0
 40
3.0
  0
CIRCLE
  5
382
  8
PATTERN_FILL
  6
CONTINUOUS
 62
     7
 10
53.850000000000009
 20
273.3250000000009
 30
0.0
 40
3.0
  0
CIRCLE
  5
383
  8
PATTERN_FILL
  6
CONTINUOUS
 62
     7
 10
61.750000000000107
 20
273.3250000000009
 30
0.0
 40
3.0
  0
CIRCLE
  5
384
  8
PATTERN_FILL
  6
CONTINUOUS
 62
     7
 10
69.650000000000091
 20
273.3250000000009
 30
0.0
 40
3.0
  0
CIRCLE
  5
385
  8
PATTERN_FILL
  6
CONTINUOUS
 62
     7
 10
77.550000000000054
 20
273.3250000000009
 30
0.0
 40
3.0
  0
CIRCLE
  5
386
  8
PATTERN_FILL
  6
CONTINUOUS
 62
     7
 10
85.450000000000031
 20
273.3250000000009
 30
0.0
 40
3.0
  0
CIRCLE
  5
387
  8
PATTERN_FILL
  6
CONTINUOUS
 62
     7
 10
93.350000000000023
 20
273.3250000000009
 30
0.0
 40
3.0
  0
CIRCLE
  5
388
  8
PATTERN_FILL
  6
CONTINUOUS
 62
     7
 10
101.2500000000001
 20
273.3250000000009
 30
0.0
 40
3.0
  0
CIRCLE
  5
389
  8
PATTERN_FILL
  6
CONTINUOUS
 62
     7
 10
109.15000000000011
 20
273.3250000000009
 30
0.0
 40
3.0
  0
CIRCLE
  5
38A
  8
PATTERN_FILL
  6
CONTINUOUS
 62
     7
 10
117.05
 20
273.3250000000009
 30
0.0
 40
3.0
  0
CIRCLE
  5
38B
  8
PATTERN_FILL
  6
CONTINUOUS
 62
     7
 10
124.95
 20
273.3250000000009
 30
0.0
 40
3.0
  0
CIRCLE
  5
38C
  8
PATTERN_FILL
  6
CONTINUOUS
 62
     7
 10
132.84999999999999
 20
273.3250000000009
 30
0.0
 40
3.0
  0
CIRCLE
  5
38D
  8
PATTERN_FILL
  6
CONTINUOUS
 62
     7
 10
140.75000000000011
 20
273.3250000000009
 30
0.0
 40
3.0
  0
CIRCLE
  5
38E
  8
PATTERN_FILL
  6
CONTINUOUS
 62
     7
 10
148.65000000000009
 20
273.3250000000009
 30
0.0
 40
3.0
  0
CIRCLE
  5
38F
  8
PATTERN_FILL
  6
CONTINUOUS
 62
     7
 10
156.5500000000001
 20
273.3250000000009
 30
0.0
 40
3.0
  0
CIRCLE
  5
390
  8
PATTERN_FILL
  6
CONTINUOUS
 62
     7
 10
164.4500000000001
 20
273.3250000000009
 30
0.0
 40
3.0
  0
CIRCLE
  5
391
  8
PATTERN_FILL
  6
CONTINUOUS
 62
     7
 10
49.899999999999977
 20
280.150000000001
 30
0.0
 40
3.0
  0
CIRCLE
  5
392
  8
PATTERN_FILL
  6
CONTINUOUS
 62
     7
 10
57.799999999999962
 20
280.150000000001
 30
0.0
 40
3.0
  0
CIRCLE
  5
393
  8
PATTERN_FILL
  6
CONTINUOUS
 62
     7
 10
65.700000000000045
 20
280.150000000001
 30
0.0
 40
3.0
  0
CIRCLE
  5
394
  8
PATTERN_FILL
  6
CONTINUOUS
 62
     7
 10
73.600000000000023
 20
280.150000000001
 30
0.0
 40
3.0
  0
CIRCLE
  5
395
  8
PATTERN_FILL
  6
CONTINUOUS
 62
     7
 10
81.5
 20
280.150000000001
 30
0.0
 40
3.0
  0
CIRCLE
  5
396
  8
PATTERN_FILL
  6
CONTINUOUS
 62
     7
 10
89.399999999999949
 20
280.150000000001
 30
0.0
 40
3.0
  0
CIRCLE
  5
397
  8
PATTERN_FILL
  6
CONTINUOUS
 62
     7
 10
97.299999999999955
 20
280.150000000001
 30
0.0
 40
3.0
  0
CIRCLE
  5
398
  8
PATTERN_FILL
  6
CONTINUOUS
 62
     7
 10
105.2
 20
280.150000000001
 30
0.0
 40
3.0
  0
CIRCLE
  5
399
  8
PATTERN_FILL
  6
CONTINUOUS
 62
     7
 10
113.09999999999999
 20
280.150000000001
 30
0.0
 40
3.0
  0
CIRCLE
  5
39A
  8
PATTERN_FILL
  6
CONTINUOUS
 62
     7
 10
121.0
 20
280.150000000001
 30
0.0
 40
3.0
  0
CIRCLE
  5
39B
  8
PATTERN_FILL
  6
CONTINUOUS
 62
     7
 10
128.89999999999989
 20
280.150000000001
 30
0.0
 40
3.0
  0
CIRCLE
  5
39C
  8
PATTERN_FILL
  6
CONTINUOUS
 62
     7
 10
136.7999999999999
 20
280.150000000001
 30
0.0
 40
3.0
  0
CIRCLE
  5
39D
  8
PATTERN_FILL
  6
CONTINUOUS
 62
     7
 10
144.69999999999999
 20
280.150000000001
 30
0.0
 40
3.0
  0
CIRCLE
  5
39E
  8
PATTERN_FILL
  6
CONTINUOUS
 62
     7
 10
152.59999999999999
 20
280.150000000001
 30
0.0
 40
3.0
  0
CIRCLE
  5
39F
  8
PATTERN_FILL
  6
CONTINUOUS
 62
     7
 10
160.5
 20
280.150000000001
 30
0.0
 40
3.0
  0
ARC
  5
3A0
  8
PATTERN_FILL
  6
CONTINUOUS
 62
     7
 10
168.40000000000009
 20
280.150000000001
 30
0.0
 40
3.00000000000002
 50
127.47894629382159
 51
271.28084656692943
  0
CIRCLE
  5
3A1
  8
PATTERN_FILL
  6
CONTINUOUS
 62
     7
 10
45.950000000000053
 20
286.97500000000099
 30
0.0
 40
3.0
  0
CIRCLE
  5
3A2
  8
PATTERN_FILL
  6
CONTINUOUS
 62
     7
 10
53.850000000000009
 20
286.97500000000099
 30
0.0
 40
3.0
  0
CIRCLE
  5
3A3
  8
PATTERN_FILL
  6
CONTINUOUS
 62
     7
 10
61.750000000000107
 20
286.97500000000099
 30
0.0
 40
3.0
  0
CIRCLE
  5
3A4
  8
PATTERN_FILL
  6
CONTINUOUS
 62
     7
 10
69.650000000000091
 20
286.97500000000099
 30
0.0
 40
3.0
  0
CIRCLE
  5
3A5
  8
PATTERN_FILL
  6
CONTINUOUS
 62
     7
 10
77.550000000000054
 20
286.97500000000099
 30
0.0
 40
3.0
  0
CIRCLE
  5
3A6
  8
PATTERN_FILL
  6
CONTINUOUS
 62
     7
 10
85.450000000000031
 20
286.97500000000099
 30
0.0
 40
3.0
  0
CIRCLE
  5
3A7
  8
PATTERN_FILL
  6
CONTINUOUS
 62
     7
 10
93.350000000000023
 20
286.97500000000099
 30
0.0
 40
3.0
  0
CIRCLE
  5
3A8
  8
PATTERN_FILL
  6
CONTINUOUS
 62
     7
 10
101.2500000000001
 20
286.97500000000099
 30
0.0
 40
3.0
  0
CIRCLE
  5
3A9
  8
PATTERN_FILL
  6
CONTINUOUS
 62
     7
 10
109.15000000000011
 20
286.97500000000099
 30
0.0
 40
3.0
  0
CIRCLE
  5
3AA
  8
PATTERN_FILL
  6
CONTINUOUS
 62
     7
 10
117.05
 20
286.97500000000099
 30
0.0
 40
3.0
  0
CIRCLE
  5
3AB
  8
PATTERN_FILL
  6
CONTINUOUS
 62
     7
 10
124.95
 20
286.97500000000099
 30
0.0
 40
3.0
  0
CIRCLE
  5
3AC
  8
PATTERN_FILL
  6
CONTINUOUS
 62
     7
 10
132.84999999999999
 20
286.97500000000099
 30
0.0
 40
3.0
  0
CIRCLE
  5
3AD
  8
PATTERN_FILL
  6
CONTINUOUS
 62
     7
 10
140.75000000000011
 20
286.97500000000099
 30
0.0
 40
3.0
  0
CIRCLE
  5
3AE
  8
PATTERN_FILL
  6
CONTINUOUS
 62
     7
 10
148.65000000000009
 20
286.97500000000099
 30
0.0
 40
3.0
  0
CIRCLE
  5
3AF
  8
PATTERN_FILL
  6
CONTINUOUS
 62
     7
 10
156.5500000000001
 20
286.97500000000099
 30
0.0
 40
3.0
  0
ARC
  5
3B0
  8
PATTERN_FILL
  6
CONTINUOUS
 62
     7
 10
164.4500000000001
 20
286.97500000000099
 30
0.0
 40
2.9999999999999551
 50
96.051071919904913
 51
299.98937120820909
  0
CIRCLE
  5
3B1
  8
PATTERN_FILL
  6
CONTINUOUS
 62
     7
 10
49.899999999999977
 20
293.80000000000109
 30
0.0
 40
3.0
  0
CIRCLE
  5
3B2
  8
PATTERN_FILL
  6
CONTINUOUS
 62
     7
 10
57.799999999999962
 20
293.80000000000109
 30
0.0
 40
3.0
  0
CIRCLE
  5
3B3
  8
PATTERN_FILL
  6
CONTINUOUS
 62
     7
 10
65.700000000000045
 20
293.80000000000109
 30
0.0
 40
3.0
  0
CIRCLE
  5
3B4
  8
PATTERN_FILL
  6
CONTINUOUS
 62
     7
 10
73.600000000000023
 20
293.80000000000109
 30
0.0
 40
3.0
  0
CIRCLE
  5
3B5
  8
PATTERN_FILL
  6
CONTINUOUS
 62
     7
 10
81.5
 20
293.80000000000109
 30
0.0
 40
3.0
  0
CIRCLE
  5
3B6
  8
PATTERN_FILL
  6
CONTINUOUS
 62
     7
 10
89.399999999999949
 20
293.80000000000109
 30
0.0
 40
3.0
  0
CIRCLE
  5
3B7
  8
PATTERN_FILL
  6
CONTINUOUS
 62
     7
 10
97.299999999999955
 20
293.80000000000109
 30
0.0
 40
3.0
  0
CIRCLE
  5
3B8
  8
PATTERN_FILL
  6
CONTINUOUS
 62
     7
 10
105.2
 20
293.80000000000109
 30
0.0
 40
3.0
  0
CIRCLE
  5
3B9
  8
PATTERN_FILL
  6
CONTINUOUS
 62
     7
 10
113.09999999999999
 20
293.80000000000109
 30
0.0
 40
3.0
  0
CIRCLE
  5
3BA
  8
PATTERN_FILL
  6
CONTINUOUS
 62
     7
 10
121.0
 20
293.80000000000109
 30
0.0
 40
3.0
  0
CIRCLE
  5
3BB
  8
PATTERN_FILL
  6
CONTINUOUS
 62
     7
 10
128.89999999999989
 20
293.80000000000109
 30
0.0
 40
3.0
  0
CIRCLE
  5
3BC
  8
PATTERN_FILL
  6
CONTINUOUS
 62
     7
 10
136.7999999999999
 20
293.80000000000109
 30
0.0
 40
3.0
  0
CIRCLE
  5
3BD
  8
PATTERN_FILL
  6
CONTINUOUS
 62
     7
 10
144.69999999999999
 20
293.80000000000109
 30
0.0
 40
3.0
  0
CIRCLE
  5
3BE
  8
PATTERN_FILL
  6
CONTINUOUS
 62
     7
 10
152.59999999999999
 20
293.80000000000109
 30
0.0
 40
3.0
  0
ARC
  5
3BF
  8
PATTERN_FILL
  6
CONTINUOUS
 62
     7
 10
160.5
 20
293.80000000000109
 30
0.0
 40
3.0000000000000231
 50
55.11399610377422
 51
338.2343443511939
  0
CIRCLE
  5
3C0
  8
PATTERN_FILL
  6
CONTINUOUS
 62
     7
 10
45.950000000000053
 20
300.62500000000119
 30
0.0
 40
3.0
  0
CIRCLE
  5
3C1
  8
PATTERN_FILL
  6
CONTINUOUS
 62
     7
 10
53.850000000000009
 20
300.62500000000119
 30
0.0
 40
3.0
  0
CIRCLE
  5
3C2
  8
PATTERN_FILL
  6
CONTINUOUS
 62
     7
 10
61.750000000000107
 20
300.62500000000119
 30
0.0
 40
3.0
  0
CIRCLE
  5
3C3
  8
PATTERN_FILL
  6
CONTINUOUS
 62
     7
 10
69.650000000000091
 20
300.62500000000119
 30
0.0
 40
3.0
  0
CIRCLE
  5
3C4
  8
PATTERN_FILL
  6
CONTINUOUS
 62
     7
 10
77.550000000000054
 20
300.62500000000119
 30
0.0
 40
3.0
  0
CIRCLE
  5
3C5
  8
PATTERN_FILL
  6
CONTINUOUS
 62
     7
 10
85.450000000000031
 20
300.62500000000119
 30
0.0
 40
3.0
  0
CIRCLE
  5
3C6
  8
PATTERN_FILL
  6
CONTINUOUS
 62
     7
 10
93.350000000000023
 20
300.62500000000119
 30
0.0
 40
3.0
  0
CIRCLE
  5
3C7
  8
PATTERN_FILL
  6
CONTINUOUS
 62
     7
 10
101.2500000000001
 20
300.62500000000119
 30
0.0
 40
3.0
  0
CIRCLE
  5
3C8
  8
PATTERN_FILL
  6
CONTINUOUS
 62
     7
 10
109.15000000000011
 20
300.62500000000119
 30
0.0
 40
3.0
  0
CIRCLE
  5
3C9
  8
PATTERN_FILL
  6
CONTINUOUS
 62
     7
 10
117.05
 20
300.62500000000119
 30
0.0
 40
3.0
  0
CIRCLE
  5
3CA
  8
PATTERN_FILL
  6
CONTINUOUS
 62
     7
 10
124.95
 20
300.62500000000119
 30
0.0
 40
3.0
  0
CIRCLE
  5
3CB
  8
PATTERN_FILL
  6
CONTINUOUS
 62
     7
 10
132.84999999999999
 20
300.62500000000119
 30
0.0
 40
3.0
  0
CIRCLE
  5
3CC
  8
PATTERN_FILL
  6
CONTINUOUS
 62
     7
 10
140.75000000000011
 20
300.62500000000119
 30
0.0
 40
3.0
  0
CIRCLE
  5
3CD
  8
PATTERN_FILL
  6
CONTINUOUS
 62
     7
 10
148.65000000000009
 20
300.62500000000119
 30
0.0
 40
3.0
  0
CIRCLE
  5
3CE
  8
PATTERN_FILL
  6
CONTINUOUS
 62
     7
 10
156.5500000000001
 20
300.62500000000119
 30
0.0
 40
3.0
  0
CIRCLE
  5
3CF
  8
PATTERN_FILL
  6
CONTINUOUS
 62
     7
 10
49.899999999999977
 20
307.45000000000101
 30
0.0
 40
3.0
  0
CIRCLE
  5
3D0
  8
PATTERN_FILL
  6
CONTINUOUS
 62
     7
 10
57.799999999999962
 20
307.45000000000101
 30
0.0
 40
3.0
  0
CIRCLE
  5
3D1
  8
PATTERN_FILL
  6
CONTINUOUS
 62
     7
 10
65.700000000000045
 20
307.45000000000101
 30
0.0
 40
3.0
  0
CIRCLE
  5
3D2
  8
PATTERN_FILL
  6
CONTINUOUS
 62
     7
 10
73.600000000000023
 20
307.45000000000101
 30
0.0
 40
3.0
  0
CIRCLE
  5
3D3
  8
PATTERN_FILL
  6
CONTINUOUS
 62
     7
 10
81.5
 20
307.45000000000101
 30
0.0
 40
3.0
  0
CIRCLE
  5
3D4
  8
PATTERN_FILL
  6
CONTINUOUS
 62
     7
 10
89.399999999999949
 20
307.45000000000101
 30
0.0
 40
3.0
  0
CIRCLE
  5
3D5
  8
PATTERN_FILL
  6
CONTINUOUS
 62
     7
 10
97.299999999999955
 20
307.45000000000101
 30
0.0
 40
3.0
  0
CIRCLE
  5
3D6
  8
PATTERN_FILL
  6
CONTINUOUS
 62
     7
 10
105.2
 20
307.45000000000101
 30
0.0
 40
3.0
  0
CIRCLE
  5
3D7
  8
PATTERN_FILL
  6
CONTINUOUS
 62
     7
 10
113.09999999999999
 20
307.45000000000101
 30
0.0
 40
3.0
  0
CIRCLE
  5
3D8
  8
PATTERN_FILL
  6
CONTINUOUS
 62
     7
 10
121.0
 20
307.45000000000101
 30
0.0
 40
3.0
  0
CIRCLE
  5
3D9
  8
PATTERN_FILL
  6
CONTINUOUS
 62
     7
 10
128.89999999999989
 20
307.45000000000101
 30
0.0
 40
3.0
  0
CIRCLE
  5
3DA
  8
PATTERN_FILL
  6
CONTINUOUS
 62
     7
 10
136.7999999999999
 20
307.45000000000101
 30
0.0
 40
3.0
  0
CIRCLE
  5
3DB
  8
PATTERN_FILL
  6
CONTINUOUS
 62
     7
 10
144.69999999999999
 20
307.45000000000101
 30
0.0
 40
3.0
  0
CIRCLE
  5
3DC
  8
PATTERN_FILL
  6
CONTINUOUS
 62
     7
 10
152.59999999999999
 20
307.45000000000101
 30
0.0
 40
3.0
  0
ARC
  5
3DD
  8
PATTERN_FILL
  6
CONTINUOUS
 62
     7
 10
160.5
 20
307.45000000000101
 30
0.0
 40
2.9999999999998992
 50
129.99140553907179
 51
258.74026130880208
  0
CIRCLE
  5
3DE
  8
PATTERN_FILL
  6
CONTINUOUS
 62
     7
 10
45.950000000000053
 20
314.275000000001
 30
0.0
 40
3.0
  0
CIRCLE
  5
3DF
  8
PATTERN_FILL
  6
CONTINUOUS
 62
     7
 10
53.850000000000009
 20
314.275000000001
 30
0.0
 40
3.0
  0
CIRCLE
  5
3E0
  8
PATTERN_FILL
  6
CONTINUOUS
 62
     7
 10
61.750000000000107
 20
314.275000000001
 30
0.0
 40
3.0
  0
CIRCLE
  5
3E1
  8
PATTERN_FILL
  6
CONTINUOUS
 62
     7
 10
69.650000000000091
 20
314.275000000001
 30
0.0
 40
3.0
  0
CIRCLE
  5
3E2
  8
PATTERN_FILL
  6
CONTINUOUS
 62
     7
 10
77.550000000000054
 20
314.275000000001
 30
0.0
 40
3.0
  0
CIRCLE
  5
3E3
  8
PATTERN_FILL
  6
CONTINUOUS
 62
     7
 10
85.450000000000031
 20
314.275000000001
 30
0.0
 40
3.0
  0
CIRCLE
  5
3E4
  8
PATTERN_FILL
  6
CONTINUOUS
 62
     7
 10
93.350000000000023
 20
314.275000000001
 30
0.0
 40
3.0
  0
CIRCLE
  5
3E5
  8
PATTERN_FILL
  6
CONTINUOUS
 62
     7
 10
101.2500000000001
 20
314.275000000001
 30
0.0
 40
3.0
  0
CIRCLE
  5
3E6
  8
PATTERN_FILL
  6
CONTINUOUS
 62
     7
 10
109.15000000000011
 20
314.275000000001
 30
0.0
 40
3.0
  0
CIRCLE
  5
3E7
  8
PATTERN_FILL
  6
CONTINUOUS
 62
     7
 10
117.05
 20
314.275000000001
 30
0.0
 40
3.0
  0
CIRCLE
  5
3E8
  8
PATTERN_FILL
  6
CONTINUOUS
 62
     7
 10
124.95
 20
314.275000000001
 30
0.0
 40
3.0
  0
CIRCLE
  5
3E9
  8
PATTERN_FILL
  6
CONTINUOUS
 62
     7
 10
132.84999999999999
 20
314.275000000001
 30
0.0
 40
3.0
  0
CIRCLE
  5
3EA
  8
PATTERN_FILL
  6
CONTINUOUS
 62
     7
 10
140.75000000000011
 20
314.275000000001
 30
0.0
 40
3.0
  0
CIRCLE
  5
3EB
  8
PATTERN_FILL
  6
CONTINUOUS
 62
     7
 10
148.65000000000009
 20
314.275000000001
 30
0.0
 40
3.0
  0
ARC
  5
3EC
  8
PATTERN_FILL
  6
CONTINUOUS
 62
     7
 10
156.5500000000001
 20
314.275000000001
 30
0.0
 40
3.0000000000000022
 50
85.074245779105652
 51
300.99578738418933
  0
CIRCLE
  5
3ED
  8
PATTERN_FILL
  6
CONTINUOUS
 62
     7
 10
49.899999999999977
 20
321.10000000000099
 30
0.0
 40
3.0
  0
CIRCLE
  5
3EE
  8
PATTERN_FILL
  6
CONTINUOUS
 62
     7
 10
57.799999999999962
 20
321.10000000000099
 30
0.0
 40
3.0
  0
CIRCLE
  5
3EF
  8
PATTERN_FILL
  6
CONTINUOUS
 62
     7
 10
65.700000000000045
 20
321.10000000000099
 30
0.0
 40
3.0
  0
CIRCLE
  5
3F0
  8
PATTERN_FILL
  6
CONTINUOUS
 62
     7
 10
73.600000000000023
 20
321.10000000000099
 30
0.0
 40
3.0
  0
CIRCLE
  5
3F1
  8
PATTERN_FILL
  6
CONTINUOUS
 62
     7
 10
81.5
 20
321.10000000000099
 30
0.0
 40
3.0
  0
CIRCLE
  5
3F2
  8
PATTERN_FILL
  6
CONTINUOUS
 62
     7
 10
89.399999999999949
 20
321.10000000000099
 30
0.0
 40
3.0
  0
CIRCLE
  5
3F3
  8
PATTERN_FILL
  6
CONTINUOUS
 62
     7
 10
97.299999999999955
 20
321.10000000000099
 30
0.0
 40
3.0
  0
CIRCLE
  5
3F4
  8
PATTERN_FILL
  6
CONTINUOUS
 62
     7
 10
105.2
 20
321.10000000000099
 30
0.0
 40
3.0
  0
CIRCLE
  5
3F5
  8
PATTERN_FILL
  6
CONTINUOUS
 62
     7
 10
113.09999999999999
 20
321.10000000000099
 30
0.0
 40
3.0
  0
CIRCLE
  5
3F6
  8
PATTERN_FILL
  6
CONTINUOUS
 62
     7
 10
121.0
 20
321.10000000000099
 30
0.0
 40
3.0
  0
CIRCLE
  5
3F7
  8
PATTERN_FILL
  6
CONTINUOUS
 62
     7
 10
128.89999999999989
 20
321.10000000000099
 30
0.0
 40
3.0
  0
CIRCLE
  5
3F8
  8
PATTERN_FILL
  6
CONTINUOUS
 62
     7
 10
136.7999999999999
 20
321.10000000000099
 30
0.0
 40
3.0
  0
CIRCLE
  5
3F9
  8
PATTERN_FILL
  6
CONTINUOUS
 62
     7
 10
144.69999999999999
 20
321.10000000000099
 30
0.0
 40
3.0
  0
CIRCLE
  5
3FA
  8
PATTERN_FILL
  6
CONTINUOUS
 62
     7
 10
152.59999999999999
 20
321.10000000000099
 30
0.0
 40
3.0
  0
CIRCLE
  5
3FB
  8
PATTERN_FILL
  6
CONTINUOUS
 62
     7
 10
45.950000000000053
 20
327.92500000000109
 30
0.0
 40
3.0
  0
CIRCLE
  5
3FC
  8
PATTERN_FILL
  6
CONTINUOUS
 62
     7
 10
53.850000000000009
 20
327.92500000000109
 30
0.0
 40
3.0
  0
CIRCLE
  5
3FD
  8
PATTERN_FILL
  6
CONTINUOUS
 62
     7
 10
61.750000000000107
 20
327.92500000000109
 30
0.0
 40
3.0
  0
CIRCLE
  5
3FE
  8
PATTERN_FILL
  6
CONTINUOUS
 62
     7
 10
69.650000000000091
 20
327.92500000000109
 30
0.0
 40
3.0
  0
CIRCLE
  5
3FF
  8
PATTERN_FILL
  6
CONTINUOUS
 62
     7
 10
77.550000000000054
 20
327.92500000000109
 30
0.0
 40
3.0
  0
CIRCLE
  5
400
  8
PATTERN_FILL
  6
CONTINUOUS
 62
     7
 10
85.450000000000031
 20
327.92500000000109
 30
0.0
 40
3.0
  0
CIRCLE
  5
401
  8
PATTERN_FILL
  6
CONTINUOUS
 62
     7
 10
93.350000000000023
 20
327.92500000000109
 30
0.0
 40
3.0
  0
CIRCLE
  5
402
  8
PATTERN_FILL
  6
CONTINUOUS
 62
     7
 10
101.2500000000001
 20
327.92500000000109
 30
0.0
 40
3.0
  0
CIRCLE
  5
403
  8
PATTERN_FILL
  6
CONTINUOUS
 62
     7
 10
109.15000000000011
 20
327.92500000000109
 30
0.0
 40
3.0
  0
CIRCLE
  5
404
  8
PATTERN_FILL
  6
CONTINUOUS
 62
     7
 10
117.05
 20
327.92500000000109
 30
0.0
 40
3.0
  0
CIRCLE
  5
405
  8
PATTERN_FILL
  6
CONTINUOUS
 62
     7
 10
124.95
 20
327.92500000000109
 30
0.0
 40
3.0
  0
CIRCLE
  5
406
  8
PATTERN_FILL
  6
CONTINUOUS
 62
     7
 10
132.84999999999999
 20
327.92500000000109
 30
0.0
 40
3.0
  0
CIRCLE
  5
407
  8
PATTERN_FILL
  6
CONTINUOUS
 62
     7
 10
140.75000000000011
 20
327.92500000000109
 30
0.0
 40
3.0
  0
CIRCLE
  5
408
  8
PATTERN_FILL
  6
CONTINUOUS
 62
     7
 10
148.65000000000009
 20
327.92500000000109
 30
0.0
 40
3.0
  0
ARC
  5
409
  8
PATTERN_FILL
  6
CONTINUOUS
 62
     7
 10
156.5500000000001
 20
327.92500000000109
 30
0.0
 40
3.0000000000000369
 50
139.60512998435121
 51
241.7612528598716
  0
CIRCLE
  5
40A
  8
PATTERN_FILL
  6
CONTINUOUS
 62
     7
 10
49.899999999999977
 20
334.75000000000091
 30
0.0
 40
3.0
  0
CIRCLE
  5
40B
  8
PATTERN_FILL
  6
CONTINUOUS
 62
     7
 10
57.799999999999962
 20
334.75000000000091
 30
0.0
 40
3.0
  0
CIRCLE
  5
40C
  8
PATTERN_FILL
  6
CONTINUOUS
 62
     7
 10
65.700000000000045
 20
334.75000000000091
 30
0.0
 40
3.0
  0
CIRCLE
  5
40D
  8
PATTERN_FILL
  6
CONTINUOUS
 62
     7
 10
73.600000000000023
 20
334.75000000000091
 30
0.0
 40
3.0
  0
CIRCLE
  5
40E
  8
PATTERN_FILL
  6
CONTINUOUS
 62
     7
 10
81.5
 20
334.75000000000091
 30
0.0
 40
3.0
  0
CIRCLE
  5
40F
  8
PATTERN_FILL
  6
CONTINUOUS
 62
     7
 10
89.399999999999949
 20
334.75000000000091
 30
0.0
 40
3.0
  0
CIRCLE
  5
410
  8
PATTERN_FILL
  6
CONTINUOUS
 62
     7
 10
97.299999999999955
 20
334.75000000000091
 30
0.0
 40
3.0
  0
CIRCLE
  5
411
  8
PATTERN_FILL
  6
CONTINUOUS
 62
     7
 10
105.2
 20
334.75000000000091
 30
0.0
 40
3.0
  0
CIRCLE
  5
412
  8
PATTERN_FILL
  6
CONTINUOUS
 62
     7
 10
113.09999999999999
 20
334.75000000000091
 30
0.0
 40
3.0
  0
CIRCLE
  5
413
  8
PATTERN_FILL
  6
CONTINUOUS
 62
     7
 10
121.0
 20
334.75000000000091
 30
0.0
 40
3.0
  0
CIRCLE
  5
414
  8
PATTERN_FILL
  6
CONTINUOUS
 62
     7
 10
128.89999999999989
 20
334.75000000000091
 30
0.0
 40
3.0
  0
CIRCLE
  5
415
  8
PATTERN_FILL
  6
CONTINUOUS
 62
     7
 10
136.7999999999999
 20
334.75000000000091
 30
0.0
 40
3.0
  0
CIRCLE
  5
416
  8
PATTERN_FILL
  6
CONTINUOUS
 62
     7
 10
144.69999999999999
 20
334.75000000000091
 30
0.0
 40
3.0
  0
ARC
  5
417
  8
PATTERN_FILL
  6
CONTINUOUS
 62
     7
 10
152.59999999999999
 20
334.75000000000091
 30
0.0
 40
2.9999999999999791
 50
83.503159925485406
 51
295.2542944492983
  0
CIRCLE
  5
418
  8
PATTERN_FILL
  6
CONTINUOUS
 62
     7
 10
45.950000000000053
 20
341.57500000000101
 30
0.0
 40
3.0
  0
CIRCLE
  5
419
  8
PATTERN_FILL
  6
CONTINUOUS
 62
     7
 10
53.850000000000009
 20
341.57500000000101
 30
0.0
 40
3.0
  0
CIRCLE
  5
41A
  8
PATTERN_FILL
  6
CONTINUOUS
 62
     7
 10
61.750000000000107
 20
341.57500000000101
 30
0.0
 40
3.0
  0
CIRCLE
  5
41B
  8
PATTERN_FILL
  6
CONTINUOUS
 62
     7
 10
69.650000000000091
 20
341.57500000000101
 30
0.0
 40
3.0
  0
CIRCLE
  5
41C
  8
PATTERN_FILL
  6
CONTINUOUS
 62
     7
 10
77.550000000000054
 20
341.57500000000101
 30
0.0
 40
3.0
  0
CIRCLE
  5
41D
  8
PATTERN_FILL
  6
CONTINUOUS
 62
     7
 10
85.450000000000031
 20
341.57500000000101
 30
0.0
 40
3.0
  0
CIRCLE
  5
41E
  8
PATTERN_FILL
  6
CONTINUOUS
 62
     7
 10
93.350000000000023
 20
341.57500000000101
 30
0.0
 40
3.0
  0
CIRCLE
  5
41F
  8
PATTERN_FILL
  6
CONTINUOUS
 62
     7
 10
101.2500000000001
 20
341.57500000000101
 30
0.0
 40
3.0
  0
CIRCLE
  5
420
  8
PATTERN_FILL
  6
CONTINUOUS
 62
     7
 10
109.15000000000011
 20
341.57500000000101
 30
0.0
 40
3.0
  0
CIRCLE
  5
421
  8
PATTERN_FILL
  6
CONTINUOUS
 62
     7
 10
117.05
 20
341.57500000000101
 30
0.0
 40
3.0
  0
CIRCLE
  5
422
  8
PATTERN_FILL
  6
CONTINUOUS
 62
     7
 10
124.95
 20
341.57500000000101
 30
0.0
 40
3.0
  0
CIRCLE
  5
423
  8
PATTERN_FILL
  6
CONTINUOUS
 62
     7
 10
132.84999999999999
 20
341.57500000000101
 30
0.0
 40
3.0
  0
CIRCLE
  5
424
  8
PATTERN_FILL
  6
CONTINUOUS
 62
     7
 10
140.75000000000011
 20
341.57500000000101
 30
0.0
 40
3.0
  0
CIRCLE
  5
425
  8
PATTERN_FILL
  6
CONTINUOUS
 62
     7
 10
148.65000000000009
 20
341.57500000000101
 30
0.0
 40
3.0
  0
CIRCLE
  5
426
  8
PATTERN_FILL
  6
CONTINUOUS
 62
     7
 10
49.899999999999977
 20
348.400000000001
 30
0.0
 40
3.0
  0
CIRCLE
  5
427
  8
PATTERN_FILL
  6
CONTINUOUS
 62
     7
 10
57.799999999999962
 20
348.400000000001
 30
0.0
 40
3.0
  0
CIRCLE
  5
428
  8
PATTERN_FILL
  6
CONTINUOUS
 62
     7
 10
65.700000000000045
 20
348.400000000001
 30
0.0
 40
3.0
  0
CIRCLE
  5
429
  8
PATTERN_FILL
  6
CONTINUOUS
 62
     7
 10
73.600000000000023
 20
348.400000000001
 30
0.0
 40
3.0
  0
CIRCLE
  5
42A
  8
PATTERN_FILL
  6
CONTINUOUS
 62
     7
 10
81.5
 20
348.400000000001
 30
0.0
 40
3.0
  0
CIRCLE
  5
42B
  8
PATTERN_FILL
  6
CONTINUOUS
 62
     7
 10
89.399999999999949
 20
348.400000000001
 30
0.0
 40
3.0
  0
CIRCLE
  5
42C
  8
PATTERN_FILL
  6
CONTINUOUS
 62
     7
 10
97.299999999999955
 20
348.400000000001
 30
0.0
 40
3.0
  0
CIRCLE
  5
42D
  8
PATTERN_FILL
  6
CONTINUOUS
 62
     7
 10
105.2
 20
348.400000000001
 30
0.0
 40
3.0
  0
CIRCLE
  5
42E
  8
PATTERN_FILL
  6
CONTINUOUS
 62
     7
 10
113.09999999999999
 20
348.400000000001
 30
0.0
 40
3.0
  0
CIRCLE
  5
42F
  8
PATTERN_FILL
  6
CONTINUOUS
 62
     7
 10
121.0
 20
348.400000000001
 30
0.0
 40
3.0
  0
CIRCLE
  5
430
  8
PATTERN_FILL
  6
CONTINUOUS
 62
     7
 10
128.89999999999989
 20
348.400000000001
 30
0.0
 40
3.0
  0
CIRCLE
  5
431
  8
PATTERN_FILL
  6
CONTINUOUS
 62
     7
 10
136.7999999999999
 20
348.400000000001
 30
0.0
 40
3.0
  0
CIRCLE
  5
432
  8
PATTERN_FILL
  6
CONTINUOUS
 62
     7
 10
144.69999999999999
 20
348.400000000001
 30
0.0
 40
3.0
  0
ARC
  5
433
  8
PATTERN_FILL
  6
CONTINUOUS
 62
     7
 10
152.59999999999999
 20
348.400000000001
 30
0.0
 40
2.999999999999952
 50
119.0340543424764
 51
254.97093797282449
  0
CIRCLE
  5
434
  8
PATTERN_FILL
  6
CONTINUOUS
 62
     7
 10
45.950000000000053
 20
355.2250000000011
 30
0.0
 40
3.0
  0
CIRCLE
  5
435
  8
PATTERN_FILL
  6
CONTINUOUS
 62
     7
 10
53.850000000000009
 20
355.2250000000011
 30
0.0
 40
3.0
  0
CIRCLE
  5
436
  8
PATTERN_FILL
  6
CONTINUOUS
 62
     7
 10
61.750000000000107
 20
355.2250000000011
 30
0.0
 40
3.0
  0
CIRCLE
  5
437
  8
PATTERN_FILL
  6
CONTINUOUS
 62
     7
 10
69.650000000000091
 20
355.2250000000011
 30
0.0
 40
3.0
  0
CIRCLE
  5
438
  8
PATTERN_FILL
  6
CONTINUOUS
 62
     7
 10
77.550000000000054
 20
355.2250000000011
 30
0.0
 40
3.0
  0
CIRCLE
  5
439
  8
PATTERN_FILL
  6
CONTINUOUS
 62
     7
 10
85.450000000000031
 20
355.2250000000011
 30
0.0
 40
3.0
  0
CIRCLE
  5
43A
  8
PATTERN_FILL
  6
CONTINUOUS
 62
     7
 10
93.350000000000023
 20
355.2250000000011
 30
0.0
 40
3.0
  0
CIRCLE
  5
43B
  8
PATTERN_FILL
  6
CONTINUOUS
 62
     7
 10
101.2500000000001
 20
355.2250000000011
 30
0.0
 40
3.0
  0
CIRCLE
  5
43C
  8
PATTERN_FILL
  6
CONTINUOUS
 62
     7
 10
109.15000000000011
 20
355.2250000000011
 30
0.0
 40
3.0
  0
CIRCLE
  5
43D
  8
PATTERN_FILL
  6
CONTINUOUS
 62
     7
 10
117.05
 20
355.2250000000011
 30
0.0
 40
3.0
  0
CIRCLE
  5
43E
  8
PATTERN_FILL
  6
CONTINUOUS
 62
     7
 10
124.95
 20
355.2250000000011
 30
0.0
 40
3.0
  0
CIRCLE
  5
43F
  8
PATTERN_FILL
  6
CONTINUOUS
 62
     7
 10
132.84999999999999
 20
355.2250000000011
 30
0.0
 40
3.0
  0
CIRCLE
  5
440
  8
PATTERN_FILL
  6
CONTINUOUS
 62
     7
 10
140.75000000000011
 20
355.2250000000011
 30
0.0
 40
3.0
  0
ARC
  5
441
  8
PATTERN_FILL
  6
CONTINUOUS
 62
     7
 10
148.65000000000009
 20
355.2250000000011
 30
0.0
 40
2.999999999999948
 50
52.918392037269868
 51
318.55146377338718
  0
CIRCLE
  5
442
  8
PATTERN_FILL
  6
CONTINUOUS
 62
     7
 10
49.899999999999977
 20
362.05000000000092
 30
0.0
 40
3.0
  0
CIRCLE
  5
443
  8
PATTERN_FILL
  6
CONTINUOUS
 62
     7
 10
57.799999999999962
 20
362.05000000000092
 30
0.0
 40
3.0
  0
CIRCLE
  5
444
  8
PATTERN_FILL
  6
CONTINUOUS
 62
     7
 10
65.700000000000045
 20
362.05000000000092
 30
0.0
 40
3.0
  0
CIRCLE
  5
445
  8
PATTERN_FILL
  6
CONTINUOUS
 62
     7
 10
73.600000000000023
 20
362.05000000000092
 30
0.0
 40
3.0
  0
CIRCLE
  5
446
  8
PATTERN_FILL
  6
CONTINUOUS
 62
     7
 10
81.5
 20
362.05000000000092
 30
0.0
 40
3.0
  0
CIRCLE
  5
447
  8
PATTERN_FILL
  6
CONTINUOUS
 62
     7
 10
89.399999999999949
 20
362.05000000000092
 30
0.0
 40
3.0
  0
CIRCLE
  5
448
  8
PATTERN_FILL
  6
CONTINUOUS
 62
     7
 10
97.299999999999955
 20
362.05000000000092
 30
0.0
 40
3.0
  0
CIRCLE
  5
449
  8
PATTERN_FILL
  6
CONTINUOUS
 62
     7
 10
105.2
 20
362.05000000000092
 30
0.0
 40
3.0
  0
CIRCLE
  5
44A
  8
PATTERN_FILL
  6
CONTINUOUS
 62
     7
 10
113.09999999999999
 20
362.05000000000092
 30
0.0
 40
3.0
  0
CIRCLE
  5
44B
  8
PATTERN_FILL
  6
CONTINUOUS
 62
     7
 10
121.0
 20
362.05000000000092
 30
0.0
 40
3.0
  0
CIRCLE
  5
44C
  8
PATTERN_FILL
  6
CONTINUOUS
 62
     7
 10
128.89999999999989
 20
362.05000000000092
 30
0.0
 40
3.0
  0
CIRCLE
  5
44D
  8
PATTERN_FILL
  6
CONTINUOUS
 62
     7
 10
136.7999999999999
 20
362.05000000000092
 30
0.0
 40
3.0
  0
CIRCLE
  5
44E
  8
PATTERN_FILL
  6
CONTINUOUS
 62
     7
 10
144.69999999999999
 20
362.05000000000092
 30
0.0
 40
3.0
  0
CIRCLE
  5
44F
  8
PATTERN_FILL
  6
CONTINUOUS
 62
     7
 10
45.950000000000053
 20
368.87500000000091
 30
0.0
 40
3.0
  0
CIRCLE
  5
450
  8
PATTERN_FILL
  6
CONTINUOUS
 62
     7
 10
53.850000000000009
 20
368.87500000000091
 30
0.0
 40
3.0
  0
CIRCLE
  5
451
  8
PATTERN_FILL
  6
CONTINUOUS
 62
     7
 10
61.750000000000107
 20
368.87500000000091
 30
0.0
 40
3.0
  0
CIRCLE
  5
452
  8
PATTERN_FILL
  6
CONTINUOUS
 62
     7
 10
69.650000000000091
 20
368.87500000000091
 30
0.0
 40
3.0
  0
CIRCLE
  5
453
  8
PATTERN_FILL
  6
CONTINUOUS
 62
     7
 10
77.550000000000054
 20
368.87500000000091
 30
0.0
 40
3.0
  0
CIRCLE
  5
454
  8
PATTERN_FILL
  6
CONTINUOUS
 62
     7
 10
85.450000000000031
 20
368.87500000000091
 30
0.0
 40
3.0
  0
CIRCLE
  5
455
  8
PATTERN_FILL
  6
CONTINUOUS
 62
     7
 10
93.350000000000023
 20
368.87500000000091
 30
0.0
 40
3.0
  0
CIRCLE
  5
456
  8
PATTERN_FILL
  6
CONTINUOUS
 62
     7
 10
101.2500000000001
 20
368.87500000000091
 30
0.0
 40
3.0
  0
CIRCLE
  5
457
  8
PATTERN_FILL
  6
CONTINUOUS
 62
     7
 10
109.15000000000011
 20
368.87500000000091
 30
0.0
 40
3.0
  0
CIRCLE
  5
458
  8
PATTERN_FILL
  6
CONTINUOUS
 62
     7
 10
117.05
 20
368.87500000000091
 30
0.0
 40
3.0
  0
CIRCLE
  5
459
  8
PATTERN_FILL
  6
CONTINUOUS
 62
     7
 10
124.95
 20
368.87500000000091
 30
0.0
 40
3.0
  0
CIRCLE
  5
45A
  8
PATTERN_FILL
  6
CONTINUOUS
 62
     7
 10
132.84999999999999
 20
368.87500000000091
 30
0.0
 40
3.0
  0
CIRCLE
  5
45B
  8
PATTERN_FILL
  6
CONTINUOUS
 62
     7
 10
140.75000000000011
 20
368.87500000000091
 30
0.0
 40
3.0
  0
ARC
  5
45C
  8
PATTERN_FILL
  6
CONTINUOUS
 62
     7
 10
148.65000000000009
 20
368.87500000000091
 30
0.0
 40
2.9999999999999258
 50
74.647107128579975
 51
292.0605990428304
  0
CIRCLE
  5
45D
  8
PATTERN_FILL
  6
CONTINUOUS
 62
     7
 10
49.899999999999977
 20
375.7000000000009
 30
0.0
 40
3.0
  0
CIRCLE
  5
45E
  8
PATTERN_FILL
  6
CONTINUOUS
 62
     7
 10
57.799999999999962
 20
375.7000000000009
 30
0.0
 40
3.0
  0
CIRCLE
  5
45F
  8
PATTERN_FILL
  6
CONTINUOUS
 62
     7
 10
65.700000000000045
 20
375.7000000000009
 30
0.0
 40
3.0
  0
CIRCLE
  5
460
  8
PATTERN_FILL
  6
CONTINUOUS
 62
     7
 10
73.600000000000023
 20
375.7000000000009
 30
0.0
 40
3.0
  0
CIRCLE
  5
461
  8
PATTERN_FILL
  6
CONTINUOUS
 62
     7
 10
81.5
 20
375.7000000000009
 30
0.0
 40
3.0
  0
CIRCLE
  5
462
  8
PATTERN_FILL
  6
CONTINUOUS
 62
     7
 10
89.399999999999949
 20
375.7000000000009
 30
0.0
 40
3.0
  0
CIRCLE
  5
463
  8
PATTERN_FILL
  6
CONTINUOUS
 62
     7
 10
97.299999999999955
 20
375.7000000000009
 30
0.0
 40
3.0
  0
CIRCLE
  5
464
  8
PATTERN_FILL
  6
CONTINUOUS
 62
     7
 10
105.2
 20
375.7000000000009
 30
0.0
 40
3.0
  0
CIRCLE
  5
465
  8
PATTERN_FILL
  6
CONTINUOUS
 62
     7
 10
113.09999999999999
 20
375.7000000000009
 30
0.0
 40
3.0
  0
CIRCLE
  5
466
  8
PATTERN_FILL
  6
CONTINUOUS
 62
     7
 10
121.0
 20
375.7000000000009
 30
0.0
 40
3.0
  0
CIRCLE
  5
467
  8
PATTERN_FILL
  6
CONTINUOUS
 62
     7
 10
128.89999999999989
 20
375.7000000000009
 30
0.0
 40
3.0
  0
CIRCLE
  5
468
  8
PATTERN_FILL
  6
CONTINUOUS
 62
     7
 10
136.7999999999999
 20
375.7000000000009
 30
0.0
 40
3.0
  0
CIRCLE
  5
469
  8
PATTERN_FILL
  6
CONTINUOUS
 62
     7
 10
144.69999999999999
 20
375.7000000000009
 30
0.0
 40
3.0
  0
CIRCLE
  5
46A
  8
PATTERN_FILL
  6
CONTINUOUS
 62
     7
 10
45.950000000000053
 20
382.525000000001
 30
0.0
 40
3.0
  0
CIRCLE
  5
46B
  8
PATTERN_FILL
  6
CONTINUOUS
 62
     7
 10
53.850000000000009
 20
382.525000000001
 30
0.0
 40
3.0
  0
CIRCLE
  5
46C
  8
PATTERN_FILL
  6
CONTINUOUS
 62
     7
 10
61.750000000000107
 20
382.525000000001
 30
0.0
 40
3.0
  0
CIRCLE
  5
46D
  8
PATTERN_FILL
  6
CONTINUOUS
 62
     7
 10
69.650000000000091
 20
382.525000000001
 30
0.0
 40
3.0
  0
CIRCLE
  5
46E
  8
PATTERN_FILL
  6
CONTINUOUS
 62
     7
 10
77.550000000000054
 20
382.525000000001
 30
0.0
 40
3.0
  0
CIRCLE
  5
46F
  8
PATTERN_FILL
  6
CONTINUOUS
 62
     7
 10
85.450000000000031
 20
382.525000000001
 30
0.0
 40
3.0
  0
CIRCLE
  5
470
  8
PATTERN_FILL
  6
CONTINUOUS
 62
     7
 10
93.350000000000023
 20
382.525000000001
 30
0.0
 40
3.0
  0
CIRCLE
  5
471
  8
PATTERN_FILL
  6
CONTINUOUS
 62
     7
 10
101.2500000000001
 20
382.525000000001
 30
0.0
 40
3.0
  0
CIRCLE
  5
472
  8
PATTERN_FILL
  6
CONTINUOUS
 62
     7
 10
109.15000000000011
 20
382.525000000001
 30
0.0
 40
3.0
  0
CIRCLE
  5
473
  8
PATTERN_FILL
  6
CONTINUOUS
 62
     7
 10
117.05
 20
382.525000000001
 30
0.0
 40
3.0
  0
CIRCLE
  5
474
  8
PATTERN_FILL
  6
CONTINUOUS
 62
     7
 10
124.95
 20
382.525000000001
 30
0.0
 40
3.0
  0
CIRCLE
  5
475
  8
PATTERN_FILL
  6
CONTINUOUS
 62
     7
 10
132.84999999999999
 20
382.525000000001
 30
0.0
 40
3.0
  0
CIRCLE
  5
476
  8
PATTERN_FILL
  6
CONTINUOUS
 62
     7
 10
140.75000000000011
 20
382.525000000001
 30
0.0
 40
3.0
  0
ARC
  5
477
  8
PATTERN_FILL
  6
CONTINUOUS
 62
     7
 10
148.65000000000009
 20
382.525000000001
 30
0.0
 40
3.000000000000052
 50
82.347762803690387
 51
279.57449837358189
  0
CIRCLE
  5
478
  8
PATTERN_FILL
  6
CONTINUOUS
 62
     7
 10
49.899999999999977
 20
389.35000000000082
 30
0.0
 40
3.0
  0
CIRCLE
  5
479
  8
PATTERN_FILL
  6
CONTINUOUS
 62
     7
 10
57.799999999999962
 20
389.35000000000082
 30
0.0
 40
3.0
  0
CIRCLE
  5
47A
  8
PATTERN_FILL
  6
CONTINUOUS
 62
     7
 10
65.700000000000045
 20
389.35000000000082
 30
0.0
 40
3.0
  0
CIRCLE
  5
47B
  8
PATTERN_FILL
  6
CONTINUOUS
 62
     7
 10
73.600000000000023
 20
389.35000000000082
 30
0.0
 40
3.0
  0
CIRCLE
  5
47C
  8
PATTERN_FILL
  6
CONTINUOUS
 62
     7
 10
81.5
 20
389.35000000000082
 30
0.0
 40
3.0
  0
CIRCLE
  5
47D
  8
PATTERN_FILL
  6
CONTINUOUS
 62
     7
 10
89.399999999999949
 20
389.35000000000082
 30
0.0
 40
3.0
  0
CIRCLE
  5
47E
  8
PATTERN_FILL
  6
CONTINUOUS
 62
     7
 10
97.299999999999955
 20
389.35000000000082
 30
0.0
 40
3.0
  0
CIRCLE
  5
47F
  8
PATTERN_FILL
  6
CONTINUOUS
 62
     7
 10
105.2
 20
389.35000000000082
 30
0.0
 40
3.0
  0
CIRCLE
  5
480
  8
PATTERN_FILL
  6
CONTINUOUS
 62
     7
 10
113.09999999999999
 20
389.35000000000082
 30
0.0
 40
3.0
  0
CIRCLE
  5
481
  8
PATTERN_FILL
  6
CONTINUOUS
 62
     7
 10
121.0
 20
389.35000000000082
 30
0.0
 40
3.0
  0
CIRCLE
  5
482
  8
PATTERN_FILL
  6
CONTINUOUS
 62
     7
 10
128.89999999999989
 20
389.35000000000082
 30
0.0
 40
3.0
  0
CIRCLE
  5
483
  8
PATTERN_FILL
  6
CONTINUOUS
 62
     7
 10
136.7999999999999
 20
389.35000000000082
 30
0.0
 40
3.0
  0
CIRCLE
  5
484
  8
PATTERN_FILL
  6
CONTINUOUS
 62
     7
 10
144.69999999999999
 20
389.35000000000082
 30
0.0
 40
3.0
  0
CIRCLE
  5
485
  8
PATTERN_FILL
  6
CONTINUOUS
 62
     7
 10
45.950000000000053
 20
396.17500000000092
 30
0.0
 40
3.0
  0
CIRCLE
  5
486
  8
PATTERN_FILL
  6
CONTINUOUS
 62
     7
 10
53.850000000000009
 20
396.17500000000092
 30
0.0
 40
3.0
  0
CIRCLE
  5
487
  8
PATTERN_FILL
  6
CONTINUOUS
 62
     7
 10
61.750000000000107
 20
396.17500000000092
 30
0.0
 40
3.0
  0
CIRCLE
  5
488
  8
PATTERN_FILL
  6
CONTINUOUS
 62
     7
 10
69.650000000000091
 20
396.17500000000092
 30
0.0
 40
3.0
  0
CIRCLE
  5
489
  8
PATTERN_FILL
  6
CONTINUOUS
 62
     7
 10
77.550000000000054
 20
396.17500000000092
 30
0.0
 40
3.0
  0
CIRCLE
  5
48A
  8
PATTERN_FILL
  6
CONTINUOUS
 62
     7
 10
85.450000000000031
 20
396.17500000000092
 30
0.0
 40
3.0
  0
CIRCLE
  5
48B
  8
PATTERN_FILL
  6
CONTINUOUS
 62
     7
 10
93.350000000000023
 20
396.17500000000092
 30
0.0
 40
3.0
  0
CIRCLE
  5
48C
  8
PATTERN_FILL
  6
CONTINUOUS
 62
     7
 10
101.2500000000001
 20
396.17500000000092
 30
0.0
 40
3.0
  0
CIRCLE
  5
48D
  8
PATTERN_FILL
  6
CONTINUOUS
 62
     7
 10
109.15000000000011
 20
396.17500000000092
 30
0.0
 40
3.0
  0
CIRCLE
  5
48E
  8
PATTERN_FILL
  6
CONTINUOUS
 62
     7
 10
117.05
 20
396.17500000000092
 30
0.0
 40
3.0
  0
CIRCLE
  5
48F
  8
PATTERN_FILL
  6
CONTINUOUS
 62
     7
 10
124.95
 20
396.17500000000092
 30
0.0
 40
3.0
  0
CIRCLE
  5
490
  8
PATTERN_FILL
  6
CONTINUOUS
 62
     7
 10
132.84999999999999
 20
396.17500000000092
 30
0.0
 40
3.0
  0
CIRCLE
  5
491
  8
PATTERN_FILL
  6
CONTINUOUS
 62
     7
 10
140.75000000000011
 20
396.17500000000092
 30
0.0
 40
3.0
  0
ARC
  5
492
  8
PATTERN_FILL
  6
CONTINUOUS
 62
     7
 10
148.65000000000009
 20
396.17500000000092
 30
0.0
 40
3.000000000000048
 50
78.861177659966884
 51
278.26892766759772
  0
CIRCLE
  5
493
  8
PATTERN_FILL
  6
CONTINUOUS
 62
     7
 10
49.899999999999977
 20
403.0000000000008
 30
0.0
 40
3.0
  0
CIRCLE
  5
494
  8
PATTERN_FILL
  6
CONTINUOUS
 62
     7
 10
57.799999999999962
 20
403.0000000000008
 30
0.0
 40
3.0
  0
CIRCLE
  5
495
  8
PATTERN_FILL
  6
CONTINUOUS
 62
     7
 10
65.700000000000045
 20
403.0000000000008
 30
0.0
 40
3.0
  0
CIRCLE
  5
496
  8
PATTERN_FILL
  6
CONTINUOUS
 62
     7
 10
73.600000000000023
 20
403.0000000000008
 30
0.0
 40
3.0
  0
CIRCLE
  5
497
  8
PATTERN_FILL
  6
CONTINUOUS
 62
     7
 10
81.5
 20
403.0000000000008
 30
0.0
 40
3.0
  0
CIRCLE
  5
498
  8
PATTERN_FILL
  6
CONTINUOUS
 62
     7
 10
89.399999999999949
 20
403.0000000000008
 30
0.0
 40
3.0
  0
CIRCLE
  5
499
  8
PATTERN_FILL
  6
CONTINUOUS
 62
     7
 10
97.299999999999955
 20
403.0000000000008
 30
0.0
 40
3.0
  0
CIRCLE
  5
49A
  8
PATTERN_FILL
  6
CONTINUOUS
 62
     7
 10
105.2
 20
403.0000000000008
 30
0.0
 40
3.0
  0
CIRCLE
  5
49B
  8
PATTERN_FILL
  6
CONTINUOUS
 62
     7
 10
113.09999999999999
 20
403.0000000000008
 30
0.0
 40
3.0
  0
CIRCLE
  5
49C
  8
PATTERN_FILL
  6
CONTINUOUS
 62
     7
 10
121.0
 20
403.0000000000008
 30
0.0
 40
3.0
  0
CIRCLE
  5
49D
  8
PATTERN_FILL
  6
CONTINUOUS
 62
     7
 10
128.89999999999989
 20
403.0000000000008
 30
0.0
 40
3.0
  0
CIRCLE
  5
49E
  8
PATTERN_FILL
  6
CONTINUOUS
 62
     7
 10
136.7999999999999
 20
403.0000000000008
 30
0.0
 40
3.0
  0
CIRCLE
  5
49F
  8
PATTERN_FILL
  6
CONTINUOUS
 62
     7
 10
144.69999999999999
 20
403.0000000000008
 30
0.0
 40
3.0
  0
CIRCLE
  5
4A0
  8
PATTERN_FILL
  6
CONTINUOUS
 62
     7
 10
45.950000000000053
 20
409.8250000000009
 30
0.0
 40
3.0
  0
CIRCLE
  5
4A1
  8
PATTERN_FILL
  6
CONTINUOUS
 62
     7
 10
53.850000000000009
 20
409.8250000000009
 30
0.0
 40
3.0
  0
CIRCLE
  5
4A2
  8
PATTERN_FILL
  6
CONTINUOUS
 62
     7
 10
61.750000000000107
 20
409.8250000000009
 30
0.0
 40
3.0
  0
CIRCLE
  5
4A3
  8
PATTERN_FILL
  6
CONTINUOUS
 62
     7
 10
69.650000000000091
 20
409.8250000000009
 30
0.0
 40
3.0
  0
CIRCLE
  5
4A4
  8
PATTERN_FILL
  6
CONTINUOUS
 62
     7
 10
77.550000000000054
 20
409.8250000000009
 30
0.0
 40
3.0
  0
CIRCLE
  5
4A5
  8
PATTERN_FILL
  6
CONTINUOUS
 62
     7
 10
85.450000000000031
 20
409.8250000000009
 30
0.0
 40
3.0
  0
CIRCLE
  5
4A6
  8
PATTERN_FILL
  6
CONTINUOUS
 62
     7
 10
93.350000000000023
 20
409.8250000000009
 30
0.0
 40
3.0
  0
CIRCLE
  5
4A7
  8
PATTERN_FILL
  6
CONTINUOUS
 62
     7
 10
101.2500000000001
 20
409.8250000000009
 30
0.0
 40
3.0
  0
CIRCLE
  5
4A8
  8
PATTERN_FILL
  6
CONTINUOUS
 62
     7
 10
109.15000000000011
 20
409.8250000000009
 30
0.0
 40
3.0
  0
CIRCLE
  5
4A9
  8
PATTERN_FILL
  6
CONTINUOUS
 62
     7
 10
117.05
 20
409.8250000000009
 30
0.0
 40
3.0
  0
CIRCLE
  5
4AA
  8
PATTERN_FILL
  6
CONTINUOUS
 62
     7
 10
124.95
 20
409.8250000000009
 30
0.0
 40
3.0
  0
CIRCLE
  5
4AB
  8
PATTERN_FILL
  6
CONTINUOUS
 62
     7
 10
132.84999999999999
 20
409.8250000000009
 30
0.0
 40
3.0
  0
CIRCLE
  5
4AC
  8
PATTERN_FILL
  6
CONTINUOUS
 62
     7
 10
140.75000000000011
 20
409.8250000000009
 30
0.0
 40
3.0
  0
ARC
  5
4AD
  8
PATTERN_FILL
  6
CONTINUOUS
 62
     7
 10
148.65000000000009
 20
409.8250000000009
 30
0.0
 40
2.99999999999998
 50
64.032290972134561
 51
288.31567191672019
  0
CIRCLE
  5
4AE
  8
PATTERN_FILL
  6
CONTINUOUS
 62
     7
 10
49.899999999999977
 20
416.65000000000077
 30
0.0
 40
3.0
  0
CIRCLE
  5
4AF
  8
PATTERN_FILL
  6
CONTINUOUS
 62
     7
 10
57.799999999999962
 20
416.65000000000077
 30
0.0
 40
3.0
  0
CIRCLE
  5
4B0
  8
PATTERN_FILL
  6
CONTINUOUS
 62
     7
 10
65.700000000000045
 20
416.65000000000077
 30
0.0
 40
3.0
  0
CIRCLE
  5
4B1
  8
PATTERN_FILL
  6
CONTINUOUS
 62
     7
 10
73.600000000000023
 20
416.65000000000077
 30
0.0
 40
3.0
  0
CIRCLE
  5
4B2
  8
PATTERN_FILL
  6
CONTINUOUS
 62
     7
 10
81.5
 20
416.65000000000077
 30
0.0
 40
3.0
  0
CIRCLE
  5
4B3
  8
PATTERN_FILL
  6
CONTINUOUS
 62
     7
 10
89.399999999999949
 20
416.65000000000077
 30
0.0
 40
3.0
  0
CIRCLE
  5
4B4
  8
PATTERN_FILL
  6
CONTINUOUS
 62
     7
 10
97.299999999999955
 20
416.65000000000077
 30
0.0
 40
3.0
  0
CIRCLE
  5
4B5
  8
PATTERN_FILL
  6
CONTINUOUS
 62
     7
 10
105.2
 20
416.65000000000077
 30
0.0
 40
3.0
  0
CIRCLE
  5
4B6
  8
PATTERN_FILL
  6
CONTINUOUS
 62
     7
 10
113.09999999999999
 20
416.65000000000077
 30
0.0
 40
3.0
  0
CIRCLE
  5
4B7
  8
PATTERN_FILL
  6
CONTINUOUS
 62
     7
 10
121.0
 20
416.65000000000077
 30
0.0
 40
3.0
  0
CIRCLE
  5
4B8
  8
PATTERN_FILL
  6
CONTINUOUS
 62
     7
 10
128.89999999999989
 20
416.65000000000077
 30
0.0
 40
3.0
  0
CIRCLE
  5
4B9
  8
PATTERN_FILL
  6
CONTINUOUS
 62
     7
 10
136.7999999999999
 20
416.65000000000077
 30
0.0
 40
3.0
  0
CIRCLE
  5
4BA
  8
PATTERN_FILL
  6
CONTINUOUS
 62
     7
 10
144.69999999999999
 20
416.65000000000077
 30
0.0
 40
3.0
  0
ARC
  5
4BB
  8
PATTERN_FILL
  6
CONTINUOUS
 62
     7
 10
152.59999999999999
 20
416.65000000000077
 30
0.0
 40
3.0000000000000879
 50
134.49867443975521
 51
215.34485265289399
  0
CIRCLE
  5
4BC
  8
PATTERN_FILL
  6
CONTINUOUS
 62
     7
 10
45.950000000000053
 20
423.47500000000082
 30
0.0
 40
3.0
  0
CIRCLE
  5
4BD
  8
PATTERN_FILL
  6
CONTINUOUS
 62
     7
 10
53.850000000000009
 20
423.47500000000082
 30
0.0
 40
3.0
  0
CIRCLE
  5
4BE
  8
PATTERN_FILL
  6
CONTINUOUS
 62
     7
 10
61.750000000000107
 20
423.47500000000082
 30
0.0
 40
3.0
  0
CIRCLE
  5
4BF
  8
PATTERN_FILL
  6
CONTINUOUS
 62
     7
 10
69.650000000000091
 20
423.47500000000082
 30
0.0
 40
3.0
  0
CIRCLE
  5
4C0
  8
PATTERN_FILL
  6
CONTINUOUS
 62
     7
 10
77.550000000000054
 20
423.47500000000082
 30
0.0
 40
3.0
  0
CIRCLE
  5
4C1
  8
PATTERN_FILL
  6
CONTINUOUS
 62
     7
 10
85.450000000000031
 20
423.47500000000082
 30
0.0
 40
3.0
  0
CIRCLE
  5
4C2
  8
PATTERN_FILL
  6
CONTINUOUS
 62
     7
 10
93.350000000000023
 20
423.47500000000082
 30
0.0
 40
3.0
  0
CIRCLE
  5
4C3
  8
PATTERN_FILL
  6
CONTINUOUS
 62
     7
 10
101.2500000000001
 20
423.47500000000082
 30
0.0
 40
3.0
  0
CIRCLE
  5
4C4
  8
PATTERN_FILL
  6
CONTINUOUS
 62
     7
 10
109.15000000000011
 20
423.47500000000082
 30
0.0
 40
3.0
  0
CIRCLE
  5
4C5
  8
PATTERN_FILL
  6
CONTINUOUS
 62
     7
 10
117.05
 20
423.47500000000082
 30
0.0
 40
3.0
  0
CIRCLE
  5
4C6
  8
PATTERN_FILL
  6
CONTINUOUS
 62
     7
 10
124.95
 20
423.47500000000082
 30
0.0
 40
3.0
  0
CIRCLE
  5
4C7
  8
PATTERN_FILL
  6
CONTINUOUS
 62
     7
 10
132.84999999999999
 20
423.47500000000082
 30
0.0
 40
3.0
  0
CIRCLE
  5
4C8
  8
PATTERN_FILL
  6
CONTINUOUS
 62
     7
 10
140.75000000000011
 20
423.47500000000082
 30
0.0
 40
3.0
  0
ARC
  5
4C9
  8
PATTERN_FILL
  6
CONTINUOUS
 62
     7
 10
148.65000000000009
 20
423.47500000000082
 30
0.0
 40
3.000000000000012
 50
33.205555852808921
 51
314.38679392991918
  0
CIRCLE
  5
4CA
  8
PATTERN_FILL
  6
CONTINUOUS
 62
     7
 10
49.899999999999977
 20
430.30000000000081
 30
0.0
 40
3.0
  0
CIRCLE
  5
4CB
  8
PATTERN_FILL
  6
CONTINUOUS
 62
     7
 10
57.799999999999962
 20
430.30000000000081
 30
0.0
 40
3.0
  0
CIRCLE
  5
4CC
  8
PATTERN_FILL
  6
CONTINUOUS
 62
     7
 10
65.700000000000045
 20
430.30000000000081
 30
0.0
 40
3.0
  0
CIRCLE
  5
4CD
  8
PATTERN_FILL
  6
CONTINUOUS
 62
     7
 10
73.600000000000023
 20
430.30000000000081
 30
0.0
 40
3.0
  0
CIRCLE
  5
4CE
  8
PATTERN_FILL
  6
CONTINUOUS
 62
     7
 10
81.5
 20
430.30000000000081
 30
0.0
 40
3.0
  0
CIRCLE
  5
4CF
  8
PATTERN_FILL
  6
CONTINUOUS
 62
     7
 10
89.399999999999949
 20
430.30000000000081
 30
0.0
 40
3.0
  0
CIRCLE
  5
4D0
  8
PATTERN_FILL
  6
CONTINUOUS
 62
     7
 10
97.299999999999955
 20
430.30000000000081
 30
0.0
 40
3.0
  0
CIRCLE
  5
4D1
  8
PATTERN_FILL
  6
CONTINUOUS
 62
     7
 10
105.2
 20
430.30000000000081
 30
0.0
 40
3.0
  0
CIRCLE
  5
4D2
  8
PATTERN_FILL
  6
CONTINUOUS
 62
     7
 10
113.09999999999999
 20
430.30000000000081
 30
0.0
 40
3.0
  0
CIRCLE
  5
4D3
  8
PATTERN_FILL
  6
CONTINUOUS
 62
     7
 10
121.0
 20
430.30000000000081
 30
0.0
 40
3.0
  0
CIRCLE
  5
4D4
  8
PATTERN_FILL
  6
CONTINUOUS
 62
     7
 10
128.89999999999989
 20
430.30000000000081
 30
0.0
 40
3.0
  0
CIRCLE
  5
4D5
  8
PATTERN_FILL
  6
CONTINUOUS
 62
     7
 10
136.7999999999999
 20
430.30000000000081
 30
0.0
 40
3.0
  0
CIRCLE
  5
4D6
  8
PATTERN_FILL
  6
CONTINUOUS
 62
     7
 10
144.69999999999999
 20
430.30000000000081
 30
0.0
 40
3.0
  0
ARC
  5
4D7
  8
PATTERN_FILL
  6
CONTINUOUS
 62
     7
 10
152.59999999999999
 20
430.30000000000081
 30
0.0
 40
2.9999999999999001
 50
97.677349692456573
 51
247.3732309313279
  0
CIRCLE
  5
4D8
  8
PATTERN_FILL
  6
CONTINUOUS
 62
     7
 10
45.950000000000053
 20
437.1250000000008
 30
0.0
 40
3.0
  0
CIRCLE
  5
4D9
  8
PATTERN_FILL
  6
CONTINUOUS
 62
     7
 10
53.850000000000009
 20
437.1250000000008
 30
0.0
 40
3.0
  0
CIRCLE
  5
4DA
  8
PATTERN_FILL
  6
CONTINUOUS
 62
     7
 10
61.750000000000107
 20
437.1250000000008
 30
0.0
 40
3.0
  0
CIRCLE
  5
4DB
  8
PATTERN_FILL
  6
CONTINUOUS
 62
     7
 10
69.650000000000091
 20
437.1250000000008
 30
0.0
 40
3.0
  0
CIRCLE
  5
4DC
  8
PATTERN_FILL
  6
CONTINUOUS
 62
     7
 10
77.550000000000054
 20
437.1250000000008
 30
0.0
 40
3.0
  0
CIRCLE
  5
4DD
  8
PATTERN_FILL
  6
CONTINUOUS
 62
     7
 10
85.450000000000031
 20
437.1250000000008
 30
0.0
 40
3.0
  0
CIRCLE
  5
4DE
  8
PATTERN_FILL
  6
CONTINUOUS
 62
     7
 10
93.350000000000023
 20
437.1250000000008
 30
0.0
 40
3.0
  0
CIRCLE
  5
4DF
  8
PATTERN_FILL
  6
CONTINUOUS
 62
     7
 10
101.2500000000001
 20
437.1250000000008
 30
0.0
 40
3.0
  0
CIRCLE
  5
4E0
  8
PATTERN_FILL
  6
CONTINUOUS
 62
     7
 10
109.15000000000011
 20
437.1250000000008
 30
0.0
 40
3.0
  0
CIRCLE
  5
4E1
  8
PATTERN_FILL
  6
CONTINUOUS
 62
     7
 10
117.05
 20
437.1250000000008
 30
0.0
 40
3.0
  0
CIRCLE
  5
4E2
  8
PATTERN_FILL
  6
CONTINUOUS
 62
     7
 10
124.95
 20
437.1250000000008
 30
0.0
 40
3.0
  0
CIRCLE
  5
4E3
  8
PATTERN_FILL
  6
CONTINUOUS
 62
     7
 10
132.84999999999999
 20
437.1250000000008
 30
0.0
 40
3.0
  0
CIRCLE
  5
4E4
  8
PATTERN_FILL
  6
CONTINUOUS
 62
     7
 10
140.75000000000011
 20
437.1250000000008
 30
0.0
 40
3.0
  0
CIRCLE
  5
4E5
  8
PATTERN_FILL
  6
CONTINUOUS
 62
     7
 10
148.65000000000009
 20
437.1250000000008
 30
0.0
 40
3.0
  0
CIRCLE
  5
4E6
  8
PATTERN_FILL
  6
CONTINUOUS
 62
     7
 10
49.899999999999977
 20
443.95000000000073
 30
0.0
 40
3.0
  0
CIRCLE
  5
4E7
  8
PATTERN_FILL
  6
CONTINUOUS
 62
     7
 10
57.799999999999962
 20
443.95000000000073
 30
0.0
 40
3.0
  0
CIRCLE
  5
4E8
  8
PATTERN_FILL
  6
CONTINUOUS
 62
     7
 10
65.700000000000045
 20
443.95000000000073
 30
0.0
 40
3.0
  0
CIRCLE
  5
4E9
  8
PATTERN_FILL
  6
CONTINUOUS
 62
     7
 10
73.600000000000023
 20
443.95000000000073
 30
0.0
 40
3.0
  0
CIRCLE
  5
4EA
  8
PATTERN_FILL
  6
CONTINUOUS
 62
     7
 10
81.5
 20
443.95000000000073
 30
0.0
 40
3.0
  0
CIRCLE
  5
4EB
  8
PATTERN_FILL
  6
CONTINUOUS
 62
     7
 10
89.399999999999949
 20
443.95000000000073
 30
0.0
 40
3.0
  0
CIRCLE
  5
4EC
  8
PATTERN_FILL
  6
CONTINUOUS
 62
     7
 10
97.299999999999955
 20
443.95000000000073
 30
0.0
 40
3.0
  0
CIRCLE
  5
4ED
  8
PATTERN_FILL
  6
CONTINUOUS
 62
     7
 10
105.2
 20
443.95000000000073
 30
0.0
 40
3.0
  0
CIRCLE
  5
4EE
  8
PATTERN_FILL
  6
CONTINUOUS
 62
     7
 10
113.09999999999999
 20
443.95000000000073
 30
0.0
 40
3.0
  0
CIRCLE
  5
4EF
  8
PATTERN_FILL
  6
CONTINUOUS
 62
     7
 10
121.0
 20
443.95000000000073
 30
0.0
 40
3.0
  0
CIRCLE
  5
4F0
  8
PATTERN_FILL
  6
CONTINUOUS
 62
     7
 10
128.89999999999989
 20
443.95000000000073
 30
0.0
 40
3.0
  0
CIRCLE
  5
4F1
  8
PATTERN_FILL
  6
CONTINUOUS
 62
     7
 10
136.7999999999999
 20
443.95000000000073
 30
0.0
 40
3.0
  0
CIRCLE
  5
4F2
  8
PATTERN_FILL
  6
CONTINUOUS
 62
     7
 10
144.69999999999999
 20
443.95000000000073
 30
0.0
 40
3.0
  0
ARC
  5
4F3
  8
PATTERN_FILL
  6
CONTINUOUS
 62
     7
 10
152.59999999999999
 20
443.95000000000073
 30
0.0
 40
2.999999999999976
 50
55.108745694657223
 51
285.20089277861803
  0
CIRCLE
  5
4F4
  8
PATTERN_FILL
  6
CONTINUOUS
 62
     7
 10
45.950000000000053
 20
450.77500000000077
 30
0.0
 40
3.0
  0
CIRCLE
  5
4F5
  8
PATTERN_FILL
  6
CONTINUOUS
 62
     7
 10
53.850000000000009
 20
450.77500000000077
 30
0.0
 40
3.0
  0
CIRCLE
  5
4F6
  8
PATTERN_FILL
  6
CONTINUOUS
 62
     7
 10
61.750000000000107
 20
450.77500000000077
 30
0.0
 40
3.0
  0
CIRCLE
  5
4F7
  8
PATTERN_FILL
  6
CONTINUOUS
 62
     7
 10
69.650000000000091
 20
450.77500000000077
 30
0.0
 40
3.0
  0
CIRCLE
  5
4F8
  8
PATTERN_FILL
  6
CONTINUOUS
 62
     7
 10
77.550000000000054
 20
450.77500000000077
 30
0.0
 40
3.0
  0
CIRCLE
  5
4F9
  8
PATTERN_FILL
  6
CONTINUOUS
 62
     7
 10
85.450000000000031
 20
450.77500000000077
 30
0.0
 40
3.0
  0
CIRCLE
  5
4FA
  8
PATTERN_FILL
  6
CONTINUOUS
 62
     7
 10
93.350000000000023
 20
450.77500000000077
 30
0.0
 40
3.0
  0
CIRCLE
  5
4FB
  8
PATTERN_FILL
  6
CONTINUOUS
 62
     7
 10
101.2500000000001
 20
450.77500000000077
 30
0.0
 40
3.0
  0
CIRCLE
  5
4FC
  8
PATTERN_FILL
  6
CONTINUOUS
 62
     7
 10
109.15000000000011
 20
450.77500000000077
 30
0.0
 40
3.0
  0
CIRCLE
  5
4FD
  8
PATTERN_FILL
  6
CONTINUOUS
 62
     7
 10
117.05
 20
450.77500000000077
 30
0.0
 40
3.0
  0
CIRCLE
  5
4FE
  8
PATTERN_FILL
  6
CONTINUOUS
 62
     7
 10
124.95
 20
450.77500000000077
 30
0.0
 40
3.0
  0
CIRCLE
  5
4FF
  8
PATTERN_FILL
  6
CONTINUOUS
 62
     7
 10
132.84999999999999
 20
450.77500000000077
 30
0.0
 40
3.0
  0
CIRCLE
  5
500
  8
PATTERN_FILL
  6
CONTINUOUS
 62
     7
 10
140.75000000000011
 20
450.77500000000077
 30
0.0
 40
3.0
  0
CIRCLE
  5
501
  8
PATTERN_FILL
  6
CONTINUOUS
 62
     7
 10
148.65000000000009
 20
450.77500000000077
 30
0.0
 40
3.0
  0
ARC
  5
502
  8
PATTERN_FILL
  6
CONTINUOUS
 62
     7
 10
156.5500000000001
 20
450.77500000000077
 30
0.0
 40
3.00000000000004
 50
106.0389353166568
 51
231.65796537153639
  0
CIRCLE
  5
503
  8
PATTERN_FILL
  6
CONTINUOUS
 62
     7
 10
49.899999999999977
 20
457.60000000000082
 30
0.0
 40
3.0
  0
CIRCLE
  5
504
  8
PATTERN_FILL
  6
CONTINUOUS
 62
     7
 10
57.799999999999962
 20
457.60000000000082
 30
0.0
 40
3.0
  0
CIRCLE
  5
505
  8
PATTERN_FILL
  6
CONTINUOUS
 62
     7
 10
65.700000000000045
 20
457.60000000000082
 30
0.0
 40
3.0
  0
CIRCLE
  5
506
  8
PATTERN_FILL
  6
CONTINUOUS
 62
     7
 10
73.600000000000023
 20
457.60000000000082
 30
0.0
 40
3.0
  0
CIRCLE
  5
507
  8
PATTERN_FILL
  6
CONTINUOUS
 62
     7
 10
81.5
 20
457.60000000000082
 30
0.0
 40
3.0
  0
CIRCLE
  5
508
  8
PATTERN_FILL
  6
CONTINUOUS
 62
     7
 10
89.399999999999949
 20
457.60000000000082
 30
0.0
 40
3.0
  0
CIRCLE
  5
509
  8
PATTERN_FILL
  6
CONTINUOUS
 62
     7
 10
97.299999999999955
 20
457.60000000000082
 30
0.0
 40
3.0
  0
CIRCLE
  5
50A
  8
PATTERN_FILL
  6
CONTINUOUS
 62
     7
 10
105.2
 20
457.60000000000082
 30
0.0
 40
3.0
  0
CIRCLE
  5
50B
  8
PATTERN_FILL
  6
CONTINUOUS
 62
     7
 10
113.09999999999999
 20
457.60000000000082
 30
0.0
 40
3.0
  0
CIRCLE
  5
50C
  8
PATTERN_FILL
  6
CONTINUOUS
 62
     7
 10
121.0
 20
457.60000000000082
 30
0.0
 40
3.0
  0
CIRCLE
  5
50D
  8
PATTERN_FILL
  6
CONTINUOUS
 62
     7
 10
128.89999999999989
 20
457.60000000000082
 30
0.0
 40
3.0
  0
CIRCLE
  5
50E
  8
PATTERN_FILL
  6
CONTINUOUS
 62
     7
 10
136.7999999999999
 20
457.60000000000082
 30
0.0
 40
3.0
  0
CIRCLE
  5
50F
  8
PATTERN_FILL
  6
CONTINUOUS
 62
     7
 10
144.69999999999999
 20
457.60000000000082
 30
0.0
 40
3.0
  0
CIRCLE
  5
510
  8
PATTERN_FILL
  6
CONTINUOUS
 62
     7
 10
152.59999999999999
 20
457.60000000000082
 30
0.0
 40
3.0
  0
CIRCLE
  5
511
  8
PATTERN_FILL
  6
CONTINUOUS
 62
     7
 10
45.950000000000053
 20
464.42500000000081
 30
0.0
 40
3.0
  0
CIRCLE
  5
512
  8
PATTERN_FILL
  6
CONTINUOUS
 62
     7
 10
53.850000000000009
 20
464.42500000000081
 30
0.0
 40
3.0
  0
CIRCLE
  5
513
  8
PATTERN_FILL
  6
CONTINUOUS
 62
     7
 10
61.750000000000107
 20
464.42500000000081
 30
0.0
 40
3.0
  0
CIRCLE
  5
514
  8
PATTERN_FILL
  6
CONTINUOUS
 62
     7
 10
69.650000000000091
 20
464.42500000000081
 30
0.0
 40
3.0
  0
CIRCLE
  5
515
  8
PATTERN_FILL
  6
CONTINUOUS
 62
     7
 10
77.550000000000054
 20
464.42500000000081
 30
0.0
 40
3.0
  0
CIRCLE
  5
516
  8
PATTERN_FILL
  6
CONTINUOUS
 62
     7
 10
85.450000000000031
 20
464.42500000000081
 30
0.0
 40
3.0
  0
CIRCLE
  5
517
  8
PATTERN_FILL
  6
CONTINUOUS
 62
     7
 10
93.350000000000023
 20
464.42500000000081
 30
0.0
 40
3.0
  0
CIRCLE
  5
518
  8
PATTERN_FILL
  6
CONTINUOUS
 62
     7
 10
101.2500000000001
 20
464.42500000000081
 30
0.0
 40
3.0
  0
CIRCLE
  5
519
  8
PATTERN_FILL
  6
CONTINUOUS
 62
     7
 10
109.15000000000011
 20
464.42500000000081
 30
0.0
 40
3.0
  0
CIRCLE
  5
51A
  8
PATTERN_FILL
  6
CONTINUOUS
 62
     7
 10
117.05
 20
464.42500000000081
 30
0.0
 40
3.0
  0
CIRCLE
  5
51B
  8
PATTERN_FILL
  6
CONTINUOUS
 62
     7
 10
124.95
 20
464.42500000000081
 30
0.0
 40
3.0
  0
CIRCLE
  5
51C
  8
PATTERN_FILL
  6
CONTINUOUS
 62
     7
 10
132.84999999999999
 20
464.42500000000081
 30
0.0
 40
3.0
  0
CIRCLE
  5
51D
  8
PATTERN_FILL
  6
CONTINUOUS
 62
     7
 10
140.75000000000011
 20
464.42500000000081
 30
0.0
 40
3.0
  0
CIRCLE
  5
51E
  8
PATTERN_FILL
  6
CONTINUOUS
 62
     7
 10
148.65000000000009
 20
464.42500000000081
 30
0.0
 40
3.0
  0
ARC
  5
51F
  8
PATTERN_FILL
  6
CONTINUOUS
 62
     7
 10
156.5500000000001
 20
464.42500000000081
 30
0.0
 40
3.00000000000006
 50
45.567443847713733
 51
287.44211032365001
  0
CIRCLE
  5
520
  8
PATTERN_FILL
  6
CONTINUOUS
 62
     7
 10
49.899999999999977
 20
471.25000000000068
 30
0.0
 40
3.0
  0
CIRCLE
  5
521
  8
PATTERN_FILL
  6
CONTINUOUS
 62
     7
 10
57.799999999999962
 20
471.25000000000068
 30
0.0
 40
3.0
  0
CIRCLE
  5
522
  8
PATTERN_FILL
  6
CONTINUOUS
 62
     7
 10
65.700000000000045
 20
471.25000000000068
 30
0.0
 40
3.0
  0
CIRCLE
  5
523
  8
PATTERN_FILL
  6
CONTINUOUS
 62
     7
 10
73.600000000000023
 20
471.25000000000068
 30
0.0
 40
3.0
  0
CIRCLE
  5
524
  8
PATTERN_FILL
  6
CONTINUOUS
 62
     7
 10
81.5
 20
471.25000000000068
 30
0.0
 40
3.0
  0
CIRCLE
  5
525
  8
PATTERN_FILL
  6
CONTINUOUS
 62
     7
 10
89.399999999999949
 20
471.25000000000068
 30
0.0
 40
3.0
  0
CIRCLE
  5
526
  8
PATTERN_FILL
  6
CONTINUOUS
 62
     7
 10
97.299999999999955
 20
471.25000000000068
 30
0.0
 40
3.0
  0
CIRCLE
  5
527
  8
PATTERN_FILL
  6
CONTINUOUS
 62
     7
 10
105.2
 20
471.25000000000068
 30
0.0
 40
3.0
  0
CIRCLE
  5
528
  8
PATTERN_FILL
  6
CONTINUOUS
 62
     7
 10
113.09999999999999
 20
471.25000000000068
 30
0.0
 40
3.0
  0
CIRCLE
  5
529
  8
PATTERN_FILL
  6
CONTINUOUS
 62
     7
 10
121.0
 20
471.25000000000068
 30
0.0
 40
3.0
  0
CIRCLE
  5
52A
  8
PATTERN_FILL
  6
CONTINUOUS
 62
     7
 10
128.89999999999989
 20
471.25000000000068
 30
0.0
 40
3.0
  0
CIRCLE
  5
52B
  8
PATTERN_FILL
  6
CONTINUOUS
 62
     7
 10
136.7999999999999
 20
471.25000000000068
 30
0.0
 40
3.0
  0
CIRCLE
  5
52C
  8
PATTERN_FILL
  6
CONTINUOUS
 62
     7
 10
144.69999999999999
 20
471.25000000000068
 30
0.0
 40
3.0
  0
CIRCLE
  5
52D
  8
PATTERN_FILL
  6
CONTINUOUS
 62
     7
 10
152.59999999999999
 20
471.25000000000068
 30
0.0
 40
3.0
  0
ARC
  5
52E
  8
PATTERN_FILL
  6
CONTINUOUS
 62
     7
 10
160.5
 20
471.25000000000068
 30
0.0
 40
3.0000000000000062
 50
87.003898510905387
 51
243.343141548571
  0
CIRCLE
  5
52F
  8
PATTERN_FILL
  6
CONTINUOUS
 62
     7
 10
45.950000000000053
 20
478.07500000000078
 30
0.0
 40
3.0
  0
CIRCLE
  5
530
  8
PATTERN_FILL
  6
CONTINUOUS
 62
     7
 10
53.850000000000009
 20
478.07500000000078
 30
0.0
 40
3.0
  0
CIRCLE
  5
531
  8
PATTERN_FILL
  6
CONTINUOUS
 62
     7
 10
61.750000000000107
 20
478.07500000000078
 30
0.0
 40
3.0
  0
CIRCLE
  5
532
  8
PATTERN_FILL
  6
CONTINUOUS
 62
     7
 10
69.650000000000091
 20
478.07500000000078
 30
0.0
 40
3.0
  0
CIRCLE
  5
533
  8
PATTERN_FILL
  6
CONTINUOUS
 62
     7
 10
77.550000000000054
 20
478.07500000000078
 30
0.0
 40
3.0
  0
CIRCLE
  5
534
  8
PATTERN_FILL
  6
CONTINUOUS
 62
     7
 10
85.450000000000031
 20
478.07500000000078
 30
0.0
 40
3.0
  0
CIRCLE
  5
535
  8
PATTERN_FILL
  6
CONTINUOUS
 62
     7
 10
93.350000000000023
 20
478.07500000000078
 30
0.0
 40
3.0
  0
CIRCLE
  5
536
  8
PATTERN_FILL
  6
CONTINUOUS
 62
     7
 10
101.2500000000001
 20
478.07500000000078
 30
0.0
 40
3.0
  0
CIRCLE
  5
537
  8
PATTERN_FILL
  6
CONTINUOUS
 62
     7
 10
109.15000000000011
 20
478.07500000000078
 30
0.0
 40
3.0
  0
CIRCLE
  5
538
  8
PATTERN_FILL
  6
CONTINUOUS
 62
     7
 10
117.05
 20
478.07500000000078
 30
0.0
 40
3.0
  0
CIRCLE
  5
539
  8
PATTERN_FILL
  6
CONTINUOUS
 62
     7
 10
124.95
 20
478.07500000000078
 30
0.0
 40
3.0
  0
CIRCLE
  5
53A
  8
PATTERN_FILL
  6
CONTINUOUS
 62
     7
 10
132.84999999999999
 20
478.07500000000078
 30
0.0
 40
3.0
  0
CIRCLE
  5
53B
  8
PATTERN_FILL
  6
CONTINUOUS
 62
     7
 10
140.75000000000011
 20
478.07500000000078
 30
0.0
 40
3.0
  0
CIRCLE
  5
53C
  8
PATTERN_FILL
  6
CONTINUOUS
 62
     7
 10
148.65000000000009
 20
478.07500000000078
 30
0.0
 40
3.0
  0
CIRCLE
  5
53D
  8
PATTERN_FILL
  6
CONTINUOUS
 62
     7
 10
156.5500000000001
 20
478.07500000000078
 30
0.0
 40
3.0
  0
CIRCLE
  5
53E
  8
PATTERN_FILL
  6
CONTINUOUS
 62
     7
 10
49.899999999999977
 20
484.90000000000077
 30
0.0
 40
3.0
  0
CIRCLE
  5
53F
  8
PATTERN_FILL
  6
CONTINUOUS
 62
     7
 10
57.799999999999962
 20
484.90000000000077
 30
0.0
 40
3.0
  0
CIRCLE
  5
540
  8
PATTERN_FILL
  6
CONTINUOUS
 62
     7
 10
65.700000000000045
 20
484.90000000000077
 30
0.0
 40
3.0
  0
CIRCLE
  5
541
  8
PATTERN_FILL
  6
CONTINUOUS
 62
     7
 10
73.600000000000023
 20
484.90000000000077
 30
0.0
 40
3.0
  0
CIRCLE
  5
542
  8
PATTERN_FILL
  6
CONTINUOUS
 62
     7
 10
81.5
 20
484.90000000000077
 30
0.0
 40
3.0
  0
CIRCLE
  5
543
  8
PATTERN_FILL
  6
CONTINUOUS
 62
     7
 10
89.399999999999949
 20
484.90000000000077
 30
0.0
 40
3.0
  0
CIRCLE
  5
544
  8
PATTERN_FILL
  6
CONTINUOUS
 62
     7
 10
97.299999999999955
 20
484.90000000000077
 30
0.0
 40
3.0
  0
CIRCLE
  5
545
  8
PATTERN_FILL
  6
CONTINUOUS
 62
     7
 10
105.2
 20
484.90000000000077
 30
0.0
 40
3.0
  0
CIRCLE
  5
546
  8
PATTERN_FILL
  6
CONTINUOUS
 62
     7
 10
113.09999999999999
 20
484.90000000000077
 30
0.0
 40
3.0
  0
CIRCLE
  5
547
  8
PATTERN_FILL
  6
CONTINUOUS
 62
     7
 10
121.0
 20
484.90000000000077
 30
0.0
 40
3.0
  0
CIRCLE
  5
548
  8
PATTERN_FILL
  6
CONTINUOUS
 62
     7
 10
128.89999999999989
 20
484.90000000000077
 30
0.0
 40
3.0
  0
CIRCLE
  5
549
  8
PATTERN_FILL
  6
CONTINUOUS
 62
     7
 10
136.7999999999999
 20
484.90000000000077
 30
0.0
 40
3.0
  0
CIRCLE
  5
54A
  8
PATTERN_FILL
  6
CONTINUOUS
 62
     7
 10
144.69999999999999
 20
484.90000000000077
 30
0.0
 40
3.0
  0
CIRCLE
  5
54B
  8
PATTERN_FILL
  6
CONTINUOUS
 62
     7
 10
152.59999999999999
 20
484.90000000000077
 30
0.0
 40
3.0
  0
CIRCLE
  5
54C
  8
PATTERN_FILL
  6
CONTINUOUS
 62
     7
 10
160.5
 20
484.90000000000077
 30
0.0
 40
3.0
  0
CIRCLE
  5
54D
  8
PATTERN_FILL
  6
CONTINUOUS
 62
     7
 10
45.950000000000053
 20
491.72500000000082
 30
0.0
 40
3.0
  0
CIRCLE
  5
54E
  8
PATTERN_FILL
  6
CONTINUOUS
 62
     7
 10
53.850000000000009
 20
491.72500000000082
 30
0.0
 40
3.0
  0
CIRCLE
  5
54F
  8
PATTERN_FILL
  6
CONTINUOUS
 62
     7
 10
61.750000000000107
 20
491.72500000000082
 30
0.0
 40
3.0
  0
CIRCLE
  5
550
  8
PATTERN_FILL
  6
CONTINUOUS
 62
     7
 10
69.650000000000091
 20
491.72500000000082
 30
0.0
 40
3.0
  0
CIRCLE
  5
551
  8
PATTERN_FILL
  6
CONTINUOUS
 62
     7
 10
77.550000000000054
 20
491.72500000000082
 30
0.0
 40
3.0
  0
CIRCLE
  5
552
  8
PATTERN_FILL
  6
CONTINUOUS
 62
     7
 10
85.450000000000031
 20
491.72500000000082
 30
0.0
 40
3.0
  0
CIRCLE
  5
553
  8
PATTERN_FILL
  6
CONTINUOUS
 62
     7
 10
93.350000000000023
 20
491.72500000000082
 30
0.0
 40
3.0
  0
CIRCLE
  5
554
  8
PATTERN_FILL
  6
CONTINUOUS
 62
     7
 10
101.2500000000001
 20
491.72500000000082
 30
0.0
 40
3.0
  0
CIRCLE
  5
555
  8
PATTERN_FILL
  6
CONTINUOUS
 62
     7
 10
109.15000000000011
 20
491.72500000000082
 30
0.0
 40
3.0
  0
CIRCLE
  5
556
  8
PATTERN_FILL
  6
CONTINUOUS
 62
     7
 10
117.05
 20
491.72500000000082
 30
0.0
 40
3.0
  0
CIRCLE
  5
557
  8
PATTERN_FILL
  6
CONTINUOUS
 62
     7
 10
124.95
 20
491.72500000000082
 30
0.0
 40
3.0
  0
CIRCLE
  5
558
  8
PATTERN_FILL
  6
CONTINUOUS
 62
     7
 10
132.84999999999999
 20
491.72500000000082
 30
0.0
 40
3.0
  0
CIRCLE
  5
559
  8
PATTERN_FILL
  6
CONTINUOUS
 62
     7
 10
140.75000000000011
 20
491.72500000000082
 30
0.0
 40
3.0
  0
CIRCLE
  5
55A
  8
PATTERN_FILL
  6
CONTINUOUS
 62
     7
 10
148.65000000000009
 20
491.72500000000082
 30
0.0
 40
3.0
  0
CIRCLE
  5
55B
  8
PATTERN_FILL
  6
CONTINUOUS
 62
     7
 10
156.5500000000001
 20
491.72500000000082
 30
0.0
 40
3.0
  0
ARC
  5
55C
  8
PATTERN_FILL
  6
CONTINUOUS
 62
     7
 10
164.4500000000001
 20
491.72500000000082
 30
0.0
 40
2.9999999999999849
 50
42.304249685583301
 51
280.75667993804558
  0
CIRCLE
  5
55D
  8
PATTERN_FILL
  6
CONTINUOUS
 62
     7
 10
49.899999999999977
 20
498.55000000000058
 30
0.0
 40
3.0
  0
CIRCLE
  5
55E
  8
PATTERN_FILL
  6
CONTINUOUS
 62
     7
 10
57.799999999999962
 20
498.55000000000058
 30
0.0
 40
3.0
  0
CIRCLE
  5
55F
  8
PATTERN_FILL
  6
CONTINUOUS
 62
     7
 10
65.700000000000045
 20
498.55000000000058
 30
0.0
 40
3.0
  0
CIRCLE
  5
560
  8
PATTERN_FILL
  6
CONTINUOUS
 62
     7
 10
73.600000000000023
 20
498.55000000000058
 30
0.0
 40
3.0
  0
CIRCLE
  5
561
  8
PATTERN_FILL
  6
CONTINUOUS
 62
     7
 10
81.5
 20
498.55000000000058
 30
0.0
 40
3.0
  0
CIRCLE
  5
562
  8
PATTERN_FILL
  6
CONTINUOUS
 62
     7
 10
89.399999999999949
 20
498.55000000000058
 30
0.0
 40
3.0
  0
CIRCLE
  5
563
  8
PATTERN_FILL
  6
CONTINUOUS
 62
     7
 10
97.299999999999955
 20
498.55000000000058
 30
0.0
 40
3.0
  0
CIRCLE
  5
564
  8
PATTERN_FILL
  6
CONTINUOUS
 62
     7
 10
105.2
 20
498.55000000000058
 30
0.0
 40
3.0
  0
CIRCLE
  5
565
  8
PATTERN_FILL
  6
CONTINUOUS
 62
     7
 10
113.09999999999999
 20
498.55000000000058
 30
0.0
 40
3.0
  0
CIRCLE
  5
566
  8
PATTERN_FILL
  6
CONTINUOUS
 62
     7
 10
121.0
 20
498.55000000000058
 30
0.0
 40
3.0
  0
CIRCLE
  5
567
  8
PATTERN_FILL
  6
CONTINUOUS
 62
     7
 10
128.89999999999989
 20
498.55000000000058
 30
0.0
 40
3.0
  0
CIRCLE
  5
568
  8
PATTERN_FILL
  6
CONTINUOUS
 62
     7
 10
136.7999999999999
 20
498.55000000000058
 30
0.0
 40
3.0
  0
CIRCLE
  5
569
  8
PATTERN_FILL
  6
CONTINUOUS
 62
     7
 10
144.69999999999999
 20
498.55000000000058
 30
0.0
 40
3.0
  0
CIRCLE
  5
56A
  8
PATTERN_FILL
  6
CONTINUOUS
 62
     7
 10
152.59999999999999
 20
498.55000000000058
 30
0.0
 40
3.0
  0
CIRCLE
  5
56B
  8
PATTERN_FILL
  6
CONTINUOUS
 62
     7
 10
160.5
 20
498.55000000000058
 30
0.0
 40
3.0
  0
ARC
  5
56C
  8
PATTERN_FILL
  6
CONTINUOUS
 62
     7
 10
168.40000000000009
 20
498.55000000000058
 30
0.0
 40
3.000000000000004
 50
70.645167231136
 51
249.69951930711241
  0
CIRCLE
  5
56D
  8
PATTERN_FILL
  6
CONTINUOUS
 62
     7
 10
45.950000000000053
 20
505.37500000000068
 30
0.0
 40
3.0
  0
CIRCLE
  5
56E
  8
PATTERN_FILL
  6
CONTINUOUS
 62
     7
 10
53.850000000000009
 20
505.37500000000068
 30
0.0
 40
3.0
  0
CIRCLE
  5
56F
  8
PATTERN_FILL
  6
CONTINUOUS
 62
     7
 10
61.750000000000107
 20
505.37500000000068
 30
0.0
 40
3.0
  0
CIRCLE
  5
570
  8
PATTERN_FILL
  6
CONTINUOUS
 62
     7
 10
69.650000000000091
 20
505.37500000000068
 30
0.0
 40
3.0
  0
CIRCLE
  5
571
  8
PATTERN_FILL
  6
CONTINUOUS
 62
     7
 10
77.550000000000054
 20
505.37500000000068
 30
0.0
 40
3.0
  0
CIRCLE
  5
572
  8
PATTERN_FILL
  6
CONTINUOUS
 62
     7
 10
85.450000000000031
 20
505.37500000000068
 30
0.0
 40
3.0
  0
CIRCLE
  5
573
  8
PATTERN_FILL
  6
CONTINUOUS
 62
     7
 10
93.350000000000023
 20
505.37500000000068
 30
0.0
 40
3.0
  0
CIRCLE
  5
574
  8
PATTERN_FILL
  6
CONTINUOUS
 62
     7
 10
101.2500000000001
 20
505.37500000000068
 30
0.0
 40
3.0
  0
CIRCLE
  5
575
  8
PATTERN_FILL
  6
CONTINUOUS
 62
     7
 10
109.15000000000011
 20
505.37500000000068
 30
0.0
 40
3.0
  0
CIRCLE
  5
576
  8
PATTERN_FILL
  6
CONTINUOUS
 62
     7
 10
117.05
 20
505.37500000000068
 30
0.0
 40
3.0
  0
CIRCLE
  5
577
  8
PATTERN_FILL
  6
CONTINUOUS
 62
     7
 10
124.95
 20
505.37500000000068
 30
0.0
 40
3.0
  0
CIRCLE
  5
578
  8
PATTERN_FILL
  6
CONTINUOUS
 62
     7
 10
132.84999999999999
 20
505.37500000000068
 30
0.0
 40
3.0
  0
CIRCLE
  5
579
  8
PATTERN_FILL
  6
CONTINUOUS
 62
     7
 10
140.75000000000011
 20
505.37500000000068
 30
0.0
 40
3.0
  0
CIRCLE
  5
57A
  8
PATTERN_FILL
  6
CONTINUOUS
 62
     7
 10
148.65000000000009
 20
505.37500000000068
 30
0.0
 40
3.0
  0
CIRCLE
  5
57B
  8
PATTERN_FILL
  6
CONTINUOUS
 62
     7
 10
156.5500000000001
 20
505.37500000000068
 30
0.0
 40
3.0
  0
CIRCLE
  5
57C
  8
PATTERN_FILL
  6
CONTINUOUS
 62
     7
 10
164.4500000000001
 20
505.37500000000068
 30
0.0
 40
3.0
  0
ARC
  5
57D
  8
PATTERN_FILL
  6
CONTINUOUS
 62
     7
 10
172.35000000000011
 20
505.37500000000068
 30
0.0
 40
2.999999999999996
 50
95.237957748113629
 51
222.36704438162789
  0
CIRCLE
  5
57E
  8
PATTERN_FILL
  6
CONTINUOUS
 62
     7
 10
49.899999999999977
 20
512.20000000000061
 30
0.0
 40
3.0
  0
CIRCLE
  5
57F
  8
PATTERN_FILL
  6
CONTINUOUS
 62
     7
 10
57.799999999999962
 20
512.20000000000061
 30
0.0
 40
3.0
  0
CIRCLE
  5
580
  8
PATTERN_FILL
  6
CONTINUOUS
 62
     7
 10
65.700000000000045
 20
512.20000000000061
 30
0.0
 40
3.0
  0
CIRCLE
  5
581
  8
PATTERN_FILL
  6
CONTINUOUS
 62
     7
 10
73.600000000000023
 20
512.20000000000061
 30
0.0
 40
3.0
  0
CIRCLE
  5
582
  8
PATTERN_FILL
  6
CONTINUOUS
 62
     7
 10
81.5
 20
512.20000000000061
 30
0.0
 40
3.0
  0
CIRCLE
  5
583
  8
PATTERN_FILL
  6
CONTINUOUS
 62
     7
 10
89.399999999999949
 20
512.20000000000061
 30
0.0
 40
3.0
  0
CIRCLE
  5
584
  8
PATTERN_FILL
  6
CONTINUOUS
 62
     7
 10
97.299999999999955
 20
512.20000000000061
 30
0.0
 40
3.0
  0
CIRCLE
  5
585
  8
PATTERN_FILL
  6
CONTINUOUS
 62
     7
 10
105.2
 20
512.20000000000061
 30
0.0
 40
3.0
  0
CIRCLE
  5
586
  8
PATTERN_FILL
  6
CONTINUOUS
 62
     7
 10
113.09999999999999
 20
512.20000000000061
 30
0.0
 40
3.0
  0
CIRCLE
  5
587
  8
PATTERN_FILL
  6
CONTINUOUS
 62
     7
 10
121.0
 20
512.20000000000061
 30
0.0
 40
3.0
  0
CIRCLE
  5
588
  8
PATTERN_FILL
  6
CONTINUOUS
 62
     7
 10
128.89999999999989
 20
512.20000000000061
 30
0.0
 40
3.0
  0
CIRCLE
  5
589
  8
PATTERN_FILL
  6
CONTINUOUS
 62
     7
 10
136.7999999999999
 20
512.20000000000061
 30
0.0
 40
3.0
  0
CIRCLE
  5
58A
  8
PATTERN_FILL
  6
CONTINUOUS
 62
     7
 10
144.69999999999999
 20
512.20000000000061
 30
0.0
 40
3.0
  0
CIRCLE
  5
58B
  8
PATTERN_FILL
  6
CONTINUOUS
 62
     7
 10
152.59999999999999
 20
512.20000000000061
 30
0.0
 40
3.0
  0
CIRCLE
  5
58C
  8
PATTERN_FILL
  6
CONTINUOUS
 62
     7
 10
160.5
 20
512.20000000000061
 30
0.0
 40
3.0
  0
CIRCLE
  5
58D
  8
PATTERN_FILL
  6
CONTINUOUS
 62
     7
 10
168.40000000000009
 20
512.20000000000061
 30
0.0
 40
3.0
  0
ARC
  5
58E
  8
PATTERN_FILL
  6
CONTINUOUS
 62
     7
 10
176.30000000000001
 20
512.20000000000061
 30
0.0
 40
2.999999999999944
 50
122.6149669963215
 51
192.22977397112399
  0
CIRCLE
  5
58F
  8
PATTERN_FILL
  6
CONTINUOUS
 62
     7
 10
45.950000000000053
 20
519.02499999999998
 30
0.0
 40
3.0
  0
CIRCLE
  5
590
  8
PATTERN_FILL
  6
CONTINUOUS
 62
     7
 10
53.850000000000009
 20
519.02499999999998
 30
0.0
 40
3.0
  0
CIRCLE
  5
591
  8
PATTERN_FILL
  6
CONTINUOUS
 62
     7
 10
61.750000000000107
 20
519.02499999999998
 30
0.0
 40
3.0
  0
CIRCLE
  5
592
  8
PATTERN_FILL
  6
CONTINUOUS
 62
     7
 10
69.650000000000091
 20
519.02499999999998
 30
0.0
 40
3.0
  0
CIRCLE
  5
593
  8
PATTERN_FILL
  6
CONTINUOUS
 62
     7
 10
77.550000000000054
 20
519.02499999999998
 30
0.0
 40
3.0
  0
CIRCLE
  5
594
  8
PATTERN_FILL
  6
CONTINUOUS
 62
     7
 10
85.450000000000031
 20
519.02499999999998
 30
0.0
 40
3.0
  0
CIRCLE
  5
595
  8
PATTERN_FILL
  6
CONTINUOUS
 62
     7
 10
93.350000000000023
 20
519.02499999999998
 30
0.0
 40
3.0
  0
CIRCLE
  5
596
  8
PATTERN_FILL
  6
CONTINUOUS
 62
     7
 10
101.2500000000001
 20
519.02499999999998
 30
0.0
 40
3.0
  0
CIRCLE
  5
597
  8
PATTERN_FILL
  6
CONTINUOUS
 62
     7
 10
109.15000000000011
 20
519.02499999999998
 30
0.0
 40
3.0
  0
CIRCLE
  5
598
  8
PATTERN_FILL
  6
CONTINUOUS
 62
     7
 10
117.05
 20
519.02499999999998
 30
0.0
 40
3.0
  0
CIRCLE
  5
599
  8
PATTERN_FILL
  6
CONTINUOUS
 62
     7
 10
124.95
 20
519.02499999999998
 30
0.0
 40
3.0
  0
CIRCLE
  5
59A
  8
PATTERN_FILL
  6
CONTINUOUS
 62
     7
 10
132.84999999999999
 20
519.02499999999998
 30
0.0
 40
3.0
  0
CIRCLE
  5
59B
  8
PATTERN_FILL
  6
CONTINUOUS
 62
     7
 10
140.75000000000011
 20
519.02499999999998
 30
0.0
 40
3.0
  0
CIRCLE
  5
59C
  8
PATTERN_FILL
  6
CONTINUOUS
 62
     7
 10
148.65000000000009
 20
519.02499999999998
 30
0.0
 40
3.0
  0
CIRCLE
  5
59D
  8
PATTERN_FILL
  6
CONTINUOUS
 62
     7
 10
156.5500000000001
 20
519.02499999999998
 30
0.0
 40
3.0
  0
CIRCLE
  5
59E
  8
PATTERN_FILL
  6
CONTINUOUS
 62
     7
 10
164.4500000000001
 20
519.02499999999998
 30
0.0
 40
3.0
  0
CIRCLE
  5
59F
  8
PATTERN_FILL
  6
CONTINUOUS
 62
     7
 10
172.35000000000011
 20
519.02499999999998
 30
0.0
 40
3.0
  0
CIRCLE
  5
5A0
  8
PATTERN_FILL
  6
CONTINUOUS
 62
     7
 10
49.899999999999977
 20
525.85000000000002
 30
0.0
 40
3.0
  0
CIRCLE
  5
5A1
  8
PATTERN_FILL
  6
CONTINUOUS
 62
     7
 10
57.799999999999962
 20
525.85000000000002
 30
0.0
 40
3.0
  0
CIRCLE
  5
5A2
  8
PATTERN_FILL
  6
CONTINUOUS
 62
     7
 10
65.700000000000045
 20
525.85000000000002
 30
0.0
 40
3.0
  0
CIRCLE
  5
5A3
  8
PATTERN_FILL
  6
CONTINUOUS
 62
     7
 10
73.600000000000023
 20
525.85000000000002
 30
0.0
 40
3.0
  0
CIRCLE
  5
5A4
  8
PATTERN_FILL
  6
CONTINUOUS
 62
     7
 10
81.5
 20
525.85000000000002
 30
0.0
 40
3.0
  0
CIRCLE
  5
5A5
  8
PATTERN_FILL
  6
CONTINUOUS
 62
     7
 10
89.399999999999949
 20
525.85000000000002
 30
0.0
 40
3.0
  0
CIRCLE
  5
5A6
  8
PATTERN_FILL
  6
CONTINUOUS
 62
     7
 10
97.299999999999955
 20
525.85000000000002
 30
0.0
 40
3.0
  0
CIRCLE
  5
5A7
  8
PATTERN_FILL
  6
CONTINUOUS
 62
     7
 10
105.2
 20
525.85000000000002
 30
0.0
 40
3.0
  0
CIRCLE
  5
5A8
  8
PATTERN_FILL
  6
CONTINUOUS
 62
     7
 10
113.09999999999999
 20
525.85000000000002
 30
0.0
 40
3.0
  0
CIRCLE
  5
5A9
  8
PATTERN_FILL
  6
CONTINUOUS
 62
     7
 10
121.0
 20
525.85000000000002
 30
0.0
 40
3.0
  0
CIRCLE
  5
5AA
  8
PATTERN_FILL
  6
CONTINUOUS
 62
     7
 10
128.89999999999989
 20
525.85000000000002
 30
0.0
 40
3.0
  0
CIRCLE
  5
5AB
  8
PATTERN_FILL
  6
CONTINUOUS
 62
     7
 10
136.7999999999999
 20
525.85000000000002
 30
0.0
 40
3.0
  0
CIRCLE
  5
5AC
  8
PATTERN_FILL
  6
CONTINUOUS
 62
     7
 10
144.69999999999999
 20
525.85000000000002
 30
0.0
 40
3.0
  0
CIRCLE
  5
5AD
  8
PATTERN_FILL
  6
CONTINUOUS
 62
     7
 10
152.59999999999999
 20
525.85000000000002
 30
0.0
 40
3.0
  0
CIRCLE
  5
5AE
  8
PATTERN_FILL
  6
CONTINUOUS
 62
     7
 10
160.5
 20
525.85000000000002
 30
0.0
 40
3.0
  0
CIRCLE
  5
5AF
  8
PATTERN_FILL
  6
CONTINUOUS
 62
     7
 10
168.40000000000009
 20
525.85000000000002
 30
0.0
 40
3.0
  0
CIRCLE
  5
5B0
  8
PATTERN_FILL
  6
CONTINUOUS
 62
     7
 10
176.30000000000001
 20
525.85000000000002
 30
0.0
 40
3.0
  0
CIRCLE
  5
5B1
  8
PATTERN_FILL
  6
CONTINUOUS
 62
     7
 10
45.950000000000053
 20
532.67499999999995
 30
0.0
 40
3.0
  0
CIRCLE
  5
5B2
  8
PATTERN_FILL
  6
CONTINUOUS
 62
     7
 10
53.850000000000009
 20
532.67499999999995
 30
0.0
 40
3.0
  0
CIRCLE
  5
5B3
  8
PATTERN_FILL
  6
CONTINUOUS
 62
     7
 10
61.750000000000107
 20
532.67499999999995
 30
0.0
 40
3.0
  0
CIRCLE
  5
5B4
  8
PATTERN_FILL
  6
CONTINUOUS
 62
     7
 10
69.650000000000091
 20
532.67499999999995
 30
0.0
 40
3.0
  0
CIRCLE
  5
5B5
  8
PATTERN_FILL
  6
CONTINUOUS
 62
     7
 10
77.550000000000054
 20
532.67499999999995
 30
0.0
 40
3.0
  0
CIRCLE
  5
5B6
  8
PATTERN_FILL
  6
CONTINUOUS
 62
     7
 10
85.450000000000031
 20
532.67499999999995
 30
0.0
 40
3.0
  0
CIRCLE
  5
5B7
  8
PATTERN_FILL
  6
CONTINUOUS
 62
     7
 10
93.350000000000023
 20
532.67499999999995
 30
0.0
 40
3.0
  0
CIRCLE
  5
5B8
  8
PATTERN_FILL
  6
CONTINUOUS
 62
     7
 10
101.2500000000001
 20
532.67499999999995
 30
0.0
 40
3.0
  0
CIRCLE
  5
5B9
  8
PATTERN_FILL
  6
CONTINUOUS
 62
     7
 10
109.15000000000011
 20
532.67499999999995
 30
0.0
 40
3.0
  0
CIRCLE
  5
5BA
  8
PATTERN_FILL
  6
CONTINUOUS
 62
     7
 10
117.05
 20
532.67499999999995
 30
0.0
 40
3.0
  0
CIRCLE
  5
5BB
  8
PATTERN_FILL
  6
CONTINUOUS
 62
     7
 10
124.95
 20
532.67499999999995
 30
0.0
 40
3.0
  0
CIRCLE
  5
5BC
  8
PATTERN_FILL
  6
CONTINUOUS
 62
     7
 10
132.84999999999999
 20
532.67499999999995
 30
0.0
 40
3.0
  0
CIRCLE
  5
5BD
  8
PATTERN_FILL
  6
CONTINUOUS
 62
     7
 10
140.75000000000011
 20
532.67499999999995
 30
0.0
 40
3.0
  0
CIRCLE
  5
5BE
  8
PATTERN_FILL
  6
CONTINUOUS
 62
     7
 10
148.65000000000009
 20
532.67499999999995
 30
0.0
 40
3.0
  0
CIRCLE
  5
5BF
  8
PATTERN_FILL
  6
CONTINUOUS
 62
     7
 10
156.5500000000001
 20
532.67499999999995
 30
0.0
 40
3.0
  0
CIRCLE
  5
5C0
  8
PATTERN_FILL
  6
CONTINUOUS
 62
     7
 10
164.4500000000001
 20
532.67499999999995
 30
0.0
 40
3.0
  0
CIRCLE
  5
5C1
  8
PATTERN_FILL
  6
CONTINUOUS
 62
     7
 10
172.35000000000011
 20
532.67499999999995
 30
0.0
 40
3.0
  0
ARC
  5
5C2
  8
PATTERN_FILL
  6
CONTINUOUS
 62
     7
 10
180.25000000000011
 20
532.67499999999995
 30
0.0
 40
3.0000000000000608
 50
11.1422326284422
 51
296.57049303579453
  0
CIRCLE
  5
5C3
  8
PATTERN_FILL
  6
CONTINUOUS
 62
     7
 10
49.899999999999977
 20
539.5
 30
0.0
 40
3.0
  0
CIRCLE
  5
5C4
  8
PATTERN_FILL
  6
CONTINUOUS
 62
     7
 10
57.799999999999962
 20
539.5
 30
0.0
 40
3.0
  0
CIRCLE
  5
5C5
  8
PATTERN_FILL
  6
CONTINUOUS
 62
     7
 10
65.700000000000045
 20
539.5
 30
0.0
 40
3.0
  0
CIRCLE
  5
5C6
  8
PATTERN_FILL
  6
CONTINUOUS
 62
     7
 10
73.600000000000023
 20
539.5
 30
0.0
 40
3.0
  0
CIRCLE
  5
5C7
  8
PATTERN_FILL
  6
CONTINUOUS
 62
     7
 10
81.5
 20
539.5
 30
0.0
 40
3.0
  0
CIRCLE
  5
5C8
  8
PATTERN_FILL
  6
CONTINUOUS
 62
     7
 10
89.399999999999949
 20
539.5
 30
0.0
 40
3.0
  0
CIRCLE
  5
5C9
  8
PATTERN_FILL
  6
CONTINUOUS
 62
     7
 10
97.299999999999955
 20
539.5
 30
0.0
 40
3.0
  0
CIRCLE
  5
5CA
  8
PATTERN_FILL
  6
CONTINUOUS
 62
     7
 10
105.2
 20
539.5
 30
0.0
 40
3.0
  0
CIRCLE
  5
5CB
  8
PATTERN_FILL
  6
CONTINUOUS
 62
     7
 10
113.09999999999999
 20
539.5
 30
0.0
 40
3.0
  0
CIRCLE
  5
5CC
  8
PATTERN_FILL
  6
CONTINUOUS
 62
     7
 10
121.0
 20
539.5
 30
0.0
 40
3.0
  0
CIRCLE
  5
5CD
  8
PATTERN_FILL
  6
CONTINUOUS
 62
     7
 10
128.89999999999989
 20
539.5
 30
0.0
 40
3.0
  0
CIRCLE
  5
5CE
  8
PATTERN_FILL
  6
CONTINUOUS
 62
     7
 10
136.7999999999999
 20
539.5
 30
0.0
 40
3.0
  0
CIRCLE
  5
5CF
  8
PATTERN_FILL
  6
CONTINUOUS
 62
     7
 10
144.69999999999999
 20
539.5
 30
0.0
 40
3.0
  0
CIRCLE
  5
5D0
  8
PATTERN_FILL
  6
CONTINUOUS
 62
     7
 10
152.59999999999999
 20
539.5
 30
0.0
 40
3.0
  0
CIRCLE
  5
5D1
  8
PATTERN_FILL
  6
CONTINUOUS
 62
     7
 10
160.5
 20
539.5
 30
0.0
 40
3.0
  0
CIRCLE
  5
5D2
  8
PATTERN_FILL
  6
CONTINUOUS
 62
     7
 10
168.40000000000009
 20
539.5
 30
0.0
 40
3.0
  0
CIRCLE
  5
5D3
  8
PATTERN_FILL
  6
CONTINUOUS
 62
     7
 10
176.30000000000001
 20
539.5
 30
0.0
 40
3.0
  0
ARC
  5
5D4
  8
PATTERN_FILL
  6
CONTINUOUS
 62
     7
 10
184.19999999999999
 20
539.5
 30
0.0
 40
3.0000000000000671
 50
22.051401595354491
 51
282.91167844892601
  0
CIRCLE
  5
5D5
  8
PATTERN_FILL
  6
CONTINUOUS
 62
     7
 10
45.950000000000053
 20
546.32500000000005
 30
0.0
 40
3.0
  0
CIRCLE
  5
5D6
  8
PATTERN_FILL
  6
CONTINUOUS
 62
     7
 10
53.850000000000009
 20
546.32500000000005
 30
0.0
 40
3.0
  0
CIRCLE
  5
5D7
  8
PATTERN_FILL
  6
CONTINUOUS
 62
     7
 10
61.750000000000107
 20
546.32500000000005
 30
0.0
 40
3.0
  0
CIRCLE
  5
5D8
  8
PATTERN_FILL
  6
CONTINUOUS
 62
     7
 10
69.650000000000091
 20
546.32500000000005
 30
0.0
 40
3.0
  0
CIRCLE
  5
5D9
  8
PATTERN_FILL
  6
CONTINUOUS
 62
     7
 10
77.550000000000054
 20
546.32500000000005
 30
0.0
 40
3.0
  0
CIRCLE
  5
5DA
  8
PATTERN_FILL
  6
CONTINUOUS
 62
     7
 10
85.450000000000031
 20
546.32500000000005
 30
0.0
 40
3.0
  0
CIRCLE
  5
5DB
  8
PATTERN_FILL
  6
CONTINUOUS
 62
     7
 10
93.350000000000023
 20
546.32500000000005
 30
0.0
 40
3.0
  0
CIRCLE
  5
5DC
  8
PATTERN_FILL
  6
CONTINUOUS
 62
     7
 10
101.2500000000001
 20
546.32500000000005
 30
0.0
 40
3.0
  0
CIRCLE
  5
5DD
  8
PATTERN_FILL
  6
CONTINUOUS
 62
     7
 10
109.15000000000011
 20
546.32500000000005
 30
0.0
 40
3.0
  0
CIRCLE
  5
5DE
  8
PATTERN_FILL
  6
CONTINUOUS
 62
     7
 10
117.05
 20
546.32500000000005
 30
0.0
 40
3.0
  0
CIRCLE
  5
5DF
  8
PATTERN_FILL
  6
CONTINUOUS
 62
     7
 10
124.95
 20
546.32500000000005
 30
0.0
 40
3.0
  0
CIRCLE
  5
5E0
  8
PATTERN_FILL
  6
CONTINUOUS
 62
     7
 10
132.84999999999999
 20
546.32500000000005
 30
0.0
 40
3.0
  0
CIRCLE
  5
5E1
  8
PATTERN_FILL
  6
CONTINUOUS
 62
     7
 10
140.75000000000011
 20
546.32500000000005
 30
0.0
 40
3.0
  0
CIRCLE
  5
5E2
  8
PATTERN_FILL
  6
CONTINUOUS
 62
     7
 10
148.65000000000009
 20
546.32500000000005
 30
0.0
 40
3.0
  0
CIRCLE
  5
5E3
  8
PATTERN_FILL
  6
CONTINUOUS
 62
     7
 10
156.5500000000001
 20
546.32500000000005
 30
0.0
 40
3.0
  0
CIRCLE
  5
5E4
  8
PATTERN_FILL
  6
CONTINUOUS
 62
     7
 10
164.4500000000001
 20
546.32500000000005
 30
0.0
 40
3.0
  0
CIRCLE
  5
5E5
  8
PATTERN_FILL
  6
CONTINUOUS
 62
     7
 10
172.35000000000011
 20
546.32500000000005
 30
0.0
 40
3.0
  0
CIRCLE
  5
5E6
  8
PATTERN_FILL
  6
CONTINUOUS
 62
     7
 10
180.25000000000011
 20
546.32500000000005
 30
0.0
 40
3.0
  0
ARC
  5
5E7
  8
PATTERN_FILL
  6
CONTINUOUS
 62
     7
 10
188.15000000000001
 20
546.32500000000005
 30
0.0
 40
2.999999999999944
 50
26.771423668222901
 51
275.43614146706642
  0
ARC
  5
5E8
  8
PATTERN_FILL
  6
CONTINUOUS
 62
     7
 10
42.0
 20
553.14999999999998
 30
0.0
 40
2.999999999999992
 50
173.30023482224149
 51
6.6997651777584508
  0
ARC
  5
5E9
  8
PATTERN_FILL
  6
CONTINUOUS
 62
     7
 10
49.899999999999977
 20
553.14999999999998
 30
0.0
 40
3.0000000000000648
 50
173.30023482217391
 51
6.6997651778260661
  0
ARC
  5
5EA
  8
PATTERN_FILL
  6
CONTINUOUS
 62
     7
 10
57.799999999999962
 20
553.14999999999998
 30
0.0
 40
3.00000000000002
 50
173.30023482231161
 51
6.6997651776895273
  0
ARC
  5
5EB
  8
PATTERN_FILL
  6
CONTINUOUS
 62
     7
 10
65.700000000000045
 20
553.14999999999998
 30
0.0
 40
3.0000000000000711
 50
173.30023482217291
 51
6.6997651778260661
  0
ARC
  5
5EC
  8
PATTERN_FILL
  6
CONTINUOUS
 62
     7
 10
73.600000000000023
 20
553.14999999999998
 30
0.0
 40
2.9999999999999849
 50
173.3002348222426
 51
6.6997651777584508
  0
ARC
  5
5ED
  8
PATTERN_FILL
  6
CONTINUOUS
 62
     7
 10
81.5
 20
553.14999999999998
 30
0.0
 40
2.999999999999992
 50
173.30023482224149
 51
6.6997651777584508
  0
ARC
  5
5EE
  8
PATTERN_FILL
  6
CONTINUOUS
 62
     7
 10
89.399999999999949
 20
553.14999999999998
 30
0.0
 40
2.999999999999992
 50
173.30023482224149
 51
6.6997651777573992
  0
ARC
  5
5EF
  8
PATTERN_FILL
  6
CONTINUOUS
 62
     7
 10
97.299999999999955
 20
553.14999999999998
 30
0.0
 40
2.9999999999999849
 50
173.3002348222426
 51
6.6997651777573717
  0
ARC
  5
5F0
  8
PATTERN_FILL
  6
CONTINUOUS
 62
     7
 10
105.2
 20
553.14999999999998
 30
0.0
 40
2.9999999999999849
 50
173.3002348222426
 51
6.6997651777573717
  0
ARC
  5
5F1
  8
PATTERN_FILL
  6
CONTINUOUS
 62
     7
 10
113.09999999999999
 20
553.14999999999998
 30
0.0
 40
2.999999999999952
 50
173.30023482217371
 51
6.6997651778263201
  0
ARC
  5
5F2
  8
PATTERN_FILL
  6
CONTINUOUS
 62
     7
 10
121.0
 20
553.14999999999998
 30
0.0
 40
2.9999999999999849
 50
173.3002348222426
 51
6.6997651777573717
  0
ARC
  5
5F3
  8
PATTERN_FILL
  6
CONTINUOUS
 62
     7
 10
128.89999999999989
 20
553.14999999999998
 30
0.0
 40
2.9999999999999849
 50
173.3002348222426
 51
6.6997651777573717
  0
ARC
  5
5F4
  8
PATTERN_FILL
  6
CONTINUOUS
 62
     7
 10
136.7999999999999
 20
553.14999999999998
 30
0.0
 40
2.9999999999999711
 50
173.30023482220761
 51
6.699765177792357
  0
ARC
  5
5F5
  8
PATTERN_FILL
  6
CONTINUOUS
 62
     7
 10
144.69999999999999
 20
553.14999999999998
 30
0.0
 40
3.0000000000000711
 50
173.30023482217291
 51
6.6997651778271461
  0
ARC
  5
5F6
  8
PATTERN_FILL
  6
CONTINUOUS
 62
     7
 10
152.59999999999999
 20
553.14999999999998
 30
0.0
 40
2.9999999999999711
 50
173.30023482220761
 51
6.699765177792357
  0
ARC
  5
5F7
  8
PATTERN_FILL
  6
CONTINUOUS
 62
     7
 10
160.5
 20
553.14999999999998
 30
0.0
 40
2.9999999999999849
 50
173.3002348222426
 51
6.6997651777573717
  0
ARC
  5
5F8
  8
PATTERN_FILL
  6
CONTINUOUS
 62
     7
 10
168.40000000000009
 20
553.14999999999998
 30
0.0
 40
3.0000000000000062
 50
173.30023482227659
 51
6.6997651777234637
  0
ARC
  5
5F9
  8
PATTERN_FILL
  6
CONTINUOUS
 62
     7
 10
176.30000000000001
 20
553.14999999999998
 30
0.0
 40
2.9999999999999711
 50
173.30023482220761
 51
6.699765177792357
  0
ARC
  5
5FA
  8
PATTERN_FILL
  6
CONTINUOUS
 62
     7
 10
184.19999999999999
 20
553.14999999999998
 30
0.0
 40
3.0000000000000062
 50
173.30023482227659
 51
6.6997651777234637
  0
ARC
  5
5FB
  8
PATTERN_FILL
  6
CONTINUOUS
 62
     7
 10
192.09999999999999
 20
553.14999999999998
 30
0.0
 40
2.9999999999999849
 50
173.3002348222426
 51
272.56715057180321
  0
CIRCLE
  5
5FC
  8
PATTERN_FILL
  6
CONTINUOUS
 62
     7
 10
45.950000000000053
 20
27.625000000000909
 30
0.0
 40
3.0
  0
CIRCLE
  5
5FD
  8
PATTERN_FILL
  6
CONTINUOUS
 62
     7
 10
53.850000000000009
 20
27.625000000000909
 30
0.0
 40
3.0
  0
CIRCLE
  5
5FE
  8
PATTERN_FILL
  6
CONTINUOUS
 62
     7
 10
61.750000000000107
 20
27.625000000000909
 30
0.0
 40
3.0
  0
CIRCLE
  5
5FF
  8
PATTERN_FILL
  6
CONTINUOUS
 62
     7
 10
69.650000000000091
 20
27.625000000000909
 30
0.0
 40
3.0
  0
CIRCLE
  5
600
  8
PATTERN_FILL
  6
CONTINUOUS
 62
     7
 10
77.550000000000054
 20
27.625000000000909
 30
0.0
 40
3.0
  0
CIRCLE
  5
601
  8
PATTERN_FILL
  6
CONTINUOUS
 62
     7
 10
85.450000000000031
 20
27.625000000000909
 30
0.0
 40
3.0
  0
CIRCLE
  5
602
  8
PATTERN_FILL
  6
CONTINUOUS
 62
     7
 10
93.350000000000023
 20
27.625000000000909
 30
0.0
 40
3.0
  0
CIRCLE
  5
603
  8
PATTERN_FILL
  6
CONTINUOUS
 62
     7
 10
101.2500000000001
 20
27.625000000000909
 30
0.0
 40
3.0
  0
CIRCLE
  5
604
  8
PATTERN_FILL
  6
CONTINUOUS
 62
     7
 10
109.15000000000011
 20
27.625000000000909
 30
0.0
 40
3.0
  0
CIRCLE
  5
605
  8
PATTERN_FILL
  6
CONTINUOUS
 62
     7
 10
117.05
 20
27.625000000000909
 30
0.0
 40
3.0
  0
CIRCLE
  5
606
  8
PATTERN_FILL
  6
CONTINUOUS
 62
     7
 10
124.95
 20
27.625000000000909
 30
0.0
 40
3.0
  0
CIRCLE
  5
607
  8
PATTERN_FILL
  6
CONTINUOUS
 62
     7
 10
132.84999999999999
 20
27.625000000000909
 30
0.0
 40
3.0
  0
CIRCLE
  5
608
  8
PATTERN_FILL
  6
CONTINUOUS
 62
     7
 10
140.75000000000011
 20
27.625000000000909
 30
0.0
 40
3.0
  0
CIRCLE
  5
609
  8
PATTERN_FILL
  6
CONTINUOUS
 62
     7
 10
148.65000000000009
 20
27.625000000000909
 30
0.0
 40
3.0
  0
CIRCLE
  5
60A
  8
PATTERN_FILL
  6
CONTINUOUS
 62
     7
 10
156.5500000000001
 20
27.625000000000909
 30
0.0
 40
3.0
  0
CIRCLE
  5
60B
  8
PATTERN_FILL
  6
CONTINUOUS
 62
     7
 10
164.4500000000001
 20
27.625000000000909
 30
0.0
 40
3.0
  0
CIRCLE
  5
60C
  8
PATTERN_FILL
  6
CONTINUOUS
 62
     7
 10
172.35000000000011
 20
27.625000000000909
 30
0.0
 40
3.0
  0
CIRCLE
  5
60D
  8
PATTERN_FILL
  6
CONTINUOUS
 62
     7
 10
180.25000000000011
 20
27.625000000000909
 30
0.0
 40
3.0
  0
CIRCLE
  5
60E
  8
PATTERN_FILL
  6
CONTINUOUS
 62
     7
 10
188.15000000000001
 20
27.625000000000909
 30
0.0
 40
3.0
  0
CIRCLE
  5
60F
  8
PATTERN_FILL
  6
CONTINUOUS
 62
     7
 10
196.0500000000001
 20
27.625000000000909
 30
0.0
 40
3.0
  0
CIRCLE
  5
610
  8
PATTERN_FILL
  6
CONTINUOUS
 62
     7
 10
203.95000000000019
 20
27.625000000000909
 30
0.0
 40
3.0
  0
CIRCLE
  5
611
  8
PATTERN_FILL
  6
CONTINUOUS
 62
     7
 10
211.85000000000011
 20
27.625000000000909
 30
0.0
 40
3.0
  0
CIRCLE
  5
612
  8
PATTERN_FILL
  6
CONTINUOUS
 62
     7
 10
219.75000000000011
 20
27.625000000000909
 30
0.0
 40
3.0
  0
CIRCLE
  5
613
  8
PATTERN_FILL
  6
CONTINUOUS
 62
     7
 10
227.6500000000002
 20
27.625000000000909
 30
0.0
 40
3.0
  0
CIRCLE
  5
614
  8
PATTERN_FILL
  6
CONTINUOUS
 62
     7
 10
235.5500000000001
 20
27.625000000000909
 30
0.0
 40
3.0
  0
CIRCLE
  5
615
  8
PATTERN_FILL
  6
CONTINUOUS
 62
     7
 10
168.40000000000009
 20
89.050000000000637
 30
0.0
 40
3.0
  0
ARC
  5
616
  8
PATTERN_FILL
  6
CONTINUOUS
 62
     7
 10
176.30000000000001
 20
89.050000000000637
 30
0.0
 40
3.0000000000000262
 50
40.54160187366525
 51
254.5339900465672
  0
ARC
  5
617
  8
PATTERN_FILL
  6
CONTINUOUS
 62
     7
 10
184.19999999999999
 20
89.050000000000637
 30
0.0
 40
3.0000000000000031
 50
40.54160187341418
 51
139.45839812658579
  0
ARC
  5
618
  8
PATTERN_FILL
  6
CONTINUOUS
 62
     7
 10
192.09999999999999
 20
89.050000000000637
 30
0.0
 40
3.0000000000000262
 50
40.54160187366525
 51
139.4583981263348
  0
ARC
  5
619
  8
PATTERN_FILL
  6
CONTINUOUS
 62
     7
 10
200.0
 20
89.050000000000637
 30
0.0
 40
3.0000000000000031
 50
40.54160187341418
 51
139.45839812658579
  0
ARC
  5
61A
  8
PATTERN_FILL
  6
CONTINUOUS
 62
     7
 10
207.90000000000009
 20
89.050000000000637
 30
0.0
 40
3.0000000000000031
 50
40.54160187341418
 51
139.45839812658579
  0
ARC
  5
61B
  8
PATTERN_FILL
  6
CONTINUOUS
 62
     7
 10
215.8000000000001
 20
89.050000000000637
 30
0.0
 40
3.0000000000000262
 50
40.54160187366525
 51
139.4583981263348
  0
ARC
  5
61C
  8
PATTERN_FILL
  6
CONTINUOUS
 62
     7
 10
223.69999999999999
 20
89.050000000000637
 30
0.0
 40
3.0000000000000071
 50
266.17744627071608
 51
139.45839812683519
  0
CIRCLE
  5
61D
  8
PATTERN_FILL
  6
CONTINUOUS
 62
     7
 10
231.60000000000011
 20
89.050000000000637
 30
0.0
 40
3.0
  0
CIRCLE
  5
61E
  8
PATTERN_FILL
  6
CONTINUOUS
 62
     7
 10
172.35000000000011
 20
95.875000000000668
 30
0.0
 40
3.0
  0
CIRCLE
  5
61F
  8
PATTERN_FILL
  6
CONTINUOUS
 62
     7
 10
180.25000000000011
 20
95.875000000000668
 30
0.0
 40
3.0
  0
CIRCLE
  5
620
  8
PATTERN_FILL
  6
CONTINUOUS
 62
     7
 10
188.15000000000001
 20
95.875000000000668
 30
0.0
 40
3.0
  0
CIRCLE
  5
621
  8
PATTERN_FILL
  6
CONTINUOUS
 62
     7
 10
196.0500000000001
 20
95.875000000000668
 30
0.0
 40
3.0
  0
CIRCLE
  5
622
  8
PATTERN_FILL
  6
CONTINUOUS
 62
     7
 10
203.95000000000019
 20
95.875000000000668
 30
0.0
 40
3.0
  0
CIRCLE
  5
623
  8
PATTERN_FILL
  6
CONTINUOUS
 62
     7
 10
211.85000000000011
 20
95.875000000000668
 30
0.0
 40
3.0
  0
CIRCLE
  5
624
  8
PATTERN_FILL
  6
CONTINUOUS
 62
     7
 10
219.75000000000011
 20
95.875000000000668
 30
0.0
 40
3.0
  0
CIRCLE
  5
625
  8
PATTERN_FILL
  6
CONTINUOUS
 62
     7
 10
227.6500000000002
 20
95.875000000000668
 30
0.0
 40
3.0
  0
CIRCLE
  5
626
  8
PATTERN_FILL
  6
CONTINUOUS
 62
     7
 10
168.40000000000009
 20
102.7000000000007
 30
0.0
 40
3.0
  0
CIRCLE
  5
627
  8
PATTERN_FILL
  6
CONTINUOUS
 62
     7
 10
176.30000000000001
 20
102.7000000000007
 30
0.0
 40
3.0
  0
CIRCLE
  5
628
  8
PATTERN_FILL
  6
CONTINUOUS
 62
     7
 10
184.19999999999999
 20
102.7000000000007
 30
0.0
 40
3.0
  0
CIRCLE
  5
629
  8
PATTERN_FILL
  6
CONTINUOUS
 62
     7
 10
192.09999999999999
 20
102.7000000000007
 30
0.0
 40
3.0
  0
CIRCLE
  5
62A
  8
PATTERN_FILL
  6
CONTINUOUS
 62
     7
 10
200.0
 20
102.7000000000007
 30
0.0
 40
3.0
  0
CIRCLE
  5
62B
  8
PATTERN_FILL
  6
CONTINUOUS
 62
     7
 10
207.90000000000009
 20
102.7000000000007
 30
0.0
 40
3.0
  0
CIRCLE
  5
62C
  8
PATTERN_FILL
  6
CONTINUOUS
 62
     7
 10
215.8000000000001
 20
102.7000000000007
 30
0.0
 40
3.0
  0
CIRCLE
  5
62D
  8
PATTERN_FILL
  6
CONTINUOUS
 62
     7
 10
223.69999999999999
 20
102.7000000000007
 30
0.0
 40
3.0
  0
CIRCLE
  5
62E
  8
PATTERN_FILL
  6
CONTINUOUS
 62
     7
 10
231.60000000000011
 20
102.7000000000007
 30
0.0
 40
3.0
  0
CIRCLE
  5
62F
  8
PATTERN_FILL
  6
CONTINUOUS
 62
     7
 10
172.35000000000011
 20
109.5250000000007
 30
0.0
 40
3.0
  0
CIRCLE
  5
630
  8
PATTERN_FILL
  6
CONTINUOUS
 62
     7
 10
180.25000000000011
 20
109.5250000000007
 30
0.0
 40
3.0
  0
CIRCLE
  5
631
  8
PATTERN_FILL
  6
CONTINUOUS
 62
     7
 10
188.15000000000001
 20
109.5250000000007
 30
0.0
 40
3.0
  0
CIRCLE
  5
632
  8
PATTERN_FILL
  6
CONTINUOUS
 62
     7
 10
196.0500000000001
 20
109.5250000000007
 30
0.0
 40
3.0
  0
CIRCLE
  5
633
  8
PATTERN_FILL
  6
CONTINUOUS
 62
     7
 10
203.95000000000019
 20
109.5250000000007
 30
0.0
 40
3.0
  0
CIRCLE
  5
634
  8
PATTERN_FILL
  6
CONTINUOUS
 62
     7
 10
211.85000000000011
 20
109.5250000000007
 30
0.0
 40
3.0
  0
CIRCLE
  5
635
  8
PATTERN_FILL
  6
CONTINUOUS
 62
     7
 10
219.75000000000011
 20
109.5250000000007
 30
0.0
 40
3.0
  0
CIRCLE
  5
636
  8
PATTERN_FILL
  6
CONTINUOUS
 62
     7
 10
227.6500000000002
 20
109.5250000000007
 30
0.0
 40
3.0
  0
CIRCLE
  5
637
  8
PATTERN_FILL
  6
CONTINUOUS
 62
     7
 10
168.40000000000009
 20
61.750000000000462
 30
0.0
 40
3.0
  0
ARC
  5
638
  8
PATTERN_FILL
  6
CONTINUOUS
 62
     7
 10
176.30000000000001
 20
61.750000000000462
 30
0.0
 40
3.00000000000006
 50
105.4660099534328
 51
254.5339900465672
  0
ARC
  5
639
  8
PATTERN_FILL
  6
CONTINUOUS
 62
     7
 10
223.69999999999999
 20
61.750000000000462
 30
0.0
 40
3.0000000000000071
 50
266.17744627071608
 51
93.822553729283854
  0
CIRCLE
  5
63A
  8
PATTERN_FILL
  6
CONTINUOUS
 62
     7
 10
231.60000000000011
 20
61.750000000000462
 30
0.0
 40
3.0
  0
CIRCLE
  5
63B
  8
PATTERN_FILL
  6
CONTINUOUS
 62
     7
 10
172.35000000000011
 20
68.5750000000005
 30
0.0
 40
3.0
  0
CIRCLE
  5
63C
  8
PATTERN_FILL
  6
CONTINUOUS
 62
     7
 10
227.6500000000002
 20
68.5750000000005
 30
0.0
 40
3.0
  0
ARC
  5
63D
  8
PATTERN_FILL
  6
CONTINUOUS
 62
     7
 10
176.30000000000001
 20
75.400000000000546
 30
0.0
 40
2.9999999999999498
 50
105.4660099534334
 51
254.5339900465666
  0
ARC
  5
63E
  8
PATTERN_FILL
  6
CONTINUOUS
 62
     7
 10
223.69999999999999
 20
75.400000000000546
 30
0.0
 40
3.0000000000000071
 50
266.17744627071608
 51
93.822553729283854
  0
CIRCLE
  5
63F
  8
PATTERN_FILL
  6
CONTINUOUS
 62
     7
 10
231.60000000000011
 20
75.400000000000546
 30
0.0
 40
3.0
  0
CIRCLE
  5
640
  8
PATTERN_FILL
  6
CONTINUOUS
 62
     7
 10
172.35000000000011
 20
82.225000000000577
 30
0.0
 40
3.0
  0
CIRCLE
  5
641
  8
PATTERN_FILL
  6
CONTINUOUS
 62
     7
 10
227.6500000000002
 20
82.225000000000577
 30
0.0
 40
3.0
  0
CIRCLE
  5
642
  8
PATTERN_FILL
  6
CONTINUOUS
 62
     7
 10
168.40000000000009
 20
48.100000000000371
 30
0.0
 40
3.0
  0
ARC
  5
643
  8
PATTERN_FILL
  6
CONTINUOUS
 62
     7
 10
176.30000000000001
 20
48.100000000000371
 30
0.0
 40
3.00000000000006
 50
105.4660099534328
 51
254.5339900465672
  0
ARC
  5
644
  8
PATTERN_FILL
  6
CONTINUOUS
 62
     7
 10
223.69999999999999
 20
48.100000000000371
 30
0.0
 40
3.0000000000000071
 50
266.17744627071608
 51
93.822553729283854
  0
CIRCLE
  5
645
  8
PATTERN_FILL
  6
CONTINUOUS
 62
     7
 10
231.60000000000011
 20
48.100000000000371
 30
0.0
 40
3.0
  0
CIRCLE
  5
646
  8
PATTERN_FILL
  6
CONTINUOUS
 62
     7
 10
172.35000000000011
 20
54.925000000000409
 30
0.0
 40
3.0
  0
CIRCLE
  5
647
  8
PATTERN_FILL
  6
CONTINUOUS
 62
     7
 10
227.6500000000002
 20
54.925000000000409
 30
0.0
 40
3.0
  0
CIRCLE
  5
648
  8
PATTERN_FILL
  6
CONTINUOUS
 62
     7
 10
168.40000000000009
 20
75.400000000000546
 30
0.0
 40
3.0
  0
INSERT
  5
649
  8
PATTERN_FILL
 62
     7
  2
____
 10
1000.0
 20
1028.0
 30
0.0
  0
INSERT
  5
64A
  8
PATTERN_FILL
 62
     7
  2
____-1
 10
1000.0
 20
1028.0
 30
0.0
  0
INSERT
  5
64B
  8
PATTERN_FILL
 62
     7
  2
____-2
 10
1000.0
 20
1028.0
 30
0.0
  0
INSERT
  5
64C
  8
PATTERN_FILL
 62
     7
  2
____-3
 10
1000.0
 20
1028.0
 30
0.0
  0
TEXT
  5
64D
  8
SPEC
 62
     7
 10
263.50000000000028
 20
2214.2658000000001
 30
0.0
 40
28.504720052083329
  1
ブラック　カーペット
 41
0.85
 11
263.50000000000028
 21
2242.7705200520832
 31
0.0
 73
     3
  0
LINE
  5
64E
  8
SPEC
  6
CONTINUOUS
 62
     7
 10
-237.49999999999969
 20
2877.4454099999989
 30
0.0
 11
1975.0
 21
2877.4454099999989
 31
0.0
  0
LINE
  5
64F
  8
SPEC
  6
CONTINUOUS
 62
     7
 10
-237.49999999999969
 20
2821.1954099999989
 30
0.0
 11
1975.0
 21
2821.1954099999989
 31
0.0
  0
LINE
  5
650
  8
SPEC
  6
CONTINUOUS
 62
     7
 10
-237.49999999999969
 20
2652.4454099999989
 30
0.0
 11
1975.0
 21
2652.4454099999989
 31
0.0
  0
LINE
  5
651
  8
SPEC
  6
CONTINUOUS
 62
     7
 10
-237.49999999999969
 20
2708.6954099999989
 30
0.0
 11
1975.0
 21
2708.6954099999989
 31
0.0
  0
LINE
  5
652
  8
SPEC
  6
CONTINUOUS
 62
     7
 10
-237.49999999999969
 20
2764.9454099999989
 30
0.0
 11
1975.0
 21
2764.9454099999989
 31
0.0
  0
TEXT
  5
653
  8
SPEC
 62
     7
 10
263.50000000000011
 20
2833.0142339999989
 30
0.0
 40
28.50466875
  1
2-Wayフロアモニタ (12" Two-Way Stage Monitor Speaker)
 41
0.85
 11
263.50000000000011
 21
2861.5189027499991
 31
0.0
 73
     3
  0
LINE
  5
654
  8
SPEC
  6
CONTINUOUS
 62
     7
 10
-237.4999999999996
 20
2089.9499999999998
 30
0.0
 11
1975.0
 21
2089.9499999999998
 31
0.0
  0
LINE
  5
655
  8
SPEC
  6
CONTINUOUS
 62
     7
 10
-237.4999999999996
 20
2146.1970000000001
 30
0.0
 11
1975.0
 21
2146.1970000000001
 31
0.0
  0
LINE
  5
656
  8
SPEC
  6
CONTINUOUS
 62
     7
 10
-237.49999999999969
 20
1921.2
 30
0.0
 11
1975.0
 21
1921.2
 31
0.0
  0
LINE
  5
657
  8
SPEC
  6
CONTINUOUS
 62
     7
 10
-237.4999999999996
 20
1977.45
 30
0.0
 11
1975.0
 21
1977.45
 31
0.0
  0
LINE
  5
658
  8
SPEC
  6
CONTINUOUS
 62
     7
 10
-237.4999999999996
 20
2033.7
 30
0.0
 11
1975.0
 21
2033.7
 31
0.0
  0
LINE
  5
659
  8
SPEC
  6
CONTINUOUS
 62
     7
 10
-237.49999999999969
 20
2877.4454099999989
 30
0.0
 11
-237.49999999999969
 21
1921.2
 31
0.0
  0
TEXT
  5
65A
  8
SPEC
 62
     7
 10
-218.74999999999969
 20
2898.3444599999989
 30
0.0
 40
36.64892578125
  1
仕様
 41
0.85
 11
-218.74999999999969
 21
2934.9933857812489
 31
0.0
 73
     3
  0
LINE
  5
65B
  8
SPEC
  6
CONTINUOUS
 62
     7
 10
250.00000000000011
 20
2877.4454099999989
 30
0.0
 11
250.00000000000011
 21
1921.2
 31
0.0
  0
LINE
  5
65C
  8
SPEC
  6
CONTINUOUS
 62
     7
 10
1975.0
 20
2877.4454099999989
 30
0.0
 11
1975.0
 21
1921.2
 31
0.0
  0
TEXT
  5
65D
  8
SPEC
 62
     7
 10
-223.99999999999969
 20
2101.7658240000001
 30
0.0
 40
28.50466875
  1
メンテナンス
 41
0.85
 11
-223.99999999999969
 21
2130.2704927499999
 31
0.0
 73
     3
  0
TEXT
  5
65E
  8
SPEC
 62
     7
 10
-223.99999999999969
 20
2045.518824
 30
0.0
 40
28.50466875
  1
コネクタ 
 41
0.85
 11
-223.99999999999969
 21
2074.0234927500001
 31
0.0
 73
     3
  0
TEXT
  5
65F
  8
SPEC
 62
     7
 10
-223.99999999999969
 20
1989.268824
 30
0.0
 40
28.50466875
  1
寸法
 41
0.85
 11
-223.99999999999969
 21
2017.7734927500001
 31
0.0
 73
     3
  0
TEXT
  5
660
  8
SPEC
 62
     7
 10
-223.99999999999969
 20
1933.018824
 30
0.0
 40
28.50466875
  1
重量
 41
0.85
 11
-223.99999999999969
 21
1961.5234927500001
 31
0.0
 73
     3
  0
TEXT
  5
661
  8
SPEC
 62
     7
 10
-224.0
 20
2833.0142339999989
 30
0.0
 40
28.50466875
  1
形式
 41
0.85
 11
-224.0
 21
2861.5189027499991
 31
0.0
 73
     3
  0
TEXT
  5
662
  8
SPEC
 62
     7
 10
-224.0
 20
2776.7642339999989
 30
0.0
 40
28.50466875
  1
周波数レンジ(-10dB)
 41
0.85
 11
-224.0
 21
2805.2689027499991
 31
0.0
 73
     3
  0
TEXT
  5
663
  8
SPEC
 62
     7
 10
-224.0
 20
2720.5142339999989
 30
0.0
 40
28.50466875
  1
周波数特性(±3dB)
 41
0.85
 11
-224.0
 21
2749.0189027499991
 31
0.0
 73
     3
  0
TEXT
  5
664
  8
SPEC
 62
     7
 10
263.5000000000004
 20
2101.7658240000001
 30
0.0
 40
28.50466875
  1
SPユニットは前面側で交換
 41
0.85
 11
263.5000000000004
 21
2130.2704927499999
 31
0.0
 73
     3
  0
TEXT
  5
665
  8
SPEC
 62
     7
 10
263.5000000000004
 20
1989.268824
 30
0.0
 40
28.50466875
  1
399(W)×590(H)×326(D)mm(突起部含まず)
 41
0.85
 11
263.5000000000004
 21
2017.7734927500001
 31
0.0
 73
     3
  0
TEXT
  5
666
  8
SPEC
 62
     7
 10
263.5000000000004
 20
1933.018824
 30
0.0
 40
28.50466875
  1
約18.4kg
 41
0.85
 11
263.5000000000004
 21
1961.5234927500001
 31
0.0
 73
     3
  0
TEXT
  5
667
  8
SPEC
 62
     7
 10
263.50000000000011
 20
2664.2642340000002
 30
0.0
 40
28.50466875
  1
90゜×50゜
 41
0.85
 11
263.50000000000011
 21
2692.7689027499991
 31
0.0
 73
     3
  0
TEXT
  5
668
  8
SPEC
 62
     7
 10
263.50000000000011
 20
2720.5142339999989
 30
0.0
 40
28.50466875
  1
70Hz～12kHz(半空間における数値)
 41
0.85
 11
263.50000000000011
 21
2749.0189027499991
 31
0.0
 73
     3
  0
TEXT
  5
669
  8
SPEC
 62
     7
 10
263.50000000000011
 20
2776.7642339999989
 30
0.0
 40
28.50466875
  1
60Hz～16kHz(半空間における数値)
 41
0.85
 11
263.50000000000011
 21
2805.2689027499991
 31
0.0
 73
     3
  0
TEXT
  5
66A
  8
SPEC
 62
     7
 10
-224.0
 20
2664.2642099999998
 30
0.0
 40
28.504720052083329
  1
指向角度(水平×垂直)
 41
0.85
 11
-224.0
 21
2692.7689300520829
 31
0.0
 73
     3
  0
LINE
  5
66B
  8
SPEC
  6
CONTINUOUS
 62
     7
 10
-237.4999999999996
 20
2539.9424100000001
 30
0.0
 11
1975.0
 21
2539.9424100000001
 31
0.0
  0
LINE
  5
66C
  8
SPEC
  6
CONTINUOUS
 62
     7
 10
-237.4999999999996
 20
2596.1924100000001
 30
0.0
 11
1975.0
 21
2596.1924100000001
 31
0.0
  0
LINE
  5
66D
  8
SPEC
  6
CONTINUOUS
 62
     7
 10
-237.4999999999996
 20
2483.6924100000001
 30
0.0
 11
1975.0
 21
2483.6924100000001
 31
0.0
  0
LINE
  5
66E
  8
SPEC
  6
CONTINUOUS
 62
     7
 10
-237.4999999999996
 20
2427.4424099999992
 30
0.0
 11
1975.0
 21
2427.4424099999992
 31
0.0
  0
LINE
  5
66F
  8
SPEC
  6
CONTINUOUS
 62
     7
 10
-237.4999999999996
 20
2371.1924099999992
 30
0.0
 11
1975.0
 21
2371.1924099999992
 31
0.0
  0
LINE
  5
670
  8
SPEC
  6
CONTINUOUS
 62
     7
 10
-237.4999999999996
 20
2314.9470000000001
 30
0.0
 11
1975.0
 21
2314.9470000000001
 31
0.0
  0
LINE
  5
671
  8
SPEC
  6
CONTINUOUS
 62
     7
 10
-237.4999999999996
 20
2202.4470000000001
 30
0.0
 11
1975.0
 21
2202.4470000000001
 31
0.0
  0
LINE
  5
672
  8
SPEC
  6
CONTINUOUS
 62
     7
 10
-237.4999999999996
 20
2258.6970000000001
 30
0.0
 11
1975.0
 21
2258.6970000000001
 31
0.0
  0
TEXT
  5
673
  8
SPEC
 62
     7
 10
263.50000000000028
 20
2439.2612340000001
 30
0.0
 40
28.50466875
  1
129dB SPL
 41
0.85
 11
263.50000000000028
 21
2467.7659027499999
 31
0.0
 73
     3
  0
TEXT
  5
674
  8
SPEC
 62
     7
 10
263.50000000000028
 20
2495.5112340000001
 30
0.0
 40
28.50466875
  1
99dB SPL
 41
0.85
 11
263.50000000000028
 21
2524.015902749999
 31
0.0
 73
     3
  0
TEXT
  5
675
  8
SPEC
 62
     7
 10
263.50000000000028
 20
2326.7612339999991
 30
0.0
 40
28.50466875
  1
250W(IEC),1000W(Peak)
 41
0.85
 11
263.50000000000028
 21
2355.265902749999
 31
0.0
 73
     3
  0
TEXT
  5
676
  8
SPEC
 62
     7
 10
-224.0
 20
2270.5158240000001
 30
0.0
 40
28.50466875
  1
クロスオーバー
 41
0.85
 11
-224.0
 21
2299.0204927499999
 31
0.0
 73
     3
  0
TEXT
  5
677
  8
SPEC
 62
     7
 10
-224.0
 20
2214.2658240000001
 30
0.0
 40
28.50466875
  1
仕上げ
 41
0.85
 11
-224.0
 21
2242.7704927499999
 31
0.0
 73
     3
  0
TEXT
  5
678
  8
SPEC
 62
     7
 10
-224.0
 20
2158.0158240000001
 30
0.0
 40
28.50466875
  1
極性
 41
0.85
 11
-224.0
 21
2186.5204927499999
 31
0.0
 73
     3
  0
TEXT
  5
679
  8
SPEC
 62
     7
 10
-224.0
 20
2383.0112340000001
 30
0.0
 40
28.50466875
  1
公称インピーダンス
 41
0.85
 11
-224.0
 21
2411.5159027499999
 31
0.0
 73
     3
  0
TEXT
  5
67A
  8
SPEC
 62
     7
 10
-224.0
 20
2551.7612340000001
 30
0.0
 40
28.50466875
  1
高域ユニット
 41
0.85
 11
-224.0
 21
2580.2659027499999
 31
0.0
 73
     3
  0
TEXT
  5
67B
  8
SPEC
 62
     7
 10
-224.0
 20
2608.0112340000001
 30
0.0
 40
28.50466875
  1
低域ユニット
 41
0.85
 11
-224.0
 21
2636.5159027499999
 31
0.0
 73
     3
  0
TEXT
  5
67C
  8
SPEC
 62
     7
 10
-224.0
 20
2495.5112340000001
 30
0.0
 40
28.50466875
  1
音圧レベル(1W/1m)
 41
0.85
 11
-224.0
 21
2524.015902749999
 31
0.0
 73
     3
  0
TEXT
  5
67D
  8
SPEC
 62
     7
 10
-224.0
 20
2439.2612340000001
 30
0.0
 40
28.50466875
  1
最大音圧(＠1m)
 41
0.85
 11
-224.0
 21
2467.7659027499999
 31
0.0
 73
     3
  0
TEXT
  5
67E
  8
SPEC
 62
     7
 10
-224.0
 20
2326.7612339999991
 30
0.0
 40
28.50466875
  1
許容入力
 41
0.85
 11
-224.0
 21
2355.265902749999
 31
0.0
 73
     3
  0
TEXT
  5
67F
  8
SPEC
 62
     7
 10
263.50000000000028
 20
2270.5158240000001
 30
0.0
 40
28.50466875
  1
1.8kHz
 41
0.85
 11
263.50000000000028
 21
2299.0204927499999
 31
0.0
 73
     3
  0
TEXT
  5
680
  8
SPEC
 62
     7
 10
263.50000000000028
 20
2158.0158240000001
 30
0.0
 40
28.50466875
  1
正相(低域),逆相(高域)
 41
0.85
 11
263.50000000000028
 21
2186.5204927499999
 31
0.0
 73
     3
  0
TEXT
  5
681
  8
SPEC
 62
     7
 10
263.50000000000028
 20
2551.7612340000001
 30
0.0
 40
28.50466875
  1
2412H-1(スロート径:1インチ)
 41
0.85
 11
263.50000000000028
 21
2580.2659027499999
 31
0.0
 73
     3
  0
TEXT
  5
682
  8
SPEC
 62
     7
 10
263.50000000000028
 20
2383.0112340000001
 30
0.0
 40
28.50466875
  1
8Ω
 41
0.85
 11
263.50000000000028
 21
2411.5159027499999
 31
0.0
 73
     3
  0
TEXT
  5
683
  8
SPEC
 62
     7
 10
263.50000000000028
 20
2608.0112340000001
 30
0.0
 40
28.50466875
  1
M112-8(口径:12インチ)
 41
0.85
 11
263.50000000000028
 21
2636.5159027499999
 31
0.0
 73
     3
  0
TEXT
  5
684
  8
SPEC
 62
     7
 10
263.5000000000004
 20
2045.5188000000001
 30
0.0
 40
28.504720052083329
  1
4Pスピコン×1(±1:Full Range,±2:N/C), TSフォーンジャック×1
 41
0.85
 11
263.5000000000004
 21
2074.0235200520829
 31
0.0
 73
     3
  0
CIRCLE
  5
685
  8
SPEC
  6
CONTINUOUS
 62
     7
 10
2036.5
 20
1563.0
 30
0.0
 40
63.75
  0
LINE
  5
686
  8
SPEC
  6
CONTINUOUS
 62
     7
 10
763.0160442314783
 20
1738.0
 30
0.0
 11
1186.5
 21
1738.0
 31
0.0
  0
LINE
  5
687
  8
SPEC
  6
CONTINUOUS
 62
     7
 10
1011.5
 20
1638.0
 30
0.0
 11
1486.5
 21
1638.0
 31
0.0
  0
LINE
  5
688
  8
SPEC
  6
STYLE_01
 62
     7
 10
1486.5
 20
1638.0
 30
0.0
 11
1686.5
 21
1638.0
 31
0.0
  0
LINE
  5
689
  8
SPEC
  6
STYLE_01
 62
     7
 10
1486.5
 20
1738.0
 30
0.0
 11
1686.5
 21
1738.0
 31
0.0
  0
LINE
  5
68A
  8
SPEC
  6
CONTINUOUS
 62
     7
 10
1436.5
 20
1738.0
 30
0.0
 11
1486.5
 21
1738.0
 31
0.0
  0
LINE
  5
68B
  8
SPEC
  6
CONTINUOUS
 62
     7
 10
1086.5
 20
1438.0
 30
0.0
 11
1086.5
 21
1638.0
 31
0.0
  0
TEXT
  5
68C
  8
SPEC
 62
     7
 10
1245.03271484375
 20
1322.0478515625
 30
0.0
 40
34.099102020263679
  1
接続図
 41
0.85
 11
1245.03271484375
 21
1356.146953582763
 31
0.0
 73
     3
  0
LINE
  5
68D
  8
SPEC
  6
CONTINUOUS
 62
     7
 10
1211.5
 20
1288.0
 30
0.0
 11
1411.5
 21
1288.0
 31
0.0
  0
LINE
  5
68E
  8
SPEC
  6
CONTINUOUS
 62
     7
 10
1686.5
 20
1638.0
 30
0.0
 11
1774.0
 21
1638.0
 31
0.0
  0
LINE
  5
68F
  8
SPEC
  6
CONTINUOUS
 62
     7
 10
1686.5
 20
1738.0
 30
0.0
 11
2021.5000000000159
 21
1738.0
 31
0.0
  0
TEXT
  5
690
  8
SPEC
 62
     7
 10
2161.5
 20
1510.6949999999999
 30
0.0
 40
24.4326171875
  1
M112-8
 41
0.85
 11
2161.5
 21
1535.1276171874999
 31
0.0
 73
     3
  0
CIRCLE
  5
691
  8
SPEC
  6
CONTINUOUS
 62
     7
 10
2036.5
 20
1563.0
 30
0.0
 40
90.0
  0
CIRCLE
  5
692
  8
SPEC
  6
CONTINUOUS
 62
     7
 10
2036.5
 20
1563.0
 30
0.0
 40
105.4575011975103
  0
LINE
  5
693
  8
SPEC
  6
CONTINUOUS
 62
     7
 10
2046.5
 20
1363.0050000000001
 30
0.0
 11
2046.5
 21
1500.0391987026851
 31
0.0
  0
LINE
  5
694
  8
SPEC
  6
CONTINUOUS
 62
     7
 10
2026.5
 20
1499.25
 30
0.0
 11
2026.5
 21
1400.5050000000001
 31
0.0
  0
TEXT
  5
695
  8
SPEC
 62
     7
 10
1915.197916666667
 20
1428.4749999999999
 30
0.0
 40
20.360514322916671
  1
GRN/BLK
 41
0.85
 11
1915.197916666667
 21
1448.8355143229171
 31
0.0
 73
     3
  0
TEXT
  5
696
  8
SPEC
 62
     7
 10
2066.65625
 20
1428.4749999999999
 30
0.0
 40
20.360514322916671
  1
GRN
 41
0.85
 11
2066.65625
 21
1448.8355143229171
 31
0.0
 73
     3
  0
CIRCLE
  5
697
  8
SPEC
  6
CONTINUOUS
 62
     7
 10
2036.5
 20
1659.81675107776
 30
0.0
 40
4.6875
  0
CIRCLE
  5
698
  8
SPEC
  6
CONTINUOUS
 62
     7
 10
1939.6832489222411
 20
1562.999999999998
 30
0.0
 40
4.6875
  0
CIRCLE
  5
699
  8
SPEC
  6
CONTINUOUS
 62
     7
 10
2036.5
 20
1466.18324892224
 30
0.0
 40
4.6875
  0
CIRCLE
  5
69A
  8
SPEC
  6
CONTINUOUS
 62
     7
 10
2133.3167510777612
 20
1562.9999999999991
 30
0.0
 40
4.6875
  0
CIRCLE
  5
69B
  8
SPEC
  6
CONTINUOUS
 62
     7
 10
1968.0402187804659
 20
1631.4597812195341
 30
0.0
 40
4.6875
  0
CIRCLE
  5
69C
  8
SPEC
  6
CONTINUOUS
 62
     7
 10
1968.040218780468
 20
1494.5402187804659
 30
0.0
 40
4.6875
  0
CIRCLE
  5
69D
  8
SPEC
  6
CONTINUOUS
 62
     7
 10
2104.9597812195329
 20
1494.5402187804659
 30
0.0
 40
4.6875
  0
CIRCLE
  5
69E
  8
SPEC
  6
CONTINUOUS
 62
     7
 10
2104.9597812195352
 20
1631.4597812195341
 30
0.0
 40
4.6875
  0
TEXT
  5
69F
  8
SPEC
 62
     7
 10
2161.5
 20
1551.5699999999999
 30
0.0
 40
24.4326171875
  1
Low Freq
 41
0.85
 11
2161.5
 21
1576.0026171874999
 31
0.0
 73
     3
  0
TEXT
  5
6A0
  8
SPEC
 62
     7
 10
2161.5
 20
1592.4449999999999
 30
0.0
 40
24.4326171875
  1
Driver
 41
0.85
 11
2161.5
 21
1616.8776171874999
 31
0.0
 73
     3
  0
TEXT
  5
6A1
  8
SPEC
 62
     7
 10
1811.5
 20
1651.5699999999999
 30
0.0
 40
24.4326171875
  1
H.F.+
 41
0.85
 11
1811.5
 21
1676.0026171874999
 31
0.0
 73
     3
  0
TEXT
  5
6A2
  8
SPEC
 62
     7
 10
1811.5
 20
1751.5699999999999
 30
0.0
 40
24.4326171875
  1
H.F.-
 41
0.85
 11
1811.5
 21
1776.0026171874999
 31
0.0
 73
     3
  0
TEXT
  5
6A3
  8
SPEC
 62
     7
 10
2161.5
 20
1826.5699999999999
 30
0.0
 40
24.4326171875
  1
High Freq
 41
0.85
 11
2161.5
 21
1851.0026171874999
 31
0.0
 73
     3
  0
TEXT
  5
6A4
  8
SPEC
 62
     7
 10
2161.5
 20
1785.6949999999999
 30
0.0
 40
24.4326171875
  1
2412H-1
 41
0.85
 11
2161.5
 21
1810.1276171874999
 31
0.0
 73
     3
  0
TEXT
  5
6A5
  8
SPEC
 62
     7
 10
2161.5
 20
1867.4449999999999
 30
0.0
 40
24.4326171875
  1
Driver
 41
0.85
 11
2161.5
 21
1891.8776171874999
 31
0.0
 73
     3
  0
POLYLINE
  5
6A6
  8
SPEC
  6
CONTINUOUS
 62
     7
 66
     1
 10
0.0
 20
0.0
 30
0.0
 70
     1
  0
VERTEX
  5
9DF
  8
SPEC
  6
CONTINUOUS
 62
     7
 10
1186.5
 20
1788.0
 30
0.0
  0
VERTEX
  5
9E0
  8
SPEC
  6
CONTINUOUS
 62
     7
 10
1436.5
 20
1788.0
 30
0.0
  0
VERTEX
  5
9E1
  8
SPEC
  6
CONTINUOUS
 62
     7
 10
1436.5
 20
1688.0
 30
0.0
  0
VERTEX
  5
9E2
  8
SPEC
  6
CONTINUOUS
 62
     7
 10
1186.5
 20
1688.0
 30
0.0
  0
SEQEND
  5
9E3
  8
SPEC
  6
CONTINUOUS
 62
     7
  0
POLYLINE
  5
6AC
  8
SPEC
  6
CONTINUOUS
 62
     7
 66
     1
 10
0.0
 20
0.0
 30
0.0
 70
     1
  0
VERTEX
  5
9E4
  8
SPEC
  6
CONTINUOUS
 62
     7
 10
1486.5
 20
1775.5
 30
0.0
  0
VERTEX
  5
9E5
  8
SPEC
  6
CONTINUOUS
 62
     7
 10
1686.5
 20
1775.5
 30
0.0
  0
VERTEX
  5
9E6
  8
SPEC
  6
CONTINUOUS
 62
     7
 10
1686.5
 20
1600.5
 30
0.0
  0
VERTEX
  5
9E7
  8
SPEC
  6
CONTINUOUS
 62
     7
 10
1486.5
 20
1600.5
 30
0.0
  0
SEQEND
  5
9E8
  8
SPEC
  6
CONTINUOUS
 62
     7
  0
LINE
  5
6B2
  8
SPEC
  6
CONTINUOUS
 62
     7
 10
1136.5
 20
1738.0
 30
0.0
 11
1136.5
 21
1538.0
 31
0.0
  0
LINE
  5
6B3
  8
SPEC
  6
STYLE_01
 62
     7
 10
1486.5
 20
1438.0
 30
0.0
 11
1686.5
 21
1438.0
 31
0.0
  0
LINE
  5
6B4
  8
SPEC
  6
STYLE_01
 62
     7
 10
1486.5
 20
1538.0
 30
0.0
 11
1686.5
 21
1538.0
 31
0.0
  0
LINE
  5
6B5
  8
SPEC
  6
CONTINUOUS
 62
     7
 10
1686.5
 20
1438.0
 30
0.0
 11
1774.0
 21
1438.0
 31
0.0
  0
LINE
  5
6B6
  8
SPEC
  6
CONTINUOUS
 62
     7
 10
1686.5
 20
1538.0
 30
0.0
 11
1736.5
 21
1538.0
 31
0.0
  0
POLYLINE
  5
6B7
  8
SPEC
  6
CONTINUOUS
 62
     7
 66
     1
 10
0.0
 20
0.0
 30
0.0
 70
     1
  0
VERTEX
  5
9E9
  8
SPEC
  6
CONTINUOUS
 62
     7
 10
1486.5
 20
1575.5
 30
0.0
  0
VERTEX
  5
9EA
  8
SPEC
  6
CONTINUOUS
 62
     7
 10
1686.5
 20
1575.5
 30
0.0
  0
VERTEX
  5
9EB
  8
SPEC
  6
CONTINUOUS
 62
     7
 10
1686.5
 20
1400.5
 30
0.0
  0
VERTEX
  5
9EC
  8
SPEC
  6
CONTINUOUS
 62
     7
 10
1486.5
 20
1400.5
 30
0.0
  0
SEQEND
  5
9ED
  8
SPEC
  6
CONTINUOUS
 62
     7
  0
LINE
  5
6BD
  8
SPEC
  6
CONTINUOUS
 62
     7
 10
1486.5
 20
1538.0
 30
0.0
 11
1136.5
 21
1538.0
 31
0.0
  0
LINE
  5
6BE
  8
SPEC
  6
CONTINUOUS
 62
     7
 10
1486.5
 20
1438.0
 30
0.0
 11
1086.5
 21
1438.0
 31
0.0
  0
CIRCLE
  5
6BF
  8
SPEC
  6
CONTINUOUS
 62
     7
 10
2036.5
 20
1838.0
 30
0.0
 40
50.0
  0
CIRCLE
  5
6C0
  8
SPEC
  6
CONTINUOUS
 62
     7
 10
2036.5
 20
1838.0
 30
0.0
 40
40.0
  0
LINE
  5
6C1
  8
SPEC
  6
CONTINUOUS
 62
     7
 10
2080.4704653852509
 20
1516.840919920297
 30
0.0
 11
2093.8609794300128
 21
1493.6478692553039
 31
0.0
  0
LINE
  5
6C2
  8
SPEC
  6
CONTINUOUS
 62
     7
 10
2054.4897032717172
 20
1501.840919920297
 30
0.0
 11
2067.88021731648
 21
1478.647869255303
 31
0.0
  0
LINE
  5
6C3
  8
SPEC
  6
CONTINUOUS
 62
     7
 10
2018.510296728283
 20
1624.159080079703
 30
0.0
 11
2005.11978268352
 21
1647.352130744697
 31
0.0
  0
LINE
  5
6C4
  8
SPEC
  6
CONTINUOUS
 62
     7
 10
1992.5295346147491
 20
1609.159080079703
 30
0.0
 11
1979.1390205699861
 21
1632.352130744697
 31
0.0
  0
LINE
  5
6C5
  8
SPEC
  6
CONTINUOUS
 62
     7
 10
2098.460168656969
 20
1578.0000000000009
 30
0.0
 11
2125.2411967464941
 21
1578.0000000000009
 31
0.0
  0
LINE
  5
6C6
  8
SPEC
  6
CONTINUOUS
 62
     7
 10
2098.460168656969
 20
1548.0
 30
0.0
 11
2125.241196746495
 21
1548.0
 31
0.0
  0
LINE
  5
6C7
  8
SPEC
  6
CONTINUOUS
 62
     7
 10
1974.539831343031
 20
1578.0000000000009
 30
0.0
 11
1947.758803253505
 21
1578.0000000000009
 31
0.0
  0
LINE
  5
6C8
  8
SPEC
  6
CONTINUOUS
 62
     7
 10
1974.539831343031
 20
1548.0
 30
0.0
 11
1947.758803253505
 21
1548.0
 31
0.0
  0
LINE
  5
6C9
  8
SPEC
  6
CONTINUOUS
 62
     7
 10
2080.4704653852509
 20
1609.159080079703
 30
0.0
 11
2093.8609794300128
 21
1632.352130744697
 31
0.0
  0
LINE
  5
6CA
  8
SPEC
  6
CONTINUOUS
 62
     7
 10
2054.4897032717172
 20
1624.159080079703
 30
0.0
 11
2067.88021731648
 21
1647.352130744697
 31
0.0
  0
LINE
  5
6CB
  8
SPEC
  6
CONTINUOUS
 62
     7
 10
2018.510296728283
 20
1501.8409199202961
 30
0.0
 11
2005.11978268352
 21
1478.647869255303
 31
0.0
  0
LINE
  5
6CC
  8
SPEC
  6
CONTINUOUS
 62
     7
 10
1992.5295346147491
 20
1516.840919920297
 30
0.0
 11
1979.139020569985
 21
1493.647869255303
 31
0.0
  0
LINE
  5
6CD
  8
SPEC
  6
CONTINUOUS
 62
     7
 10
2021.5000000000159
 20
1783.0
 30
0.0
 11
2021.5000000000159
 21
1738.0
 31
0.0
  0
LINE
  5
6CE
  8
SPEC
  6
CONTINUOUS
 62
     7
 10
2051.4999999999841
 20
1783.0
 30
0.0
 11
2051.4999999999841
 21
1700.5
 31
0.0
  0
LINE
  5
6CF
  8
SPEC
  6
CONTINUOUS
 62
     7
 10
1774.0
 20
1400.5050000000001
 30
0.0
 11
1774.0
 21
1438.0
 31
0.0
  0
LINE
  5
6D0
  8
SPEC
  6
CONTINUOUS
 62
     7
 10
1736.5
 20
1363.0050000000001
 30
0.0
 11
1736.5
 21
1538.0
 31
0.0
  0
TEXT
  5
6D1
  8
SPEC
 62
     7
 10
1523.0
 20
1697.4449999999999
 30
0.0
 40
24.4326171875
  1
ハイパス
 41
0.85
 11
1523.0
 21
1721.8776171874999
 31
0.0
 73
     3
  0
TEXT
  5
6D2
  8
SPEC
 62
     7
 10
1507.125
 20
1655.694999999999
 30
0.0
 40
24.4326171875
  1
フィルター
 41
0.85
 11
1507.125
 21
1680.127617187499
 31
0.0
 73
     3
  0
TEXT
  5
6D3
  8
SPEC
 62
     7
 10
1507.125
 20
1455.6949999999999
 30
0.0
 40
24.4326171875
  1
フィルター
 41
0.85
 11
1507.125
 21
1480.1276171874999
 31
0.0
 73
     3
  0
TEXT
  5
6D4
  8
SPEC
 62
     7
 10
1523.0
 20
1497.4449999999999
 30
0.0
 40
24.4326171875
  1
ローパス
 41
0.85
 11
1523.0
 21
1521.8776171874999
 31
0.0
 73
     3
  0
TEXT
  5
6D5
  8
SPEC
 62
     7
 10
1200.375
 20
1747.4449999999999
 30
0.0
 40
24.4326171875
  1
ソニックガード
 41
0.85
 11
1200.375
 21
1771.8776171874999
 31
0.0
 73
     3
  0
TEXT
  5
6D6
  8
SPEC
 62
     7
 10
1279.75
 20
1705.6949999999999
 30
0.0
 40
24.4326171875
  1
回路
 41
0.85
 11
1279.75
 21
1730.1276171874999
 31
0.0
 73
     3
  0
CIRCLE
  5
6D7
  8
SPEC
  6
CONTINUOUS
 62
     7
 10
1086.5
 20
1638.0
 30
0.0
 40
8.0
  0
CIRCLE
  5
6D8
  8
SPEC
  6
CONTINUOUS
 62
     7
 10
1136.5
 20
1738.0
 30
0.0
 40
8.0
  0
LINE
  5
6D9
  8
SPEC
  6
CONTINUOUS
 62
     7
 10
611.50000000000011
 20
1788.0
 30
0.0
 11
1011.5
 21
1788.0
 31
0.0
  0
LINE
  5
6DA
  8
SPEC
  6
CONTINUOUS
 62
     7
 10
611.50000000000011
 20
1638.0
 30
0.0
 11
611.50000000000011
 21
1788.0
 31
0.0
  0
ARC
  5
6DB
  8
SPEC
  6
CONTINUOUS
 62
     7
 10
711.50000000000011
 20
1638.0
 30
0.0
 40
29.661291625418588
 50
330.00495624442999
 51
59.997998874591133
  0
ARC
  5
6DC
  8
SPEC
  6
CONTINUOUS
 62
     7
 10
711.50000000000011
 20
1638.0
 30
0.0
 40
46.407007750826899
 50
278.80424078663867
 51
73.495761680206201
  0
TEXT
  5
6DD
  8
SPEC
 62
     7
 10
781.81250000000011
 20
1650.5387499999999
 30
0.0
 40
24.4326171875
  1
2-
 41
0.85
 11
781.81250000000011
 21
1674.9713671874999
 31
0.0
 73
     3
  0
ARC
  5
6DE
  8
SPEC
  6
CONTINUOUS
 62
     7
 10
711.50000000000011
 20
1638.0
 30
0.0
 40
46.407007750826722
 50
106.5042383197938
 51
260.1859135036114
  0
ARC
  5
6DF
  8
SPEC
  6
CONTINUOUS
 62
     7
 10
711.50000000000011
 20
1638.0
 30
0.0
 40
32.693679819995992
 50
60.002409879682233
 51
150.0029684706798
  0
LINE
  5
6E0
  8
SPEC
  6
CONTINUOUS
 62
     7
 10
711.50000000000011
 20
1651.7123466273899
 30
0.0
 11
763.0160442314783
 21
1738.0
 31
0.0
  0
CIRCLE
  5
6E1
  8
SPEC
  6
CONTINUOUS
 62
     7
 10
711.50000000000011
 20
1638.0
 30
0.0
 40
61.962890625
  0
TEXT
  5
6E2
  8
SPEC
 62
     7
 10
695.62500000000011
 20
1538.0387499999999
 30
0.0
 40
24.4326171875
  1
2+
 41
0.85
 11
695.62500000000011
 21
1562.4713671874999
 31
0.0
 73
     3
  0
LINE
  5
6E3
  8
SPEC
  6
CONTINUOUS
 62
     7
 10
746.4347291254187
 20
1638.0
 30
0.0
 11
836.5
 21
1638.0
 31
0.0
  0
LINE
  5
6E4
  8
SPEC
  6
CONTINUOUS
 62
     7
 10
711.50000000000011
 20
1624.2876533726101
 30
0.0
 11
763.01604423147705
 21
1538.0
 31
0.0
  0
LINE
  5
6E5
  8
SPEC
  6
CONTINUOUS
 62
     7
 10
719.1464843750008
 20
1651.2416015625031
 30
0.0
 11
720.99423501153444
 21
1654.441395940665
 31
0.0
  0
LINE
  5
6E6
  8
SPEC
  6
CONTINUOUS
 62
     7
 10
724.74160156250105
 20
1630.3535156250009
 30
0.0
 11
727.94125948554699
 21
1628.5055286897721
 31
0.0
  0
LINE
  5
6E7
  8
SPEC
  6
CONTINUOUS
 62
     7
 10
737.18607813396466
 20
1623.1715762771601
 30
0.0
 11
739.81308593749952
 21
1621.6523437500009
 31
0.0
  0
LINE
  5
6E8
  8
SPEC
  6
CONTINUOUS
 62
     7
 10
719.41015625000011
 20
1586.9285025731151
 30
0.0
 11
719.41015625000011
 21
1592.272111392653
 31
0.0
  0
CIRCLE
  5
6E9
  8
SPEC
  6
CONTINUOUS
 62
     7
 10
746.4347291254187
 20
1638.0
 30
0.0
 40
5.2734375
  0
ARC
  5
6EA
  8
SPEC
  6
CONTINUOUS
 62
     7
 10
711.50000000000011
 20
1638.0
 30
0.0
 40
15.290805578422781
 50
329.99532014014881
 51
59.995320140150689
  0
LINE
  5
6EB
  8
SPEC
  6
CONTINUOUS
 62
     7
 10
685.81093169306575
 20
1652.8323785399909
 30
0.0
 11
683.18559584766354
 21
1654.3453729743489
 31
0.0
  0
LINE
  5
6EC
  8
SPEC
  6
CONTINUOUS
 62
     7
 10
698.25708029564635
 20
1645.644201262468
 30
0.0
 11
695.0574218750005
 21
1647.4921875000009
 31
0.0
  0
LINE
  5
6ED
  8
SPEC
  6
CONTINUOUS
 62
     7
 10
703.85516465358796
 20
1624.7574463277181
 30
0.0
 11
702.00781249999955
 21
1621.557421875001
 31
0.0
  0
LINE
  5
6EE
  8
SPEC
  6
CONTINUOUS
 62
     7
 10
696.667771013427
 20
1612.311959707712
 30
0.0
 11
695.15234375000068
 21
1609.686914062502
 31
0.0
  0
LINE
  5
6EF
  8
SPEC
  6
CONTINUOUS
 62
     7
 10
703.58984374999955
 20
1586.9285025731151
 30
0.0
 11
703.58984374999955
 21
1592.272111392653
 31
0.0
  0
CIRCLE
  5
6F0
  8
SPEC
  6
CONTINUOUS
 62
     7
 10
676.56527087458085
 20
1638.0
 30
0.0
 40
5.2734375
  0
ARC
  5
6F1
  8
SPEC
  6
CONTINUOUS
 62
     7
 10
711.50000000000011
 20
1638.0
 30
0.0
 40
15.29080557842285
 50
150.00519856767639
 51
240.00245515181049
  0
ARC
  5
6F2
  8
SPEC
  6
CONTINUOUS
 62
     7
 10
711.50000000000011
 20
1638.0
 30
0.0
 40
29.661291625418809
 50
149.9961350790775
 51
240.00234990249939
  0
ARC
  5
6F3
  8
SPEC
  6
CONTINUOUS
 62
     7
 10
711.50000000000011
 20
1638.0
 30
0.0
 40
32.693679819995857
 50
239.99834802721369
 51
329.99834802721517
  0
CIRCLE
  5
6F4
  8
SPEC
  6
CONTINUOUS
 62
     7
 10
711.50000000000011
 20
1624.2876533726101
 30
0.0
 40
5.2734375
  0
ARC
  5
6F5
  8
SPEC
  6
CONTINUOUS
 62
     7
 10
711.50000000000011
 20
1638.0
 30
0.0
 40
18.98578412739057
 50
240.00245515181101
 51
329.99449667149321
  0
ARC
  5
6F6
  8
SPEC
  6
CONTINUOUS
 62
     7
 10
711.50000000000011
 20
1638.0
 30
0.0
 40
51.68044525082697
 50
261.19575921336133
 51
278.80424078663867
  0
ARC
  5
6F7
  8
SPEC
  6
CONTINUOUS
 62
     7
 10
711.50000000000011
 20
1638.0
 30
0.0
 40
18.98578412739052
 50
59.995320140149381
 51
150.00245515181331
  0
CIRCLE
  5
6F8
  8
SPEC
  6
CONTINUOUS
 62
     7
 10
711.50000000000011
 20
1651.7123466273899
 30
0.0
 40
5.2734375
  0
TEXT
  5
6F9
  8
SPEC
 62
     7
 10
613.06249999999966
 20
1598.9762499999999
 30
0.0
 40
24.4326171875
  1
1-
 41
0.85
 11
613.06249999999966
 21
1623.4088671875011
 31
0.0
 73
     3
  0
LINE
  5
6FA
  8
SPEC
  6
CONTINUOUS
 62
     7
 10
611.50000000000011
 20
1638.0
 30
0.0
 11
676.56527087458085
 21
1638.0
 31
0.0
  0
LINE
  5
6FB
  8
SPEC
  6
CONTINUOUS
 62
     7
 10
724.68359375000296
 20
1682.4949797642421
 30
0.0
 11
724.68359375000296
 21
1687.9706041304159
 31
0.0
  0
LINE
  5
6FC
  8
SPEC
  6
CONTINUOUS
 62
     7
 10
698.31640625000273
 20
1682.4949797642421
 30
0.0
 11
698.31640625000273
 21
1687.9706041304159
 31
0.0
  0
ARC
  5
6FD
  8
SPEC
  6
CONTINUOUS
 62
     7
 10
711.50000000000011
 20
1638.0
 30
0.0
 40
51.680445250826878
 50
75.22059000959554
 51
104.7794099904048
  0
LINE
  5
6FE
  8
SPEC
  6
CONTINUOUS
 62
     7
 10
726.32890625000232
 20
1663.6869140624999
 30
0.0
 11
727.84564901783415
 21
1666.3142447958301
 31
0.0
  0
TEXT
  5
6FF
  8
SPEC
 62
     7
 10
695.62500000000011
 20
1713.8199999999999
 30
0.0
 40
24.4326171875
  1
1+
 41
0.85
 11
695.62500000000011
 21
1738.2526171874999
 31
0.0
 73
     3
  0
LINE
  5
700
  8
SPEC
  6
CONTINUOUS
 62
     7
 10
961.49999999999955
 20
1463.0
 30
0.0
 11
961.50000000000011
 21
1738.0
 31
0.0
  0
LINE
  5
701
  8
SPEC
  6
CONTINUOUS
 62
     7
 10
1011.5
 20
1400.5
 30
0.0
 11
1011.5
 21
1788.0
 31
0.0
  0
TEXT
  5
702
  8
SPEC
 62
     7
 10
391.25
 20
1605.6949999999999
 30
0.0
 40
24.4326171875
  1
(4Pスピコン)
 41
0.85
 11
391.25
 21
1630.1276171874999
 31
0.0
 73
     3
  0
TEXT
  5
703
  8
SPEC
 62
     7
 10
438.87499999999989
 20
1647.4449999999999
 30
0.0
 40
24.4326171875
  1
IN/OUT
 41
0.85
 11
438.87499999999989
 21
1671.8776171874999
 31
0.0
 73
     3
  0
TEXT
  5
704
  8
SPEC
 62
     7
 10
416.78332171500108
 20
1451.5699999999999
 30
0.0
 40
24.4326171875
  1
IN/OUT
 41
0.85
 11
416.78332171500108
 21
1476.0026171874999
 31
0.0
 73
     3
  0
CIRCLE
  5
705
  8
SPEC
  6
CONTINUOUS
 62
     7
 10
961.50000000000011
 20
1738.0
 30
0.0
 40
8.0
  0
CIRCLE
  5
706
  8
SPEC
  6
CONTINUOUS
 62
     7
 10
1011.5
 20
1638.0
 30
0.0
 40
8.0
  0
TEXT
  5
707
  8
SPEC
 62
     7
 10
318.625
 20
1409.8199999999999
 30
0.0
 40
24.4326171875
  1
(フォーンジャック)
 41
0.85
 11
318.625
 21
1434.2526171874999
 31
0.0
 73
     3
  0
TEXT
  5
708
  8
SPEC
 62
     7
 10
862.6875
 20
1626.5699999999999
 30
0.0
 40
24.4326171875
  1
N/C
 41
0.85
 11
862.6875
 21
1651.0026171874999
 31
0.0
 73
     3
  0
TEXT
  5
709
  8
SPEC
 62
     7
 10
786.5
 20
1526.5699999999999
 30
0.0
 40
24.4326171875
  1
N/C
 41
0.85
 11
786.5
 21
1551.0026171874999
 31
0.0
 73
     3
  0
LINE
  5
70A
  8
SPEC
  6
CONTINUOUS
 62
     7
 10
661.5
 20
1400.5
 30
0.0
 11
661.5
 21
1475.5
 31
0.0
  0
LINE
  5
70B
  8
SPEC
  6
CONTINUOUS
 62
     7
 10
1011.5
 20
1400.5
 30
0.0
 11
661.5
 21
1400.5
 31
0.0
  0
LINE
  5
70C
  8
SPEC
  6
CONTINUOUS
 62
     7
 10
686.5
 20
1475.5
 30
0.0
 11
686.5
 21
1400.5
 31
0.0
  0
LINE
  5
70D
  8
SPEC
  6
CONTINUOUS
 62
     7
 10
661.5
 20
1475.5
 30
0.0
 11
686.5
 21
1475.5
 31
0.0
  0
LINE
  5
70E
  8
SPEC
  6
CONTINUOUS
 62
     7
 10
736.5
 20
1438.0
 30
0.0
 11
724.0
 21
1463.0
 31
0.0
  0
LINE
  5
70F
  8
SPEC
  6
CONTINUOUS
 62
     7
 10
736.5
 20
1438.0
 30
0.0
 11
749.0
 21
1463.0
 31
0.0
  0
LINE
  5
710
  8
SPEC
  6
CONTINUOUS
 62
     7
 10
749.0
 20
1463.0
 30
0.0
 11
961.49999999999955
 21
1463.0
 31
0.0
  0
TEXT
  5
711
  8
SPEC
 62
     7
 10
2038.5625
 20
1504.484198702685
 30
0.0
 40
24.4326171875
  1
+
 41
0.85
 11
2038.5625
 21
1528.916815890185
 31
0.0
 73
     3
  0
TEXT
  5
712
  8
SPEC
 62
     7
 10
2018.5625
 20
1503.6949999999999
 30
0.0
 40
24.4326171875
  1
-
 41
0.85
 11
2018.5625
 21
1528.1276171874999
 31
0.0
 73
     3
  0
TEXT
  5
713
  8
SPEC
 62
     7
 10
1915.197916666667
 20
1753.4749999999999
 30
0.0
 40
20.360514322916671
  1
YEL/BLK
 41
0.85
 11
1915.197916666667
 21
1773.835514322916
 31
0.0
 73
     3
  0
TEXT
  5
714
  8
SPEC
 62
     7
 10
2067.25
 20
1754.0687499999999
 30
0.0
 40
20.360514322916671
  1
YEL
 41
0.85
 11
2067.25
 21
1774.4292643229171
 31
0.0
 73
     3
  0
LINE
  5
715
  8
SPEC
  6
CONTINUOUS
 62
     7
 10
1774.0
 20
1700.5
 30
0.0
 11
2051.4999999999841
 21
1700.5
 31
0.0
  0
LINE
  5
716
  8
SPEC
  6
CONTINUOUS
 62
     7
 10
1774.0
 20
1700.5
 30
0.0
 11
1774.0
 21
1638.0
 31
0.0
  0
TEXT
  5
717
  8
SPEC
 62
     7
 10
1811.5
 20
1314.075
 30
0.0
 40
24.4326171875
  1
L.F.+
 41
0.85
 11
1811.5
 21
1338.5076171875
 31
0.0
 73
     3
  0
TEXT
  5
718
  8
SPEC
 62
     7
 10
1811.5
 20
1414.075
 30
0.0
 40
24.4326171875
  1
L.F.-
 41
0.85
 11
1811.5
 21
1438.5076171875
 31
0.0
 73
     3
  0
LINE
  5
719
  8
SPEC
  6
CONTINUOUS
 62
     7
 10
2046.5
 20
1363.0050000000001
 30
0.0
 11
1736.5
 21
1363.0050000000001
 31
0.0
  0
LINE
  5
71A
  8
SPEC
  6
CONTINUOUS
 62
     7
 10
2026.5
 20
1400.5050000000001
 30
0.0
 11
1774.0
 21
1400.5050000000001
 31
0.0
  0
LINE
  5
71B
  8
SPEC
  6
CONTINUOUS
 62
     7
 10
2012.5
 20
1783.0
 30
0.0
 11
2062.5
 21
1783.0
 31
0.0
  0
LINE
  5
71C
  8
SPEC
  6
CONTINUOUS
 62
     7
 10
2012.5
 20
1783.0
 30
0.0
 11
2012.5
 21
1794.136575601078
 31
0.0
  0
LINE
  5
71D
  8
SPEC
  6
CONTINUOUS
 62
     7
 10
2062.5
 20
1783.0
 30
0.0
 11
2062.5
 21
1795.2916869918749
 31
0.0
  0
TEXT
  5
71E
  8
SPEC
 62
     7
 10
2008.5625000000159
 20
1807.4449999999999
 30
0.0
 40
24.4326171875
  1
-
 41
0.85
 11
2008.5625000000159
 21
1831.8776171874999
 31
0.0
 73
     3
  0
TEXT
  5
71F
  8
SPEC
 62
     7
 10
2048.5624999999841
 20
1807.4449999999999
 30
0.0
 40
24.4326171875
  1
+
 41
0.85
 11
2048.5624999999841
 21
1831.8776171874999
 31
0.0
 73
     3
  0
TEXT
  5
720
  8
DIMNSIONS
 62
     7
 10
700.0
 20
-688.51224000000025
 30
0.0
 40
36.64892578125
  1
(単位：mm)
 41
0.85
 11
700.0
 21
-651.86331421875025
 31
0.0
 73
     3
  0
TEXT
  5
721
  8
DIMNSIONS
 62
     7
 10
575.0
 20
-279.14499999999998
 30
0.0
 40
36.64892578125
  1
スタンド用ポールマウント穴
 41
0.85
 11
575.0
 21
-242.49607421875001
 31
0.0
 73
     3
  0
LINE
  5
722
  8
DIMNSIONS
  6
CONTINUOUS
 62
     7
 10
500.0
 20
-262.0
 30
0.0
 11
550.0
 21
-262.0
 31
0.0
  0
LINE
  5
723
  8
DIMNSIONS
  6
CONTINUOUS
 62
     7
 10
-17.0
 20
688.0
 30
0.0
 11
-130.0
 21
688.0
 31
0.0
  0
LINE
  5
724
  8
DIMNSIONS
  6
CONTINUOUS
 62
     7
 10
169.50000000000011
 20
1014.0
 30
0.0
 11
-130.0
 21
1014.0
 31
0.0
  0
LINE
  5
725
  8
DIMNSIONS
  6
CONTINUOUS
 62
     7
 10
-100.0
 20
688.0
 30
0.0
 11
-100.0
 21
1014.0
 31
0.0
  0
LINE
  5
726
  8
DIMNSIONS
  6
CONTINUOUS
 62
     7
 10
-100.0
 20
688.0
 30
0.0
 11
-110.05059692725349
 21
725.50933837890625
 31
0.0
  0
LINE
  5
727
  8
DIMNSIONS
  6
CONTINUOUS
 62
     7
 10
-100.0
 20
688.0
 30
0.0
 11
-89.949403072746435
 21
725.50933837890625
 31
0.0
  0
LINE
  5
728
  8
DIMNSIONS
  6
CONTINUOUS
 62
     7
 10
-100.0
 20
1014.0
 30
0.0
 11
-89.949403072746435
 21
976.49066162109364
 31
0.0
  0
LINE
  5
729
  8
DIMNSIONS
  6
CONTINUOUS
 62
     7
 10
-100.0
 20
1014.0
 30
0.0
 11
-110.05059692725349
 21
976.49066162109364
 31
0.0
  0
TEXT
  5
72A
  8
DIMNSIONS
 62
     7
 10
-114.9083333333332
 20
811.3125
 30
0.0
 40
40.721028645833343
  1
326
 50
90.0
 41
0.85
 11
-155.6293619791665
 21
811.3125
 31
0.0
 73
     3
  0
LINE
  5
72B
  8
DIMNSIONS
  6
CONTINUOUS
 62
     7
 10
-12.0
 20
-12.0
 30
0.0
 11
-180.0
 21
-12.0
 31
0.0
  0
LINE
  5
72C
  8
DIMNSIONS
  6
CONTINUOUS
 62
     7
 10
-17.0
 20
578.0
 30
0.0
 11
-180.0
 21
578.0
 31
0.0
  0
LINE
  5
72D
  8
DIMNSIONS
  6
CONTINUOUS
 62
     7
 10
-150.0
 20
-12.0
 30
0.0
 11
-150.0
 21
578.0
 31
0.0
  0
LINE
  5
72E
  8
DIMNSIONS
  6
CONTINUOUS
 62
     7
 10
-150.0
 20
-12.0
 30
0.0
 11
-160.05059692725351
 21
25.50933837890625
 31
0.0
  0
LINE
  5
72F
  8
DIMNSIONS
  6
CONTINUOUS
 62
     7
 10
-150.0
 20
-12.0
 30
0.0
 11
-139.94940307274641
 21
25.50933837890625
 31
0.0
  0
LINE
  5
730
  8
DIMNSIONS
  6
CONTINUOUS
 62
     7
 10
-150.0
 20
578.0
 30
0.0
 11
-139.94940307274641
 21
540.49066162109375
 31
0.0
  0
LINE
  5
731
  8
DIMNSIONS
  6
CONTINUOUS
 62
     7
 10
-150.0
 20
578.0
 30
0.0
 11
-160.05059692725351
 21
540.49066162109375
 31
0.0
  0
TEXT
  5
732
  8
DIMNSIONS
 62
     7
 10
-164.90833333333319
 20
243.3125
 30
0.0
 40
40.721028645833343
  1
590
 50
90.0
 41
0.85
 11
-205.62936197916659
 21
243.3125
 31
0.0
 73
     3
  0
LINE
  5
733
  8
DIMNSIONS
  6
CONTINUOUS
 62
     7
 10
0.0
 20
-17.0
 30
0.0
 11
0.0
 21
-142.0
 31
0.0
  0
LINE
  5
734
  8
DIMNSIONS
  6
CONTINUOUS
 62
     7
 10
399.0
 20
-17.0
 30
0.0
 11
399.0
 21
-142.0
 31
0.0
  0
LINE
  5
735
  8
DIMNSIONS
  6
CONTINUOUS
 62
     7
 10
0.0
 20
-112.0
 30
0.0
 11
399.0
 21
-112.0
 31
0.0
  0
LINE
  5
736
  8
DIMNSIONS
  6
CONTINUOUS
 62
     7
 10
0.0
 20
-112.0
 30
0.0
 11
37.50933837890625
 21
-101.94940307274641
 31
0.0
  0
LINE
  5
737
  8
DIMNSIONS
  6
CONTINUOUS
 62
     7
 10
0.0
 20
-112.0
 30
0.0
 11
37.50933837890625
 21
-122.05059692725349
 31
0.0
  0
LINE
  5
738
  8
DIMNSIONS
  6
CONTINUOUS
 62
     7
 10
399.0
 20
-112.0
 30
0.0
 11
361.49066162109381
 21
-122.05059692725349
 31
0.0
  0
LINE
  5
739
  8
DIMNSIONS
  6
CONTINUOUS
 62
     7
 10
399.0
 20
-112.0
 30
0.0
 11
361.49066162109381
 21
-101.94940307274619
 31
0.0
  0
TEXT
  5
73A
  8
DIMNSIONS
 62
     7
 10
159.8125
 20
-97.091666666666555
 30
0.0
 40
40.721028645833343
  1
399
 41
0.85
 11
159.8125
 21
-56.370638020833212
 31
0.0
 73
     3
  0
LINE
  5
73B
  8
DIMNSIONS
  6
CONTINUOUS
 62
     7
 10
-8.5000000000001137
 20
582.50000000000114
 30
0.0
 11
-105.0
 21
582.50000000000114
 31
0.0
  0
LINE
  5
73C
  8
DIMNSIONS
  6
CONTINUOUS
 62
     7
 10
-17.0
 20
578.0
 30
0.0
 11
-105.0
 21
578.0
 31
0.0
  0
LINE
  5
73D
  8
DIMNSIONS
  6
CONTINUOUS
 62
     7
 10
-75.0
 20
578.0
 30
0.0
 11
-75.0
 21
582.50000000000114
 31
0.0
  0
LINE
  5
73E
  8
DIMNSIONS
  6
CONTINUOUS
 62
     7
 10
-75.0
 20
582.50000000000114
 30
0.0
 11
-75.0
 21
639.45833333333314
 31
0.0
  0
LINE
  5
73F
  8
DIMNSIONS
  6
CONTINUOUS
 62
     7
 10
-75.0
 20
582.50000000000114
 30
0.0
 11
-85.050596927253551
 21
620.00933837890739
 31
0.0
  0
LINE
  5
740
  8
DIMNSIONS
  6
CONTINUOUS
 62
     7
 10
-75.0
 20
582.50000000000114
 30
0.0
 11
-64.949403072746463
 21
620.00933837890739
 31
0.0
  0
LINE
  5
741
  8
DIMNSIONS
  6
CONTINUOUS
 62
     7
 10
-75.0
 20
578.0
 30
0.0
 11
-75.0
 21
503.0
 31
0.0
  0
LINE
  5
742
  8
DIMNSIONS
  6
CONTINUOUS
 62
     7
 10
-75.0
 20
578.0
 30
0.0
 11
-64.949403072746463
 21
540.49066162109375
 31
0.0
  0
LINE
  5
743
  8
DIMNSIONS
  6
CONTINUOUS
 62
     7
 10
-75.0
 20
578.0
 30
0.0
 11
-85.050596927253551
 21
540.49066162109375
 31
0.0
  0
TEXT
  5
744
  8
DIMNSIONS
 62
     7
 10
-89.908333333333445
 20
613.0
 30
0.0
 40
40.721028645833343
  1
5
 50
90.0
 41
0.85
 11
-130.62936197916679
 21
613.0
 31
0.0
 73
     3
  0
LINE
  5
745
  8
DIMNSIONS
  6
CONTINUOUS
 62
     7
 10
-17.0
 20
0.0
 30
0.0
 11
-105.0000000000141
 21
0.0
 31
0.0
  0
LINE
  5
746
  8
DIMNSIONS
  6
CONTINUOUS
 62
     7
 10
-17.0
 20
578.0
 30
0.0
 11
-105.0000000000141
 21
578.0
 31
0.0
  0
LINE
  5
747
  8
DIMNSIONS
  6
CONTINUOUS
 62
     7
 10
-75.000000000014097
 20
0.0
 30
0.0
 11
-75.000000000014097
 21
578.0
 31
0.0
  0
LINE
  5
748
  8
DIMNSIONS
  6
CONTINUOUS
 62
     7
 10
-75.000000000014097
 20
0.0
 30
0.0
 11
-85.050596927267634
 21
37.50933837890625
 31
0.0
  0
LINE
  5
749
  8
DIMNSIONS
  6
CONTINUOUS
 62
     7
 10
-75.000000000014097
 20
0.0
 30
0.0
 11
-64.94940307276056
 21
37.50933837890625
 31
0.0
  0
LINE
  5
74A
  8
DIMNSIONS
  6
CONTINUOUS
 62
     7
 10
-75.000000000014097
 20
578.0
 30
0.0
 11
-64.94940307276056
 21
540.49066162109375
 31
0.0
  0
LINE
  5
74B
  8
DIMNSIONS
  6
CONTINUOUS
 62
     7
 10
-75.000000000014097
 20
578.0
 30
0.0
 11
-85.050596927267634
 21
540.49066162109375
 31
0.0
  0
TEXT
  5
74C
  8
DIMNSIONS
 62
     7
 10
-89.908333333347315
 20
249.3125
 30
0.0
 40
40.721028645833343
  1
578
 50
90.0
 41
0.85
 11
-130.6293619791806
 21
249.3125
 31
0.0
 73
     3
  0
LINE
  5
74D
  8
DIMNSIONS
  6
CONTINUOUS
 62
     7
 10
282.0
 20
-3.0
 30
0.0
 11
505.0
 21
-3.0
 31
0.0
  0
LINE
  5
74E
  8
DIMNSIONS
  6
CONTINUOUS
 62
     7
 10
416.0
 20
0.0
 30
0.0
 11
505.0
 21
0.0
 31
0.0
  0
LINE
  5
74F
  8
DIMNSIONS
  6
CONTINUOUS
 62
     7
 10
475.0
 20
0.0
 30
0.0
 11
475.0
 21
-3.0
 31
0.0
  0
LINE
  5
750
  8
DIMNSIONS
  6
CONTINUOUS
 62
     7
 10
475.0
 20
-3.0
 30
0.0
 11
475.0
 21
-88.458333333333243
 31
0.0
  0
LINE
  5
751
  8
DIMNSIONS
  6
CONTINUOUS
 62
     7
 10
475.0
 20
-3.0
 30
0.0
 11
485.05059692725359
 21
-40.50933837890625
 31
0.0
  0
LINE
  5
752
  8
DIMNSIONS
  6
CONTINUOUS
 62
     7
 10
475.0
 20
-3.0
 30
0.0
 11
464.94940307274629
 21
-40.50933837890625
 31
0.0
  0
LINE
  5
753
  8
DIMNSIONS
  6
CONTINUOUS
 62
     7
 10
475.0
 20
0.0
 30
0.0
 11
475.0
 21
75.0
 31
0.0
  0
LINE
  5
754
  8
DIMNSIONS
  6
CONTINUOUS
 62
     7
 10
475.0
 20
0.0
 30
0.0
 11
464.94940307274629
 21
37.50933837890625
 31
0.0
  0
LINE
  5
755
  8
DIMNSIONS
  6
CONTINUOUS
 62
     7
 10
475.0
 20
0.0
 30
0.0
 11
485.05059692725359
 21
37.50933837890625
 31
0.0
  0
TEXT
  5
756
  8
DIMNSIONS
 62
     7
 10
460.09166666666653
 20
-88.458333333333243
 30
0.0
 40
40.721028645833343
  1
3
 50
90.0
 41
0.85
 11
419.37063802083321
 21
-88.458333333333243
 31
0.0
 73
     3
  0
LINE
  5
757
  8
DIMNSIONS
  6
CONTINUOUS
 62
     7
 10
239.5
 20
1014.0
 30
0.0
 11
406.66618692477471
 21
1014.0
 31
0.0
  0
ARC
  5
758
  8
DIMNSIONS
  6
CONTINUOUS
 62
     7
 10
202.9833395016048
 20
1014.0
 30
0.0
 40
173.68284742316999
 50
305.25844648889648
 51
329.99999999999989
  0
LINE
  5
759
  8
DIMNSIONS
  6
CONTINUOUS
 62
     7
 10
353.39709757168657
 20
927.15857628841479
 30
0.0
 11
342.6934031804438
 21
889.83035786593598
 31
0.0
  0
LINE
  5
75A
  8
DIMNSIONS
  6
CONTINUOUS
 62
     7
 10
353.39709757168657
 20
927.15857628841479
 30
0.0
 11
325.46331710328587
 21
900.18323805215516
 31
0.0
  0
ARC
  5
75B
  8
DIMNSIONS
  6
CONTINUOUS
 62
     7
 10
202.9833395016048
 20
1014.0
 30
0.0
 40
173.6828474231701
 50
0.0
 51
24.741553511103401
  0
LINE
  5
75C
  8
DIMNSIONS
  6
CONTINUOUS
 62
     7
 10
376.66618692477482
 20
1014.0
 30
0.0
 11
366.61558999752123
 21
1051.509338378906
 31
0.0
  0
LINE
  5
75D
  8
DIMNSIONS
  6
CONTINUOUS
 62
     7
 10
376.66618692477482
 20
1014.0
 30
0.0
 11
386.71678385202853
 21
1051.509338378906
 31
0.0
  0
TEXT
  5
75E
  8
DIMNSIONS
 62
     7
 10
414.6132203092443
 20
917.03681836267424
 30
0.0
 40
40.721028645833343
  1
30°
 50
78.523317878142038
 41
0.85
 11
374.70637764318121
 21
925.13904536522523
 31
0.0
 73
     3
  0
LINE
  5
75F
  8
DIMNSIONS
  6
CONTINUOUS
 62
     7
 10
216.91452419251621
 20
-322.94650165825129
 30
0.0
 11
500.0
 21
-262.0
 31
0.0
  0
LINE
  5
760
  8
DIMNSIONS
  6
CONTINUOUS
 62
     7
 10
216.91452419251621
 20
-322.94650165825129
 30
0.0
 11
260.8456258978058
 21
-300.56248731507799
 31
0.0
  0
LINE
  5
761
  8
DIMNSIONS
  6
CONTINUOUS
 62
     7
 10
216.91452419251621
 20
-322.94650165825129
 30
0.0
 11
266.15198145712151
 21
-325.52692745103292
 31
0.0
  0
LINE
  5
762
  8
DIMNSIONS
  6
CONTINUOUS
 62
     7
 10
215.72084125382469
 20
-374.69716019526612
 30
0.0
 11
500.0
 21
-262.0
 31
0.0
  0
LINE
  5
763
  8
DIMNSIONS
  6
CONTINUOUS
 62
     7
 10
215.72084125382469
 20
-374.69716019526612
 30
0.0
 11
255.6094468884113
 21
-345.7163918189043
 31
0.0
  0
LINE
  5
764
  8
DIMNSIONS
  6
CONTINUOUS
 62
     7
 10
215.72084125382469
 20
-374.69716019526612
 30
0.0
 11
264.7557712430966
 21
-369.54338137743753
 31
0.0
  0
TEXT
  5
765
  8
DIMNSIONS
 62
     7
 10
467.40560233160647
 20
-328.90666666666669
 30
0.0
 40
32.576822916666671
  1
0°
 41
0.85
 11
467.40560233160647
 21
-296.32984375000001
 31
0.0
 73
     3
  0
TEXT
  5
766
  8
DIMNSIONS
 62
     7
 10
424.5
 20
-245.39338946459401
 30
0.0
 40
32.576822916666671
  1
-10°
 41
0.85
 11
424.5
 21
-212.81656654792729
 31
0.0
 73
     3
  0
LINE
  5
767
  8
DATA
  6
CONTINUOUS
 62
     7
 10
0.0
 20
13.0
 30
0.0
 11
0.0
 21
565.0
 31
0.0
  0
LINE
  5
768
  8
DATA
  6
CONTINUOUS
 62
     7
 10
386.0
 20
0.0
 30
0.0
 11
13.0
 21
0.0
 31
0.0
  0
LINE
  5
769
  8
DATA
  6
CONTINUOUS
 62
     7
 10
399.0
 20
565.0
 30
0.0
 11
399.0
 21
13.0
 31
0.0
  0
LINE
  5
76A
  8
DATA
  6
CONTINUOUS
 62
     7
 10
13.0
 20
578.0
 30
0.0
 11
386.0
 21
578.0
 31
0.0
  0
TEXT
  5
76B
  8
DATA
 62
     7
 10
1750.0
 20
-705.5912400000002
 30
0.0
 40
36.64892578125
  1
JRX112M
 41
0.85
 11
1750.0
 21
-668.9423142187502
 31
0.0
 73
     3
  0
TEXT
  5
76C
  8
DATA
 62
     7
 10
1750.0
 20
-596.84124000000008
 30
0.0
 40
36.64892578125
  1
JBL
 41
0.85
 11
1750.0
 21
-560.19231421875008
 31
0.0
 73
     3
  0
TEXT
  5
76D
  8
DATA
 62
     7
 10
1707.0226
 20
456.74995200000001
 30
0.0
 40
27.000389062499998
  1
コネクターパネル拡大図
 41
0.85
 11
1707.0226
 21
483.75034106250001
 31
0.0
 73
     3
  0
LINE
  5
76E
  8
DATA
  6
CONTINUOUS
 62
     7
 10
1637.5
 20
438.0
 30
0.0
 11
2162.5
 21
438.0
 31
0.0
  0
TEXT
  5
76F
  8
DATA
 62
     7
 10
-199.99999999999969
 20
-808.98459000000025
 30
0.0
 40
24.4326171875
  1
仕様および外観は予告なく変更されることがありますので、ご了承ください。
 41
0.85
 11
-199.99999999999969
 21
-784.55197281250014
 31
0.0
 73
     3
  0
LINE
  5
770
  8
DATA
  6
CONTINUOUS
 62
     7
 10
500.0
 20
13.0
 30
0.0
 11
500.0
 21
565.0
 31
0.0
  0
LINE
  5
771
  8
DATA
  6
CONTINUOUS
 62
     7
 10
813.0
 20
0.0
 30
0.0
 11
513.0
 21
0.0
 31
0.0
  0
LINE
  5
772
  8
DATA
  6
CONTINUOUS
 62
     7
 10
826.0
 20
565.0
 30
0.0
 11
826.0
 21
13.0
 31
0.0
  0
LINE
  5
773
  8
DATA
  6
CONTINUOUS
 62
     7
 10
513.0
 20
578.0
 30
0.0
 11
813.0
 21
578.0
 31
0.0
  0
LINE
  5
774
  8
DATA
  6
CONTINUOUS
 62
     7
 10
0.0
 20
701.0
 30
0.0
 11
0.0
 21
893.3241747961348
 31
0.0
  0
LINE
  5
775
  8
DATA
  6
CONTINUOUS
 62
     7
 10
386.0
 20
688.0
 30
0.0
 11
13.0
 21
688.0
 31
0.0
  0
LINE
  5
776
  8
DATA
  6
CONTINUOUS
 62
     7
 10
399.0
 20
893.3241747961348
 30
0.0
 11
399.0
 21
701.0
 31
0.0
  0
TEXT
  5
777
  8
DATA
 62
     7
 10
1712.5
 20
-648.9955650000004
 30
0.0
 40
24.4326171875
  1
2-Wayフロアモニタ  
 41
0.85
 11
1712.5
 21
-624.56294781250028
 31
0.0
 73
     3
  0
LINE
  5
778
  8
DATA
  6
CONTINUOUS
 62
     7
 10
15.5
 20
581.0
 30
0.0
 11
114.0
 21
581.0
 31
0.0
  0
LINE
  5
779
  8
DATA
  6
CONTINUOUS
 62
     7
 10
392.5
 20
904.58250504533248
 30
0.0
 11
206.00000000000011
 21
1012.258330249197
 31
0.0
  0
LINE
  5
77A
  8
DATA
  6
CONTINUOUS
 62
     7
 10
6.5
 20
904.58250504533248
 30
0.0
 11
193.00000000000011
 21
1012.258330249197
 31
0.0
  0
LINE
  5
77B
  8
DATA
  6
CONTINUOUS
 62
     7
 10
15.5
 20
740.5
 30
0.0
 11
15.5
 21
873.49999999999989
 31
0.0
  0
LINE
  5
77C
  8
DATA
  6
CONTINUOUS
 62
     7
 10
111.0
 20
737.5
 30
0.0
 11
18.5
 21
737.5
 31
0.0
  0
LINE
  5
77D
  8
DATA
  6
CONTINUOUS
 62
     7
 10
114.0
 20
873.49999999999989
 30
0.0
 11
114.0
 21
740.5
 31
0.0
  0
LINE
  5
77E
  8
DATA
  6
CONTINUOUS
 62
     7
 10
18.5
 20
876.5
 30
0.0
 11
111.0
 21
876.5
 31
0.0
  0
LINE
  5
77F
  8
DATA
  6
CONTINUOUS
 62
     7
 10
114.0
 20
578.0
 30
0.0
 11
114.0
 21
581.0
 31
0.0
  0
LINE
  5
780
  8
DATA
  6
CONTINUOUS
 62
     7
 10
15.5
 20
581.0
 30
0.0
 11
15.5
 21
578.0
 31
0.0
  0
LINE
  5
781
  8
DATA
  6
CONTINUOUS
 62
     7
 10
28.75
 20
756.0
 30
0.0
 11
28.75
 21
858.0
 31
0.0
  0
LINE
  5
782
  8
DATA
  6
CONTINUOUS
 62
     7
 10
95.750000000000014
 20
751.0
 30
0.0
 11
33.75
 21
751.0
 31
0.0
  0
LINE
  5
783
  8
DATA
  6
CONTINUOUS
 62
     7
 10
100.75
 20
858.0
 30
0.0
 11
100.75
 21
756.0
 31
0.0
  0
LINE
  5
784
  8
DATA
  6
CONTINUOUS
 62
     7
 10
33.75
 20
863.0
 30
0.0
 11
95.750000000000014
 21
863.0
 31
0.0
  0
ARC
  5
785
  8
DATA
  6
CONTINUOUS
 62
     7
 10
95.750000000000014
 20
858.0
 30
0.0
 40
5.0
 50
0.0
 51
90.0
  0
ARC
  5
786
  8
DATA
  6
CONTINUOUS
 62
     7
 10
33.75
 20
858.0
 30
0.0
 40
5.0
 50
90.0
 51
180.0
  0
ARC
  5
787
  8
DATA
  6
CONTINUOUS
 62
     7
 10
33.75
 20
756.0
 30
0.0
 40
5.0
 50
180.0
 51
270.0
  0
ARC
  5
788
  8
DATA
  6
CONTINUOUS
 62
     7
 10
95.750000000000014
 20
756.0
 30
0.0
 40
5.0
 50
270.0
 51
0.0
  0
ARC
  5
789
  8
DATA
  6
CONTINUOUS
 62
     7
 10
18.5
 20
873.49999999999989
 30
0.0
 40
3.0
 50
90.0
 51
180.0
  0
ARC
  5
78A
  8
DATA
  6
CONTINUOUS
 62
     7
 10
111.0
 20
873.49999999999989
 30
0.0
 40
3.0
 50
0.0
 51
90.0
  0
ARC
  5
78B
  8
DATA
  6
CONTINUOUS
 62
     7
 10
111.0
 20
740.5
 30
0.0
 40
3.0
 50
270.0
 51
0.0
  0
ARC
  5
78C
  8
DATA
  6
CONTINUOUS
 62
     7
 10
18.5
 20
740.5
 30
0.0
 40
3.0
 50
180.0
 51
270.0
  0
CIRCLE
  5
78D
  8
DATA
  6
CONTINUOUS
 62
     7
 10
21.5
 20
870.5
 30
0.0
 40
3.5
  0
LINE
  5
78E
  8
DATA
  6
CONTINUOUS
 62
     7
 10
19.5
 20
870.5
 30
0.0
 11
23.5
 21
870.5
 31
0.0
  0
LINE
  5
78F
  8
DATA
  6
CONTINUOUS
 62
     7
 10
21.5
 20
868.5
 30
0.0
 11
21.5
 21
872.49999999999989
 31
0.0
  0
CIRCLE
  5
790
  8
DATA
  6
CONTINUOUS
 62
     7
 10
108.0
 20
870.5
 30
0.0
 40
3.5
  0
LINE
  5
791
  8
DATA
  6
CONTINUOUS
 62
     7
 10
106.0
 20
870.5
 30
0.0
 11
110.0
 21
870.5
 31
0.0
  0
LINE
  5
792
  8
DATA
  6
CONTINUOUS
 62
     7
 10
108.0
 20
868.5
 30
0.0
 11
108.0
 21
872.49999999999989
 31
0.0
  0
CIRCLE
  5
793
  8
DATA
  6
CONTINUOUS
 62
     7
 10
21.5
 20
807.0
 30
0.0
 40
3.5
  0
LINE
  5
794
  8
DATA
  6
CONTINUOUS
 62
     7
 10
19.5
 20
807.0
 30
0.0
 11
23.5
 21
807.0
 31
0.0
  0
LINE
  5
795
  8
DATA
  6
CONTINUOUS
 62
     7
 10
21.5
 20
805.0
 30
0.0
 11
21.5
 21
809.0
 31
0.0
  0
CIRCLE
  5
796
  8
DATA
  6
CONTINUOUS
 62
     7
 10
108.0
 20
807.0
 30
0.0
 40
3.5
  0
LINE
  5
797
  8
DATA
  6
CONTINUOUS
 62
     7
 10
106.0
 20
807.0
 30
0.0
 11
110.0
 21
807.0
 31
0.0
  0
LINE
  5
798
  8
DATA
  6
CONTINUOUS
 62
     7
 10
108.0
 20
805.0
 30
0.0
 11
108.0
 21
809.0
 31
0.0
  0
CIRCLE
  5
799
  8
DATA
  6
CONTINUOUS
 62
     7
 10
21.5
 20
743.5
 30
0.0
 40
3.5
  0
LINE
  5
79A
  8
DATA
  6
CONTINUOUS
 62
     7
 10
19.5
 20
743.5
 30
0.0
 11
23.5
 21
743.5
 31
0.0
  0
LINE
  5
79B
  8
DATA
  6
CONTINUOUS
 62
     7
 10
21.5
 20
741.5
 30
0.0
 11
21.5
 21
745.5
 31
0.0
  0
CIRCLE
  5
79C
  8
DATA
  6
CONTINUOUS
 62
     7
 10
108.0
 20
743.5
 30
0.0
 40
3.5
  0
LINE
  5
79D
  8
DATA
  6
CONTINUOUS
 62
     7
 10
106.0
 20
743.5
 30
0.0
 11
110.0
 21
743.5
 31
0.0
  0
LINE
  5
79E
  8
DATA
  6
CONTINUOUS
 62
     7
 10
108.0
 20
741.5
 30
0.0
 11
108.0
 21
745.5
 31
0.0
  0
ARC
  5
79F
  8
DATA
  6
CONTINUOUS
 62
     7
 10
21.49999999999989
 20
577.66666666666652
 30
0.0
 40
4.8333333333335204
 50
43.602818972703993
 51
136.3971810272941
  0
ARC
  5
7A0
  8
DATA
  6
CONTINUOUS
 62
     7
 10
107.9999999999998
 20
577.66666666666652
 30
0.0
 40
4.8333333333335204
 50
43.602818972703993
 51
136.3971810272941
  0
LINE
  5
7A1
  8
DATA
  6
CONTINUOUS
 62
     7
 10
18.0
 20
-12.0
 30
0.0
 11
52.0
 21
-12.0
 31
0.0
  0
LINE
  5
7A2
  8
DATA
  6
CONTINUOUS
 62
     7
 10
18.0
 20
-12.0
 30
0.0
 11
16.75
 21
0.0
 31
0.0
  0
LINE
  5
7A3
  8
DATA
  6
CONTINUOUS
 62
     7
 10
53.25
 20
0.0
 30
0.0
 11
52.0
 21
-12.0
 31
0.0
  0
LINE
  5
7A4
  8
DATA
  6
CONTINUOUS
 62
     7
 10
347.0
 20
-12.0
 30
0.0
 11
381.0
 21
-12.0
 31
0.0
  0
LINE
  5
7A5
  8
DATA
  6
CONTINUOUS
 62
     7
 10
347.0
 20
-12.0
 30
0.0
 11
345.75
 21
0.0
 31
0.0
  0
LINE
  5
7A6
  8
DATA
  6
CONTINUOUS
 62
     7
 10
382.25
 20
0.0
 30
0.0
 11
381.0
 21
-12.0
 31
0.0
  0
ARC
  5
7A7
  8
DATA
  6
CONTINUOUS
 62
     7
 10
13.0
 20
701.0
 30
0.0
 40
13.0
 50
180.0
 51
270.0
  0
ARC
  5
7A8
  8
DATA
  6
CONTINUOUS
 62
     7
 10
199.50000000000011
 20
1001.0
 30
0.0
 40
12.999999999999989
 50
60.0
 51
120.0
  0
ARC
  5
7A9
  8
DATA
  6
CONTINUOUS
 62
     7
 10
386.0
 20
701.0
 30
0.0
 40
13.0
 50
270.0
 51
0.0
  0
ARC
  5
7AA
  8
DATA
  6
CONTINUOUS
 62
     7
 10
386.0
 20
565.0
 30
0.0
 40
13.0
 50
0.0
 51
90.0
  0
ARC
  5
7AB
  8
DATA
  6
CONTINUOUS
 62
     7
 10
13.0
 20
565.0
 30
0.0
 40
13.0
 50
90.0
 51
180.0
  0
ARC
  5
7AC
  8
DATA
  6
CONTINUOUS
 62
     7
 10
13.0
 20
13.0
 30
0.0
 40
13.0
 50
180.0
 51
270.0
  0
ARC
  5
7AD
  8
DATA
  6
CONTINUOUS
 62
     7
 10
386.0
 20
13.0
 30
0.0
 40
13.0
 50
270.0
 51
0.0
  0
ARC
  5
7AE
  8
DATA
  6
CONTINUOUS
 62
     7
 10
513.0
 20
13.0
 30
0.0
 40
13.0
 50
180.0
 51
270.0
  0
ARC
  5
7AF
  8
DATA
  6
CONTINUOUS
 62
     7
 10
813.0
 20
13.0
 30
0.0
 40
13.0
 50
270.0
 51
0.0
  0
ARC
  5
7B0
  8
DATA
  6
CONTINUOUS
 62
     7
 10
813.0
 20
565.0
 30
0.0
 40
13.0
 50
0.0
 51
90.0
  0
ARC
  5
7B1
  8
DATA
  6
CONTINUOUS
 62
     7
 10
513.0
 20
565.0
 30
0.0
 40
13.0
 50
90.0
 51
180.0
  0
ARC
  5
7B2
  8
DATA
  6
CONTINUOUS
 62
     7
 10
386.0
 20
893.3241747961348
 30
0.0
 40
13.0
 50
0.0
 51
60.0
  0
ARC
  5
7B3
  8
DATA
  6
CONTINUOUS
 62
     7
 10
13.0
 20
893.3241747961348
 30
0.0
 40
13.00000000000002
 50
119.9999999999999
 51
179.99999999999989
  0
LINE
  5
7B4
  8
DATA
  6
CONTINUOUS
 62
     7
 10
0.0
 20
-225.0
 30
0.0
 11
0.0
 21
-417.32417479613463
 31
0.0
  0
LINE
  5
7B5
  8
DATA
  6
CONTINUOUS
 62
     7
 10
386.0
 20
-212.0
 30
0.0
 11
13.0
 21
-212.0
 31
0.0
  0
LINE
  5
7B6
  8
DATA
  6
CONTINUOUS
 62
     7
 10
399.0
 20
-417.32417479613463
 30
0.0
 11
399.0
 21
-225.0
 31
0.0
  0
LINE
  5
7B7
  8
DATA
  6
CONTINUOUS
 62
     7
 10
392.5
 20
-428.5825050453322
 30
0.0
 11
206.00000000000011
 21
-536.25833024919757
 31
0.0
  0
LINE
  5
7B8
  8
DATA
  6
CONTINUOUS
 62
     7
 10
6.5
 20
-428.58250504533248
 30
0.0
 11
193.00000000000011
 21
-536.25833024919757
 31
0.0
  0
ARC
  5
7B9
  8
DATA
  6
CONTINUOUS
 62
     7
 10
13.0
 20
-225.0
 30
0.0
 40
13.0
 50
90.0
 51
180.0
  0
ARC
  5
7BA
  8
DATA
  6
CONTINUOUS
 62
     7
 10
199.50000000000011
 20
-525.0
 30
0.0
 40
12.999999999999879
 50
239.99999999999969
 51
300.00000000000028
  0
ARC
  5
7BB
  8
DATA
  6
CONTINUOUS
 62
     7
 10
386.0
 20
-225.0
 30
0.0
 40
13.0
 50
0.0
 51
90.0
  0
ARC
  5
7BC
  8
DATA
  6
CONTINUOUS
 62
     7
 10
386.0
 20
-417.32417479613463
 30
0.0
 40
12.999999999999879
 50
300.00000000000028
 51
0.0
  0
ARC
  5
7BD
  8
DATA
  6
CONTINUOUS
 62
     7
 10
13.0
 20
-417.32417479613463
 30
0.0
 40
13.0
 50
180.0
 51
240.0000000000002
  0
CIRCLE
  5
7BE
  8
DATA
  6
CONTINUOUS
 62
     7
 10
35.0
 20
-247.0
 30
0.0
 40
16.999999999999918
  0
CIRCLE
  5
7BF
  8
DATA
  6
CONTINUOUS
 62
     7
 10
35.0
 20
-247.0
 30
0.0
 40
18.24999999999995
  0
CIRCLE
  5
7C0
  8
DATA
  6
CONTINUOUS
 62
     7
 10
35.0
 20
-247.0
 30
0.0
 40
4.9999999999999316
  0
LINE
  5
7C1
  8
DATA
  6
CONTINUOUS
 62
     7
 10
32.0
 20
-247.0
 30
0.0
 11
38.0
 21
-247.0
 31
0.0
  0
LINE
  5
7C2
  8
DATA
  6
CONTINUOUS
 62
     7
 10
35.0
 20
-250.0
 30
0.0
 11
35.0
 21
-244.0
 31
0.0
  0
CIRCLE
  5
7C3
  8
DATA
  6
CONTINUOUS
 62
     7
 10
364.0
 20
-247.0
 30
0.0
 40
16.999999999999918
  0
CIRCLE
  5
7C4
  8
DATA
  6
CONTINUOUS
 62
     7
 10
364.0
 20
-247.0
 30
0.0
 40
18.24999999999995
  0
CIRCLE
  5
7C5
  8
DATA
  6
CONTINUOUS
 62
     7
 10
364.0
 20
-247.0
 30
0.0
 40
4.9999999999999316
  0
LINE
  5
7C6
  8
DATA
  6
CONTINUOUS
 62
     7
 10
361.0
 20
-247.0
 30
0.0
 11
367.0
 21
-247.0
 31
0.0
  0
LINE
  5
7C7
  8
DATA
  6
CONTINUOUS
 62
     7
 10
364.0
 20
-250.0
 30
0.0
 11
364.0
 21
-244.0
 31
0.0
  0
CIRCLE
  5
7C8
  8
DATA
  6
CONTINUOUS
 62
     7
 10
199.50000000000011
 20
-502.0
 30
0.0
 40
16.999999999999918
  0
CIRCLE
  5
7C9
  8
DATA
  6
CONTINUOUS
 62
     7
 10
199.50000000000011
 20
-502.0
 30
0.0
 40
18.24999999999995
  0
CIRCLE
  5
7CA
  8
DATA
  6
CONTINUOUS
 62
     7
 10
199.50000000000011
 20
-502.0
 30
0.0
 40
4.9999999999999316
  0
LINE
  5
7CB
  8
DATA
  6
CONTINUOUS
 62
     7
 10
196.50000000000011
 20
-502.0
 30
0.0
 11
202.50000000000011
 21
-502.0
 31
0.0
  0
LINE
  5
7CC
  8
DATA
  6
CONTINUOUS
 62
     7
 10
199.50000000000011
 20
-505.0
 30
0.0
 11
199.50000000000011
 21
-499.0
 31
0.0
  0
LINE
  5
7CD
  8
DATA
  6
CONTINUOUS
 62
     7
 10
182.5
 20
-12.0
 30
0.0
 11
216.5
 21
-12.0
 31
0.0
  0
LINE
  5
7CE
  8
DATA
  6
CONTINUOUS
 62
     7
 10
182.5
 20
-12.0
 30
0.0
 11
181.5625
 21
-3.0
 31
0.0
  0
LINE
  5
7CF
  8
DATA
  6
CONTINUOUS
 62
     7
 10
217.4375
 20
-3.0
 30
0.0
 11
216.5
 21
-12.0
 31
0.0
  0
LINE
  5
7D0
  8
DATA
  6
CONTINUOUS
 62
     7
 10
518.0
 20
-12.0
 30
0.0
 11
552.0
 21
-12.0
 31
0.0
  0
LINE
  5
7D1
  8
DATA
  6
CONTINUOUS
 62
     7
 10
518.0
 20
-12.0
 30
0.0
 11
516.75
 21
0.0
 31
0.0
  0
LINE
  5
7D2
  8
DATA
  6
CONTINUOUS
 62
     7
 10
553.24999999999989
 20
0.0
 30
0.0
 11
552.0
 21
-12.0
 31
0.0
  0
LINE
  5
7D3
  8
DATA
  6
CONTINUOUS
 62
     7
 10
773.0
 20
-12.0
 30
0.0
 11
807.0
 21
-12.0
 31
0.0
  0
LINE
  5
7D4
  8
DATA
  6
CONTINUOUS
 62
     7
 10
773.0
 20
-12.0
 30
0.0
 11
771.75
 21
0.0
 31
0.0
  0
LINE
  5
7D5
  8
DATA
  6
CONTINUOUS
 62
     7
 10
808.24999999999989
 20
0.0
 30
0.0
 11
807.0
 21
-12.0
 31
0.0
  0
LINE
  5
7D6
  8
DATA
  6
CONTINUOUS
 62
     7
 10
157.0
 20
-3.0
 30
0.0
 11
157.0
 21
0.0
 31
0.0
  0
LINE
  5
7D7
  8
DATA
  6
CONTINUOUS
 62
     7
 10
242.0
 20
-3.0
 30
0.0
 11
242.0
 21
0.0
 31
0.0
  0
LINE
  5
7D8
  8
DATA
  6
CONTINUOUS
 62
     7
 10
157.0
 20
-3.0
 30
0.0
 11
242.0
 21
-3.0
 31
0.0
  0
LINE
  5
7D9
  8
DATA
  6
CONTINUOUS
 62
     7
 10
573.0
 20
-3.0
 30
0.0
 11
713.0
 21
-3.0
 31
0.0
  0
LINE
  5
7DA
  8
DATA
  6
CONTINUOUS
 62
     7
 10
713.0
 20
-3.0
 30
0.0
 11
713.0
 21
0.0
 31
0.0
  0
LINE
  5
7DB
  8
DATA
  6
CONTINUOUS
 62
     7
 10
573.0
 20
-3.0
 30
0.0
 11
573.0
 21
0.0
 31
0.0
  0
LINE
  5
7DC
  8
DATA
  6
CONTINUOUS
 62
     7
 10
144.50000000000031
 20
811.49999999999943
 30
0.0
 11
254.50000000000011
 21
811.49999999999955
 31
0.0
  0
LINE
  5
7DD
  8
DATA
  6
CONTINUOUS
 62
     7
 10
144.50000000000031
 20
756.49999999999943
 30
0.0
 11
144.4999999999998
 21
924.49999999999852
 31
0.0
  0
LINE
  5
7DE
  8
DATA
  6
CONTINUOUS
 62
     7
 10
117.0000000000001
 20
739.0
 30
0.0
 11
117.0000000000001
 21
941.99999999999852
 31
0.0
  0
LINE
  5
7DF
  8
DATA
  6
CONTINUOUS
 62
     7
 10
269.5000000000004
 20
739.49999999999943
 30
0.0
 11
269.50000000000063
 21
746.49999999999943
 31
0.0
  0
LINE
  5
7E0
  8
DATA
  6
CONTINUOUS
 62
     7
 10
266.00000000000063
 20
742.99999999999886
 30
0.0
 11
273.0000000000004
 21
743.00000000000034
 31
0.0
  0
CIRCLE
  5
7E1
  8
DATA
  6
CONTINUOUS
 62
     7
 10
269.50000000000063
 20
742.99999999999943
 30
0.0
 40
5.000000000000016
  0
ARC
  5
7E2
  8
DATA
  6
CONTINUOUS
 62
     7
 10
271.99999999999989
 20
738.99999999999852
 30
0.0
 40
10.0
 50
270.0
 51
0.0
  0
LINE
  5
7E3
  8
DATA
  6
CONTINUOUS
 62
     7
 10
144.50000000000031
 20
756.49999999999943
 30
0.0
 11
254.4999999999992
 21
756.49999999999943
 31
0.0
  0
LINE
  5
7E4
  8
DATA
  6
CONTINUOUS
 62
     7
 10
129.4999999999996
 20
739.49999999999943
 30
0.0
 11
129.50000000000031
 21
746.49999999999989
 31
0.0
  0
LINE
  5
7E5
  8
DATA
  6
CONTINUOUS
 62
     7
 10
125.9999999999998
 20
742.99999999999886
 30
0.0
 11
133.00000000000031
 21
742.99999999999943
 31
0.0
  0
CIRCLE
  5
7E6
  8
DATA
  6
CONTINUOUS
 62
     7
 10
129.4999999999998
 20
742.99999999999943
 30
0.0
 40
5.000000000000016
  0
ARC
  5
7E7
  8
DATA
  6
CONTINUOUS
 62
     7
 10
127.0000000000003
 20
738.99999999999943
 30
0.0
 40
10.0
 50
180.0
 51
270.0
  0
LINE
  5
7E8
  8
DATA
  6
CONTINUOUS
 62
     7
 10
127.0000000000001
 20
728.99999999999943
 30
0.0
 11
272.00000000000011
 21
728.99999999999898
 31
0.0
  0
LINE
  5
7E9
  8
DATA
  6
CONTINUOUS
 62
     7
 10
144.4999999999998
 20
924.49999999999852
 30
0.0
 11
254.4999999999994
 21
924.49999999999829
 31
0.0
  0
LINE
  5
7EA
  8
DATA
  6
CONTINUOUS
 62
     7
 10
254.4999999999994
 20
924.49999999999829
 30
0.0
 11
254.4999999999992
 21
756.49999999999943
 31
0.0
  0
LINE
  5
7EB
  8
DATA
  6
CONTINUOUS
 62
     7
 10
282.0000000000004
 20
738.99999999999943
 30
0.0
 11
282.00000000000011
 21
941.99999999999955
 31
0.0
  0
LINE
  5
7EC
  8
DATA
  6
CONTINUOUS
 62
     7
 10
129.4999999999996
 20
934.49999999999966
 30
0.0
 11
129.4999999999992
 21
941.49999999999807
 31
0.0
  0
LINE
  5
7ED
  8
DATA
  6
CONTINUOUS
 62
     7
 10
126.0000000000001
 20
937.99999999999909
 30
0.0
 11
132.9999999999994
 21
937.99999999999829
 31
0.0
  0
CIRCLE
  5
7EE
  8
DATA
  6
CONTINUOUS
 62
     7
 10
129.4999999999996
 20
937.99999999999875
 30
0.0
 40
5.000000000000016
  0
ARC
  5
7EF
  8
DATA
  6
CONTINUOUS
 62
     7
 10
127.0000000000003
 20
941.99999999999875
 30
0.0
 40
10.0
 50
89.999999999998721
 51
180.0
  0
LINE
  5
7F0
  8
DATA
  6
CONTINUOUS
 62
     7
 10
144.50000000000031
 20
818.49999999999955
 30
0.0
 11
254.5000000000006
 21
818.49999999999955
 31
0.0
  0
LINE
  5
7F1
  8
DATA
  6
CONTINUOUS
 62
     7
 10
144.4999999999998
 20
838.12222163099932
 30
0.0
 11
254.5000000000004
 21
838.12222163099943
 31
0.0
  0
LINE
  5
7F2
  8
DATA
  6
CONTINUOUS
 62
     7
 10
144.50000000000051
 20
844.5
 30
0.0
 11
254.5000000000004
 21
844.49999999999943
 31
0.0
  0
LINE
  5
7F3
  8
DATA
  6
CONTINUOUS
 62
     7
 10
127.0000000000003
 20
951.99999999999829
 30
0.0
 11
272.00000000000051
 21
952.0
 31
0.0
  0
LINE
  5
7F4
  8
DATA
  6
CONTINUOUS
 62
     7
 10
269.5000000000004
 20
934.49999999999966
 30
0.0
 11
269.5000000000008
 21
941.5
 31
0.0
  0
LINE
  5
7F5
  8
DATA
  6
CONTINUOUS
 62
     7
 10
266.00000000000063
 20
937.99999999999966
 30
0.0
 11
272.99999999999972
 21
937.99999999999875
 31
0.0
  0
CIRCLE
  5
7F6
  8
DATA
  6
CONTINUOUS
 62
     7
 10
269.50000000000102
 20
938.00000000000057
 30
0.0
 40
5.000000000000016
  0
ARC
  5
7F7
  8
DATA
  6
CONTINUOUS
 62
     7
 10
271.99999999999972
 20
941.99999999999875
 30
0.0
 40
10.0
 50
359.99999999999869
 51
90.0
  0
LINE
  5
7F8
  8
DATA
  6
CONTINUOUS
 62
     7
 10
167.5000000000002
 20
838.11999999999944
 30
0.0
 11
167.5000000000002
 21
818.49999999999955
 31
0.0
  0
ARC
  5
7F9
  8
DATA
  6
CONTINUOUS
 62
     7
 10
156.38462509085869
 20
825.44691523616405
 30
0.0
 40
0.2550264918547491
 50
307.64190249759201
 51
354.26701928941958
  0
LINE
  5
7FA
  8
DATA
  6
CONTINUOUS
 62
     7
 10
149.8339600000003
 20
829.46571999999924
 30
0.0
 11
151.0295280000002
 21
832.31442399999924
 31
0.0
  0
LINE
  5
7FB
  8
DATA
  6
CONTINUOUS
 62
     7
 10
149.8339600000003
 20
829.46571999999924
 30
0.0
 11
148.6531440000002
 21
832.31442399999924
 31
0.0
  0
LINE
  5
7FC
  8
DATA
  6
CONTINUOUS
 62
     7
 10
158.89668000000029
 20
824.31442399999924
 30
0.0
 11
158.89668000000029
 21
832.31442399999924
 31
0.0
  0
LINE
  5
7FD
  8
DATA
  6
CONTINUOUS
 62
     7
 10
160.4317360000002
 20
832.31442399999924
 30
0.0
 11
160.4317360000002
 21
825.53951199999915
 31
0.0
  0
LINE
  5
7FE
  8
DATA
  6
CONTINUOUS
 62
     7
 10
151.5904160000002
 20
832.31442399999924
 30
0.0
 11
151.5904160000002
 21
825.53951199999915
 31
0.0
  0
LINE
  5
7FF
  8
DATA
  6
CONTINUOUS
 62
     7
 10
153.06643200000019
 20
832.31442399999924
 30
0.0
 11
153.06643200000019
 21
825.53951199999915
 31
0.0
  0
LINE
  5
800
  8
DATA
  6
CONTINUOUS
 62
     7
 10
153.83396000000019
 20
832.31442399999924
 30
0.0
 11
153.83396000000019
 21
824.31442399999924
 31
0.0
  0
LINE
  5
801
  8
DATA
  6
CONTINUOUS
 62
     7
 10
155.17713600000019
 20
831.56166399999915
 30
0.0
 11
155.17713600000019
 21
828.99339199999929
 31
0.0
  0
LINE
  5
802
  8
DATA
  6
CONTINUOUS
 62
     7
 10
158.0560000000003
 20
829.14199999999926
 30
0.0
 11
158.0560000000003
 21
831.01552799999922
 31
0.0
  0
LINE
  5
803
  8
DATA
  6
CONTINUOUS
 62
     7
 10
156.63837600000019
 20
831.20741599999894
 30
0.0
 11
156.63837600000019
 21
829.34763199999895
 31
0.0
  0
ARC
  5
804
  8
DATA
  6
CONTINUOUS
 62
     7
 10
151.29422400000021
 20
826.3686639999994
 30
0.0
 40
2.0630827401343632
 50
264.69085622153381
 51
323.99119915424137
  0
LINE
  5
805
  8
DATA
  6
CONTINUOUS
 62
     7
 10
150.4686480000002
 20
826.82365599999923
 30
0.0
 11
150.4686480000002
 21
825.53952799999934
 31
0.0
  0
LINE
  5
806
  8
DATA
  6
CONTINUOUS
 62
     7
 10
150.4686480000002
 20
826.82365599999923
 30
0.0
 11
149.1402320000002
 21
826.82365599999923
 31
0.0
  0
LINE
  5
807
  8
DATA
  6
CONTINUOUS
 62
     7
 10
149.1402320000002
 20
826.82365599999923
 30
0.0
 11
149.1402320000002
 21
825.53952799999934
 31
0.0
  0
ARC
  5
808
  8
DATA
  6
CONTINUOUS
 62
     7
 10
151.03234400000019
 20
825.52221599999928
 30
0.0
 40
0.5583430609939198
 50
269.71184879275501
 51
1.7759870056726179
  0
ARC
  5
809
  8
DATA
  6
CONTINUOUS
 62
     7
 10
151.0267200000003
 20
825.52221599999928
 30
0.0
 40
0.5583402059676894
 50
178.22401299431721
 51
270.28815120724312
  0
ARC
  5
80A
  8
DATA
  6
CONTINUOUS
 62
     7
 10
150.91244000000009
 20
826.3686639999994
 30
0.0
 40
2.0630793895572141
 50
216.00880084575829
 51
275.30914377846659
  0
ARC
  5
80B
  8
DATA
  6
CONTINUOUS
 62
     7
 10
150.07258400000021
 20
825.58475199999884
 30
0.0
 40
0.9334401665410073
 50
182.7769954499912
 51
207.3596066671449
  0
CIRCLE
  5
80C
  8
DATA
  6
CONTINUOUS
 62
     7
 10
149.91514400000011
 20
828.35870399999908
 30
0.0
 40
0.7601440000000821
  0
LINE
  5
80D
  8
DATA
  6
CONTINUOUS
 62
     7
 10
162.89668000000029
 20
824.3144319999991
 30
0.0
 11
158.89668000000029
 21
824.3144319999991
 31
0.0
  0
LINE
  5
80E
  8
DATA
  6
CONTINUOUS
 62
     7
 10
162.89668000000029
 20
824.3144319999991
 30
0.0
 11
162.89668000000029
 21
826.82366399999921
 31
0.0
  0
LINE
  5
80F
  8
DATA
  6
CONTINUOUS
 62
     7
 10
162.89668000000029
 20
826.82365599999923
 30
0.0
 11
161.5535120000003
 21
826.82365599999923
 31
0.0
  0
LINE
  5
810
  8
DATA
  6
CONTINUOUS
 62
     7
 10
161.5535120000003
 20
826.82365599999923
 30
0.0
 11
161.5535120000003
 21
825.53952799999934
 31
0.0
  0
LINE
  5
811
  8
DATA
  6
CONTINUOUS
 62
     7
 10
153.83396000000019
 20
824.3144319999991
 30
0.0
 11
156.63837600000019
 21
824.31443999999942
 31
0.0
  0
LINE
  5
812
  8
DATA
  6
CONTINUOUS
 62
     7
 10
155.17712800000029
 20
825.06719999999893
 30
0.0
 11
155.90037600000019
 21
825.06719999999893
 31
0.0
  0
LINE
  5
813
  8
DATA
  6
CONTINUOUS
 62
     7
 10
155.17713600000019
 20
825.06719999999893
 30
0.0
 11
155.17713600000019
 21
828.22587199999919
 31
0.0
  0
LINE
  5
814
  8
DATA
  6
CONTINUOUS
 62
     7
 10
155.17712800000029
 20
828.22587199999919
 30
0.0
 11
155.90037600000019
 21
828.22587199999919
 31
0.0
  0
LINE
  5
815
  8
DATA
  6
CONTINUOUS
 62
     7
 10
156.63837600000019
 20
825.42143999999928
 30
0.0
 11
156.63837600000019
 21
827.87163199999929
 31
0.0
  0
ARC
  5
816
  8
DATA
  6
CONTINUOUS
 62
     7
 10
152.1340800000003
 20
825.58475199999884
 30
0.0
 40
0.9334388382920014
 50
332.64039333285672
 51
357.22300455000811
  0
ARC
  5
817
  8
DATA
  6
CONTINUOUS
 62
     7
 10
160.99543200000011
 20
825.52221599999928
 30
0.0
 40
0.5583430609939198
 50
269.71184879275501
 51
1.7759870056726179
  0
ARC
  5
818
  8
DATA
  6
CONTINUOUS
 62
     7
 10
160.98981600000019
 20
825.52221599999928
 30
0.0
 40
0.5583402059676894
 50
178.22401299431721
 51
270.28815120724312
  0
LINE
  5
819
  8
DATA
  6
CONTINUOUS
 62
     7
 10
158.05535200000031
 20
825.59856799999909
 30
0.0
 11
158.05535200000031
 21
827.72402399999919
 31
0.0
  0
LINE
  5
81A
  8
DATA
  6
CONTINUOUS
 62
     7
 10
155.17712800000029
 20
828.99339199999929
 30
0.0
 11
155.90037600000019
 21
828.99339199999929
 31
0.0
  0
ARC
  5
81B
  8
DATA
  6
CONTINUOUS
 62
     7
 10
156.5366800000001
 20
825.83312799999908
 30
0.0
 40
1.5220891293743799
 50
273.83098160911749
 51
351.13514730980222
  0
LINE
  5
81C
  8
DATA
  6
CONTINUOUS
 62
     7
 10
151.5904160000002
 20
832.31442399999924
 30
0.0
 11
153.06643200000019
 21
832.31442399999924
 31
0.0
  0
LINE
  5
81D
  8
DATA
  6
CONTINUOUS
 62
     7
 10
148.6531440000002
 20
832.31442399999924
 30
0.0
 11
151.0295280000002
 21
832.31442399999924
 31
0.0
  0
LINE
  5
81E
  8
DATA
  6
CONTINUOUS
 62
     7
 10
158.89668000000029
 20
832.31442399999924
 30
0.0
 11
160.4317360000002
 21
832.31442399999924
 31
0.0
  0
LINE
  5
81F
  8
DATA
  6
CONTINUOUS
 62
     7
 10
153.83396000000019
 20
832.31442399999924
 30
0.0
 11
156.65379210251751
 21
832.31441752500689
 31
0.0
  0
LINE
  5
820
  8
DATA
  6
CONTINUOUS
 62
     7
 10
155.17712800000029
 20
831.56165599999929
 30
0.0
 11
155.90037600000019
 21
831.56165599999929
 31
0.0
  0
ARC
  5
821
  8
DATA
  6
CONTINUOUS
 62
     7
 10
156.5518560000003
 20
830.79805599999929
 30
0.0
 40
1.5197839463292
 50
8.2269238590131977
 51
86.154126692156353
  0
ARC
  5
822
  8
DATA
  6
CONTINUOUS
 62
     7
 10
155.90891637008281
 20
826.47015036846869
 30
0.0
 40
1.4029763627054681
 50
269.65121993761488
 51
282.82648280687181
  0
ARC
  5
823
  8
DATA
  6
CONTINUOUS
 62
     7
 10
156.0664928219735
 20
825.87699975101759
 30
0.0
 40
0.789950322954552
 50
281.23310362266358
 51
306.86200889407331
  0
ARC
  5
824
  8
DATA
  6
CONTINUOUS
 62
     7
 10
156.38462509085869
 20
827.84615676383453
 30
0.0
 40
0.2550264918547884
 50
5.7329807106312574
 51
52.358097502419717
  0
ARC
  5
825
  8
DATA
  6
CONTINUOUS
 62
     7
 10
155.90891637008281
 20
826.82292163152965
 30
0.0
 40
1.4029763627054139
 50
77.173517193127665
 51
90.348780062385188
  0
ARC
  5
826
  8
DATA
  6
CONTINUOUS
 62
     7
 10
156.0664928219735
 20
827.41607224898064
 30
0.0
 40
0.7899503229547003
 50
53.137991105934212
 51
78.766896377338497
  0
ARC
  5
827
  8
DATA
  6
CONTINUOUS
 62
     7
 10
157.28120800000019
 20
827.6716959999992
 30
0.0
 40
0.7759105311311049
 50
3.8670063598290492
 51
88.361634567900765
  0
ARC
  5
828
  8
DATA
  6
CONTINUOUS
 62
     7
 10
157.28049600000031
 20
829.22363199999904
 30
0.0
 40
0.7766815519579519
 50
271.68928210464469
 51
356.07828298265707
  0
ARC
  5
829
  8
DATA
  6
CONTINUOUS
 62
     7
 10
156.38462509085869
 20
829.37310723616395
 30
0.0
 40
0.2550264918548391
 50
307.64190249757638
 51
354.2670192893687
  0
ARC
  5
82A
  8
DATA
  6
CONTINUOUS
 62
     7
 10
155.90891637008281
 20
830.39634236846859
 30
0.0
 40
1.4029763627052401
 50
269.65121993761483
 51
282.82648280687391
  0
ARC
  5
82B
  8
DATA
  6
CONTINUOUS
 62
     7
 10
156.0664928219735
 20
829.80319175101761
 30
0.0
 40
0.7899503229546636
 50
281.23310362266199
 51
306.862008894067
  0
ARC
  5
82C
  8
DATA
  6
CONTINUOUS
 62
     7
 10
156.38462509085869
 20
831.18194076383463
 30
0.0
 40
0.2550264918547657
 50
5.7329807105804296
 51
52.358097502408043
  0
ARC
  5
82D
  8
DATA
  6
CONTINUOUS
 62
     7
 10
155.90891637008281
 20
830.15870563152964
 30
0.0
 40
1.4029763627054139
 50
77.173517193127665
 51
90.348780062385188
  0
ARC
  5
82E
  8
DATA
  6
CONTINUOUS
 62
     7
 10
156.0664928219735
 20
830.75185624898086
 30
0.0
 40
0.7899503229546092
 50
53.137991105929267
 51
78.766896377337289
  0
LINE
  5
82F
  8
DATA
  6
CONTINUOUS
 62
     7
 10
95.25
 20
795.0
 30
0.0
 11
95.25
 21
773.0
 31
0.0
  0
LINE
  5
830
  8
DATA
  6
CONTINUOUS
 62
     7
 10
93.250000000000014
 20
797.0
 30
0.0
 11
66.25
 21
797.0
 31
0.0
  0
LINE
  5
831
  8
DATA
  6
CONTINUOUS
 62
     7
 10
64.25
 20
795.0
 30
0.0
 11
64.25
 21
773.0
 31
0.0
  0
LINE
  5
832
  8
DATA
  6
CONTINUOUS
 62
     7
 10
93.250000000000014
 20
771.0
 30
0.0
 11
66.25
 21
771.0
 31
0.0
  0
ARC
  5
833
  8
DATA
  6
CONTINUOUS
 62
     7
 10
93.250000000000014
 20
795.0
 30
0.0
 40
2.0
 50
0.0
 51
90.0
  0
ARC
  5
834
  8
DATA
  6
CONTINUOUS
 62
     7
 10
66.25
 20
795.0
 30
0.0
 40
2.0
 50
90.0
 51
180.0
  0
ARC
  5
835
  8
DATA
  6
CONTINUOUS
 62
     7
 10
66.25
 20
773.0
 30
0.0
 40
2.0
 50
180.0
 51
270.0
  0
ARC
  5
836
  8
DATA
  6
CONTINUOUS
 62
     7
 10
93.250000000000014
 20
773.0
 30
0.0
 40
2.0
 50
270.0
 51
0.0
  0
POLYLINE
  5
837
  8
DATA
  6
CONTINUOUS
 62
     7
 66
     1
 10
0.0
 20
0.0
 30
0.0
 70
   129
  0
VERTEX
  5
9EE
  8
DATA
  6
CONTINUOUS
 62
     7
 10
65.75
 20
774.5
 30
0.0
 42
-0.4142135623730951
  0
VERTEX
  5
9EF
  8
DATA
  6
CONTINUOUS
 62
     7
 10
67.75
 20
776.5
 30
0.0
 42
-0.4142135623730951
  0
VERTEX
  5
9F0
  8
DATA
  6
CONTINUOUS
 62
     7
 10
69.75
 20
774.5
 30
0.0
 42
-0.4142135623730951
  0
VERTEX
  5
9F1
  8
DATA
  6
CONTINUOUS
 62
     7
 10
67.75
 20
772.5
 30
0.0
 42
-0.4142135623730951
  0
VERTEX
  5
9F2
  8
DATA
  6
CONTINUOUS
 62
     7
 10
65.75
 20
774.5
 30
0.0
  0
SEQEND
  5
9F3
  8
DATA
  6
CONTINUOUS
 62
     7
  0
POLYLINE
  5
83E
  8
DATA
  6
CONTINUOUS
 62
     7
 66
     1
 10
0.0
 20
0.0
 30
0.0
 70
   129
  0
VERTEX
  5
9F4
  8
DATA
  6
CONTINUOUS
 62
     7
 10
68.0
 20
784.0
 30
0.0
 42
-0.4142135623730951
  0
VERTEX
  5
9F5
  8
DATA
  6
CONTINUOUS
 62
     7
 10
79.75
 20
795.75
 30
0.0
 42
-0.4142135623730951
  0
VERTEX
  5
9F6
  8
DATA
  6
CONTINUOUS
 62
     7
 10
91.5
 20
784.0
 30
0.0
 42
-0.4142135623730951
  0
VERTEX
  5
9F7
  8
DATA
  6
CONTINUOUS
 62
     7
 10
79.75
 20
772.25
 30
0.0
 42
-0.4142135623730951
  0
VERTEX
  5
9F8
  8
DATA
  6
CONTINUOUS
 62
     7
 10
68.0
 20
784.0
 30
0.0
  0
SEQEND
  5
9F9
  8
DATA
  6
CONTINUOUS
 62
     7
  0
LINE
  5
845
  8
DATA
  6
CONTINUOUS
 62
     7
 10
89.749999999999986
 20
787.0
 30
0.0
 11
89.749999999999986
 21
781.0
 31
0.0
  0
LINE
  5
846
  8
DATA
  6
CONTINUOUS
 62
     7
 10
69.75
 20
786.0
 30
0.0
 11
69.75
 21
782.0
 31
0.0
  0
LINE
  5
847
  8
DATA
  6
CONTINUOUS
 62
     7
 10
69.75
 20
786.0
 30
0.0
 11
70.949999999999932
 21
786.0
 31
0.0
  0
LINE
  5
848
  8
DATA
  6
CONTINUOUS
 62
     7
 10
69.75
 20
782.0
 30
0.0
 11
70.949999999999932
 21
782.0
 31
0.0
  0
LINE
  5
849
  8
DATA
  6
CONTINUOUS
 62
     7
 10
89.749999999999986
 20
787.0
 30
0.0
 11
88.022849999999949
 21
787.0
 31
0.0
  0
LINE
  5
84A
  8
DATA
  6
CONTINUOUS
 62
     7
 10
89.749999999999986
 20
781.0
 30
0.0
 11
88.022849999999949
 21
781.0
 31
0.0
  0
ARC
  5
84B
  8
DATA
  6
CONTINUOUS
 62
     7
 10
79.75
 20
784.0
 30
0.0
 40
8.8000026774143176
 50
19.932264150679071
 51
167.19616681970021
  0
ARC
  5
84C
  8
DATA
  6
CONTINUOUS
 62
     7
 10
79.75
 20
784.0
 30
0.0
 40
8.8000035043459288
 50
192.99999955542111
 51
339.99999423796112
  0
ARC
  5
84D
  8
DATA
  6
CONTINUOUS
 62
     7
 10
79.75
 20
784.0
 30
0.0
 40
6.2000021620640204
 50
330.00001153556121
 51
60.000011535562358
  0
LINE
  5
84E
  8
DATA
  6
CONTINUOUS
 62
     7
 10
82.850029999999947
 20
789.36933999999985
 30
0.0
 11
82.562529999999924
 21
788.87138000000004
 31
0.0
  0
LINE
  5
84F
  8
DATA
  6
CONTINUOUS
 62
     7
 10
85.119379999999978
 20
780.90003000000002
 30
0.0
 11
84.621409999999983
 21
781.18753000000015
 31
0.0
  0
ARC
  5
850
  8
DATA
  6
CONTINUOUS
 62
     7
 10
79.75
 20
784.0
 30
0.0
 40
6.2000021620641181
 50
150.0000115355617
 51
240.0000115355603
  0
LINE
  5
851
  8
DATA
  6
CONTINUOUS
 62
     7
 10
74.380639999999971
 20
787.09999999999968
 30
0.0
 11
74.878609999999981
 21
786.8125
 31
0.0
  0
LINE
  5
852
  8
DATA
  6
CONTINUOUS
 62
     7
 10
76.650020000000055
 20
778.63063000000011
 30
0.0
 11
76.93751999999995
 21
779.12860000000001
 31
0.0
  0
ARC
  5
853
  8
DATA
  6
CONTINUOUS
 62
     7
 10
79.75
 20
784.0
 30
0.0
 40
5.6250038315809183
 50
59.999669682103338
 51
150.00021260430341
  0
ARC
  5
854
  8
DATA
  6
CONTINUOUS
 62
     7
 10
79.75
 20
784.0
 30
0.0
 40
5.6249961520342593
 50
240.00021260430231
 51
330.00071824312357
  0
ARC
  5
855
  8
DATA
  6
CONTINUOUS
 62
     7
 10
79.75
 20
784.0
 30
0.0
 40
3.5999900808751581
 50
329.99990885470538
 51
59.999908854705659
  0
ARC
  5
856
  8
DATA
  6
CONTINUOUS
 62
     7
 10
79.75
 20
784.0
 30
0.0
 40
3.5999900808752558
 50
149.99990885470629
 51
239.99990885470439
  0
LINE
  5
857
  8
DATA
  6
CONTINUOUS
 62
     7
 10
82.867690000000039
 20
782.20001999999988
 30
0.0
 11
82.261480000000006
 21
782.55000999999982
 31
0.0
  0
LINE
  5
858
  8
DATA
  6
CONTINUOUS
 62
     7
 10
81.550009999999929
 20
787.1176700000002
 30
0.0
 11
81.20001000000002
 21
786.5114699999998
 31
0.0
  0
LINE
  5
859
  8
DATA
  6
CONTINUOUS
 62
     7
 10
76.632319999999936
 20
785.79999999999984
 30
0.0
 11
77.238529999999983
 21
785.45000000000005
 31
0.0
  0
LINE
  5
85A
  8
DATA
  6
CONTINUOUS
 62
     7
 10
77.950019999999981
 20
780.88230999999985
 30
0.0
 11
78.300009999999929
 21
781.48851999999988
 31
0.0
  0
ARC
  5
85B
  8
DATA
  6
CONTINUOUS
 62
     7
 10
79.75
 20
784.0
 30
0.0
 40
2.9000018208614362
 50
59.999792634029291
 51
150.00023362383129
  0
ARC
  5
85C
  8
DATA
  6
CONTINUOUS
 62
     7
 10
79.75
 20
784.0
 30
0.0
 40
2.900000481120788
 50
240.0002336238301
 51
329.99979263403083
  0
LINE
  5
85D
  8
DATA
  6
CONTINUOUS
 62
     7
 10
68.75
 20
774.5
 30
0.0
 11
66.75
 21
774.5
 31
0.0
  0
LINE
  5
85E
  8
DATA
  6
CONTINUOUS
 62
     7
 10
67.75
 20
775.49999999999989
 30
0.0
 11
67.75
 21
773.5
 31
0.0
  0
POLYLINE
  5
85F
  8
DATA
  6
CONTINUOUS
 62
     7
 66
     1
 10
0.0
 20
0.0
 30
0.0
 70
   129
  0
VERTEX
  5
9FA
  8
DATA
  6
CONTINUOUS
 62
     7
 10
89.749999999999986
 20
793.5
 30
0.0
 42
-0.4142135623730951
  0
VERTEX
  5
9FB
  8
DATA
  6
CONTINUOUS
 62
     7
 10
91.75
 20
795.5
 30
0.0
 42
-0.4142135623730951
  0
VERTEX
  5
9FC
  8
DATA
  6
CONTINUOUS
 62
     7
 10
93.75
 20
793.5
 30
0.0
 42
-0.4142135623730951
  0
VERTEX
  5
9FD
  8
DATA
  6
CONTINUOUS
 62
     7
 10
91.75
 20
791.5
 30
0.0
 42
-0.4142135623730951
  0
VERTEX
  5
9FE
  8
DATA
  6
CONTINUOUS
 62
     7
 10
89.749999999999986
 20
793.5
 30
0.0
  0
SEQEND
  5
9FF
  8
DATA
  6
CONTINUOUS
 62
     7
  0
LINE
  5
866
  8
DATA
  6
CONTINUOUS
 62
     7
 10
92.75
 20
793.5
 30
0.0
 11
90.750000000000014
 21
793.5
 31
0.0
  0
LINE
  5
867
  8
DATA
  6
CONTINUOUS
 62
     7
 10
91.75
 20
794.5
 30
0.0
 11
91.75
 21
792.49999999999989
 31
0.0
  0
CIRCLE
  5
868
  8
DATA
  6
CONTINUOUS
 62
     7
 10
79.75
 20
829.0
 30
0.0
 40
9.0
  0
POLYLINE
  5
869
  8
DATA
  6
CONTINUOUS
 62
     7
 66
     1
 10
0.0
 20
0.0
 30
0.0
 70
     1
  0
VERTEX
  5
A00
  8
DATA
  6
CONTINUOUS
 62
     7
 10
70.75
 20
829.0
 30
0.0
  0
VERTEX
  5
A01
  8
DATA
  6
CONTINUOUS
 62
     7
 10
75.25
 20
821.20577136594011
 30
0.0
  0
VERTEX
  5
A02
  8
DATA
  6
CONTINUOUS
 62
     7
 10
84.25
 20
821.20577136594011
 30
0.0
  0
VERTEX
  5
A03
  8
DATA
  6
CONTINUOUS
 62
     7
 10
88.75
 20
829.0
 30
0.0
  0
VERTEX
  5
A04
  8
DATA
  6
CONTINUOUS
 62
     7
 10
84.25
 20
836.79422863405978
 30
0.0
  0
VERTEX
  5
A05
  8
DATA
  6
CONTINUOUS
 62
     7
 10
75.25
 20
836.79422863405978
 30
0.0
  0
SEQEND
  5
A06
  8
DATA
  6
CONTINUOUS
 62
     7
  0
CIRCLE
  5
871
  8
DATA
  6
CONTINUOUS
 62
     7
 10
79.75
 20
829.0
 30
0.0
 40
3.25
  0
TEXT
  5
872
  8
DATA
 62
     7
 10
59.899999999999977
 20
797.125
 30
0.0
 40
2.8857421875
  1
±1 Full-Range
 50
270.0
 41
0.85
 11
62.785742187499977
 21
797.125
 31
0.0
 73
     3
  0
TEXT
  5
873
  8
DATA
 62
     7
 10
54.608333333333242
 20
797.125
 30
0.0
 40
2.8857421875
  1
±2 N/C
 50
270.0
 41
0.85
 11
57.494075520833242
 21
797.125
 31
0.0
 73
     3
  0
TEXT
  5
874
  8
DATA
 62
     7
 10
78.799000000000021
 20
819.0
 30
0.0
 40
2.1931640625000002
  1
(PARALLEL JACK)
 50
270.0
 41
0.85
 11
80.992164062500024
 21
819.0
 31
0.0
 73
     3
  0
TEXT
  5
875
  8
DATA
 62
     7
 10
48.370000000000012
 20
848.49999999999989
 30
0.0
 40
2.30859375
  1
MODEL JRX112M
 50
270.0
 41
0.85
 11
50.678593750000012
 21
848.49999999999989
 31
0.0
 73
     3
  0
TEXT
  5
876
  8
DATA
 62
     7
 10
81.669999999999973
 20
814.49999999999989
 30
0.0
 40
2.30859375
  1
IN / OUT
 50
270.0
 41
0.85
 11
83.978593749999973
 21
814.49999999999989
 31
0.0
 73
     3
  0
LINE
  5
877
  8
DATA
  6
CONTINUOUS
 62
     7
 10
117.05012562892919
 20
579.0
 30
0.0
 11
117.05012562892919
 21
578.0
 31
0.0
  0
LINE
  5
878
  8
DATA
  6
CONTINUOUS
 62
     7
 10
282.0000000000004
 20
579.0
 30
0.0
 11
282.0000000000004
 21
578.0
 31
0.0
  0
LINE
  5
879
  8
DATA
  6
CONTINUOUS
 62
     7
 10
124.4999999999998
 20
580.0
 30
0.0
 11
124.4999999999998
 21
579.0
 31
0.0
  0
LINE
  5
87A
  8
DATA
  6
CONTINUOUS
 62
     7
 10
134.4999999999998
 20
580.0
 30
0.0
 11
134.4999999999998
 21
579.0
 31
0.0
  0
LINE
  5
87B
  8
DATA
  6
CONTINUOUS
 62
     7
 10
117.05012562892919
 20
579.0
 30
0.0
 11
282.0000000000004
 21
579.0
 31
0.0
  0
ARC
  5
87C
  8
DATA
  6
CONTINUOUS
 62
     7
 10
129.49999999999969
 20
574.75
 30
0.0
 40
7.2500000000000782
 50
46.397181027295723
 51
133.60281897270301
  0
LINE
  5
87D
  8
DATA
  6
CONTINUOUS
 62
     7
 10
269.5000000000004
 20
821.49999999999943
 30
0.0
 11
269.50000000000063
 21
828.49999999999943
 31
0.0
  0
LINE
  5
87E
  8
DATA
  6
CONTINUOUS
 62
     7
 10
266.00000000000063
 20
824.99999999999886
 30
0.0
 11
273.0000000000004
 21
825.00000000000034
 31
0.0
  0
CIRCLE
  5
87F
  8
DATA
  6
CONTINUOUS
 62
     7
 10
269.50000000000063
 20
824.99999999999943
 30
0.0
 40
5.000000000000016
  0
LINE
  5
880
  8
DATA
  6
CONTINUOUS
 62
     7
 10
129.4999999999996
 20
821.49999999999943
 30
0.0
 11
129.50000000000031
 21
828.5
 31
0.0
  0
LINE
  5
881
  8
DATA
  6
CONTINUOUS
 62
     7
 10
125.9999999999998
 20
824.99999999999886
 30
0.0
 11
133.00000000000031
 21
824.99999999999943
 31
0.0
  0
CIRCLE
  5
882
  8
DATA
  6
CONTINUOUS
 62
     7
 10
129.4999999999998
 20
824.99999999999943
 30
0.0
 40
5.000000000000016
  0
LINE
  5
883
  8
DATA
  6
CONTINUOUS
 62
     7
 10
264.49999999999989
 20
580.0
 30
0.0
 11
264.49999999999989
 21
579.0
 31
0.0
  0
LINE
  5
884
  8
DATA
  6
CONTINUOUS
 62
     7
 10
274.49999999999989
 20
580.0
 30
0.0
 11
274.49999999999989
 21
579.0
 31
0.0
  0
ARC
  5
885
  8
DATA
  6
CONTINUOUS
 62
     7
 10
269.49999999999972
 20
574.75
 30
0.0
 40
7.2500000000000782
 50
46.397181027295723
 51
133.60281897270301
  0
LINE
  5
886
  8
DATA
  6
CONTINUOUS
 62
     7
 10
712.82972829559981
 20
578.0
 30
0.0
 11
712.82972829559981
 21
0.0
 31
0.0
  0
LINE
  5
887
  8
DATA
  6
CONTINUOUS
 62
     7
 10
540.99999999999852
 20
579.0
 30
0.0
 11
540.99999999999852
 21
578.0
 31
0.0
  0
LINE
  5
888
  8
DATA
  6
CONTINUOUS
 62
     7
 10
764.0
 20
579.0
 30
0.0
 11
764.0
 21
578.0
 31
0.0
  0
LINE
  5
889
  8
DATA
  6
CONTINUOUS
 62
     7
 10
540.99999999999852
 20
579.0
 30
0.0
 11
764.0
 21
579.0
 31
0.0
  0
LINE
  5
88A
  8
DATA
  6
CONTINUOUS
 62
     7
 10
549.99999999999955
 20
580.0
 30
0.0
 11
549.99999999999955
 21
579.0
 31
0.0
  0
LINE
  5
88B
  8
DATA
  6
CONTINUOUS
 62
     7
 10
559.99999999999955
 20
580.0
 30
0.0
 11
559.99999999999955
 21
579.0
 31
0.0
  0
ARC
  5
88C
  8
DATA
  6
CONTINUOUS
 62
     7
 10
554.99999999999943
 20
574.75
 30
0.0
 40
7.2500000000000782
 50
46.397181027295723
 51
133.60281897270301
  0
LINE
  5
88D
  8
DATA
  6
CONTINUOUS
 62
     7
 10
631.99999999999955
 20
580.0
 30
0.0
 11
631.99999999999955
 21
579.0
 31
0.0
  0
LINE
  5
88E
  8
DATA
  6
CONTINUOUS
 62
     7
 10
641.99999999999955
 20
580.0
 30
0.0
 11
641.99999999999955
 21
579.0
 31
0.0
  0
ARC
  5
88F
  8
DATA
  6
CONTINUOUS
 62
     7
 10
636.99999999999943
 20
574.75
 30
0.0
 40
7.2500000000000782
 50
46.397181027295723
 51
133.60281897270301
  0
LINE
  5
890
  8
DATA
  6
CONTINUOUS
 62
     7
 10
745.0000000000008
 20
580.0
 30
0.0
 11
745.0000000000008
 21
579.0
 31
0.0
  0
LINE
  5
891
  8
DATA
  6
CONTINUOUS
 62
     7
 10
755.00000000000068
 20
580.0
 30
0.0
 11
755.00000000000068
 21
579.0
 31
0.0
  0
ARC
  5
892
  8
DATA
  6
CONTINUOUS
 62
     7
 10
750.00000000000057
 20
574.75
 30
0.0
 40
7.2500000000000782
 50
46.397181027295723
 51
133.60281897270301
  0
LINE
  5
893
  8
DATA
  6
CONTINUOUS
 62
     7
 10
549.5
 20
581.0
 30
0.0
 11
549.5
 21
579.0
 31
0.0
  0
LINE
  5
894
  8
DATA
  6
CONTINUOUS
 62
     7
 10
688.49999999999989
 20
581.0
 30
0.0
 11
688.49999999999989
 21
579.0
 31
0.0
  0
LINE
  5
895
  8
DATA
  6
CONTINUOUS
 62
     7
 10
549.5
 20
581.0
 30
0.0
 11
551.32576538582475
 21
581.0
 31
0.0
  0
LINE
  5
896
  8
DATA
  6
CONTINUOUS
 62
     7
 10
558.674234614174
 20
581.0
 30
0.0
 11
633.32576538582748
 21
581.0
 31
0.0
  0
LINE
  5
897
  8
DATA
  6
CONTINUOUS
 62
     7
 10
640.67423461417127
 20
581.0
 30
0.0
 11
688.49999999999989
 21
581.0
 31
0.0
  0
ARC
  5
898
  8
DATA
  6
CONTINUOUS
 62
     7
 10
555.49999999999989
 20
577.66666666666652
 30
0.0
 40
4.8333333333335204
 50
43.602818972703993
 51
124.6540063994358
  0
ARC
  5
899
  8
DATA
  6
CONTINUOUS
 62
     7
 10
619.0
 20
577.66666666666652
 30
0.0
 40
4.8333333333335204
 50
43.602818972703993
 51
136.3971810272941
  0
ARC
  5
89A
  8
DATA
  6
CONTINUOUS
 62
     7
 10
682.5
 20
577.66666666666652
 30
0.0
 40
4.8333333333335204
 50
43.602818972703993
 51
136.3971810272941
  0
LINE
  5
89B
  8
DATA
  6
CONTINUOUS
 62
     7
 10
25.0
 20
24.5
 30
0.0
 11
25.0
 21
553.5
 31
0.0
  0
LINE
  5
89C
  8
DATA
  6
CONTINUOUS
 62
     7
 10
374.0
 20
24.5
 30
0.0
 11
25.0
 21
24.5
 31
0.0
  0
LINE
  5
89D
  8
DATA
  6
CONTINUOUS
 62
     7
 10
374.0
 20
553.5
 30
0.0
 11
374.0
 21
24.5
 31
0.0
  0
LINE
  5
89E
  8
DATA
  6
CONTINUOUS
 62
     7
 10
25.0
 20
553.5
 30
0.0
 11
374.0
 21
553.5
 31
0.0
  0
LINE
  5
89F
  8
DATA
  6
CONTINUOUS
 62
     7
 10
326.0
 20
375.5
 30
0.0
 11
149.27964448011511
 21
375.5
 31
0.0
  0
LINE
  5
8A0
  8
DATA
  6
CONTINUOUS
 62
     7
 10
351.0
 20
514.5
 30
0.0
 11
351.0
 21
400.49999999999989
 31
0.0
  0
LINE
  5
8A1
  8
DATA
  6
CONTINUOUS
 62
     7
 10
186.38650412705911
 20
539.5
 30
0.0
 11
326.0
 21
539.5
 31
0.0
  0
ARC
  5
8A2
  8
DATA
  6
CONTINUOUS
 62
     7
 10
326.0
 20
514.5
 30
0.0
 40
25.0
 50
0.0
 51
90.0
  0
ARC
  5
8A3
  8
DATA
  6
CONTINUOUS
 62
     7
 10
326.0
 20
400.49999999999989
 30
0.0
 40
25.0
 50
270.0
 51
0.0
  0
LINE
  5
8A4
  8
DATA
  6
CONTINUOUS
 62
     7
 10
199.49999999999989
 20
528.24999999999989
 30
0.0
 11
199.50000000000011
 21
533.25
 31
0.0
  0
LINE
  5
8A5
  8
DATA
  6
CONTINUOUS
 62
     7
 10
197.0
 20
530.74999999999955
 30
0.0
 11
202.0
 21
530.7500000000008
 31
0.0
  0
CIRCLE
  5
8A6
  8
DATA
  6
CONTINUOUS
 62
     7
 10
199.50000000000011
 20
530.75
 30
0.0
 40
3.999999999999984
  0
LINE
  5
8A7
  8
DATA
  6
CONTINUOUS
 62
     7
 10
299.5
 20
397.5
 30
0.0
 11
149.17834633038859
 21
397.5
 31
0.0
  0
LINE
  5
8A8
  8
DATA
  6
CONTINUOUS
 62
     7
 10
175.8683400239953
 20
517.49999999999989
 30
0.0
 11
299.5
 21
517.49999999999989
 31
0.0
  0
ARC
  5
8A9
  8
DATA
  6
CONTINUOUS
 62
     7
 10
299.5
 20
487.5
 30
0.0
 40
29.999999999999961
 50
334.1580672368334
 51
90.0
  0
ARC
  5
8AA
  8
DATA
  6
CONTINUOUS
 62
     7
 10
299.5
 20
427.5
 30
0.0
 40
30.0
 50
270.0
 51
25.841932763167179
  0
ARC
  5
8AB
  8
DATA
  6
CONTINUOUS
 62
     7
 10
372.73303169377959
 20
457.5
 30
0.0
 40
49.233031693779601
 50
159.89517364724679
 51
200.10482635275321
  0
CIRCLE
  5
8AC
  8
DATA
  6
CONTINUOUS
 62
     7
 10
199.5
 20
457.5
 30
0.0
 40
11.5
  0
CIRCLE
  5
8AD
  8
DATA
  6
CONTINUOUS
 62
     7
 10
199.5
 20
457.5
 30
0.0
 40
6.5
  0
LINE
  5
8AE
  8
DATA
  6
CONTINUOUS
 62
     7
 10
311.0
 20
399.79169799500522
 30
0.0
 11
209.71316113343551
 21
452.21404316490373
 31
0.0
  0
LINE
  5
8AF
  8
DATA
  6
CONTINUOUS
 62
     7
 10
311.0
 20
515.20830200499483
 30
0.0
 11
209.71316113343551
 21
462.78595683509621
 31
0.0
  0
LINE
  5
8B0
  8
DATA
  6
CONTINUOUS
 62
     7
 10
152.16089406371231
 20
432.9990186366166
 30
0.0
 11
189.28683886656449
 21
452.21404316490373
 31
0.0
  0
LINE
  5
8B1
  8
DATA
  6
CONTINUOUS
 62
     7
 10
161.47647228623879
 20
477.17958045381602
 30
0.0
 11
189.28683886656449
 21
462.78595683509621
 31
0.0
  0
LINE
  5
8B2
  8
DATA
  6
CONTINUOUS
 62
     7
 10
351.0
 20
316.0
 30
0.0
 11
351.0
 21
351.0
 31
0.0
  0
LINE
  5
8B3
  8
DATA
  6
CONTINUOUS
 62
     7
 10
338.5
 20
363.5
 30
0.0
 11
288.5
 21
363.5
 31
0.0
  0
LINE
  5
8B4
  8
DATA
  6
CONTINUOUS
 62
     7
 10
335.44346492558481
 20
303.87945573256422
 30
0.0
 11
281.0
 21
341.0
 31
0.0
  0
ARC
  5
8B5
  8
DATA
  6
CONTINUOUS
 62
     7
 10
338.5
 20
351.0
 30
0.0
 40
12.5
 50
0.0
 51
90.0
  0
ARC
  5
8B6
  8
DATA
  6
CONTINUOUS
 62
     7
 10
288.5
 20
351.0
 30
0.0
 40
12.5
 50
90.0
 51
238.2961436907444
  0
ARC
  5
8B7
  8
DATA
  6
CONTINUOUS
 62
     7
 10
338.5
 20
316.0
 30
0.0
 40
12.50000000000003
 50
255.84636519364881
 51
0.0
  0
ARC
  5
8B8
  8
DATA
  6
CONTINUOUS
 62
     7
 10
199.5
 20
193.5
 30
0.0
 40
155.0
 50
287.2092332807656
 51
107.6823440589836
  0
ARC
  5
8B9
  8
DATA
  6
CONTINUOUS
 62
     7
 10
199.5
 20
193.5
 30
0.0
 40
140.5
 50
290.33525807488883
 51
108.5284740788122
  0
ARC
  5
8BA
  8
DATA
  6
CONTINUOUS
 62
     7
 10
199.5
 20
193.5
 30
0.0
 40
131.0
 50
292.41776761133877
 51
109.02792098477219
  0
ARC
  5
8BB
  8
DATA
  6
CONTINUOUS
 62
     7
 10
199.5
 20
193.5
 30
0.0
 40
112.5
 50
296.61399110788528
 51
109.8321345177873
  0
ARC
  5
8BC
  8
DATA
  6
CONTINUOUS
 62
     7
 10
199.5
 20
193.5
 30
0.0
 40
62.500000000000028
 50
310.60882667621757
 51
109.5504690879594
  0
ARC
  5
8BD
  8
DATA
  6
CONTINUOUS
 62
     7
 10
199.5
 20
193.5
 30
0.0
 40
35.999999999999957
 50
324.44629953362647
 51
104.0322927614923
  0
ARC
  5
8BE
  8
DATA
  6
CONTINUOUS
 62
     7
 10
199.5
 20
193.5
 30
0.0
 40
67.500000000000014
 50
308.84681095403459
 51
109.89125597868041
  0
ARC
  5
8BF
  8
DATA
  6
CONTINUOUS
 62
     7
 10
199.5
 20
193.5
 30
0.0
 40
72.499999999999986
 50
307.21295800468772
 51
110.1239211793328
  0
ARC
  5
8C0
  8
DATA
  6
CONTINUOUS
 62
     7
 10
199.5
 20
193.5
 30
0.0
 40
77.499999999999986
 50
305.68125046154569
 51
110.2696390330358
  0
ARC
  5
8C1
  8
DATA
  6
CONTINUOUS
 62
     7
 10
199.5
 20
193.5
 30
0.0
 40
82.500000000000071
 50
304.23208714319378
 51
110.3443495340377
  0
ARC
  5
8C2
  8
DATA
  6
CONTINUOUS
 62
     7
 10
199.5
 20
193.5
 30
0.0
 40
87.500000000000057
 50
302.85039607137833
 51
110.3602841262198
  0
ARC
  5
8C3
  8
DATA
  6
CONTINUOUS
 62
     7
 10
199.5
 20
193.5
 30
0.0
 40
92.5
 50
301.52437786122829
 51
110.3269858679421
  0
ARC
  5
8C4
  8
DATA
  6
CONTINUOUS
 62
     7
 10
199.5
 20
193.5
 30
0.0
 40
97.5
 50
300.24464593676493
 51
110.25200964256589
  0
ARC
  5
8C5
  8
DATA
  6
CONTINUOUS
 62
     7
 10
199.5
 20
193.5
 30
0.0
 40
102.5000000000001
 50
299.00362420105648
 51
110.1414138992306
  0
ARC
  5
8C6
  8
DATA
  6
CONTINUOUS
 62
     7
 10
199.5
 20
193.5
 30
0.0
 40
107.5000000000001
 50
297.7951161884904
 51
110.00011303932671
  0
CIRCLE
  5
8C7
  8
DATA
  6
CONTINUOUS
 62
     7
 10
256.23281884812462
 20
56.534859305201742
 30
0.0
 40
3.9999999999999409
  0
LINE
  5
8C8
  8
DATA
  6
CONTINUOUS
 62
     7
 10
253.9231200168463
 20
55.578150724288889
 30
0.0
 11
258.54251767940281
 21
57.491567886114339
 31
0.0
  0
LINE
  5
8C9
  8
DATA
  6
CONTINUOUS
 62
     7
 10
257.1895274290373
 20
54.225160473923552
 30
0.0
 11
255.27611026721181
 21
58.844558136479918
 31
0.0
  0
CIRCLE
  5
8CA
  8
DATA
  6
CONTINUOUS
 62
     7
 10
336.46514069479838
 20
136.7671811518758
 30
0.0
 40
3.9999999999996692
  0
LINE
  5
8CB
  8
DATA
  6
CONTINUOUS
 62
     7
 10
335.50843211388559
 20
134.45748232059711
 30
0.0
 11
337.421849275711
 21
139.0768799831537
 31
0.0
  0
LINE
  5
8CC
  8
DATA
  6
CONTINUOUS
 62
     7
 10
338.77483952607662
 20
135.8104725709627
 30
0.0
 11
334.15544186352002
 21
137.72388973278839
 31
0.0
  0
CIRCLE
  5
8CD
  8
DATA
  6
CONTINUOUS
 62
     7
 10
336.46514069479832
 20
250.23281884812519
 30
0.0
 40
3.9999999999995821
  0
LINE
  5
8CE
  8
DATA
  6
CONTINUOUS
 62
     7
 10
337.42184927571122
 20
247.9231200168465
 30
0.0
 11
335.50843211388559
 21
252.54251767940309
 31
0.0
  0
LINE
  5
8CF
  8
DATA
  6
CONTINUOUS
 62
     7
 10
338.77483952607662
 20
251.18952742903761
 30
0.0
 11
334.15544186352002
 21
249.27611026721209
 31
0.0
  0
CIRCLE
  5
8D0
  8
DATA
  6
CONTINUOUS
 62
     7
 10
256.23281884812423
 20
330.46514069479872
 30
0.0
 40
3.9999999999996252
  0
LINE
  5
8D1
  8
DATA
  6
CONTINUOUS
 62
     7
 10
258.54251767940292
 20
329.50843211388587
 30
0.0
 11
253.9231200168463
 21
331.42184927571139
 31
0.0
  0
LINE
  5
8D2
  8
DATA
  6
CONTINUOUS
 62
     7
 10
257.18952742903718
 20
332.7748395260769
 30
0.0
 11
255.27611026721181
 21
328.15544186352031
 31
0.0
  0
CIRCLE
  5
8D3
  8
DATA
  6
CONTINUOUS
 62
     7
 10
33.0
 20
540.50000000000011
 30
0.0
 40
4.0
  0
LINE
  5
8D4
  8
DATA
  6
CONTINUOUS
 62
     7
 10
30.49999999999978
 20
540.50000000000011
 30
0.0
 11
35.5
 21
540.5
 31
0.0
  0
LINE
  5
8D5
  8
DATA
  6
CONTINUOUS
 62
     7
 10
32.99999999999978
 20
538.0
 30
0.0
 11
32.99999999999978
 21
543.00000000000011
 31
0.0
  0
CIRCLE
  5
8D6
  8
DATA
  6
CONTINUOUS
 62
     7
 10
33.0
 20
372.5
 30
0.0
 40
4.0
  0
LINE
  5
8D7
  8
DATA
  6
CONTINUOUS
 62
     7
 10
30.49999999999978
 20
372.50000000000023
 30
0.0
 11
35.5
 21
372.5
 31
0.0
  0
LINE
  5
8D8
  8
DATA
  6
CONTINUOUS
 62
     7
 10
32.99999999999978
 20
370.0
 30
0.0
 11
32.99999999999978
 21
375.0
 31
0.0
  0
CIRCLE
  5
8D9
  8
DATA
  6
CONTINUOUS
 62
     7
 10
33.0
 20
37.5
 30
0.0
 40
4.0
  0
LINE
  5
8DA
  8
DATA
  6
CONTINUOUS
 62
     7
 10
30.49999999999978
 20
37.500000000000107
 30
0.0
 11
35.5
 21
37.499999999999893
 31
0.0
  0
LINE
  5
8DB
  8
DATA
  6
CONTINUOUS
 62
     7
 10
32.99999999999978
 20
34.999999999999893
 30
0.0
 11
32.99999999999978
 21
40.0
 31
0.0
  0
CIRCLE
  5
8DC
  8
DATA
  6
CONTINUOUS
 62
     7
 10
33.0
 20
205.49999999999989
 30
0.0
 40
4.0
  0
LINE
  5
8DD
  8
DATA
  6
CONTINUOUS
 62
     7
 10
30.49999999999978
 20
205.5
 30
0.0
 11
35.5
 21
205.49999999999969
 31
0.0
  0
LINE
  5
8DE
  8
DATA
  6
CONTINUOUS
 62
     7
 10
32.99999999999978
 20
202.9999999999998
 30
0.0
 11
32.99999999999978
 21
207.99999999999989
 31
0.0
  0
ARC
  5
8DF
  8
DATA
  6
CONTINUOUS
 62
     7
 10
65.277777777777828
 20
86.611111111111072
 30
0.0
 40
184.72744353523041
 50
340.35258224722799
 51
43.172031755694952
  0
ARC
  5
8E0
  8
DATA
  6
CONTINUOUS
 62
     7
 10
474.99999999999989
 20
388.0
 30
0.0
 40
325.96012026013238
 50
149.48720116244769
 51
212.47119229084851
  0
LINE
  5
8E1
  8
DATA
  6
CONTINUOUS
 62
     7
 10
175.5
 20
52.0
 30
0.0
 11
223.5
 21
52.0
 31
0.0
  0
POLYLINE
  5
8E2
  8
DATA
  6
CONTINUOUS
 62
     7
 66
     1
 10
0.0
 20
0.0
 30
0.0
 70
     1
  0
VERTEX
  5
A07
  8
DATA
  6
CONTINUOUS
 62
     7
 10
175.5
 20
91.0
 30
0.0
  0
VERTEX
  5
A08
  8
DATA
  6
CONTINUOUS
 62
     7
 10
223.5
 20
91.0
 30
0.0
  0
VERTEX
  5
A09
  8
DATA
  6
CONTINUOUS
 62
     7
 10
223.5
 20
43.0
 30
0.0
  0
VERTEX
  5
A0A
  8
DATA
  6
CONTINUOUS
 62
     7
 10
175.5
 20
43.0
 30
0.0
  0
SEQEND
  5
A0B
  8
DATA
  6
CONTINUOUS
 62
     7
  0
ARC
  5
8E8
  8
DATA
  6
CONTINUOUS
 62
     7
 10
200.27016104968041
 20
65.773088304478506
 30
0.0
 40
0.5100529837095883
 50
307.64190249758423
 51
354.26701928940679
  0
LINE
  5
8E9
  8
DATA
  6
CONTINUOUS
 62
     7
 10
187.16883086796341
 20
73.810697832149344
 30
0.0
 11
189.55996686796331
 21
79.50810583214934
 31
0.0
  0
LINE
  5
8EA
  8
DATA
  6
CONTINUOUS
 62
     7
 10
187.16883086796341
 20
73.810697832149344
 30
0.0
 11
184.80719886796331
 21
79.50810583214934
 31
0.0
  0
LINE
  5
8EB
  8
DATA
  6
CONTINUOUS
 62
     7
 10
205.29427086796329
 20
63.50810583214934
 30
0.0
 11
205.29427086796329
 21
79.50810583214934
 31
0.0
  0
LINE
  5
8EC
  8
DATA
  6
CONTINUOUS
 62
     7
 10
208.36438286796329
 20
79.50810583214934
 30
0.0
 11
208.36438286796329
 21
65.958281832149282
 31
0.0
  0
LINE
  5
8ED
  8
DATA
  6
CONTINUOUS
 62
     7
 10
190.68174286796329
 20
79.50810583214934
 30
0.0
 11
190.68174286796329
 21
65.958281832149282
 31
0.0
  0
LINE
  5
8EE
  8
DATA
  6
CONTINUOUS
 62
     7
 10
193.63377486796321
 20
79.50810583214934
 30
0.0
 11
193.63377486796321
 21
65.958281832149282
 31
0.0
  0
LINE
  5
8EF
  8
DATA
  6
CONTINUOUS
 62
     7
 10
195.16883086796341
 20
79.50810583214934
 30
0.0
 11
195.16883086796341
 21
63.50810583214934
 31
0.0
  0
LINE
  5
8F0
  8
DATA
  6
CONTINUOUS
 62
     7
 10
197.85518286796309
 20
78.002585832149293
 30
0.0
 11
197.85518286796309
 21
72.866041832149321
 31
0.0
  0
LINE
  5
8F1
  8
DATA
  6
CONTINUOUS
 62
     7
 10
203.61291086796339
 20
73.16325783214927
 30
0.0
 11
203.61291086796339
 21
76.910313832149185
 31
0.0
  0
LINE
  5
8F2
  8
DATA
  6
CONTINUOUS
 62
     7
 10
200.7776628679633
 20
77.294089832149226
 30
0.0
 11
200.7776628679633
 21
73.574521832149344
 31
0.0
  0
ARC
  5
8F3
  8
DATA
  6
CONTINUOUS
 62
     7
 10
190.08935886796331
 20
67.616585832149326
 30
0.0
 40
4.1261654802686127
 50
264.69085622153358
 51
323.99119915423978
  0
LINE
  5
8F4
  8
DATA
  6
CONTINUOUS
 62
     7
 10
188.43820686796329
 20
68.526569832149221
 30
0.0
 11
188.43820686796329
 21
65.958313832149329
 31
0.0
  0
LINE
  5
8F5
  8
DATA
  6
CONTINUOUS
 62
     7
 10
188.43820686796329
 20
68.526569832149221
 30
0.0
 11
185.78137486796331
 21
68.526569832149221
 31
0.0
  0
LINE
  5
8F6
  8
DATA
  6
CONTINUOUS
 62
     7
 10
185.78137486796331
 20
68.526569832149221
 30
0.0
 11
185.78137486796331
 21
65.958313832149329
 31
0.0
  0
ARC
  5
8F7
  8
DATA
  6
CONTINUOUS
 62
     7
 10
189.5655988679633
 20
65.923689832149293
 30
0.0
 40
1.116686121987726
 50
269.71184879274909
 51
1.775987005690296
  0
ARC
  5
8F8
  8
DATA
  6
CONTINUOUS
 62
     7
 10
189.55435086796331
 20
65.923689832149293
 30
0.0
 40
1.116680411935264
 50
178.22401299431701
 51
270.28815120724312
  0
ARC
  5
8F9
  8
DATA
  6
CONTINUOUS
 62
     7
 10
189.32579086796309
 20
67.616585832149326
 30
0.0
 40
4.126158779114494
 50
216.00880084575959
 51
275.30914377846659
  0
ARC
  5
8FA
  8
DATA
  6
CONTINUOUS
 62
     7
 10
187.6460788679633
 20
66.048761832149239
 30
0.0
 40
1.8668803330818999
 50
182.7769954499912
 51
207.3596066671449
  0
CIRCLE
  5
8FB
  8
DATA
  6
CONTINUOUS
 62
     7
 10
187.33119886796311
 20
71.59666583214927
 30
0.0
 40
1.520288000000164
  0
LINE
  5
8FC
  8
DATA
  6
CONTINUOUS
 62
     7
 10
213.29427086796329
 20
63.508121832149293
 30
0.0
 11
205.29427086796329
 21
63.508121832149293
 31
0.0
  0
LINE
  5
8FD
  8
DATA
  6
CONTINUOUS
 62
     7
 10
213.29427086796329
 20
63.508121832149293
 30
0.0
 11
213.29427086796329
 21
68.526585832149181
 31
0.0
  0
LINE
  5
8FE
  8
DATA
  6
CONTINUOUS
 62
     7
 10
213.29427086796329
 20
68.526569832149221
 30
0.0
 11
210.60793486796351
 21
68.526569832149221
 31
0.0
  0
LINE
  5
8FF
  8
DATA
  6
CONTINUOUS
 62
     7
 10
210.60793486796351
 20
68.526569832149221
 30
0.0
 11
210.60793486796351
 21
65.958313832149329
 31
0.0
  0
LINE
  5
900
  8
DATA
  6
CONTINUOUS
 62
     7
 10
195.16883086796341
 20
63.508121832149293
 30
0.0
 11
200.7776628679633
 21
63.508137832149259
 31
0.0
  0
LINE
  5
901
  8
DATA
  6
CONTINUOUS
 62
     7
 10
197.85516686796319
 20
65.013657832149292
 30
0.0
 11
199.30166286796319
 21
65.013657832149292
 31
0.0
  0
LINE
  5
902
  8
DATA
  6
CONTINUOUS
 62
     7
 10
197.85518286796309
 20
65.013657832149292
 30
0.0
 11
197.85518286796309
 21
71.331001832149369
 31
0.0
  0
LINE
  5
903
  8
DATA
  6
CONTINUOUS
 62
     7
 10
197.85516686796319
 20
71.331001832149369
 30
0.0
 11
199.30166286796319
 21
71.331001832149369
 31
0.0
  0
LINE
  5
904
  8
DATA
  6
CONTINUOUS
 62
     7
 10
200.7776628679633
 20
65.722137832149329
 30
0.0
 11
200.7776628679633
 21
70.622521832149346
 31
0.0
  0
ARC
  5
905
  8
DATA
  6
CONTINUOUS
 62
     7
 10
191.76907086796319
 20
66.048761832149239
 30
0.0
 40
1.8668776765841559
 50
332.64039333285513
 51
357.22300455000487
  0
ARC
  5
906
  8
DATA
  6
CONTINUOUS
 62
     7
 10
209.4917748679633
 20
65.923689832149293
 30
0.0
 40
1.116686121987726
 50
269.71184879274909
 51
1.775987005690296
  0
ARC
  5
907
  8
DATA
  6
CONTINUOUS
 62
     7
 10
209.48054286796321
 20
65.923689832149293
 30
0.0
 40
1.116680411935264
 50
178.22401299431701
 51
270.28815120725471
  0
LINE
  5
908
  8
DATA
  6
CONTINUOUS
 62
     7
 10
203.61161486796331
 20
66.076393832149392
 30
0.0
 11
203.61161486796331
 21
70.32730583214925
 31
0.0
  0
LINE
  5
909
  8
DATA
  6
CONTINUOUS
 62
     7
 10
197.85516686796319
 20
72.866041832149321
 30
0.0
 11
199.30166286796319
 21
72.866041832149321
 31
0.0
  0
ARC
  5
90A
  8
DATA
  6
CONTINUOUS
 62
     7
 10
200.57427086796329
 20
66.545513832149254
 30
0.0
 40
3.0441782587489801
 50
273.8309816091151
 51
351.13514730980222
  0
LINE
  5
90B
  8
DATA
  6
CONTINUOUS
 62
     7
 10
190.68174286796329
 20
79.50810583214934
 30
0.0
 11
193.63377486796321
 21
79.50810583214934
 31
0.0
  0
LINE
  5
90C
  8
DATA
  6
CONTINUOUS
 62
     7
 10
184.80719886796331
 20
79.50810583214934
 30
0.0
 11
189.55996686796331
 21
79.50810583214934
 31
0.0
  0
LINE
  5
90D
  8
DATA
  6
CONTINUOUS
 62
     7
 10
205.29427086796329
 20
79.50810583214934
 30
0.0
 11
208.36438286796329
 21
79.50810583214934
 31
0.0
  0
LINE
  5
90E
  8
DATA
  6
CONTINUOUS
 62
     7
 10
195.16883086796341
 20
79.50810583214934
 30
0.0
 11
200.8084950729978
 21
79.508092882164533
 31
0.0
  0
LINE
  5
90F
  8
DATA
  6
CONTINUOUS
 62
     7
 10
197.85516686796319
 20
78.002569832149319
 30
0.0
 11
199.30166286796319
 21
78.002569832149319
 31
0.0
  0
ARC
  5
910
  8
DATA
  6
CONTINUOUS
 62
     7
 10
200.6046228679634
 20
76.475369832149227
 30
0.0
 40
3.0395678926584169
 50
8.2269238590153222
 51
86.154126692156353
  0
ARC
  5
911
  8
DATA
  6
CONTINUOUS
 62
     7
 10
199.3187436081285
 20
67.819558569088358
 30
0.0
 40
2.8059527254107088
 50
269.6512199376125
 51
282.82648280687289
  0
ARC
  5
912
  8
DATA
  6
CONTINUOUS
 62
     7
 10
199.63389651190991
 20
66.633257334185828
 30
0.0
 40
1.579900645909103
 50
281.23310362266358
 51
306.86200889406422
  0
ARC
  5
913
  8
DATA
  6
CONTINUOUS
 62
     7
 10
200.27016104968041
 20
70.571571359819941
 30
0.0
 40
0.5100529837095654
 50
5.7329807106185493
 51
52.358097502425927
  0
ARC
  5
914
  8
DATA
  6
CONTINUOUS
 62
     7
 10
199.3187436081285
 20
68.525101095210061
 30
0.0
 40
2.8059527254108292
 50
77.173517193127665
 51
90.348780062387505
  0
ARC
  5
915
  8
DATA
  6
CONTINUOUS
 62
     7
 10
199.63389651190991
 20
69.711402330112605
 30
0.0
 40
1.5799006459092411
 50
53.137991105935029
 51
78.766896377337289
  0
ARC
  5
916
  8
DATA
  6
CONTINUOUS
 62
     7
 10
202.0633268679633
 20
70.222649832149386
 30
0.0
 40
1.5518210622620729
 50
3.8670063598167679
 51
88.361634567900595
  0
ARC
  5
917
  8
DATA
  6
CONTINUOUS
 62
     7
 10
202.06190286796331
 20
73.326521832149197
 30
0.0
 40
1.553363103916017
 50
271.68928210464452
 51
356.07828298265781
  0
ARC
  5
918
  8
DATA
  6
CONTINUOUS
 62
     7
 10
200.27016104968041
 20
73.625472304478649
 30
0.0
 40
0.5100529837096782
 50
307.64190249757638
 51
354.26701928939542
  0
ARC
  5
919
  8
DATA
  6
CONTINUOUS
 62
     7
 10
199.3187436081285
 20
75.671942569088401
 30
0.0
 40
2.8059527254107088
 50
269.6512199376125
 51
282.82648280687289
  0
ARC
  5
91A
  8
DATA
  6
CONTINUOUS
 62
     7
 10
199.63389651190991
 20
74.485641334185857
 30
0.0
 40
1.5799006459092151
 50
281.23310362266272
 51
306.86200889406172
  0
ARC
  5
91B
  8
DATA
  6
CONTINUOUS
 62
     7
 10
200.27016104968041
 20
77.243139359819907
 30
0.0
 40
0.5100529837095542
 50
5.732980710605843
 51
52.358097502425927
  0
ARC
  5
91C
  8
DATA
  6
CONTINUOUS
 62
     7
 10
199.3187436081285
 20
75.19666909521014
 30
0.0
 40
2.8059527254108292
 50
77.173517193127665
 51
90.348780062387505
  0
ARC
  5
91D
  8
DATA
  6
CONTINUOUS
 62
     7
 10
199.63389651190991
 20
76.382970330112684
 30
0.0
 40
1.5799006459092411
 50
53.137991105935029
 51
78.766896377337289
  0
LINE
  5
91E
  8
DATA
  6
CONTINUOUS
 62
     7
 10
297.99999999999972
 20
528.24999999999989
 30
0.0
 11
297.99999999999989
 21
533.25
 31
0.0
  0
LINE
  5
91F
  8
DATA
  6
CONTINUOUS
 62
     7
 10
295.49999999999972
 20
530.74999999999955
 30
0.0
 11
300.49999999999972
 21
530.7500000000008
 31
0.0
  0
CIRCLE
  5
920
  8
DATA
  6
CONTINUOUS
 62
     7
 10
297.99999999999989
 20
530.75
 30
0.0
 40
3.999999999999984
  0
LINE
  5
921
  8
DATA
  6
CONTINUOUS
 62
     7
 10
342.49999999999989
 20
485.00000000000011
 30
0.0
 11
342.50000000000011
 21
490.00000000000023
 31
0.0
  0
LINE
  5
922
  8
DATA
  6
CONTINUOUS
 62
     7
 10
340.0
 20
487.49999999999977
 30
0.0
 11
345.0
 21
487.50000000000108
 31
0.0
  0
CIRCLE
  5
923
  8
DATA
  6
CONTINUOUS
 62
     7
 10
342.50000000000011
 20
487.50000000000011
 30
0.0
 40
3.9999999999999338
  0
LINE
  5
924
  8
DATA
  6
CONTINUOUS
 62
     7
 10
342.5
 20
425.00000000000011
 30
0.0
 11
342.50000000000028
 21
430.00000000000011
 31
0.0
  0
LINE
  5
925
  8
DATA
  6
CONTINUOUS
 62
     7
 10
340.00000000000011
 20
427.49999999999972
 30
0.0
 11
345.00000000000011
 21
427.50000000000108
 31
0.0
  0
CIRCLE
  5
926
  8
DATA
  6
CONTINUOUS
 62
     7
 10
342.50000000000028
 20
427.50000000000023
 30
0.0
 40
3.9999999999999338
  0
LINE
  5
927
  8
DATA
  6
CONTINUOUS
 62
     7
 10
297.99999999999972
 20
381.75000000000051
 30
0.0
 11
298.0
 21
386.75000000000051
 31
0.0
  0
LINE
  5
928
  8
DATA
  6
CONTINUOUS
 62
     7
 10
295.49999999999989
 20
384.25
 30
0.0
 11
300.49999999999989
 21
384.25000000000131
 31
0.0
  0
CIRCLE
  5
929
  8
DATA
  6
CONTINUOUS
 62
     7
 10
298.0
 20
384.25000000000051
 30
0.0
 40
3.9999999999999338
  0
LINE
  5
92A
  8
DATA
  6
CONTINUOUS
 62
     7
 10
199.49999999999989
 20
381.75000000000068
 30
0.0
 11
199.50000000000011
 21
386.75000000000068
 31
0.0
  0
LINE
  5
92B
  8
DATA
  6
CONTINUOUS
 62
     7
 10
197.0
 20
384.25000000000023
 30
0.0
 11
202.0
 21
384.25000000000159
 31
0.0
  0
CIRCLE
  5
92C
  8
DATA
  6
CONTINUOUS
 62
     7
 10
199.50000000000011
 20
384.25000000000068
 30
0.0
 40
3.9999999999999338
  0
LINE
  5
92D
  8
DATA
  6
CONTINUOUS
 62
     7
 10
33.75
 20
863.0
 30
0.0
 11
95.750000000000014
 21
863.0
 31
0.0
  0
LINE
  5
92E
  8
DATA
  6
CONTINUOUS
 62
     7
 10
2206.0
 20
-44.0
 30
0.0
 11
1594.0
 21
-44.0
 31
0.0
  0
LINE
  5
92F
  8
DATA
  6
CONTINUOUS
 62
     7
 10
2236.0
 20
358.0
 30
0.0
 11
2236.0
 21
-14.0
 31
0.0
  0
LINE
  5
930
  8
DATA
  6
CONTINUOUS
 62
     7
 10
1594.0
 20
388.0
 30
0.0
 11
2206.0
 21
388.0
 31
0.0
  0
LINE
  5
931
  8
DATA
  6
CONTINUOUS
 62
     7
 10
1564.0
 20
-14.0
 30
0.0
 11
1564.0
 21
358.0
 31
0.0
  0
ARC
  5
932
  8
DATA
  6
CONTINUOUS
 62
     7
 10
1594.0
 20
358.0
 30
0.0
 40
30.0
 50
90.0
 51
180.0
  0
ARC
  5
933
  8
DATA
  6
CONTINUOUS
 62
     7
 10
1594.0
 20
-14.0
 30
0.0
 40
30.0
 50
180.0
 51
270.0
  0
ARC
  5
934
  8
DATA
  6
CONTINUOUS
 62
     7
 10
2206.0
 20
-14.0
 30
0.0
 40
30.0
 50
270.0
 51
0.0
  0
ARC
  5
935
  8
DATA
  6
CONTINUOUS
 62
     7
 10
2206.0
 20
358.0
 30
0.0
 40
30.0
 50
0.0
 51
90.0
  0
LINE
  5
936
  8
DATA
  6
CONTINUOUS
 62
     7
 10
1972.0
 20
355.0
 30
0.0
 11
2104.0
 21
355.0
 31
0.0
  0
LINE
  5
937
  8
DATA
  6
CONTINUOUS
 62
     7
 10
1960.0
 20
343.0
 30
0.0
 11
1960.0
 21
181.0
 31
0.0
  0
LINE
  5
938
  8
DATA
  6
CONTINUOUS
 62
     7
 10
1972.0
 20
169.0
 30
0.0
 11
2104.0
 21
169.0
 31
0.0
  0
LINE
  5
939
  8
DATA
  6
CONTINUOUS
 62
     7
 10
2116.0
 20
343.0
 30
0.0
 11
2116.0
 21
181.0
 31
0.0
  0
ARC
  5
93A
  8
DATA
  6
CONTINUOUS
 62
     7
 10
1972.0
 20
343.0
 30
0.0
 40
12.0
 50
90.0
 51
180.0
  0
ARC
  5
93B
  8
DATA
  6
CONTINUOUS
 62
     7
 10
1972.0
 20
181.0
 30
0.0
 40
12.0
 50
180.0
 51
270.0
  0
ARC
  5
93C
  8
DATA
  6
CONTINUOUS
 62
     7
 10
2104.0
 20
181.0
 30
0.0
 40
12.0
 50
270.0
 51
0.0
  0
ARC
  5
93D
  8
DATA
  6
CONTINUOUS
 62
     7
 10
2104.0
 20
343.0
 30
0.0
 40
12.0
 50
0.0
 51
90.0
  0
POLYLINE
  5
93E
  8
DATA
  6
CONTINUOUS
 62
     7
 66
     1
 10
0.0
 20
0.0
 30
0.0
 70
   129
  0
VERTEX
  5
A0C
  8
DATA
  6
CONTINUOUS
 62
     7
 10
2083.0
 20
190.0
 30
0.0
 42
-0.4142135623730951
  0
VERTEX
  5
A0D
  8
DATA
  6
CONTINUOUS
 62
     7
 10
2095.0
 20
202.0
 30
0.0
 42
-0.4142135623730951
  0
VERTEX
  5
A0E
  8
DATA
  6
CONTINUOUS
 62
     7
 10
2107.0
 20
190.0
 30
0.0
 42
-0.4142135623730951
  0
VERTEX
  5
A0F
  8
DATA
  6
CONTINUOUS
 62
     7
 10
2095.0
 20
178.0
 30
0.0
 42
-0.4142135623730951
  0
VERTEX
  5
A10
  8
DATA
  6
CONTINUOUS
 62
     7
 10
2083.0
 20
190.0
 30
0.0
  0
SEQEND
  5
A11
  8
DATA
  6
CONTINUOUS
 62
     7
  0
POLYLINE
  5
945
  8
DATA
  6
CONTINUOUS
 62
     7
 66
     1
 10
0.0
 20
0.0
 30
0.0
 70
   129
  0
VERTEX
  5
A12
  8
DATA
  6
CONTINUOUS
 62
     7
 10
1967.5
 20
262.0
 30
0.0
 42
-0.4142135623730951
  0
VERTEX
  5
A13
  8
DATA
  6
CONTINUOUS
 62
     7
 10
2038.0
 20
332.5
 30
0.0
 42
-0.4142135623730951
  0
VERTEX
  5
A14
  8
DATA
  6
CONTINUOUS
 62
     7
 10
2108.5
 20
262.0
 30
0.0
 42
-0.4142135623730951
  0
VERTEX
  5
A15
  8
DATA
  6
CONTINUOUS
 62
     7
 10
2038.0
 20
191.5
 30
0.0
 42
-0.4142135623730951
  0
VERTEX
  5
A16
  8
DATA
  6
CONTINUOUS
 62
     7
 10
1967.5
 20
262.0
 30
0.0
  0
SEQEND
  5
A17
  8
DATA
  6
CONTINUOUS
 62
     7
  0
LINE
  5
94C
  8
DATA
  6
CONTINUOUS
 62
     7
 10
2020.0
 20
322.0
 30
0.0
 11
2056.0
 21
322.0
 31
0.0
  0
LINE
  5
94D
  8
DATA
  6
CONTINUOUS
 62
     7
 10
2026.0
 20
202.0
 30
0.0
 11
2050.0
 21
202.0
 31
0.0
  0
LINE
  5
94E
  8
DATA
  6
CONTINUOUS
 62
     7
 10
2026.0
 20
202.0
 30
0.0
 11
2026.0
 21
209.2000000000003
 31
0.0
  0
LINE
  5
94F
  8
DATA
  6
CONTINUOUS
 62
     7
 10
2050.0
 20
202.0
 30
0.0
 11
2050.0
 21
209.2000000000003
 31
0.0
  0
LINE
  5
950
  8
DATA
  6
CONTINUOUS
 62
     7
 10
2020.0
 20
322.0
 30
0.0
 11
2020.0
 21
311.63710000000037
 31
0.0
  0
LINE
  5
951
  8
DATA
  6
CONTINUOUS
 62
     7
 10
2056.0
 20
322.0
 30
0.0
 11
2056.0
 21
311.63710000000037
 31
0.0
  0
ARC
  5
952
  8
DATA
  6
CONTINUOUS
 62
     7
 10
2038.0
 20
262.0
 30
0.0
 40
52.800016064486542
 50
109.9322641506788
 51
257.1961668197003
  0
ARC
  5
953
  8
DATA
  6
CONTINUOUS
 62
     7
 10
2038.0
 20
262.0
 30
0.0
 40
52.800021026075576
 50
282.9999995554212
 51
69.999994237961005
  0
ARC
  5
954
  8
DATA
  6
CONTINUOUS
 62
     7
 10
2038.0
 20
262.0
 30
0.0
 40
37.200012972384108
 50
60.00001153556115
 51
150.00001153556309
  0
LINE
  5
955
  8
DATA
  6
CONTINUOUS
 62
     7
 10
2005.78396
 20
280.600179999999
 30
0.0
 11
2008.77172
 21
278.8751799999996
 31
0.0
  0
LINE
  5
956
  8
DATA
  6
CONTINUOUS
 62
     7
 10
2056.5998199999999
 20
294.21627999999919
 30
0.0
 11
2054.87482
 21
291.22845999999981
 31
0.0
  0
ARC
  5
957
  8
DATA
  6
CONTINUOUS
 62
     7
 10
2038.0
 20
262.0
 30
0.0
 40
37.200012972385302
 50
240.00001153556209
 51
330.00001153555928
  0
LINE
  5
958
  8
DATA
  6
CONTINUOUS
 62
     7
 10
2019.4000000000001
 20
229.78384000000051
 30
0.0
 11
2021.125
 21
232.77165999999991
 31
0.0
  0
LINE
  5
959
  8
DATA
  6
CONTINUOUS
 62
     7
 10
2070.2162199999989
 20
243.4001200000003
 30
0.0
 11
2067.2284
 21
245.1251199999997
 31
0.0
  0
ARC
  5
95A
  8
DATA
  6
CONTINUOUS
 62
     7
 10
2038.0
 20
262.0
 30
0.0
 40
33.750022989485508
 50
149.9996696821033
 51
240.0002126043033
  0
ARC
  5
95B
  8
DATA
  6
CONTINUOUS
 62
     7
 10
2038.0
 20
262.0
 30
0.0
 40
33.749976912205547
 50
330.00021260430242
 51
60.000718243124894
  0
ARC
  5
95C
  8
DATA
  6
CONTINUOUS
 62
     7
 10
2038.0
 20
262.0
 30
0.0
 40
21.59994048525154
 50
59.999908854706391
 51
149.9999088547064
  0
ARC
  5
95D
  8
DATA
  6
CONTINUOUS
 62
     7
 10
2038.0
 20
262.0
 30
0.0
 40
21.59994048525154
 50
239.9999088547064
 51
329.99990885470322
  0
LINE
  5
95E
  8
DATA
  6
CONTINUOUS
 62
     7
 10
2048.79988
 20
280.70614000000029
 30
0.0
 11
2046.6999400000011
 21
277.0688799999993
 31
0.0
  0
LINE
  5
95F
  8
DATA
  6
CONTINUOUS
 62
     7
 10
2019.2939799999999
 20
272.80005999999958
 30
0.0
 11
2022.9311800000009
 21
270.70006000000012
 31
0.0
  0
LINE
  5
960
  8
DATA
  6
CONTINUOUS
 62
     7
 10
2027.200000000001
 20
243.29391999999959
 30
0.0
 11
2029.3
 21
246.93117999999919
 31
0.0
  0
LINE
  5
961
  8
DATA
  6
CONTINUOUS
 62
     7
 10
2056.7061399999998
 20
251.20012
 30
0.0
 11
2053.0688800000012
 21
253.3000599999996
 31
0.0
  0
ARC
  5
962
  8
DATA
  6
CONTINUOUS
 62
     7
 10
2038.0
 20
262.0
 30
0.0
 40
17.400010925168608
 50
149.99979263402921
 51
240.00023362383041
  0
ARC
  5
963
  8
DATA
  6
CONTINUOUS
 62
     7
 10
2038.0
 20
262.0
 30
0.0
 40
17.400002886724732
 50
330.0002336238303
 51
59.999792634028651
  0
LINE
  5
964
  8
DATA
  6
CONTINUOUS
 62
     7
 10
2095.0
 20
196.0
 30
0.0
 11
2095.0
 21
184.0
 31
0.0
  0
LINE
  5
965
  8
DATA
  6
CONTINUOUS
 62
     7
 10
2089.0
 20
190.0
 30
0.0
 11
2101.0
 21
190.0
 31
0.0
  0
POLYLINE
  5
966
  8
DATA
  6
CONTINUOUS
 62
     7
 66
     1
 10
0.0
 20
0.0
 30
0.0
 70
   129
  0
VERTEX
  5
A18
  8
DATA
  6
CONTINUOUS
 62
     7
 10
1969.0
 20
334.0
 30
0.0
 42
-0.4142135623730951
  0
VERTEX
  5
A19
  8
DATA
  6
CONTINUOUS
 62
     7
 10
1981.0
 20
346.0
 30
0.0
 42
-0.4142135623730951
  0
VERTEX
  5
A1A
  8
DATA
  6
CONTINUOUS
 62
     7
 10
1993.0
 20
334.0
 30
0.0
 42
-0.4142135623730951
  0
VERTEX
  5
A1B
  8
DATA
  6
CONTINUOUS
 62
     7
 10
1981.0
 20
322.0
 30
0.0
 42
-0.4142135623730951
  0
VERTEX
  5
A1C
  8
DATA
  6
CONTINUOUS
 62
     7
 10
1969.0
 20
334.0
 30
0.0
  0
SEQEND
  5
A1D
  8
DATA
  6
CONTINUOUS
 62
     7
  0
LINE
  5
96D
  8
DATA
  6
CONTINUOUS
 62
     7
 10
1981.0
 20
340.0
 30
0.0
 11
1981.0
 21
328.0
 31
0.0
  0
LINE
  5
96E
  8
DATA
  6
CONTINUOUS
 62
     7
 10
1975.0
 20
334.0
 30
0.0
 11
1987.0
 21
334.0
 31
0.0
  0
CIRCLE
  5
96F
  8
DATA
  6
CONTINUOUS
 62
     7
 10
1768.0
 20
262.0
 30
0.0
 40
54.0
  0
POLYLINE
  5
970
  8
DATA
  6
CONTINUOUS
 62
     7
 66
     1
 10
0.0
 20
0.0
 30
0.0
 70
     1
  0
VERTEX
  5
A1E
  8
DATA
  6
CONTINUOUS
 62
     7
 10
1768.0
 20
208.0
 30
0.0
  0
VERTEX
  5
A1F
  8
DATA
  6
CONTINUOUS
 62
     7
 10
1814.7653718043589
 20
235.0
 30
0.0
  0
VERTEX
  5
A20
  8
DATA
  6
CONTINUOUS
 62
     7
 10
1814.7653718043589
 20
289.0
 30
0.0
  0
VERTEX
  5
A21
  8
DATA
  6
CONTINUOUS
 62
     7
 10
1768.0
 20
316.0
 30
0.0
  0
VERTEX
  5
A22
  8
DATA
  6
CONTINUOUS
 62
     7
 10
1721.2346281956391
 20
289.0
 30
0.0
  0
VERTEX
  5
A23
  8
DATA
  6
CONTINUOUS
 62
     7
 10
1721.2346281956391
 20
235.0
 30
0.0
  0
SEQEND
  5
A24
  8
DATA
  6
CONTINUOUS
 62
     7
  0
CIRCLE
  5
978
  8
DATA
  6
CONTINUOUS
 62
     7
 10
1768.0
 20
262.0
 30
0.0
 40
19.5
  0
TEXT
  5
979
  8
DATA
 62
     7
 10
1959.25
 20
142.90000000000131
 30
0.0
 40
17.314453125
  1
±1 Full-Range
 41
0.85
 11
1959.25
 21
160.21445312500131
 31
0.0
 73
     3
  0
TEXT
  5
97A
  8
DATA
 62
     7
 10
1959.25
 20
111.1500000000009
 30
0.0
 40
17.314453125
  1
±2 N/C
 41
0.85
 11
1959.25
 21
128.46445312500089
 31
0.0
 73
     3
  0
TEXT
  5
97B
  8
DATA
 62
     7
 10
1828.0
 20
255.52000000000129
 30
0.0
 40
13.8515625
  1
(PARALLEL JACK)
 41
0.85
 11
1828.0
 21
269.37156250000129
 31
0.0
 73
     3
  0
TEXT
  5
97C
  8
DATA
 62
     7
 10
1651.0
 20
73.720000000001619
 30
0.0
 40
13.8515625
  1
MODEL JRX112M
 41
0.85
 11
1651.0
 21
87.571562500001619
 31
0.0
 73
     3
  0
TEXT
  5
97D
  8
DATA
 62
     7
 10
1855.0
 20
273.52000000000129
 30
0.0
 40
13.8515625
  1
IN / OUT
 41
0.85
 11
1855.0
 21
287.37156250000129
 31
0.0
 73
     3
  0
LINE
  5
97E
  8
DATA
  6
CONTINUOUS
 62
     7
 10
1564.0
 20
-14.0
 30
0.0
 11
1564.0
 21
358.0
 31
0.0
  0
ARC
  5
97F
  8
DATA
  6
CONTINUOUS
 62
     7
 10
199.5
 20
-382.5
 30
0.0
 40
42.5
 50
180.0
 51
0.0
  0
ARC
  5
980
  8
DATA
  6
CONTINUOUS
 62
     7
 10
199.5
 20
-327.5
 30
0.0
 40
42.5
 50
0.0
 51
180.0
  0
LINE
  5
981
  8
DATA
  6
CONTINUOUS
 62
     7
 10
157.0
 20
-327.5
 30
0.0
 11
157.0
 21
-382.5
 31
0.0
  0
LINE
  5
982
  8
DATA
  6
CONTINUOUS
 62
     7
 10
242.0
 20
-327.5
 30
0.0
 11
242.0
 21
-382.5
 31
0.0
  0
CIRCLE
  5
983
  8
DATA
  6
CONTINUOUS
 62
     7
 10
199.5
 20
-292.5
 30
0.0
 40
4.0
  0
LINE
  5
984
  8
DATA
  6
CONTINUOUS
 62
     7
 10
197.0
 20
-292.5
 30
0.0
 11
202.0
 21
-292.5
 31
0.0
  0
LINE
  5
985
  8
DATA
  6
CONTINUOUS
 62
     7
 10
199.5
 20
-290.0
 30
0.0
 11
199.5
 21
-295.0
 31
0.0
  0
CIRCLE
  5
986
  8
DATA
  6
CONTINUOUS
 62
     7
 10
199.5
 20
-327.5
 30
0.0
 40
18.0
  0
CIRCLE
  5
987
  8
DATA
  6
CONTINUOUS
 62
     7
 10
199.5
 20
-382.5
 30
0.0
 40
18.0
  0
CIRCLE
  5
988
  8
DATA
  6
CONTINUOUS
 62
     7
 10
227.0
 20
-327.5
 30
0.0
 40
4.0
  0
LINE
  5
989
  8
DATA
  6
CONTINUOUS
 62
     7
 10
224.5
 20
-327.5
 30
0.0
 11
229.5
 21
-327.5
 31
0.0
  0
LINE
  5
98A
  8
DATA
  6
CONTINUOUS
 62
     7
 10
227.0
 20
-325.0
 30
0.0
 11
227.0
 21
-330.0
 31
0.0
  0
CIRCLE
  5
98B
  8
DATA
  6
CONTINUOUS
 62
     7
 10
172.0
 20
-327.5
 30
0.0
 40
4.0
  0
LINE
  5
98C
  8
DATA
  6
CONTINUOUS
 62
     7
 10
169.5
 20
-327.5
 30
0.0
 11
174.5
 21
-327.5
 31
0.0
  0
LINE
  5
98D
  8
DATA
  6
CONTINUOUS
 62
     7
 10
172.0
 20
-325.0
 30
0.0
 11
172.0
 21
-330.0
 31
0.0
  0
CIRCLE
  5
98E
  8
DATA
  6
CONTINUOUS
 62
     7
 10
227.0
 20
-382.5
 30
0.0
 40
4.0
  0
LINE
  5
98F
  8
DATA
  6
CONTINUOUS
 62
     7
 10
224.5
 20
-382.5
 30
0.0
 11
229.5
 21
-382.5
 31
0.0
  0
LINE
  5
990
  8
DATA
  6
CONTINUOUS
 62
     7
 10
227.0
 20
-380.0
 30
0.0
 11
227.0
 21
-385.0
 31
0.0
  0
CIRCLE
  5
991
  8
DATA
  6
CONTINUOUS
 62
     7
 10
172.0
 20
-382.5
 30
0.0
 40
4.0
  0
LINE
  5
992
  8
DATA
  6
CONTINUOUS
 62
     7
 10
169.5
 20
-382.5
 30
0.0
 11
174.5
 21
-382.5
 31
0.0
  0
LINE
  5
993
  8
DATA
  6
CONTINUOUS
 62
     7
 10
172.0
 20
-380.0
 30
0.0
 11
172.0
 21
-385.0
 31
0.0
  0
CIRCLE
  5
994
  8
DATA
  6
CONTINUOUS
 62
     7
 10
199.5
 20
-417.49999999999989
 30
0.0
 40
4.0
  0
LINE
  5
995
  8
DATA
  6
CONTINUOUS
 62
     7
 10
197.0
 20
-417.49999999999989
 30
0.0
 11
202.0
 21
-417.49999999999989
 31
0.0
  0
LINE
  5
996
  8
DATA
  6
CONTINUOUS
 62
     7
 10
199.5
 20
-415.0
 30
0.0
 11
199.5
 21
-420.0
 31
0.0
  0
ARC
  5
997
  8
DATA
  6
CONTINUOUS
 62
     7
 10
199.5
 20
-337.43215673575179
 30
0.0
 40
17.999999999999929
 50
16.015252657998332
 51
163.9847473420017
  0
ENDSEC
  0
EOF
