  0
SECTION
  2
HEADER
  9
$ACADVER
  1
AC1009
  9
$INSBASE
 10
0.0
 20
0.0
 30
0.0
  9
$EXTMIN
 10
-620.04394195979012
 20
-936.25260411644547
 30
-0.0015258207003583
  9
$EXTMAX
 10
820.0439486653122
 20
1204.7879110560659
 30
0.0000000349246037
  9
$LIMMIN
 10
0.0
 20
0.0
  9
$LIMMAX
 10
0.0
 20
0.0
  9
$ORTHOMODE
 70
     0
  9
$REGENMODE
 70
     1
  9
$FILLMODE
 70
     1
  9
$QTEXTMODE
 70
     0
  9
$MIRRTEXT
 70
     1
  9
$DRAGMODE
 70
     2
  9
$LTSCALE
 40
40.640000000000001
  9
$OSMODE
 70
   231
  9
$ATTMODE
 70
     1
  9
$TEXTSIZE
 40
0.0
  9
$TRACEWID
 40
1.0
  9
$TEXTSTYLE
  7
STANDARD
  9
$CLAYER
  8
DATA
  9
$CELTYPE
  6
BYLAYER
  9
$CECOLOR
 62
   256
  9
$DIMSCALE
 40
1.0
  9
$DIMASZ
 40
0.18
  9
$DIMEXO
 40
0.0625
  9
$DIMDLI
 40
0.38
  9
$DIMRND
 40
0.0
  9
$DIMDLE
 40
0.0
  9
$DIMEXE
 40
0.18
  9
$DIMTP
 40
0.0
  9
$DIMTM
 40
0.0
  9
$DIMTXT
 40
0.18
  9
$DIMCEN
 40
0.09
  9
$DIMTSZ
 40
0.0
  9
$DIMTOL
 70
     0
  9
$DIMLIM
 70
     0
  9
$DIMTIH
 70
     1
  9
$DIMTOH
 70
     1
  9
$DIMSE1
 70
     0
  9
$DIMSE2
 70
     0
  9
$DIMTAD
 70
     0
  9
$DIMZIN
 70
     0
  9
$DIMBLK
  1

  9
$DIMASO
 70
     1
  9
$DIMSHO
 70
     1
  9
$DIMPOST
  1

  9
$DIMAPOST
  1

  9
$DIMALT
 70
     0
  9
$DIMALTD
 70
     2
  9
$DIMALTF
 40
25.399999999999999
  9
$DIMLFAC
 40
1.0
  9
$DIMTOFL
 70
     0
  9
$DIMTVP
 40
0.0
  9
$DIMTIX
 70
     0
  9
$DIMSOXD
 70
     0
  9
$DIMSAH
 70
     0
  9
$DIMBLK1
  1

  9
$DIMBLK2
  1

  9
$DIMSTYLE
  2
STANDARD
  9
$DIMCLRD
 70
     0
  9
$DIMCLRE
 70
     0
  9
$DIMCLRT
 70
     0
  9
$DIMTFAC
 40
1.0
  9
$DIMGAP
 40
0.09
  9
$LUNITS
 70
     2
  9
$LUPREC
 70
     4
  9
$SKETCHINC
 40
0.1
  9
$FILLETRAD
 40
0.0
  9
$AUNITS
 70
     0
  9
$AUPREC
 70
     0
  9
$MENU
  1
acad
  9
$ELEVATION
 40
0.0
  9
$PELEVATION
 40
0.0
  9
$THICKNESS
 40
0.0
  9
$LIMCHECK
 70
     0
  9
$BLIPMODE
 70
     0
  9
$CHAMFERA
 40
0.0
  9
$CHAMFERB
 40
0.0
  9
$SKPOLY
 70
     0
  9
$TDCREATE
 40
2455709.7565740752
  9
$TDUPDATE
 40
2455709.7571366779
  9
$TDINDWG
 40
0.0004660417
  9
$TDUSRTIMER
 40
0.0004658565
  9
$USRTIMER
 70
     1
  9
$ANGBASE
 50
0.0
  9
$ANGDIR
 70
     0
  9
$PDMODE
 70
     1
  9
$PDSIZE
 40
-2.0
  9
$PLINEWID
 40
0.0
  9
$COORDS
 70
     1
  9
$SPLFRAME
 70
     0
  9
$SPLINETYPE
 70
     6
  9
$SPLINESEGS
 70
     8
  9
$ATTDIA
 70
     0
  9
$ATTREQ
 70
     1
  9
$HANDLING
 70
     1
  9
$HANDSEED
  5
103E
  9
$SURFTAB1
 70
     6
  9
$SURFTAB2
 70
     6
  9
$SURFTYPE
 70
     6
  9
$SURFU
 70
     6
  9
$SURFV
 70
     6
  9
$UCSNAME
  2

  9
$UCSORG
 10
0.0
 20
0.0
 30
0.0
  9
$UCSXDIR
 10
1.0
 20
0.0
 30
0.0
  9
$UCSYDIR
 10
0.0
 20
1.0
 30
0.0
  9
$PUCSNAME
  2

  9
$PUCSORG
 10
0.0
 20
0.0
 30
0.0
  9
$PUCSXDIR
 10
1.0
 20
0.0
 30
0.0
  9
$PUCSYDIR
 10
0.0
 20
1.0
 30
0.0
  9
$USERI1
 70
     0
  9
$USERI2
 70
     0
  9
$USERI3
 70
     0
  9
$USERI4
 70
     0
  9
$USERI5
 70
     0
  9
$USERR1
 40
0.0
  9
$USERR2
 40
0.0
  9
$USERR3
 40
0.0
  9
$USERR4
 40
0.0
  9
$USERR5
 40
0.0
  9
$WORLDVIEW
 70
     1
  9
$SHADEDGE
 70
     3
  9
$SHADEDIF
 70
    70
  9
$TILEMODE
 70
     1
  9
$MAXACTVP
 70
    64
  9
$PLIMCHECK
 70
     0
  9
$PEXTMIN
 10
1.0000000000000000E+020
 20
1.0000000000000000E+020
 30
1.0000000000000000E+020
  9
$PEXTMAX
 10
-1.0000000000000000E+020
 20
-1.0000000000000000E+020
 30
-1.0000000000000000E+020
  9
$PLIMMIN
 10
0.0
 20
0.0
  9
$PLIMMAX
 10
12.0
 20
9.0
  9
$UNITMODE
 70
     0
  9
$VISRETAIN
 70
     0
  9
$PLINEGEN
 70
     1
  9
$PSLTSCALE
 70
     0
  0
ENDSEC
  0
SECTION
  2
TABLES
  0
TABLE
  2
VPORT
 70
     1
  0
VPORT
  2
*ACTIVE
 70
     0
 10
0.0
 20
0.0
 11
1.0
 21
1.0
 12
100.0000033527608
 22
134.26765346981031
 13
0.0
 23
0.0
 14
1.0
 24
1.0
 15
0.0
 25
0.0
 16
0.0
 26
0.0
 36
1.0
 17
0.0
 27
0.0
 37
0.0
 40
2163.7772286079721
 41
2.1382978723404249
 42
50.0
 43
0.0
 44
0.0
 50
0.0
 51
0.0
 71
     0
 72
  2000
 73
     1
 74
     1
 75
     0
 76
     0
 77
     0
 78
     0
  0
ENDTAB
  0
TABLE
  2
LTYPE
 70
    11
  0
LTYPE
  2
CONTINUOUS
 70
     0
  3
Solid line
 72
    65
 73
     0
 40
0.0
  0
ENDTAB
  0
TABLE
  2
LAYER
 70
     6
  0
LAYER
  2
0
 70
     0
 62
     7
  6
CONTINUOUS
  0
LAYER
  2
DATA
 70
     0
 62
     7
  6
CONTINUOUS
  0
LAYER
  2
HIBINO-BASE
 70
     0
 62
     7
  6
CONTINUOUS
  0
LAYER
  2
SPEC
 70
     0
 62
     7
  6
CONTINUOUS
  0
LAYER
  2
DIMNSIONS
 70
     0
 62
     7
  6
CONTINUOUS
  0
ENDTAB
  0
TABLE
  2
STYLE
 70
     2
  0
STYLE
  2
STANDARD
 70
     0
 40
0.0
 41
1.0
 50
0.0
 71
     0
 42
0.0
  3
txt
  4
BIGFONT.SHX
  0
ENDTAB
  0
TABLE
  2
VIEW
 70
     0
  0
ENDTAB
  0
TABLE
  2
UCS
 70
     0
  0
ENDTAB
  0
TABLE
  2
APPID
 70
     1
  0
APPID
  2
ACAD
 70
     0
  0
ENDTAB
  0
TABLE
  2
DIMSTYLE
 70
     1
  0
DIMSTYLE
  2
STANDARD
 70
     0
  3

  4

  5

  6

  7

 40
1.0
 41
0.18
 42
0.0625
 43
0.38
 44
0.18
 45
0.0
 46
0.0
 47
0.0
 48
0.0
140
0.18
141
0.09
142
0.0
143
25.399999999999999
144
1.0
145
0.0
146
1.0
147
0.09
 71
     0
 72
     0
 73
     1
 74
     1
 75
     0
 76
     0
 77
     0
 78
     0
170
     0
171
     2
172
     0
173
     0
174
     0
175
     0
176
     0
177
     0
178
     0
  0
ENDTAB
  0
ENDSEC
  0
SECTION
  2
BLOCKS
  0
BLOCK
  8
0
  2
$MODEL_SPACE
 70
     0
 10
0.0
 20
0.0
 30
0.0
  3
$MODEL_SPACE
  1

  0
ENDBLK
  5
9CA
  8
0
  0
BLOCK
 67
     1
  8
0
  2
$PAPER_SPACE
 70
     0
 10
0.0
 20
0.0
 30
0.0
  3
$PAPER_SPACE
  1

  0
ENDBLK
  5
9C6
 67
     1
  8
0
  0
ENDSEC
  0
SECTION
  2
ENTITIES
  0
LINE
  5
2D
  8
HIBINO-BASE
  6
CONTINUOUS
 62
     7
 10
-619.99999999999989
 20
1204.7227049999999
 30
0.0
 11
820.0
 21
1204.7227049999999
 31
0.0
  0
LINE
  5
2E
  8
HIBINO-BASE
  6
CONTINUOUS
 62
     7
 10
820.0
 20
-875.27729500000021
 30
0.0
 11
-619.99999999999989
 21
-875.27729500000021
 31
0.0
  0
LINE
  5
2F
  8
HIBINO-BASE
  6
CONTINUOUS
 62
     7
 10
-619.99999999999989
 20
-875.27729500000021
 30
0.0
 11
-619.99999999999989
 21
1204.7227049999999
 31
0.0
  0
TEXT
  5
30
  8
HIBINO-BASE
 62
     7
 10
-562.52799999999991
 20
-926.54671739999969
 30
0.0
 40
28.8003534375
  1
Hibino Corporation
 41
0.7
 11
-562.52799999999991
 21
-897.74636396249957
 31
0.0
 73
     3
  0
LINE
  5
31
  8
HIBINO-BASE
  6
CONTINUOUS
 62
     7
 10
820.0
 20
1204.7227049999999
 30
0.0
 11
820.0
 21
-875.27729500000021
 31
0.0
  0
LINE
  5
32
  8
HIBINO-BASE
  6
CONTINUOUS
 62
     7
 10
100.0
 20
-695.27729499999987
 30
0.0
 11
820.0
 21
-695.27729499999987
 31
0.0
  0
LINE
  5
33
  8
HIBINO-BASE
  6
CONTINUOUS
 62
     7
 10
100.0
 20
-875.27729500000021
 30
0.0
 11
100.0
 21
-695.27729499999987
 31
0.0
  0
TEXT
  5
34
  8
HIBINO-BASE
 62
     7
 10
107.2
 20
-715.34684166666671
 30
0.0
 40
13.03072916666666
  1
NOTE
 41
0.7
 11
107.2
 21
-702.31611250000003
 31
0.0
 73
     3
  0
LINE
  5
35
  8
HIBINO-BASE
  6
CONTINUOUS
 62
     7
 10
380.0
 20
-875.27729500000021
 30
0.0
 11
380.0
 21
-695.27729499999987
 31
0.0
  0
TEXT
  5
36
  8
HIBINO-BASE
 62
     7
 10
387.19999999999999
 20
-715.34684166666671
 30
0.0
 40
13.03072916666666
  1
TITLE
 41
0.7
 11
387.19999999999999
 21
-702.31611250000003
 31
0.0
 73
     3
  0
TEXT
  5
37
  8
HIBINO-BASE
 62
     7
 10
500.54712000000001
 20
-926.54671739999969
 30
0.0
 40
28.8003534375
  1
ヒビノ株式会社
 41
0.7
 11
500.54712000000001
 21
-897.74636396249957
 31
0.0
 73
     3
  0
LINE
  5
38
  8
HIBINO-BASE
  6
CONTINUOUS
 62
     7
 10
100.0
 20
-795.27729499999987
 30
0.0
 11
820.0
 21
-795.27729499999987
 31
0.0
  0
TEXT
  5
39
  8
HIBINO-BASE
 62
     7
 10
487.19999999999987
 20
-814.89628166666671
 30
0.0
 40
13.03072916666666
  1
DRAWN
 41
0.7
 11
487.19999999999987
 21
-801.86555249999992
 31
0.0
 73
     3
  0
TEXT
  5
3A
  8
HIBINO-BASE
 62
     7
 10
287.19999999999999
 20
-814.89628166666671
 30
0.0
 40
13.03072916666666
  1
DATE
 41
0.7
 11
287.19999999999999
 21
-801.86555249999992
 31
0.0
 73
     3
  0
TEXT
  5
3B
  8
HIBINO-BASE
 62
     7
 10
207.19999999999999
 20
-814.89628166666671
 30
0.0
 40
13.03072916666666
  1
SCALE
 41
0.7
 11
207.19999999999999
 21
-801.86555249999992
 31
0.0
 73
     3
  0
TEXT
  5
3C
  8
HIBINO-BASE
 62
     7
 10
387.19999999999999
 20
-814.89628166666671
 30
0.0
 40
13.03072916666666
  1
DESIGN
 41
0.7
 11
387.19999999999999
 21
-801.86555249999992
 31
0.0
 73
     3
  0
TEXT
  5
3D
  8
HIBINO-BASE
 62
     7
 10
687.19999999999982
 20
-814.89628166666671
 30
0.0
 40
13.03072916666666
  1
DRAWING NO.
 41
0.7
 11
687.19999999999982
 21
-801.86555249999992
 31
0.0
 73
     3
  0
TEXT
  5
3E
  8
HIBINO-BASE
 62
     7
 10
587.19999999999982
 20
-814.89628166666671
 30
0.0
 40
13.03072916666666
  1
CHECK
 41
0.7
 11
587.19999999999982
 21
-801.86555249999992
 31
0.0
 73
     3
  0
LINE
  5
3F
  8
HIBINO-BASE
  6
CONTINUOUS
 62
     7
 10
215.0
 20
-865.27729500000021
 30
0.0
 11
245.0
 21
-835.27729499999975
 31
0.0
  0
TEXT
  5
40
  8
HIBINO-BASE
 62
     7
 10
210.0
 20
-844.1488416666665
 30
0.0
 40
13.03072916666666
  1
1
 41
0.7
 11
210.0
 21
-831.11811249999994
 31
0.0
 73
     3
  0
LINE
  5
41
  8
HIBINO-BASE
  6
CONTINUOUS
 62
     7
 10
200.0
 20
-875.27729500000021
 30
0.0
 11
200.0
 21
-795.27729499999987
 31
0.0
  0
LINE
  5
42
  8
HIBINO-BASE
  6
CONTINUOUS
 62
     7
 10
279.99999999999989
 20
-875.27729500000021
 30
0.0
 11
279.99999999999989
 21
-795.27729499999987
 31
0.0
  0
LINE
  5
43
  8
HIBINO-BASE
  6
CONTINUOUS
 62
     7
 10
480.0
 20
-795.27729499999987
 30
0.0
 11
480.0
 21
-875.27729500000021
 31
0.0
  0
LINE
  5
44
  8
HIBINO-BASE
  6
CONTINUOUS
 62
     7
 10
680.0
 20
-795.27729499999987
 30
0.0
 11
680.0
 21
-875.27729500000021
 31
0.0
  0
LINE
  5
45
  8
HIBINO-BASE
  6
CONTINUOUS
 62
     7
 10
579.99999999999977
 20
-875.27729500000021
 30
0.0
 11
579.99999999999977
 21
-795.27729499999987
 31
0.0
  0
TEXT
  5
46
  8
HIBINO-BASE
 62
     7
 10
286.85232000000002
 20
-852.36812166666641
 30
0.0
 40
13.03072916666666
  1
'11.05.
 41
0.7
 11
286.85232000000002
 21
-839.33739249999985
 31
0.0
 73
     3
  0
TEXT
  5
47
  8
HIBINO-BASE
 62
     7
 10
240.0
 20
-862.0070846919366
 30
0.0
 40
13.03072916666666
  1
8
 41
0.7
 11
240.0
 21
-848.97635552526981
 31
0.0
 73
     3
  0
TEXT
  5
48
  8
HIBINO-BASE
 62
     7
 10
492.04648008827678
 20
-852.36812166666641
 30
0.0
 40
13.03072916666666
  1
T.Ootake
 41
0.7
 11
492.04648008827678
 21
-839.33739249999985
 31
0.0
 73
     3
  0
TEXT
  5
49
  8
HIBINO-BASE
 62
     7
 10
131.06666666666669
 20
-859.46929499999976
 30
0.0
 40
26.061458333333331
  1
A4
 41
0.7
 11
131.06666666666669
 21
-833.40783666666641
 31
0.0
 73
     3
  0
TEXT
  5
4A
  8
HIBINO-BASE
 62
     7
 10
107.6666666666666
 20
-816.232935
 30
0.0
 40
13.03072916666666
  1
PAPER SIZE
 41
0.7
 11
107.6666666666666
 21
-803.20220583333344
 31
0.0
 73
     3
  0
LINE
  5
4B
  8
SPEC
  6
CONTINUOUS
 62
     7
 10
-559.99999999999977
 20
1124.7227049999999
 30
0.0
 11
620.0
 21
1124.7227049999999
 31
0.0
  0
LINE
  5
4C
  8
SPEC
  6
CONTINUOUS
 62
     7
 10
-559.99999999999977
 20
1094.7227049999999
 30
0.0
 11
620.0
 21
1094.7227049999999
 31
0.0
  0
LINE
  5
4D
  8
SPEC
  6
CONTINUOUS
 62
     7
 10
-559.99999999999977
 20
974.72270500000013
 30
0.0
 11
620.0
 21
974.72270500000013
 31
0.0
  0
LINE
  5
4E
  8
SPEC
  6
CONTINUOUS
 62
     7
 10
-559.99999999999977
 20
1004.722705
 30
0.0
 11
620.0
 21
1004.722705
 31
0.0
  0
LINE
  5
4F
  8
SPEC
  6
CONTINUOUS
 62
     7
 10
-559.99999999999977
 20
1034.7227049999999
 30
0.0
 11
620.0
 21
1034.7227049999999
 31
0.0
  0
LINE
  5
50
  8
SPEC
  6
CONTINUOUS
 62
     7
 10
-559.99999999999977
 20
944.72270500000002
 30
0.0
 11
620.0
 21
944.72270500000002
 31
0.0
  0
LINE
  5
51
  8
SPEC
  6
CONTINUOUS
 62
     7
 10
-300.0
 20
884.72270499999979
 30
0.0
 11
620.0
 21
884.72270499999979
 31
0.0
  0
LINE
  5
52
  8
SPEC
  6
CONTINUOUS
 62
     7
 10
-559.99999999999977
 20
914.72270499999991
 30
0.0
 11
620.0
 21
914.72270499999991
 31
0.0
  0
LINE
  5
53
  8
SPEC
  6
CONTINUOUS
 62
     7
 10
-300.0
 20
854.72270499999979
 30
0.0
 11
620.0
 21
854.72270499999979
 31
0.0
  0
LINE
  5
54
  8
SPEC
  6
CONTINUOUS
 62
     7
 10
-300.0
 20
824.72270499999968
 30
0.0
 11
620.0
 21
824.72270499999968
 31
0.0
  0
LINE
  5
55
  8
SPEC
  6
CONTINUOUS
 62
     7
 10
-559.99999999999977
 20
1064.7227049999999
 30
0.0
 11
620.0
 21
1064.7227049999999
 31
0.0
  0
LINE
  5
56
  8
SPEC
  6
CONTINUOUS
 62
     7
 10
-300.0
 20
764.72270499999968
 30
0.0
 11
620.0
 21
764.72270499999968
 31
0.0
  0
LINE
  5
57
  8
SPEC
  6
CONTINUOUS
 62
     7
 10
-559.99999999999977
 20
1124.7227049999999
 30
0.0
 11
-559.99999999999977
 21
614.72270499999968
 31
0.0
  0
TEXT
  5
58
  8
SPEC
 62
     7
 10
-549.99999999999989
 20
1135.8688649999999
 30
0.0
 40
19.546093750000001
  1
仕様
 41
0.7
 11
-549.99999999999989
 21
1155.4149587500001
 31
0.0
 73
     3
  0
LINE
  5
59
  8
SPEC
  6
CONTINUOUS
 62
     7
 10
-300.0
 20
1124.7227049999999
 30
0.0
 11
-300.0
 21
614.72270499999968
 31
0.0
  0
LINE
  5
5A
  8
SPEC
  6
CONTINUOUS
 62
     7
 10
620.0
 20
1124.7227049999999
 30
0.0
 11
620.0
 21
614.72270499999968
 31
0.0
  0
TEXT
  5
5B
  8
SPEC
 62
     7
 10
-553.12814138759438
 20
981.9126932476496
 30
0.0
 40
15.202489999999999
  1
入力感度(92dB/1m)
 41
0.7
 11
-553.12814138759438
 21
997.11518324764972
 31
0.0
 73
     3
  0
TEXT
  5
5C
  8
SPEC
 62
     7
 10
-552.79999999999995
 20
1042.050143729291
 30
0.0
 40
15.202489999999999
  1
低域ユニット
 41
0.7
 11
-552.79999999999995
 21
1057.2526337292909
 31
0.0
 73
     3
  0
TEXT
  5
5D
  8
SPEC
 62
     7
 10
-292.62613112268463
 20
1071.2887041812519
 30
0.0
 40
15.202489999999999
  1
43Hz～20kHz
 41
0.7
 11
-292.62613112268463
 21
1086.491194181252
 31
0.0
 73
     3
  0
TEXT
  5
5E
  8
SPEC
 62
     7
 10
-552.68953217885883
 20
1071.6381146010981
 30
0.0
 40
15.202489999999999
  1
周波数特性
 41
0.7
 11
-552.68953217885883
 21
1086.840604601098
 31
0.0
 73
     3
  0
LINE
  5
5F
  8
SPEC
  6
CONTINUOUS
 62
     7
 10
-559.99999999999977
 20
794.72270499999968
 30
0.0
 11
620.0
 21
794.72270499999968
 31
0.0
  0
TEXT
  5
60
  8
SPEC
 62
     7
 10
-553.25488936205113
 20
622.41155177269604
 30
0.0
 40
15.202517361111109
  1
重量
 41
0.7
 11
-553.25488936205113
 21
637.61406913380711
 31
0.0
 73
     3
  0
TEXT
  5
61
  8
SPEC
 62
     7
 10
-293.29920882394742
 20
622.76533635876615
 30
0.0
 40
15.202517361111109
  1
約7kg
 41
0.7
 11
-293.29920882394742
 21
637.9678537198771
 31
0.0
 73
     3
  0
TEXT
  5
62
  8
SPEC
 62
     7
 10
-553.67097612571115
 20
653.02279715291593
 30
0.0
 40
15.202517361111109
  1
寸法
 41
0.7
 11
-553.67097612571115
 21
668.22531451402688
 31
0.0
 73
     3
  0
TEXT
  5
63
  8
SPEC
 62
     7
 10
-553.40840723333713
 20
682.58027524842828
 30
0.0
 40
15.202517361111109
  1
電源/消費電力
 41
0.7
 11
-553.40840723333713
 21
697.78279260953934
 31
0.0
 73
     3
  0
TEXT
  5
64
  8
SPEC
 62
     7
 10
-292.34463950173563
 20
681.70818886107145
 30
0.0
 40
15.202517361111109
  1
AC100V,50/60Hz
 41
0.7
 11
-292.34463950173563
 21
696.91070622218251
 31
0.0
 73
     3
  0
TEXT
  5
65
  8
SPEC
 62
     7
 10
-293.77804150312869
 20
652.42150989136053
 30
0.0
 40
15.202517361111109
  1
188(W)×300(H)×240(D)mm(突起は含まず) 
 41
0.7
 11
-293.77804150312869
 21
667.62402725247148
 31
0.0
 73
     3
  0
TEXT
  5
66
  8
SPEC
 62
     7
 10
-553.15076404206059
 20
1102.013044049304
 30
0.0
 40
15.202489999999999
  1
形式
 41
0.7
 11
-553.15076404206059
 21
1117.215534049303
 31
0.0
 73
     3
  0
TEXT
  5
67
  8
SPEC
 62
     7
 10
-292.98972756407392
 20
1101.7767798987461
 30
0.0
 40
15.202489999999999
  1
2^Iウェイ・バイアンプ内蔵スタジオモニタ(防磁仕様)
 41
0.7
 11
-292.98972756407392
 21
1116.9792698987451
 31
0.0
 73
     3
  0
TEXT
  5
68
  8
SPEC
 62
     7
 10
-293.71727216978468
 20
1042.1216845229919
 30
0.0
 40
15.202489999999999
  1
132mm
 41
0.7
 11
-293.71727216978468
 21
1057.3241745229909
 31
0.0
 73
     3
  0
TEXT
  5
69
  8
SPEC
 62
     7
 10
-553.01962823133545
 20
1012.77827083338
 30
0.0
 40
15.202489999999999
  1
高域ユニット
 41
0.7
 11
-553.01962823133545
 21
1027.9807608333799
 31
0.0
 73
     3
  0
TEXT
  5
6A
  8
SPEC
 62
     7
 10
-292.86402391256189
 20
1012.162076782679
 30
0.0
 40
15.202489999999999
  1
25mm
 41
0.7
 11
-292.86402391256189
 21
1027.364566782679
 31
0.0
 73
     3
  0
TEXT
  5
6B
  8
SPEC
 62
     7
 10
-292.3416954647081
 20
981.69757406777126
 30
0.0
 40
15.202489999999999
  1
-10dBV(XLR&フォーン)/-22dB(RCA)
 41
0.7
 11
-292.3416954647081
 21
996.90006406777115
 31
0.0
 73
     3
  0
TEXT
  5
6C
  8
SPEC
 62
     7
 10
-552.87228828925095
 20
952.8038174874556
 30
0.0
 40
15.202489999999999
  1
最大音圧
 41
0.7
 11
-552.87228828925095
 21
968.00630748745562
 31
0.0
 73
     3
  0
TEXT
  5
6D
  8
SPEC
 62
     7
 10
-293.5176255389639
 20
951.69666357547533
 30
0.0
 40
15.202489999999999
  1
101dB SPL/118dB SPL(ペア）
 41
0.7
 11
-293.5176255389639
 21
966.89915357547545
 31
0.0
 73
     3
  0
TEXT
  5
6E
  8
SPEC
 62
     7
 10
-554.19999999999993
 20
922.79513973256473
 30
0.0
 40
15.202489999999999
  1
クロスオーバー
 41
0.7
 11
-554.19999999999993
 21
937.99762973256475
 31
0.0
 73
     3
  0
TEXT
  5
6F
  8
SPEC
 62
     7
 10
-293.93588976431028
 20
921.86234934900688
 30
0.0
 40
15.202489999999999
  1
1.7kHz
 41
0.7
 11
-293.93588976431028
 21
937.06483934900689
 31
0.0
 73
     3
  0
TEXT
  5
70
  8
SPEC
 62
     7
 10
-552.55881047137973
 20
890.99063922886398
 30
0.0
 40
15.202489999999999
  1
パワーアンプ出力
 41
0.7
 11
-552.55881047137973
 21
906.193129228864
 31
0.0
 73
     3
  0
TEXT
  5
71
  8
SPEC
 62
     7
 10
-292.94667536660262
 20
892.38494800697674
 30
0.0
 40
15.202489999999999
  1
低域用：55W
 41
0.7
 11
-292.94667536660262
 21
907.58743800697675
 31
0.0
 73
     3
  0
TEXT
  5
72
  8
SPEC
 62
     7
 10
-292.7263934408781
 20
861.87315770539533
 30
0.0
 40
15.202489999999999
  1
THD+N:0.05%%%以下
 41
0.7
 11
-292.7263934408781
 21
877.07564770539545
 31
0.0
 73
     3
  0
TEXT
  5
73
  8
SPEC
 62
     7
 10
-292.82216203678053
 20
832.06959023557238
 30
0.0
 40
15.202489999999999
  1
高域用：35W
 41
0.7
 11
-292.82216203678053
 21
847.2720802355725
 31
0.0
 73
     3
  0
TEXT
  5
74
  8
SPEC
 62
     7
 10
-292.9982879065235
 20
802.53621502623582
 30
0.0
 40
15.202489999999999
  1
THD+N:0.05%%%以下
 41
0.7
 11
-292.9982879065235
 21
817.73870502623595
 31
0.0
 73
     3
  0
TEXT
  5
75
  8
SPEC
 62
     7
 10
-552.90624483011777
 20
771.01025279999999
 30
0.0
 40
15.202489999999999
  1
外装色
 41
0.7
 11
-552.90624483011777
 21
786.21274279999989
 31
0.0
 73
     3
  0
TEXT
  5
76
  8
SPEC
 62
     7
 10
-292.90075835921738
 20
772.16184951658556
 30
0.0
 40
15.202489999999999
  1
バッフル：メタリック無煙炭塗装
 41
0.7
 11
-292.90075835921738
 21
787.36433951658546
 31
0.0
 73
     3
  0
TEXT
  5
77
  8
SPEC
 62
     7
 10
-294.26649048287948
 20
741.96168674479725
 30
0.0
 40
15.202489999999999
  1
エンクロージャー：マットブラックPVC
 41
0.7
 11
-294.26649048287948
 21
757.16417674479715
 31
0.0
 73
     3
  0
LINE
  5
78
  8
SPEC
  6
CONTINUOUS
 62
     7
 10
-559.99999999999977
 20
734.72270499999979
 30
0.0
 11
620.0
 21
734.72270499999979
 31
0.0
  0
LINE
  5
79
  8
SPEC
  6
CONTINUOUS
 62
     7
 10
-559.99999999999977
 20
704.72270499999979
 30
0.0
 11
620.0
 21
704.72270499999979
 31
0.0
  0
LINE
  5
7A
  8
SPEC
  6
CONTINUOUS
 62
     7
 10
-559.99999999999977
 20
674.72270499999979
 30
0.0
 11
620.0
 21
674.72270499999979
 31
0.0
  0
LINE
  5
7B
  8
SPEC
  6
CONTINUOUS
 62
     7
 10
-559.99999999999977
 20
644.72270499999968
 30
0.0
 11
620.0
 21
644.72270499999968
 31
0.0
  0
LINE
  5
7C
  8
SPEC
  6
CONTINUOUS
 62
     7
 10
-559.99999999999977
 20
614.72270499999968
 30
0.0
 11
620.0
 21
614.72270499999968
 31
0.0
  0
TEXT
  5
7D
  8
SPEC
 62
     7
 10
-553.04373457240763
 20
711.60961180481706
 30
0.0
 40
15.202489999999999
  1
入力コネクタ 
 41
0.7
 11
-553.04373457240763
 21
726.81210180481708
 31
0.0
 73
     3
  0
TEXT
  5
7E
  8
SPEC
 62
     7
 10
-292.10864607865892
 20
711.72754495731749
 30
0.0
 40
15.202489999999999
  1
XLRメス(バランス)、標準フォーン(TRS）、RCA(アンバランス）
 41
0.7
 11
-292.10864607865892
 21
726.9300349573175
 31
0.0
 73
     3
  0
TEXT
  5
7F
  8
DIMNSIONS
 62
     7
 10
-60.000000000000021
 20
-777.12137499999994
 30
0.0
 40
19.546093750000001
  1
(単位：mm)
 41
0.7
 11
-60.000000000000021
 21
-757.57528124999999
 31
0.0
 73
     3
  0
LINE
  5
80
  8
DIMNSIONS
  6
CONTINUOUS
 62
     7
 10
-391.0
 20
50.0
 30
0.0
 11
-466.0
 21
50.0
 31
0.0
  0
LINE
  5
81
  8
DIMNSIONS
  6
CONTINUOUS
 62
     7
 10
-391.0
 20
290.0
 30
0.0
 11
-466.0
 21
290.0
 31
0.0
  0
LINE
  5
82
  8
DIMNSIONS
  6
CONTINUOUS
 62
     7
 10
-450.0
 20
50.0
 30
0.0
 11
-450.0
 21
290.0
 31
0.0
  0
LINE
  5
83
  8
DIMNSIONS
  6
CONTINUOUS
 62
     7
 10
-450.0
 20
50.0
 30
0.0
 11
-455.36031836120202
 21
70.004980468750006
 31
0.0
  0
LINE
  5
84
  8
DIMNSIONS
  6
CONTINUOUS
 62
     7
 10
-450.0
 20
50.0
 30
0.0
 11
-444.63968163879798
 21
70.004980468750006
 31
0.0
  0
LINE
  5
85
  8
DIMNSIONS
  6
CONTINUOUS
 62
     7
 10
-450.0
 20
290.0
 30
0.0
 11
-444.63968163879798
 21
269.99501953125002
 31
0.0
  0
LINE
  5
86
  8
DIMNSIONS
  6
CONTINUOUS
 62
     7
 10
-450.0
 20
290.0
 30
0.0
 11
-455.36031836120202
 21
269.99501953125002
 31
0.0
  0
TEXT
  5
87
  8
DIMNSIONS
 62
     7
 10
-457.95111111111089
 20
148.83333333333329
 30
0.0
 40
21.71788194444445
  1
240
 50
90.0
 41
0.7
 11
-479.6689930555554
 21
148.83333333333329
 31
0.0
 73
     3
  0
LINE
  5
88
  8
DIMNSIONS
  6
CONTINUOUS
 62
     7
 10
-391.0
 20
-350.0
 30
0.0
 11
-466.0
 21
-350.0
 31
0.0
  0
LINE
  5
89
  8
DIMNSIONS
  6
CONTINUOUS
 62
     7
 10
-391.0
 20
-50.0
 30
0.0
 11
-466.0
 21
-50.0
 31
0.0
  0
LINE
  5
8A
  8
DIMNSIONS
  6
CONTINUOUS
 62
     7
 10
-450.0
 20
-350.0
 30
0.0
 11
-450.0
 21
-50.0
 31
0.0
  0
LINE
  5
8B
  8
DIMNSIONS
  6
CONTINUOUS
 62
     7
 10
-450.0
 20
-350.0
 30
0.0
 11
-455.36031836120202
 21
-329.99501953125002
 31
0.0
  0
LINE
  5
8C
  8
DIMNSIONS
  6
CONTINUOUS
 62
     7
 10
-450.0
 20
-350.0
 30
0.0
 11
-444.63968163879798
 21
-329.99501953125002
 31
0.0
  0
LINE
  5
8D
  8
DIMNSIONS
  6
CONTINUOUS
 62
     7
 10
-450.0
 20
-50.0
 30
0.0
 11
-444.63968163879798
 21
-70.004980468750006
 31
0.0
  0
LINE
  5
8E
  8
DIMNSIONS
  6
CONTINUOUS
 62
     7
 10
-450.0
 20
-50.0
 30
0.0
 11
-455.36031836120202
 21
-70.004980468750006
 31
0.0
  0
TEXT
  5
8F
  8
DIMNSIONS
 62
     7
 10
-457.95111111111089
 20
-221.1666666666666
 30
0.0
 40
21.71788194444445
  1
300
 50
90.0
 41
0.7
 11
-479.6689930555554
 21
-221.1666666666666
 31
0.0
 73
     3
  0
LINE
  5
90
  8
DIMNSIONS
  6
CONTINUOUS
 62
     7
 10
-375.0
 20
-366.0
 30
0.0
 11
-375.0
 21
-441.0
 31
0.0
  0
LINE
  5
91
  8
DIMNSIONS
  6
CONTINUOUS
 62
     7
 10
-187.0
 20
-366.0
 30
0.0
 11
-187.0
 21
-441.0
 31
0.0
  0
LINE
  5
92
  8
DIMNSIONS
  6
CONTINUOUS
 62
     7
 10
-375.0
 20
-425.0
 30
0.0
 11
-187.0
 21
-425.0
 31
0.0
  0
LINE
  5
93
  8
DIMNSIONS
  6
CONTINUOUS
 62
     7
 10
-375.0
 20
-425.0
 30
0.0
 11
-354.99501953125002
 21
-419.63968163879798
 31
0.0
  0
LINE
  5
94
  8
DIMNSIONS
  6
CONTINUOUS
 62
     7
 10
-375.0
 20
-425.0
 30
0.0
 11
-354.99501953125002
 21
-430.36031836120202
 31
0.0
  0
LINE
  5
95
  8
DIMNSIONS
  6
CONTINUOUS
 62
     7
 10
-187.0
 20
-425.0
 30
0.0
 11
-207.00498046875001
 21
-430.36031836120202
 31
0.0
  0
LINE
  5
96
  8
DIMNSIONS
  6
CONTINUOUS
 62
     7
 10
-187.0
 20
-425.0
 30
0.0
 11
-207.00498046875001
 21
-419.63968163879798
 31
0.0
  0
TEXT
  5
97
  8
DIMNSIONS
 62
     7
 10
-302.16666666666669
 20
-417.04888888888888
 30
0.0
 40
21.71788194444445
  1
188
 41
0.7
 11
-302.16666666666669
 21
-395.33100694444448
 31
0.0
 73
     3
  0
LINE
  5
98
  8
DIMNSIONS
  6
CONTINUOUS
 62
     7
 10
-391.0
 20
290.0
 30
0.0
 11
-466.0
 21
290.0
 31
0.0
  0
LINE
  5
99
  8
DIMNSIONS
  6
CONTINUOUS
 62
     7
 10
-334.0
 20
304.0
 30
0.0
 11
-466.0
 21
304.0
 31
0.0
  0
LINE
  5
9A
  8
DIMNSIONS
  6
CONTINUOUS
 62
     7
 10
-450.0
 20
304.0
 30
0.0
 11
-450.0
 21
290.0
 31
0.0
  0
LINE
  5
9B
  8
DIMNSIONS
  6
CONTINUOUS
 62
     7
 10
-450.0
 20
290.0
 30
0.0
 11
-450.0
 21
250.0
 31
0.0
  0
LINE
  5
9C
  8
DIMNSIONS
  6
CONTINUOUS
 62
     7
 10
-450.0
 20
290.0
 30
0.0
 11
-444.63968163879798
 21
269.99501953125002
 31
0.0
  0
LINE
  5
9D
  8
DIMNSIONS
  6
CONTINUOUS
 62
     7
 10
-450.0
 20
290.0
 30
0.0
 11
-455.36031836120202
 21
269.99501953125002
 31
0.0
  0
LINE
  5
9E
  8
DIMNSIONS
  6
CONTINUOUS
 62
     7
 10
-450.0
 20
304.0
 30
0.0
 11
-450.0
 21
356.22222222222217
 31
0.0
  0
LINE
  5
9F
  8
DIMNSIONS
  6
CONTINUOUS
 62
     7
 10
-450.0
 20
304.0
 30
0.0
 11
-455.36031836120202
 21
324.00498046874998
 31
0.0
  0
LINE
  5
A0
  8
DIMNSIONS
  6
CONTINUOUS
 62
     7
 10
-450.0
 20
304.0
 30
0.0
 11
-444.63968163879798
 21
324.00498046874998
 31
0.0
  0
TEXT
  5
A1
  8
DIMNSIONS
 62
     7
 10
-457.95111111111089
 20
328.0
 30
0.0
 40
21.71788194444445
  1
14
 50
90.0
 41
0.7
 11
-479.6689930555554
 21
328.0
 31
0.0
 73
     3
  0
LINE
  5
A2
  8
DIMNSIONS
  6
CONTINUOUS
 62
     7
 10
-391.0
 20
-724.99999999974204
 30
0.0
 11
-466.0
 21
-724.99999999974204
 31
0.0
  0
LINE
  5
A3
  8
DIMNSIONS
  6
CONTINUOUS
 62
     7
 10
-325.39999999999998
 20
-685.99999999974204
 30
0.0
 11
-466.0
 21
-685.99999999974204
 31
0.0
  0
LINE
  5
A4
  8
DIMNSIONS
  6
CONTINUOUS
 62
     7
 10
-450.0
 20
-685.99999999974204
 30
0.0
 11
-450.0
 21
-724.99999999974204
 31
0.0
  0
LINE
  5
A5
  8
DIMNSIONS
  6
CONTINUOUS
 62
     7
 10
-450.0
 20
-724.99999999974204
 30
0.0
 11
-450.0
 21
-764.99999999974204
 31
0.0
  0
LINE
  5
A6
  8
DIMNSIONS
  6
CONTINUOUS
 62
     7
 10
-450.0
 20
-724.99999999974204
 30
0.0
 11
-444.63968163879798
 21
-745.00498046849202
 31
0.0
  0
LINE
  5
A7
  8
DIMNSIONS
  6
CONTINUOUS
 62
     7
 10
-450.0
 20
-724.99999999974204
 30
0.0
 11
-455.36031836120202
 21
-745.00498046849202
 31
0.0
  0
LINE
  5
A8
  8
DIMNSIONS
  6
CONTINUOUS
 62
     7
 10
-450.0
 20
-685.99999999974204
 30
0.0
 11
-450.0
 21
-645.99999999974204
 31
0.0
  0
LINE
  5
A9
  8
DIMNSIONS
  6
CONTINUOUS
 62
     7
 10
-450.0
 20
-685.99999999974204
 30
0.0
 11
-455.36031836120202
 21
-665.99501953099218
 31
0.0
  0
LINE
  5
AA
  8
DIMNSIONS
  6
CONTINUOUS
 62
     7
 10
-450.0
 20
-685.99999999974204
 30
0.0
 11
-444.63968163879798
 21
-665.99501953099218
 31
0.0
  0
TEXT
  5
AB
  8
DIMNSIONS
 62
     7
 10
-457.95111111111089
 20
-719.61111111085313
 30
0.0
 40
21.71788194444445
  1
39
 50
90.0
 41
0.7
 11
-479.6689930555554
 21
-719.61111111085313
 31
0.0
 73
     3
  0
LINE
  5
AC
  8
DIMNSIONS
  6
CONTINUOUS
 62
     7
 10
-325.39999999999998
 20
-685.99999999974204
 30
0.0
 11
-466.0
 21
-685.99999999974204
 31
0.0
  0
LINE
  5
AD
  8
DIMNSIONS
  6
CONTINUOUS
 62
     7
 10
-325.4500000000001
 20
-578.09999999974218
 30
0.0
 11
-466.0
 21
-578.09999999974218
 31
0.0
  0
LINE
  5
AE
  8
DIMNSIONS
  6
CONTINUOUS
 62
     7
 10
-450.0
 20
-685.99999999974204
 30
0.0
 11
-450.0
 21
-578.09999999974218
 31
0.0
  0
LINE
  5
AF
  8
DIMNSIONS
  6
CONTINUOUS
 62
     7
 10
-450.0
 20
-685.99999999974204
 30
0.0
 11
-455.36031836120202
 21
-665.99501953099218
 31
0.0
  0
LINE
  5
B0
  8
DIMNSIONS
  6
CONTINUOUS
 62
     7
 10
-450.0
 20
-685.99999999974204
 30
0.0
 11
-444.63968163879798
 21
-665.99501953099218
 31
0.0
  0
LINE
  5
B1
  8
DIMNSIONS
  6
CONTINUOUS
 62
     7
 10
-450.0
 20
-578.09999999974218
 30
0.0
 11
-444.63968163879798
 21
-598.10498046849193
 31
0.0
  0
LINE
  5
B2
  8
DIMNSIONS
  6
CONTINUOUS
 62
     7
 10
-450.0
 20
-578.09999999974218
 30
0.0
 11
-455.36031836120202
 21
-598.10498046849193
 31
0.0
  0
TEXT
  5
B3
  8
DIMNSIONS
 62
     7
 10
-457.95111111111112
 20
-667.32777777751994
 30
0.0
 40
21.71788194444445
  1
107.9
 50
90.0
 41
0.7
 11
-479.66899305555557
 21
-667.32777777751994
 31
0.0
 73
     3
  0
LINE
  5
B4
  8
DIMNSIONS
  6
CONTINUOUS
 62
     7
 10
-306.39999999999998
 20
-704.98288450974655
 30
0.0
 11
-306.39999999999998
 21
-816.0
 31
0.0
  0
LINE
  5
B5
  8
DIMNSIONS
  6
CONTINUOUS
 62
     7
 10
-255.59999999999999
 20
-704.99833286985347
 30
0.0
 11
-255.59999999999999
 21
-816.0
 31
0.0
  0
LINE
  5
B6
  8
DIMNSIONS
  6
CONTINUOUS
 62
     7
 10
-255.59999999999999
 20
-800.0
 30
0.0
 11
-168.55555555555549
 21
-800.0
 31
0.0
  0
LINE
  5
B7
  8
DIMNSIONS
  6
CONTINUOUS
 62
     7
 10
-306.39999999999998
 20
-800.0
 30
0.0
 11
-255.59999999999999
 21
-800.0
 31
0.0
  0
LINE
  5
B8
  8
DIMNSIONS
  6
CONTINUOUS
 62
     7
 10
-306.39999999999998
 20
-800.0
 30
0.0
 11
-286.39501953125
 21
-794.63968163879804
 31
0.0
  0
LINE
  5
B9
  8
DIMNSIONS
  6
CONTINUOUS
 62
     7
 10
-306.39999999999998
 20
-800.0
 30
0.0
 11
-286.39501953125
 21
-805.36031836120196
 31
0.0
  0
LINE
  5
BA
  8
DIMNSIONS
  6
CONTINUOUS
 62
     7
 10
-255.59999999999999
 20
-800.0
 30
0.0
 11
-275.60498046875
 21
-805.36031836120196
 31
0.0
  0
LINE
  5
BB
  8
DIMNSIONS
  6
CONTINUOUS
 62
     7
 10
-255.59999999999999
 20
-800.0
 30
0.0
 11
-275.60498046875
 21
-794.63968163879804
 31
0.0
  0
TEXT
  5
BC
  8
DIMNSIONS
 62
     7
 10
-225.0
 20
-792.04888888888888
 30
0.0
 40
21.71788194444445
  1
50.8
 41
0.7
 11
-225.0
 21
-770.33100694444443
 31
0.0
 73
     3
  0
LINE
  5
BD
  8
DIMNSIONS
  6
CONTINUOUS
 62
     7
 10
-381.5
 20
-352.5
 30
0.0
 11
-466.0
 21
-352.5
 31
0.0
  0
LINE
  5
BE
  8
DIMNSIONS
  6
CONTINUOUS
 62
     7
 10
-386.0
 20
-350.0
 30
0.0
 11
-466.0
 21
-350.0
 31
0.0
  0
LINE
  5
BF
  8
DIMNSIONS
  6
CONTINUOUS
 62
     7
 10
-450.0
 20
-350.0
 30
0.0
 11
-450.0
 21
-352.5
 31
0.0
  0
LINE
  5
C0
  8
DIMNSIONS
  6
CONTINUOUS
 62
     7
 10
-450.0
 20
-352.5
 30
0.0
 11
-450.0
 21
-417.33333333333331
 31
0.0
  0
LINE
  5
C1
  8
DIMNSIONS
  6
CONTINUOUS
 62
     7
 10
-450.0
 20
-352.5
 30
0.0
 11
-444.63968163879798
 21
-372.50498046874998
 31
0.0
  0
LINE
  5
C2
  8
DIMNSIONS
  6
CONTINUOUS
 62
     7
 10
-450.0
 20
-352.5
 30
0.0
 11
-455.36031836120202
 21
-372.50498046874998
 31
0.0
  0
LINE
  5
C3
  8
DIMNSIONS
  6
CONTINUOUS
 62
     7
 10
-450.0
 20
-350.0
 30
0.0
 11
-450.0
 21
-310.0
 31
0.0
  0
LINE
  5
C4
  8
DIMNSIONS
  6
CONTINUOUS
 62
     7
 10
-450.0
 20
-350.0
 30
0.0
 11
-455.36031836120202
 21
-329.99501953125002
 31
0.0
  0
LINE
  5
C5
  8
DIMNSIONS
  6
CONTINUOUS
 62
     7
 10
-450.0
 20
-350.0
 30
0.0
 11
-444.63968163879798
 21
-329.99501953125002
 31
0.0
  0
TEXT
  5
C6
  8
DIMNSIONS
 62
     7
 10
-457.95111111111089
 20
-417.3333333333332
 30
0.0
 40
21.71788194444445
  1
2.5
 50
90.0
 41
0.7
 11
-479.6689930555554
 21
-417.3333333333332
 31
0.0
 73
     3
  0
LINE
  5
C7
  8
DATA
  6
CONTINUOUS
 62
     7
 10
-375.0
 20
-345.0
 30
0.0
 11
-375.0
 21
-55.0
 31
0.0
  0
LINE
  5
C8
  8
DATA
  6
CONTINUOUS
 62
     7
 10
-187.0
 20
-55.0
 30
0.0
 11
-187.0
 21
-345.0
 31
0.0
  0
LINE
  5
C9
  8
DATA
  6
CONTINUOUS
 62
     7
 10
-375.0
 20
290.0
 30
0.0
 11
-187.0
 21
290.0
 31
0.0
  0
LINE
  5
CA
  8
DATA
  6
CONTINUOUS
 62
     7
 10
-187.0
 20
50.0
 30
0.0
 11
-187.0
 21
290.0
 31
0.0
  0
LINE
  5
CB
  8
DATA
  6
CONTINUOUS
 62
     7
 10
-375.0
 20
290.0
 30
0.0
 11
-375.0
 21
50.0
 31
0.0
  0
LINE
  5
CC
  8
DATA
  6
CONTINUOUS
 62
     7
 10
-375.0
 20
89.0
 30
0.0
 11
-187.0
 21
89.0
 31
0.0
  0
LINE
  5
CD
  8
DATA
  6
CONTINUOUS
 62
     7
 10
-375.0
 20
88.499999999999986
 30
0.0
 11
-187.0
 21
88.499999999999986
 31
0.0
  0
LINE
  5
CE
  8
DATA
  6
CONTINUOUS
 62
     7
 10
-370.0
 20
-350.0
 30
0.0
 11
-192.0
 21
-350.0
 31
0.0
  0
LINE
  5
CF
  8
DATA
  6
CONTINUOUS
 62
     7
 10
-370.0
 20
-50.0
 30
0.0
 11
-192.0
 21
-50.0
 31
0.0
  0
LINE
  5
D0
  8
DATA
  6
CONTINUOUS
 62
     7
 10
-100.0
 20
-350.0
 30
0.0
 11
-100.0
 21
-311.5
 31
0.0
  0
LINE
  5
D1
  8
DATA
  6
CONTINUOUS
 62
     7
 10
-100.0
 20
-172.5
 30
0.0
 11
-100.0
 21
-142.5
 31
0.0
  0
LINE
  5
D2
  8
DATA
  6
CONTINUOUS
 62
     7
 10
-100.0
 20
-77.5
 30
0.0
 11
-100.0
 21
-60.413002732540413
 31
0.0
  0
LINE
  5
D3
  8
DATA
  6
CONTINUOUS
 62
     7
 10
140.0
 20
-350.0
 30
0.0
 11
-100.0
 21
-350.0
 31
0.0
  0
LINE
  5
D4
  8
DATA
  6
CONTINUOUS
 62
     7
 10
140.0
 20
-50.0
 30
0.0
 11
140.0
 21
-350.0
 31
0.0
  0
LINE
  5
D5
  8
DATA
  6
CONTINUOUS
 62
     7
 10
-61.500000000000469
 20
-50.0
 30
0.0
 11
140.0
 21
-50.0
 31
0.0
  0
LINE
  5
D6
  8
DATA
  6
CONTINUOUS
 62
     7
 10
225.0
 20
-345.0
 30
0.0
 11
225.0
 21
-55.000000000000021
 31
0.0
  0
LINE
  5
D7
  8
DATA
  6
CONTINUOUS
 62
     7
 10
408.0
 20
-350.0
 30
0.0
 11
230.0
 21
-350.0
 31
0.0
  0
LINE
  5
D8
  8
DATA
  6
CONTINUOUS
 62
     7
 10
413.0
 20
-55.000000000000021
 30
0.0
 11
413.0
 21
-345.0
 31
0.0
  0
LINE
  5
D9
  8
DATA
  6
CONTINUOUS
 62
     7
 10
230.0
 20
-50.000000000000021
 30
0.0
 11
408.0
 21
-50.000000000000021
 31
0.0
  0
TEXT
  5
DA
  8
DATA
 62
     7
 10
499.12524465306541
 20
-724.35642660407996
 30
0.0
 40
19.546093750000001
  1
JBL
 41
0.7
 11
499.12524465306541
 21
-704.81033285408
 31
0.0
 73
     3
  0
TEXT
  5
DB
  8
DATA
 62
     7
 10
498.84398242041232
 20
-786.39939284981256
 30
0.0
 40
19.546093750000001
  1
LSR2325P
 41
0.7
 11
498.84398242041232
 21
-766.8532990998126
 31
0.0
 73
     3
  0
TEXT
  5
DC
  8
DATA
 62
     7
 10
483.49999999999989
 20
-751.98140443401348
 30
0.0
 40
13.03072916666666
  1
2ウェイ・バイアンプ内臓スタ ジオモニタ  
 41
0.7
 11
483.49999999999989
 21
-738.95067526734681
 31
0.0
 73
     3
  0
LINE
  5
DD
  8
DATA
  6
CONTINUOUS
 62
     7
 10
-353.26092456167908
 20
-58.5
 30
0.0
 11
-208.7390754383209
 21
-58.5
 31
0.0
  0
LINE
  5
DE
  8
DATA
  6
CONTINUOUS
 62
     7
 10
-365.5
 20
-352.5
 30
0.0
 11
-365.5
 21
-350.0
 31
0.0
  0
LINE
  5
DF
  8
DATA
  6
CONTINUOUS
 62
     7
 10
-196.5
 20
-352.5
 30
0.0
 11
-196.5
 21
-350.0
 31
0.0
  0
LINE
  5
E0
  8
DATA
  6
CONTINUOUS
 62
     7
 10
-365.5
 20
-352.5
 30
0.0
 11
-196.5
 21
-352.5
 31
0.0
  0
LINE
  5
E1
  8
DATA
  6
CONTINUOUS
 62
     7
 10
-365.806409229228
 20
-348.0
 30
0.0
 11
-196.193590770772
 21
-348.0
 31
0.0
  0
LINE
  5
E2
  8
DATA
  6
CONTINUOUS
 62
     7
 10
-370.8028037890146
 20
-342.81015426543132
 30
0.0
 11
-360.25587694538052
 21
-65.23421597160376
 31
0.0
  0
LINE
  5
E3
  8
DATA
  6
CONTINUOUS
 62
     7
 10
-201.74412305461959
 20
-65.23421597160376
 30
0.0
 11
-191.19719621098531
 21
-342.81015426543132
 31
0.0
  0
ARC
  5
E4
  8
DATA
  6
CONTINUOUS
 62
     7
 10
-370.0
 20
-55.0
 30
0.0
 40
5.0
 50
90.0
 51
180.0
  0
ARC
  5
E5
  8
DATA
  6
CONTINUOUS
 62
     7
 10
-192.0
 20
-55.0
 30
0.0
 40
5.0
 50
0.0
 51
90.0
  0
ARC
  5
E6
  8
DATA
  6
CONTINUOUS
 62
     7
 10
-370.0
 20
-345.0
 30
0.0
 40
5.0
 50
180.0
 51
270.0
  0
ARC
  5
E7
  8
DATA
  6
CONTINUOUS
 62
     7
 10
-192.0
 20
-345.0
 30
0.0
 40
5.0
 50
270.0
 51
0.0
  0
ARC
  5
E8
  8
DATA
  6
CONTINUOUS
 62
     7
 10
-365.806409229228
 20
-343.0
 30
0.0
 40
5.0000000000000302
 50
177.82400507700919
 51
269.99999999999932
  0
ARC
  5
E9
  8
DATA
  6
CONTINUOUS
 62
     7
 10
-196.193590770772
 20
-343.0
 30
0.0
 40
5.0
 50
270.0
 51
2.1759949229907529
  0
ARC
  5
EA
  8
DATA
  6
CONTINUOUS
 62
     7
 10
-353.26092456167908
 20
-65.5
 30
0.0
 40
7.0
 50
90.0
 51
177.8240050770091
  0
ARC
  5
EB
  8
DATA
  6
CONTINUOUS
 62
     7
 10
-208.7390754383209
 20
-65.5
 30
0.0
 40
7.0000000000000204
 50
2.175994922990848
 51
90.0
  0
POLYLINE
  5
EC
  8
DATA
  6
CONTINUOUS
 62
     7
 66
     1
 10
0.0
 20
0.0
 30
0.0
 70
   129
  0
VERTEX
  5
9E8
  8
DATA
  6
CONTINUOUS
 62
     7
 10
-286.25
 20
-99.174682452694526
 30
0.0
  0
VERTEX
  5
9E9
  8
DATA
  6
CONTINUOUS
 62
     7
 10
-286.17376630409831
 20
-99.122757484068515
 30
0.0
  0
VERTEX
  5
9EA
  8
DATA
  6
CONTINUOUS
 62
     7
 10
-286.09734855886012
 20
-99.071650231483844
 30
0.0
  0
VERTEX
  5
9EB
  8
DATA
  6
CONTINUOUS
 62
     7
 10
-286.02074676428538
 20
-99.021360694940512
 30
0.0
  0
VERTEX
  5
9EC
  8
DATA
  6
CONTINUOUS
 62
     7
 10
-285.94396092037431
 20
-98.971888874438577
 30
0.0
  0
VERTEX
  5
9ED
  8
DATA
  6
CONTINUOUS
 62
     7
 10
-285.86699102712669
 20
-98.92323476997791
 30
0.0
  0
VERTEX
  5
9EE
  8
DATA
  6
CONTINUOUS
 62
     7
 10
-285.78983708454268
 20
-98.875398381558682
 30
0.0
  0
VERTEX
  5
9EF
  8
DATA
  6
CONTINUOUS
 62
     7
 10
-285.71249909262218
 20
-98.828379709180794
 30
0.0
  0
VERTEX
  5
9F0
  8
DATA
  6
CONTINUOUS
 62
     7
 10
-285.63497705136518
 20
-98.782178752844274
 30
0.0
  0
VERTEX
  5
9F1
  8
DATA
  6
CONTINUOUS
 62
     7
 10
-285.5572709607718
 20
-98.736795512549051
 30
0.0
  0
VERTEX
  5
9F2
  8
DATA
  6
CONTINUOUS
 62
     7
 10
-285.47938082084198
 20
-98.692229988295225
 30
0.0
  0
VERTEX
  5
9F3
  8
DATA
  6
CONTINUOUS
 62
     7
 10
-285.40130663157572
 20
-98.648482180082766
 30
0.0
  0
VERTEX
  5
9F4
  8
DATA
  6
CONTINUOUS
 62
     7
 10
-285.32304839297291
 20
-98.605552087911647
 30
0.0
  0
VERTEX
  5
9F5
  8
DATA
  6
CONTINUOUS
 62
     7
 10
-285.24460610503382
 20
-98.563439711781825
 30
0.0
  0
VERTEX
  5
9F6
  8
DATA
  6
CONTINUOUS
 62
     7
 10
-285.16597976775819
 20
-98.522145051693442
 30
0.0
  0
VERTEX
  5
9F7
  8
DATA
  6
CONTINUOUS
 62
     7
 10
-285.087169381146
 20
-98.481668107646385
 30
0.0
  0
VERTEX
  5
9F8
  8
DATA
  6
CONTINUOUS
 62
     7
 10
-285.00817494519748
 20
-98.442008879640653
 30
0.0
  0
VERTEX
  5
9F9
  8
DATA
  6
CONTINUOUS
 62
     7
 10
-284.92899645991258
 20
-98.403167367676289
 30
0.0
  0
VERTEX
  5
9FA
  8
DATA
  6
CONTINUOUS
 62
     7
 10
-284.84963392529119
 20
-98.365143571753322
 30
0.0
  0
VERTEX
  5
9FB
  8
DATA
  6
CONTINUOUS
 62
     7
 10
-284.77008734133318
 20
-98.327937491871666
 30
0.0
  0
VERTEX
  5
9FC
  8
DATA
  6
CONTINUOUS
 62
     7
 10
-284.69035670803891
 20
-98.291549128031406
 30
0.0
  0
VERTEX
  5
9FD
  8
DATA
  6
CONTINUOUS
 62
     7
 10
-284.61044202540808
 20
-98.255978480232415
 30
0.0
  0
VERTEX
  5
9FE
  8
DATA
  6
CONTINUOUS
 62
     7
 10
-284.53034329344092
 20
-98.221225548474891
 30
0.0
  0
VERTEX
  5
9FF
  8
DATA
  6
CONTINUOUS
 62
     7
 10
-284.45006051213721
 20
-98.187290332758636
 30
0.0
  0
VERTEX
  5
A00
  8
DATA
  6
CONTINUOUS
 62
     7
 10
-284.36959368149689
 20
-98.154172833083777
 30
0.0
  0
VERTEX
  5
A01
  8
DATA
  6
CONTINUOUS
 62
     7
 10
-284.28894280152031
 20
-98.12187304945023
 30
0.0
  0
VERTEX
  5
A02
  8
DATA
  6
CONTINUOUS
 62
     7
 10
-284.20810787220728
 20
-98.090390981858079
 30
0.0
  0
VERTEX
  5
A03
  8
DATA
  6
CONTINUOUS
 62
     7
 10
-284.12708889355781
 20
-98.059726630307267
 30
0.0
  0
VERTEX
  5
A04
  8
DATA
  6
CONTINUOUS
 62
     7
 10
-284.04588586557179
 20
-98.029879994797838
 30
0.0
  0
VERTEX
  5
A05
  8
DATA
  6
CONTINUOUS
 62
     7
 10
-283.96449878824939
 20
-98.000851075329777
 30
0.0
  0
VERTEX
  5
A06
  8
DATA
  6
CONTINUOUS
 62
     7
 10
-283.88292766159049
 20
-97.972639871903013
 30
0.0
  0
VERTEX
  5
A07
  8
DATA
  6
CONTINUOUS
 62
     7
 10
-283.80117248559509
 20
-97.945246384517631
 30
0.0
  0
VERTEX
  5
A08
  8
DATA
  6
CONTINUOUS
 62
     7
 10
-283.71923326026342
 20
-97.918670613173603
 30
0.0
  0
VERTEX
  5
A09
  8
DATA
  6
CONTINUOUS
 62
     7
 10
-283.6371099855952
 20
-97.892912557870943
 30
0.0
  0
VERTEX
  5
A0A
  8
DATA
  6
CONTINUOUS
 62
     7
 10
-283.55480266159049
 20
-97.867972218609637
 30
0.0
  0
VERTEX
  5
A0B
  8
DATA
  6
CONTINUOUS
 62
     7
 10
-283.47231128824939
 20
-97.843849595389628
 30
0.0
  0
VERTEX
  5
A0C
  8
DATA
  6
CONTINUOUS
 62
     7
 10
-283.38963586557168
 20
-97.820544688211044
 30
0.0
  0
VERTEX
  5
A0D
  8
DATA
  6
CONTINUOUS
 62
     7
 10
-283.30677639355781
 20
-97.798057497073785
 30
0.0
  0
VERTEX
  5
A0E
  8
DATA
  6
CONTINUOUS
 62
     7
 10
-283.22373287220728
 20
-97.77638802197788
 30
0.0
  0
VERTEX
  5
A0F
  8
DATA
  6
CONTINUOUS
 62
     7
 10
-283.14050530152031
 20
-97.755536262923357
 30
0.0
  0
VERTEX
  5
A10
  8
DATA
  6
CONTINUOUS
 62
     7
 10
-283.05709368149689
 20
-97.735502219910146
 30
0.0
  0
VERTEX
  5
A11
  8
DATA
  6
CONTINUOUS
 62
     7
 10
-282.97349801213721
 20
-97.716285892938316
 30
0.0
  0
VERTEX
  5
A12
  8
DATA
  6
CONTINUOUS
 62
     7
 10
-282.88971829344081
 20
-97.697887282007855
 30
0.0
  0
VERTEX
  5
A13
  8
DATA
  6
CONTINUOUS
 62
     7
 10
-282.80575452540808
 20
-97.680306387118733
 30
0.0
  0
VERTEX
  5
A14
  8
DATA
  6
CONTINUOUS
 62
     7
 10
-282.72160670803891
 20
-97.663543208270937
 30
0.0
  0
VERTEX
  5
A15
  8
DATA
  6
CONTINUOUS
 62
     7
 10
-282.63727484133318
 20
-97.647597745464509
 30
0.0
  0
VERTEX
  5
A16
  8
DATA
  6
CONTINUOUS
 62
     7
 10
-282.55275892529119
 20
-97.632469998699449
 30
0.0
  0
VERTEX
  5
A17
  8
DATA
  6
CONTINUOUS
 62
     7
 10
-282.46805895991258
 20
-97.618159967975714
 30
0.0
  0
VERTEX
  5
A18
  8
DATA
  6
CONTINUOUS
 62
     7
 10
-282.38317494519748
 20
-97.604667653293404
 30
0.0
  0
VERTEX
  5
A19
  8
DATA
  6
CONTINUOUS
 62
     7
 10
-282.298106881146
 20
-97.591993054652434
 30
0.0
  0
VERTEX
  5
A1A
  8
DATA
  6
CONTINUOUS
 62
     7
 10
-282.21285476775807
 20
-97.580136172052775
 30
0.0
  0
VERTEX
  5
A1B
  8
DATA
  6
CONTINUOUS
 62
     7
 10
-282.12741860503382
 20
-97.569097005494442
 30
0.0
  0
VERTEX
  5
A1C
  8
DATA
  6
CONTINUOUS
 62
     7
 10
-282.04179839297291
 20
-97.558875554977519
 30
0.0
  0
VERTEX
  5
A1D
  8
DATA
  6
CONTINUOUS
 62
     7
 10
-281.95599413157572
 20
-97.549471820501964
 30
0.0
  0
VERTEX
  5
A1E
  8
DATA
  6
CONTINUOUS
 62
     7
 10
-281.87000582084198
 20
-97.540885802067763
 30
0.0
  0
VERTEX
  5
A1F
  8
DATA
  6
CONTINUOUS
 62
     7
 10
-281.7838334607718
 20
-97.533117499674873
 30
0.0
  0
VERTEX
  5
A20
  8
DATA
  6
CONTINUOUS
 62
     7
 10
-281.69747705136518
 20
-97.526166913323365
 30
0.0
  0
VERTEX
  5
A21
  8
DATA
  6
CONTINUOUS
 62
     7
 10
-281.61093659262218
 20
-97.520034043013155
 30
0.0
  0
VERTEX
  5
A22
  8
DATA
  6
CONTINUOUS
 62
     7
 10
-281.52421208454268
 20
-97.514718888744355
 30
0.0
  0
VERTEX
  5
A23
  8
DATA
  6
CONTINUOUS
 62
     7
 10
-281.43730352712669
 20
-97.510221450516923
 30
0.0
  0
VERTEX
  5
A24
  8
DATA
  6
CONTINUOUS
 62
     7
 10
-281.35021092037431
 20
-97.506541728330845
 30
0.0
  0
VERTEX
  5
A25
  8
DATA
  6
CONTINUOUS
 62
     7
 10
-281.26293426428538
 20
-97.503679722186064
 30
0.0
  0
VERTEX
  5
A26
  8
DATA
  6
CONTINUOUS
 62
     7
 10
-281.17547355886012
 20
-97.501635432082708
 30
0.0
  0
VERTEX
  5
A27
  8
DATA
  6
CONTINUOUS
 62
     7
 10
-281.08782880409819
 20
-97.500408858020705
 30
0.0
  0
VERTEX
  5
A28
  8
DATA
  6
CONTINUOUS
 62
     7
 10
-281.0
 20
-97.5
 30
0.0
  0
VERTEX
  5
A29
  8
DATA
  6
CONTINUOUS
 62
     7
 10
-280.91217119590169
 20
-97.500408858020705
 30
0.0
  0
VERTEX
  5
A2A
  8
DATA
  6
CONTINUOUS
 62
     7
 10
-280.82452644113999
 20
-97.501635432082708
 30
0.0
  0
VERTEX
  5
A2B
  8
DATA
  6
CONTINUOUS
 62
     7
 10
-280.73706573571462
 20
-97.503679722186064
 30
0.0
  0
VERTEX
  5
A2C
  8
DATA
  6
CONTINUOUS
 62
     7
 10
-280.64978907962569
 20
-97.506541728330845
 30
0.0
  0
VERTEX
  5
A2D
  8
DATA
  6
CONTINUOUS
 62
     7
 10
-280.5626964728732
 20
-97.510221450516923
 30
0.0
  0
VERTEX
  5
A2E
  8
DATA
  6
CONTINUOUS
 62
     7
 10
-280.47578791545732
 20
-97.514718888744355
 30
0.0
  0
VERTEX
  5
A2F
  8
DATA
  6
CONTINUOUS
 62
     7
 10
-280.38906340737788
 20
-97.520034043013155
 30
0.0
  0
VERTEX
  5
A30
  8
DATA
  6
CONTINUOUS
 62
     7
 10
-280.30252294863482
 20
-97.526166913323365
 30
0.0
  0
VERTEX
  5
A31
  8
DATA
  6
CONTINUOUS
 62
     7
 10
-280.21616653922808
 20
-97.533117499674873
 30
0.0
  0
VERTEX
  5
A32
  8
DATA
  6
CONTINUOUS
 62
     7
 10
-280.12999417915802
 20
-97.540885802067763
 30
0.0
  0
VERTEX
  5
A33
  8
DATA
  6
CONTINUOUS
 62
     7
 10
-280.04400586842428
 20
-97.549471820501964
 30
0.0
  0
VERTEX
  5
A34
  8
DATA
  6
CONTINUOUS
 62
     7
 10
-279.95820160702698
 20
-97.558875554977519
 30
0.0
  0
VERTEX
  5
A35
  8
DATA
  6
CONTINUOUS
 62
     7
 10
-279.87258139496618
 20
-97.569097005494442
 30
0.0
  0
VERTEX
  5
A36
  8
DATA
  6
CONTINUOUS
 62
     7
 10
-279.78714523224193
 20
-97.580136172052775
 30
0.0
  0
VERTEX
  5
A37
  8
DATA
  6
CONTINUOUS
 62
     7
 10
-279.701893118854
 20
-97.591993054652434
 30
0.0
  0
VERTEX
  5
A38
  8
DATA
  6
CONTINUOUS
 62
     7
 10
-279.61682505480252
 20
-97.604667653293404
 30
0.0
  0
VERTEX
  5
A39
  8
DATA
  6
CONTINUOUS
 62
     7
 10
-279.53194104008742
 20
-97.618159967975714
 30
0.0
  0
VERTEX
  5
A3A
  8
DATA
  6
CONTINUOUS
 62
     7
 10
-279.44724107470893
 20
-97.632469998699449
 30
0.0
  0
VERTEX
  5
A3B
  8
DATA
  6
CONTINUOUS
 62
     7
 10
-279.36272515866682
 20
-97.647597745464509
 30
0.0
  0
VERTEX
  5
A3C
  8
DATA
  6
CONTINUOUS
 62
     7
 10
-279.27839329196109
 20
-97.663543208270937
 30
0.0
  0
VERTEX
  5
A3D
  8
DATA
  6
CONTINUOUS
 62
     7
 10
-279.19424547459192
 20
-97.680306387118733
 30
0.0
  0
VERTEX
  5
A3E
  8
DATA
  6
CONTINUOUS
 62
     7
 10
-279.11028170655919
 20
-97.697887282007855
 30
0.0
  0
VERTEX
  5
A3F
  8
DATA
  6
CONTINUOUS
 62
     7
 10
-279.02650198786279
 20
-97.716285892938316
 30
0.0
  0
VERTEX
  5
A40
  8
DATA
  6
CONTINUOUS
 62
     7
 10
-278.94290631850311
 20
-97.735502219910146
 30
0.0
  0
VERTEX
  5
A41
  8
DATA
  6
CONTINUOUS
 62
     7
 10
-278.85949469847969
 20
-97.755536262923357
 30
0.0
  0
VERTEX
  5
A42
  8
DATA
  6
CONTINUOUS
 62
     7
 10
-278.77626712779272
 20
-97.77638802197788
 30
0.0
  0
VERTEX
  5
A43
  8
DATA
  6
CONTINUOUS
 62
     7
 10
-278.69322360644219
 20
-97.798057497073785
 30
0.0
  0
VERTEX
  5
A44
  8
DATA
  6
CONTINUOUS
 62
     7
 10
-278.6103641344281
 20
-97.820544688211044
 30
0.0
  0
VERTEX
  5
A45
  8
DATA
  6
CONTINUOUS
 62
     7
 10
-278.52768871175061
 20
-97.843849595389628
 30
0.0
  0
VERTEX
  5
A46
  8
DATA
  6
CONTINUOUS
 62
     7
 10
-278.4451973384094
 20
-97.867972218609637
 30
0.0
  0
VERTEX
  5
A47
  8
DATA
  6
CONTINUOUS
 62
     7
 10
-278.3628900144048
 20
-97.892912557870943
 30
0.0
  0
VERTEX
  5
A48
  8
DATA
  6
CONTINUOUS
 62
     7
 10
-278.28076673973658
 20
-97.918670613173603
 30
0.0
  0
VERTEX
  5
A49
  8
DATA
  6
CONTINUOUS
 62
     7
 10
-278.19882751440491
 20
-97.945246384517631
 30
0.0
  0
VERTEX
  5
A4A
  8
DATA
  6
CONTINUOUS
 62
     7
 10
-278.1170723384094
 20
-97.972639871903013
 30
0.0
  0
VERTEX
  5
A4B
  8
DATA
  6
CONTINUOUS
 62
     7
 10
-278.03550121175061
 20
-98.000851075329777
 30
0.0
  0
VERTEX
  5
A4C
  8
DATA
  6
CONTINUOUS
 62
     7
 10
-277.95411413442821
 20
-98.029879994797838
 30
0.0
  0
VERTEX
  5
A4D
  8
DATA
  6
CONTINUOUS
 62
     7
 10
-277.87291110644219
 20
-98.059726630307267
 30
0.0
  0
VERTEX
  5
A4E
  8
DATA
  6
CONTINUOUS
 62
     7
 10
-277.79189212779272
 20
-98.090390981858079
 30
0.0
  0
VERTEX
  5
A4F
  8
DATA
  6
CONTINUOUS
 62
     7
 10
-277.71105719847969
 20
-98.12187304945023
 30
0.0
  0
VERTEX
  5
A50
  8
DATA
  6
CONTINUOUS
 62
     7
 10
-277.63040631850311
 20
-98.154172833083777
 30
0.0
  0
VERTEX
  5
A51
  8
DATA
  6
CONTINUOUS
 62
     7
 10
-277.54993948786279
 20
-98.187290332758636
 30
0.0
  0
VERTEX
  5
A52
  8
DATA
  6
CONTINUOUS
 62
     7
 10
-277.46965670655908
 20
-98.221225548474891
 30
0.0
  0
VERTEX
  5
A53
  8
DATA
  6
CONTINUOUS
 62
     7
 10
-277.38955797459192
 20
-98.255978480232415
 30
0.0
  0
VERTEX
  5
A54
  8
DATA
  6
CONTINUOUS
 62
     7
 10
-277.30964329196109
 20
-98.291549128031406
 30
0.0
  0
VERTEX
  5
A55
  8
DATA
  6
CONTINUOUS
 62
     7
 10
-277.22991265866682
 20
-98.327937491871666
 30
0.0
  0
VERTEX
  5
A56
  8
DATA
  6
CONTINUOUS
 62
     7
 10
-277.15036607470893
 20
-98.365143571753322
 30
0.0
  0
VERTEX
  5
A57
  8
DATA
  6
CONTINUOUS
 62
     7
 10
-277.07100354008742
 20
-98.403167367676289
 30
0.0
  0
VERTEX
  5
A58
  8
DATA
  6
CONTINUOUS
 62
     7
 10
-276.99182505480252
 20
-98.442008879640653
 30
0.0
  0
VERTEX
  5
A59
  8
DATA
  6
CONTINUOUS
 62
     7
 10
-276.912830618854
 20
-98.481668107646385
 30
0.0
  0
VERTEX
  5
A5A
  8
DATA
  6
CONTINUOUS
 62
     7
 10
-276.83402023224193
 20
-98.522145051693442
 30
0.0
  0
VERTEX
  5
A5B
  8
DATA
  6
CONTINUOUS
 62
     7
 10
-276.75539389496618
 20
-98.563439711781825
 30
0.0
  0
VERTEX
  5
A5C
  8
DATA
  6
CONTINUOUS
 62
     7
 10
-276.67695160702698
 20
-98.605552087911647
 30
0.0
  0
VERTEX
  5
A5D
  8
DATA
  6
CONTINUOUS
 62
     7
 10
-276.59869336842428
 20
-98.648482180082766
 30
0.0
  0
VERTEX
  5
A5E
  8
DATA
  6
CONTINUOUS
 62
     7
 10
-276.52061917915802
 20
-98.692229988295225
 30
0.0
  0
VERTEX
  5
A5F
  8
DATA
  6
CONTINUOUS
 62
     7
 10
-276.44272903922808
 20
-98.736795512549051
 30
0.0
  0
VERTEX
  5
A60
  8
DATA
  6
CONTINUOUS
 62
     7
 10
-276.36502294863482
 20
-98.782178752844274
 30
0.0
  0
VERTEX
  5
A61
  8
DATA
  6
CONTINUOUS
 62
     7
 10
-276.28750090737788
 20
-98.828379709180794
 30
0.0
  0
VERTEX
  5
A62
  8
DATA
  6
CONTINUOUS
 62
     7
 10
-276.21016291545732
 20
-98.875398381558682
 30
0.0
  0
VERTEX
  5
A63
  8
DATA
  6
CONTINUOUS
 62
     7
 10
-276.1330089728732
 20
-98.92323476997791
 30
0.0
  0
VERTEX
  5
A64
  8
DATA
  6
CONTINUOUS
 62
     7
 10
-276.05603907962569
 20
-98.971888874438577
 30
0.0
  0
VERTEX
  5
A65
  8
DATA
  6
CONTINUOUS
 62
     7
 10
-275.97925323571462
 20
-99.021360694940512
 30
0.0
  0
VERTEX
  5
A66
  8
DATA
  6
CONTINUOUS
 62
     7
 10
-275.90265144113999
 20
-99.071650231483844
 30
0.0
  0
VERTEX
  5
A67
  8
DATA
  6
CONTINUOUS
 62
     7
 10
-275.82623369590169
 20
-99.122757484068515
 30
0.0
  0
VERTEX
  5
A68
  8
DATA
  6
CONTINUOUS
 62
     7
 10
-275.75
 20
-99.174682452694526
 30
0.0
  0
VERTEX
  5
A69
  8
DATA
  6
CONTINUOUS
 62
     7
 10
-275.6741097448355
 20
-99.227315584185433
 30
0.0
  0
VERTEX
  5
A6A
  8
DATA
  6
CONTINUOUS
 62
     7
 10
-275.59872232180959
 20
-99.280547325364793
 30
0.0
  0
VERTEX
  5
A6B
  8
DATA
  6
CONTINUOUS
 62
     7
 10
-275.52383773092168
 20
-99.334377676232563
 30
0.0
  0
VERTEX
  5
A6C
  8
DATA
  6
CONTINUOUS
 62
     7
 10
-275.44945597217207
 20
-99.3888066367888
 30
0.0
  0
VERTEX
  5
A6D
  8
DATA
  6
CONTINUOUS
 62
     7
 10
-275.37557704556087
 20
-99.443834207033476
 30
0.0
  0
VERTEX
  5
A6E
  8
DATA
  6
CONTINUOUS
 62
     7
 10
-275.30220095108791
 20
-99.499460386966575
 30
0.0
  0
VERTEX
  5
A6F
  8
DATA
  6
CONTINUOUS
 62
     7
 10
-275.22932768875319
 20
-99.555685176588113
 30
0.0
  0
VERTEX
  5
A70
  8
DATA
  6
CONTINUOUS
 62
     7
 10
-275.15695725855687
 20
-99.612508575898076
 30
0.0
  0
VERTEX
  5
A71
  8
DATA
  6
CONTINUOUS
 62
     7
 10
-275.08508966049868
 20
-99.669930584896505
 30
0.0
  0
VERTEX
  5
A72
  8
DATA
  6
CONTINUOUS
 62
     7
 10
-275.01372489457901
 20
-99.727951203583373
 30
0.0
  0
VERTEX
  5
A73
  8
DATA
  6
CONTINUOUS
 62
     7
 10
-274.94286296079741
 20
-99.786570431958637
 30
0.0
  0
VERTEX
  5
A74
  8
DATA
  6
CONTINUOUS
 62
     7
 10
-274.87250385915422
 20
-99.845788270022354
 30
0.0
  0
VERTEX
  5
A75
  8
DATA
  6
CONTINUOUS
 62
     7
 10
-274.80264758964921
 20
-99.905604717774494
 30
0.0
  0
VERTEX
  5
A76
  8
DATA
  6
CONTINUOUS
 62
     7
 10
-274.7332941522825
 20
-99.966019775215074
 30
0.0
  0
VERTEX
  5
A77
  8
DATA
  6
CONTINUOUS
 62
     7
 10
-274.66444354705408
 20
-100.02703344234411
 30
0.0
  0
VERTEX
  5
A78
  8
DATA
  6
CONTINUOUS
 62
     7
 10
-274.59609577396412
 20
-100.08864571916151
 30
0.0
  0
VERTEX
  5
A79
  8
DATA
  6
CONTINUOUS
 62
     7
 10
-274.52825083301218
 20
-100.1508566056674
 30
0.0
  0
VERTEX
  5
A7A
  8
DATA
  6
CONTINUOUS
 62
     7
 10
-274.4609087241987
 20
-100.2136661018617
 30
0.0
  0
VERTEX
  5
A7B
  8
DATA
  6
CONTINUOUS
 62
     7
 10
-274.39406944752341
 20
-100.2770742077445
 30
0.0
  0
VERTEX
  5
A7C
  8
DATA
  6
CONTINUOUS
 62
     7
 10
-274.32773300298652
 20
-100.3410809233157
 30
0.0
  0
VERTEX
  5
A7D
  8
DATA
  6
CONTINUOUS
 62
     7
 10
-274.26189939058781
 20
-100.40568624857541
 30
0.0
  0
VERTEX
  5
A7E
  8
DATA
  6
CONTINUOUS
 62
     7
 10
-274.1965686103274
 20
-100.47089018352349
 30
0.0
  0
VERTEX
  5
A7F
  8
DATA
  6
CONTINUOUS
 62
     7
 10
-274.13174066220529
 20
-100.53669272815991
 30
0.0
  0
VERTEX
  5
A80
  8
DATA
  6
CONTINUOUS
 62
     7
 10
-274.06741554622153
 20
-100.6030938824849
 30
0.0
  0
VERTEX
  5
A81
  8
DATA
  6
CONTINUOUS
 62
     7
 10
-274.003593262376
 20
-100.6700936464982
 30
0.0
  0
VERTEX
  5
A82
  8
DATA
  6
CONTINUOUS
 62
     7
 10
-273.94027381066871
 20
-100.7376920202001
 30
0.0
  0
VERTEX
  5
A83
  8
DATA
  6
CONTINUOUS
 62
     7
 10
-273.87745719109972
 20
-100.80588900359029
 30
0.0
  0
VERTEX
  5
A84
  8
DATA
  6
CONTINUOUS
 62
     7
 10
-273.81514340366908
 20
-100.874684596669
 30
0.0
  0
VERTEX
  5
A85
  8
DATA
  6
CONTINUOUS
 62
     7
 10
-273.75333244837668
 20
-100.9440787994361
 30
0.0
  0
VERTEX
  5
A86
  8
DATA
  6
CONTINUOUS
 62
     7
 10
-273.69202432522258
 20
-101.01407161189169
 30
0.0
  0
VERTEX
  5
A87
  8
DATA
  6
CONTINUOUS
 62
     7
 10
-273.63121903420682
 20
-101.0846630340357
 30
0.0
  0
VERTEX
  5
A88
  8
DATA
  6
CONTINUOUS
 62
     7
 10
-273.57091657532919
 20
-101.1558530658681
 30
0.0
  0
VERTEX
  5
A89
  8
DATA
  6
CONTINUOUS
 62
     7
 10
-273.51111694858997
 20
-101.227641707389
 30
0.0
  0
VERTEX
  5
A8A
  8
DATA
  6
CONTINUOUS
 62
     7
 10
-273.4518201539891
 20
-101.3000289585983
 30
0.0
  0
VERTEX
  5
A8B
  8
DATA
  6
CONTINUOUS
 62
     7
 10
-273.39302619152642
 20
-101.37301481949601
 30
0.0
  0
VERTEX
  5
A8C
  8
DATA
  6
CONTINUOUS
 62
     7
 10
-273.33473506120203
 20
-101.4465992900822
 30
0.0
  0
VERTEX
  5
A8D
  8
DATA
  6
CONTINUOUS
 62
     7
 10
-273.27694676301593
 20
-101.5207823703567
 30
0.0
  0
VERTEX
  5
A8E
  8
DATA
  6
CONTINUOUS
 62
     7
 10
-273.21966129696813
 20
-101.5955640603199
 30
0.0
  0
VERTEX
  5
A8F
  8
DATA
  6
CONTINUOUS
 62
     7
 10
-273.16287866305862
 20
-101.6709443599713
 30
0.0
  0
VERTEX
  5
A90
  8
DATA
  6
CONTINUOUS
 62
     7
 10
-273.1065988612873
 20
-101.7469232693112
 30
0.0
  0
VERTEX
  5
A91
  8
DATA
  6
CONTINUOUS
 62
     7
 10
-273.05082189165438
 20
-101.8235007883396
 30
0.0
  0
VERTEX
  5
A92
  8
DATA
  6
CONTINUOUS
 62
     7
 10
-272.9955477541597
 20
-101.9006769170564
 30
0.0
  0
VERTEX
  5
A93
  8
DATA
  6
CONTINUOUS
 62
     7
 10
-272.94077644880332
 20
-101.9784516554617
 30
0.0
  0
VERTEX
  5
A94
  8
DATA
  6
CONTINUOUS
 62
     7
 10
-272.88650797558518
 20
-102.0568250035553
 30
0.0
  0
VERTEX
  5
A95
  8
DATA
  6
CONTINUOUS
 62
     7
 10
-272.83274233450538
 20
-102.13579696133741
 30
0.0
  0
VERTEX
  5
A96
  8
DATA
  6
CONTINUOUS
 62
     7
 10
-272.77947952556389
 20
-102.2153675288079
 30
0.0
  0
VERTEX
  5
A97
  8
DATA
  6
CONTINUOUS
 62
     7
 10
-272.72671954876068
 20
-102.2955367059669
 30
0.0
  0
VERTEX
  5
A98
  8
DATA
  6
CONTINUOUS
 62
     7
 10
-272.67446240409572
 20
-102.3763044928143
 30
0.0
  0
VERTEX
  5
A99
  8
DATA
  6
CONTINUOUS
 62
     7
 10
-272.622708091569
 20
-102.4576708893501
 30
0.0
  0
VERTEX
  5
A9A
  8
DATA
  6
CONTINUOUS
 62
     7
 10
-272.57145661118068
 20
-102.53963589557441
 30
0.0
  0
VERTEX
  5
A9B
  8
DATA
  6
CONTINUOUS
 62
     7
 10
-272.5207079629306
 20
-102.6221995114871
 30
0.0
  0
VERTEX
  5
A9C
  8
DATA
  6
CONTINUOUS
 62
     7
 10
-272.47046214681882
 20
-102.7053617370883
 30
0.0
  0
VERTEX
  5
A9D
  8
DATA
  6
CONTINUOUS
 62
     7
 10
-272.42071916284522
 20
-102.78912257237781
 30
0.0
  0
VERTEX
  5
A9E
  8
DATA
  6
CONTINUOUS
 62
     7
 10
-272.37147901101002
 20
-102.8734820173559
 30
0.0
  0
VERTEX
  5
A9F
  8
DATA
  6
CONTINUOUS
 62
     7
 10
-272.32274169131313
 20
-102.9584400720223
 30
0.0
  0
VERTEX
  5
AA0
  8
DATA
  6
CONTINUOUS
 62
     7
 10
-272.27450720375441
 20
-103.0439967363772
 30
0.0
  0
VERTEX
  5
AA1
  8
DATA
  6
CONTINUOUS
 62
     7
 10
-272.22677554833399
 20
-103.1301520104205
 30
0.0
  0
VERTEX
  5
AA2
  8
DATA
  6
CONTINUOUS
 62
     7
 10
-272.17954672505198
 20
-103.2169058941523
 30
0.0
  0
VERTEX
  5
AA3
  8
DATA
  6
CONTINUOUS
 62
     7
 10
-272.1328207339082
 20
-103.3042583875725
 30
0.0
  0
VERTEX
  5
AA4
  8
DATA
  6
CONTINUOUS
 62
     7
 10
-272.08659757490261
 20
-103.3922094906811
 30
0.0
  0
VERTEX
  5
AA5
  8
DATA
  6
CONTINUOUS
 62
     7
 10
-272.04087724803537
 20
-103.4807592034782
 30
0.0
  0
VERTEX
  5
AA6
  8
DATA
  6
CONTINUOUS
 62
     7
 10
-271.99565975330648
 20
-103.5699075259637
 30
0.0
  0
VERTEX
  5
AA7
  8
DATA
  6
CONTINUOUS
 62
     7
 10
-271.95094509071578
 20
-103.6596544581376
 30
0.0
  0
VERTEX
  5
AA8
  8
DATA
  6
CONTINUOUS
 62
     7
 10
-271.90673326026342
 20
-103.75
 30
0.0
  0
VERTEX
  5
AA9
  8
DATA
  6
CONTINUOUS
 62
     7
 10
-271.86311628661753
 20
-103.840754399883
 30
0.0
  0
VERTEX
  5
AAA
  8
DATA
  6
CONTINUOUS
 62
     7
 10
-271.82018619444642
 20
-103.93172790611899
 30
0.0
  0
VERTEX
  5
AAB
  8
DATA
  6
CONTINUOUS
 62
     7
 10
-271.77794298374999
 20
-104.02292051870791
 30
0.0
  0
VERTEX
  5
AAC
  8
DATA
  6
CONTINUOUS
 62
     7
 10
-271.73638665452842
 20
-104.11433223764971
 30
0.0
  0
VERTEX
  5
AAD
  8
DATA
  6
CONTINUOUS
 62
     7
 10
-271.6955172067814
 20
-104.20596306294451
 30
0.0
  0
VERTEX
  5
AAE
  8
DATA
  6
CONTINUOUS
 62
     7
 10
-271.6553346405093
 20
-104.29781299459211
 30
0.0
  0
VERTEX
  5
AAF
  8
DATA
  6
CONTINUOUS
 62
     7
 10
-271.61583895571192
 20
-104.3898820325926
 30
0.0
  0
VERTEX
  5
AB0
  8
DATA
  6
CONTINUOUS
 62
     7
 10
-271.57703015238923
 20
-104.4821701769461
 30
0.0
  0
VERTEX
  5
AB1
  8
DATA
  6
CONTINUOUS
 62
     7
 10
-271.53890823054121
 20
-104.5746774276526
 30
0.0
  0
VERTEX
  5
AB2
  8
DATA
  6
CONTINUOUS
 62
     7
 10
-271.50147319016799
 20
-104.66740378471189
 30
0.0
  0
VERTEX
  5
AB3
  8
DATA
  6
CONTINUOUS
 62
     7
 10
-271.4647250312695
 20
-104.7603492481241
 30
0.0
  0
VERTEX
  5
AB4
  8
DATA
  6
CONTINUOUS
 62
     7
 10
-271.42866375384568
 20
-104.85351381788919
 30
0.0
  0
VERTEX
  5
AB5
  8
DATA
  6
CONTINUOUS
 62
     7
 10
-271.39328935789672
 20
-104.9468974940073
 30
0.0
  0
VERTEX
  5
AB6
  8
DATA
  6
CONTINUOUS
 62
     7
 10
-271.35860184342249
 20
-105.0405002764783
 30
0.0
  0
VERTEX
  5
AB7
  8
DATA
  6
CONTINUOUS
 62
     7
 10
-271.324601210423
 20
-105.13432216530219
 30
0.0
  0
VERTEX
  5
AB8
  8
DATA
  6
CONTINUOUS
 62
     7
 10
-271.29128745889818
 20
-105.22836316047901
 30
0.0
  0
VERTEX
  5
AB9
  8
DATA
  6
CONTINUOUS
 62
     7
 10
-271.2586605888481
 20
-105.3226232620088
 30
0.0
  0
VERTEX
  5
ABA
  8
DATA
  6
CONTINUOUS
 62
     7
 10
-271.22672060027281
 20
-105.4171024698915
 30
0.0
  0
VERTEX
  5
ABB
  8
DATA
  6
CONTINUOUS
 62
     7
 10
-271.1954674931722
 20
-105.5118007841271
 30
0.0
  0
VERTEX
  5
ABC
  8
DATA
  6
CONTINUOUS
 62
     7
 10
-271.1649012675465
 20
-105.60671820471561
 30
0.0
  0
VERTEX
  5
ABD
  8
DATA
  6
CONTINUOUS
 62
     7
 10
-271.1350219233953
 20
-105.70185473165699
 30
0.0
  0
VERTEX
  5
ABE
  8
DATA
  6
CONTINUOUS
 62
     7
 10
-271.10582946071889
 20
-105.7972103649514
 30
0.0
  0
VERTEX
  5
ABF
  8
DATA
  6
CONTINUOUS
 62
     7
 10
-271.07732387951728
 20
-105.8927851045987
 30
0.0
  0
VERTEX
  5
AC0
  8
DATA
  6
CONTINUOUS
 62
     7
 10
-271.0495051797904
 20
-105.98857895059879
 30
0.0
  0
VERTEX
  5
AC1
  8
DATA
  6
CONTINUOUS
 62
     7
 10
-271.02237336153831
 20
-106.084591902952
 30
0.0
  0
VERTEX
  5
AC2
  8
DATA
  6
CONTINUOUS
 62
     7
 10
-270.9959284247609
 20
-106.18082396165801
 30
0.0
  0
VERTEX
  5
AC3
  8
DATA
  6
CONTINUOUS
 62
     7
 10
-270.97017036945817
 20
-106.2772751267169
 30
0.0
  0
VERTEX
  5
AC4
  8
DATA
  6
CONTINUOUS
 62
     7
 10
-270.94509919563029
 20
-106.3739453981288
 30
0.0
  0
VERTEX
  5
AC5
  8
DATA
  6
CONTINUOUS
 62
     7
 10
-270.92071490327709
 20
-106.47083477589359
 30
0.0
  0
VERTEX
  5
AC6
  8
DATA
  6
CONTINUOUS
 62
     7
 10
-270.89701749239862
 20
-106.5679432600113
 30
0.0
  0
VERTEX
  5
AC7
  8
DATA
  6
CONTINUOUS
 62
     7
 10
-270.87400696299488
 20
-106.6652708504819
 30
0.0
  0
VERTEX
  5
AC8
  8
DATA
  6
CONTINUOUS
 62
     7
 10
-270.85168331506588
 20
-106.7628175473055
 30
0.0
  0
VERTEX
  5
AC9
  8
DATA
  6
CONTINUOUS
 62
     7
 10
-270.83004654861162
 20
-106.8605833504819
 30
0.0
  0
VERTEX
  5
ACA
  8
DATA
  6
CONTINUOUS
 62
     7
 10
-270.80909666363209
 20
-106.9585682600113
 30
0.0
  0
VERTEX
  5
ACB
  8
DATA
  6
CONTINUOUS
 62
     7
 10
-270.7888336601273
 20
-107.05677227589359
 30
0.0
  0
VERTEX
  5
ACC
  8
DATA
  6
CONTINUOUS
 62
     7
 10
-270.76925753809729
 20
-107.1551953981288
 30
0.0
  0
VERTEX
  5
ACD
  8
DATA
  6
CONTINUOUS
 62
     7
 10
-270.75036829754202
 20
-107.2538376267169
 30
0.0
  0
VERTEX
  5
ACE
  8
DATA
  6
CONTINUOUS
 62
     7
 10
-270.73216593846138
 20
-107.35269896165801
 30
0.0
  0
VERTEX
  5
ACF
  8
DATA
  6
CONTINUOUS
 62
     7
 10
-270.71465046085558
 20
-107.451779402952
 30
0.0
  0
VERTEX
  5
AD0
  8
DATA
  6
CONTINUOUS
 62
     7
 10
-270.69782186472457
 20
-107.55107895059879
 30
0.0
  0
VERTEX
  5
AD1
  8
DATA
  6
CONTINUOUS
 62
     7
 10
-270.6816801500683
 20
-107.6505976045987
 30
0.0
  0
VERTEX
  5
AD2
  8
DATA
  6
CONTINUOUS
 62
     7
 10
-270.6662253168866
 20
-107.7503353649514
 30
0.0
  0
VERTEX
  5
AD3
  8
DATA
  6
CONTINUOUS
 62
     7
 10
-270.65145736517968
 20
-107.85029223165699
 30
0.0
  0
VERTEX
  5
AD4
  8
DATA
  6
CONTINUOUS
 62
     7
 10
-270.63737629494761
 20
-107.95046820471561
 30
0.0
  0
VERTEX
  5
AD5
  8
DATA
  6
CONTINUOUS
 62
     7
 10
-270.62398210619023
 20
-108.0508632841271
 30
0.0
  0
VERTEX
  5
AD6
  8
DATA
  6
CONTINUOUS
 62
     7
 10
-270.61127479890757
 20
-108.1514774698915
 30
0.0
  0
VERTEX
  5
AD7
  8
DATA
  6
CONTINUOUS
 62
     7
 10
-270.5992543730996
 20
-108.2523107620088
 30
0.0
  0
VERTEX
  5
AD8
  8
DATA
  6
CONTINUOUS
 62
     7
 10
-270.58792082876653
 20
-108.35336316047901
 30
0.0
  0
VERTEX
  5
AD9
  8
DATA
  6
CONTINUOUS
 62
     7
 10
-270.57727416590802
 20
-108.45463466530219
 30
0.0
  0
VERTEX
  5
ADA
  8
DATA
  6
CONTINUOUS
 62
     7
 10
-270.56731438452442
 20
-108.5561252764783
 30
0.0
  0
VERTEX
  5
ADB
  8
DATA
  6
CONTINUOUS
 62
     7
 10
-270.55804148461539
 20
-108.6578349940073
 30
0.0
  0
VERTEX
  5
ADC
  8
DATA
  6
CONTINUOUS
 62
     7
 10
-270.54945546618109
 20
-108.75976381788919
 30
0.0
  0
VERTEX
  5
ADD
  8
DATA
  6
CONTINUOUS
 62
     7
 10
-270.54155632922169
 20
-108.8619117481241
 30
0.0
  0
VERTEX
  5
ADE
  8
DATA
  6
CONTINUOUS
 62
     7
 10
-270.53434407373692
 20
-108.96427878471189
 30
0.0
  0
VERTEX
  5
ADF
  8
DATA
  6
CONTINUOUS
 62
     7
 10
-270.52781869972688
 20
-109.0668649276526
 30
0.0
  0
VERTEX
  5
AE0
  8
DATA
  6
CONTINUOUS
 62
     7
 10
-270.52198020719158
 20
-109.1696701769461
 30
0.0
  0
VERTEX
  5
AE1
  8
DATA
  6
CONTINUOUS
 62
     7
 10
-270.51682859613112
 20
-109.2726945325926
 30
0.0
  0
VERTEX
  5
AE2
  8
DATA
  6
CONTINUOUS
 62
     7
 10
-270.51236386654529
 20
-109.37593799459211
 30
0.0
  0
VERTEX
  5
AE3
  8
DATA
  6
CONTINUOUS
 62
     7
 10
-270.50858601843407
 20
-109.47940056294451
 30
0.0
  0
VERTEX
  5
AE4
  8
DATA
  6
CONTINUOUS
 62
     7
 10
-270.50549505179788
 20
-109.58308223764971
 30
0.0
  0
VERTEX
  5
AE5
  8
DATA
  6
CONTINUOUS
 62
     7
 10
-270.50309096663631
 20
-109.68698301870791
 30
0.0
  0
VERTEX
  5
AE6
  8
DATA
  6
CONTINUOUS
 62
     7
 10
-270.50137376294953
 20
-109.79110290611899
 30
0.0
  0
VERTEX
  5
AE7
  8
DATA
  6
CONTINUOUS
 62
     7
 10
-270.50034344073742
 20
-109.895441899883
 30
0.0
  0
VERTEX
  5
AE8
  8
DATA
  6
CONTINUOUS
 62
     7
 10
-270.5
 20
-110.0
 30
0.0
  0
VERTEX
  5
AE9
  8
DATA
  6
CONTINUOUS
 62
     7
 10
-270.50034344073742
 20
-110.1045581001169
 30
0.0
  0
VERTEX
  5
AEA
  8
DATA
  6
CONTINUOUS
 62
     7
 10
-270.50137376294953
 20
-110.20889709388091
 30
0.0
  0
VERTEX
  5
AEB
  8
DATA
  6
CONTINUOUS
 62
     7
 10
-270.50309096663631
 20
-110.31301698129209
 30
0.0
  0
VERTEX
  5
AEC
  8
DATA
  6
CONTINUOUS
 62
     7
 10
-270.50549505179788
 20
-110.4169177623502
 30
0.0
  0
VERTEX
  5
AED
  8
DATA
  6
CONTINUOUS
 62
     7
 10
-270.50858601843407
 20
-110.52059943705549
 30
0.0
  0
VERTEX
  5
AEE
  8
DATA
  6
CONTINUOUS
 62
     7
 10
-270.51236386654529
 20
-110.62406200540779
 30
0.0
  0
VERTEX
  5
AEF
  8
DATA
  6
CONTINUOUS
 62
     7
 10
-270.51682859613112
 20
-110.72730546740731
 30
0.0
  0
VERTEX
  5
AF0
  8
DATA
  6
CONTINUOUS
 62
     7
 10
-270.52198020719158
 20
-110.8303298230538
 30
0.0
  0
VERTEX
  5
AF1
  8
DATA
  6
CONTINUOUS
 62
     7
 10
-270.52781869972688
 20
-110.9331350723474
 30
0.0
  0
VERTEX
  5
AF2
  8
DATA
  6
CONTINUOUS
 62
     7
 10
-270.53434407373692
 20
-111.03572121528811
 30
0.0
  0
VERTEX
  5
AF3
  8
DATA
  6
CONTINUOUS
 62
     7
 10
-270.54155632922169
 20
-111.1380882518759
 30
0.0
  0
VERTEX
  5
AF4
  8
DATA
  6
CONTINUOUS
 62
     7
 10
-270.54945546618109
 20
-111.24023618211071
 30
0.0
  0
VERTEX
  5
AF5
  8
DATA
  6
CONTINUOUS
 62
     7
 10
-270.55804148461539
 20
-111.3421650059926
 30
0.0
  0
VERTEX
  5
AF6
  8
DATA
  6
CONTINUOUS
 62
     7
 10
-270.56731438452442
 20
-111.4438747235217
 30
0.0
  0
VERTEX
  5
AF7
  8
DATA
  6
CONTINUOUS
 62
     7
 10
-270.57727416590802
 20
-111.54536533469771
 30
0.0
  0
VERTEX
  5
AF8
  8
DATA
  6
CONTINUOUS
 62
     7
 10
-270.58792082876653
 20
-111.64663683952089
 30
0.0
  0
VERTEX
  5
AF9
  8
DATA
  6
CONTINUOUS
 62
     7
 10
-270.5992543730996
 20
-111.7476892379911
 30
0.0
  0
VERTEX
  5
AFA
  8
DATA
  6
CONTINUOUS
 62
     7
 10
-270.61127479890757
 20
-111.8485225301085
 30
0.0
  0
VERTEX
  5
AFB
  8
DATA
  6
CONTINUOUS
 62
     7
 10
-270.62398210619023
 20
-111.9491367158729
 30
0.0
  0
VERTEX
  5
AFC
  8
DATA
  6
CONTINUOUS
 62
     7
 10
-270.63737629494761
 20
-112.0495317952843
 30
0.0
  0
VERTEX
  5
AFD
  8
DATA
  6
CONTINUOUS
 62
     7
 10
-270.65145736517968
 20
-112.14970776834291
 30
0.0
  0
VERTEX
  5
AFE
  8
DATA
  6
CONTINUOUS
 62
     7
 10
-270.6662253168866
 20
-112.2496646350486
 30
0.0
  0
VERTEX
  5
AFF
  8
DATA
  6
CONTINUOUS
 62
     7
 10
-270.6816801500683
 20
-112.3494023954013
 30
0.0
  0
VERTEX
  5
B00
  8
DATA
  6
CONTINUOUS
 62
     7
 10
-270.69782186472457
 20
-112.44892104940109
 30
0.0
  0
VERTEX
  5
B01
  8
DATA
  6
CONTINUOUS
 62
     7
 10
-270.71465046085558
 20
-112.548220597048
 30
0.0
  0
VERTEX
  5
B02
  8
DATA
  6
CONTINUOUS
 62
     7
 10
-270.73216593846138
 20
-112.64730103834199
 30
0.0
  0
VERTEX
  5
B03
  8
DATA
  6
CONTINUOUS
 62
     7
 10
-270.75036829754202
 20
-112.746162373283
 30
0.0
  0
VERTEX
  5
B04
  8
DATA
  6
CONTINUOUS
 62
     7
 10
-270.76925753809729
 20
-112.8448046018712
 30
0.0
  0
VERTEX
  5
B05
  8
DATA
  6
CONTINUOUS
 62
     7
 10
-270.7888336601273
 20
-112.94322772410641
 30
0.0
  0
VERTEX
  5
B06
  8
DATA
  6
CONTINUOUS
 62
     7
 10
-270.80909666363209
 20
-113.0414317399887
 30
0.0
  0
VERTEX
  5
B07
  8
DATA
  6
CONTINUOUS
 62
     7
 10
-270.83004654861162
 20
-113.139416649518
 30
0.0
  0
VERTEX
  5
B08
  8
DATA
  6
CONTINUOUS
 62
     7
 10
-270.85168331506588
 20
-113.2371824526945
 30
0.0
  0
VERTEX
  5
B09
  8
DATA
  6
CONTINUOUS
 62
     7
 10
-270.87400696299488
 20
-113.334729149518
 30
0.0
  0
VERTEX
  5
B0A
  8
DATA
  6
CONTINUOUS
 62
     7
 10
-270.89701749239862
 20
-113.4320567399887
 30
0.0
  0
VERTEX
  5
B0B
  8
DATA
  6
CONTINUOUS
 62
     7
 10
-270.92071490327709
 20
-113.52916522410641
 30
0.0
  0
VERTEX
  5
B0C
  8
DATA
  6
CONTINUOUS
 62
     7
 10
-270.94509919563029
 20
-113.6260546018712
 30
0.0
  0
VERTEX
  5
B0D
  8
DATA
  6
CONTINUOUS
 62
     7
 10
-270.97017036945817
 20
-113.722724873283
 30
0.0
  0
VERTEX
  5
B0E
  8
DATA
  6
CONTINUOUS
 62
     7
 10
-270.9959284247609
 20
-113.81917603834199
 30
0.0
  0
VERTEX
  5
B0F
  8
DATA
  6
CONTINUOUS
 62
     7
 10
-271.02237336153831
 20
-113.915408097048
 30
0.0
  0
VERTEX
  5
B10
  8
DATA
  6
CONTINUOUS
 62
     7
 10
-271.0495051797904
 20
-114.01142104940109
 30
0.0
  0
VERTEX
  5
B11
  8
DATA
  6
CONTINUOUS
 62
     7
 10
-271.07732387951728
 20
-114.1072148954013
 30
0.0
  0
VERTEX
  5
B12
  8
DATA
  6
CONTINUOUS
 62
     7
 10
-271.10582946071889
 20
-114.2027896350486
 30
0.0
  0
VERTEX
  5
B13
  8
DATA
  6
CONTINUOUS
 62
     7
 10
-271.1350219233953
 20
-114.29814526834291
 30
0.0
  0
VERTEX
  5
B14
  8
DATA
  6
CONTINUOUS
 62
     7
 10
-271.1649012675465
 20
-114.3932817952843
 30
0.0
  0
VERTEX
  5
B15
  8
DATA
  6
CONTINUOUS
 62
     7
 10
-271.1954674931722
 20
-114.4881992158729
 30
0.0
  0
VERTEX
  5
B16
  8
DATA
  6
CONTINUOUS
 62
     7
 10
-271.22672060027281
 20
-114.5828975301085
 30
0.0
  0
VERTEX
  5
B17
  8
DATA
  6
CONTINUOUS
 62
     7
 10
-271.2586605888481
 20
-114.6773767379911
 30
0.0
  0
VERTEX
  5
B18
  8
DATA
  6
CONTINUOUS
 62
     7
 10
-271.29128745889818
 20
-114.77163683952089
 30
0.0
  0
VERTEX
  5
B19
  8
DATA
  6
CONTINUOUS
 62
     7
 10
-271.324601210423
 20
-114.86567783469771
 30
0.0
  0
VERTEX
  5
B1A
  8
DATA
  6
CONTINUOUS
 62
     7
 10
-271.35860184342249
 20
-114.9594997235217
 30
0.0
  0
VERTEX
  5
B1B
  8
DATA
  6
CONTINUOUS
 62
     7
 10
-271.39328935789672
 20
-115.0531025059926
 30
0.0
  0
VERTEX
  5
B1C
  8
DATA
  6
CONTINUOUS
 62
     7
 10
-271.42866375384568
 20
-115.14648618211071
 30
0.0
  0
VERTEX
  5
B1D
  8
DATA
  6
CONTINUOUS
 62
     7
 10
-271.4647250312695
 20
-115.2396507518759
 30
0.0
  0
VERTEX
  5
B1E
  8
DATA
  6
CONTINUOUS
 62
     7
 10
-271.50147319016799
 20
-115.33259621528811
 30
0.0
  0
VERTEX
  5
B1F
  8
DATA
  6
CONTINUOUS
 62
     7
 10
-271.53890823054121
 20
-115.4253225723474
 30
0.0
  0
VERTEX
  5
B20
  8
DATA
  6
CONTINUOUS
 62
     7
 10
-271.57703015238923
 20
-115.5178298230538
 30
0.0
  0
VERTEX
  5
B21
  8
DATA
  6
CONTINUOUS
 62
     7
 10
-271.61583895571192
 20
-115.61011796740731
 30
0.0
  0
VERTEX
  5
B22
  8
DATA
  6
CONTINUOUS
 62
     7
 10
-271.6553346405093
 20
-115.70218700540779
 30
0.0
  0
VERTEX
  5
B23
  8
DATA
  6
CONTINUOUS
 62
     7
 10
-271.6955172067814
 20
-115.79403693705549
 30
0.0
  0
VERTEX
  5
B24
  8
DATA
  6
CONTINUOUS
 62
     7
 10
-271.73638665452842
 20
-115.8856677623502
 30
0.0
  0
VERTEX
  5
B25
  8
DATA
  6
CONTINUOUS
 62
     7
 10
-271.77794298374999
 20
-115.97707948129209
 30
0.0
  0
VERTEX
  5
B26
  8
DATA
  6
CONTINUOUS
 62
     7
 10
-271.82018619444642
 20
-116.06827209388091
 30
0.0
  0
VERTEX
  5
B27
  8
DATA
  6
CONTINUOUS
 62
     7
 10
-271.86311628661753
 20
-116.1592456001169
 30
0.0
  0
VERTEX
  5
B28
  8
DATA
  6
CONTINUOUS
 62
     7
 10
-271.90673326026342
 20
-116.25
 30
0.0
  0
VERTEX
  5
B29
  8
DATA
  6
CONTINUOUS
 62
     7
 10
-271.95094509071578
 20
-116.34034554186231
 30
0.0
  0
VERTEX
  5
B2A
  8
DATA
  6
CONTINUOUS
 62
     7
 10
-271.99565975330648
 20
-116.4300924740363
 30
0.0
  0
VERTEX
  5
B2B
  8
DATA
  6
CONTINUOUS
 62
     7
 10
-272.04087724803537
 20
-116.5192407965218
 30
0.0
  0
VERTEX
  5
B2C
  8
DATA
  6
CONTINUOUS
 62
     7
 10
-272.08659757490261
 20
-116.6077905093188
 30
0.0
  0
VERTEX
  5
B2D
  8
DATA
  6
CONTINUOUS
 62
     7
 10
-272.1328207339082
 20
-116.6957416124275
 30
0.0
  0
VERTEX
  5
B2E
  8
DATA
  6
CONTINUOUS
 62
     7
 10
-272.17954672505198
 20
-116.7830941058477
 30
0.0
  0
VERTEX
  5
B2F
  8
DATA
  6
CONTINUOUS
 62
     7
 10
-272.22677554833399
 20
-116.8698479895794
 30
0.0
  0
VERTEX
  5
B30
  8
DATA
  6
CONTINUOUS
 62
     7
 10
-272.27450720375441
 20
-116.9560032636228
 30
0.0
  0
VERTEX
  5
B31
  8
DATA
  6
CONTINUOUS
 62
     7
 10
-272.32274169131313
 20
-117.0415599279777
 30
0.0
  0
VERTEX
  5
B32
  8
DATA
  6
CONTINUOUS
 62
     7
 10
-272.37147901101002
 20
-117.1265179826441
 30
0.0
  0
VERTEX
  5
B33
  8
DATA
  6
CONTINUOUS
 62
     7
 10
-272.42071916284522
 20
-117.21087742762209
 30
0.0
  0
VERTEX
  5
B34
  8
DATA
  6
CONTINUOUS
 62
     7
 10
-272.47046214681882
 20
-117.2946382629117
 30
0.0
  0
VERTEX
  5
B35
  8
DATA
  6
CONTINUOUS
 62
     7
 10
-272.5207079629306
 20
-117.3778004885128
 30
0.0
  0
VERTEX
  5
B36
  8
DATA
  6
CONTINUOUS
 62
     7
 10
-272.57145661118068
 20
-117.46036410442559
 30
0.0
  0
VERTEX
  5
B37
  8
DATA
  6
CONTINUOUS
 62
     7
 10
-272.622708091569
 20
-117.5423291106498
 30
0.0
  0
VERTEX
  5
B38
  8
DATA
  6
CONTINUOUS
 62
     7
 10
-272.67446240409572
 20
-117.6236955071857
 30
0.0
  0
VERTEX
  5
B39
  8
DATA
  6
CONTINUOUS
 62
     7
 10
-272.72671954876068
 20
-117.7044632940331
 30
0.0
  0
VERTEX
  5
B3A
  8
DATA
  6
CONTINUOUS
 62
     7
 10
-272.77947952556389
 20
-117.784632471192
 30
0.0
  0
VERTEX
  5
B3B
  8
DATA
  6
CONTINUOUS
 62
     7
 10
-272.83274233450538
 20
-117.8642030386625
 30
0.0
  0
VERTEX
  5
B3C
  8
DATA
  6
CONTINUOUS
 62
     7
 10
-272.88650797558518
 20
-117.9431749964447
 30
0.0
  0
VERTEX
  5
B3D
  8
DATA
  6
CONTINUOUS
 62
     7
 10
-272.94077644880332
 20
-118.0215483445383
 30
0.0
  0
VERTEX
  5
B3E
  8
DATA
  6
CONTINUOUS
 62
     7
 10
-272.9955477541597
 20
-118.0993230829435
 30
0.0
  0
VERTEX
  5
B3F
  8
DATA
  6
CONTINUOUS
 62
     7
 10
-273.05082189165438
 20
-118.1764992116603
 30
0.0
  0
VERTEX
  5
B40
  8
DATA
  6
CONTINUOUS
 62
     7
 10
-273.1065988612873
 20
-118.2530767306887
 30
0.0
  0
VERTEX
  5
B41
  8
DATA
  6
CONTINUOUS
 62
     7
 10
-273.16287866305862
 20
-118.3290556400286
 30
0.0
  0
VERTEX
  5
B42
  8
DATA
  6
CONTINUOUS
 62
     7
 10
-273.21966129696813
 20
-118.4044359396801
 30
0.0
  0
VERTEX
  5
B43
  8
DATA
  6
CONTINUOUS
 62
     7
 10
-273.27694676301593
 20
-118.4792176296431
 30
0.0
  0
VERTEX
  5
B44
  8
DATA
  6
CONTINUOUS
 62
     7
 10
-273.33473506120203
 20
-118.5534007099177
 30
0.0
  0
VERTEX
  5
B45
  8
DATA
  6
CONTINUOUS
 62
     7
 10
-273.39302619152642
 20
-118.62698518050379
 30
0.0
  0
VERTEX
  5
B46
  8
DATA
  6
CONTINUOUS
 62
     7
 10
-273.4518201539891
 20
-118.6999710414016
 30
0.0
  0
VERTEX
  5
B47
  8
DATA
  6
CONTINUOUS
 62
     7
 10
-273.51111694858997
 20
-118.7723582926109
 30
0.0
  0
VERTEX
  5
B48
  8
DATA
  6
CONTINUOUS
 62
     7
 10
-273.57091657532919
 20
-118.8441469341318
 30
0.0
  0
VERTEX
  5
B49
  8
DATA
  6
CONTINUOUS
 62
     7
 10
-273.63121903420682
 20
-118.9153369659642
 30
0.0
  0
VERTEX
  5
B4A
  8
DATA
  6
CONTINUOUS
 62
     7
 10
-273.69202432522258
 20
-118.98592838810821
 30
0.0
  0
VERTEX
  5
B4B
  8
DATA
  6
CONTINUOUS
 62
     7
 10
-273.75333244837668
 20
-119.0559212005638
 30
0.0
  0
VERTEX
  5
B4C
  8
DATA
  6
CONTINUOUS
 62
     7
 10
-273.81514340366908
 20
-119.1253154033308
 30
0.0
  0
VERTEX
  5
B4D
  8
DATA
  6
CONTINUOUS
 62
     7
 10
-273.87745719109972
 20
-119.19411099640951
 30
0.0
  0
VERTEX
  5
B4E
  8
DATA
  6
CONTINUOUS
 62
     7
 10
-273.94027381066871
 20
-119.2623079797998
 30
0.0
  0
VERTEX
  5
B4F
  8
DATA
  6
CONTINUOUS
 62
     7
 10
-274.003593262376
 20
-119.3299063535016
 30
0.0
  0
VERTEX
  5
B50
  8
DATA
  6
CONTINUOUS
 62
     7
 10
-274.06741554622153
 20
-119.3969061175151
 30
0.0
  0
VERTEX
  5
B51
  8
DATA
  6
CONTINUOUS
 62
     7
 10
-274.13174066220529
 20
-119.46330727183999
 30
0.0
  0
VERTEX
  5
B52
  8
DATA
  6
CONTINUOUS
 62
     7
 10
-274.1965686103274
 20
-119.52910981647651
 30
0.0
  0
VERTEX
  5
B53
  8
DATA
  6
CONTINUOUS
 62
     7
 10
-274.26189939058781
 20
-119.59431375142449
 30
0.0
  0
VERTEX
  5
B54
  8
DATA
  6
CONTINUOUS
 62
     7
 10
-274.32773300298652
 20
-119.6589190766842
 30
0.0
  0
VERTEX
  5
B55
  8
DATA
  6
CONTINUOUS
 62
     7
 10
-274.39406944752341
 20
-119.7229257922554
 30
0.0
  0
VERTEX
  5
B56
  8
DATA
  6
CONTINUOUS
 62
     7
 10
-274.4609087241987
 20
-119.7863338981382
 30
0.0
  0
VERTEX
  5
B57
  8
DATA
  6
CONTINUOUS
 62
     7
 10
-274.52825083301218
 20
-119.8491433943325
 30
0.0
  0
VERTEX
  5
B58
  8
DATA
  6
CONTINUOUS
 62
     7
 10
-274.59609577396412
 20
-119.9113542808384
 30
0.0
  0
VERTEX
  5
B59
  8
DATA
  6
CONTINUOUS
 62
     7
 10
-274.66444354705408
 20
-119.97296655765579
 30
0.0
  0
VERTEX
  5
B5A
  8
DATA
  6
CONTINUOUS
 62
     7
 10
-274.7332941522825
 20
-120.0339802247848
 30
0.0
  0
VERTEX
  5
B5B
  8
DATA
  6
CONTINUOUS
 62
     7
 10
-274.80264758964921
 20
-120.09439528222541
 30
0.0
  0
VERTEX
  5
B5C
  8
DATA
  6
CONTINUOUS
 62
     7
 10
-274.87250385915422
 20
-120.1542117299776
 30
0.0
  0
VERTEX
  5
B5D
  8
DATA
  6
CONTINUOUS
 62
     7
 10
-274.94286296079741
 20
-120.21342956804131
 30
0.0
  0
VERTEX
  5
B5E
  8
DATA
  6
CONTINUOUS
 62
     7
 10
-275.01372489457901
 20
-120.2720487964165
 30
0.0
  0
VERTEX
  5
B5F
  8
DATA
  6
CONTINUOUS
 62
     7
 10
-275.08508966049868
 20
-120.33006941510349
 30
0.0
  0
VERTEX
  5
B60
  8
DATA
  6
CONTINUOUS
 62
     7
 10
-275.15695725855687
 20
-120.3874914241019
 30
0.0
  0
VERTEX
  5
B61
  8
DATA
  6
CONTINUOUS
 62
     7
 10
-275.22932768875319
 20
-120.4443148234118
 30
0.0
  0
VERTEX
  5
B62
  8
DATA
  6
CONTINUOUS
 62
     7
 10
-275.30220095108791
 20
-120.5005396130333
 30
0.0
  0
VERTEX
  5
B63
  8
DATA
  6
CONTINUOUS
 62
     7
 10
-275.37557704556087
 20
-120.5561657929664
 30
0.0
  0
VERTEX
  5
B64
  8
DATA
  6
CONTINUOUS
 62
     7
 10
-275.44945597217207
 20
-120.6111933632111
 30
0.0
  0
VERTEX
  5
B65
  8
DATA
  6
CONTINUOUS
 62
     7
 10
-275.52383773092168
 20
-120.66562232376729
 30
0.0
  0
VERTEX
  5
B66
  8
DATA
  6
CONTINUOUS
 62
     7
 10
-275.59872232180959
 20
-120.71945267463509
 30
0.0
  0
VERTEX
  5
B67
  8
DATA
  6
CONTINUOUS
 62
     7
 10
-275.6741097448355
 20
-120.7726844158145
 30
0.0
  0
VERTEX
  5
B68
  8
DATA
  6
CONTINUOUS
 62
     7
 10
-275.75
 20
-120.8253175473055
 30
0.0
  0
VERTEX
  5
B69
  8
DATA
  6
CONTINUOUS
 62
     7
 10
-275.82623369590169
 20
-120.8772425159315
 30
0.0
  0
VERTEX
  5
B6A
  8
DATA
  6
CONTINUOUS
 62
     7
 10
-275.90265144113999
 20
-120.9283497685162
 30
0.0
  0
VERTEX
  5
B6B
  8
DATA
  6
CONTINUOUS
 62
     7
 10
-275.97925323571462
 20
-120.9786393050595
 30
0.0
  0
VERTEX
  5
B6C
  8
DATA
  6
CONTINUOUS
 62
     7
 10
-276.05603907962569
 20
-121.02811112556149
 30
0.0
  0
VERTEX
  5
B6D
  8
DATA
  6
CONTINUOUS
 62
     7
 10
-276.1330089728732
 20
-121.0767652300221
 30
0.0
  0
VERTEX
  5
B6E
  8
DATA
  6
CONTINUOUS
 62
     7
 10
-276.21016291545732
 20
-121.1246016184413
 30
0.0
  0
VERTEX
  5
B6F
  8
DATA
  6
CONTINUOUS
 62
     7
 10
-276.28750090737788
 20
-121.17162029081931
 30
0.0
  0
VERTEX
  5
B70
  8
DATA
  6
CONTINUOUS
 62
     7
 10
-276.36502294863482
 20
-121.2178212471558
 30
0.0
  0
VERTEX
  5
B71
  8
DATA
  6
CONTINUOUS
 62
     7
 10
-276.44272903922808
 20
-121.26320448745101
 30
0.0
  0
VERTEX
  5
B72
  8
DATA
  6
CONTINUOUS
 62
     7
 10
-276.52061917915802
 20
-121.3077700117048
 30
0.0
  0
VERTEX
  5
B73
  8
DATA
  6
CONTINUOUS
 62
     7
 10
-276.59869336842428
 20
-121.35151781991721
 30
0.0
  0
VERTEX
  5
B74
  8
DATA
  6
CONTINUOUS
 62
     7
 10
-276.67695160702698
 20
-121.3944479120884
 30
0.0
  0
VERTEX
  5
B75
  8
DATA
  6
CONTINUOUS
 62
     7
 10
-276.75539389496618
 20
-121.4365602882181
 30
0.0
  0
VERTEX
  5
B76
  8
DATA
  6
CONTINUOUS
 62
     7
 10
-276.83402023224193
 20
-121.4778549483065
 30
0.0
  0
VERTEX
  5
B77
  8
DATA
  6
CONTINUOUS
 62
     7
 10
-276.912830618854
 20
-121.5183318923537
 30
0.0
  0
VERTEX
  5
B78
  8
DATA
  6
CONTINUOUS
 62
     7
 10
-276.99182505480252
 20
-121.5579911203593
 30
0.0
  0
VERTEX
  5
B79
  8
DATA
  6
CONTINUOUS
 62
     7
 10
-277.07100354008742
 20
-121.5968326323237
 30
0.0
  0
VERTEX
  5
B7A
  8
DATA
  6
CONTINUOUS
 62
     7
 10
-277.15036607470893
 20
-121.63485642824671
 30
0.0
  0
VERTEX
  5
B7B
  8
DATA
  6
CONTINUOUS
 62
     7
 10
-277.22991265866682
 20
-121.67206250812831
 30
0.0
  0
VERTEX
  5
B7C
  8
DATA
  6
CONTINUOUS
 62
     7
 10
-277.30964329196109
 20
-121.70845087196859
 30
0.0
  0
VERTEX
  5
B7D
  8
DATA
  6
CONTINUOUS
 62
     7
 10
-277.38955797459192
 20
-121.7440215197675
 30
0.0
  0
VERTEX
  5
B7E
  8
DATA
  6
CONTINUOUS
 62
     7
 10
-277.46965670655908
 20
-121.77877445152509
 30
0.0
  0
VERTEX
  5
B7F
  8
DATA
  6
CONTINUOUS
 62
     7
 10
-277.54993948786279
 20
-121.81270966724141
 30
0.0
  0
VERTEX
  5
B80
  8
DATA
  6
CONTINUOUS
 62
     7
 10
-277.63040631850311
 20
-121.84582716691619
 30
0.0
  0
VERTEX
  5
B81
  8
DATA
  6
CONTINUOUS
 62
     7
 10
-277.71105719847969
 20
-121.8781269505498
 30
0.0
  0
VERTEX
  5
B82
  8
DATA
  6
CONTINUOUS
 62
     7
 10
-277.79189212779272
 20
-121.90960901814189
 30
0.0
  0
VERTEX
  5
B83
  8
DATA
  6
CONTINUOUS
 62
     7
 10
-277.87291110644219
 20
-121.9402733696927
 30
0.0
  0
VERTEX
  5
B84
  8
DATA
  6
CONTINUOUS
 62
     7
 10
-277.95411413442821
 20
-121.97012000520211
 30
0.0
  0
VERTEX
  5
B85
  8
DATA
  6
CONTINUOUS
 62
     7
 10
-278.03550121175061
 20
-121.99914892467019
 30
0.0
  0
VERTEX
  5
B86
  8
DATA
  6
CONTINUOUS
 62
     7
 10
-278.1170723384094
 20
-122.0273601280969
 30
0.0
  0
VERTEX
  5
B87
  8
DATA
  6
CONTINUOUS
 62
     7
 10
-278.19882751440491
 20
-122.0547536154823
 30
0.0
  0
VERTEX
  5
B88
  8
DATA
  6
CONTINUOUS
 62
     7
 10
-278.28076673973658
 20
-122.0813293868264
 30
0.0
  0
VERTEX
  5
B89
  8
DATA
  6
CONTINUOUS
 62
     7
 10
-278.3628900144048
 20
-122.107087442129
 30
0.0
  0
VERTEX
  5
B8A
  8
DATA
  6
CONTINUOUS
 62
     7
 10
-278.4451973384094
 20
-122.13202778139041
 30
0.0
  0
VERTEX
  5
B8B
  8
DATA
  6
CONTINUOUS
 62
     7
 10
-278.52768871175061
 20
-122.1561504046103
 30
0.0
  0
VERTEX
  5
B8C
  8
DATA
  6
CONTINUOUS
 62
     7
 10
-278.6103641344281
 20
-122.1794553117889
 30
0.0
  0
VERTEX
  5
B8D
  8
DATA
  6
CONTINUOUS
 62
     7
 10
-278.69322360644219
 20
-122.2019425029262
 30
0.0
  0
VERTEX
  5
B8E
  8
DATA
  6
CONTINUOUS
 62
     7
 10
-278.77626712779272
 20
-122.22361197802211
 30
0.0
  0
VERTEX
  5
B8F
  8
DATA
  6
CONTINUOUS
 62
     7
 10
-278.85949469847969
 20
-122.2444637370767
 30
0.0
  0
VERTEX
  5
B90
  8
DATA
  6
CONTINUOUS
 62
     7
 10
-278.94290631850311
 20
-122.2644977800898
 30
0.0
  0
VERTEX
  5
B91
  8
DATA
  6
CONTINUOUS
 62
     7
 10
-279.02650198786279
 20
-122.2837141070616
 30
0.0
  0
VERTEX
  5
B92
  8
DATA
  6
CONTINUOUS
 62
     7
 10
-279.11028170655919
 20
-122.3021127179921
 30
0.0
  0
VERTEX
  5
B93
  8
DATA
  6
CONTINUOUS
 62
     7
 10
-279.19424547459192
 20
-122.3196936128812
 30
0.0
  0
VERTEX
  5
B94
  8
DATA
  6
CONTINUOUS
 62
     7
 10
-279.27839329196109
 20
-122.33645679172901
 30
0.0
  0
VERTEX
  5
B95
  8
DATA
  6
CONTINUOUS
 62
     7
 10
-279.36272515866682
 20
-122.35240225453551
 30
0.0
  0
VERTEX
  5
B96
  8
DATA
  6
CONTINUOUS
 62
     7
 10
-279.44724107470893
 20
-122.36753000130049
 30
0.0
  0
VERTEX
  5
B97
  8
DATA
  6
CONTINUOUS
 62
     7
 10
-279.53194104008742
 20
-122.3818400320242
 30
0.0
  0
VERTEX
  5
B98
  8
DATA
  6
CONTINUOUS
 62
     7
 10
-279.61682505480252
 20
-122.3953323467066
 30
0.0
  0
VERTEX
  5
B99
  8
DATA
  6
CONTINUOUS
 62
     7
 10
-279.701893118854
 20
-122.40800694534749
 30
0.0
  0
VERTEX
  5
B9A
  8
DATA
  6
CONTINUOUS
 62
     7
 10
-279.78714523224193
 20
-122.4198638279472
 30
0.0
  0
VERTEX
  5
B9B
  8
DATA
  6
CONTINUOUS
 62
     7
 10
-279.87258139496618
 20
-122.4309029945054
 30
0.0
  0
VERTEX
  5
B9C
  8
DATA
  6
CONTINUOUS
 62
     7
 10
-279.95820160702698
 20
-122.4411244450225
 30
0.0
  0
VERTEX
  5
B9D
  8
DATA
  6
CONTINUOUS
 62
     7
 10
-280.04400586842428
 20
-122.45052817949799
 30
0.0
  0
VERTEX
  5
B9E
  8
DATA
  6
CONTINUOUS
 62
     7
 10
-280.12999417915802
 20
-122.45911419793229
 30
0.0
  0
VERTEX
  5
B9F
  8
DATA
  6
CONTINUOUS
 62
     7
 10
-280.21616653922808
 20
-122.4668825003251
 30
0.0
  0
VERTEX
  5
BA0
  8
DATA
  6
CONTINUOUS
 62
     7
 10
-280.30252294863482
 20
-122.47383308667671
 30
0.0
  0
VERTEX
  5
BA1
  8
DATA
  6
CONTINUOUS
 62
     7
 10
-280.38906340737788
 20
-122.4799659569868
 30
0.0
  0
VERTEX
  5
BA2
  8
DATA
  6
CONTINUOUS
 62
     7
 10
-280.47578791545732
 20
-122.4852811112556
 30
0.0
  0
VERTEX
  5
BA3
  8
DATA
  6
CONTINUOUS
 62
     7
 10
-280.5626964728732
 20
-122.48977854948301
 30
0.0
  0
VERTEX
  5
BA4
  8
DATA
  6
CONTINUOUS
 62
     7
 10
-280.64978907962569
 20
-122.4934582716691
 30
0.0
  0
VERTEX
  5
BA5
  8
DATA
  6
CONTINUOUS
 62
     7
 10
-280.73706573571462
 20
-122.49632027781379
 30
0.0
  0
VERTEX
  5
BA6
  8
DATA
  6
CONTINUOUS
 62
     7
 10
-280.82452644113999
 20
-122.49836456791731
 30
0.0
  0
VERTEX
  5
BA7
  8
DATA
  6
CONTINUOUS
 62
     7
 10
-280.91217119590169
 20
-122.49959114197929
 30
0.0
  0
VERTEX
  5
BA8
  8
DATA
  6
CONTINUOUS
 62
     7
 10
-281.0
 20
-122.5
 30
0.0
  0
VERTEX
  5
BA9
  8
DATA
  6
CONTINUOUS
 62
     7
 10
-281.08782880409819
 20
-122.49959114197929
 30
0.0
  0
VERTEX
  5
BAA
  8
DATA
  6
CONTINUOUS
 62
     7
 10
-281.17547355886012
 20
-122.49836456791731
 30
0.0
  0
VERTEX
  5
BAB
  8
DATA
  6
CONTINUOUS
 62
     7
 10
-281.26293426428538
 20
-122.49632027781379
 30
0.0
  0
VERTEX
  5
BAC
  8
DATA
  6
CONTINUOUS
 62
     7
 10
-281.35021092037431
 20
-122.4934582716691
 30
0.0
  0
VERTEX
  5
BAD
  8
DATA
  6
CONTINUOUS
 62
     7
 10
-281.43730352712669
 20
-122.48977854948301
 30
0.0
  0
VERTEX
  5
BAE
  8
DATA
  6
CONTINUOUS
 62
     7
 10
-281.52421208454268
 20
-122.4852811112556
 30
0.0
  0
VERTEX
  5
BAF
  8
DATA
  6
CONTINUOUS
 62
     7
 10
-281.61093659262218
 20
-122.4799659569868
 30
0.0
  0
VERTEX
  5
BB0
  8
DATA
  6
CONTINUOUS
 62
     7
 10
-281.69747705136518
 20
-122.47383308667671
 30
0.0
  0
VERTEX
  5
BB1
  8
DATA
  6
CONTINUOUS
 62
     7
 10
-281.7838334607718
 20
-122.4668825003251
 30
0.0
  0
VERTEX
  5
BB2
  8
DATA
  6
CONTINUOUS
 62
     7
 10
-281.87000582084198
 20
-122.45911419793229
 30
0.0
  0
VERTEX
  5
BB3
  8
DATA
  6
CONTINUOUS
 62
     7
 10
-281.95599413157572
 20
-122.45052817949799
 30
0.0
  0
VERTEX
  5
BB4
  8
DATA
  6
CONTINUOUS
 62
     7
 10
-282.04179839297291
 20
-122.4411244450225
 30
0.0
  0
VERTEX
  5
BB5
  8
DATA
  6
CONTINUOUS
 62
     7
 10
-282.12741860503382
 20
-122.4309029945054
 30
0.0
  0
VERTEX
  5
BB6
  8
DATA
  6
CONTINUOUS
 62
     7
 10
-282.21285476775807
 20
-122.4198638279472
 30
0.0
  0
VERTEX
  5
BB7
  8
DATA
  6
CONTINUOUS
 62
     7
 10
-282.298106881146
 20
-122.40800694534749
 30
0.0
  0
VERTEX
  5
BB8
  8
DATA
  6
CONTINUOUS
 62
     7
 10
-282.38317494519748
 20
-122.3953323467066
 30
0.0
  0
VERTEX
  5
BB9
  8
DATA
  6
CONTINUOUS
 62
     7
 10
-282.46805895991258
 20
-122.3818400320242
 30
0.0
  0
VERTEX
  5
BBA
  8
DATA
  6
CONTINUOUS
 62
     7
 10
-282.55275892529119
 20
-122.36753000130049
 30
0.0
  0
VERTEX
  5
BBB
  8
DATA
  6
CONTINUOUS
 62
     7
 10
-282.63727484133318
 20
-122.35240225453551
 30
0.0
  0
VERTEX
  5
BBC
  8
DATA
  6
CONTINUOUS
 62
     7
 10
-282.72160670803891
 20
-122.33645679172901
 30
0.0
  0
VERTEX
  5
BBD
  8
DATA
  6
CONTINUOUS
 62
     7
 10
-282.80575452540808
 20
-122.3196936128812
 30
0.0
  0
VERTEX
  5
BBE
  8
DATA
  6
CONTINUOUS
 62
     7
 10
-282.88971829344081
 20
-122.3021127179921
 30
0.0
  0
VERTEX
  5
BBF
  8
DATA
  6
CONTINUOUS
 62
     7
 10
-282.97349801213721
 20
-122.2837141070616
 30
0.0
  0
VERTEX
  5
BC0
  8
DATA
  6
CONTINUOUS
 62
     7
 10
-283.05709368149689
 20
-122.2644977800898
 30
0.0
  0
VERTEX
  5
BC1
  8
DATA
  6
CONTINUOUS
 62
     7
 10
-283.14050530152031
 20
-122.2444637370767
 30
0.0
  0
VERTEX
  5
BC2
  8
DATA
  6
CONTINUOUS
 62
     7
 10
-283.22373287220728
 20
-122.22361197802211
 30
0.0
  0
VERTEX
  5
BC3
  8
DATA
  6
CONTINUOUS
 62
     7
 10
-283.30677639355781
 20
-122.2019425029262
 30
0.0
  0
VERTEX
  5
BC4
  8
DATA
  6
CONTINUOUS
 62
     7
 10
-283.38963586557168
 20
-122.1794553117889
 30
0.0
  0
VERTEX
  5
BC5
  8
DATA
  6
CONTINUOUS
 62
     7
 10
-283.47231128824939
 20
-122.1561504046103
 30
0.0
  0
VERTEX
  5
BC6
  8
DATA
  6
CONTINUOUS
 62
     7
 10
-283.55480266159049
 20
-122.13202778139041
 30
0.0
  0
VERTEX
  5
BC7
  8
DATA
  6
CONTINUOUS
 62
     7
 10
-283.6371099855952
 20
-122.107087442129
 30
0.0
  0
VERTEX
  5
BC8
  8
DATA
  6
CONTINUOUS
 62
     7
 10
-283.71923326026342
 20
-122.0813293868264
 30
0.0
  0
VERTEX
  5
BC9
  8
DATA
  6
CONTINUOUS
 62
     7
 10
-283.80117248559509
 20
-122.0547536154823
 30
0.0
  0
VERTEX
  5
BCA
  8
DATA
  6
CONTINUOUS
 62
     7
 10
-283.88292766159049
 20
-122.0273601280969
 30
0.0
  0
VERTEX
  5
BCB
  8
DATA
  6
CONTINUOUS
 62
     7
 10
-283.96449878824939
 20
-121.99914892467019
 30
0.0
  0
VERTEX
  5
BCC
  8
DATA
  6
CONTINUOUS
 62
     7
 10
-284.04588586557179
 20
-121.97012000520211
 30
0.0
  0
VERTEX
  5
BCD
  8
DATA
  6
CONTINUOUS
 62
     7
 10
-284.12708889355781
 20
-121.9402733696927
 30
0.0
  0
VERTEX
  5
BCE
  8
DATA
  6
CONTINUOUS
 62
     7
 10
-284.20810787220728
 20
-121.90960901814189
 30
0.0
  0
VERTEX
  5
BCF
  8
DATA
  6
CONTINUOUS
 62
     7
 10
-284.28894280152031
 20
-121.8781269505498
 30
0.0
  0
VERTEX
  5
BD0
  8
DATA
  6
CONTINUOUS
 62
     7
 10
-284.36959368149689
 20
-121.84582716691619
 30
0.0
  0
VERTEX
  5
BD1
  8
DATA
  6
CONTINUOUS
 62
     7
 10
-284.45006051213721
 20
-121.81270966724141
 30
0.0
  0
VERTEX
  5
BD2
  8
DATA
  6
CONTINUOUS
 62
     7
 10
-284.53034329344092
 20
-121.77877445152509
 30
0.0
  0
VERTEX
  5
BD3
  8
DATA
  6
CONTINUOUS
 62
     7
 10
-284.61044202540808
 20
-121.7440215197675
 30
0.0
  0
VERTEX
  5
BD4
  8
DATA
  6
CONTINUOUS
 62
     7
 10
-284.69035670803891
 20
-121.70845087196859
 30
0.0
  0
VERTEX
  5
BD5
  8
DATA
  6
CONTINUOUS
 62
     7
 10
-284.77008734133318
 20
-121.67206250812831
 30
0.0
  0
VERTEX
  5
BD6
  8
DATA
  6
CONTINUOUS
 62
     7
 10
-284.84963392529119
 20
-121.63485642824671
 30
0.0
  0
VERTEX
  5
BD7
  8
DATA
  6
CONTINUOUS
 62
     7
 10
-284.92899645991258
 20
-121.5968326323237
 30
0.0
  0
VERTEX
  5
BD8
  8
DATA
  6
CONTINUOUS
 62
     7
 10
-285.00817494519748
 20
-121.5579911203593
 30
0.0
  0
VERTEX
  5
BD9
  8
DATA
  6
CONTINUOUS
 62
     7
 10
-285.087169381146
 20
-121.5183318923537
 30
0.0
  0
VERTEX
  5
BDA
  8
DATA
  6
CONTINUOUS
 62
     7
 10
-285.16597976775819
 20
-121.4778549483065
 30
0.0
  0
VERTEX
  5
BDB
  8
DATA
  6
CONTINUOUS
 62
     7
 10
-285.24460610503382
 20
-121.4365602882181
 30
0.0
  0
VERTEX
  5
BDC
  8
DATA
  6
CONTINUOUS
 62
     7
 10
-285.32304839297291
 20
-121.3944479120884
 30
0.0
  0
VERTEX
  5
BDD
  8
DATA
  6
CONTINUOUS
 62
     7
 10
-285.40130663157572
 20
-121.35151781991721
 30
0.0
  0
VERTEX
  5
BDE
  8
DATA
  6
CONTINUOUS
 62
     7
 10
-285.47938082084198
 20
-121.3077700117048
 30
0.0
  0
VERTEX
  5
BDF
  8
DATA
  6
CONTINUOUS
 62
     7
 10
-285.5572709607718
 20
-121.26320448745101
 30
0.0
  0
VERTEX
  5
BE0
  8
DATA
  6
CONTINUOUS
 62
     7
 10
-285.63497705136518
 20
-121.2178212471558
 30
0.0
  0
VERTEX
  5
BE1
  8
DATA
  6
CONTINUOUS
 62
     7
 10
-285.71249909262218
 20
-121.17162029081931
 30
0.0
  0
VERTEX
  5
BE2
  8
DATA
  6
CONTINUOUS
 62
     7
 10
-285.78983708454268
 20
-121.1246016184413
 30
0.0
  0
VERTEX
  5
BE3
  8
DATA
  6
CONTINUOUS
 62
     7
 10
-285.86699102712669
 20
-121.0767652300221
 30
0.0
  0
VERTEX
  5
BE4
  8
DATA
  6
CONTINUOUS
 62
     7
 10
-285.94396092037431
 20
-121.02811112556149
 30
0.0
  0
VERTEX
  5
BE5
  8
DATA
  6
CONTINUOUS
 62
     7
 10
-286.02074676428538
 20
-120.9786393050595
 30
0.0
  0
VERTEX
  5
BE6
  8
DATA
  6
CONTINUOUS
 62
     7
 10
-286.09734855886012
 20
-120.9283497685162
 30
0.0
  0
VERTEX
  5
BE7
  8
DATA
  6
CONTINUOUS
 62
     7
 10
-286.17376630409831
 20
-120.8772425159315
 30
0.0
  0
VERTEX
  5
BE8
  8
DATA
  6
CONTINUOUS
 62
     7
 10
-286.25
 20
-120.8253175473055
 30
0.0
  0
VERTEX
  5
BE9
  8
DATA
  6
CONTINUOUS
 62
     7
 10
-286.32589025516438
 20
-120.7726844158145
 30
0.0
  0
VERTEX
  5
BEA
  8
DATA
  6
CONTINUOUS
 62
     7
 10
-286.40127767819052
 20
-120.71945267463509
 30
0.0
  0
VERTEX
  5
BEB
  8
DATA
  6
CONTINUOUS
 62
     7
 10
-286.47616226907832
 20
-120.66562232376729
 30
0.0
  0
VERTEX
  5
BEC
  8
DATA
  6
CONTINUOUS
 62
     7
 10
-286.55054402782793
 20
-120.6111933632111
 30
0.0
  0
VERTEX
  5
BED
  8
DATA
  6
CONTINUOUS
 62
     7
 10
-286.62442295443918
 20
-120.5561657929664
 30
0.0
  0
VERTEX
  5
BEE
  8
DATA
  6
CONTINUOUS
 62
     7
 10
-286.69779904891197
 20
-120.5005396130333
 30
0.0
  0
VERTEX
  5
BEF
  8
DATA
  6
CONTINUOUS
 62
     7
 10
-286.77067231124681
 20
-120.4443148234118
 30
0.0
  0
VERTEX
  5
BF0
  8
DATA
  6
CONTINUOUS
 62
     7
 10
-286.84304274144318
 20
-120.3874914241019
 30
0.0
  0
VERTEX
  5
BF1
  8
DATA
  6
CONTINUOUS
 62
     7
 10
-286.91491033950132
 20
-120.33006941510349
 30
0.0
  0
VERTEX
  5
BF2
  8
DATA
  6
CONTINUOUS
 62
     7
 10
-286.98627510542099
 20
-120.2720487964165
 30
0.0
  0
VERTEX
  5
BF3
  8
DATA
  6
CONTINUOUS
 62
     7
 10
-287.05713703920259
 20
-120.21342956804131
 30
0.0
  0
VERTEX
  5
BF4
  8
DATA
  6
CONTINUOUS
 62
     7
 10
-287.12749614084578
 20
-120.1542117299776
 30
0.0
  0
VERTEX
  5
BF5
  8
DATA
  6
CONTINUOUS
 62
     7
 10
-287.19735241035079
 20
-120.09439528222541
 30
0.0
  0
VERTEX
  5
BF6
  8
DATA
  6
CONTINUOUS
 62
     7
 10
-287.26670584771739
 20
-120.0339802247848
 30
0.0
  0
VERTEX
  5
BF7
  8
DATA
  6
CONTINUOUS
 62
     7
 10
-287.33555645294581
 20
-119.97296655765579
 30
0.0
  0
VERTEX
  5
BF8
  8
DATA
  6
CONTINUOUS
 62
     7
 10
-287.40390422603588
 20
-119.9113542808384
 30
0.0
  0
VERTEX
  5
BF9
  8
DATA
  6
CONTINUOUS
 62
     7
 10
-287.47174916698782
 20
-119.8491433943325
 30
0.0
  0
VERTEX
  5
BFA
  8
DATA
  6
CONTINUOUS
 62
     7
 10
-287.5390912758013
 20
-119.7863338981382
 30
0.0
  0
VERTEX
  5
BFB
  8
DATA
  6
CONTINUOUS
 62
     7
 10
-287.60593055247648
 20
-119.7229257922554
 30
0.0
  0
VERTEX
  5
BFC
  8
DATA
  6
CONTINUOUS
 62
     7
 10
-287.67226699701348
 20
-119.6589190766842
 30
0.0
  0
VERTEX
  5
BFD
  8
DATA
  6
CONTINUOUS
 62
     7
 10
-287.73810060941219
 20
-119.59431375142449
 30
0.0
  0
VERTEX
  5
BFE
  8
DATA
  6
CONTINUOUS
 62
     7
 10
-287.8034313896726
 20
-119.52910981647651
 30
0.0
  0
VERTEX
  5
BFF
  8
DATA
  6
CONTINUOUS
 62
     7
 10
-287.86825933779483
 20
-119.46330727183999
 30
0.0
  0
VERTEX
  5
C00
  8
DATA
  6
CONTINUOUS
 62
     7
 10
-287.93258445377847
 20
-119.3969061175151
 30
0.0
  0
VERTEX
  5
C01
  8
DATA
  6
CONTINUOUS
 62
     7
 10
-287.99640673762411
 20
-119.3299063535016
 30
0.0
  0
VERTEX
  5
C02
  8
DATA
  6
CONTINUOUS
 62
     7
 10
-288.05972618933117
 20
-119.2623079797998
 30
0.0
  0
VERTEX
  5
C03
  8
DATA
  6
CONTINUOUS
 62
     7
 10
-288.12254280890028
 20
-119.19411099640951
 30
0.0
  0
VERTEX
  5
C04
  8
DATA
  6
CONTINUOUS
 62
     7
 10
-288.18485659633092
 20
-119.1253154033308
 30
0.0
  0
VERTEX
  5
C05
  8
DATA
  6
CONTINUOUS
 62
     7
 10
-288.24666755162332
 20
-119.0559212005638
 30
0.0
  0
VERTEX
  5
C06
  8
DATA
  6
CONTINUOUS
 62
     7
 10
-288.30797567477742
 20
-118.98592838810821
 30
0.0
  0
VERTEX
  5
C07
  8
DATA
  6
CONTINUOUS
 62
     7
 10
-288.36878096579329
 20
-118.9153369659642
 30
0.0
  0
VERTEX
  5
C08
  8
DATA
  6
CONTINUOUS
 62
     7
 10
-288.42908342467081
 20
-118.8441469341318
 30
0.0
  0
VERTEX
  5
C09
  8
DATA
  6
CONTINUOUS
 62
     7
 10
-288.48888305141003
 20
-118.7723582926109
 30
0.0
  0
VERTEX
  5
C0A
  8
DATA
  6
CONTINUOUS
 62
     7
 10
-288.5481798460109
 20
-118.6999710414016
 30
0.0
  0
VERTEX
  5
C0B
  8
DATA
  6
CONTINUOUS
 62
     7
 10
-288.60697380847358
 20
-118.62698518050379
 30
0.0
  0
VERTEX
  5
C0C
  8
DATA
  6
CONTINUOUS
 62
     7
 10
-288.66526493879809
 20
-118.5534007099177
 30
0.0
  0
VERTEX
  5
C0D
  8
DATA
  6
CONTINUOUS
 62
     7
 10
-288.72305323698407
 20
-118.4792176296431
 30
0.0
  0
VERTEX
  5
C0E
  8
DATA
  6
CONTINUOUS
 62
     7
 10
-288.78033870303187
 20
-118.4044359396801
 30
0.0
  0
VERTEX
  5
C0F
  8
DATA
  6
CONTINUOUS
 62
     7
 10
-288.83712133694138
 20
-118.3290556400286
 30
0.0
  0
VERTEX
  5
C10
  8
DATA
  6
CONTINUOUS
 62
     7
 10
-288.89340113871259
 20
-118.2530767306887
 30
0.0
  0
VERTEX
  5
C11
  8
DATA
  6
CONTINUOUS
 62
     7
 10
-288.94917810834562
 20
-118.1764992116603
 30
0.0
  0
VERTEX
  5
C12
  8
DATA
  6
CONTINUOUS
 62
     7
 10
-289.0044522458403
 20
-118.0993230829435
 30
0.0
  0
VERTEX
  5
C13
  8
DATA
  6
CONTINUOUS
 62
     7
 10
-289.05922355119668
 20
-118.0215483445383
 30
0.0
  0
VERTEX
  5
C14
  8
DATA
  6
CONTINUOUS
 62
     7
 10
-289.11349202441482
 20
-117.9431749964447
 30
0.0
  0
VERTEX
  5
C15
  8
DATA
  6
CONTINUOUS
 62
     7
 10
-289.16725766549462
 20
-117.8642030386625
 30
0.0
  0
VERTEX
  5
C16
  8
DATA
  6
CONTINUOUS
 62
     7
 10
-289.22052047443611
 20
-117.784632471192
 30
0.0
  0
VERTEX
  5
C17
  8
DATA
  6
CONTINUOUS
 62
     7
 10
-289.27328045123932
 20
-117.7044632940331
 30
0.0
  0
VERTEX
  5
C18
  8
DATA
  6
CONTINUOUS
 62
     7
 10
-289.32553759590428
 20
-117.6236955071857
 30
0.0
  0
VERTEX
  5
C19
  8
DATA
  6
CONTINUOUS
 62
     7
 10
-289.37729190843089
 20
-117.5423291106498
 30
0.0
  0
VERTEX
  5
C1A
  8
DATA
  6
CONTINUOUS
 62
     7
 10
-289.42854338881921
 20
-117.46036410442559
 30
0.0
  0
VERTEX
  5
C1B
  8
DATA
  6
CONTINUOUS
 62
     7
 10
-289.4792920370694
 20
-117.3778004885128
 30
0.0
  0
VERTEX
  5
C1C
  8
DATA
  6
CONTINUOUS
 62
     7
 10
-289.52953785318118
 20
-117.2946382629117
 30
0.0
  0
VERTEX
  5
C1D
  8
DATA
  6
CONTINUOUS
 62
     7
 10
-289.57928083715478
 20
-117.21087742762209
 30
0.0
  0
VERTEX
  5
C1E
  8
DATA
  6
CONTINUOUS
 62
     7
 10
-289.62852098898998
 20
-117.1265179826441
 30
0.0
  0
VERTEX
  5
C1F
  8
DATA
  6
CONTINUOUS
 62
     7
 10
-289.67725830868687
 20
-117.0415599279777
 30
0.0
  0
VERTEX
  5
C20
  8
DATA
  6
CONTINUOUS
 62
     7
 10
-289.72549279624559
 20
-116.9560032636228
 30
0.0
  0
VERTEX
  5
C21
  8
DATA
  6
CONTINUOUS
 62
     7
 10
-289.77322445166601
 20
-116.8698479895794
 30
0.0
  0
VERTEX
  5
C22
  8
DATA
  6
CONTINUOUS
 62
     7
 10
-289.82045327494802
 20
-116.7830941058477
 30
0.0
  0
VERTEX
  5
C23
  8
DATA
  6
CONTINUOUS
 62
     7
 10
-289.8671792660918
 20
-116.6957416124275
 30
0.0
  0
VERTEX
  5
C24
  8
DATA
  6
CONTINUOUS
 62
     7
 10
-289.91340242509739
 20
-116.6077905093188
 30
0.0
  0
VERTEX
  5
C25
  8
DATA
  6
CONTINUOUS
 62
     7
 10
-289.95912275196463
 20
-116.5192407965218
 30
0.0
  0
VERTEX
  5
C26
  8
DATA
  6
CONTINUOUS
 62
     7
 10
-290.00434024669352
 20
-116.4300924740363
 30
0.0
  0
VERTEX
  5
C27
  8
DATA
  6
CONTINUOUS
 62
     7
 10
-290.04905490928422
 20
-116.34034554186231
 30
0.0
  0
VERTEX
  5
C28
  8
DATA
  6
CONTINUOUS
 62
     7
 10
-290.09326673973658
 20
-116.25
 30
0.0
  0
VERTEX
  5
C29
  8
DATA
  6
CONTINUOUS
 62
     7
 10
-290.13688371338247
 20
-116.1592456001169
 30
0.0
  0
VERTEX
  5
C2A
  8
DATA
  6
CONTINUOUS
 62
     7
 10
-290.17981380555358
 20
-116.06827209388091
 30
0.0
  0
VERTEX
  5
C2B
  8
DATA
  6
CONTINUOUS
 62
     7
 10
-290.22205701625001
 20
-115.97707948129209
 30
0.0
  0
VERTEX
  5
C2C
  8
DATA
  6
CONTINUOUS
 62
     7
 10
-290.26361334547158
 20
-115.8856677623502
 30
0.0
  0
VERTEX
  5
C2D
  8
DATA
  6
CONTINUOUS
 62
     7
 10
-290.30448279321848
 20
-115.79403693705549
 30
0.0
  0
VERTEX
  5
C2E
  8
DATA
  6
CONTINUOUS
 62
     7
 10
-290.3446653594907
 20
-115.70218700540779
 30
0.0
  0
VERTEX
  5
C2F
  8
DATA
  6
CONTINUOUS
 62
     7
 10
-290.38416104428808
 20
-115.61011796740731
 30
0.0
  0
VERTEX
  5
C30
  8
DATA
  6
CONTINUOUS
 62
     7
 10
-290.42296984761077
 20
-115.5178298230538
 30
0.0
  0
VERTEX
  5
C31
  8
DATA
  6
CONTINUOUS
 62
     7
 10
-290.46109176945879
 20
-115.4253225723474
 30
0.0
  0
VERTEX
  5
C32
  8
DATA
  6
CONTINUOUS
 62
     7
 10
-290.49852680983201
 20
-115.33259621528811
 30
0.0
  0
VERTEX
  5
C33
  8
DATA
  6
CONTINUOUS
 62
     7
 10
-290.5352749687305
 20
-115.2396507518759
 30
0.0
  0
VERTEX
  5
C34
  8
DATA
  6
CONTINUOUS
 62
     7
 10
-290.5713362461542
 20
-115.14648618211071
 30
0.0
  0
VERTEX
  5
C35
  8
DATA
  6
CONTINUOUS
 62
     7
 10
-290.60671064210322
 20
-115.0531025059926
 30
0.0
  0
VERTEX
  5
C36
  8
DATA
  6
CONTINUOUS
 62
     7
 10
-290.64139815657751
 20
-114.9594997235217
 30
0.0
  0
VERTEX
  5
C37
  8
DATA
  6
CONTINUOUS
 62
     7
 10
-290.675398789577
 20
-114.86567783469771
 30
0.0
  0
VERTEX
  5
C38
  8
DATA
  6
CONTINUOUS
 62
     7
 10
-290.70871254110182
 20
-114.77163683952089
 30
0.0
  0
VERTEX
  5
C39
  8
DATA
  6
CONTINUOUS
 62
     7
 10
-290.7413394111519
 20
-114.6773767379911
 30
0.0
  0
VERTEX
  5
C3A
  8
DATA
  6
CONTINUOUS
 62
     7
 10
-290.77327939972719
 20
-114.5828975301085
 30
0.0
  0
VERTEX
  5
C3B
  8
DATA
  6
CONTINUOUS
 62
     7
 10
-290.80453250682768
 20
-114.4881992158729
 30
0.0
  0
VERTEX
  5
C3C
  8
DATA
  6
CONTINUOUS
 62
     7
 10
-290.83509873245362
 20
-114.3932817952843
 30
0.0
  0
VERTEX
  5
C3D
  8
DATA
  6
CONTINUOUS
 62
     7
 10
-290.8649780766047
 20
-114.29814526834291
 30
0.0
  0
VERTEX
  5
C3E
  8
DATA
  6
CONTINUOUS
 62
     7
 10
-290.89417053928099
 20
-114.2027896350486
 30
0.0
  0
VERTEX
  5
C3F
  8
DATA
  6
CONTINUOUS
 62
     7
 10
-290.92267612048272
 20
-114.1072148954013
 30
0.0
  0
VERTEX
  5
C40
  8
DATA
  6
CONTINUOUS
 62
     7
 10
-290.9504948202096
 20
-114.01142104940109
 30
0.0
  0
VERTEX
  5
C41
  8
DATA
  6
CONTINUOUS
 62
     7
 10
-290.97762663846169
 20
-113.915408097048
 30
0.0
  0
VERTEX
  5
C42
  8
DATA
  6
CONTINUOUS
 62
     7
 10
-291.0040715752391
 20
-113.81917603834199
 30
0.0
  0
VERTEX
  5
C43
  8
DATA
  6
CONTINUOUS
 62
     7
 10
-291.02982963054183
 20
-113.722724873283
 30
0.0
  0
VERTEX
  5
C44
  8
DATA
  6
CONTINUOUS
 62
     7
 10
-291.05490080436971
 20
-113.6260546018712
 30
0.0
  0
VERTEX
  5
C45
  8
DATA
  6
CONTINUOUS
 62
     7
 10
-291.0792850967228
 20
-113.52916522410641
 30
0.0
  0
VERTEX
  5
C46
  8
DATA
  6
CONTINUOUS
 62
     7
 10
-291.10298250760138
 20
-113.4320567399887
 30
0.0
  0
VERTEX
  5
C47
  8
DATA
  6
CONTINUOUS
 62
     7
 10
-291.12599303700512
 20
-113.334729149518
 30
0.0
  0
VERTEX
  5
C48
  8
DATA
  6
CONTINUOUS
 62
     7
 10
-291.14831668493412
 20
-113.2371824526945
 30
0.0
  0
VERTEX
  5
C49
  8
DATA
  6
CONTINUOUS
 62
     7
 10
-291.16995345138838
 20
-113.139416649518
 30
0.0
  0
VERTEX
  5
C4A
  8
DATA
  6
CONTINUOUS
 62
     7
 10
-291.19090333636802
 20
-113.0414317399887
 30
0.0
  0
VERTEX
  5
C4B
  8
DATA
  6
CONTINUOUS
 62
     7
 10
-291.2111663398727
 20
-112.94322772410641
 30
0.0
  0
VERTEX
  5
C4C
  8
DATA
  6
CONTINUOUS
 62
     7
 10
-291.23074246190271
 20
-112.8448046018712
 30
0.0
  0
VERTEX
  5
C4D
  8
DATA
  6
CONTINUOUS
 62
     7
 10
-291.24963170245809
 20
-112.746162373283
 30
0.0
  0
VERTEX
  5
C4E
  8
DATA
  6
CONTINUOUS
 62
     7
 10
-291.26783406153862
 20
-112.64730103834199
 30
0.0
  0
VERTEX
  5
C4F
  8
DATA
  6
CONTINUOUS
 62
     7
 10
-291.28534953914431
 20
-112.548220597048
 30
0.0
  0
VERTEX
  5
C50
  8
DATA
  6
CONTINUOUS
 62
     7
 10
-291.30217813527543
 20
-112.44892104940109
 30
0.0
  0
VERTEX
  5
C51
  8
DATA
  6
CONTINUOUS
 62
     7
 10
-291.31831984993181
 20
-112.3494023954013
 30
0.0
  0
VERTEX
  5
C52
  8
DATA
  6
CONTINUOUS
 62
     7
 10
-291.3337746831134
 20
-112.2496646350486
 30
0.0
  0
VERTEX
  5
C53
  8
DATA
  6
CONTINUOUS
 62
     7
 10
-291.34854263482032
 20
-112.14970776834291
 30
0.0
  0
VERTEX
  5
C54
  8
DATA
  6
CONTINUOUS
 62
     7
 10
-291.36262370505239
 20
-112.0495317952843
 30
0.0
  0
VERTEX
  5
C55
  8
DATA
  6
CONTINUOUS
 62
     7
 10
-291.37601789380977
 20
-111.9491367158729
 30
0.0
  0
VERTEX
  5
C56
  8
DATA
  6
CONTINUOUS
 62
     7
 10
-291.38872520109248
 20
-111.8485225301085
 30
0.0
  0
VERTEX
  5
C57
  8
DATA
  6
CONTINUOUS
 62
     7
 10
-291.4007456269004
 20
-111.7476892379911
 30
0.0
  0
VERTEX
  5
C58
  8
DATA
  6
CONTINUOUS
 62
     7
 10
-291.41207917123359
 20
-111.64663683952089
 30
0.0
  0
VERTEX
  5
C59
  8
DATA
  6
CONTINUOUS
 62
     7
 10
-291.42272583409198
 20
-111.54536533469771
 30
0.0
  0
VERTEX
  5
C5A
  8
DATA
  6
CONTINUOUS
 62
     7
 10
-291.43268561547558
 20
-111.4438747235217
 30
0.0
  0
VERTEX
  5
C5B
  8
DATA
  6
CONTINUOUS
 62
     7
 10
-291.44195851538461
 20
-111.3421650059926
 30
0.0
  0
VERTEX
  5
C5C
  8
DATA
  6
CONTINUOUS
 62
     7
 10
-291.45054453381891
 20
-111.24023618211071
 30
0.0
  0
VERTEX
  5
C5D
  8
DATA
  6
CONTINUOUS
 62
     7
 10
-291.45844367077831
 20
-111.1380882518759
 30
0.0
  0
VERTEX
  5
C5E
  8
DATA
  6
CONTINUOUS
 62
     7
 10
-291.46565592626303
 20
-111.03572121528811
 30
0.0
  0
VERTEX
  5
C5F
  8
DATA
  6
CONTINUOUS
 62
     7
 10
-291.47218130027312
 20
-110.9331350723474
 30
0.0
  0
VERTEX
  5
C60
  8
DATA
  6
CONTINUOUS
 62
     7
 10
-291.47801979280842
 20
-110.8303298230538
 30
0.0
  0
VERTEX
  5
C61
  8
DATA
  6
CONTINUOUS
 62
     7
 10
-291.48317140386888
 20
-110.72730546740731
 30
0.0
  0
VERTEX
  5
C62
  8
DATA
  6
CONTINUOUS
 62
     7
 10
-291.48763613345471
 20
-110.62406200540779
 30
0.0
  0
VERTEX
  5
C63
  8
DATA
  6
CONTINUOUS
 62
     7
 10
-291.49141398156581
 20
-110.52059943705549
 30
0.0
  0
VERTEX
  5
C64
  8
DATA
  6
CONTINUOUS
 62
     7
 10
-291.49450494820212
 20
-110.4169177623502
 30
0.0
  0
VERTEX
  5
C65
  8
DATA
  6
CONTINUOUS
 62
     7
 10
-291.49690903336369
 20
-110.31301698129209
 30
0.0
  0
VERTEX
  5
C66
  8
DATA
  6
CONTINUOUS
 62
     7
 10
-291.49862623705047
 20
-110.20889709388091
 30
0.0
  0
VERTEX
  5
C67
  8
DATA
  6
CONTINUOUS
 62
     7
 10
-291.49965655926258
 20
-110.1045581001169
 30
0.0
  0
VERTEX
  5
C68
  8
DATA
  6
CONTINUOUS
 62
     7
 10
-291.5
 20
-110.0
 30
0.0
  0
VERTEX
  5
C69
  8
DATA
  6
CONTINUOUS
 62
     7
 10
-291.49965655926258
 20
-109.895441899883
 30
0.0
  0
VERTEX
  5
C6A
  8
DATA
  6
CONTINUOUS
 62
     7
 10
-291.49862623705047
 20
-109.79110290611899
 30
0.0
  0
VERTEX
  5
C6B
  8
DATA
  6
CONTINUOUS
 62
     7
 10
-291.49690903336369
 20
-109.68698301870791
 30
0.0
  0
VERTEX
  5
C6C
  8
DATA
  6
CONTINUOUS
 62
     7
 10
-291.49450494820212
 20
-109.58308223764971
 30
0.0
  0
VERTEX
  5
C6D
  8
DATA
  6
CONTINUOUS
 62
     7
 10
-291.49141398156581
 20
-109.47940056294451
 30
0.0
  0
VERTEX
  5
C6E
  8
DATA
  6
CONTINUOUS
 62
     7
 10
-291.48763613345471
 20
-109.37593799459211
 30
0.0
  0
VERTEX
  5
C6F
  8
DATA
  6
CONTINUOUS
 62
     7
 10
-291.48317140386888
 20
-109.2726945325926
 30
0.0
  0
VERTEX
  5
C70
  8
DATA
  6
CONTINUOUS
 62
     7
 10
-291.47801979280842
 20
-109.1696701769461
 30
0.0
  0
VERTEX
  5
C71
  8
DATA
  6
CONTINUOUS
 62
     7
 10
-291.47218130027312
 20
-109.0668649276526
 30
0.0
  0
VERTEX
  5
C72
  8
DATA
  6
CONTINUOUS
 62
     7
 10
-291.46565592626303
 20
-108.96427878471189
 30
0.0
  0
VERTEX
  5
C73
  8
DATA
  6
CONTINUOUS
 62
     7
 10
-291.45844367077831
 20
-108.8619117481241
 30
0.0
  0
VERTEX
  5
C74
  8
DATA
  6
CONTINUOUS
 62
     7
 10
-291.45054453381891
 20
-108.75976381788919
 30
0.0
  0
VERTEX
  5
C75
  8
DATA
  6
CONTINUOUS
 62
     7
 10
-291.44195851538461
 20
-108.6578349940073
 30
0.0
  0
VERTEX
  5
C76
  8
DATA
  6
CONTINUOUS
 62
     7
 10
-291.43268561547558
 20
-108.5561252764783
 30
0.0
  0
VERTEX
  5
C77
  8
DATA
  6
CONTINUOUS
 62
     7
 10
-291.42272583409198
 20
-108.45463466530219
 30
0.0
  0
VERTEX
  5
C78
  8
DATA
  6
CONTINUOUS
 62
     7
 10
-291.41207917123359
 20
-108.35336316047901
 30
0.0
  0
VERTEX
  5
C79
  8
DATA
  6
CONTINUOUS
 62
     7
 10
-291.4007456269004
 20
-108.2523107620088
 30
0.0
  0
VERTEX
  5
C7A
  8
DATA
  6
CONTINUOUS
 62
     7
 10
-291.38872520109248
 20
-108.1514774698915
 30
0.0
  0
VERTEX
  5
C7B
  8
DATA
  6
CONTINUOUS
 62
     7
 10
-291.37601789380977
 20
-108.0508632841271
 30
0.0
  0
VERTEX
  5
C7C
  8
DATA
  6
CONTINUOUS
 62
     7
 10
-291.36262370505239
 20
-107.95046820471561
 30
0.0
  0
VERTEX
  5
C7D
  8
DATA
  6
CONTINUOUS
 62
     7
 10
-291.34854263482032
 20
-107.85029223165699
 30
0.0
  0
VERTEX
  5
C7E
  8
DATA
  6
CONTINUOUS
 62
     7
 10
-291.3337746831134
 20
-107.7503353649514
 30
0.0
  0
VERTEX
  5
C7F
  8
DATA
  6
CONTINUOUS
 62
     7
 10
-291.31831984993181
 20
-107.6505976045987
 30
0.0
  0
VERTEX
  5
C80
  8
DATA
  6
CONTINUOUS
 62
     7
 10
-291.30217813527543
 20
-107.55107895059879
 30
0.0
  0
VERTEX
  5
C81
  8
DATA
  6
CONTINUOUS
 62
     7
 10
-291.28534953914431
 20
-107.451779402952
 30
0.0
  0
VERTEX
  5
C82
  8
DATA
  6
CONTINUOUS
 62
     7
 10
-291.26783406153862
 20
-107.35269896165801
 30
0.0
  0
VERTEX
  5
C83
  8
DATA
  6
CONTINUOUS
 62
     7
 10
-291.24963170245809
 20
-107.2538376267169
 30
0.0
  0
VERTEX
  5
C84
  8
DATA
  6
CONTINUOUS
 62
     7
 10
-291.23074246190271
 20
-107.1551953981288
 30
0.0
  0
VERTEX
  5
C85
  8
DATA
  6
CONTINUOUS
 62
     7
 10
-291.2111663398727
 20
-107.05677227589359
 30
0.0
  0
VERTEX
  5
C86
  8
DATA
  6
CONTINUOUS
 62
     7
 10
-291.19090333636802
 20
-106.9585682600113
 30
0.0
  0
VERTEX
  5
C87
  8
DATA
  6
CONTINUOUS
 62
     7
 10
-291.16995345138838
 20
-106.8605833504819
 30
0.0
  0
VERTEX
  5
C88
  8
DATA
  6
CONTINUOUS
 62
     7
 10
-291.14831668493412
 20
-106.7628175473055
 30
0.0
  0
VERTEX
  5
C89
  8
DATA
  6
CONTINUOUS
 62
     7
 10
-291.12599303700512
 20
-106.6652708504819
 30
0.0
  0
VERTEX
  5
C8A
  8
DATA
  6
CONTINUOUS
 62
     7
 10
-291.10298250760138
 20
-106.5679432600113
 30
0.0
  0
VERTEX
  5
C8B
  8
DATA
  6
CONTINUOUS
 62
     7
 10
-291.0792850967228
 20
-106.47083477589359
 30
0.0
  0
VERTEX
  5
C8C
  8
DATA
  6
CONTINUOUS
 62
     7
 10
-291.05490080436971
 20
-106.3739453981288
 30
0.0
  0
VERTEX
  5
C8D
  8
DATA
  6
CONTINUOUS
 62
     7
 10
-291.02982963054183
 20
-106.2772751267169
 30
0.0
  0
VERTEX
  5
C8E
  8
DATA
  6
CONTINUOUS
 62
     7
 10
-291.0040715752391
 20
-106.18082396165801
 30
0.0
  0
VERTEX
  5
C8F
  8
DATA
  6
CONTINUOUS
 62
     7
 10
-290.97762663846169
 20
-106.084591902952
 30
0.0
  0
VERTEX
  5
C90
  8
DATA
  6
CONTINUOUS
 62
     7
 10
-290.9504948202096
 20
-105.98857895059879
 30
0.0
  0
VERTEX
  5
C91
  8
DATA
  6
CONTINUOUS
 62
     7
 10
-290.92267612048272
 20
-105.8927851045987
 30
0.0
  0
VERTEX
  5
C92
  8
DATA
  6
CONTINUOUS
 62
     7
 10
-290.89417053928099
 20
-105.7972103649514
 30
0.0
  0
VERTEX
  5
C93
  8
DATA
  6
CONTINUOUS
 62
     7
 10
-290.8649780766047
 20
-105.70185473165699
 30
0.0
  0
VERTEX
  5
C94
  8
DATA
  6
CONTINUOUS
 62
     7
 10
-290.83509873245362
 20
-105.60671820471561
 30
0.0
  0
VERTEX
  5
C95
  8
DATA
  6
CONTINUOUS
 62
     7
 10
-290.80453250682768
 20
-105.5118007841271
 30
0.0
  0
VERTEX
  5
C96
  8
DATA
  6
CONTINUOUS
 62
     7
 10
-290.77327939972719
 20
-105.4171024698915
 30
0.0
  0
VERTEX
  5
C97
  8
DATA
  6
CONTINUOUS
 62
     7
 10
-290.7413394111519
 20
-105.3226232620088
 30
0.0
  0
VERTEX
  5
C98
  8
DATA
  6
CONTINUOUS
 62
     7
 10
-290.70871254110182
 20
-105.22836316047901
 30
0.0
  0
VERTEX
  5
C99
  8
DATA
  6
CONTINUOUS
 62
     7
 10
-290.675398789577
 20
-105.13432216530219
 30
0.0
  0
VERTEX
  5
C9A
  8
DATA
  6
CONTINUOUS
 62
     7
 10
-290.64139815657751
 20
-105.0405002764783
 30
0.0
  0
VERTEX
  5
C9B
  8
DATA
  6
CONTINUOUS
 62
     7
 10
-290.60671064210322
 20
-104.9468974940073
 30
0.0
  0
VERTEX
  5
C9C
  8
DATA
  6
CONTINUOUS
 62
     7
 10
-290.5713362461542
 20
-104.85351381788919
 30
0.0
  0
VERTEX
  5
C9D
  8
DATA
  6
CONTINUOUS
 62
     7
 10
-290.5352749687305
 20
-104.7603492481241
 30
0.0
  0
VERTEX
  5
C9E
  8
DATA
  6
CONTINUOUS
 62
     7
 10
-290.49852680983201
 20
-104.66740378471189
 30
0.0
  0
VERTEX
  5
C9F
  8
DATA
  6
CONTINUOUS
 62
     7
 10
-290.46109176945879
 20
-104.5746774276526
 30
0.0
  0
VERTEX
  5
CA0
  8
DATA
  6
CONTINUOUS
 62
     7
 10
-290.42296984761077
 20
-104.4821701769461
 30
0.0
  0
VERTEX
  5
CA1
  8
DATA
  6
CONTINUOUS
 62
     7
 10
-290.38416104428808
 20
-104.3898820325926
 30
0.0
  0
VERTEX
  5
CA2
  8
DATA
  6
CONTINUOUS
 62
     7
 10
-290.3446653594907
 20
-104.29781299459211
 30
0.0
  0
VERTEX
  5
CA3
  8
DATA
  6
CONTINUOUS
 62
     7
 10
-290.30448279321848
 20
-104.20596306294451
 30
0.0
  0
VERTEX
  5
CA4
  8
DATA
  6
CONTINUOUS
 62
     7
 10
-290.26361334547158
 20
-104.11433223764971
 30
0.0
  0
VERTEX
  5
CA5
  8
DATA
  6
CONTINUOUS
 62
     7
 10
-290.22205701625001
 20
-104.02292051870791
 30
0.0
  0
VERTEX
  5
CA6
  8
DATA
  6
CONTINUOUS
 62
     7
 10
-290.17981380555358
 20
-103.93172790611899
 30
0.0
  0
VERTEX
  5
CA7
  8
DATA
  6
CONTINUOUS
 62
     7
 10
-290.13688371338247
 20
-103.840754399883
 30
0.0
  0
VERTEX
  5
CA8
  8
DATA
  6
CONTINUOUS
 62
     7
 10
-290.09326673973658
 20
-103.75
 30
0.0
  0
VERTEX
  5
CA9
  8
DATA
  6
CONTINUOUS
 62
     7
 10
-290.04905490928422
 20
-103.6596544581376
 30
0.0
  0
VERTEX
  5
CAA
  8
DATA
  6
CONTINUOUS
 62
     7
 10
-290.00434024669352
 20
-103.5699075259637
 30
0.0
  0
VERTEX
  5
CAB
  8
DATA
  6
CONTINUOUS
 62
     7
 10
-289.95912275196463
 20
-103.4807592034782
 30
0.0
  0
VERTEX
  5
CAC
  8
DATA
  6
CONTINUOUS
 62
     7
 10
-289.91340242509739
 20
-103.3922094906811
 30
0.0
  0
VERTEX
  5
CAD
  8
DATA
  6
CONTINUOUS
 62
     7
 10
-289.8671792660918
 20
-103.3042583875725
 30
0.0
  0
VERTEX
  5
CAE
  8
DATA
  6
CONTINUOUS
 62
     7
 10
-289.82045327494802
 20
-103.2169058941523
 30
0.0
  0
VERTEX
  5
CAF
  8
DATA
  6
CONTINUOUS
 62
     7
 10
-289.77322445166601
 20
-103.1301520104205
 30
0.0
  0
VERTEX
  5
CB0
  8
DATA
  6
CONTINUOUS
 62
     7
 10
-289.72549279624559
 20
-103.0439967363772
 30
0.0
  0
VERTEX
  5
CB1
  8
DATA
  6
CONTINUOUS
 62
     7
 10
-289.67725830868687
 20
-102.9584400720223
 30
0.0
  0
VERTEX
  5
CB2
  8
DATA
  6
CONTINUOUS
 62
     7
 10
-289.62852098898998
 20
-102.8734820173559
 30
0.0
  0
VERTEX
  5
CB3
  8
DATA
  6
CONTINUOUS
 62
     7
 10
-289.57928083715478
 20
-102.78912257237781
 30
0.0
  0
VERTEX
  5
CB4
  8
DATA
  6
CONTINUOUS
 62
     7
 10
-289.52953785318118
 20
-102.7053617370883
 30
0.0
  0
VERTEX
  5
CB5
  8
DATA
  6
CONTINUOUS
 62
     7
 10
-289.4792920370694
 20
-102.6221995114871
 30
0.0
  0
VERTEX
  5
CB6
  8
DATA
  6
CONTINUOUS
 62
     7
 10
-289.42854338881921
 20
-102.53963589557441
 30
0.0
  0
VERTEX
  5
CB7
  8
DATA
  6
CONTINUOUS
 62
     7
 10
-289.37729190843089
 20
-102.4576708893501
 30
0.0
  0
VERTEX
  5
CB8
  8
DATA
  6
CONTINUOUS
 62
     7
 10
-289.32553759590428
 20
-102.3763044928143
 30
0.0
  0
VERTEX
  5
CB9
  8
DATA
  6
CONTINUOUS
 62
     7
 10
-289.27328045123932
 20
-102.2955367059669
 30
0.0
  0
VERTEX
  5
CBA
  8
DATA
  6
CONTINUOUS
 62
     7
 10
-289.22052047443611
 20
-102.2153675288079
 30
0.0
  0
VERTEX
  5
CBB
  8
DATA
  6
CONTINUOUS
 62
     7
 10
-289.16725766549462
 20
-102.13579696133741
 30
0.0
  0
VERTEX
  5
CBC
  8
DATA
  6
CONTINUOUS
 62
     7
 10
-289.11349202441482
 20
-102.0568250035553
 30
0.0
  0
VERTEX
  5
CBD
  8
DATA
  6
CONTINUOUS
 62
     7
 10
-289.05922355119668
 20
-101.9784516554617
 30
0.0
  0
VERTEX
  5
CBE
  8
DATA
  6
CONTINUOUS
 62
     7
 10
-289.0044522458403
 20
-101.9006769170564
 30
0.0
  0
VERTEX
  5
CBF
  8
DATA
  6
CONTINUOUS
 62
     7
 10
-288.94917810834562
 20
-101.8235007883396
 30
0.0
  0
VERTEX
  5
CC0
  8
DATA
  6
CONTINUOUS
 62
     7
 10
-288.89340113871259
 20
-101.7469232693112
 30
0.0
  0
VERTEX
  5
CC1
  8
DATA
  6
CONTINUOUS
 62
     7
 10
-288.83712133694138
 20
-101.6709443599713
 30
0.0
  0
VERTEX
  5
CC2
  8
DATA
  6
CONTINUOUS
 62
     7
 10
-288.78033870303187
 20
-101.5955640603199
 30
0.0
  0
VERTEX
  5
CC3
  8
DATA
  6
CONTINUOUS
 62
     7
 10
-288.72305323698407
 20
-101.5207823703567
 30
0.0
  0
VERTEX
  5
CC4
  8
DATA
  6
CONTINUOUS
 62
     7
 10
-288.66526493879809
 20
-101.4465992900822
 30
0.0
  0
VERTEX
  5
CC5
  8
DATA
  6
CONTINUOUS
 62
     7
 10
-288.60697380847358
 20
-101.37301481949601
 30
0.0
  0
VERTEX
  5
CC6
  8
DATA
  6
CONTINUOUS
 62
     7
 10
-288.5481798460109
 20
-101.3000289585983
 30
0.0
  0
VERTEX
  5
CC7
  8
DATA
  6
CONTINUOUS
 62
     7
 10
-288.48888305141003
 20
-101.227641707389
 30
0.0
  0
VERTEX
  5
CC8
  8
DATA
  6
CONTINUOUS
 62
     7
 10
-288.42908342467081
 20
-101.1558530658681
 30
0.0
  0
VERTEX
  5
CC9
  8
DATA
  6
CONTINUOUS
 62
     7
 10
-288.36878096579329
 20
-101.0846630340357
 30
0.0
  0
VERTEX
  5
CCA
  8
DATA
  6
CONTINUOUS
 62
     7
 10
-288.30797567477742
 20
-101.01407161189169
 30
0.0
  0
VERTEX
  5
CCB
  8
DATA
  6
CONTINUOUS
 62
     7
 10
-288.24666755162332
 20
-100.9440787994361
 30
0.0
  0
VERTEX
  5
CCC
  8
DATA
  6
CONTINUOUS
 62
     7
 10
-288.18485659633092
 20
-100.874684596669
 30
0.0
  0
VERTEX
  5
CCD
  8
DATA
  6
CONTINUOUS
 62
     7
 10
-288.12254280890028
 20
-100.80588900359029
 30
0.0
  0
VERTEX
  5
CCE
  8
DATA
  6
CONTINUOUS
 62
     7
 10
-288.05972618933117
 20
-100.7376920202001
 30
0.0
  0
VERTEX
  5
CCF
  8
DATA
  6
CONTINUOUS
 62
     7
 10
-287.99640673762411
 20
-100.6700936464982
 30
0.0
  0
VERTEX
  5
CD0
  8
DATA
  6
CONTINUOUS
 62
     7
 10
-287.93258445377847
 20
-100.6030938824849
 30
0.0
  0
VERTEX
  5
CD1
  8
DATA
  6
CONTINUOUS
 62
     7
 10
-287.86825933779483
 20
-100.53669272815991
 30
0.0
  0
VERTEX
  5
CD2
  8
DATA
  6
CONTINUOUS
 62
     7
 10
-287.8034313896726
 20
-100.47089018352349
 30
0.0
  0
VERTEX
  5
CD3
  8
DATA
  6
CONTINUOUS
 62
     7
 10
-287.73810060941219
 20
-100.40568624857541
 30
0.0
  0
VERTEX
  5
CD4
  8
DATA
  6
CONTINUOUS
 62
     7
 10
-287.67226699701348
 20
-100.3410809233157
 30
0.0
  0
VERTEX
  5
CD5
  8
DATA
  6
CONTINUOUS
 62
     7
 10
-287.60593055247648
 20
-100.2770742077445
 30
0.0
  0
VERTEX
  5
CD6
  8
DATA
  6
CONTINUOUS
 62
     7
 10
-287.5390912758013
 20
-100.2136661018617
 30
0.0
  0
VERTEX
  5
CD7
  8
DATA
  6
CONTINUOUS
 62
     7
 10
-287.47174916698782
 20
-100.1508566056674
 30
0.0
  0
VERTEX
  5
CD8
  8
DATA
  6
CONTINUOUS
 62
     7
 10
-287.40390422603588
 20
-100.08864571916151
 30
0.0
  0
VERTEX
  5
CD9
  8
DATA
  6
CONTINUOUS
 62
     7
 10
-287.33555645294581
 20
-100.02703344234411
 30
0.0
  0
VERTEX
  5
CDA
  8
DATA
  6
CONTINUOUS
 62
     7
 10
-287.26670584771739
 20
-99.966019775215074
 30
0.0
  0
VERTEX
  5
CDB
  8
DATA
  6
CONTINUOUS
 62
     7
 10
-287.19735241035079
 20
-99.905604717774494
 30
0.0
  0
VERTEX
  5
CDC
  8
DATA
  6
CONTINUOUS
 62
     7
 10
-287.12749614084578
 20
-99.845788270022354
 30
0.0
  0
VERTEX
  5
CDD
  8
DATA
  6
CONTINUOUS
 62
     7
 10
-287.05713703920259
 20
-99.786570431958637
 30
0.0
  0
VERTEX
  5
CDE
  8
DATA
  6
CONTINUOUS
 62
     7
 10
-286.98627510542099
 20
-99.727951203583373
 30
0.0
  0
VERTEX
  5
CDF
  8
DATA
  6
CONTINUOUS
 62
     7
 10
-286.91491033950132
 20
-99.669930584896505
 30
0.0
  0
VERTEX
  5
CE0
  8
DATA
  6
CONTINUOUS
 62
     7
 10
-286.84304274144318
 20
-99.612508575898076
 30
0.0
  0
VERTEX
  5
CE1
  8
DATA
  6
CONTINUOUS
 62
     7
 10
-286.77067231124681
 20
-99.555685176588113
 30
0.0
  0
VERTEX
  5
CE2
  8
DATA
  6
CONTINUOUS
 62
     7
 10
-286.69779904891197
 20
-99.499460386966575
 30
0.0
  0
VERTEX
  5
CE3
  8
DATA
  6
CONTINUOUS
 62
     7
 10
-286.62442295443918
 20
-99.443834207033476
 30
0.0
  0
VERTEX
  5
CE4
  8
DATA
  6
CONTINUOUS
 62
     7
 10
-286.55054402782793
 20
-99.3888066367888
 30
0.0
  0
VERTEX
  5
CE5
  8
DATA
  6
CONTINUOUS
 62
     7
 10
-286.47616226907832
 20
-99.334377676232563
 30
0.0
  0
VERTEX
  5
CE6
  8
DATA
  6
CONTINUOUS
 62
     7
 10
-286.40127767819052
 20
-99.280547325364793
 30
0.0
  0
VERTEX
  5
CE7
  8
DATA
  6
CONTINUOUS
 62
     7
 10
-286.32589025516438
 20
-99.227315584185433
 30
0.0
  0
VERTEX
  5
CE8
  8
DATA
  6
CONTINUOUS
 62
     7
 10
-286.25
 20
-99.174682452694526
 30
0.0
  0
VERTEX
  5
CE9
  8
DATA
  6
CONTINUOUS
 62
     7
 10
-286.25
 20
-99.174682452694526
 30
0.0
  0
SEQEND
  5
CEA
  8
DATA
  6
CONTINUOUS
 62
     7
  0
POLYLINE
  5
3F0
  8
DATA
  6
CONTINUOUS
 62
     7
 66
     1
 10
0.0
 20
0.0
 30
0.0
 70
   129
  0
VERTEX
  5
CEB
  8
DATA
  6
CONTINUOUS
 62
     7
 10
-309.75
 20
-81.854174377005734
 30
0.0
  0
VERTEX
  5
CEC
  8
DATA
  6
CONTINUOUS
 62
     7
 10
-309.33252976053791
 20
-81.719169458578037
 30
0.0
  0
VERTEX
  5
CED
  8
DATA
  6
CONTINUOUS
 62
     7
 10
-308.91405163185249
 20
-81.586290601857911
 30
0.0
  0
VERTEX
  5
CEE
  8
DATA
  6
CONTINUOUS
 62
     7
 10
-308.49456561394362
 20
-81.455537806845285
 30
0.0
  0
VERTEX
  5
CEF
  8
DATA
  6
CONTINUOUS
 62
     7
 10
-308.0740717068112
 20
-81.326911073540174
 30
0.0
  0
VERTEX
  5
CF0
  8
DATA
  6
CONTINUOUS
 62
     7
 10
-307.65256991045538
 20
-81.200410401942619
 30
0.0
  0
VERTEX
  5
CF1
  8
DATA
  6
CONTINUOUS
 62
     7
 10
-307.23006022487641
 20
-81.076035792052551
 30
0.0
  0
VERTEX
  5
CF2
  8
DATA
  6
CONTINUOUS
 62
     7
 10
-306.80654265007382
 20
-80.953787243870025
 30
0.0
  0
VERTEX
  5
CF3
  8
DATA
  6
CONTINUOUS
 62
     7
 10
-306.38201718604779
 20
-80.833664757394999
 30
0.0
  0
VERTEX
  5
CF4
  8
DATA
  6
CONTINUOUS
 62
     7
 10
-305.9564838327982
 20
-80.715668332627502
 30
0.0
  0
VERTEX
  5
CF5
  8
DATA
  6
CONTINUOUS
 62
     7
 10
-305.52994259032528
 20
-80.599797969567547
 30
0.0
  0
VERTEX
  5
CF6
  8
DATA
  6
CONTINUOUS
 62
     7
 10
-305.10239345862891
 20
-80.486053668215106
 30
0.0
  0
VERTEX
  5
CF7
  8
DATA
  6
CONTINUOUS
 62
     7
 10
-304.67383643770921
 20
-80.374435428570152
 30
0.0
  0
VERTEX
  5
CF8
  8
DATA
  6
CONTINUOUS
 62
     7
 10
-304.24427152756613
 20
-80.264943250632768
 30
0.0
  0
VERTEX
  5
CF9
  8
DATA
  6
CONTINUOUS
 62
     7
 10
-303.8136987281996
 20
-80.157577134402899
 30
0.0
  0
VERTEX
  5
CFA
  8
DATA
  6
CONTINUOUS
 62
     7
 10
-303.38211803960962
 20
-80.052337079880544
 30
0.0
  0
VERTEX
  5
CFB
  8
DATA
  6
CONTINUOUS
 62
     7
 10
-302.94952946179609
 20
-79.949223087065732
 30
0.0
  0
VERTEX
  5
CFC
  8
DATA
  6
CONTINUOUS
 62
     7
 10
-302.51593299475923
 20
-79.848235155958378
 30
0.0
  0
VERTEX
  5
CFD
  8
DATA
  6
CONTINUOUS
 62
     7
 10
-302.08132863849892
 20
-79.749373286558594
 30
0.0
  0
VERTEX
  5
CFE
  8
DATA
  6
CONTINUOUS
 62
     7
 10
-301.64571639301522
 20
-79.652637478866353
 30
0.0
  0
VERTEX
  5
CFF
  8
DATA
  6
CONTINUOUS
 62
     7
 10
-301.20909625830802
 20
-79.558027732881627
 30
0.0
  0
VERTEX
  5
D00
  8
DATA
  6
CONTINUOUS
 62
     7
 10
-300.77146823437738
 20
-79.465544048604372
 30
0.0
  0
VERTEX
  5
D01
  8
DATA
  6
CONTINUOUS
 62
     7
 10
-300.33283232122341
 20
-79.375186426034702
 30
0.0
  0
VERTEX
  5
D02
  8
DATA
  6
CONTINUOUS
 62
     7
 10
-299.89318851884588
 20
-79.286954865172504
 30
0.0
  0
VERTEX
  5
D03
  8
DATA
  6
CONTINUOUS
 62
     7
 10
-299.45253682724518
 20
-79.200849366017877
 30
0.0
  0
VERTEX
  5
D04
  8
DATA
  6
CONTINUOUS
 62
     7
 10
-299.01087724642082
 20
-79.11686992857075
 30
0.0
  0
VERTEX
  5
D05
  8
DATA
  6
CONTINUOUS
 62
     7
 10
-298.56820977637312
 20
-79.035016552831138
 30
0.0
  0
VERTEX
  5
D06
  8
DATA
  6
CONTINUOUS
 62
     7
 10
-298.12453441710193
 20
-78.955289238799025
 30
0.0
  0
VERTEX
  5
D07
  8
DATA
  6
CONTINUOUS
 62
     7
 10
-297.67985116860729
 20
-78.877687986474484
 30
0.0
  0
VERTEX
  5
D08
  8
DATA
  6
CONTINUOUS
 62
     7
 10
-297.23416003088943
 20
-78.802212795857443
 30
0.0
  0
VERTEX
  5
D09
  8
DATA
  6
CONTINUOUS
 62
     7
 10
-296.7874610039479
 20
-78.728863666947902
 30
0.0
  0
VERTEX
  5
D0A
  8
DATA
  6
CONTINUOUS
 62
     7
 10
-296.33975408778309
 20
-78.657640599745903
 30
0.0
  0
VERTEX
  5
D0B
  8
DATA
  6
CONTINUOUS
 62
     7
 10
-295.89103928239479
 20
-78.588543594251419
 30
0.0
  0
VERTEX
  5
D0C
  8
DATA
  6
CONTINUOUS
 62
     7
 10
-295.44131658778298
 20
-78.521572650464449
 30
0.0
  0
VERTEX
  5
D0D
  8
DATA
  6
CONTINUOUS
 62
     7
 10
-294.9905860039479
 20
-78.456727768385022
 30
0.0
  0
VERTEX
  5
D0E
  8
DATA
  6
CONTINUOUS
 62
     7
 10
-294.53884753088943
 20
-78.394008948013123
 30
0.0
  0
VERTEX
  5
D0F
  8
DATA
  6
CONTINUOUS
 62
     7
 10
-294.08610116860729
 20
-78.333416189348711
 30
0.0
  0
VERTEX
  5
D10
  8
DATA
  6
CONTINUOUS
 62
     7
 10
-293.63234691710193
 20
-78.274949492391869
 30
0.0
  0
VERTEX
  5
D11
  8
DATA
  6
CONTINUOUS
 62
     7
 10
-293.17758477637312
 20
-78.218608857142527
 30
0.0
  0
VERTEX
  5
D12
  8
DATA
  6
CONTINUOUS
 62
     7
 10
-292.72181474642082
 20
-78.164394283600686
 30
0.0
  0
VERTEX
  5
D13
  8
DATA
  6
CONTINUOUS
 62
     7
 10
-292.26503682724518
 20
-78.11230577176643
 30
0.0
  0
VERTEX
  5
D14
  8
DATA
  6
CONTINUOUS
 62
     7
 10
-291.80725101884588
 20
-78.062343321639659
 30
0.0
  0
VERTEX
  5
D15
  8
DATA
  6
CONTINUOUS
 62
     7
 10
-291.34845732122329
 20
-78.014506933220403
 30
0.0
  0
VERTEX
  5
D16
  8
DATA
  6
CONTINUOUS
 62
     7
 10
-290.88865573437749
 20
-77.968796606508633
 30
0.0
  0
VERTEX
  5
D17
  8
DATA
  6
CONTINUOUS
 62
     7
 10
-290.42784625830791
 20
-77.925212341504448
 30
0.0
  0
VERTEX
  5
D18
  8
DATA
  6
CONTINUOUS
 62
     7
 10
-289.96602889301522
 20
-77.883754138207735
 30
0.0
  0
VERTEX
  5
D19
  8
DATA
  6
CONTINUOUS
 62
     7
 10
-289.50320363849892
 20
-77.844421996618593
 30
0.0
  0
VERTEX
  5
D1A
  8
DATA
  6
CONTINUOUS
 62
     7
 10
-289.03937049475923
 20
-77.807215916736951
 30
0.0
  0
VERTEX
  5
D1B
  8
DATA
  6
CONTINUOUS
 62
     7
 10
-288.57452946179609
 20
-77.772135898562837
 30
0.0
  0
VERTEX
  5
D1C
  8
DATA
  6
CONTINUOUS
 62
     7
 10
-288.10868053960962
 20
-77.739181942096266
 30
0.0
  0
VERTEX
  5
D1D
  8
DATA
  6
CONTINUOUS
 62
     7
 10
-287.6418237281996
 20
-77.708354047337195
 30
0.0
  0
VERTEX
  5
D1E
  8
DATA
  6
CONTINUOUS
 62
     7
 10
-287.17395902756613
 20
-77.679652214285625
 30
0.0
  0
VERTEX
  5
D1F
  8
DATA
  6
CONTINUOUS
 62
     7
 10
-286.70508643770921
 20
-77.653076442941583
 30
0.0
  0
VERTEX
  5
D20
  8
DATA
  6
CONTINUOUS
 62
     7
 10
-286.23520595862891
 20
-77.628626733305083
 30
0.0
  0
VERTEX
  5
D21
  8
DATA
  6
CONTINUOUS
 62
     7
 10
-285.76431759032528
 20
-77.606303085376112
 30
0.0
  0
VERTEX
  5
D22
  8
DATA
  6
CONTINUOUS
 62
     7
 10
-285.2924213327982
 20
-77.586105499154655
 30
0.0
  0
VERTEX
  5
D23
  8
DATA
  6
CONTINUOUS
 62
     7
 10
-284.81951718604768
 20
-77.568033974640699
 30
0.0
  0
VERTEX
  5
D24
  8
DATA
  6
CONTINUOUS
 62
     7
 10
-284.34560515007382
 20
-77.55208851183427
 30
0.0
  0
VERTEX
  5
D25
  8
DATA
  6
CONTINUOUS
 62
     7
 10
-283.87068522487641
 20
-77.538269110735385
 30
0.0
  0
VERTEX
  5
D26
  8
DATA
  6
CONTINUOUS
 62
     7
 10
-283.39475741045538
 20
-77.526575771343985
 30
0.0
  0
VERTEX
  5
D27
  8
DATA
  6
CONTINUOUS
 62
     7
 10
-282.91782170681131
 20
-77.517008493660185
 30
0.0
  0
VERTEX
  5
D28
  8
DATA
  6
CONTINUOUS
 62
     7
 10
-282.43987811394362
 20
-77.509567277683857
 30
0.0
  0
VERTEX
  5
D29
  8
DATA
  6
CONTINUOUS
 62
     7
 10
-281.96092663185249
 20
-77.504252123415057
 30
0.0
  0
VERTEX
  5
D2A
  8
DATA
  6
CONTINUOUS
 62
     7
 10
-281.48096726053802
 20
-77.501063030853743
 30
0.0
  0
VERTEX
  5
D2B
  8
DATA
  6
CONTINUOUS
 62
     7
 10
-281.0
 20
-77.5
 30
0.0
  0
VERTEX
  5
D2C
  8
DATA
  6
CONTINUOUS
 62
     7
 10
-280.51903273946209
 20
-77.501063030853743
 30
0.0
  0
VERTEX
  5
D2D
  8
DATA
  6
CONTINUOUS
 62
     7
 10
-280.03907336814763
 20
-77.504252123415057
 30
0.0
  0
VERTEX
  5
D2E
  8
DATA
  6
CONTINUOUS
 62
     7
 10
-279.56012188605638
 20
-77.509567277683857
 30
0.0
  0
VERTEX
  5
D2F
  8
DATA
  6
CONTINUOUS
 62
     7
 10
-279.08217829318869
 20
-77.517008493660185
 30
0.0
  0
VERTEX
  5
D30
  8
DATA
  6
CONTINUOUS
 62
     7
 10
-278.60524258954462
 20
-77.526575771343985
 30
0.0
  0
VERTEX
  5
D31
  8
DATA
  6
CONTINUOUS
 62
     7
 10
-278.12931477512359
 20
-77.538269110735385
 30
0.0
  0
VERTEX
  5
D32
  8
DATA
  6
CONTINUOUS
 62
     7
 10
-277.65439484992618
 20
-77.55208851183427
 30
0.0
  0
VERTEX
  5
D33
  8
DATA
  6
CONTINUOUS
 62
     7
 10
-277.18048281395232
 20
-77.568033974640699
 30
0.0
  0
VERTEX
  5
D34
  8
DATA
  6
CONTINUOUS
 62
     7
 10
-276.70757866720169
 20
-77.586105499154655
 30
0.0
  0
VERTEX
  5
D35
  8
DATA
  6
CONTINUOUS
 62
     7
 10
-276.23568240967472
 20
-77.606303085376112
 30
0.0
  0
VERTEX
  5
D36
  8
DATA
  6
CONTINUOUS
 62
     7
 10
-275.76479404137098
 20
-77.628626733305083
 30
0.0
  0
VERTEX
  5
D37
  8
DATA
  6
CONTINUOUS
 62
     7
 10
-275.29491356229079
 20
-77.653076442941583
 30
0.0
  0
VERTEX
  5
D38
  8
DATA
  6
CONTINUOUS
 62
     7
 10
-274.82604097243399
 20
-77.679652214285625
 30
0.0
  0
VERTEX
  5
D39
  8
DATA
  6
CONTINUOUS
 62
     7
 10
-274.35817627180052
 20
-77.708354047337195
 30
0.0
  0
VERTEX
  5
D3A
  8
DATA
  6
CONTINUOUS
 62
     7
 10
-273.89131946039038
 20
-77.739181942096266
 30
0.0
  0
VERTEX
  5
D3B
  8
DATA
  6
CONTINUOUS
 62
     7
 10
-273.42547053820391
 20
-77.772135898562837
 30
0.0
  0
VERTEX
  5
D3C
  8
DATA
  6
CONTINUOUS
 62
     7
 10
-272.96062950524089
 20
-77.807215916736951
 30
0.0
  0
VERTEX
  5
D3D
  8
DATA
  6
CONTINUOUS
 62
     7
 10
-272.49679636150108
 20
-77.844421996618593
 30
0.0
  0
VERTEX
  5
D3E
  8
DATA
  6
CONTINUOUS
 62
     7
 10
-272.03397110698478
 20
-77.883754138207735
 30
0.0
  0
VERTEX
  5
D3F
  8
DATA
  6
CONTINUOUS
 62
     7
 10
-271.57215374169209
 20
-77.925212341504448
 30
0.0
  0
VERTEX
  5
D40
  8
DATA
  6
CONTINUOUS
 62
     7
 10
-271.11134426562262
 20
-77.968796606508633
 30
0.0
  0
VERTEX
  5
D41
  8
DATA
  6
CONTINUOUS
 62
     7
 10
-270.65154267877659
 20
-78.014506933220403
 30
0.0
  0
VERTEX
  5
D42
  8
DATA
  6
CONTINUOUS
 62
     7
 10
-270.19274898115412
 20
-78.062343321639659
 30
0.0
  0
VERTEX
  5
D43
  8
DATA
  6
CONTINUOUS
 62
     7
 10
-269.73496317275487
 20
-78.11230577176643
 30
0.0
  0
VERTEX
  5
D44
  8
DATA
  6
CONTINUOUS
 62
     7
 10
-269.27818525357918
 20
-78.164394283600686
 30
0.0
  0
VERTEX
  5
D45
  8
DATA
  6
CONTINUOUS
 62
     7
 10
-268.82241522362688
 20
-78.218608857142527
 30
0.0
  0
VERTEX
  5
D46
  8
DATA
  6
CONTINUOUS
 62
     7
 10
-268.36765308289807
 20
-78.274949492391869
 30
0.0
  0
VERTEX
  5
D47
  8
DATA
  6
CONTINUOUS
 62
     7
 10
-267.91389883139271
 20
-78.333416189348711
 30
0.0
  0
VERTEX
  5
D48
  8
DATA
  6
CONTINUOUS
 62
     7
 10
-267.46115246911057
 20
-78.394008948013123
 30
0.0
  0
VERTEX
  5
D49
  8
DATA
  6
CONTINUOUS
 62
     7
 10
-267.0094139960521
 20
-78.456727768385022
 30
0.0
  0
VERTEX
  5
D4A
  8
DATA
  6
CONTINUOUS
 62
     7
 10
-266.55868341221702
 20
-78.521572650464449
 30
0.0
  0
VERTEX
  5
D4B
  8
DATA
  6
CONTINUOUS
 62
     7
 10
-266.10896071760521
 20
-78.588543594251419
 30
0.0
  0
VERTEX
  5
D4C
  8
DATA
  6
CONTINUOUS
 62
     7
 10
-265.66024591221691
 20
-78.657640599745903
 30
0.0
  0
VERTEX
  5
D4D
  8
DATA
  6
CONTINUOUS
 62
     7
 10
-265.2125389960521
 20
-78.728863666947902
 30
0.0
  0
VERTEX
  5
D4E
  8
DATA
  6
CONTINUOUS
 62
     7
 10
-264.76583996911057
 20
-78.802212795857443
 30
0.0
  0
VERTEX
  5
D4F
  8
DATA
  6
CONTINUOUS
 62
     7
 10
-264.3201488313926
 20
-78.877687986474484
 30
0.0
  0
VERTEX
  5
D50
  8
DATA
  6
CONTINUOUS
 62
     7
 10
-263.87546558289807
 20
-78.955289238799025
 30
0.0
  0
VERTEX
  5
D51
  8
DATA
  6
CONTINUOUS
 62
     7
 10
-263.43179022362688
 20
-79.035016552831138
 30
0.0
  0
VERTEX
  5
D52
  8
DATA
  6
CONTINUOUS
 62
     7
 10
-262.98912275357918
 20
-79.11686992857075
 30
0.0
  0
VERTEX
  5
D53
  8
DATA
  6
CONTINUOUS
 62
     7
 10
-262.54746317275487
 20
-79.200849366017877
 30
0.0
  0
VERTEX
  5
D54
  8
DATA
  6
CONTINUOUS
 62
     7
 10
-262.10681148115412
 20
-79.286954865172504
 30
0.0
  0
VERTEX
  5
D55
  8
DATA
  6
CONTINUOUS
 62
     7
 10
-261.66716767877659
 20
-79.375186426034702
 30
0.0
  0
VERTEX
  5
D56
  8
DATA
  6
CONTINUOUS
 62
     7
 10
-261.22853176562262
 20
-79.465544048604372
 30
0.0
  0
VERTEX
  5
D57
  8
DATA
  6
CONTINUOUS
 62
     7
 10
-260.79090374169198
 20
-79.558027732881627
 30
0.0
  0
VERTEX
  5
D58
  8
DATA
  6
CONTINUOUS
 62
     7
 10
-260.35428360698478
 20
-79.652637478866353
 30
0.0
  0
VERTEX
  5
D59
  8
DATA
  6
CONTINUOUS
 62
     7
 10
-259.91867136150108
 20
-79.749373286558594
 30
0.0
  0
VERTEX
  5
D5A
  8
DATA
  6
CONTINUOUS
 62
     7
 10
-259.48406700524089
 20
-79.848235155958378
 30
0.0
  0
VERTEX
  5
D5B
  8
DATA
  6
CONTINUOUS
 62
     7
 10
-259.05047053820391
 20
-79.949223087065732
 30
0.0
  0
VERTEX
  5
D5C
  8
DATA
  6
CONTINUOUS
 62
     7
 10
-258.61788196039049
 20
-80.052337079880544
 30
0.0
  0
VERTEX
  5
D5D
  8
DATA
  6
CONTINUOUS
 62
     7
 10
-258.18630127180052
 20
-80.157577134402899
 30
0.0
  0
VERTEX
  5
D5E
  8
DATA
  6
CONTINUOUS
 62
     7
 10
-257.75572847243399
 20
-80.264943250632768
 30
0.0
  0
VERTEX
  5
D5F
  8
DATA
  6
CONTINUOUS
 62
     7
 10
-257.32616356229079
 20
-80.374435428570152
 30
0.0
  0
VERTEX
  5
D60
  8
DATA
  6
CONTINUOUS
 62
     7
 10
-256.89760654137109
 20
-80.486053668215106
 30
0.0
  0
VERTEX
  5
D61
  8
DATA
  6
CONTINUOUS
 62
     7
 10
-256.47005740967472
 20
-80.599797969567547
 30
0.0
  0
VERTEX
  5
D62
  8
DATA
  6
CONTINUOUS
 62
     7
 10
-256.0435161672018
 20
-80.715668332627502
 30
0.0
  0
VERTEX
  5
D63
  8
DATA
  6
CONTINUOUS
 62
     7
 10
-255.6179828139523
 20
-80.833664757394999
 30
0.0
  0
VERTEX
  5
D64
  8
DATA
  6
CONTINUOUS
 62
     7
 10
-255.19345734992629
 20
-80.953787243870025
 30
0.0
  0
VERTEX
  5
D65
  8
DATA
  6
CONTINUOUS
 62
     7
 10
-254.7699397751237
 20
-81.076035792052551
 30
0.0
  0
VERTEX
  5
D66
  8
DATA
  6
CONTINUOUS
 62
     7
 10
-254.34743008954459
 20
-81.200410401942619
 30
0.0
  0
VERTEX
  5
D67
  8
DATA
  6
CONTINUOUS
 62
     7
 10
-253.9259282931888
 20
-81.326911073540174
 30
0.0
  0
VERTEX
  5
D68
  8
DATA
  6
CONTINUOUS
 62
     7
 10
-253.50543438605641
 20
-81.455537806845285
 30
0.0
  0
VERTEX
  5
D69
  8
DATA
  6
CONTINUOUS
 62
     7
 10
-253.08594836814751
 20
-81.586290601857911
 30
0.0
  0
VERTEX
  5
D6A
  8
DATA
  6
CONTINUOUS
 62
     7
 10
-252.66747023946209
 20
-81.719169458578037
 30
0.0
  0
VERTEX
  5
D6B
  8
DATA
  6
CONTINUOUS
 62
     7
 10
-252.25
 20
-81.854174377005734
 30
0.0
  0
VERTEX
  5
D6C
  8
DATA
  6
CONTINUOUS
 62
     7
 10
-251.83441050743301
 20
-81.991020518882095
 30
0.0
  0
VERTEX
  5
D6D
  8
DATA
  6
CONTINUOUS
 62
     7
 10
-251.4215746194329
 20
-82.129423045948457
 30
0.0
  0
VERTEX
  5
D6E
  8
DATA
  6
CONTINUOUS
 62
     7
 10
-251.01149233599961
 20
-82.269381958204704
 30
0.0
  0
VERTEX
  5
D6F
  8
DATA
  6
CONTINUOUS
 62
     7
 10
-250.60416365713311
 20
-82.410897255650909
 30
0.0
  0
VERTEX
  5
D70
  8
DATA
  6
CONTINUOUS
 62
     7
 10
-250.19958858283351
 20
-82.553968938287042
 30
0.0
  0
VERTEX
  5
D71
  8
DATA
  6
CONTINUOUS
 62
     7
 10
-249.79776711310049
 20
-82.69859700611309
 30
0.0
  0
VERTEX
  5
D72
  8
DATA
  6
CONTINUOUS
 62
     7
 10
-249.39869924793439
 20
-82.844781459129095
 30
0.0
  0
VERTEX
  5
D73
  8
DATA
  6
CONTINUOUS
 62
     7
 10
-249.0023849873352
 20
-82.992522297335043
 30
0.0
  0
VERTEX
  5
D74
  8
DATA
  6
CONTINUOUS
 62
     7
 10
-248.60882433130271
 20
-83.141819520730905
 30
0.0
  0
VERTEX
  5
D75
  8
DATA
  6
CONTINUOUS
 62
     7
 10
-248.218017279837
 20
-83.292673129316697
 30
0.0
  0
VERTEX
  5
D76
  8
DATA
  6
CONTINUOUS
 62
     7
 10
-247.82996383293809
 20
-83.445083123092445
 30
0.0
  0
VERTEX
  5
D77
  8
DATA
  6
CONTINUOUS
 62
     7
 10
-247.44466399060599
 20
-83.599049502058065
 30
0.0
  0
VERTEX
  5
D78
  8
DATA
  6
CONTINUOUS
 62
     7
 10
-247.06211775284081
 20
-83.754572266213685
 30
0.0
  0
VERTEX
  5
D79
  8
DATA
  6
CONTINUOUS
 62
     7
 10
-246.68232511964229
 20
-83.911651415559206
 30
0.0
  0
VERTEX
  5
D7A
  8
DATA
  6
CONTINUOUS
 62
     7
 10
-246.30528609101069
 20
-84.070286950094669
 30
0.0
  0
VERTEX
  5
D7B
  8
DATA
  6
CONTINUOUS
 62
     7
 10
-245.93100066694569
 20
-84.230478869820018
 30
0.0
  0
VERTEX
  5
D7C
  8
DATA
  6
CONTINUOUS
 62
     7
 10
-245.55946884744759
 20
-84.392227174735325
 30
0.0
  0
VERTEX
  5
D7D
  8
DATA
  6
CONTINUOUS
 62
     7
 10
-245.19069063251641
 20
-84.555531864840617
 30
0.0
  0
VERTEX
  5
D7E
  8
DATA
  6
CONTINUOUS
 62
     7
 10
-244.824666022152
 20
-84.720392940135824
 30
0.0
  0
VERTEX
  5
D7F
  8
DATA
  6
CONTINUOUS
 62
     7
 10
-244.4613950163544
 20
-84.886810400620945
 30
0.0
  0
VERTEX
  5
D80
  8
DATA
  6
CONTINUOUS
 62
     7
 10
-244.10087761512349
 20
-85.054784246295995
 30
0.0
  0
VERTEX
  5
D81
  8
DATA
  6
CONTINUOUS
 62
     7
 10
-243.74311381845959
 20
-85.224314477160988
 30
0.0
  0
VERTEX
  5
D82
  8
DATA
  6
CONTINUOUS
 62
     7
 10
-243.38810362636229
 20
-85.395401093215924
 30
0.0
  0
VERTEX
  5
D83
  8
DATA
  6
CONTINUOUS
 62
     7
 10
-243.0358470388318
 20
-85.56804409446076
 30
0.0
  0
VERTEX
  5
D84
  8
DATA
  6
CONTINUOUS
 62
     7
 10
-242.68634405586809
 20
-85.742243480895524
 30
0.0
  0
VERTEX
  5
D85
  8
DATA
  6
CONTINUOUS
 62
     7
 10
-242.33959467747141
 20
-85.917999252520247
 30
0.0
  0
VERTEX
  5
D86
  8
DATA
  6
CONTINUOUS
 62
     7
 10
-241.99559890364131
 20
-86.095311409334911
 30
0.0
  0
VERTEX
  5
D87
  8
DATA
  6
CONTINUOUS
 62
     7
 10
-241.65435673437821
 20
-86.274179951339491
 30
0.0
  0
VERTEX
  5
D88
  8
DATA
  6
CONTINUOUS
 62
     7
 10
-241.31586816968189
 20
-86.454604878534056
 30
0.0
  0
VERTEX
  5
D89
  8
DATA
  6
CONTINUOUS
 62
     7
 10
-240.98013320955221
 20
-86.636586190918464
 30
0.0
  0
VERTEX
  5
D8A
  8
DATA
  6
CONTINUOUS
 62
     7
 10
-240.6471518539895
 20
-86.82012388849283
 30
0.0
  0
VERTEX
  5
D8B
  8
DATA
  6
CONTINUOUS
 62
     7
 10
-240.31692410299351
 20
-87.005217971257139
 30
0.0
  0
VERTEX
  5
D8C
  8
DATA
  6
CONTINUOUS
 62
     7
 10
-239.9894499565643
 20
-87.191868439211405
 30
0.0
  0
VERTEX
  5
D8D
  8
DATA
  6
CONTINUOUS
 62
     7
 10
-239.6647294147019
 20
-87.380075292355585
 30
0.0
  0
VERTEX
  5
D8E
  8
DATA
  6
CONTINUOUS
 62
     7
 10
-239.34276247740641
 20
-87.569838530689694
 30
0.0
  0
VERTEX
  5
D8F
  8
DATA
  6
CONTINUOUS
 62
     7
 10
-239.02354914467759
 20
-87.761158154213732
 30
0.0
  0
VERTEX
  5
D90
  8
DATA
  6
CONTINUOUS
 62
     7
 10
-238.70708941651569
 20
-87.954034162927684
 30
0.0
  0
VERTEX
  5
D91
  8
DATA
  6
CONTINUOUS
 62
     7
 10
-238.3933832929205
 20
-88.148466556831622
 30
0.0
  0
VERTEX
  5
D92
  8
DATA
  6
CONTINUOUS
 62
     7
 10
-238.08243077389221
 20
-88.34445533592546
 30
0.0
  0
VERTEX
  5
D93
  8
DATA
  6
CONTINUOUS
 62
     7
 10
-237.77423185943061
 20
-88.542000500209312
 30
0.0
  0
VERTEX
  5
D94
  8
DATA
  6
CONTINUOUS
 62
     7
 10
-237.46878654953591
 20
-88.741102049683008
 30
0.0
  0
VERTEX
  5
D95
  8
DATA
  6
CONTINUOUS
 62
     7
 10
-237.16609484420789
 20
-88.941759984346675
 30
0.0
  0
VERTEX
  5
D96
  8
DATA
  6
CONTINUOUS
 62
     7
 10
-236.86615674344679
 20
-89.143974304200214
 30
0.0
  0
VERTEX
  5
D97
  8
DATA
  6
CONTINUOUS
 62
     7
 10
-236.5689722472525
 20
-89.347745009243781
 30
0.0
  0
VERTEX
  5
D98
  8
DATA
  6
CONTINUOUS
 62
     7
 10
-236.27454135562499
 20
-89.55307209947722
 30
0.0
  0
VERTEX
  5
D99
  8
DATA
  6
CONTINUOUS
 62
     7
 10
-235.98286406856431
 20
-89.759955574900602
 30
0.0
  0
VERTEX
  5
D9A
  8
DATA
  6
CONTINUOUS
 62
     7
 10
-235.6939403860703
 20
-89.968395435513898
 30
0.0
  0
VERTEX
  5
D9B
  8
DATA
  6
CONTINUOUS
 62
     7
 10
-235.4077703081432
 20
-90.178391681317152
 30
0.0
  0
VERTEX
  5
D9C
  8
DATA
  6
CONTINUOUS
 62
     7
 10
-235.12435383478291
 20
-90.389944312310305
 30
0.0
  0
VERTEX
  5
D9D
  8
DATA
  6
CONTINUOUS
 62
     7
 10
-234.8436909659894
 20
-90.603053328493445
 30
0.0
  0
VERTEX
  5
D9E
  8
DATA
  6
CONTINUOUS
 62
     7
 10
-234.5657817017626
 20
-90.817718729866485
 30
0.0
  0
VERTEX
  5
D9F
  8
DATA
  6
CONTINUOUS
 62
     7
 10
-234.29062604210279
 20
-91.033940516429496
 30
0.0
  0
VERTEX
  5
DA0
  8
DATA
  6
CONTINUOUS
 62
     7
 10
-234.01822398700969
 20
-91.251718688182393
 30
0.0
  0
VERTEX
  5
DA1
  8
DATA
  6
CONTINUOUS
 62
     7
 10
-233.7485755364834
 20
-91.471053245125233
 30
0.0
  0
VERTEX
  5
DA2
  8
DATA
  6
CONTINUOUS
 62
     7
 10
-233.48168069052389
 20
-91.691944187257988
 30
0.0
  0
VERTEX
  5
DA3
  8
DATA
  6
CONTINUOUS
 62
     7
 10
-233.21753944913121
 20
-91.914391514580714
 30
0.0
  0
VERTEX
  5
DA4
  8
DATA
  6
CONTINUOUS
 62
     7
 10
-232.95615181230531
 20
-92.138395227093355
 30
0.0
  0
VERTEX
  5
DA5
  8
DATA
  6
CONTINUOUS
 62
     7
 10
-232.6975177800463
 20
-92.363955324795938
 30
0.0
  0
VERTEX
  5
DA6
  8
DATA
  6
CONTINUOUS
 62
     7
 10
-232.44163735235401
 20
-92.591071807688451
 30
0.0
  0
VERTEX
  5
DA7
  8
DATA
  6
CONTINUOUS
 62
     7
 10
-232.18851052922849
 20
-92.819744675770878
 30
0.0
  0
VERTEX
  5
DA8
  8
DATA
  6
CONTINUOUS
 62
     7
 10
-231.9381373106699
 20
-93.049973929043276
 30
0.0
  0
VERTEX
  5
DA9
  8
DATA
  6
CONTINUOUS
 62
     7
 10
-231.69051769667811
 20
-93.281759567505574
 30
0.0
  0
VERTEX
  5
DAA
  8
DATA
  6
CONTINUOUS
 62
     7
 10
-231.44565168725299
 20
-93.515101591157816
 30
0.0
  0
VERTEX
  5
DAB
  8
DATA
  6
CONTINUOUS
 62
     7
 10
-231.20353928239479
 20
-93.75
 30
0.0
  0
VERTEX
  5
DAC
  8
DATA
  6
CONTINUOUS
 62
     7
 10
-230.96468442671511
 20
-93.985961439695927
 30
0.0
  0
VERTEX
  5
DAD
  8
DATA
  6
CONTINUOUS
 62
     7
 10
-230.7295910648256
 20
-94.222492555909483
 30
0.0
  0
VERTEX
  5
DAE
  8
DATA
  6
CONTINUOUS
 62
     7
 10
-230.49825919672639
 20
-94.459593348640539
 30
0.0
  0
VERTEX
  5
DAF
  8
DATA
  6
CONTINUOUS
 62
     7
 10
-230.2706888224173
 20
-94.697263817889294
 30
0.0
  0
VERTEX
  5
DB0
  8
DATA
  6
CONTINUOUS
 62
     7
 10
-230.0468799418984
 20
-94.935503963655563
 30
0.0
  0
VERTEX
  5
DB1
  8
DATA
  6
CONTINUOUS
 62
     7
 10
-229.82683255516989
 20
-95.174313785939447
 30
0.0
  0
VERTEX
  5
DB2
  8
DATA
  6
CONTINUOUS
 62
     7
 10
-229.6105466622316
 20
-95.41369328474093
 30
0.0
  0
VERTEX
  5
DB3
  8
DATA
  6
CONTINUOUS
 62
     7
 10
-229.3980222630835
 20
-95.653642460059984
 30
0.0
  0
VERTEX
  5
DB4
  8
DATA
  6
CONTINUOUS
 62
     7
 10
-229.18925935772569
 20
-95.894161311896625
 30
0.0
  0
VERTEX
  5
DB5
  8
DATA
  6
CONTINUOUS
 62
     7
 10
-228.9842579461581
 20
-96.135249840250907
 30
0.0
  0
VERTEX
  5
DB6
  8
DATA
  6
CONTINUOUS
 62
     7
 10
-228.7830180283807
 20
-96.376908045122718
 30
0.0
  0
VERTEX
  5
DB7
  8
DATA
  6
CONTINUOUS
 62
     7
 10
-228.58553960439349
 20
-96.619135926512143
 30
0.0
  0
VERTEX
  5
DB8
  8
DATA
  6
CONTINUOUS
 62
     7
 10
-228.3918226741965
 20
-96.861933484419154
 30
0.0
  0
VERTEX
  5
DB9
  8
DATA
  6
CONTINUOUS
 62
     7
 10
-228.2018672377898
 20
-97.105300718843765
 30
0.0
  0
VERTEX
  5
DBA
  8
DATA
  6
CONTINUOUS
 62
     7
 10
-228.0156732951732
 20
-97.349237629785918
 30
0.0
  0
VERTEX
  5
DBB
  8
DATA
  6
CONTINUOUS
 62
     7
 10
-227.833240846347
 20
-97.593744217245714
 30
0.0
  0
VERTEX
  5
DBC
  8
DATA
  6
CONTINUOUS
 62
     7
 10
-227.65456989131101
 20
-97.838820481223067
 30
0.0
  0
VERTEX
  5
DBD
  8
DATA
  6
CONTINUOUS
 62
     7
 10
-227.47966043006531
 20
-98.084466421718005
 30
0.0
  0
VERTEX
  5
DBE
  8
DATA
  6
CONTINUOUS
 62
     7
 10
-227.30851246260971
 20
-98.330682038730544
 30
0.0
  0
VERTEX
  5
DBF
  8
DATA
  6
CONTINUOUS
 62
     7
 10
-227.1411259889444
 20
-98.577467332260682
 30
0.0
  0
VERTEX
  5
DC0
  8
DATA
  6
CONTINUOUS
 62
     7
 10
-226.97750100906941
 20
-98.824822302308405
 30
0.0
  0
VERTEX
  5
DC1
  8
DATA
  6
CONTINUOUS
 62
     7
 10
-226.8176375229846
 20
-99.072746948873714
 30
0.0
  0
VERTEX
  5
DC2
  8
DATA
  6
CONTINUOUS
 62
     7
 10
-226.66153553069
 20
-99.321241271956623
 30
0.0
  0
VERTEX
  5
DC3
  8
DATA
  6
CONTINUOUS
 62
     7
 10
-226.50919503218549
 20
-99.570305271557118
 30
0.0
  0
VERTEX
  5
DC4
  8
DATA
  6
CONTINUOUS
 62
     7
 10
-226.36061602747131
 20
-99.819938947675212
 30
0.0
  0
VERTEX
  5
DC5
  8
DATA
  6
CONTINUOUS
 62
     7
 10
-226.21579851654749
 20
-100.07014230031081
 30
0.0
  0
VERTEX
  5
DC6
  8
DATA
  6
CONTINUOUS
 62
     7
 10
-226.0747424994137
 20
-100.3209153294641
 30
0.0
  0
VERTEX
  5
DC7
  8
DATA
  6
CONTINUOUS
 62
     7
 10
-225.93744797607019
 20
-100.57225803513499
 30
0.0
  0
VERTEX
  5
DC8
  8
DATA
  6
CONTINUOUS
 62
     7
 10
-225.8039149465169
 20
-100.8241704173234
 30
0.0
  0
VERTEX
  5
DC9
  8
DATA
  6
CONTINUOUS
 62
     7
 10
-225.674143410754
 20
-101.07665247602939
 30
0.0
  0
VERTEX
  5
DCA
  8
DATA
  6
CONTINUOUS
 62
     7
 10
-225.54813336878129
 20
-101.329704211253
 30
0.0
  0
VERTEX
  5
DCB
  8
DATA
  6
CONTINUOUS
 62
     7
 10
-225.4258848205987
 20
-101.58332562299429
 30
0.0
  0
VERTEX
  5
DCC
  8
DATA
  6
CONTINUOUS
 62
     7
 10
-225.30739776620641
 20
-101.837516711253
 30
0.0
  0
VERTEX
  5
DCD
  8
DATA
  6
CONTINUOUS
 62
     7
 10
-225.1926722056044
 20
-102.09227747602939
 30
0.0
  0
VERTEX
  5
DCE
  8
DATA
  6
CONTINUOUS
 62
     7
 10
-225.08170813879249
 20
-102.3476079173234
 30
0.0
  0
VERTEX
  5
DCF
  8
DATA
  6
CONTINUOUS
 62
     7
 10
-224.97450556577081
 20
-102.60350803513499
 30
0.0
  0
VERTEX
  5
DD0
  8
DATA
  6
CONTINUOUS
 62
     7
 10
-224.8710644865395
 20
-102.8599778294641
 30
0.0
  0
VERTEX
  5
DD1
  8
DATA
  6
CONTINUOUS
 62
     7
 10
-224.7713849010984
 20
-103.11701730031081
 30
0.0
  0
VERTEX
  5
DD2
  8
DATA
  6
CONTINUOUS
 62
     7
 10
-224.67546680944741
 20
-103.3746264476752
 30
0.0
  0
VERTEX
  5
DD3
  8
DATA
  6
CONTINUOUS
 62
     7
 10
-224.58331021158679
 20
-103.6328052715571
 30
0.0
  0
VERTEX
  5
DD4
  8
DATA
  6
CONTINUOUS
 62
     7
 10
-224.49491510751639
 20
-103.89155377195659
 30
0.0
  0
VERTEX
  5
DD5
  8
DATA
  6
CONTINUOUS
 62
     7
 10
-224.4102814972361
 20
-104.1508719488737
 30
0.0
  0
VERTEX
  5
DD6
  8
DATA
  6
CONTINUOUS
 62
     7
 10
-224.32940938074611
 20
-104.41075980230841
 30
0.0
  0
VERTEX
  5
DD7
  8
DATA
  6
CONTINUOUS
 62
     7
 10
-224.25229875804641
 20
-104.6712173322607
 30
0.0
  0
VERTEX
  5
DD8
  8
DATA
  6
CONTINUOUS
 62
     7
 10
-224.17894962913689
 20
-104.9322445387305
 30
0.0
  0
VERTEX
  5
DD9
  8
DATA
  6
CONTINUOUS
 62
     7
 10
-224.1093619940176
 20
-105.19384142171801
 30
0.0
  0
VERTEX
  5
DDA
  8
DATA
  6
CONTINUOUS
 62
     7
 10
-224.04353585268851
 20
-105.456007981223
 30
0.0
  0
VERTEX
  5
DDB
  8
DATA
  6
CONTINUOUS
 62
     7
 10
-223.98147120514969
 20
-105.7187442172457
 30
0.0
  0
VERTEX
  5
DDC
  8
DATA
  6
CONTINUOUS
 62
     7
 10
-223.92316805140101
 20
-105.9820501297859
 30
0.0
  0
VERTEX
  5
DDD
  8
DATA
  6
CONTINUOUS
 62
     7
 10
-223.86862639144269
 20
-106.24592571884369
 30
0.0
  0
VERTEX
  5
DDE
  8
DATA
  6
CONTINUOUS
 62
     7
 10
-223.81784622527451
 20
-106.5103709844191
 30
0.0
  0
VERTEX
  5
DDF
  8
DATA
  6
CONTINUOUS
 62
     7
 10
-223.77082755289661
 20
-106.7753859265121
 30
0.0
  0
VERTEX
  5
DE0
  8
DATA
  6
CONTINUOUS
 62
     7
 10
-223.72757037430901
 20
-107.0409705451227
 30
0.0
  0
VERTEX
  5
DE1
  8
DATA
  6
CONTINUOUS
 62
     7
 10
-223.68807468951161
 20
-107.30712484025091
 30
0.0
  0
VERTEX
  5
DE2
  8
DATA
  6
CONTINUOUS
 62
     7
 10
-223.6523404985044
 20
-107.5738488118966
 30
0.0
  0
VERTEX
  5
DE3
  8
DATA
  6
CONTINUOUS
 62
     7
 10
-223.62036780128739
 20
-107.84114246006
 30
0.0
  0
VERTEX
  5
DE4
  8
DATA
  6
CONTINUOUS
 62
     7
 10
-223.59215659786071
 20
-108.1090057847409
 30
0.0
  0
VERTEX
  5
DE5
  8
DATA
  6
CONTINUOUS
 62
     7
 10
-223.56770688822419
 20
-108.3774387859394
 30
0.0
  0
VERTEX
  5
DE6
  8
DATA
  6
CONTINUOUS
 62
     7
 10
-223.54701867237799
 20
-108.64644146365551
 30
0.0
  0
VERTEX
  5
DE7
  8
DATA
  6
CONTINUOUS
 62
     7
 10
-223.53009195032189
 20
-108.91601381788929
 30
0.0
  0
VERTEX
  5
DE8
  8
DATA
  6
CONTINUOUS
 62
     7
 10
-223.51692672205601
 20
-109.1861558486405
 30
0.0
  0
VERTEX
  5
DE9
  8
DATA
  6
CONTINUOUS
 62
     7
 10
-223.5075229875805
 20
-109.4568675559095
 30
0.0
  0
VERTEX
  5
DEA
  8
DATA
  6
CONTINUOUS
 62
     7
 10
-223.5018807468951
 20
-109.7281489396959
 30
0.0
  0
VERTEX
  5
DEB
  8
DATA
  6
CONTINUOUS
 62
     7
 10
-223.5
 20
-110.0
 30
0.0
  0
VERTEX
  5
DEC
  8
DATA
  6
CONTINUOUS
 62
     7
 10
-223.5018807468951
 20
-110.2718510603041
 30
0.0
  0
VERTEX
  5
DED
  8
DATA
  6
CONTINUOUS
 62
     7
 10
-223.5075229875805
 20
-110.5431324440905
 30
0.0
  0
VERTEX
  5
DEE
  8
DATA
  6
CONTINUOUS
 62
     7
 10
-223.51692672205601
 20
-110.8138441513594
 30
0.0
  0
VERTEX
  5
DEF
  8
DATA
  6
CONTINUOUS
 62
     7
 10
-223.53009195032189
 20
-111.08398618211071
 30
0.0
  0
VERTEX
  5
DF0
  8
DATA
  6
CONTINUOUS
 62
     7
 10
-223.54701867237799
 20
-111.35355853634439
 30
0.0
  0
VERTEX
  5
DF1
  8
DATA
  6
CONTINUOUS
 62
     7
 10
-223.56770688822419
 20
-111.6225612140605
 30
0.0
  0
VERTEX
  5
DF2
  8
DATA
  6
CONTINUOUS
 62
     7
 10
-223.59215659786071
 20
-111.890994215259
 30
0.0
  0
VERTEX
  5
DF3
  8
DATA
  6
CONTINUOUS
 62
     7
 10
-223.62036780128739
 20
-112.15885753994
 30
0.0
  0
VERTEX
  5
DF4
  8
DATA
  6
CONTINUOUS
 62
     7
 10
-223.6523404985044
 20
-112.4261511881033
 30
0.0
  0
VERTEX
  5
DF5
  8
DATA
  6
CONTINUOUS
 62
     7
 10
-223.68807468951161
 20
-112.69287515974909
 30
0.0
  0
VERTEX
  5
DF6
  8
DATA
  6
CONTINUOUS
 62
     7
 10
-223.72757037430901
 20
-112.9590294548773
 30
0.0
  0
VERTEX
  5
DF7
  8
DATA
  6
CONTINUOUS
 62
     7
 10
-223.77082755289661
 20
-113.2246140734878
 30
0.0
  0
VERTEX
  5
DF8
  8
DATA
  6
CONTINUOUS
 62
     7
 10
-223.81784622527451
 20
-113.4896290155808
 30
0.0
  0
VERTEX
  5
DF9
  8
DATA
  6
CONTINUOUS
 62
     7
 10
-223.86862639144269
 20
-113.75407428115621
 30
0.0
  0
VERTEX
  5
DFA
  8
DATA
  6
CONTINUOUS
 62
     7
 10
-223.92316805140101
 20
-114.017949870214
 30
0.0
  0
VERTEX
  5
DFB
  8
DATA
  6
CONTINUOUS
 62
     7
 10
-223.98147120514969
 20
-114.2812557827543
 30
0.0
  0
VERTEX
  5
DFC
  8
DATA
  6
CONTINUOUS
 62
     7
 10
-224.04353585268851
 20
-114.5439920187769
 30
0.0
  0
VERTEX
  5
DFD
  8
DATA
  6
CONTINUOUS
 62
     7
 10
-224.1093619940176
 20
-114.80615857828199
 30
0.0
  0
VERTEX
  5
DFE
  8
DATA
  6
CONTINUOUS
 62
     7
 10
-224.17894962913689
 20
-115.0677554612694
 30
0.0
  0
VERTEX
  5
DFF
  8
DATA
  6
CONTINUOUS
 62
     7
 10
-224.25229875804641
 20
-115.3287826677393
 30
0.0
  0
VERTEX
  5
E00
  8
DATA
  6
CONTINUOUS
 62
     7
 10
-224.32940938074611
 20
-115.58924019769159
 30
0.0
  0
VERTEX
  5
E01
  8
DATA
  6
CONTINUOUS
 62
     7
 10
-224.4102814972361
 20
-115.8491280511263
 30
0.0
  0
VERTEX
  5
E02
  8
DATA
  6
CONTINUOUS
 62
     7
 10
-224.49491510751639
 20
-116.10844622804331
 30
0.0
  0
VERTEX
  5
E03
  8
DATA
  6
CONTINUOUS
 62
     7
 10
-224.58331021158679
 20
-116.3671947284429
 30
0.0
  0
VERTEX
  5
E04
  8
DATA
  6
CONTINUOUS
 62
     7
 10
-224.67546680944741
 20
-116.6253735523248
 30
0.0
  0
VERTEX
  5
E05
  8
DATA
  6
CONTINUOUS
 62
     7
 10
-224.7713849010984
 20
-116.88298269968909
 30
0.0
  0
VERTEX
  5
E06
  8
DATA
  6
CONTINUOUS
 62
     7
 10
-224.8710644865395
 20
-117.1400221705358
 30
0.0
  0
VERTEX
  5
E07
  8
DATA
  6
CONTINUOUS
 62
     7
 10
-224.97450556577081
 20
-117.39649196486501
 30
0.0
  0
VERTEX
  5
E08
  8
DATA
  6
CONTINUOUS
 62
     7
 10
-225.08170813879249
 20
-117.6523920826765
 30
0.0
  0
VERTEX
  5
E09
  8
DATA
  6
CONTINUOUS
 62
     7
 10
-225.1926722056044
 20
-117.90772252397051
 30
0.0
  0
VERTEX
  5
E0A
  8
DATA
  6
CONTINUOUS
 62
     7
 10
-225.30739776620641
 20
-118.1624832887469
 30
0.0
  0
VERTEX
  5
E0B
  8
DATA
  6
CONTINUOUS
 62
     7
 10
-225.4258848205987
 20
-118.41667437700571
 30
0.0
  0
VERTEX
  5
E0C
  8
DATA
  6
CONTINUOUS
 62
     7
 10
-225.54813336878129
 20
-118.6702957887469
 30
0.0
  0
VERTEX
  5
E0D
  8
DATA
  6
CONTINUOUS
 62
     7
 10
-225.674143410754
 20
-118.92334752397051
 30
0.0
  0
VERTEX
  5
E0E
  8
DATA
  6
CONTINUOUS
 62
     7
 10
-225.8039149465169
 20
-119.1758295826765
 30
0.0
  0
VERTEX
  5
E0F
  8
DATA
  6
CONTINUOUS
 62
     7
 10
-225.93744797607019
 20
-119.42774196486501
 30
0.0
  0
VERTEX
  5
E10
  8
DATA
  6
CONTINUOUS
 62
     7
 10
-226.0747424994137
 20
-119.6790846705358
 30
0.0
  0
VERTEX
  5
E11
  8
DATA
  6
CONTINUOUS
 62
     7
 10
-226.21579851654749
 20
-119.92985769968909
 30
0.0
  0
VERTEX
  5
E12
  8
DATA
  6
CONTINUOUS
 62
     7
 10
-226.36061602747131
 20
-120.1800610523248
 30
0.0
  0
VERTEX
  5
E13
  8
DATA
  6
CONTINUOUS
 62
     7
 10
-226.50919503218549
 20
-120.4296947284429
 30
0.0
  0
VERTEX
  5
E14
  8
DATA
  6
CONTINUOUS
 62
     7
 10
-226.66153553069
 20
-120.67875872804331
 30
0.0
  0
VERTEX
  5
E15
  8
DATA
  6
CONTINUOUS
 62
     7
 10
-226.8176375229846
 20
-120.9272530511263
 30
0.0
  0
VERTEX
  5
E16
  8
DATA
  6
CONTINUOUS
 62
     7
 10
-226.97750100906941
 20
-121.17517769769159
 30
0.0
  0
VERTEX
  5
E17
  8
DATA
  6
CONTINUOUS
 62
     7
 10
-227.1411259889444
 20
-121.4225326677393
 30
0.0
  0
VERTEX
  5
E18
  8
DATA
  6
CONTINUOUS
 62
     7
 10
-227.30851246260971
 20
-121.6693179612695
 30
0.0
  0
VERTEX
  5
E19
  8
DATA
  6
CONTINUOUS
 62
     7
 10
-227.47966043006531
 20
-121.91553357828199
 30
0.0
  0
VERTEX
  5
E1A
  8
DATA
  6
CONTINUOUS
 62
     7
 10
-227.65456989131101
 20
-122.161179518777
 30
0.0
  0
VERTEX
  5
E1B
  8
DATA
  6
CONTINUOUS
 62
     7
 10
-227.833240846347
 20
-122.4062557827543
 30
0.0
  0
VERTEX
  5
E1C
  8
DATA
  6
CONTINUOUS
 62
     7
 10
-228.0156732951732
 20
-122.6507623702141
 30
0.0
  0
VERTEX
  5
E1D
  8
DATA
  6
CONTINUOUS
 62
     7
 10
-228.2018672377898
 20
-122.89469928115621
 30
0.0
  0
VERTEX
  5
E1E
  8
DATA
  6
CONTINUOUS
 62
     7
 10
-228.3918226741965
 20
-123.1380665155808
 30
0.0
  0
VERTEX
  5
E1F
  8
DATA
  6
CONTINUOUS
 62
     7
 10
-228.58553960439349
 20
-123.3808640734878
 30
0.0
  0
VERTEX
  5
E20
  8
DATA
  6
CONTINUOUS
 62
     7
 10
-228.7830180283807
 20
-123.6230919548773
 30
0.0
  0
VERTEX
  5
E21
  8
DATA
  6
CONTINUOUS
 62
     7
 10
-228.9842579461581
 20
-123.86475015974909
 30
0.0
  0
VERTEX
  5
E22
  8
DATA
  6
CONTINUOUS
 62
     7
 10
-229.18925935772569
 20
-124.1058386881033
 30
0.0
  0
VERTEX
  5
E23
  8
DATA
  6
CONTINUOUS
 62
     7
 10
-229.3980222630835
 20
-124.34635753994
 30
0.0
  0
VERTEX
  5
E24
  8
DATA
  6
CONTINUOUS
 62
     7
 10
-229.6105466622316
 20
-124.586306715259
 30
0.0
  0
VERTEX
  5
E25
  8
DATA
  6
CONTINUOUS
 62
     7
 10
-229.82683255516989
 20
-124.8256862140605
 30
0.0
  0
VERTEX
  5
E26
  8
DATA
  6
CONTINUOUS
 62
     7
 10
-230.0468799418984
 20
-125.06449603634439
 30
0.0
  0
VERTEX
  5
E27
  8
DATA
  6
CONTINUOUS
 62
     7
 10
-230.2706888224173
 20
-125.30273618211071
 30
0.0
  0
VERTEX
  5
E28
  8
DATA
  6
CONTINUOUS
 62
     7
 10
-230.49825919672639
 20
-125.5404066513594
 30
0.0
  0
VERTEX
  5
E29
  8
DATA
  6
CONTINUOUS
 62
     7
 10
-230.7295910648256
 20
-125.7775074440905
 30
0.0
  0
VERTEX
  5
E2A
  8
DATA
  6
CONTINUOUS
 62
     7
 10
-230.96468442671511
 20
-126.014038560304
 30
0.0
  0
VERTEX
  5
E2B
  8
DATA
  6
CONTINUOUS
 62
     7
 10
-231.20353928239479
 20
-126.25
 30
0.0
  0
VERTEX
  5
E2C
  8
DATA
  6
CONTINUOUS
 62
     7
 10
-231.44565168725299
 20
-126.4848984088422
 30
0.0
  0
VERTEX
  5
E2D
  8
DATA
  6
CONTINUOUS
 62
     7
 10
-231.69051769667811
 20
-126.7182404324944
 30
0.0
  0
VERTEX
  5
E2E
  8
DATA
  6
CONTINUOUS
 62
     7
 10
-231.9381373106699
 20
-126.9500260709567
 30
0.0
  0
VERTEX
  5
E2F
  8
DATA
  6
CONTINUOUS
 62
     7
 10
-232.18851052922849
 20
-127.18025532422909
 30
0.0
  0
VERTEX
  5
E30
  8
DATA
  6
CONTINUOUS
 62
     7
 10
-232.44163735235401
 20
-127.40892819231151
 30
0.0
  0
VERTEX
  5
E31
  8
DATA
  6
CONTINUOUS
 62
     7
 10
-232.6975177800463
 20
-127.636044675204
 30
0.0
  0
VERTEX
  5
E32
  8
DATA
  6
CONTINUOUS
 62
     7
 10
-232.95615181230531
 20
-127.8616047729066
 30
0.0
  0
VERTEX
  5
E33
  8
DATA
  6
CONTINUOUS
 62
     7
 10
-233.21753944913121
 20
-128.0856084854193
 30
0.0
  0
VERTEX
  5
E34
  8
DATA
  6
CONTINUOUS
 62
     7
 10
-233.48168069052389
 20
-128.308055812742
 30
0.0
  0
VERTEX
  5
E35
  8
DATA
  6
CONTINUOUS
 62
     7
 10
-233.7485755364834
 20
-128.5289467548748
 30
0.0
  0
VERTEX
  5
E36
  8
DATA
  6
CONTINUOUS
 62
     7
 10
-234.01822398700969
 20
-128.74828131181761
 30
0.0
  0
VERTEX
  5
E37
  8
DATA
  6
CONTINUOUS
 62
     7
 10
-234.29062604210279
 20
-128.9660594835706
 30
0.0
  0
VERTEX
  5
E38
  8
DATA
  6
CONTINUOUS
 62
     7
 10
-234.5657817017626
 20
-129.1822812701335
 30
0.0
  0
VERTEX
  5
E39
  8
DATA
  6
CONTINUOUS
 62
     7
 10
-234.8436909659894
 20
-129.3969466715065
 30
0.0
  0
VERTEX
  5
E3A
  8
DATA
  6
CONTINUOUS
 62
     7
 10
-235.12435383478291
 20
-129.61005568768971
 30
0.0
  0
VERTEX
  5
E3B
  8
DATA
  6
CONTINUOUS
 62
     7
 10
-235.4077703081432
 20
-129.82160831868279
 30
0.0
  0
VERTEX
  5
E3C
  8
DATA
  6
CONTINUOUS
 62
     7
 10
-235.6939403860703
 20
-130.03160456448609
 30
0.0
  0
VERTEX
  5
E3D
  8
DATA
  6
CONTINUOUS
 62
     7
 10
-235.98286406856431
 20
-130.2400444250994
 30
0.0
  0
VERTEX
  5
E3E
  8
DATA
  6
CONTINUOUS
 62
     7
 10
-236.27454135562499
 20
-130.44692790052281
 30
0.0
  0
VERTEX
  5
E3F
  8
DATA
  6
CONTINUOUS
 62
     7
 10
-236.5689722472525
 20
-130.65225499075621
 30
0.0
  0
VERTEX
  5
E40
  8
DATA
  6
CONTINUOUS
 62
     7
 10
-236.86615674344679
 20
-130.85602569579979
 30
0.0
  0
VERTEX
  5
E41
  8
DATA
  6
CONTINUOUS
 62
     7
 10
-237.16609484420789
 20
-131.05824001565341
 30
0.0
  0
VERTEX
  5
E42
  8
DATA
  6
CONTINUOUS
 62
     7
 10
-237.46878654953591
 20
-131.25889795031699
 30
0.0
  0
VERTEX
  5
E43
  8
DATA
  6
CONTINUOUS
 62
     7
 10
-237.77423185943061
 20
-131.4579994997907
 30
0.0
  0
VERTEX
  5
E44
  8
DATA
  6
CONTINUOUS
 62
     7
 10
-238.08243077389221
 20
-131.65554466407451
 30
0.0
  0
VERTEX
  5
E45
  8
DATA
  6
CONTINUOUS
 62
     7
 10
-238.3933832929205
 20
-131.85153344316831
 30
0.0
  0
VERTEX
  5
E46
  8
DATA
  6
CONTINUOUS
 62
     7
 10
-238.70708941651569
 20
-132.04596583707229
 30
0.0
  0
VERTEX
  5
E47
  8
DATA
  6
CONTINUOUS
 62
     7
 10
-239.02354914467759
 20
-132.23884184578631
 30
0.0
  0
VERTEX
  5
E48
  8
DATA
  6
CONTINUOUS
 62
     7
 10
-239.34276247740641
 20
-132.43016146931029
 30
0.0
  0
VERTEX
  5
E49
  8
DATA
  6
CONTINUOUS
 62
     7
 10
-239.6647294147019
 20
-132.6199247076444
 30
0.0
  0
VERTEX
  5
E4A
  8
DATA
  6
CONTINUOUS
 62
     7
 10
-239.9894499565643
 20
-132.80813156078861
 30
0.0
  0
VERTEX
  5
E4B
  8
DATA
  6
CONTINUOUS
 62
     7
 10
-240.31692410299351
 20
-132.9947820287428
 30
0.0
  0
VERTEX
  5
E4C
  8
DATA
  6
CONTINUOUS
 62
     7
 10
-240.6471518539895
 20
-133.17987611150721
 30
0.0
  0
VERTEX
  5
E4D
  8
DATA
  6
CONTINUOUS
 62
     7
 10
-240.98013320955221
 20
-133.36341380908161
 30
0.0
  0
VERTEX
  5
E4E
  8
DATA
  6
CONTINUOUS
 62
     7
 10
-241.31586816968189
 20
-133.54539512146599
 30
0.0
  0
VERTEX
  5
E4F
  8
DATA
  6
CONTINUOUS
 62
     7
 10
-241.65435673437821
 20
-133.72582004866061
 30
0.0
  0
VERTEX
  5
E50
  8
DATA
  6
CONTINUOUS
 62
     7
 10
-241.99559890364131
 20
-133.9046885906651
 30
0.0
  0
VERTEX
  5
E51
  8
DATA
  6
CONTINUOUS
 62
     7
 10
-242.33959467747141
 20
-134.08200074747981
 30
0.0
  0
VERTEX
  5
E52
  8
DATA
  6
CONTINUOUS
 62
     7
 10
-242.68634405586809
 20
-134.2577565191045
 30
0.0
  0
VERTEX
  5
E53
  8
DATA
  6
CONTINUOUS
 62
     7
 10
-243.0358470388318
 20
-134.4319559055393
 30
0.0
  0
VERTEX
  5
E54
  8
DATA
  6
CONTINUOUS
 62
     7
 10
-243.38810362636229
 20
-134.60459890678419
 30
0.0
  0
VERTEX
  5
E55
  8
DATA
  6
CONTINUOUS
 62
     7
 10
-243.74311381845959
 20
-134.7756855228391
 30
0.0
  0
VERTEX
  5
E56
  8
DATA
  6
CONTINUOUS
 62
     7
 10
-244.10087761512349
 20
-134.9452157537041
 30
0.0
  0
VERTEX
  5
E57
  8
DATA
  6
CONTINUOUS
 62
     7
 10
-244.4613950163544
 20
-135.1131895993791
 30
0.0
  0
VERTEX
  5
E58
  8
DATA
  6
CONTINUOUS
 62
     7
 10
-244.824666022152
 20
-135.27960705986419
 30
0.0
  0
VERTEX
  5
E59
  8
DATA
  6
CONTINUOUS
 62
     7
 10
-245.19069063251641
 20
-135.4444681351595
 30
0.0
  0
VERTEX
  5
E5A
  8
DATA
  6
CONTINUOUS
 62
     7
 10
-245.55946884744759
 20
-135.6077728252647
 30
0.0
  0
VERTEX
  5
E5B
  8
DATA
  6
CONTINUOUS
 62
     7
 10
-245.93100066694569
 20
-135.76952113018001
 30
0.0
  0
VERTEX
  5
E5C
  8
DATA
  6
CONTINUOUS
 62
     7
 10
-246.30528609101069
 20
-135.92971304990539
 30
0.0
  0
VERTEX
  5
E5D
  8
DATA
  6
CONTINUOUS
 62
     7
 10
-246.68232511964229
 20
-136.08834858444081
 30
0.0
  0
VERTEX
  5
E5E
  8
DATA
  6
CONTINUOUS
 62
     7
 10
-247.06211775284081
 20
-136.2454277337863
 30
0.0
  0
VERTEX
  5
E5F
  8
DATA
  6
CONTINUOUS
 62
     7
 10
-247.44466399060599
 20
-136.40095049794189
 30
0.0
  0
VERTEX
  5
E60
  8
DATA
  6
CONTINUOUS
 62
     7
 10
-247.82996383293809
 20
-136.55491687690761
 30
0.0
  0
VERTEX
  5
E61
  8
DATA
  6
CONTINUOUS
 62
     7
 10
-248.218017279837
 20
-136.7073268706834
 30
0.0
  0
VERTEX
  5
E62
  8
DATA
  6
CONTINUOUS
 62
     7
 10
-248.60882433130271
 20
-136.85818047926909
 30
0.0
  0
VERTEX
  5
E63
  8
DATA
  6
CONTINUOUS
 62
     7
 10
-249.0023849873352
 20
-137.007477702665
 30
0.0
  0
VERTEX
  5
E64
  8
DATA
  6
CONTINUOUS
 62
     7
 10
-249.39869924793439
 20
-137.15521854087089
 30
0.0
  0
VERTEX
  5
E65
  8
DATA
  6
CONTINUOUS
 62
     7
 10
-249.79776711310049
 20
-137.30140299388691
 30
0.0
  0
VERTEX
  5
E66
  8
DATA
  6
CONTINUOUS
 62
     7
 10
-250.19958858283351
 20
-137.446031061713
 30
0.0
  0
VERTEX
  5
E67
  8
DATA
  6
CONTINUOUS
 62
     7
 10
-250.60416365713311
 20
-137.58910274434911
 30
0.0
  0
VERTEX
  5
E68
  8
DATA
  6
CONTINUOUS
 62
     7
 10
-251.01149233599961
 20
-137.73061804179531
 30
0.0
  0
VERTEX
  5
E69
  8
DATA
  6
CONTINUOUS
 62
     7
 10
-251.4215746194329
 20
-137.8705769540515
 30
0.0
  0
VERTEX
  5
E6A
  8
DATA
  6
CONTINUOUS
 62
     7
 10
-251.83441050743301
 20
-138.00897948111779
 30
0.0
  0
VERTEX
  5
E6B
  8
DATA
  6
CONTINUOUS
 62
     7
 10
-252.25
 20
-138.14582562299429
 30
0.0
  0
VERTEX
  5
E6C
  8
DATA
  6
CONTINUOUS
 62
     7
 10
-252.66747023946209
 20
-138.28083054142181
 30
0.0
  0
VERTEX
  5
E6D
  8
DATA
  6
CONTINUOUS
 62
     7
 10
-253.08594836814751
 20
-138.413709398142
 30
0.0
  0
VERTEX
  5
E6E
  8
DATA
  6
CONTINUOUS
 62
     7
 10
-253.50543438605641
 20
-138.54446219315469
 30
0.0
  0
VERTEX
  5
E6F
  8
DATA
  6
CONTINUOUS
 62
     7
 10
-253.9259282931888
 20
-138.6730889264598
 30
0.0
  0
VERTEX
  5
E70
  8
DATA
  6
CONTINUOUS
 62
     7
 10
-254.34743008954459
 20
-138.79958959805731
 30
0.0
  0
VERTEX
  5
E71
  8
DATA
  6
CONTINUOUS
 62
     7
 10
-254.7699397751237
 20
-138.92396420794739
 30
0.0
  0
VERTEX
  5
E72
  8
DATA
  6
CONTINUOUS
 62
     7
 10
-255.19345734992629
 20
-139.04621275612999
 30
0.0
  0
VERTEX
  5
E73
  8
DATA
  6
CONTINUOUS
 62
     7
 10
-255.6179828139523
 20
-139.16633524260499
 30
0.0
  0
VERTEX
  5
E74
  8
DATA
  6
CONTINUOUS
 62
     7
 10
-256.0435161672018
 20
-139.2843316673725
 30
0.0
  0
VERTEX
  5
E75
  8
DATA
  6
CONTINUOUS
 62
     7
 10
-256.47005740967472
 20
-139.4002020304325
 30
0.0
  0
VERTEX
  5
E76
  8
DATA
  6
CONTINUOUS
 62
     7
 10
-256.89760654137109
 20
-139.51394633178481
 30
0.0
  0
VERTEX
  5
E77
  8
DATA
  6
CONTINUOUS
 62
     7
 10
-257.32616356229079
 20
-139.62556457142981
 30
0.0
  0
VERTEX
  5
E78
  8
DATA
  6
CONTINUOUS
 62
     7
 10
-257.75572847243399
 20
-139.7350567493672
 30
0.0
  0
VERTEX
  5
E79
  8
DATA
  6
CONTINUOUS
 62
     7
 10
-258.18630127180052
 20
-139.84242286559709
 30
0.0
  0
VERTEX
  5
E7A
  8
DATA
  6
CONTINUOUS
 62
     7
 10
-258.61788196039049
 20
-139.9476629201194
 30
0.0
  0
VERTEX
  5
E7B
  8
DATA
  6
CONTINUOUS
 62
     7
 10
-259.05047053820391
 20
-140.05077691293431
 30
0.0
  0
VERTEX
  5
E7C
  8
DATA
  6
CONTINUOUS
 62
     7
 10
-259.48406700524089
 20
-140.15176484404151
 30
0.0
  0
VERTEX
  5
E7D
  8
DATA
  6
CONTINUOUS
 62
     7
 10
-259.91867136150108
 20
-140.25062671344131
 30
0.0
  0
VERTEX
  5
E7E
  8
DATA
  6
CONTINUOUS
 62
     7
 10
-260.35428360698478
 20
-140.34736252113359
 30
0.0
  0
VERTEX
  5
E7F
  8
DATA
  6
CONTINUOUS
 62
     7
 10
-260.79090374169198
 20
-140.44197226711839
 30
0.0
  0
VERTEX
  5
E80
  8
DATA
  6
CONTINUOUS
 62
     7
 10
-261.22853176562262
 20
-140.53445595139561
 30
0.0
  0
VERTEX
  5
E81
  8
DATA
  6
CONTINUOUS
 62
     7
 10
-261.66716767877659
 20
-140.6248135739653
 30
0.0
  0
VERTEX
  5
E82
  8
DATA
  6
CONTINUOUS
 62
     7
 10
-262.10681148115412
 20
-140.7130451348275
 30
0.0
  0
VERTEX
  5
E83
  8
DATA
  6
CONTINUOUS
 62
     7
 10
-262.54746317275487
 20
-140.79915063398209
 30
0.0
  0
VERTEX
  5
E84
  8
DATA
  6
CONTINUOUS
 62
     7
 10
-262.98912275357918
 20
-140.88313007142921
 30
0.0
  0
VERTEX
  5
E85
  8
DATA
  6
CONTINUOUS
 62
     7
 10
-263.43179022362688
 20
-140.96498344716881
 30
0.0
  0
VERTEX
  5
E86
  8
DATA
  6
CONTINUOUS
 62
     7
 10
-263.87546558289807
 20
-141.04471076120089
 30
0.0
  0
VERTEX
  5
E87
  8
DATA
  6
CONTINUOUS
 62
     7
 10
-264.3201488313926
 20
-141.12231201352549
 30
0.0
  0
VERTEX
  5
E88
  8
DATA
  6
CONTINUOUS
 62
     7
 10
-264.76583996911057
 20
-141.1977872041426
 30
0.0
  0
VERTEX
  5
E89
  8
DATA
  6
CONTINUOUS
 62
     7
 10
-265.2125389960521
 20
-141.27113633305211
 30
0.0
  0
VERTEX
  5
E8A
  8
DATA
  6
CONTINUOUS
 62
     7
 10
-265.66024591221691
 20
-141.34235940025411
 30
0.0
  0
VERTEX
  5
E8B
  8
DATA
  6
CONTINUOUS
 62
     7
 10
-266.10896071760521
 20
-141.41145640574859
 30
0.0
  0
VERTEX
  5
E8C
  8
DATA
  6
CONTINUOUS
 62
     7
 10
-266.55868341221702
 20
-141.47842734953551
 30
0.0
  0
VERTEX
  5
E8D
  8
DATA
  6
CONTINUOUS
 62
     7
 10
-267.0094139960521
 20
-141.54327223161499
 30
0.0
  0
VERTEX
  5
E8E
  8
DATA
  6
CONTINUOUS
 62
     7
 10
-267.46115246911057
 20
-141.6059910519869
 30
0.0
  0
VERTEX
  5
E8F
  8
DATA
  6
CONTINUOUS
 62
     7
 10
-267.91389883139271
 20
-141.66658381065119
 30
0.0
  0
VERTEX
  5
E90
  8
DATA
  6
CONTINUOUS
 62
     7
 10
-268.36765308289807
 20
-141.7250505076081
 30
0.0
  0
VERTEX
  5
E91
  8
DATA
  6
CONTINUOUS
 62
     7
 10
-268.82241522362688
 20
-141.7813911428575
 30
0.0
  0
VERTEX
  5
E92
  8
DATA
  6
CONTINUOUS
 62
     7
 10
-269.27818525357918
 20
-141.8356057163993
 30
0.0
  0
VERTEX
  5
E93
  8
DATA
  6
CONTINUOUS
 62
     7
 10
-269.73496317275487
 20
-141.88769422823361
 30
0.0
  0
VERTEX
  5
E94
  8
DATA
  6
CONTINUOUS
 62
     7
 10
-270.19274898115412
 20
-141.9376566783603
 30
0.0
  0
VERTEX
  5
E95
  8
DATA
  6
CONTINUOUS
 62
     7
 10
-270.65154267877659
 20
-141.98549306677961
 30
0.0
  0
VERTEX
  5
E96
  8
DATA
  6
CONTINUOUS
 62
     7
 10
-271.11134426562262
 20
-142.03120339349141
 30
0.0
  0
VERTEX
  5
E97
  8
DATA
  6
CONTINUOUS
 62
     7
 10
-271.57215374169209
 20
-142.0747876584955
 30
0.0
  0
VERTEX
  5
E98
  8
DATA
  6
CONTINUOUS
 62
     7
 10
-272.03397110698478
 20
-142.11624586179221
 30
0.0
  0
VERTEX
  5
E99
  8
DATA
  6
CONTINUOUS
 62
     7
 10
-272.49679636150108
 20
-142.15557800338141
 30
0.0
  0
VERTEX
  5
E9A
  8
DATA
  6
CONTINUOUS
 62
     7
 10
-272.96062950524089
 20
-142.19278408326301
 30
0.0
  0
VERTEX
  5
E9B
  8
DATA
  6
CONTINUOUS
 62
     7
 10
-273.42547053820391
 20
-142.22786410143709
 30
0.0
  0
VERTEX
  5
E9C
  8
DATA
  6
CONTINUOUS
 62
     7
 10
-273.89131946039038
 20
-142.26081805790369
 30
0.0
  0
VERTEX
  5
E9D
  8
DATA
  6
CONTINUOUS
 62
     7
 10
-274.35817627180052
 20
-142.2916459526628
 30
0.0
  0
VERTEX
  5
E9E
  8
DATA
  6
CONTINUOUS
 62
     7
 10
-274.82604097243399
 20
-142.3203477857144
 30
0.0
  0
VERTEX
  5
E9F
  8
DATA
  6
CONTINUOUS
 62
     7
 10
-275.29491356229079
 20
-142.3469235570584
 30
0.0
  0
VERTEX
  5
EA0
  8
DATA
  6
CONTINUOUS
 62
     7
 10
-275.76479404137098
 20
-142.371373266695
 30
0.0
  0
VERTEX
  5
EA1
  8
DATA
  6
CONTINUOUS
 62
     7
 10
-276.23568240967472
 20
-142.3936969146238
 30
0.0
  0
VERTEX
  5
EA2
  8
DATA
  6
CONTINUOUS
 62
     7
 10
-276.70757866720169
 20
-142.4138945008454
 30
0.0
  0
VERTEX
  5
EA3
  8
DATA
  6
CONTINUOUS
 62
     7
 10
-277.18048281395232
 20
-142.43196602535929
 30
0.0
  0
VERTEX
  5
EA4
  8
DATA
  6
CONTINUOUS
 62
     7
 10
-277.65439484992618
 20
-142.44791148816569
 30
0.0
  0
VERTEX
  5
EA5
  8
DATA
  6
CONTINUOUS
 62
     7
 10
-278.12931477512359
 20
-142.46173088926449
 30
0.0
  0
VERTEX
  5
EA6
  8
DATA
  6
CONTINUOUS
 62
     7
 10
-278.60524258954462
 20
-142.47342422865589
 30
0.0
  0
VERTEX
  5
EA7
  8
DATA
  6
CONTINUOUS
 62
     7
 10
-279.08217829318869
 20
-142.4829915063398
 30
0.0
  0
VERTEX
  5
EA8
  8
DATA
  6
CONTINUOUS
 62
     7
 10
-279.56012188605638
 20
-142.49043272231609
 30
0.0
  0
VERTEX
  5
EA9
  8
DATA
  6
CONTINUOUS
 62
     7
 10
-280.03907336814763
 20
-142.49574787658489
 30
0.0
  0
VERTEX
  5
EAA
  8
DATA
  6
CONTINUOUS
 62
     7
 10
-280.51903273946209
 20
-142.4989369691462
 30
0.0
  0
VERTEX
  5
EAB
  8
DATA
  6
CONTINUOUS
 62
     7
 10
-281.0
 20
-142.5
 30
0.0
  0
VERTEX
  5
EAC
  8
DATA
  6
CONTINUOUS
 62
     7
 10
-281.48096726053802
 20
-142.4989369691462
 30
0.0
  0
VERTEX
  5
EAD
  8
DATA
  6
CONTINUOUS
 62
     7
 10
-281.96092663185249
 20
-142.49574787658489
 30
0.0
  0
VERTEX
  5
EAE
  8
DATA
  6
CONTINUOUS
 62
     7
 10
-282.43987811394362
 20
-142.49043272231609
 30
0.0
  0
VERTEX
  5
EAF
  8
DATA
  6
CONTINUOUS
 62
     7
 10
-282.91782170681131
 20
-142.4829915063398
 30
0.0
  0
VERTEX
  5
EB0
  8
DATA
  6
CONTINUOUS
 62
     7
 10
-283.39475741045538
 20
-142.47342422865589
 30
0.0
  0
VERTEX
  5
EB1
  8
DATA
  6
CONTINUOUS
 62
     7
 10
-283.87068522487641
 20
-142.46173088926449
 30
0.0
  0
VERTEX
  5
EB2
  8
DATA
  6
CONTINUOUS
 62
     7
 10
-284.34560515007382
 20
-142.44791148816569
 30
0.0
  0
VERTEX
  5
EB3
  8
DATA
  6
CONTINUOUS
 62
     7
 10
-284.81951718604768
 20
-142.43196602535929
 30
0.0
  0
VERTEX
  5
EB4
  8
DATA
  6
CONTINUOUS
 62
     7
 10
-285.2924213327982
 20
-142.4138945008454
 30
0.0
  0
VERTEX
  5
EB5
  8
DATA
  6
CONTINUOUS
 62
     7
 10
-285.76431759032528
 20
-142.3936969146238
 30
0.0
  0
VERTEX
  5
EB6
  8
DATA
  6
CONTINUOUS
 62
     7
 10
-286.23520595862891
 20
-142.371373266695
 30
0.0
  0
VERTEX
  5
EB7
  8
DATA
  6
CONTINUOUS
 62
     7
 10
-286.70508643770921
 20
-142.3469235570584
 30
0.0
  0
VERTEX
  5
EB8
  8
DATA
  6
CONTINUOUS
 62
     7
 10
-287.17395902756613
 20
-142.3203477857144
 30
0.0
  0
VERTEX
  5
EB9
  8
DATA
  6
CONTINUOUS
 62
     7
 10
-287.6418237281996
 20
-142.2916459526628
 30
0.0
  0
VERTEX
  5
EBA
  8
DATA
  6
CONTINUOUS
 62
     7
 10
-288.10868053960962
 20
-142.26081805790369
 30
0.0
  0
VERTEX
  5
EBB
  8
DATA
  6
CONTINUOUS
 62
     7
 10
-288.57452946179609
 20
-142.22786410143709
 30
0.0
  0
VERTEX
  5
EBC
  8
DATA
  6
CONTINUOUS
 62
     7
 10
-289.03937049475923
 20
-142.19278408326301
 30
0.0
  0
VERTEX
  5
EBD
  8
DATA
  6
CONTINUOUS
 62
     7
 10
-289.50320363849892
 20
-142.15557800338141
 30
0.0
  0
VERTEX
  5
EBE
  8
DATA
  6
CONTINUOUS
 62
     7
 10
-289.96602889301522
 20
-142.11624586179221
 30
0.0
  0
VERTEX
  5
EBF
  8
DATA
  6
CONTINUOUS
 62
     7
 10
-290.42784625830791
 20
-142.0747876584955
 30
0.0
  0
VERTEX
  5
EC0
  8
DATA
  6
CONTINUOUS
 62
     7
 10
-290.88865573437749
 20
-142.03120339349141
 30
0.0
  0
VERTEX
  5
EC1
  8
DATA
  6
CONTINUOUS
 62
     7
 10
-291.34845732122329
 20
-141.98549306677961
 30
0.0
  0
VERTEX
  5
EC2
  8
DATA
  6
CONTINUOUS
 62
     7
 10
-291.80725101884588
 20
-141.9376566783603
 30
0.0
  0
VERTEX
  5
EC3
  8
DATA
  6
CONTINUOUS
 62
     7
 10
-292.26503682724518
 20
-141.88769422823361
 30
0.0
  0
VERTEX
  5
EC4
  8
DATA
  6
CONTINUOUS
 62
     7
 10
-292.72181474642082
 20
-141.8356057163993
 30
0.0
  0
VERTEX
  5
EC5
  8
DATA
  6
CONTINUOUS
 62
     7
 10
-293.17758477637312
 20
-141.7813911428575
 30
0.0
  0
VERTEX
  5
EC6
  8
DATA
  6
CONTINUOUS
 62
     7
 10
-293.63234691710193
 20
-141.7250505076081
 30
0.0
  0
VERTEX
  5
EC7
  8
DATA
  6
CONTINUOUS
 62
     7
 10
-294.08610116860729
 20
-141.66658381065119
 30
0.0
  0
VERTEX
  5
EC8
  8
DATA
  6
CONTINUOUS
 62
     7
 10
-294.53884753088943
 20
-141.6059910519869
 30
0.0
  0
VERTEX
  5
EC9
  8
DATA
  6
CONTINUOUS
 62
     7
 10
-294.9905860039479
 20
-141.54327223161499
 30
0.0
  0
VERTEX
  5
ECA
  8
DATA
  6
CONTINUOUS
 62
     7
 10
-295.44131658778298
 20
-141.47842734953551
 30
0.0
  0
VERTEX
  5
ECB
  8
DATA
  6
CONTINUOUS
 62
     7
 10
-295.89103928239479
 20
-141.41145640574859
 30
0.0
  0
VERTEX
  5
ECC
  8
DATA
  6
CONTINUOUS
 62
     7
 10
-296.33975408778309
 20
-141.34235940025411
 30
0.0
  0
VERTEX
  5
ECD
  8
DATA
  6
CONTINUOUS
 62
     7
 10
-296.7874610039479
 20
-141.27113633305211
 30
0.0
  0
VERTEX
  5
ECE
  8
DATA
  6
CONTINUOUS
 62
     7
 10
-297.23416003088943
 20
-141.1977872041426
 30
0.0
  0
VERTEX
  5
ECF
  8
DATA
  6
CONTINUOUS
 62
     7
 10
-297.67985116860729
 20
-141.12231201352549
 30
0.0
  0
VERTEX
  5
ED0
  8
DATA
  6
CONTINUOUS
 62
     7
 10
-298.12453441710193
 20
-141.04471076120089
 30
0.0
  0
VERTEX
  5
ED1
  8
DATA
  6
CONTINUOUS
 62
     7
 10
-298.56820977637312
 20
-140.96498344716881
 30
0.0
  0
VERTEX
  5
ED2
  8
DATA
  6
CONTINUOUS
 62
     7
 10
-299.01087724642082
 20
-140.88313007142921
 30
0.0
  0
VERTEX
  5
ED3
  8
DATA
  6
CONTINUOUS
 62
     7
 10
-299.45253682724518
 20
-140.79915063398209
 30
0.0
  0
VERTEX
  5
ED4
  8
DATA
  6
CONTINUOUS
 62
     7
 10
-299.89318851884588
 20
-140.7130451348275
 30
0.0
  0
VERTEX
  5
ED5
  8
DATA
  6
CONTINUOUS
 62
     7
 10
-300.33283232122341
 20
-140.6248135739653
 30
0.0
  0
VERTEX
  5
ED6
  8
DATA
  6
CONTINUOUS
 62
     7
 10
-300.77146823437738
 20
-140.53445595139561
 30
0.0
  0
VERTEX
  5
ED7
  8
DATA
  6
CONTINUOUS
 62
     7
 10
-301.20909625830802
 20
-140.44197226711839
 30
0.0
  0
VERTEX
  5
ED8
  8
DATA
  6
CONTINUOUS
 62
     7
 10
-301.64571639301522
 20
-140.34736252113359
 30
0.0
  0
VERTEX
  5
ED9
  8
DATA
  6
CONTINUOUS
 62
     7
 10
-302.08132863849892
 20
-140.25062671344131
 30
0.0
  0
VERTEX
  5
EDA
  8
DATA
  6
CONTINUOUS
 62
     7
 10
-302.51593299475923
 20
-140.15176484404151
 30
0.0
  0
VERTEX
  5
EDB
  8
DATA
  6
CONTINUOUS
 62
     7
 10
-302.94952946179609
 20
-140.05077691293431
 30
0.0
  0
VERTEX
  5
EDC
  8
DATA
  6
CONTINUOUS
 62
     7
 10
-303.38211803960962
 20
-139.9476629201194
 30
0.0
  0
VERTEX
  5
EDD
  8
DATA
  6
CONTINUOUS
 62
     7
 10
-303.8136987281996
 20
-139.84242286559709
 30
0.0
  0
VERTEX
  5
EDE
  8
DATA
  6
CONTINUOUS
 62
     7
 10
-304.24427152756613
 20
-139.7350567493672
 30
0.0
  0
VERTEX
  5
EDF
  8
DATA
  6
CONTINUOUS
 62
     7
 10
-304.67383643770921
 20
-139.62556457142981
 30
0.0
  0
VERTEX
  5
EE0
  8
DATA
  6
CONTINUOUS
 62
     7
 10
-305.10239345862891
 20
-139.51394633178481
 30
0.0
  0
VERTEX
  5
EE1
  8
DATA
  6
CONTINUOUS
 62
     7
 10
-305.52994259032528
 20
-139.4002020304325
 30
0.0
  0
VERTEX
  5
EE2
  8
DATA
  6
CONTINUOUS
 62
     7
 10
-305.9564838327982
 20
-139.2843316673725
 30
0.0
  0
VERTEX
  5
EE3
  8
DATA
  6
CONTINUOUS
 62
     7
 10
-306.38201718604779
 20
-139.16633524260499
 30
0.0
  0
VERTEX
  5
EE4
  8
DATA
  6
CONTINUOUS
 62
     7
 10
-306.80654265007382
 20
-139.04621275612999
 30
0.0
  0
VERTEX
  5
EE5
  8
DATA
  6
CONTINUOUS
 62
     7
 10
-307.23006022487641
 20
-138.92396420794739
 30
0.0
  0
VERTEX
  5
EE6
  8
DATA
  6
CONTINUOUS
 62
     7
 10
-307.65256991045538
 20
-138.79958959805731
 30
0.0
  0
VERTEX
  5
EE7
  8
DATA
  6
CONTINUOUS
 62
     7
 10
-308.0740717068112
 20
-138.6730889264598
 30
0.0
  0
VERTEX
  5
EE8
  8
DATA
  6
CONTINUOUS
 62
     7
 10
-308.49456561394362
 20
-138.54446219315469
 30
0.0
  0
VERTEX
  5
EE9
  8
DATA
  6
CONTINUOUS
 62
     7
 10
-308.91405163185249
 20
-138.413709398142
 30
0.0
  0
VERTEX
  5
EEA
  8
DATA
  6
CONTINUOUS
 62
     7
 10
-309.33252976053791
 20
-138.28083054142181
 30
0.0
  0
VERTEX
  5
EEB
  8
DATA
  6
CONTINUOUS
 62
     7
 10
-309.75
 20
-138.14582562299429
 30
0.0
  0
VERTEX
  5
EEC
  8
DATA
  6
CONTINUOUS
 62
     7
 10
-310.16558949256699
 20
-138.00897948111779
 30
0.0
  0
VERTEX
  5
EED
  8
DATA
  6
CONTINUOUS
 62
     7
 10
-310.57842538056713
 20
-137.8705769540515
 30
0.0
  0
VERTEX
  5
EEE
  8
DATA
  6
CONTINUOUS
 62
     7
 10
-310.98850766400028
 20
-137.73061804179531
 30
0.0
  0
VERTEX
  5
EEF
  8
DATA
  6
CONTINUOUS
 62
     7
 10
-311.39583634286691
 20
-137.58910274434911
 30
0.0
  0
VERTEX
  5
EF0
  8
DATA
  6
CONTINUOUS
 62
     7
 10
-311.80041141716652
 20
-137.446031061713
 30
0.0
  0
VERTEX
  5
EF1
  8
DATA
  6
CONTINUOUS
 62
     7
 10
-312.20223288689948
 20
-137.30140299388691
 30
0.0
  0
VERTEX
  5
EF2
  8
DATA
  6
CONTINUOUS
 62
     7
 10
-312.60130075206553
 20
-137.15521854087089
 30
0.0
  0
VERTEX
  5
EF3
  8
DATA
  6
CONTINUOUS
 62
     7
 10
-312.99761501266482
 20
-137.007477702665
 30
0.0
  0
VERTEX
  5
EF4
  8
DATA
  6
CONTINUOUS
 62
     7
 10
-313.3911756686972
 20
-136.85818047926909
 30
0.0
  0
VERTEX
  5
EF5
  8
DATA
  6
CONTINUOUS
 62
     7
 10
-313.781982720163
 20
-136.7073268706834
 30
0.0
  0
VERTEX
  5
EF6
  8
DATA
  6
CONTINUOUS
 62
     7
 10
-314.17003616706188
 20
-136.55491687690761
 30
0.0
  0
VERTEX
  5
EF7
  8
DATA
  6
CONTINUOUS
 62
     7
 10
-314.5553360093939
 20
-136.40095049794189
 30
0.0
  0
VERTEX
  5
EF8
  8
DATA
  6
CONTINUOUS
 62
     7
 10
-314.93788224715922
 20
-136.2454277337863
 30
0.0
  0
VERTEX
  5
EF9
  8
DATA
  6
CONTINUOUS
 62
     7
 10
-315.31767488035769
 20
-136.08834858444081
 30
0.0
  0
VERTEX
  5
EFA
  8
DATA
  6
CONTINUOUS
 62
     7
 10
-315.69471390898929
 20
-135.92971304990539
 30
0.0
  0
VERTEX
  5
EFB
  8
DATA
  6
CONTINUOUS
 62
     7
 10
-316.06899933305431
 20
-135.76952113018001
 30
0.0
  0
VERTEX
  5
EFC
  8
DATA
  6
CONTINUOUS
 62
     7
 10
-316.4405311525523
 20
-135.6077728252647
 30
0.0
  0
VERTEX
  5
EFD
  8
DATA
  6
CONTINUOUS
 62
     7
 10
-316.80930936748371
 20
-135.4444681351595
 30
0.0
  0
VERTEX
  5
EFE
  8
DATA
  6
CONTINUOUS
 62
     7
 10
-317.17533397784803
 20
-135.27960705986419
 30
0.0
  0
VERTEX
  5
EFF
  8
DATA
  6
CONTINUOUS
 62
     7
 10
-317.53860498364571
 20
-135.1131895993791
 30
0.0
  0
VERTEX
  5
F00
  8
DATA
  6
CONTINUOUS
 62
     7
 10
-317.89912238487648
 20
-134.9452157537041
 30
0.0
  0
VERTEX
  5
F01
  8
DATA
  6
CONTINUOUS
 62
     7
 10
-318.25688618154049
 20
-134.7756855228391
 30
0.0
  0
VERTEX
  5
F02
  8
DATA
  6
CONTINUOUS
 62
     7
 10
-318.61189637363771
 20
-134.60459890678419
 30
0.0
  0
VERTEX
  5
F03
  8
DATA
  6
CONTINUOUS
 62
     7
 10
-318.96415296116822
 20
-134.4319559055393
 30
0.0
  0
VERTEX
  5
F04
  8
DATA
  6
CONTINUOUS
 62
     7
 10
-319.31365594413182
 20
-134.2577565191045
 30
0.0
  0
VERTEX
  5
F05
  8
DATA
  6
CONTINUOUS
 62
     7
 10
-319.66040532252862
 20
-134.08200074747981
 30
0.0
  0
VERTEX
  5
F06
  8
DATA
  6
CONTINUOUS
 62
     7
 10
-320.00440109635872
 20
-133.9046885906651
 30
0.0
  0
VERTEX
  5
F07
  8
DATA
  6
CONTINUOUS
 62
     7
 10
-320.34564326562179
 20
-133.72582004866061
 30
0.0
  0
VERTEX
  5
F08
  8
DATA
  6
CONTINUOUS
 62
     7
 10
-320.68413183031822
 20
-133.54539512146599
 30
0.0
  0
VERTEX
  5
F09
  8
DATA
  6
CONTINUOUS
 62
     7
 10
-321.01986679044779
 20
-133.36341380908161
 30
0.0
  0
VERTEX
  5
F0A
  8
DATA
  6
CONTINUOUS
 62
     7
 10
-321.3528481460105
 20
-133.17987611150721
 30
0.0
  0
VERTEX
  5
F0B
  8
DATA
  6
CONTINUOUS
 62
     7
 10
-321.68307589700652
 20
-132.9947820287428
 30
0.0
  0
VERTEX
  5
F0C
  8
DATA
  6
CONTINUOUS
 62
     7
 10
-322.01055004343573
 20
-132.80813156078861
 30
0.0
  0
VERTEX
  5
F0D
  8
DATA
  6
CONTINUOUS
 62
     7
 10
-322.33527058529808
 20
-132.6199247076444
 30
0.0
  0
VERTEX
  5
F0E
  8
DATA
  6
CONTINUOUS
 62
     7
 10
-322.65723752259362
 20
-132.43016146931029
 30
0.0
  0
VERTEX
  5
F0F
  8
DATA
  6
CONTINUOUS
 62
     7
 10
-322.97645085532241
 20
-132.23884184578631
 30
0.0
  0
VERTEX
  5
F10
  8
DATA
  6
CONTINUOUS
 62
     7
 10
-323.29291058348429
 20
-132.04596583707229
 30
0.0
  0
VERTEX
  5
F11
  8
DATA
  6
CONTINUOUS
 62
     7
 10
-323.60661670707952
 20
-131.85153344316831
 30
0.0
  0
VERTEX
  5
F12
  8
DATA
  6
CONTINUOUS
 62
     7
 10
-323.9175692261079
 20
-131.65554466407451
 30
0.0
  0
VERTEX
  5
F13
  8
DATA
  6
CONTINUOUS
 62
     7
 10
-324.22576814056941
 20
-131.4579994997907
 30
0.0
  0
VERTEX
  5
F14
  8
DATA
  6
CONTINUOUS
 62
     7
 10
-324.53121345046401
 20
-131.25889795031699
 30
0.0
  0
VERTEX
  5
F15
  8
DATA
  6
CONTINUOUS
 62
     7
 10
-324.83390515579202
 20
-131.05824001565341
 30
0.0
  0
VERTEX
  5
F16
  8
DATA
  6
CONTINUOUS
 62
     7
 10
-325.13384325655318
 20
-130.85602569579979
 30
0.0
  0
VERTEX
  5
F17
  8
DATA
  6
CONTINUOUS
 62
     7
 10
-325.43102775274758
 20
-130.65225499075621
 30
0.0
  0
VERTEX
  5
F18
  8
DATA
  6
CONTINUOUS
 62
     7
 10
-325.72545864437501
 20
-130.44692790052281
 30
0.0
  0
VERTEX
  5
F19
  8
DATA
  6
CONTINUOUS
 62
     7
 10
-326.01713593143569
 20
-130.2400444250994
 30
0.0
  0
VERTEX
  5
F1A
  8
DATA
  6
CONTINUOUS
 62
     7
 10
-326.30605961392968
 20
-130.03160456448609
 30
0.0
  0
VERTEX
  5
F1B
  8
DATA
  6
CONTINUOUS
 62
     7
 10
-326.5922296918568
 20
-129.82160831868279
 30
0.0
  0
VERTEX
  5
F1C
  8
DATA
  6
CONTINUOUS
 62
     7
 10
-326.87564616521712
 20
-129.61005568768971
 30
0.0
  0
VERTEX
  5
F1D
  8
DATA
  6
CONTINUOUS
 62
     7
 10
-327.15630903401058
 20
-129.3969466715065
 30
0.0
  0
VERTEX
  5
F1E
  8
DATA
  6
CONTINUOUS
 62
     7
 10
-327.43421829823728
 20
-129.1822812701335
 30
0.0
  0
VERTEX
  5
F1F
  8
DATA
  6
CONTINUOUS
 62
     7
 10
-327.70937395789718
 20
-128.9660594835706
 30
0.0
  0
VERTEX
  5
F20
  8
DATA
  6
CONTINUOUS
 62
     7
 10
-327.98177601299039
 20
-128.74828131181761
 30
0.0
  0
VERTEX
  5
F21
  8
DATA
  6
CONTINUOUS
 62
     7
 10
-328.25142446351663
 20
-128.5289467548748
 30
0.0
  0
VERTEX
  5
F22
  8
DATA
  6
CONTINUOUS
 62
     7
 10
-328.51831930947611
 20
-128.308055812742
 30
0.0
  0
VERTEX
  5
F23
  8
DATA
  6
CONTINUOUS
 62
     7
 10
-328.78246055086879
 20
-128.0856084854193
 30
0.0
  0
VERTEX
  5
F24
  8
DATA
  6
CONTINUOUS
 62
     7
 10
-329.04384818769461
 20
-127.8616047729066
 30
0.0
  0
VERTEX
  5
F25
  8
DATA
  6
CONTINUOUS
 62
     7
 10
-329.30248221995379
 20
-127.636044675204
 30
0.0
  0
VERTEX
  5
F26
  8
DATA
  6
CONTINUOUS
 62
     7
 10
-329.55836264764599
 20
-127.40892819231151
 30
0.0
  0
VERTEX
  5
F27
  8
DATA
  6
CONTINUOUS
 62
     7
 10
-329.81148947077151
 20
-127.18025532422909
 30
0.0
  0
VERTEX
  5
F28
  8
DATA
  6
CONTINUOUS
 62
     7
 10
-330.06186268933021
 20
-126.9500260709567
 30
0.0
  0
VERTEX
  5
F29
  8
DATA
  6
CONTINUOUS
 62
     7
 10
-330.30948230332189
 20
-126.7182404324944
 30
0.0
  0
VERTEX
  5
F2A
  8
DATA
  6
CONTINUOUS
 62
     7
 10
-330.55434831274692
 20
-126.4848984088422
 30
0.0
  0
VERTEX
  5
F2B
  8
DATA
  6
CONTINUOUS
 62
     7
 10
-330.79646071760521
 20
-126.25
 30
0.0
  0
VERTEX
  5
F2C
  8
DATA
  6
CONTINUOUS
 62
     7
 10
-331.03531557328489
 20
-126.014038560304
 30
0.0
  0
VERTEX
  5
F2D
  8
DATA
  6
CONTINUOUS
 62
     7
 10
-331.27040893517437
 20
-125.7775074440905
 30
0.0
  0
VERTEX
  5
F2E
  8
DATA
  6
CONTINUOUS
 62
     7
 10
-331.50174080327361
 20
-125.5404066513594
 30
0.0
  0
VERTEX
  5
F2F
  8
DATA
  6
CONTINUOUS
 62
     7
 10
-331.7293111775827
 20
-125.30273618211071
 30
0.0
  0
VERTEX
  5
F30
  8
DATA
  6
CONTINUOUS
 62
     7
 10
-331.9531200581016
 20
-125.06449603634439
 30
0.0
  0
VERTEX
  5
F31
  8
DATA
  6
CONTINUOUS
 62
     7
 10
-332.17316744483003
 20
-124.8256862140605
 30
0.0
  0
VERTEX
  5
F32
  8
DATA
  6
CONTINUOUS
 62
     7
 10
-332.38945333776837
 20
-124.586306715259
 30
0.0
  0
VERTEX
  5
F33
  8
DATA
  6
CONTINUOUS
 62
     7
 10
-332.60197773691652
 20
-124.34635753994
 30
0.0
  0
VERTEX
  5
F34
  8
DATA
  6
CONTINUOUS
 62
     7
 10
-332.81074064227431
 20
-124.1058386881033
 30
0.0
  0
VERTEX
  5
F35
  8
DATA
  6
CONTINUOUS
 62
     7
 10
-333.0157420538419
 20
-123.86475015974909
 30
0.0
  0
VERTEX
  5
F36
  8
DATA
  6
CONTINUOUS
 62
     7
 10
-333.2169819716193
 20
-123.6230919548773
 30
0.0
  0
VERTEX
  5
F37
  8
DATA
  6
CONTINUOUS
 62
     7
 10
-333.41446039560651
 20
-123.3808640734878
 30
0.0
  0
VERTEX
  5
F38
  8
DATA
  6
CONTINUOUS
 62
     7
 10
-333.60817732580352
 20
-123.1380665155808
 30
0.0
  0
VERTEX
  5
F39
  8
DATA
  6
CONTINUOUS
 62
     7
 10
-333.79813276221017
 20
-122.89469928115621
 30
0.0
  0
VERTEX
  5
F3A
  8
DATA
  6
CONTINUOUS
 62
     7
 10
-333.98432670482669
 20
-122.6507623702141
 30
0.0
  0
VERTEX
  5
F3B
  8
DATA
  6
CONTINUOUS
 62
     7
 10
-334.166759153653
 20
-122.4062557827543
 30
0.0
  0
VERTEX
  5
F3C
  8
DATA
  6
CONTINUOUS
 62
     7
 10
-334.3454301086889
 20
-122.161179518777
 30
0.0
  0
VERTEX
  5
F3D
  8
DATA
  6
CONTINUOUS
 62
     7
 10
-334.52033956993478
 20
-121.91553357828199
 30
0.0
  0
VERTEX
  5
F3E
  8
DATA
  6
CONTINUOUS
 62
     7
 10
-334.69148753739017
 20
-121.6693179612695
 30
0.0
  0
VERTEX
  5
F3F
  8
DATA
  6
CONTINUOUS
 62
     7
 10
-334.85887401105549
 20
-121.4225326677393
 30
0.0
  0
VERTEX
  5
F40
  8
DATA
  6
CONTINUOUS
 62
     7
 10
-335.02249899093061
 20
-121.17517769769159
 30
0.0
  0
VERTEX
  5
F41
  8
DATA
  6
CONTINUOUS
 62
     7
 10
-335.18236247701537
 20
-120.9272530511263
 30
0.0
  0
VERTEX
  5
F42
  8
DATA
  6
CONTINUOUS
 62
     7
 10
-335.33846446931011
 20
-120.67875872804331
 30
0.0
  0
VERTEX
  5
F43
  8
DATA
  6
CONTINUOUS
 62
     7
 10
-335.49080496781448
 20
-120.4296947284429
 30
0.0
  0
VERTEX
  5
F44
  8
DATA
  6
CONTINUOUS
 62
     7
 10
-335.63938397252861
 20
-120.1800610523248
 30
0.0
  0
VERTEX
  5
F45
  8
DATA
  6
CONTINUOUS
 62
     7
 10
-335.78420148345248
 20
-119.92985769968909
 30
0.0
  0
VERTEX
  5
F46
  8
DATA
  6
CONTINUOUS
 62
     7
 10
-335.92525750058621
 20
-119.6790846705358
 30
0.0
  0
VERTEX
  5
F47
  8
DATA
  6
CONTINUOUS
 62
     7
 10
-336.06255202392981
 20
-119.42774196486501
 30
0.0
  0
VERTEX
  5
F48
  8
DATA
  6
CONTINUOUS
 62
     7
 10
-336.19608505348299
 20
-119.1758295826765
 30
0.0
  0
VERTEX
  5
F49
  8
DATA
  6
CONTINUOUS
 62
     7
 10
-336.32585658924609
 20
-118.92334752397051
 30
0.0
  0
VERTEX
  5
F4A
  8
DATA
  6
CONTINUOUS
 62
     7
 10
-336.45186663121882
 20
-118.6702957887469
 30
0.0
  0
VERTEX
  5
F4B
  8
DATA
  6
CONTINUOUS
 62
     7
 10
-336.5741151794013
 20
-118.41667437700571
 30
0.0
  0
VERTEX
  5
F4C
  8
DATA
  6
CONTINUOUS
 62
     7
 10
-336.69260223379371
 20
-118.1624832887469
 30
0.0
  0
VERTEX
  5
F4D
  8
DATA
  6
CONTINUOUS
 62
     7
 10
-336.80732779439569
 20
-117.90772252397051
 30
0.0
  0
VERTEX
  5
F4E
  8
DATA
  6
CONTINUOUS
 62
     7
 10
-336.91829186120748
 20
-117.6523920826765
 30
0.0
  0
VERTEX
  5
F4F
  8
DATA
  6
CONTINUOUS
 62
     7
 10
-337.02549443422919
 20
-117.39649196486501
 30
0.0
  0
VERTEX
  5
F50
  8
DATA
  6
CONTINUOUS
 62
     7
 10
-337.12893551346048
 20
-117.1400221705358
 30
0.0
  0
VERTEX
  5
F51
  8
DATA
  6
CONTINUOUS
 62
     7
 10
-337.22861509890163
 20
-116.88298269968909
 30
0.0
  0
VERTEX
  5
F52
  8
DATA
  6
CONTINUOUS
 62
     7
 10
-337.32453319055247
 20
-116.6253735523248
 30
0.0
  0
VERTEX
  5
F53
  8
DATA
  6
CONTINUOUS
 62
     7
 10
-337.41668978841329
 20
-116.3671947284429
 30
0.0
  0
VERTEX
  5
F54
  8
DATA
  6
CONTINUOUS
 62
     7
 10
-337.50508489248369
 20
-116.10844622804331
 30
0.0
  0
VERTEX
  5
F55
  8
DATA
  6
CONTINUOUS
 62
     7
 10
-337.5897185027639
 20
-115.8491280511263
 30
0.0
  0
VERTEX
  5
F56
  8
DATA
  6
CONTINUOUS
 62
     7
 10
-337.6705906192538
 20
-115.58924019769159
 30
0.0
  0
VERTEX
  5
F57
  8
DATA
  6
CONTINUOUS
 62
     7
 10
-337.74770124195362
 20
-115.3287826677393
 30
0.0
  0
VERTEX
  5
F58
  8
DATA
  6
CONTINUOUS
 62
     7
 10
-337.82105037086319
 20
-115.0677554612694
 30
0.0
  0
VERTEX
  5
F59
  8
DATA
  6
CONTINUOUS
 62
     7
 10
-337.89063800598228
 20
-114.80615857828199
 30
0.0
  0
VERTEX
  5
F5A
  8
DATA
  6
CONTINUOUS
 62
     7
 10
-337.95646414731152
 20
-114.5439920187769
 30
0.0
  0
VERTEX
  5
F5B
  8
DATA
  6
CONTINUOUS
 62
     7
 10
-338.0185287948504
 20
-114.2812557827543
 30
0.0
  0
VERTEX
  5
F5C
  8
DATA
  6
CONTINUOUS
 62
     7
 10
-338.07683194859902
 20
-114.017949870214
 30
0.0
  0
VERTEX
  5
F5D
  8
DATA
  6
CONTINUOUS
 62
     7
 10
-338.13137360855723
 20
-113.75407428115621
 30
0.0
  0
VERTEX
  5
F5E
  8
DATA
  6
CONTINUOUS
 62
     7
 10
-338.18215377472541
 20
-113.4896290155808
 30
0.0
  0
VERTEX
  5
F5F
  8
DATA
  6
CONTINUOUS
 62
     7
 10
-338.22917244710328
 20
-113.2246140734878
 30
0.0
  0
VERTEX
  5
F60
  8
DATA
  6
CONTINUOUS
 62
     7
 10
-338.27242962569102
 20
-112.9590294548773
 30
0.0
  0
VERTEX
  5
F61
  8
DATA
  6
CONTINUOUS
 62
     7
 10
-338.31192531048828
 20
-112.69287515974909
 30
0.0
  0
VERTEX
  5
F62
  8
DATA
  6
CONTINUOUS
 62
     7
 10
-338.34765950149563
 20
-112.4261511881033
 30
0.0
  0
VERTEX
  5
F63
  8
DATA
  6
CONTINUOUS
 62
     7
 10
-338.37963219871261
 20
-112.15885753994
 30
0.0
  0
VERTEX
  5
F64
  8
DATA
  6
CONTINUOUS
 62
     7
 10
-338.40784340213918
 20
-111.890994215259
 30
0.0
  0
VERTEX
  5
F65
  8
DATA
  6
CONTINUOUS
 62
     7
 10
-338.43229311177578
 20
-111.6225612140605
 30
0.0
  0
VERTEX
  5
F66
  8
DATA
  6
CONTINUOUS
 62
     7
 10
-338.45298132762213
 20
-111.35355853634439
 30
0.0
  0
VERTEX
  5
F67
  8
DATA
  6
CONTINUOUS
 62
     7
 10
-338.46990804967811
 20
-111.08398618211071
 30
0.0
  0
VERTEX
  5
F68
  8
DATA
  6
CONTINUOUS
 62
     7
 10
-338.48307327794402
 20
-110.8138441513594
 30
0.0
  0
VERTEX
  5
F69
  8
DATA
  6
CONTINUOUS
 62
     7
 10
-338.4924770124195
 20
-110.5431324440905
 30
0.0
  0
VERTEX
  5
F6A
  8
DATA
  6
CONTINUOUS
 62
     7
 10
-338.4981192531049
 20
-110.2718510603041
 30
0.0
  0
VERTEX
  5
F6B
  8
DATA
  6
CONTINUOUS
 62
     7
 10
-338.5
 20
-110.0
 30
0.0
  0
VERTEX
  5
F6C
  8
DATA
  6
CONTINUOUS
 62
     7
 10
-338.4981192531049
 20
-109.7281489396959
 30
0.0
  0
VERTEX
  5
F6D
  8
DATA
  6
CONTINUOUS
 62
     7
 10
-338.4924770124195
 20
-109.4568675559095
 30
0.0
  0
VERTEX
  5
F6E
  8
DATA
  6
CONTINUOUS
 62
     7
 10
-338.48307327794402
 20
-109.1861558486405
 30
0.0
  0
VERTEX
  5
F6F
  8
DATA
  6
CONTINUOUS
 62
     7
 10
-338.46990804967811
 20
-108.91601381788929
 30
0.0
  0
VERTEX
  5
F70
  8
DATA
  6
CONTINUOUS
 62
     7
 10
-338.45298132762213
 20
-108.64644146365551
 30
0.0
  0
VERTEX
  5
F71
  8
DATA
  6
CONTINUOUS
 62
     7
 10
-338.43229311177578
 20
-108.3774387859394
 30
0.0
  0
VERTEX
  5
F72
  8
DATA
  6
CONTINUOUS
 62
     7
 10
-338.40784340213918
 20
-108.1090057847409
 30
0.0
  0
VERTEX
  5
F73
  8
DATA
  6
CONTINUOUS
 62
     7
 10
-338.37963219871261
 20
-107.84114246006
 30
0.0
  0
VERTEX
  5
F74
  8
DATA
  6
CONTINUOUS
 62
     7
 10
-338.34765950149563
 20
-107.5738488118966
 30
0.0
  0
VERTEX
  5
F75
  8
DATA
  6
CONTINUOUS
 62
     7
 10
-338.31192531048828
 20
-107.30712484025091
 30
0.0
  0
VERTEX
  5
F76
  8
DATA
  6
CONTINUOUS
 62
     7
 10
-338.27242962569102
 20
-107.0409705451227
 30
0.0
  0
VERTEX
  5
F77
  8
DATA
  6
CONTINUOUS
 62
     7
 10
-338.22917244710328
 20
-106.7753859265121
 30
0.0
  0
VERTEX
  5
F78
  8
DATA
  6
CONTINUOUS
 62
     7
 10
-338.18215377472541
 20
-106.5103709844191
 30
0.0
  0
VERTEX
  5
F79
  8
DATA
  6
CONTINUOUS
 62
     7
 10
-338.13137360855723
 20
-106.24592571884369
 30
0.0
  0
VERTEX
  5
F7A
  8
DATA
  6
CONTINUOUS
 62
     7
 10
-338.07683194859902
 20
-105.9820501297859
 30
0.0
  0
VERTEX
  5
F7B
  8
DATA
  6
CONTINUOUS
 62
     7
 10
-338.0185287948504
 20
-105.7187442172457
 30
0.0
  0
VERTEX
  5
F7C
  8
DATA
  6
CONTINUOUS
 62
     7
 10
-337.95646414731152
 20
-105.456007981223
 30
0.0
  0
VERTEX
  5
F7D
  8
DATA
  6
CONTINUOUS
 62
     7
 10
-337.89063800598228
 20
-105.19384142171801
 30
0.0
  0
VERTEX
  5
F7E
  8
DATA
  6
CONTINUOUS
 62
     7
 10
-337.82105037086319
 20
-104.9322445387305
 30
0.0
  0
VERTEX
  5
F7F
  8
DATA
  6
CONTINUOUS
 62
     7
 10
-337.74770124195362
 20
-104.6712173322607
 30
0.0
  0
VERTEX
  5
F80
  8
DATA
  6
CONTINUOUS
 62
     7
 10
-337.6705906192538
 20
-104.41075980230841
 30
0.0
  0
VERTEX
  5
F81
  8
DATA
  6
CONTINUOUS
 62
     7
 10
-337.5897185027639
 20
-104.1508719488737
 30
0.0
  0
VERTEX
  5
F82
  8
DATA
  6
CONTINUOUS
 62
     7
 10
-337.50508489248369
 20
-103.89155377195659
 30
0.0
  0
VERTEX
  5
F83
  8
DATA
  6
CONTINUOUS
 62
     7
 10
-337.41668978841329
 20
-103.6328052715571
 30
0.0
  0
VERTEX
  5
F84
  8
DATA
  6
CONTINUOUS
 62
     7
 10
-337.32453319055247
 20
-103.3746264476752
 30
0.0
  0
VERTEX
  5
F85
  8
DATA
  6
CONTINUOUS
 62
     7
 10
-337.22861509890163
 20
-103.11701730031081
 30
0.0
  0
VERTEX
  5
F86
  8
DATA
  6
CONTINUOUS
 62
     7
 10
-337.12893551346048
 20
-102.8599778294641
 30
0.0
  0
VERTEX
  5
F87
  8
DATA
  6
CONTINUOUS
 62
     7
 10
-337.02549443422919
 20
-102.60350803513499
 30
0.0
  0
VERTEX
  5
F88
  8
DATA
  6
CONTINUOUS
 62
     7
 10
-336.91829186120748
 20
-102.3476079173234
 30
0.0
  0
VERTEX
  5
F89
  8
DATA
  6
CONTINUOUS
 62
     7
 10
-336.80732779439569
 20
-102.09227747602939
 30
0.0
  0
VERTEX
  5
F8A
  8
DATA
  6
CONTINUOUS
 62
     7
 10
-336.69260223379371
 20
-101.837516711253
 30
0.0
  0
VERTEX
  5
F8B
  8
DATA
  6
CONTINUOUS
 62
     7
 10
-336.5741151794013
 20
-101.58332562299429
 30
0.0
  0
VERTEX
  5
F8C
  8
DATA
  6
CONTINUOUS
 62
     7
 10
-336.45186663121882
 20
-101.329704211253
 30
0.0
  0
VERTEX
  5
F8D
  8
DATA
  6
CONTINUOUS
 62
     7
 10
-336.32585658924609
 20
-101.07665247602939
 30
0.0
  0
VERTEX
  5
F8E
  8
DATA
  6
CONTINUOUS
 62
     7
 10
-336.19608505348299
 20
-100.8241704173234
 30
0.0
  0
VERTEX
  5
F8F
  8
DATA
  6
CONTINUOUS
 62
     7
 10
-336.06255202392981
 20
-100.57225803513499
 30
0.0
  0
VERTEX
  5
F90
  8
DATA
  6
CONTINUOUS
 62
     7
 10
-335.92525750058621
 20
-100.3209153294641
 30
0.0
  0
VERTEX
  5
F91
  8
DATA
  6
CONTINUOUS
 62
     7
 10
-335.78420148345248
 20
-100.07014230031081
 30
0.0
  0
VERTEX
  5
F92
  8
DATA
  6
CONTINUOUS
 62
     7
 10
-335.63938397252861
 20
-99.819938947675212
 30
0.0
  0
VERTEX
  5
F93
  8
DATA
  6
CONTINUOUS
 62
     7
 10
-335.49080496781448
 20
-99.570305271557118
 30
0.0
  0
VERTEX
  5
F94
  8
DATA
  6
CONTINUOUS
 62
     7
 10
-335.33846446931011
 20
-99.321241271956623
 30
0.0
  0
VERTEX
  5
F95
  8
DATA
  6
CONTINUOUS
 62
     7
 10
-335.18236247701537
 20
-99.072746948873714
 30
0.0
  0
VERTEX
  5
F96
  8
DATA
  6
CONTINUOUS
 62
     7
 10
-335.02249899093061
 20
-98.824822302308405
 30
0.0
  0
VERTEX
  5
F97
  8
DATA
  6
CONTINUOUS
 62
     7
 10
-334.85887401105549
 20
-98.577467332260682
 30
0.0
  0
VERTEX
  5
F98
  8
DATA
  6
CONTINUOUS
 62
     7
 10
-334.69148753739017
 20
-98.330682038730544
 30
0.0
  0
VERTEX
  5
F99
  8
DATA
  6
CONTINUOUS
 62
     7
 10
-334.52033956993478
 20
-98.084466421718005
 30
0.0
  0
VERTEX
  5
F9A
  8
DATA
  6
CONTINUOUS
 62
     7
 10
-334.3454301086889
 20
-97.838820481223067
 30
0.0
  0
VERTEX
  5
F9B
  8
DATA
  6
CONTINUOUS
 62
     7
 10
-334.166759153653
 20
-97.593744217245714
 30
0.0
  0
VERTEX
  5
F9C
  8
DATA
  6
CONTINUOUS
 62
     7
 10
-333.98432670482669
 20
-97.349237629785918
 30
0.0
  0
VERTEX
  5
F9D
  8
DATA
  6
CONTINUOUS
 62
     7
 10
-333.79813276221017
 20
-97.105300718843765
 30
0.0
  0
VERTEX
  5
F9E
  8
DATA
  6
CONTINUOUS
 62
     7
 10
-333.60817732580352
 20
-96.861933484419154
 30
0.0
  0
VERTEX
  5
F9F
  8
DATA
  6
CONTINUOUS
 62
     7
 10
-333.41446039560651
 20
-96.619135926512143
 30
0.0
  0
VERTEX
  5
FA0
  8
DATA
  6
CONTINUOUS
 62
     7
 10
-333.2169819716193
 20
-96.376908045122718
 30
0.0
  0
VERTEX
  5
FA1
  8
DATA
  6
CONTINUOUS
 62
     7
 10
-333.0157420538419
 20
-96.135249840250907
 30
0.0
  0
VERTEX
  5
FA2
  8
DATA
  6
CONTINUOUS
 62
     7
 10
-332.81074064227431
 20
-95.894161311896625
 30
0.0
  0
VERTEX
  5
FA3
  8
DATA
  6
CONTINUOUS
 62
     7
 10
-332.60197773691652
 20
-95.653642460059984
 30
0.0
  0
VERTEX
  5
FA4
  8
DATA
  6
CONTINUOUS
 62
     7
 10
-332.38945333776837
 20
-95.41369328474093
 30
0.0
  0
VERTEX
  5
FA5
  8
DATA
  6
CONTINUOUS
 62
     7
 10
-332.17316744483003
 20
-95.174313785939447
 30
0.0
  0
VERTEX
  5
FA6
  8
DATA
  6
CONTINUOUS
 62
     7
 10
-331.9531200581016
 20
-94.935503963655563
 30
0.0
  0
VERTEX
  5
FA7
  8
DATA
  6
CONTINUOUS
 62
     7
 10
-331.7293111775827
 20
-94.697263817889294
 30
0.0
  0
VERTEX
  5
FA8
  8
DATA
  6
CONTINUOUS
 62
     7
 10
-331.50174080327361
 20
-94.459593348640539
 30
0.0
  0
VERTEX
  5
FA9
  8
DATA
  6
CONTINUOUS
 62
     7
 10
-331.27040893517437
 20
-94.222492555909483
 30
0.0
  0
VERTEX
  5
FAA
  8
DATA
  6
CONTINUOUS
 62
     7
 10
-331.03531557328489
 20
-93.985961439695927
 30
0.0
  0
VERTEX
  5
FAB
  8
DATA
  6
CONTINUOUS
 62
     7
 10
-330.79646071760521
 20
-93.75
 30
0.0
  0
VERTEX
  5
FAC
  8
DATA
  6
CONTINUOUS
 62
     7
 10
-330.55434831274692
 20
-93.515101591157816
 30
0.0
  0
VERTEX
  5
FAD
  8
DATA
  6
CONTINUOUS
 62
     7
 10
-330.30948230332189
 20
-93.281759567505574
 30
0.0
  0
VERTEX
  5
FAE
  8
DATA
  6
CONTINUOUS
 62
     7
 10
-330.06186268933021
 20
-93.049973929043276
 30
0.0
  0
VERTEX
  5
FAF
  8
DATA
  6
CONTINUOUS
 62
     7
 10
-329.81148947077151
 20
-92.819744675770878
 30
0.0
  0
VERTEX
  5
FB0
  8
DATA
  6
CONTINUOUS
 62
     7
 10
-329.55836264764599
 20
-92.591071807688451
 30
0.0
  0
VERTEX
  5
FB1
  8
DATA
  6
CONTINUOUS
 62
     7
 10
-329.30248221995379
 20
-92.363955324795938
 30
0.0
  0
VERTEX
  5
FB2
  8
DATA
  6
CONTINUOUS
 62
     7
 10
-329.04384818769461
 20
-92.138395227093355
 30
0.0
  0
VERTEX
  5
FB3
  8
DATA
  6
CONTINUOUS
 62
     7
 10
-328.78246055086879
 20
-91.914391514580714
 30
0.0
  0
VERTEX
  5
FB4
  8
DATA
  6
CONTINUOUS
 62
     7
 10
-328.51831930947611
 20
-91.691944187257988
 30
0.0
  0
VERTEX
  5
FB5
  8
DATA
  6
CONTINUOUS
 62
     7
 10
-328.25142446351663
 20
-91.471053245125233
 30
0.0
  0
VERTEX
  5
FB6
  8
DATA
  6
CONTINUOUS
 62
     7
 10
-327.98177601299039
 20
-91.251718688182393
 30
0.0
  0
VERTEX
  5
FB7
  8
DATA
  6
CONTINUOUS
 62
     7
 10
-327.70937395789718
 20
-91.033940516429496
 30
0.0
  0
VERTEX
  5
FB8
  8
DATA
  6
CONTINUOUS
 62
     7
 10
-327.43421829823728
 20
-90.817718729866485
 30
0.0
  0
VERTEX
  5
FB9
  8
DATA
  6
CONTINUOUS
 62
     7
 10
-327.15630903401058
 20
-90.603053328493445
 30
0.0
  0
VERTEX
  5
FBA
  8
DATA
  6
CONTINUOUS
 62
     7
 10
-326.87564616521712
 20
-90.389944312310305
 30
0.0
  0
VERTEX
  5
FBB
  8
DATA
  6
CONTINUOUS
 62
     7
 10
-326.5922296918568
 20
-90.178391681317152
 30
0.0
  0
VERTEX
  5
FBC
  8
DATA
  6
CONTINUOUS
 62
     7
 10
-326.30605961392968
 20
-89.968395435513898
 30
0.0
  0
VERTEX
  5
FBD
  8
DATA
  6
CONTINUOUS
 62
     7
 10
-326.01713593143569
 20
-89.759955574900602
 30
0.0
  0
VERTEX
  5
FBE
  8
DATA
  6
CONTINUOUS
 62
     7
 10
-325.72545864437501
 20
-89.55307209947722
 30
0.0
  0
VERTEX
  5
FBF
  8
DATA
  6
CONTINUOUS
 62
     7
 10
-325.43102775274758
 20
-89.347745009243781
 30
0.0
  0
VERTEX
  5
FC0
  8
DATA
  6
CONTINUOUS
 62
     7
 10
-325.13384325655318
 20
-89.143974304200214
 30
0.0
  0
VERTEX
  5
FC1
  8
DATA
  6
CONTINUOUS
 62
     7
 10
-324.83390515579202
 20
-88.941759984346675
 30
0.0
  0
VERTEX
  5
FC2
  8
DATA
  6
CONTINUOUS
 62
     7
 10
-324.53121345046401
 20
-88.741102049683008
 30
0.0
  0
VERTEX
  5
FC3
  8
DATA
  6
CONTINUOUS
 62
     7
 10
-324.22576814056941
 20
-88.542000500209312
 30
0.0
  0
VERTEX
  5
FC4
  8
DATA
  6
CONTINUOUS
 62
     7
 10
-323.9175692261079
 20
-88.34445533592546
 30
0.0
  0
VERTEX
  5
FC5
  8
DATA
  6
CONTINUOUS
 62
     7
 10
-323.60661670707952
 20
-88.148466556831622
 30
0.0
  0
VERTEX
  5
FC6
  8
DATA
  6
CONTINUOUS
 62
     7
 10
-323.29291058348429
 20
-87.954034162927684
 30
0.0
  0
VERTEX
  5
FC7
  8
DATA
  6
CONTINUOUS
 62
     7
 10
-322.97645085532241
 20
-87.761158154213732
 30
0.0
  0
VERTEX
  5
FC8
  8
DATA
  6
CONTINUOUS
 62
     7
 10
-322.65723752259362
 20
-87.569838530689694
 30
0.0
  0
VERTEX
  5
FC9
  8
DATA
  6
CONTINUOUS
 62
     7
 10
-322.33527058529808
 20
-87.380075292355585
 30
0.0
  0
VERTEX
  5
FCA
  8
DATA
  6
CONTINUOUS
 62
     7
 10
-322.01055004343573
 20
-87.191868439211405
 30
0.0
  0
VERTEX
  5
FCB
  8
DATA
  6
CONTINUOUS
 62
     7
 10
-321.68307589700652
 20
-87.005217971257139
 30
0.0
  0
VERTEX
  5
FCC
  8
DATA
  6
CONTINUOUS
 62
     7
 10
-321.3528481460105
 20
-86.82012388849283
 30
0.0
  0
VERTEX
  5
FCD
  8
DATA
  6
CONTINUOUS
 62
     7
 10
-321.01986679044779
 20
-86.636586190918464
 30
0.0
  0
VERTEX
  5
FCE
  8
DATA
  6
CONTINUOUS
 62
     7
 10
-320.68413183031822
 20
-86.454604878534056
 30
0.0
  0
VERTEX
  5
FCF
  8
DATA
  6
CONTINUOUS
 62
     7
 10
-320.34564326562179
 20
-86.274179951339491
 30
0.0
  0
VERTEX
  5
FD0
  8
DATA
  6
CONTINUOUS
 62
     7
 10
-320.00440109635872
 20
-86.095311409334911
 30
0.0
  0
VERTEX
  5
FD1
  8
DATA
  6
CONTINUOUS
 62
     7
 10
-319.66040532252862
 20
-85.917999252520247
 30
0.0
  0
VERTEX
  5
FD2
  8
DATA
  6
CONTINUOUS
 62
     7
 10
-319.31365594413182
 20
-85.742243480895524
 30
0.0
  0
VERTEX
  5
FD3
  8
DATA
  6
CONTINUOUS
 62
     7
 10
-318.96415296116822
 20
-85.56804409446076
 30
0.0
  0
VERTEX
  5
FD4
  8
DATA
  6
CONTINUOUS
 62
     7
 10
-318.61189637363771
 20
-85.395401093215924
 30
0.0
  0
VERTEX
  5
FD5
  8
DATA
  6
CONTINUOUS
 62
     7
 10
-318.25688618154049
 20
-85.224314477160988
 30
0.0
  0
VERTEX
  5
FD6
  8
DATA
  6
CONTINUOUS
 62
     7
 10
-317.89912238487648
 20
-85.054784246295995
 30
0.0
  0
VERTEX
  5
FD7
  8
DATA
  6
CONTINUOUS
 62
     7
 10
-317.53860498364571
 20
-84.886810400620945
 30
0.0
  0
VERTEX
  5
FD8
  8
DATA
  6
CONTINUOUS
 62
     7
 10
-317.17533397784803
 20
-84.720392940135824
 30
0.0
  0
VERTEX
  5
FD9
  8
DATA
  6
CONTINUOUS
 62
     7
 10
-316.80930936748371
 20
-84.555531864840617
 30
0.0
  0
VERTEX
  5
FDA
  8
DATA
  6
CONTINUOUS
 62
     7
 10
-316.4405311525523
 20
-84.392227174735325
 30
0.0
  0
VERTEX
  5
FDB
  8
DATA
  6
CONTINUOUS
 62
     7
 10
-316.06899933305431
 20
-84.230478869820018
 30
0.0
  0
VERTEX
  5
FDC
  8
DATA
  6
CONTINUOUS
 62
     7
 10
-315.69471390898929
 20
-84.070286950094669
 30
0.0
  0
VERTEX
  5
FDD
  8
DATA
  6
CONTINUOUS
 62
     7
 10
-315.31767488035769
 20
-83.911651415559206
 30
0.0
  0
VERTEX
  5
FDE
  8
DATA
  6
CONTINUOUS
 62
     7
 10
-314.93788224715922
 20
-83.754572266213685
 30
0.0
  0
VERTEX
  5
FDF
  8
DATA
  6
CONTINUOUS
 62
     7
 10
-314.5553360093939
 20
-83.599049502058065
 30
0.0
  0
VERTEX
  5
FE0
  8
DATA
  6
CONTINUOUS
 62
     7
 10
-314.17003616706188
 20
-83.445083123092445
 30
0.0
  0
VERTEX
  5
FE1
  8
DATA
  6
CONTINUOUS
 62
     7
 10
-313.781982720163
 20
-83.292673129316697
 30
0.0
  0
VERTEX
  5
FE2
  8
DATA
  6
CONTINUOUS
 62
     7
 10
-313.3911756686972
 20
-83.141819520730905
 30
0.0
  0
VERTEX
  5
FE3
  8
DATA
  6
CONTINUOUS
 62
     7
 10
-312.99761501266482
 20
-82.992522297335043
 30
0.0
  0
VERTEX
  5
FE4
  8
DATA
  6
CONTINUOUS
 62
     7
 10
-312.60130075206553
 20
-82.844781459129095
 30
0.0
  0
VERTEX
  5
FE5
  8
DATA
  6
CONTINUOUS
 62
     7
 10
-312.20223288689948
 20
-82.69859700611309
 30
0.0
  0
VERTEX
  5
FE6
  8
DATA
  6
CONTINUOUS
 62
     7
 10
-311.80041141716652
 20
-82.553968938287042
 30
0.0
  0
VERTEX
  5
FE7
  8
DATA
  6
CONTINUOUS
 62
     7
 10
-311.39583634286691
 20
-82.410897255650909
 30
0.0
  0
VERTEX
  5
FE8
  8
DATA
  6
CONTINUOUS
 62
     7
 10
-310.98850766400028
 20
-82.269381958204704
 30
0.0
  0
VERTEX
  5
FE9
  8
DATA
  6
CONTINUOUS
 62
     7
 10
-310.57842538056713
 20
-82.129423045948457
 30
0.0
  0
VERTEX
  5
FEA
  8
DATA
  6
CONTINUOUS
 62
     7
 10
-310.16558949256699
 20
-81.991020518882095
 30
0.0
  0
VERTEX
  5
FEB
  8
DATA
  6
CONTINUOUS
 62
     7
 10
-309.75
 20
-81.854174377005734
 30
0.0
  0
VERTEX
  5
FEC
  8
DATA
  6
CONTINUOUS
 62
     7
 10
-309.75
 20
-81.854174377005734
 30
0.0
  0
SEQEND
  5
FED
  8
DATA
  6
CONTINUOUS
 62
     7
  0
CIRCLE
  5
6F4
  8
DATA
  6
CONTINUOUS
 62
     7
 10
-281.0
 20
-242.0
 30
0.0
 40
61.5
  0
CIRCLE
  5
6F5
  8
DATA
  6
CONTINUOUS
 62
     7
 10
-281.0
 20
-242.0
 30
0.0
 40
69.5
  0
CIRCLE
  5
6F6
  8
DATA
  6
CONTINUOUS
 62
     7
 10
-281.0
 20
-242.0
 30
0.0
 40
49.5
  0
CIRCLE
  5
6F7
  8
DATA
  6
CONTINUOUS
 62
     7
 10
-281.0
 20
-242.0
 30
0.0
 40
21.5
  0
LINE
  5
6F8
  8
DATA
  6
CONTINUOUS
 62
     7
 10
-290.5
 20
-341.0
 30
0.0
 11
-290.5
 21
-322.0
 31
0.0
  0
LINE
  5
6F9
  8
DATA
  6
CONTINUOUS
 62
     7
 10
-271.5
 20
-341.0
 30
0.0
 11
-290.5
 21
-341.0
 31
0.0
  0
LINE
  5
6FA
  8
DATA
  6
CONTINUOUS
 62
     7
 10
-271.5
 20
-322.0
 30
0.0
 11
-271.5
 21
-341.0
 31
0.0
  0
LINE
  5
6FB
  8
DATA
  6
CONTINUOUS
 62
     7
 10
-290.5
 20
-322.0
 30
0.0
 11
-271.5
 21
-322.0
 31
0.0
  0
CIRCLE
  5
6FC
  8
DATA
  6
CONTINUOUS
 62
     7
 10
-285.75124428982451
 20
-330.02549031963338
 30
0.0
 40
0.610870482599978
  0
LINE
  5
6FD
  8
DATA
  6
CONTINUOUS
 62
     7
 10
-275.4085374821812
 20
-333.29852406207903
 30
0.0
 11
-278.40847815940549
 21
-333.29852406207903
 31
0.0
  0
ARC
  5
6FE
  8
DATA
  6
CONTINUOUS
 62
     7
 10
-275.40853968190447
 20
-333.19585679067347
 30
0.0
 40
0.1026673080000364
 50
270.0
 51
0.0
  0
LINE
  5
6FF
  8
DATA
  6
CONTINUOUS
 62
     7
 10
-275.30587081661429
 20
-331.44640588268362
 30
0.0
 11
-275.30587081661429
 21
-333.19585683743281
 31
0.0
  0
ARC
  5
700
  8
DATA
  6
CONTINUOUS
 62
     7
 10
-275.40853968190447
 20
-331.4464058623534
 30
0.0
 40
0.1026673080000364
 50
0.0
 51
90.0
  0
LINE
  5
701
  8
DATA
  6
CONTINUOUS
 62
     7
 10
-276.28942771768237
 20
-331.34373856655151
 30
0.0
 11
-275.4085374821812
 21
-331.34373856655151
 31
0.0
  0
ARC
  5
702
  8
DATA
  6
CONTINUOUS
 62
     7
 10
-276.2894251845446
 20
-331.4464058623534
 30
0.0
 40
0.1026673080000364
 50
90.0
 51
180.0
  0
LINE
  5
703
  8
DATA
  6
CONTINUOUS
 62
     7
 10
-276.3920943812164
 20
-332.29341117165052
 30
0.0
 11
-276.3920943812164
 21
-331.44640588268362
 31
0.0
  0
LINE
  5
704
  8
DATA
  6
CONTINUOUS
 62
     7
 10
-277.42492722320628
 20
-327.09947222257182
 30
0.0
 11
-277.42492722320628
 21
-332.29341117165052
 31
0.0
  0
ARC
  5
705
  8
DATA
  6
CONTINUOUS
 62
     7
 10
-277.52759291902453
 20
-327.09947204163348
 30
0.0
 40
0.1026673080000364
 50
0.0
 51
90.0
  0
LINE
  5
706
  8
DATA
  6
CONTINUOUS
 62
     7
 10
-278.40847815940549
 20
-326.99680481292108
 30
0.0
 11
-277.52759388877308
 21
-326.99680481292108
 31
0.0
  0
ARC
  5
707
  8
DATA
  6
CONTINUOUS
 62
     7
 10
-278.40847842166448
 20
-327.09947204163348
 30
0.0
 40
0.1026673080000364
 50
90.0
 51
180.0
  0
LINE
  5
708
  8
DATA
  6
CONTINUOUS
 62
     7
 10
-278.5111448249724
 20
-333.19585683743281
 30
0.0
 11
-278.5111448249724
 21
-327.09947222257182
 31
0.0
  0
ARC
  5
709
  8
DATA
  6
CONTINUOUS
 62
     7
 10
-285.34878844246441
 20
-331.4464058623534
 30
0.0
 40
0.1026673080000364
 50
0.0
 51
90.0
  0
LINE
  5
70A
  8
DATA
  6
CONTINUOUS
 62
     7
 10
-286.17628829893317
 20
-331.34373856655151
 30
0.0
 11
-285.34878878401122
 21
-331.34373856655151
 31
0.0
  0
ARC
  5
70B
  8
DATA
  6
CONTINUOUS
 62
     7
 10
-286.17628694494448
 20
-331.4464058623534
 30
0.0
 40
0.1026673080000364
 50
90.0
 51
180.0
  0
ARC
  5
70C
  8
DATA
  6
CONTINUOUS
 62
     7
 10
-284.94838594126452
 20
-331.9679557869934
 30
0.0
 40
1.330568311679996
 50
180.0
 51
270.0
  0
LINE
  5
70D
  8
DATA
  6
CONTINUOUS
 62
     7
 10
-284.79638297453079
 20
-327.14092095837469
 30
0.0
 11
-285.6573135590661
 21
-329.091911652666
 31
0.0
  0
LINE
  5
70E
  8
DATA
  6
CONTINUOUS
 62
     7
 10
-286.61218032690857
 20
-326.99680481292108
 30
0.0
 11
-284.89030722810043
 21
-326.99680481292108
 31
0.0
  0
ARC
  5
70F
  8
DATA
  6
CONTINUOUS
 62
     7
 10
-286.6121797129378
 20
-327.09947204163348
 30
0.0
 40
0.1026673080000364
 50
90.0
 51
203.81096329942699
  0
LINE
  5
710
  8
DATA
  6
CONTINUOUS
 62
     7
 10
-285.8451739959429
 20
-329.091911652666
 30
0.0
 11
-286.70611054331403
 21
-327.14092095837469
 31
0.0
  0
LINE
  5
711
  8
DATA
  6
CONTINUOUS
 62
     7
 10
-280.74701914819678
 20
-330.25546508955352
 30
0.0
 11
-280.68153456231482
 21
-330.25546508955352
 31
0.0
  0
ARC
  5
712
  8
DATA
  6
CONTINUOUS
 62
     7
 10
-280.68153262078448
 20
-330.66202762923342
 30
0.0
 40
0.4065625396800101
 50
0.0
 51
90.0
  0
LINE
  5
713
  8
DATA
  6
CONTINUOUS
 62
     7
 10
-280.27497075606578
 20
-330.66202761703528
 30
0.0
 11
-280.27497075606578
 21
-332.34782481032931
 31
0.0
  0
ARC
  5
714
  8
DATA
  6
CONTINUOUS
 62
     7
 10
-280.68153262078448
 20
-332.34782482659341
 30
0.0
 40
0.4065625396800101
 50
270.0
 51
0.0
  0
LINE
  5
715
  8
DATA
  6
CONTINUOUS
 62
     7
 10
-280.68153456231482
 20
-332.75438731138212
 30
0.0
 11
-280.74701914819678
 21
-332.75438731138212
 31
0.0
  0
LINE
  5
716
  8
DATA
  6
CONTINUOUS
 62
     7
 10
-280.05731695153378
 20
-333.29852406207903
 30
0.0
 11
-280.74701914819678
 21
-333.29852406207903
 31
0.0
  0
ARC
  5
717
  8
DATA
  6
CONTINUOUS
 62
     7
 10
-280.0573153881445
 20
-332.42995867299351
 30
0.0
 40
0.8685654256800035
 50
270.0
 51
0.0
  0
LINE
  5
718
  8
DATA
  6
CONTINUOUS
 62
     7
 10
-279.18874719349679
 20
-330.8529888099153
 30
0.0
 11
-279.18874719349679
 21
-332.4299585896398
 31
0.0
  0
ARC
  5
719
  8
DATA
  6
CONTINUOUS
 62
     7
 10
-280.0573153881445
 20
-330.85298882211339
 30
0.0
 40
0.8685654256799466
 50
0.0
 51
63.417602354303199
  0
ARC
  5
71A
  8
DATA
  6
CONTINUOUS
 62
     7
 10
-279.62270392441928
 20
-329.98442339643339
 30
0.0
 40
0.102667307999964
 50
116.58239764564421
 51
243.41760235435569
  0
ARC
  5
71B
  8
DATA
  6
CONTINUOUS
 62
     7
 10
-280.0573153881445
 20
-329.11585797075338
 30
0.0
 40
0.8685654256799745
 50
296.58239764569839
 51
0.0
  0
LINE
  5
71C
  8
DATA
  6
CONTINUOUS
 62
     7
 10
-279.18874719349679
 20
-327.8653701003559
 30
0.0
 11
-279.18874719349679
 21
-329.11585795855518
 31
0.0
  0
ARC
  5
71D
  8
DATA
  6
CONTINUOUS
 62
     7
 10
-280.0573153881445
 20
-327.86537015931339
 30
0.0
 40
0.8685654256799466
 50
0.0
 51
90.0
  0
LINE
  5
71E
  8
DATA
  6
CONTINUOUS
 62
     7
 10
-280.74701914819678
 20
-326.99680481292108
 30
0.0
 11
-280.05731695153378
 21
-326.99680481292108
 31
0.0
  0
LINE
  5
71F
  8
DATA
  6
CONTINUOUS
 62
     7
 10
-280.74701914819678
 20
-327.54267878798822
 30
0.0
 11
-280.72124514059328
 21
-327.54278613123319
 31
0.0
  0
ARC
  5
720
  8
DATA
  6
CONTINUOUS
 62
     7
 10
-280.76366646718452
 20
-328.0296378521133
 30
0.0
 40
0.4886963860799369
 50
0.0
 51
85.020140581005464
  0
LINE
  5
721
  8
DATA
  6
CONTINUOUS
 62
     7
 10
-280.27497075606578
 20
-328.02963784398122
 30
0.0
 11
-280.27497075606578
 21
-329.2246853273985
 31
0.0
  0
ARC
  5
722
  8
DATA
  6
CONTINUOUS
 62
     7
 10
-280.76366646718452
 20
-329.22468531723342
 30
0.0
 40
0.4886963860800038
 50
274.97985941899401
 51
0.0
  0
LINE
  5
723
  8
DATA
  6
CONTINUOUS
 62
     7
 10
-280.72124514059328
 20
-329.71153699338731
 30
0.0
 11
-280.74701914819678
 21
-329.7116443813585
 31
0.0
  0
ARC
  5
724
  8
DATA
  6
CONTINUOUS
 62
     7
 10
-282.2913560102246
 20
-327.09947204163348
 30
0.0
 40
0.1026673080000364
 50
90.0
 51
180.0
  0
LINE
  5
725
  8
DATA
  6
CONTINUOUS
 62
     7
 10
-282.39402119982191
 20
-333.19585683743281
 30
0.0
 11
-282.39402119982191
 21
-327.09947222257182
 31
0.0
  0
ARC
  5
726
  8
DATA
  6
CONTINUOUS
 62
     7
 10
-282.2913560102246
 20
-333.19585679067347
 30
0.0
 40
0.1026673079999227
 50
180.0
 51
270.0
  0
LINE
  5
727
  8
DATA
  6
CONTINUOUS
 62
     7
 10
-281.15362470039639
 20
-332.75438731138212
 30
0.0
 11
-281.20513693452159
 21
-332.75438731138212
 31
0.0
  0
ARC
  5
728
  8
DATA
  6
CONTINUOUS
 62
     7
 10
-281.2051358915844
 20
-332.65172005827338
 30
0.0
 40
0.1026673080000364
 50
180.0
 51
270.0
  0
LINE
  5
729
  8
DATA
  6
CONTINUOUS
 62
     7
 10
-281.30780360008879
 20
-332.65172008876863
 30
0.0
 11
-281.30780360008879
 21
-330.35813239552039
 31
0.0
  0
ARC
  5
72A
  8
DATA
  6
CONTINUOUS
 62
     7
 10
-281.2051358915844
 20
-330.35813239755339
 30
0.0
 40
0.1026673079999796
 50
90.0
 51
180.0
  0
LINE
  5
72B
  8
DATA
  6
CONTINUOUS
 62
     7
 10
-281.20513693452159
 20
-330.25546508955352
 30
0.0
 11
-281.15362470039639
 21
-330.25546508955352
 31
0.0
  0
LINE
  5
72C
  8
DATA
  6
CONTINUOUS
 62
     7
 10
-281.15362470039639
 20
-329.71333818660588
 30
0.0
 11
-281.16406669140667
 21
-329.71338170128041
 31
0.0
  0
LINE
  5
72D
  8
DATA
  6
CONTINUOUS
 62
     7
 10
-281.16406669140667
 20
-329.71338170128041
 30
0.0
 11
-281.20513693452159
 21
-329.71338170128041
 31
0.0
  0
ARC
  5
72E
  8
DATA
  6
CONTINUOUS
 62
     7
 10
-281.2051358915844
 20
-329.61071439531338
 30
0.0
 40
0.1026673080000933
 50
180.0
 51
270.0
  0
LINE
  5
72F
  8
DATA
  6
CONTINUOUS
 62
     7
 10
-281.30780360008879
 20
-329.6107143851483
 30
0.0
 11
-281.30780360008879
 21
-327.64360878623148
 31
0.0
  0
ARC
  5
730
  8
DATA
  6
CONTINUOUS
 62
     7
 10
-281.2051358915844
 20
-327.6436087740334
 30
0.0
 40
0.1026673080000364
 50
90.0
 51
180.0
  0
LINE
  5
731
  8
DATA
  6
CONTINUOUS
 62
     7
 10
-281.20513693452159
 20
-327.54094137658069
 30
0.0
 11
-281.16406669140667
 21
-327.54094137658069
 31
0.0
  0
LINE
  5
732
  8
DATA
  6
CONTINUOUS
 62
     7
 10
-281.16406669140667
 20
-327.54094137658069
 30
0.0
 11
-281.15362470039639
 21
-327.5409849847739
 31
0.0
  0
LINE
  5
733
  8
DATA
  6
CONTINUOUS
 62
     7
 10
-286.27895496246708
 20
-331.9679558052905
 30
0.0
 11
-286.27895496246708
 21
-331.44640588268362
 31
0.0
  0
ARC
  5
734
  8
DATA
  6
CONTINUOUS
 62
     7
 10
-278.40847842166448
 20
-333.19585679067347
 30
0.0
 40
0.1026673080000364
 50
180.0
 51
270.0
  0
ARC
  5
735
  8
DATA
  6
CONTINUOUS
 62
     7
 10
-276.90850905178462
 20
-332.29341115335342
 30
0.0
 40
0.5164165592400423
 50
180.0
 51
0.0
  0
ARC
  5
736
  8
DATA
  6
CONTINUOUS
 62
     7
 10
-285.75124428982451
 20
-329.05046279488198
 30
0.0
 40
0.102667308000012
 50
203.81096329942699
 51
336.1890367005858
  0
ARC
  5
737
  8
DATA
  6
CONTINUOUS
 62
     7
 10
-284.89030886874423
 20
-327.09947204163348
 30
0.0
 40
0.1026673079999142
 50
336.18903670061832
 51
90.000000000000028
  0
LINE
  5
738
  8
DATA
  6
CONTINUOUS
 62
     7
 10
-284.1598985558752
 20
-332.2112773943731
 30
0.0
 11
-284.1598985558752
 21
-327.09947222257182
 31
0.0
  0
ARC
  5
739
  8
DATA
  6
CONTINUOUS
 62
     7
 10
-284.05723370782459
 20
-327.09947204163348
 30
0.0
 40
0.1026673080000364
 50
90.0
 51
180.0
  0
LINE
  5
73A
  8
DATA
  6
CONTINUOUS
 62
     7
 10
-284.05723189234118
 20
-326.99680481292108
 30
0.0
 11
-283.17634761967599
 21
-326.99680481292108
 31
0.0
  0
ARC
  5
73B
  8
DATA
  6
CONTINUOUS
 62
     7
 10
-283.17634820518452
 20
-327.09947204163348
 30
0.0
 40
0.1026673079999227
 50
0.0
 51
90.0
  0
LINE
  5
73C
  8
DATA
  6
CONTINUOUS
 62
     7
 10
-283.07368095614203
 20
-327.09947222257182
 30
0.0
 11
-283.07368095614203
 21
-331.9679558052905
 31
0.0
  0
ARC
  5
73D
  8
DATA
  6
CONTINUOUS
 62
     7
 10
-284.40424920886448
 20
-331.9679557869934
 30
0.0
 40
1.3305683116800531
 50
270.0
 51
0.0
  0
LINE
  5
73E
  8
DATA
  6
CONTINUOUS
 62
     7
 10
-284.40425070313142
 20
-333.29852406207903
 30
0.0
 11
-284.9483852154778
 21
-333.29852406207903
 31
0.0
  0
LINE
  5
73F
  8
DATA
  6
CONTINUOUS
 62
     7
 10
-285.24612212047731
 20
-331.44640588268362
 30
0.0
 11
-285.24612212047731
 21
-332.2112773943731
 31
0.0
  0
ARC
  5
740
  8
DATA
  6
CONTINUOUS
 62
     7
 10
-284.7030110751445
 20
-332.21127730695338
 30
0.0
 40
0.543110059319929
 50
180.0
 51
0.0
  0
LINE
  5
741
  8
DATA
  6
CONTINUOUS
 62
     7
 10
-280.74701914819678
 20
-327.54267878798822
 30
0.0
 11
-280.74701914819678
 21
-326.99680481292108
 31
0.0
  0
LINE
  5
742
  8
DATA
  6
CONTINUOUS
 62
     7
 10
-281.15362470039639
 20
-332.75438731138212
 30
0.0
 11
-281.15362470039639
 21
-333.29852406207903
 31
0.0
  0
LINE
  5
743
  8
DATA
  6
CONTINUOUS
 62
     7
 10
-282.291354536288
 20
-326.99680481292108
 30
0.0
 11
-281.15362470039639
 21
-326.99680481292108
 31
0.0
  0
LINE
  5
744
  8
DATA
  6
CONTINUOUS
 62
     7
 10
-281.15362470039639
 20
-333.29852406207903
 30
0.0
 11
-282.291354536288
 21
-333.29852406207903
 31
0.0
  0
LINE
  5
745
  8
DATA
  6
CONTINUOUS
 62
     7
 10
-280.74701914819678
 20
-333.29852406207903
 30
0.0
 11
-280.74701914819678
 21
-332.75438731138212
 31
0.0
  0
LINE
  5
746
  8
DATA
  6
CONTINUOUS
 62
     7
 10
-281.15362470039639
 20
-326.99680481292108
 30
0.0
 11
-281.15362470039639
 21
-327.5409849847739
 31
0.0
  0
LINE
  5
747
  8
DATA
  6
CONTINUOUS
 62
     7
 10
-281.15362470039639
 20
-329.71333818660588
 30
0.0
 11
-281.15362470039639
 21
-330.25546508955352
 31
0.0
  0
LINE
  5
748
  8
DATA
  6
CONTINUOUS
 62
     7
 10
-280.74701914819678
 20
-330.25546508955352
 30
0.0
 11
-280.74701914819678
 21
-329.7116443813585
 31
0.0
  0
LINE
  5
749
  8
DATA
  6
CONTINUOUS
 62
     7
 10
-271.5
 20
-338.0
 30
0.0
 11
-290.5
 21
-338.0
 31
0.0
  0
TEXT
  5
74A
  8
DATA
 62
     7
 10
-287.37880755124507
 20
-340.38608726213602
 30
0.0
 40
1.7374305555555549
  1
PROFESSIONAL
 41
0.7
 11
-287.37880755124507
 21
-338.64865670658048
 31
0.0
 73
     3
  0
LINE
  5
74B
  8
DATA
  6
CONTINUOUS
 62
     7
 10
-344.5
 20
-158.0
 30
0.0
 11
-282.40313647923148
 21
-156.77762079683529
 31
0.0
  0
LINE
  5
74C
  8
DATA
  6
CONTINUOUS
 62
     7
 10
-282.40313647923148
 20
-159.22237920316471
 30
0.0
 11
-344.5
 21
-158.0
 31
0.0
  0
LINE
  5
74D
  8
DATA
  6
CONTINUOUS
 62
     7
 10
-217.5
 20
-158.0
 30
0.0
 11
-279.59686352076852
 21
-156.77762079683529
 31
0.0
  0
LINE
  5
74E
  8
DATA
  6
CONTINUOUS
 62
     7
 10
-217.5
 20
-158.0
 30
0.0
 11
-279.59686352076852
 21
-159.22237920316471
 31
0.0
  0
LINE
  5
74F
  8
DATA
  6
CONTINUOUS
 62
     7
 10
-281.0
 20
-151.0
 30
0.0
 11
-282.7000000000001
 21
-158.0
 31
0.0
  0
LINE
  5
750
  8
DATA
  6
CONTINUOUS
 62
     7
 10
-281.0
 20
-151.0
 30
0.0
 11
-279.30000000000001
 21
-158.0
 31
0.0
  0
LINE
  5
751
  8
DATA
  6
CONTINUOUS
 62
     7
 10
-281.0
 20
-165.0
 30
0.0
 11
-282.7000000000001
 21
-158.0
 31
0.0
  0
LINE
  5
752
  8
DATA
  6
CONTINUOUS
 62
     7
 10
-281.0
 20
-165.0
 30
0.0
 11
-279.30000000000001
 21
-158.0
 31
0.0
  0
LINE
  5
753
  8
DATA
  6
CONTINUOUS
 62
     7
 10
-61.000000000000021
 20
-50.0
 30
0.0
 11
-61.000000000000021
 21
-350.0
 31
0.0
  0
LINE
  5
754
  8
DATA
  6
CONTINUOUS
 62
     7
 10
-86.16442953020136
 20
-350.0
 30
0.0
 11
-61.500000000000021
 21
-50.0
 31
0.0
  0
LINE
  5
755
  8
DATA
  6
CONTINUOUS
 62
     7
 10
-86.024664429530205
 20
-348.30000000000001
 30
0.0
 11
-61.000000000000021
 21
-348.30000000000001
 31
0.0
  0
LINE
  5
756
  8
DATA
  6
CONTINUOUS
 62
     7
 10
-85.909563758389282
 20
-346.90000000000009
 30
0.0
 11
-61.000000000000021
 21
-346.90000000000009
 31
0.0
  0
LINE
  5
757
  8
DATA
  6
CONTINUOUS
 62
     7
 10
-85.613590604026854
 20
-343.30000000000001
 30
0.0
 11
-61.000000000000021
 21
-343.30000000000001
 31
0.0
  0
LINE
  5
758
  8
DATA
  6
CONTINUOUS
 62
     7
 10
-85.498489932885931
 20
-341.90000000000009
 30
0.0
 11
-61.000000000000021
 21
-341.90000000000009
 31
0.0
  0
LINE
  5
759
  8
DATA
  6
CONTINUOUS
 62
     7
 10
-85.202516778523503
 20
-338.30000000000001
 30
0.0
 11
-61.000000000000021
 21
-338.30000000000001
 31
0.0
  0
LINE
  5
75A
  8
DATA
  6
CONTINUOUS
 62
     7
 10
-85.087416107382566
 20
-336.90000000000009
 30
0.0
 11
-61.000000000000021
 21
-336.90000000000009
 31
0.0
  0
LINE
  5
75B
  8
DATA
  6
CONTINUOUS
 62
     7
 10
-84.791442953020109
 20
-333.30000000000001
 30
0.0
 11
-61.000000000000021
 21
-333.30000000000001
 31
0.0
  0
LINE
  5
75C
  8
DATA
  6
CONTINUOUS
 62
     7
 10
-84.676342281879201
 20
-331.90000000000009
 30
0.0
 11
-61.000000000000021
 21
-331.90000000000009
 31
0.0
  0
LINE
  5
75D
  8
DATA
  6
CONTINUOUS
 62
     7
 10
-84.380369127516772
 20
-328.30000000000001
 30
0.0
 11
-61.000000000000021
 21
-328.30000000000001
 31
0.0
  0
LINE
  5
75E
  8
DATA
  6
CONTINUOUS
 62
     7
 10
-84.26526845637585
 20
-326.90000000000009
 30
0.0
 11
-61.000000000000021
 21
-326.90000000000009
 31
0.0
  0
LINE
  5
75F
  8
DATA
  6
CONTINUOUS
 62
     7
 10
-83.969295302013421
 20
-323.30000000000001
 30
0.0
 11
-61.000000000000021
 21
-323.30000000000001
 31
0.0
  0
LINE
  5
760
  8
DATA
  6
CONTINUOUS
 62
     7
 10
-83.854194630872499
 20
-321.90000000000009
 30
0.0
 11
-61.000000000000021
 21
-321.90000000000009
 31
0.0
  0
LINE
  5
761
  8
DATA
  6
CONTINUOUS
 62
     7
 10
-83.55822147651007
 20
-318.30000000000001
 30
0.0
 11
-61.000000000000021
 21
-318.30000000000001
 31
0.0
  0
LINE
  5
762
  8
DATA
  6
CONTINUOUS
 62
     7
 10
-83.443120805369134
 20
-316.90000000000009
 30
0.0
 11
-61.000000000000021
 21
-316.90000000000009
 31
0.0
  0
LINE
  5
763
  8
DATA
  6
CONTINUOUS
 62
     7
 10
-83.147147651006705
 20
-313.30000000000001
 30
0.0
 11
-61.000000000000021
 21
-313.30000000000001
 31
0.0
  0
LINE
  5
764
  8
DATA
  6
CONTINUOUS
 62
     7
 10
-83.032046979865797
 20
-311.90000000000009
 30
0.0
 11
-61.000000000000021
 21
-311.90000000000009
 31
0.0
  0
LINE
  5
765
  8
DATA
  6
CONTINUOUS
 62
     7
 10
-82.736073825503354
 20
-308.30000000000001
 30
0.0
 11
-61.000000000000021
 21
-308.30000000000001
 31
0.0
  0
LINE
  5
766
  8
DATA
  6
CONTINUOUS
 62
     7
 10
-82.620973154362446
 20
-306.90000000000009
 30
0.0
 11
-61.000000000000021
 21
-306.90000000000009
 31
0.0
  0
LINE
  5
767
  8
DATA
  6
CONTINUOUS
 62
     7
 10
-82.324999999999989
 20
-303.30000000000001
 30
0.0
 11
-61.000000000000021
 21
-303.30000000000001
 31
0.0
  0
LINE
  5
768
  8
DATA
  6
CONTINUOUS
 62
     7
 10
-82.209899328859066
 20
-301.90000000000009
 30
0.0
 11
-61.000000000000021
 21
-301.90000000000009
 31
0.0
  0
LINE
  5
769
  8
DATA
  6
CONTINUOUS
 62
     7
 10
-81.913926174496623
 20
-298.30000000000001
 30
0.0
 11
-61.000000000000021
 21
-298.30000000000001
 31
0.0
  0
LINE
  5
76A
  8
DATA
  6
CONTINUOUS
 62
     7
 10
-81.798825503355729
 20
-296.90000000000009
 30
0.0
 11
-61.000000000000021
 21
-296.90000000000009
 31
0.0
  0
LINE
  5
76B
  8
DATA
  6
CONTINUOUS
 62
     7
 10
-81.502852348993301
 20
-293.30000000000001
 30
0.0
 11
-61.000000000000021
 21
-293.30000000000001
 31
0.0
  0
LINE
  5
76C
  8
DATA
  6
CONTINUOUS
 62
     7
 10
-81.38775167785235
 20
-291.90000000000009
 30
0.0
 11
-61.000000000000021
 21
-291.90000000000009
 31
0.0
  0
LINE
  5
76D
  8
DATA
  6
CONTINUOUS
 62
     7
 10
-81.091778523489936
 20
-288.30000000000001
 30
0.0
 11
-61.000000000000021
 21
-288.30000000000001
 31
0.0
  0
LINE
  5
76E
  8
DATA
  6
CONTINUOUS
 62
     7
 10
-80.976677852349013
 20
-286.90000000000009
 30
0.0
 11
-61.000000000000021
 21
-286.90000000000009
 31
0.0
  0
LINE
  5
76F
  8
DATA
  6
CONTINUOUS
 62
     7
 10
-80.68070469798657
 20
-283.30000000000001
 30
0.0
 11
-61.000000000000021
 21
-283.30000000000001
 31
0.0
  0
LINE
  5
770
  8
DATA
  6
CONTINUOUS
 62
     7
 10
-80.565604026845648
 20
-281.90000000000009
 30
0.0
 11
-61.000000000000021
 21
-281.90000000000009
 31
0.0
  0
LINE
  5
771
  8
DATA
  6
CONTINUOUS
 62
     7
 10
-80.269630872483233
 20
-278.30000000000001
 30
0.0
 11
-61.000000000000021
 21
-278.30000000000001
 31
0.0
  0
LINE
  5
772
  8
DATA
  6
CONTINUOUS
 62
     7
 10
-80.154530201342297
 20
-276.90000000000009
 30
0.0
 11
-61.000000000000021
 21
-276.90000000000009
 31
0.0
  0
LINE
  5
773
  8
DATA
  6
CONTINUOUS
 62
     7
 10
-79.858557046979882
 20
-273.30000000000001
 30
0.0
 11
-61.000000000000021
 21
-273.30000000000001
 31
0.0
  0
LINE
  5
774
  8
DATA
  6
CONTINUOUS
 62
     7
 10
-79.743456375838932
 20
-271.89999999999998
 30
0.0
 11
-61.000000000000021
 21
-271.89999999999998
 31
0.0
  0
LINE
  5
775
  8
DATA
  6
CONTINUOUS
 62
     7
 10
-79.447483221476503
 20
-268.30000000000001
 30
0.0
 11
-61.000000000000021
 21
-268.30000000000001
 31
0.0
  0
LINE
  5
776
  8
DATA
  6
CONTINUOUS
 62
     7
 10
-79.332382550335581
 20
-266.89999999999998
 30
0.0
 11
-61.000000000000021
 21
-266.89999999999998
 31
0.0
  0
LINE
  5
777
  8
DATA
  6
CONTINUOUS
 62
     7
 10
-79.036409395973152
 20
-263.30000000000001
 30
0.0
 11
-61.000000000000021
 21
-263.30000000000001
 31
0.0
  0
LINE
  5
778
  8
DATA
  6
CONTINUOUS
 62
     7
 10
-78.92130872483223
 20
-261.89999999999998
 30
0.0
 11
-61.000000000000021
 21
-261.89999999999998
 31
0.0
  0
LINE
  5
779
  8
DATA
  6
CONTINUOUS
 62
     7
 10
-78.625335570469801
 20
-258.30000000000001
 30
0.0
 11
-61.000000000000021
 21
-258.30000000000001
 31
0.0
  0
LINE
  5
77A
  8
DATA
  6
CONTINUOUS
 62
     7
 10
-78.510234899328864
 20
-256.89999999999998
 30
0.0
 11
-61.000000000000021
 21
-256.89999999999998
 31
0.0
  0
LINE
  5
77B
  8
DATA
  6
CONTINUOUS
 62
     7
 10
-78.214261744966436
 20
-253.30000000000001
 30
0.0
 11
-61.000000000000021
 21
-253.30000000000001
 31
0.0
  0
LINE
  5
77C
  8
DATA
  6
CONTINUOUS
 62
     7
 10
-78.099161073825556
 20
-251.90000000000009
 30
0.0
 11
-61.000000000000021
 21
-251.90000000000009
 31
0.0
  0
LINE
  5
77D
  8
DATA
  6
CONTINUOUS
 62
     7
 10
-77.803187919463085
 20
-248.30000000000001
 30
0.0
 11
-61.000000000000021
 21
-248.30000000000001
 31
0.0
  0
LINE
  5
77E
  8
DATA
  6
CONTINUOUS
 62
     7
 10
-77.688087248322148
 20
-246.90000000000001
 30
0.0
 11
-61.000000000000021
 21
-246.90000000000001
 31
0.0
  0
LINE
  5
77F
  8
DATA
  6
CONTINUOUS
 62
     7
 10
-77.392114093959734
 20
-243.30000000000001
 30
0.0
 11
-61.000000000000021
 21
-243.30000000000001
 31
0.0
  0
LINE
  5
780
  8
DATA
  6
CONTINUOUS
 62
     7
 10
-77.277013422818783
 20
-241.90000000000001
 30
0.0
 11
-61.000000000000021
 21
-241.90000000000001
 31
0.0
  0
LINE
  5
781
  8
DATA
  6
CONTINUOUS
 62
     7
 10
-76.981040268456326
 20
-238.30000000000001
 30
0.0
 11
-61.000000000000021
 21
-238.30000000000001
 31
0.0
  0
LINE
  5
782
  8
DATA
  6
CONTINUOUS
 62
     7
 10
-76.86593959731546
 20
-236.90000000000001
 30
0.0
 11
-61.000000000000021
 21
-236.90000000000001
 31
0.0
  0
LINE
  5
783
  8
DATA
  6
CONTINUOUS
 62
     7
 10
-76.569966442953003
 20
-233.30000000000001
 30
0.0
 11
-61.000000000000021
 21
-233.30000000000001
 31
0.0
  0
LINE
  5
784
  8
DATA
  6
CONTINUOUS
 62
     7
 10
-76.454865771812095
 20
-231.90000000000001
 30
0.0
 11
-61.000000000000021
 21
-231.90000000000001
 31
0.0
  0
LINE
  5
785
  8
DATA
  6
CONTINUOUS
 62
     7
 10
-76.158892617449652
 20
-228.30000000000001
 30
0.0
 11
-61.000000000000021
 21
-228.30000000000001
 31
0.0
  0
LINE
  5
786
  8
DATA
  6
CONTINUOUS
 62
     7
 10
-76.043791946308716
 20
-226.90000000000009
 30
0.0
 11
-61.000000000000021
 21
-226.90000000000009
 31
0.0
  0
LINE
  5
787
  8
DATA
  6
CONTINUOUS
 62
     7
 10
-75.747818791946301
 20
-223.30000000000001
 30
0.0
 11
-61.000000000000021
 21
-223.30000000000001
 31
0.0
  0
LINE
  5
788
  8
DATA
  6
CONTINUOUS
 62
     7
 10
-75.632718120805393
 20
-221.90000000000001
 30
0.0
 11
-61.000000000000021
 21
-221.90000000000001
 31
0.0
  0
LINE
  5
789
  8
DATA
  6
CONTINUOUS
 62
     7
 10
-75.33674496644295
 20
-218.30000000000001
 30
0.0
 11
-61.000000000000021
 21
-218.30000000000001
 31
0.0
  0
LINE
  5
78A
  8
DATA
  6
CONTINUOUS
 62
     7
 10
-75.221644295302013
 20
-216.90000000000001
 30
0.0
 11
-61.000000000000021
 21
-216.90000000000001
 31
0.0
  0
LINE
  5
78B
  8
DATA
  6
CONTINUOUS
 62
     7
 10
-74.925671140939599
 20
-213.30000000000001
 30
0.0
 11
-61.000000000000021
 21
-213.30000000000001
 31
0.0
  0
LINE
  5
78C
  8
DATA
  6
CONTINUOUS
 62
     7
 10
-74.810570469798662
 20
-211.90000000000001
 30
0.0
 11
-61.000000000000021
 21
-211.90000000000001
 31
0.0
  0
LINE
  5
78D
  8
DATA
  6
CONTINUOUS
 62
     7
 10
-74.514597315436205
 20
-208.30000000000001
 30
0.0
 11
-61.000000000000021
 21
-208.30000000000001
 31
0.0
  0
LINE
  5
78E
  8
DATA
  6
CONTINUOUS
 62
     7
 10
-74.399496644295326
 20
-206.90000000000001
 30
0.0
 11
-61.000000000000021
 21
-206.90000000000001
 31
0.0
  0
LINE
  5
78F
  8
DATA
  6
CONTINUOUS
 62
     7
 10
-74.103523489932911
 20
-203.30000000000001
 30
0.0
 11
-61.000000000000021
 21
-203.30000000000001
 31
0.0
  0
LINE
  5
790
  8
DATA
  6
CONTINUOUS
 62
     7
 10
-73.988422818791946
 20
-201.90000000000009
 30
0.0
 11
-61.000000000000021
 21
-201.90000000000009
 31
0.0
  0
LINE
  5
791
  8
DATA
  6
CONTINUOUS
 62
     7
 10
-73.692449664429546
 20
-198.30000000000001
 30
0.0
 11
-61.000000000000021
 21
-198.30000000000001
 31
0.0
  0
LINE
  5
792
  8
DATA
  6
CONTINUOUS
 62
     7
 10
-73.577348993288595
 20
-196.90000000000001
 30
0.0
 11
-61.000000000000021
 21
-196.90000000000001
 31
0.0
  0
LINE
  5
793
  8
DATA
  6
CONTINUOUS
 62
     7
 10
-73.281375838926152
 20
-193.30000000000001
 30
0.0
 11
-61.000000000000021
 21
-193.30000000000001
 31
0.0
  0
LINE
  5
794
  8
DATA
  6
CONTINUOUS
 62
     7
 10
-73.166275167785258
 20
-191.90000000000001
 30
0.0
 11
-61.000000000000021
 21
-191.90000000000001
 31
0.0
  0
LINE
  5
795
  8
DATA
  6
CONTINUOUS
 62
     7
 10
-72.870302013422815
 20
-188.30000000000001
 30
0.0
 11
-61.000000000000021
 21
-188.30000000000001
 31
0.0
  0
LINE
  5
796
  8
DATA
  6
CONTINUOUS
 62
     7
 10
-72.755201342281893
 20
-186.90000000000001
 30
0.0
 11
-61.000000000000021
 21
-186.90000000000001
 31
0.0
  0
LINE
  5
797
  8
DATA
  6
CONTINUOUS
 62
     7
 10
-72.45922818791945
 20
-183.30000000000001
 30
0.0
 11
-61.000000000000021
 21
-183.30000000000001
 31
0.0
  0
LINE
  5
798
  8
DATA
  6
CONTINUOUS
 62
     7
 10
-72.344127516778542
 20
-181.90000000000001
 30
0.0
 11
-61.000000000000021
 21
-181.90000000000001
 31
0.0
  0
LINE
  5
799
  8
DATA
  6
CONTINUOUS
 62
     7
 10
-72.048154362416085
 20
-178.30000000000001
 30
0.0
 11
-61.000000000000021
 21
-178.30000000000001
 31
0.0
  0
LINE
  5
79A
  8
DATA
  6
CONTINUOUS
 62
     7
 10
-71.933053691275191
 20
-176.90000000000001
 30
0.0
 11
-61.000000000000021
 21
-176.90000000000001
 31
0.0
  0
LINE
  5
79B
  8
DATA
  6
CONTINUOUS
 62
     7
 10
-71.637080536912762
 20
-173.30000000000001
 30
0.0
 11
-61.000000000000021
 21
-173.30000000000001
 31
0.0
  0
LINE
  5
79C
  8
DATA
  6
CONTINUOUS
 62
     7
 10
-71.521979865771826
 20
-171.90000000000001
 30
0.0
 11
-61.000000000000021
 21
-171.90000000000001
 31
0.0
  0
LINE
  5
79D
  8
DATA
  6
CONTINUOUS
 62
     7
 10
-71.226006711409411
 20
-168.30000000000001
 30
0.0
 11
-61.000000000000021
 21
-168.30000000000001
 31
0.0
  0
LINE
  5
79E
  8
DATA
  6
CONTINUOUS
 62
     7
 10
-71.110906040268446
 20
-166.90000000000001
 30
0.0
 11
-61.000000000000021
 21
-166.90000000000001
 31
0.0
  0
LINE
  5
79F
  8
DATA
  6
CONTINUOUS
 62
     7
 10
-70.814932885906032
 20
-163.30000000000001
 30
0.0
 11
-61.000000000000021
 21
-163.30000000000001
 31
0.0
  0
LINE
  5
7A0
  8
DATA
  6
CONTINUOUS
 62
     7
 10
-70.699832214765124
 20
-161.90000000000001
 30
0.0
 11
-61.000000000000021
 21
-161.90000000000001
 31
0.0
  0
LINE
  5
7A1
  8
DATA
  6
CONTINUOUS
 62
     7
 10
-70.403859060402695
 20
-158.30000000000001
 30
0.0
 11
-61.000000000000021
 21
-158.30000000000001
 31
0.0
  0
LINE
  5
7A2
  8
DATA
  6
CONTINUOUS
 62
     7
 10
-70.288758389261744
 20
-156.90000000000001
 30
0.0
 11
-61.000000000000021
 21
-156.90000000000001
 31
0.0
  0
LINE
  5
7A3
  8
DATA
  6
CONTINUOUS
 62
     7
 10
-69.99278523489933
 20
-153.30000000000001
 30
0.0
 11
-61.000000000000021
 21
-153.30000000000001
 31
0.0
  0
LINE
  5
7A4
  8
DATA
  6
CONTINUOUS
 62
     7
 10
-69.877684563758393
 20
-151.90000000000001
 30
0.0
 11
-61.000000000000021
 21
-151.90000000000001
 31
0.0
  0
LINE
  5
7A5
  8
DATA
  6
CONTINUOUS
 62
     7
 10
-69.581711409395965
 20
-148.30000000000001
 30
0.0
 11
-61.000000000000021
 21
-148.30000000000001
 31
0.0
  0
LINE
  5
7A6
  8
DATA
  6
CONTINUOUS
 62
     7
 10
-69.466610738255056
 20
-146.90000000000001
 30
0.0
 11
-61.000000000000021
 21
-146.90000000000001
 31
0.0
  0
LINE
  5
7A7
  8
DATA
  6
CONTINUOUS
 62
     7
 10
-69.170637583892628
 20
-143.30000000000001
 30
0.0
 11
-61.000000000000021
 21
-143.30000000000001
 31
0.0
  0
LINE
  5
7A8
  8
DATA
  6
CONTINUOUS
 62
     7
 10
-69.055536912751691
 20
-141.90000000000001
 30
0.0
 11
-61.000000000000021
 21
-141.90000000000001
 31
0.0
  0
LINE
  5
7A9
  8
DATA
  6
CONTINUOUS
 62
     7
 10
-68.759563758389234
 20
-138.30000000000001
 30
0.0
 11
-61.000000000000021
 21
-138.30000000000001
 31
0.0
  0
LINE
  5
7AA
  8
DATA
  6
CONTINUOUS
 62
     7
 10
-68.644463087248326
 20
-136.90000000000001
 30
0.0
 11
-61.000000000000021
 21
-136.90000000000001
 31
0.0
  0
LINE
  5
7AB
  8
DATA
  6
CONTINUOUS
 62
     7
 10
-68.348489932885897
 20
-133.30000000000001
 30
0.0
 11
-61.000000000000021
 21
-133.30000000000001
 31
0.0
  0
LINE
  5
7AC
  8
DATA
  6
CONTINUOUS
 62
     7
 10
-68.233389261744975
 20
-131.90000000000001
 30
0.0
 11
-61.000000000000021
 21
-131.90000000000001
 31
0.0
  0
LINE
  5
7AD
  8
DATA
  6
CONTINUOUS
 62
     7
 10
-67.93741610738256
 20
-128.30000000000001
 30
0.0
 11
-61.000000000000021
 21
-128.30000000000001
 31
0.0
  0
LINE
  5
7AE
  8
DATA
  6
CONTINUOUS
 62
     7
 10
-67.822315436241624
 20
-126.90000000000001
 30
0.0
 11
-61.000000000000021
 21
-126.90000000000001
 31
0.0
  0
LINE
  5
7AF
  8
DATA
  6
CONTINUOUS
 62
     7
 10
-67.526342281879209
 20
-123.3
 30
0.0
 11
-61.000000000000021
 21
-123.3
 31
0.0
  0
LINE
  5
7B0
  8
DATA
  6
CONTINUOUS
 62
     7
 10
-67.411241610738259
 20
-121.90000000000001
 30
0.0
 11
-61.000000000000021
 21
-121.90000000000001
 31
0.0
  0
LINE
  5
7B1
  8
DATA
  6
CONTINUOUS
 62
     7
 10
-67.11526845637583
 20
-118.3
 30
0.0
 11
-61.000000000000021
 21
-118.3
 31
0.0
  0
LINE
  5
7B2
  8
DATA
  6
CONTINUOUS
 62
     7
 10
-67.000167785234922
 20
-116.90000000000001
 30
0.0
 11
-61.000000000000021
 21
-116.90000000000001
 31
0.0
  0
LINE
  5
7B3
  8
DATA
  6
CONTINUOUS
 62
     7
 10
-66.704194630872493
 20
-113.3
 30
0.0
 11
-61.000000000000021
 21
-113.3
 31
0.0
  0
LINE
  5
7B4
  8
DATA
  6
CONTINUOUS
 62
     7
 10
-66.589093959731557
 20
-111.90000000000001
 30
0.0
 11
-61.000000000000021
 21
-111.90000000000001
 31
0.0
  0
LINE
  5
7B5
  8
DATA
  6
CONTINUOUS
 62
     7
 10
-66.293120805369114
 20
-108.3
 30
0.0
 11
-61.000000000000021
 21
-108.3
 31
0.0
  0
LINE
  5
7B6
  8
DATA
  6
CONTINUOUS
 62
     7
 10
-66.178020134228191
 20
-106.90000000000001
 30
0.0
 11
-61.000000000000021
 21
-106.90000000000001
 31
0.0
  0
LINE
  5
7B7
  8
DATA
  6
CONTINUOUS
 62
     7
 10
-65.882046979865763
 20
-103.3
 30
0.0
 11
-61.000000000000021
 21
-103.3
 31
0.0
  0
LINE
  5
7B8
  8
DATA
  6
CONTINUOUS
 62
     7
 10
-65.766946308724854
 20
-101.90000000000001
 30
0.0
 11
-61.000000000000021
 21
-101.90000000000001
 31
0.0
  0
LINE
  5
7B9
  8
DATA
  6
CONTINUOUS
 62
     7
 10
-65.470973154362426
 20
-98.299999999999997
 30
0.0
 11
-61.000000000000021
 21
-98.299999999999997
 31
0.0
  0
LINE
  5
7BA
  8
DATA
  6
CONTINUOUS
 62
     7
 10
-65.355872483221489
 20
-96.900000000000034
 30
0.0
 11
-61.000000000000021
 21
-96.900000000000034
 31
0.0
  0
LINE
  5
7BB
  8
DATA
  6
CONTINUOUS
 62
     7
 10
-65.059899328859061
 20
-93.299999999999997
 30
0.0
 11
-61.000000000000021
 21
-93.299999999999997
 31
0.0
  0
LINE
  5
7BC
  8
DATA
  6
CONTINUOUS
 62
     7
 10
-64.944798657718138
 20
-91.900000000000034
 30
0.0
 11
-61.000000000000021
 21
-91.900000000000034
 31
0.0
  0
LINE
  5
7BD
  8
DATA
  6
CONTINUOUS
 62
     7
 10
-64.64882550335571
 20
-88.300000000000026
 30
0.0
 11
-61.000000000000021
 21
-88.300000000000026
 31
0.0
  0
LINE
  5
7BE
  8
DATA
  6
CONTINUOUS
 62
     7
 10
-64.533724832214773
 20
-86.900000000000034
 30
0.0
 11
-61.000000000000021
 21
-86.900000000000034
 31
0.0
  0
LINE
  5
7BF
  8
DATA
  6
CONTINUOUS
 62
     7
 10
-64.237751677852359
 20
-83.300000000000026
 30
0.0
 11
-61.000000000000021
 21
-83.300000000000026
 31
0.0
  0
LINE
  5
7C0
  8
DATA
  6
CONTINUOUS
 62
     7
 10
-64.122651006711422
 20
-81.900000000000034
 30
0.0
 11
-61.000000000000021
 21
-81.900000000000034
 31
0.0
  0
LINE
  5
7C1
  8
DATA
  6
CONTINUOUS
 62
     7
 10
-63.826677852348993
 20
-78.300000000000026
 30
0.0
 11
-61.000000000000021
 21
-78.300000000000026
 31
0.0
  0
LINE
  5
7C2
  8
DATA
  6
CONTINUOUS
 62
     7
 10
-63.711577181208057
 20
-76.900000000000034
 30
0.0
 11
-61.000000000000021
 21
-76.900000000000034
 31
0.0
  0
LINE
  5
7C3
  8
DATA
  6
CONTINUOUS
 62
     7
 10
-63.415604026845607
 20
-73.300000000000026
 30
0.0
 11
-61.000000000000021
 21
-73.300000000000026
 31
0.0
  0
LINE
  5
7C4
  8
DATA
  6
CONTINUOUS
 62
     7
 10
-63.30050335570472
 20
-71.900000000000034
 30
0.0
 11
-61.000000000000021
 21
-71.900000000000034
 31
0.0
  0
LINE
  5
7C5
  8
DATA
  6
CONTINUOUS
 62
     7
 10
-63.004530201342277
 20
-68.300000000000011
 30
0.0
 11
-61.000000000000021
 21
-68.300000000000011
 31
0.0
  0
LINE
  5
7C6
  8
DATA
  6
CONTINUOUS
 62
     7
 10
-62.889429530201362
 20
-66.900000000000034
 30
0.0
 11
-61.000000000000021
 21
-66.900000000000034
 31
0.0
  0
LINE
  5
7C7
  8
DATA
  6
CONTINUOUS
 62
     7
 10
-62.593456375838919
 20
-63.300000000000011
 30
0.0
 11
-61.000000000000021
 21
-63.300000000000011
 31
0.0
  0
LINE
  5
7C8
  8
DATA
  6
CONTINUOUS
 62
     7
 10
-62.478355704697989
 20
-61.900000000000027
 30
0.0
 11
-61.000000000000021
 21
-61.900000000000027
 31
0.0
  0
LINE
  5
7C9
  8
DATA
  6
CONTINUOUS
 62
     7
 10
-62.182382550335561
 20
-58.300000000000011
 30
0.0
 11
-61.000000000000021
 21
-58.300000000000011
 31
0.0
  0
LINE
  5
7CA
  8
DATA
  6
CONTINUOUS
 62
     7
 10
-62.067281879194653
 20
-56.900000000000027
 30
0.0
 11
-61.000000000000021
 21
-56.900000000000027
 31
0.0
  0
LINE
  5
7CB
  8
DATA
  6
CONTINUOUS
 62
     7
 10
-61.77130872483221
 20
-53.300000000000011
 30
0.0
 11
-61.000000000000021
 21
-53.300000000000011
 31
0.0
  0
LINE
  5
7CC
  8
DATA
  6
CONTINUOUS
 62
     7
 10
-61.656208053691302
 20
-51.900000000000027
 30
0.0
 11
-61.000000000000021
 21
-51.900000000000027
 31
0.0
  0
LINE
  5
7CD
  8
DATA
  6
CONTINUOUS
 62
     7
 10
-62.000000000000021
 20
-352.5
 30
0.0
 11
138.0
 21
-352.5
 31
0.0
  0
LINE
  5
7CE
  8
DATA
  6
CONTINUOUS
 62
     7
 10
138.0
 20
-350.0
 30
0.0
 11
138.0
 21
-352.5
 31
0.0
  0
LINE
  5
7CF
  8
DATA
  6
CONTINUOUS
 62
     7
 10
-62.000000000000021
 20
-350.0
 30
0.0
 11
-62.000000000000021
 21
-352.5
 31
0.0
  0
LINE
  5
7D0
  8
DATA
  6
CONTINUOUS
 62
     7
 10
-391.80000000000001
 20
-50.0
 30
0.0
 11
-357.0
 21
-50.0
 31
0.0
  0
ARC
  5
7D1
  8
DATA
  6
CONTINUOUS
 62
     7
 10
-346.7594294890585
 20
-25.11037901516022
 30
0.0
 40
37.070110330266388
 50
224.57744756331641
 51
252.235842155716
  0
ARC
  5
7D2
  8
DATA
  6
CONTINUOUS
 62
     7
 10
-215.2405705109415
 20
-25.11037901516022
 30
0.0
 40
37.070110330266409
 50
287.764157844284
 51
315.42255243668382
  0
ARC
  5
7D3
  8
DATA
  6
CONTINUOUS
 62
     7
 10
-6.8957393925699071
 20
-328.26789455120621
 30
0.0
 40
283.5747633595862
 50
101.10203625759149
 51
109.1670507001536
  0
ARC
  5
7D4
  8
DATA
  6
CONTINUOUS
 62
     7
 10
-281.0
 20
351.98544044031502
 30
0.0
 40
301.98544044031502
 50
255.21400984530581
 51
284.78599015469422
  0
ARC
  5
7D5
  8
DATA
  6
CONTINUOUS
 62
     7
 10
-317.92296396701119
 20
103.1279504757879
 30
0.0
 40
58.921685120447819
 50
194.37462493946981
 51
227.05043783128281
  0
ARC
  5
7D6
  8
DATA
  6
CONTINUOUS
 62
     7
 10
-244.07703603298879
 20
103.1279504757879
 30
0.0
 40
58.921685120447833
 50
312.94956216871719
 51
345.62537506053019
  0
LINE
  5
7D7
  8
DATA
  6
CONTINUOUS
 62
     7
 10
-375.0
 20
50.0
 30
0.0
 11
-187.0
 21
50.0
 31
0.0
  0
LINE
  5
7D8
  8
DATA
  6
CONTINUOUS
 62
     7
 10
-318.78571428571428
 20
293.0
 30
0.0
 11
-318.07622644649291
 21
302.93282974909931
 31
0.0
  0
LINE
  5
7D9
  8
DATA
  6
CONTINUOUS
 62
     7
 10
-303.21428571428572
 20
293.0
 30
0.0
 11
-303.92377355353761
 21
302.93282974952581
 31
0.0
  0
ARC
  5
7DA
  8
DATA
  6
CONTINUOUS
 62
     7
 10
-310.99999999999989
 20
280.0057811599354
 30
0.0
 40
23.994218840064601
 50
72.84763100839038
 51
107.152368991861
  0
LINE
  5
7DB
  8
DATA
  6
CONTINUOUS
 62
     7
 10
-345.5
 20
293.0
 30
0.0
 11
-216.5
 21
293.0
 31
0.0
  0
ARC
  5
7DC
  8
DATA
  6
CONTINUOUS
 62
     7
 10
-345.5
 20
290.0
 30
0.0
 40
3.0
 50
90.0
 51
180.0
  0
ARC
  5
7DD
  8
DATA
  6
CONTINUOUS
 62
     7
 10
-216.5
 20
290.0
 30
0.0
 40
3.0
 50
0.0
 51
90.0
  0
LINE
  5
7DE
  8
DATA
  6
CONTINUOUS
 62
     7
 10
-375.0
 20
-724.99999999974204
 30
0.0
 11
-187.0
 21
-724.99999999974204
 31
0.0
  0
LINE
  5
7DF
  8
DATA
  6
CONTINUOUS
 62
     7
 10
-187.0
 20
-490.64629882850289
 30
0.0
 11
-187.0
 21
-724.99999999974204
 31
0.0
  0
LINE
  5
7E0
  8
DATA
  6
CONTINUOUS
 62
     7
 10
-375.0
 20
-724.99999999974204
 30
0.0
 11
-375.0
 21
-490.64629882850289
 31
0.0
  0
LINE
  5
7E1
  8
DATA
  6
CONTINUOUS
 62
     7
 10
-375.0
 20
-523.99999999974204
 30
0.0
 11
-187.0
 21
-523.99999999974204
 31
0.0
  0
LINE
  5
7E2
  8
DATA
  6
CONTINUOUS
 62
     7
 10
-375.0
 20
-523.49999999974204
 30
0.0
 11
-187.0
 21
-523.49999999974204
 31
0.0
  0
LINE
  5
7E3
  8
DATA
  6
CONTINUOUS
 62
     7
 10
-319.0
 20
-724.99999999974204
 30
0.0
 11
-318.07622644649291
 21
-737.9328297488413
 31
0.0
  0
LINE
  5
7E4
  8
DATA
  6
CONTINUOUS
 62
     7
 10
-303.00000000000011
 20
-724.99999999974204
 30
0.0
 11
-303.92377355353761
 21
-737.93282974926785
 31
0.0
  0
ARC
  5
7E5
  8
DATA
  6
CONTINUOUS
 62
     7
 10
-310.99999999999989
 20
-715.00578115967744
 30
0.0
 40
23.994218840064601
 50
252.8476310081391
 51
287.15236899160959
  0
LINE
  5
7E6
  8
DATA
  6
CONTINUOUS
 62
     7
 10
-345.5
 20
-727.99999999974204
 30
0.0
 11
-318.78571428571428
 21
-727.99999999974204
 31
0.0
  0
LINE
  5
7E7
  8
DATA
  6
CONTINUOUS
 62
     7
 10
-303.21428571428572
 20
-727.99999999974204
 30
0.0
 11
-216.5
 21
-727.99999999974204
 31
0.0
  0
ARC
  5
7E8
  8
DATA
  6
CONTINUOUS
 62
     7
 10
-345.5
 20
-724.99999999974204
 30
0.0
 40
3.0
 50
180.0
 51
270.0
  0
ARC
  5
7E9
  8
DATA
  6
CONTINUOUS
 62
     7
 10
-216.5
 20
-724.99999999974204
 30
0.0
 40
3.0
 50
270.0
 51
0.0
  0
TEXT
  5
7EA
  8
DATA
 62
     7
 10
-135.5
 20
-487.65847015504932
 30
0.0
 40
21.71788194444445
  1
1/4インチ
 41
0.7
 11
-135.5
 21
-465.94058821060491
 31
0.0
 73
     3
  0
TEXT
  5
7EB
  8
DATA
 62
     7
 10
-135.5
 20
-515.88069237727154
 30
0.0
 40
21.71788194444445
  1
マウンテング用ナット埋込
 41
0.7
 11
-135.5
 21
-494.16281043282709
 31
0.0
 73
     3
  0
CIRCLE
  5
7EC
  8
DATA
  6
CONTINUOUS
 62
     7
 10
-306.39999999999998
 20
-578.09999999974218
 30
0.0
 40
6.5
  0
CIRCLE
  5
7ED
  8
DATA
  6
CONTINUOUS
 62
     7
 10
-255.59999999999999
 20
-578.09999999974218
 30
0.0
 40
6.5
  0
CIRCLE
  5
7EE
  8
DATA
  6
CONTINUOUS
 62
     7
 10
-306.39999999999998
 20
-685.99999999974204
 30
0.0
 40
6.5
  0
CIRCLE
  5
7EF
  8
DATA
  6
CONTINUOUS
 62
     7
 10
-255.59999999999999
 20
-685.99999999974204
 30
0.0
 40
6.5
  0
LINE
  5
7F0
  8
DATA
  6
CONTINUOUS
 62
     7
 10
-309.39999999999998
 20
-685.99999999974204
 30
0.0
 11
-303.39999999999998
 21
-685.99999999974204
 31
0.0
  0
LINE
  5
7F1
  8
DATA
  6
CONTINUOUS
 62
     7
 10
-306.39999999999998
 20
-682.99999999974204
 30
0.0
 11
-306.39999999999998
 21
-688.98288450974655
 31
0.0
  0
LINE
  5
7F2
  8
DATA
  6
CONTINUOUS
 62
     7
 10
-258.60000000000002
 20
-685.99999999974204
 30
0.0
 11
-252.6016671298996
 21
-685.99999999974204
 31
0.0
  0
LINE
  5
7F3
  8
DATA
  6
CONTINUOUS
 62
     7
 10
-255.59999999999999
 20
-682.99999999974204
 30
0.0
 11
-255.59999999999999
 21
-688.99833286985347
 31
0.0
  0
LINE
  5
7F4
  8
DATA
  6
CONTINUOUS
 62
     7
 10
-258.60000000000002
 20
-578.09999999974218
 30
0.0
 11
-252.56
 21
-578.09999999974218
 31
0.0
  0
LINE
  5
7F5
  8
DATA
  6
CONTINUOUS
 62
     7
 10
-255.59999999999999
 20
-581.09999999974207
 30
0.0
 11
-255.59999999999999
 21
-575.12048661665369
 31
0.0
  0
LINE
  5
7F6
  8
DATA
  6
CONTINUOUS
 62
     7
 10
-306.39999999999998
 20
-581.09999999974207
 30
0.0
 11
-306.39999999999998
 21
-575.12048661665369
 31
0.0
  0
LINE
  5
7F7
  8
DATA
  6
CONTINUOUS
 62
     7
 10
-303.39999999999998
 20
-578.09999999974218
 30
0.0
 11
-309.4500000000001
 21
-578.09999999974218
 31
0.0
  0
LINE
  5
7F8
  8
DATA
  6
CONTINUOUS
 62
     7
 10
-365.0
 20
-722.99999999974216
 30
0.0
 11
-365.0
 21
-523.99999999974204
 31
0.0
  0
LINE
  5
7F9
  8
DATA
  6
CONTINUOUS
 62
     7
 10
-197.0
 20
-523.99999999974204
 30
0.0
 11
-197.0
 21
-722.99999999974216
 31
0.0
  0
LINE
  5
7FA
  8
DATA
  6
CONTINUOUS
 62
     7
 10
-365.0
 20
-722.99999999974216
 30
0.0
 11
-197.0
 21
-722.99999999974216
 31
0.0
  0
LINE
  5
7FB
  8
DATA
  6
CONTINUOUS
 62
     7
 10
240.0
 20
-334.0
 30
0.0
 11
240.0
 21
-66.000000000000014
 31
0.0
  0
LINE
  5
7FC
  8
DATA
  6
CONTINUOUS
 62
     7
 10
398.0
 20
-66.000000000000014
 30
0.0
 11
398.0
 21
-334.0
 31
0.0
  0
LINE
  5
7FD
  8
DATA
  6
CONTINUOUS
 62
     7
 10
397.0
 20
-335.0
 30
0.0
 11
241.0
 21
-335.0
 31
0.0
  0
LINE
  5
7FE
  8
DATA
  6
CONTINUOUS
 62
     7
 10
241.0
 20
-65.000000000000014
 30
0.0
 11
397.0
 21
-65.000000000000014
 31
0.0
  0
ARC
  5
7FF
  8
DATA
  6
CONTINUOUS
 62
     7
 10
230.0
 20
-55.000000000000021
 30
0.0
 40
5.0
 50
90.0
 51
180.0
  0
ARC
  5
800
  8
DATA
  6
CONTINUOUS
 62
     7
 10
408.0
 20
-55.000000000000021
 30
0.0
 40
5.0
 50
0.0
 51
90.0
  0
ARC
  5
801
  8
DATA
  6
CONTINUOUS
 62
     7
 10
230.0
 20
-345.0
 30
0.0
 40
5.0
 50
180.0
 51
270.0
  0
ARC
  5
802
  8
DATA
  6
CONTINUOUS
 62
     7
 10
408.0
 20
-345.0
 30
0.0
 40
5.0
 50
270.0
 51
0.0
  0
ARC
  5
803
  8
DATA
  6
CONTINUOUS
 62
     7
 10
241.0
 20
-334.0
 30
0.0
 40
1.0
 50
180.0
 51
270.0
  0
ARC
  5
804
  8
DATA
  6
CONTINUOUS
 62
     7
 10
397.0
 20
-334.0
 30
0.0
 40
1.0
 50
270.0
 51
0.0
  0
ARC
  5
805
  8
DATA
  6
CONTINUOUS
 62
     7
 10
397.0
 20
-66.000000000000014
 30
0.0
 40
1.0
 50
0.0
 51
90.0
  0
ARC
  5
806
  8
DATA
  6
CONTINUOUS
 62
     7
 10
241.0
 20
-66.000000000000014
 30
0.0
 40
1.0
 50
90.0
 51
180.0
  0
LINE
  5
807
  8
DATA
  6
CONTINUOUS
 62
     7
 10
-250.12277442478529
 20
-574.60000000000002
 30
0.0
 11
-150.0
 21
-525.0
 31
0.0
  0
LINE
  5
808
  8
DATA
  6
CONTINUOUS
 62
     7
 10
-250.12277442478529
 20
-574.60000000000002
 30
0.0
 11
-230.27691999587429
 21
-557.34826194431616
 31
0.0
  0
LINE
  5
809
  8
DATA
  6
CONTINUOUS
 62
     7
 10
-250.12277442478529
 20
-574.60000000000002
 30
0.0
 11
-224.3098913016986
 21
-569.58248379879865
 31
0.0
  0
LINE
  5
80A
  8
DATA
  6
CONTINUOUS
 62
     7
 10
-150.0
 20
-525.0
 30
0.0
 11
224.5
 21
-525.0
 31
0.0
  0
CIRCLE
  5
80B
  8
DATA
  6
CONTINUOUS
 62
     7
 10
266.25
 20
-71.0
 30
0.0
 40
3.5
  0
CIRCLE
  5
80C
  8
DATA
  6
CONTINUOUS
 62
     7
 10
371.75
 20
-71.0
 30
0.0
 40
3.5
  0
CIRCLE
  5
80D
  8
DATA
  6
CONTINUOUS
 62
     7
 10
266.25
 20
-329.0
 30
0.0
 40
3.5
  0
CIRCLE
  5
80E
  8
DATA
  6
CONTINUOUS
 62
     7
 10
371.75
 20
-329.0
 30
0.0
 40
3.5
  0
CIRCLE
  5
80F
  8
DATA
  6
CONTINUOUS
 62
     7
 10
245.5
 20
-200.0
 30
0.0
 40
3.5
  0
CIRCLE
  5
810
  8
DATA
  6
CONTINUOUS
 62
     7
 10
392.5
 20
-200.0
 30
0.0
 40
3.5
  0
CIRCLE
  5
811
  8
DATA
  6
CONTINUOUS
 62
     7
 10
245.5
 20
-100.0
 30
0.0
 40
3.5
  0
CIRCLE
  5
812
  8
DATA
  6
CONTINUOUS
 62
     7
 10
392.5
 20
-100.0
 30
0.0
 40
3.5
  0
CIRCLE
  5
813
  8
DATA
  6
CONTINUOUS
 62
     7
 10
245.5
 20
-300.0
 30
0.0
 40
3.5
  0
CIRCLE
  5
814
  8
DATA
  6
CONTINUOUS
 62
     7
 10
392.5
 20
-300.0
 30
0.0
 40
3.5
  0
LINE
  5
815
  8
DATA
  6
CONTINUOUS
 62
     7
 10
264.75
 20
-71.0
 30
0.0
 11
267.75
 21
-71.0
 31
0.0
  0
LINE
  5
816
  8
DATA
  6
CONTINUOUS
 62
     7
 10
266.25
 20
-72.5
 30
0.0
 11
266.25
 21
-69.5
 31
0.0
  0
LINE
  5
817
  8
DATA
  6
CONTINUOUS
 62
     7
 10
370.25
 20
-71.0
 30
0.0
 11
373.25
 21
-71.0
 31
0.0
  0
LINE
  5
818
  8
DATA
  6
CONTINUOUS
 62
     7
 10
371.75
 20
-72.5
 30
0.0
 11
371.75
 21
-69.5
 31
0.0
  0
LINE
  5
819
  8
DATA
  6
CONTINUOUS
 62
     7
 10
391.0
 20
-100.0
 30
0.0
 11
394.0
 21
-100.0
 31
0.0
  0
LINE
  5
81A
  8
DATA
  6
CONTINUOUS
 62
     7
 10
392.5
 20
-101.5
 30
0.0
 11
392.5
 21
-98.500000000000014
 31
0.0
  0
LINE
  5
81B
  8
DATA
  6
CONTINUOUS
 62
     7
 10
391.0
 20
-200.0
 30
0.0
 11
394.0
 21
-200.0
 31
0.0
  0
LINE
  5
81C
  8
DATA
  6
CONTINUOUS
 62
     7
 10
392.5
 20
-201.5
 30
0.0
 11
392.5
 21
-198.5
 31
0.0
  0
LINE
  5
81D
  8
DATA
  6
CONTINUOUS
 62
     7
 10
391.0
 20
-300.0
 30
0.0
 11
394.0
 21
-300.0
 31
0.0
  0
LINE
  5
81E
  8
DATA
  6
CONTINUOUS
 62
     7
 10
392.5
 20
-301.5
 30
0.0
 11
392.5
 21
-298.5
 31
0.0
  0
LINE
  5
81F
  8
DATA
  6
CONTINUOUS
 62
     7
 10
370.25
 20
-329.0
 30
0.0
 11
373.25
 21
-329.0
 31
0.0
  0
LINE
  5
820
  8
DATA
  6
CONTINUOUS
 62
     7
 10
371.75
 20
-330.5
 30
0.0
 11
371.75
 21
-327.5
 31
0.0
  0
LINE
  5
821
  8
DATA
  6
CONTINUOUS
 62
     7
 10
264.75
 20
-329.0
 30
0.0
 11
267.75
 21
-329.0
 31
0.0
  0
LINE
  5
822
  8
DATA
  6
CONTINUOUS
 62
     7
 10
266.25
 20
-330.5
 30
0.0
 11
266.25
 21
-327.5
 31
0.0
  0
LINE
  5
823
  8
DATA
  6
CONTINUOUS
 62
     7
 10
244.0
 20
-300.0
 30
0.0
 11
247.0
 21
-300.0
 31
0.0
  0
LINE
  5
824
  8
DATA
  6
CONTINUOUS
 62
     7
 10
245.5
 20
-301.5
 30
0.0
 11
245.5
 21
-298.5
 31
0.0
  0
LINE
  5
825
  8
DATA
  6
CONTINUOUS
 62
     7
 10
244.0
 20
-200.0
 30
0.0
 11
247.0
 21
-200.0
 31
0.0
  0
LINE
  5
826
  8
DATA
  6
CONTINUOUS
 62
     7
 10
245.5
 20
-201.5
 30
0.0
 11
245.5
 21
-198.5
 31
0.0
  0
LINE
  5
827
  8
DATA
  6
CONTINUOUS
 62
     7
 10
245.5
 20
-101.5
 30
0.0
 11
245.5
 21
-98.500000000000014
 31
0.0
  0
LINE
  5
828
  8
DATA
  6
CONTINUOUS
 62
     7
 10
247.0
 20
-100.0
 30
0.0
 11
244.0
 21
-100.0
 31
0.0
  0
ARC
  5
829
  8
DATA
  6
CONTINUOUS
 62
     7
 10
278.5
 20
-113.5
 30
0.0
 40
27.5
 50
90.0
 51
270.0
  0
ARC
  5
82A
  8
DATA
  6
CONTINUOUS
 62
     7
 10
359.5
 20
-113.5
 30
0.0
 40
27.5
 50
270.0
 51
90.0
  0
LINE
  5
82B
  8
DATA
  6
CONTINUOUS
 62
     7
 10
359.5
 20
-86.0
 30
0.0
 11
278.5
 21
-86.0
 31
0.0
  0
LINE
  5
82C
  8
DATA
  6
CONTINUOUS
 62
     7
 10
359.5
 20
-141.0
 30
0.0
 11
278.5
 21
-141.0
 31
0.0
  0
CIRCLE
  5
82D
  8
DATA
  6
CONTINUOUS
 62
     7
 10
291.05335752541492
 20
-233.0
 30
0.0
 40
11.0
  0
CIRCLE
  5
82E
  8
DATA
  6
CONTINUOUS
 62
     7
 10
291.05335752541492
 20
-233.0
 30
0.0
 40
7.75
  0
ARC
  5
82F
  8
DATA
  6
CONTINUOUS
 62
     7
 10
291.0533575254147
 20
-233.00000000000031
 30
0.0
 40
10.25000000000051
 50
120.48528599910139
 51
59.514714000900099
  0
CIRCLE
  5
830
  8
DATA
  6
CONTINUOUS
 62
     7
 10
291.05335752541492
 20
-237.05000000000001
 30
0.0
 40
1.3000000000000109
  0
CIRCLE
  5
831
  8
DATA
  6
CONTINUOUS
 62
     7
 10
287.00335752541417
 20
-233.0
 30
0.0
 40
1.3000000000002381
  0
CIRCLE
  5
832
  8
DATA
  6
CONTINUOUS
 62
     7
 10
295.10335752541488
 20
-233.0
 30
0.0
 40
1.3000000000000109
  0
LINE
  5
833
  8
DATA
  6
CONTINUOUS
 62
     7
 10
285.85335752541403
 20
-224.16696541385761
 30
0.0
 11
285.85335752541403
 21
-223.3067033471583
 31
0.0
  0
LINE
  5
834
  8
DATA
  6
CONTINUOUS
 62
     7
 10
296.25335752541491
 20
-223.3067033471583
 30
0.0
 11
296.25335752541491
 21
-224.16696541385761
 31
0.0
  0
ARC
  5
835
  8
DATA
  6
CONTINUOUS
 62
     7
 10
285.57327997121808
 20
-227.5199224458043
 30
0.0
 40
0.7500000000002
 50
42.226540597905213
 51
227.77345940208571
  0
CIRCLE
  5
836
  8
DATA
  6
CONTINUOUS
 62
     7
 10
281.55335752541299
 20
-221.00000000000031
 30
0.0
 40
2.5000000000004539
  0
CIRCLE
  5
837
  8
DATA
  6
CONTINUOUS
 62
     7
 10
300.55335752541458
 20
-245.0000000000002
 30
0.0
 40
2.5
  0
LINE
  5
838
  8
DATA
  6
CONTINUOUS
 62
     7
 10
281.55335752541299
 20
-222.50000000000031
 30
0.0
 11
281.55335752541299
 21
-219.5000000000002
 31
0.0
  0
LINE
  5
839
  8
DATA
  6
CONTINUOUS
 62
     7
 10
283.05335752541328
 20
-221.00000000000031
 30
0.0
 11
280.05335752541288
 21
-221.00000000000031
 31
0.0
  0
LINE
  5
83A
  8
DATA
  6
CONTINUOUS
 62
     7
 10
300.55335752541458
 20
-243.50000000000031
 30
0.0
 11
300.55335752541458
 21
-246.5000000000002
 31
0.0
  0
LINE
  5
83B
  8
DATA
  6
CONTINUOUS
 62
     7
 10
299.0533575254147
 20
-245.0000000000002
 30
0.0
 11
302.05335752541458
 21
-245.0000000000002
 31
0.0
  0
CIRCLE
  5
83C
  8
DATA
  6
CONTINUOUS
 62
     7
 10
321.0
 20
-238.0
 30
0.0
 40
2.5
  0
CIRCLE
  5
83D
  8
DATA
  6
CONTINUOUS
 62
     7
 10
321.0
 20
-238.0
 30
0.0
 40
5.0
  0
POLYLINE
  5
83E
  8
DATA
  6
CONTINUOUS
 62
     7
 66
     1
 10
0.0
 20
0.0
 30
0.0
 70
     1
  0
VERTEX
  5
FEE
  8
DATA
  6
CONTINUOUS
 62
     7
 10
312.5
 20
-238.0
 30
0.0
  0
VERTEX
  5
FEF
  8
DATA
  6
CONTINUOUS
 62
     7
 10
316.75
 20
-245.36121593216771
 30
0.0
  0
VERTEX
  5
FF0
  8
DATA
  6
CONTINUOUS
 62
     7
 10
325.25
 20
-245.36121593216771
 30
0.0
  0
VERTEX
  5
FF1
  8
DATA
  6
CONTINUOUS
 62
     7
 10
329.5
 20
-238.0
 30
0.0
  0
VERTEX
  5
FF2
  8
DATA
  6
CONTINUOUS
 62
     7
 10
325.25
 20
-230.6387840678322
 30
0.0
  0
VERTEX
  5
FF3
  8
DATA
  6
CONTINUOUS
 62
     7
 10
316.75
 20
-230.6387840678322
 30
0.0
  0
SEQEND
  5
FF4
  8
DATA
  6
CONTINUOUS
 62
     7
  0
CIRCLE
  5
847
  8
DATA
  6
CONTINUOUS
 62
     7
 10
349.0
 20
-238.0
 30
0.0
 40
4.1499999999999764
  0
CIRCLE
  5
848
  8
DATA
  6
CONTINUOUS
 62
     7
 10
349.0
 20
-238.0
 30
0.0
 40
1.649999999999977
  0
CIRCLE
  5
849
  8
DATA
  6
CONTINUOUS
 62
     7
 10
349.0
 20
-217.0
 30
0.0
 40
8.5
  0
CIRCLE
  5
84A
  8
DATA
  6
CONTINUOUS
 62
     7
 10
349.0
 20
-217.0
 30
0.0
 40
7.0
  0
LINE
  5
84B
  8
DATA
  6
CONTINUOUS
 62
     7
 10
349.0
 20
-217.0
 30
0.0
 11
344.60000000000002
 21
-222.4442630355264
 31
0.0
  0
LINE
  5
84C
  8
DATA
  6
CONTINUOUS
 62
     7
 10
276.5
 20
-295.70273319998722
 30
0.0
 11
276.5
 21
-267.70273319998722
 31
0.0
  0
ARC
  5
84D
  8
DATA
  6
CONTINUOUS
 62
     7
 10
279.0
 20
-295.70273319998722
 30
0.0
 40
2.5
 50
180.0
 51
270.0
  0
LINE
  5
84E
  8
DATA
  6
CONTINUOUS
 62
     7
 10
304.0
 20
-298.20273319998711
 30
0.0
 11
279.0
 21
-298.20273319998711
 31
0.0
  0
ARC
  5
84F
  8
DATA
  6
CONTINUOUS
 62
     7
 10
304.0
 20
-295.70273319998722
 30
0.0
 40
2.5
 50
270.0
 51
0.0
  0
LINE
  5
850
  8
DATA
  6
CONTINUOUS
 62
     7
 10
306.5
 20
-267.70273319998722
 30
0.0
 11
306.5
 21
-295.70273319998722
 31
0.0
  0
ARC
  5
851
  8
DATA
  6
CONTINUOUS
 62
     7
 10
304.0
 20
-267.70273319998722
 30
0.0
 40
2.5
 50
0.0
 51
90.0
  0
LINE
  5
852
  8
DATA
  6
CONTINUOUS
 62
     7
 10
279.0
 20
-265.20273319998711
 30
0.0
 11
304.0
 21
-265.20273319998711
 31
0.0
  0
ARC
  5
853
  8
DATA
  6
CONTINUOUS
 62
     7
 10
279.0
 20
-267.70273319998722
 30
0.0
 40
2.5
 50
90.0
 51
180.0
  0
LINE
  5
854
  8
DATA
  6
CONTINUOUS
 62
     7
 10
300.5
 20
-295.32771754822761
 30
0.0
 11
282.5
 21
-295.32771754822761
 31
0.0
  0
POLYLINE
  5
855
  8
DATA
  6
CONTINUOUS
 62
     7
 66
     1
 10
0.0
 20
0.0
 30
0.0
  0
VERTEX
  5
FF5
  8
DATA
  6
CONTINUOUS
 62
     7
 10
278.5
 20
-291.32771754822761
 30
0.0
  0
VERTEX
  5
FF6
  8
DATA
  6
CONTINUOUS
 62
     7
 10
278.5
 20
-278.3277175482275
 30
0.0
  0
VERTEX
  5
FF7
  8
DATA
  6
CONTINUOUS
 62
     7
 10
304.5
 20
-278.3277175482275
 30
0.0
  0
VERTEX
  5
FF8
  8
DATA
  6
CONTINUOUS
 62
     7
 10
304.5
 20
-291.32771754822761
 30
0.0
  0
SEQEND
  5
FF9
  8
DATA
  6
CONTINUOUS
 62
     7
  0
LINE
  5
85C
  8
DATA
  6
CONTINUOUS
 62
     7
 10
282.5
 20
-295.32771754822761
 30
0.0
 11
278.5
 21
-291.32771754822761
 31
0.0
  0
LINE
  5
85D
  8
DATA
  6
CONTINUOUS
 62
     7
 10
304.5
 20
-291.32771754822761
 30
0.0
 11
300.5
 21
-295.32771754822761
 31
0.0
  0
POLYLINE
  5
85E
  8
DATA
  6
CONTINUOUS
 62
     7
 66
     1
 10
0.0
 20
0.0
 30
0.0
 70
     1
  0
VERTEX
  5
FFA
  8
DATA
  6
CONTINUOUS
 62
     7
 10
290.5
 20
-288.17339294940678
 30
0.0
  0
VERTEX
  5
FFB
  8
DATA
  6
CONTINUOUS
 62
     7
 10
292.5
 20
-288.17339294940678
 30
0.0
  0
VERTEX
  5
FFC
  8
DATA
  6
CONTINUOUS
 62
     7
 10
292.5
 20
-293.17339294940678
 30
0.0
  0
VERTEX
  5
FFD
  8
DATA
  6
CONTINUOUS
 62
     7
 10
290.5
 20
-293.17339294940678
 30
0.0
  0
SEQEND
  5
FFE
  8
DATA
  6
CONTINUOUS
 62
     7
  0
POLYLINE
  5
865
  8
DATA
  6
CONTINUOUS
 62
     7
 66
     1
 10
0.0
 20
0.0
 30
0.0
 70
     1
  0
VERTEX
  5
FFF
  8
DATA
  6
CONTINUOUS
 62
     7
 10
284.29484777041893
 20
-280.80614453471418
 30
0.0
  0
VERTEX
  5
1000
  8
DATA
  6
CONTINUOUS
 62
     7
 10
286.29484777041893
 20
-280.80614453471418
 30
0.0
  0
VERTEX
  5
1001
  8
DATA
  6
CONTINUOUS
 62
     7
 10
286.29484777041893
 20
-285.80614453471418
 30
0.0
  0
VERTEX
  5
1002
  8
DATA
  6
CONTINUOUS
 62
     7
 10
284.29484777041893
 20
-285.80614453471418
 30
0.0
  0
SEQEND
  5
1003
  8
DATA
  6
CONTINUOUS
 62
     7
  0
POLYLINE
  5
86C
  8
DATA
  6
CONTINUOUS
 62
     7
 66
     1
 10
0.0
 20
0.0
 30
0.0
 70
     1
  0
VERTEX
  5
1004
  8
DATA
  6
CONTINUOUS
 62
     7
 10
296.70515222958107
 20
-280.80614453471418
 30
0.0
  0
VERTEX
  5
1005
  8
DATA
  6
CONTINUOUS
 62
     7
 10
298.70515222958107
 20
-280.80614453471418
 30
0.0
  0
VERTEX
  5
1006
  8
DATA
  6
CONTINUOUS
 62
     7
 10
298.70515222958107
 20
-285.80614453471418
 30
0.0
  0
VERTEX
  5
1007
  8
DATA
  6
CONTINUOUS
 62
     7
 10
296.70515222958107
 20
-285.80614453471418
 30
0.0
  0
SEQEND
  5
1008
  8
DATA
  6
CONTINUOUS
 62
     7
  0
TEXT
  5
873
  8
DATA
 62
     7
 10
284.72351867946008
 20
-263.46172644421358
 30
0.0
 40
2.823324652777778
  1
T4AL250V
 41
0.7
 11
284.72351867946008
 21
-260.6384017914358
 31
0.0
 73
     3
  0
TEXT
  5
874
  8
DATA
 62
     7
 10
287.75333333333339
 20
-302.56760474878411
 30
0.0
 40
2.823324652777778
  1
100V
 41
0.7
 11
287.75333333333339
 21
-299.74428009600632
 31
0.0
 73
     3
  0
TEXT
  5
875
  8
DATA
 62
     7
 10
281.07924137223938
 20
-307.28483371881703
 30
0.0
 40
2.823324652777778
  1
50/60Hz 150W
 41
0.7
 11
281.07924137223938
 21
-304.46150906603918
 31
0.0
 73
     3
  0
CIRCLE
  5
876
  8
DATA
  6
CONTINUOUS
 62
     7
 10
283.0
 20
-314.0
 30
0.0
 40
3.5
  0
LINE
  5
877
  8
DATA
  6
CONTINUOUS
 62
     7
 10
281.5
 20
-314.0
 30
0.0
 11
284.5
 21
-314.0
 31
0.0
  0
LINE
  5
878
  8
DATA
  6
CONTINUOUS
 62
     7
 10
283.0
 20
-315.5
 30
0.0
 11
283.0
 21
-312.5
 31
0.0
  0
CIRCLE
  5
879
  8
DATA
  6
CONTINUOUS
 62
     7
 10
355.0
 20
-314.0
 30
0.0
 40
3.5
  0
LINE
  5
87A
  8
DATA
  6
CONTINUOUS
 62
     7
 10
356.5
 20
-314.0
 30
0.0
 11
353.5
 21
-314.0
 31
0.0
  0
LINE
  5
87B
  8
DATA
  6
CONTINUOUS
 62
     7
 10
355.0
 20
-315.5
 30
0.0
 11
355.0
 21
-312.5
 31
0.0
  0
LINE
  5
87C
  8
DATA
  6
CONTINUOUS
 62
     7
 10
362.0
 20
-273.0
 30
0.0
 11
362.0
 21
-293.0
 31
0.0
  0
LINE
  5
87D
  8
DATA
  6
CONTINUOUS
 62
     7
 10
347.0
 20
-273.0
 30
0.0
 11
347.0
 21
-293.0
 31
0.0
  0
LINE
  5
87E
  8
DATA
  6
CONTINUOUS
 62
     7
 10
362.0
 20
-293.0
 30
0.0
 11
347.0
 21
-293.0
 31
0.0
  0
LINE
  5
87F
  8
DATA
  6
CONTINUOUS
 62
     7
 10
362.0
 20
-273.0
 30
0.0
 11
347.0
 21
-273.0
 31
0.0
  0
POLYLINE
  5
880
  8
DATA
  6
CONTINUOUS
 62
     7
 66
     1
 10
0.0
 20
0.0
 30
0.0
 70
     1
  0
VERTEX
  5
1009
  8
DATA
  6
CONTINUOUS
 62
     7
 10
349.5
 20
-275.5
 30
0.0
  0
VERTEX
  5
100A
  8
DATA
  6
CONTINUOUS
 62
     7
 10
359.5
 20
-275.5
 30
0.0
  0
VERTEX
  5
100B
  8
DATA
  6
CONTINUOUS
 62
     7
 10
359.5
 20
-290.5
 30
0.0
  0
VERTEX
  5
100C
  8
DATA
  6
CONTINUOUS
 62
     7
 10
349.5
 20
-290.5
 30
0.0
  0
SEQEND
  5
100D
  8
DATA
  6
CONTINUOUS
 62
     7
  0
TEXT
  5
887
  8
DATA
 62
     7
 10
364.46533320879053
 20
-277.48918102354833
 30
0.0
 40
2.823324652777778
  1
On
 41
0.7
 11
364.46533320879053
 21
-274.66585637077048
 31
0.0
 73
     3
  0
TEXT
  5
888
  8
DATA
 62
     7
 10
364.46533320879053
 20
-290.29184918472919
 30
0.0
 40
2.823324652777778
  1
Off
 41
0.7
 11
364.46533320879053
 21
-287.46852453195152
 31
0.0
 73
     3
  0
CIRCLE
  5
889
  8
DATA
  6
CONTINUOUS
 62
     7
 10
283.0
 20
-184.0
 30
0.0
 40
3.5
  0
LINE
  5
88A
  8
DATA
  6
CONTINUOUS
 62
     7
 10
281.5
 20
-184.0
 30
0.0
 11
284.5
 21
-184.0
 31
0.0
  0
LINE
  5
88B
  8
DATA
  6
CONTINUOUS
 62
     7
 10
283.0
 20
-185.5
 30
0.0
 11
283.0
 21
-182.5
 31
0.0
  0
CIRCLE
  5
88C
  8
DATA
  6
CONTINUOUS
 62
     7
 10
355.0
 20
-184.0
 30
0.0
 40
3.5
  0
LINE
  5
88D
  8
DATA
  6
CONTINUOUS
 62
     7
 10
356.5
 20
-184.0
 30
0.0
 11
353.5
 21
-184.0
 31
0.0
  0
LINE
  5
88E
  8
DATA
  6
CONTINUOUS
 62
     7
 10
355.0
 20
-185.5
 30
0.0
 11
355.0
 21
-182.5
 31
0.0
  0
LINE
  5
88F
  8
DATA
  6
CONTINUOUS
 62
     7
 10
295.26887948996858
 20
-201.0
 30
0.0
 11
287.2688794899687
 21
-201.0
 31
0.0
  0
LINE
  5
890
  8
DATA
  6
CONTINUOUS
 62
     7
 10
295.26887948996858
 20
-204.09999999999999
 30
0.0
 11
287.2688794899687
 21
-204.09999999999999
 31
0.0
  0
LINE
  5
891
  8
DATA
  6
CONTINUOUS
 62
     7
 10
287.2688794899687
 20
-204.09999999999999
 30
0.0
 11
287.2688794899687
 21
-201.0
 31
0.0
  0
LINE
  5
892
  8
DATA
  6
CONTINUOUS
 62
     7
 10
295.26887948996858
 20
-204.09999999999999
 30
0.0
 11
295.26887948996858
 21
-201.0
 31
0.0
  0
LINE
  5
893
  8
DATA
  6
CONTINUOUS
 62
     7
 10
289.84482004940401
 20
-204.09999999999999
 30
0.0
 11
289.84482004940401
 21
-201.0
 31
0.0
  0
LINE
  5
894
  8
DATA
  6
CONTINUOUS
 62
     7
 10
292.84482004940401
 20
-204.09999999999999
 30
0.0
 11
292.84482004940401
 21
-201.0
 31
0.0
  0
TEXT
  5
895
  8
DATA
 62
     7
 10
286.51213829194188
 20
-208.3576666666666
 30
0.0
 40
2.1717881944444439
  1
LF Trim
 41
0.7
 11
286.51213829194188
 21
-206.18587847222221
 31
0.0
 73
     3
  0
LINE
  5
896
  8
DATA
  6
CONTINUOUS
 62
     7
 10
325.26887948996858
 20
-201.0
 30
0.0
 11
317.26887948996858
 21
-201.0
 31
0.0
  0
LINE
  5
897
  8
DATA
  6
CONTINUOUS
 62
     7
 10
325.26887948996858
 20
-204.09999999999999
 30
0.0
 11
317.26887948996858
 21
-204.09999999999999
 31
0.0
  0
LINE
  5
898
  8
DATA
  6
CONTINUOUS
 62
     7
 10
317.26887948996858
 20
-204.09999999999999
 30
0.0
 11
317.26887948996858
 21
-201.0
 31
0.0
  0
LINE
  5
899
  8
DATA
  6
CONTINUOUS
 62
     7
 10
325.26887948996858
 20
-204.09999999999999
 30
0.0
 11
325.26887948996858
 21
-201.0
 31
0.0
  0
LINE
  5
89A
  8
DATA
  6
CONTINUOUS
 62
     7
 10
319.84482004940389
 20
-204.09999999999999
 30
0.0
 11
319.84482004940389
 21
-201.0
 31
0.0
  0
LINE
  5
89B
  8
DATA
  6
CONTINUOUS
 62
     7
 10
322.84482004940389
 20
-204.09999999999999
 30
0.0
 11
322.84482004940389
 21
-201.0
 31
0.0
  0
TEXT
  5
89C
  8
DATA
 62
     7
 10
316.51213829194188
 20
-208.3576666666666
 30
0.0
 40
2.1717881944444439
  1
HF Trim
 41
0.7
 11
316.51213829194188
 21
-206.18587847222221
 31
0.0
 73
     3
  0
TEXT
  5
89D
  8
DATA
 62
     7
 10
282.89999999999998
 20
-198.1034282978037
 30
0.0
 40
2.1717881944444439
  1
-3dB 0dB +2dB
 41
0.7
 11
282.89999999999998
 21
-195.93164010335931
 31
0.0
 73
     3
  0
TEXT
  5
89E
  8
DATA
 62
     7
 10
308.8547510302144
 20
-198.1034282978037
 30
0.0
 40
2.1717881944444439
  1
-2.5dB 0dB +2.5dB
 41
0.7
 11
308.8547510302144
 21
-195.93164010335931
 31
0.0
 73
     3
  0
TEXT
  5
89F
  8
DATA
 62
     7
 10
343.4972280366037
 20
-198.25717216812089
 30
0.0
 40
2.8934375000000001
  1
Volume
 41
0.7
 11
343.4972280366037
 21
-195.36373466812091
 31
0.0
 73
     3
  0
TEXT
  5
8A0
  8
DATA
 62
     7
 10
336.16204222308119
 20
-226.42523685313941
 30
0.0
 40
2.1717881944444439
  1
-∞
 41
0.7
 11
336.16204222308119
 21
-224.25344865869491
 31
0.0
 73
     3
  0
TEXT
  5
8A1
  8
DATA
 62
     7
 10
357.8105182651031
 20
-227.11133371345659
 30
0.0
 40
2.1717881944444439
  1
Max
 41
0.7
 11
357.8105182651031
 21
-224.93954551901211
 31
0.0
 73
     3
  0
CIRCLE
  5
8A2
  8
DATA
  6
CONTINUOUS
 62
     7
 10
349.08160354600921
 20
-229.53812919632259
 30
0.0
 40
2.5
  0
LINE
  5
8A3
  8
DATA
  6
CONTINUOUS
 62
     7
 10
349.08160354600921
 20
-228.0381291963227
 30
0.0
 11
349.08160354600921
 21
-231.03812919632259
 31
0.0
  0
LINE
  5
8A4
  8
DATA
  6
CONTINUOUS
 62
     7
 10
347.58160354600921
 20
-229.53812919632259
 30
0.0
 11
350.58160354600921
 21
-229.53812919632259
 31
0.0
  0
ARC
  5
8A5
  8
DATA
  6
CONTINUOUS
 62
     7
 10
349.00000000000011
 20
-217.00000000000011
 30
0.0
 40
11.092339699089621
 50
310.43473761558249
 51
229.56526238441629
  0
TEXT
  5
8A6
  8
DATA
 62
     7
 10
293.44324729399477
 20
-252.44121814461059
 30
0.0
 40
2.8318750000000001
  1
Balanced Input
 41
0.7
 11
293.44324729399477
 21
-249.60934314461059
 31
0.0
 73
     3
  0
TEXT
  5
8A7
  8
DATA
 62
     7
 10
333.13951938509268
 20
-252.44121814461059
 30
0.0
 40
2.8318750000000001
  1
Unbalanced Input
 41
0.7
 11
333.13951938509268
 21
-249.60934314461059
 31
0.0
 73
     3
  0
ARC
  5
8A8
  8
DATA
  6
CONTINUOUS
 62
     7
 10
280.5
 20
-113.5
 30
0.0
 40
9.0
 50
90.0
 51
258.73218995569732
  0
ARC
  5
8A9
  8
DATA
  6
CONTINUOUS
 62
     7
 10
280.5
 20
-113.5
 30
0.0
 40
9.0
 50
268.42797853535029
 51
270.0
  0
ARC
  5
8AA
  8
DATA
  6
CONTINUOUS
 62
     7
 10
357.5
 20
-113.5
 30
0.0
 40
9.0
 50
270.0
 51
90.0
  0
LINE
  5
8AB
  8
DATA
  6
CONTINUOUS
 62
     7
 10
280.5
 20
-104.5
 30
0.0
 11
358.0
 21
-104.5
 31
0.0
  0
LINE
  5
8AC
  8
DATA
  6
CONTINUOUS
 62
     7
 10
357.5
 20
-122.5
 30
0.0
 11
356.25298972664598
 21
-122.5
 31
0.0
  0
LINE
  5
8AD
  8
DATA
  6
CONTINUOUS
 62
     7
 10
354.74701027335402
 20
-122.5
 30
0.0
 11
352.25298972664598
 21
-122.5
 31
0.0
  0
LINE
  5
8AE
  8
DATA
  6
CONTINUOUS
 62
     7
 10
350.74701027335391
 20
-122.5
 30
0.0
 11
348.25298972664598
 21
-122.5
 31
0.0
  0
LINE
  5
8AF
  8
DATA
  6
CONTINUOUS
 62
     7
 10
346.74701027335402
 20
-122.5
 30
0.0
 11
344.25298972664609
 21
-122.5
 31
0.0
  0
LINE
  5
8B0
  8
DATA
  6
CONTINUOUS
 62
     7
 10
342.74701027335402
 20
-122.5
 30
0.0
 11
340.25298972664609
 21
-122.5
 31
0.0
  0
LINE
  5
8B1
  8
DATA
  6
CONTINUOUS
 62
     7
 10
338.74701027335402
 20
-122.5
 30
0.0
 11
336.25298972664609
 21
-122.5
 31
0.0
  0
LINE
  5
8B2
  8
DATA
  6
CONTINUOUS
 62
     7
 10
334.74701027335402
 20
-122.5
 30
0.0
 11
332.25298972664609
 21
-122.5
 31
0.0
  0
LINE
  5
8B3
  8
DATA
  6
CONTINUOUS
 62
     7
 10
330.74701027335402
 20
-122.5
 30
0.0
 11
328.25298972664609
 21
-122.5
 31
0.0
  0
LINE
  5
8B4
  8
DATA
  6
CONTINUOUS
 62
     7
 10
326.74701027335402
 20
-122.5
 30
0.0
 11
324.25298972664609
 21
-122.5
 31
0.0
  0
LINE
  5
8B5
  8
DATA
  6
CONTINUOUS
 62
     7
 10
322.74701027335391
 20
-122.5
 30
0.0
 11
320.25298972664609
 21
-122.5
 31
0.0
  0
LINE
  5
8B6
  8
DATA
  6
CONTINUOUS
 62
     7
 10
318.74701027335402
 20
-122.5
 30
0.0
 11
316.25298972664609
 21
-122.5
 31
0.0
  0
LINE
  5
8B7
  8
DATA
  6
CONTINUOUS
 62
     7
 10
314.74701027335402
 20
-122.5
 30
0.0
 11
312.25298972664609
 21
-122.5
 31
0.0
  0
LINE
  5
8B8
  8
DATA
  6
CONTINUOUS
 62
     7
 10
310.74701027335402
 20
-122.5
 30
0.0
 11
308.25298972664609
 21
-122.5
 31
0.0
  0
LINE
  5
8B9
  8
DATA
  6
CONTINUOUS
 62
     7
 10
306.74701027335402
 20
-122.5
 30
0.0
 11
304.25298972664609
 21
-122.5
 31
0.0
  0
LINE
  5
8BA
  8
DATA
  6
CONTINUOUS
 62
     7
 10
302.74701027335402
 20
-122.5
 30
0.0
 11
300.25298972664609
 21
-122.5
 31
0.0
  0
LINE
  5
8BB
  8
DATA
  6
CONTINUOUS
 62
     7
 10
298.74701027335402
 20
-122.5
 30
0.0
 11
296.25298972664609
 21
-122.5
 31
0.0
  0
LINE
  5
8BC
  8
DATA
  6
CONTINUOUS
 62
     7
 10
294.74701027335391
 20
-122.5
 30
0.0
 11
292.25298972664609
 21
-122.5
 31
0.0
  0
LINE
  5
8BD
  8
DATA
  6
CONTINUOUS
 62
     7
 10
290.74701027335402
 20
-122.5
 30
0.0
 11
288.25298972664609
 21
-122.5
 31
0.0
  0
LINE
  5
8BE
  8
DATA
  6
CONTINUOUS
 62
     7
 10
286.74701027335402
 20
-122.5
 30
0.0
 11
284.25298972664609
 21
-122.5
 31
0.0
  0
LINE
  5
8BF
  8
DATA
  6
CONTINUOUS
 62
     7
 10
282.74701027335402
 20
-122.5
 30
0.0
 11
280.2000000000001
 21
-122.5
 31
0.0
  0
TEXT
  5
8C0
  8
DATA
 62
     7
 10
350.4791441200648
 20
-297.45891936536572
 30
0.0
 40
2.823324652777778
  1
Power
 41
0.7
 11
350.4791441200648
 21
-294.63559471258799
 31
0.0
 73
     3
  0
ARC
  5
8C1
  8
DATA
  6
CONTINUOUS
 62
     7
 10
278.5
 20
-113.5
 30
0.0
 40
20.0
 50
90.0
 51
270.0
  0
ARC
  5
8C2
  8
DATA
  6
CONTINUOUS
 62
     7
 10
359.5
 20
-113.5
 30
0.0
 40
20.0
 50
270.0
 51
90.0
  0
LINE
  5
8C3
  8
DATA
  6
CONTINUOUS
 62
     7
 10
359.5
 20
-93.499999999999986
 30
0.0
 11
278.5
 21
-93.499999999999986
 31
0.0
  0
LINE
  5
8C4
  8
DATA
  6
CONTINUOUS
 62
     7
 10
278.5
 20
-133.5
 30
0.0
 11
359.5
 21
-133.5
 31
0.0
  0
LINE
  5
8C5
  8
DATA
  6
CONTINUOUS
 62
     7
 10
278.53842543488128
 20
-116.0
 30
0.0
 11
279.10000000000002
 21
-133.5
 31
0.0
  0
LINE
  5
8C6
  8
DATA
  6
CONTINUOUS
 62
     7
 10
280.46157456511872
 20
-116.0
 30
0.0
 11
279.89999999999998
 21
-133.5
 31
0.0
  0
LINE
  5
8C7
  8
DATA
  6
CONTINUOUS
 62
     7
 10
280.46157456511872
 20
-116.0
 30
0.0
 11
278.53842543488128
 21
-116.0
 31
0.0
  0
LINE
  5
8C8
  8
DATA
  6
CONTINUOUS
 62
     7
 10
282.53842543488128
 20
-116.0
 30
0.0
 11
283.10000000000002
 21
-133.5
 31
0.0
  0
LINE
  5
8C9
  8
DATA
  6
CONTINUOUS
 62
     7
 10
284.46157456511872
 20
-116.0
 30
0.0
 11
283.89999999999998
 21
-133.5
 31
0.0
  0
LINE
  5
8CA
  8
DATA
  6
CONTINUOUS
 62
     7
 10
284.46157456511872
 20
-116.0
 30
0.0
 11
282.53842543488128
 21
-116.0
 31
0.0
  0
LINE
  5
8CB
  8
DATA
  6
CONTINUOUS
 62
     7
 10
286.53842543488128
 20
-116.0
 30
0.0
 11
287.10000000000002
 21
-133.5
 31
0.0
  0
LINE
  5
8CC
  8
DATA
  6
CONTINUOUS
 62
     7
 10
288.46157456511872
 20
-116.0
 30
0.0
 11
287.89999999999998
 21
-133.5
 31
0.0
  0
LINE
  5
8CD
  8
DATA
  6
CONTINUOUS
 62
     7
 10
288.46157456511872
 20
-116.0
 30
0.0
 11
286.53842543488128
 21
-116.0
 31
0.0
  0
LINE
  5
8CE
  8
DATA
  6
CONTINUOUS
 62
     7
 10
290.53842543488128
 20
-116.0
 30
0.0
 11
291.10000000000008
 21
-133.5
 31
0.0
  0
LINE
  5
8CF
  8
DATA
  6
CONTINUOUS
 62
     7
 10
292.46157456511872
 20
-116.0
 30
0.0
 11
291.89999999999998
 21
-133.5
 31
0.0
  0
LINE
  5
8D0
  8
DATA
  6
CONTINUOUS
 62
     7
 10
292.46157456511872
 20
-116.0
 30
0.0
 11
290.53842543488128
 21
-116.0
 31
0.0
  0
LINE
  5
8D1
  8
DATA
  6
CONTINUOUS
 62
     7
 10
294.53842543488128
 20
-116.0
 30
0.0
 11
295.10000000000002
 21
-133.5
 31
0.0
  0
LINE
  5
8D2
  8
DATA
  6
CONTINUOUS
 62
     7
 10
296.46157456511872
 20
-116.0
 30
0.0
 11
295.89999999999992
 21
-133.5
 31
0.0
  0
LINE
  5
8D3
  8
DATA
  6
CONTINUOUS
 62
     7
 10
296.46157456511872
 20
-116.0
 30
0.0
 11
294.53842543488128
 21
-116.0
 31
0.0
  0
LINE
  5
8D4
  8
DATA
  6
CONTINUOUS
 62
     7
 10
298.53842543488128
 20
-116.0
 30
0.0
 11
299.10000000000002
 21
-133.5
 31
0.0
  0
LINE
  5
8D5
  8
DATA
  6
CONTINUOUS
 62
     7
 10
300.46157456511872
 20
-116.0
 30
0.0
 11
299.89999999999998
 21
-133.5
 31
0.0
  0
LINE
  5
8D6
  8
DATA
  6
CONTINUOUS
 62
     7
 10
300.46157456511872
 20
-116.0
 30
0.0
 11
298.53842543488128
 21
-116.0
 31
0.0
  0
LINE
  5
8D7
  8
DATA
  6
CONTINUOUS
 62
     7
 10
302.53842543488128
 20
-116.0
 30
0.0
 11
303.10000000000002
 21
-133.5
 31
0.0
  0
LINE
  5
8D8
  8
DATA
  6
CONTINUOUS
 62
     7
 10
304.46157456511872
 20
-116.0
 30
0.0
 11
303.89999999999998
 21
-133.5
 31
0.0
  0
LINE
  5
8D9
  8
DATA
  6
CONTINUOUS
 62
     7
 10
304.46157456511872
 20
-116.0
 30
0.0
 11
302.53842543488128
 21
-116.0
 31
0.0
  0
LINE
  5
8DA
  8
DATA
  6
CONTINUOUS
 62
     7
 10
306.53842543488128
 20
-116.0
 30
0.0
 11
307.10000000000002
 21
-133.5
 31
0.0
  0
LINE
  5
8DB
  8
DATA
  6
CONTINUOUS
 62
     7
 10
308.46157456511872
 20
-116.0
 30
0.0
 11
307.89999999999998
 21
-133.5
 31
0.0
  0
LINE
  5
8DC
  8
DATA
  6
CONTINUOUS
 62
     7
 10
308.46157456511872
 20
-116.0
 30
0.0
 11
306.53842543488128
 21
-116.0
 31
0.0
  0
LINE
  5
8DD
  8
DATA
  6
CONTINUOUS
 62
     7
 10
310.53842543488128
 20
-116.0
 30
0.0
 11
311.10000000000002
 21
-133.5
 31
0.0
  0
LINE
  5
8DE
  8
DATA
  6
CONTINUOUS
 62
     7
 10
312.46157456511872
 20
-116.0
 30
0.0
 11
311.89999999999998
 21
-133.5
 31
0.0
  0
LINE
  5
8DF
  8
DATA
  6
CONTINUOUS
 62
     7
 10
312.46157456511872
 20
-116.0
 30
0.0
 11
310.53842543488128
 21
-116.0
 31
0.0
  0
LINE
  5
8E0
  8
DATA
  6
CONTINUOUS
 62
     7
 10
314.53842543488128
 20
-116.0
 30
0.0
 11
315.10000000000002
 21
-133.5
 31
0.0
  0
LINE
  5
8E1
  8
DATA
  6
CONTINUOUS
 62
     7
 10
316.46157456511872
 20
-116.0
 30
0.0
 11
315.89999999999998
 21
-133.5
 31
0.0
  0
LINE
  5
8E2
  8
DATA
  6
CONTINUOUS
 62
     7
 10
316.46157456511872
 20
-116.0
 30
0.0
 11
314.53842543488128
 21
-116.0
 31
0.0
  0
LINE
  5
8E3
  8
DATA
  6
CONTINUOUS
 62
     7
 10
318.53842543488128
 20
-116.0
 30
0.0
 11
319.10000000000002
 21
-133.5
 31
0.0
  0
LINE
  5
8E4
  8
DATA
  6
CONTINUOUS
 62
     7
 10
320.46157456511872
 20
-116.0
 30
0.0
 11
319.89999999999998
 21
-133.5
 31
0.0
  0
LINE
  5
8E5
  8
DATA
  6
CONTINUOUS
 62
     7
 10
320.46157456511872
 20
-116.0
 30
0.0
 11
318.53842543488128
 21
-116.0
 31
0.0
  0
LINE
  5
8E6
  8
DATA
  6
CONTINUOUS
 62
     7
 10
322.53842543488128
 20
-116.0
 30
0.0
 11
323.10000000000002
 21
-133.5
 31
0.0
  0
LINE
  5
8E7
  8
DATA
  6
CONTINUOUS
 62
     7
 10
324.46157456511872
 20
-116.0
 30
0.0
 11
323.89999999999998
 21
-133.5
 31
0.0
  0
LINE
  5
8E8
  8
DATA
  6
CONTINUOUS
 62
     7
 10
324.46157456511872
 20
-116.0
 30
0.0
 11
322.53842543488128
 21
-116.0
 31
0.0
  0
LINE
  5
8E9
  8
DATA
  6
CONTINUOUS
 62
     7
 10
326.53842543488128
 20
-116.0
 30
0.0
 11
327.10000000000002
 21
-133.5
 31
0.0
  0
LINE
  5
8EA
  8
DATA
  6
CONTINUOUS
 62
     7
 10
328.46157456511872
 20
-116.0
 30
0.0
 11
327.89999999999998
 21
-133.5
 31
0.0
  0
LINE
  5
8EB
  8
DATA
  6
CONTINUOUS
 62
     7
 10
328.46157456511872
 20
-116.0
 30
0.0
 11
326.53842543488128
 21
-116.0
 31
0.0
  0
LINE
  5
8EC
  8
DATA
  6
CONTINUOUS
 62
     7
 10
330.53842543488128
 20
-116.0
 30
0.0
 11
331.10000000000002
 21
-133.5
 31
0.0
  0
LINE
  5
8ED
  8
DATA
  6
CONTINUOUS
 62
     7
 10
332.46157456511872
 20
-116.0
 30
0.0
 11
331.89999999999998
 21
-133.5
 31
0.0
  0
LINE
  5
8EE
  8
DATA
  6
CONTINUOUS
 62
     7
 10
332.46157456511872
 20
-116.0
 30
0.0
 11
330.53842543488128
 21
-116.0
 31
0.0
  0
LINE
  5
8EF
  8
DATA
  6
CONTINUOUS
 62
     7
 10
334.53842543488128
 20
-116.0
 30
0.0
 11
335.10000000000002
 21
-133.5
 31
0.0
  0
LINE
  5
8F0
  8
DATA
  6
CONTINUOUS
 62
     7
 10
336.46157456511872
 20
-116.0
 30
0.0
 11
335.89999999999998
 21
-133.5
 31
0.0
  0
LINE
  5
8F1
  8
DATA
  6
CONTINUOUS
 62
     7
 10
336.46157456511872
 20
-116.0
 30
0.0
 11
334.53842543488128
 21
-116.0
 31
0.0
  0
LINE
  5
8F2
  8
DATA
  6
CONTINUOUS
 62
     7
 10
338.53842543488128
 20
-116.0
 30
0.0
 11
339.10000000000002
 21
-133.5
 31
0.0
  0
LINE
  5
8F3
  8
DATA
  6
CONTINUOUS
 62
     7
 10
340.46157456511872
 20
-116.0
 30
0.0
 11
339.89999999999998
 21
-133.5
 31
0.0
  0
LINE
  5
8F4
  8
DATA
  6
CONTINUOUS
 62
     7
 10
340.46157456511872
 20
-116.0
 30
0.0
 11
338.53842543488128
 21
-116.0
 31
0.0
  0
LINE
  5
8F5
  8
DATA
  6
CONTINUOUS
 62
     7
 10
342.53842543488128
 20
-116.0
 30
0.0
 11
343.10000000000002
 21
-133.5
 31
0.0
  0
LINE
  5
8F6
  8
DATA
  6
CONTINUOUS
 62
     7
 10
344.46157456511872
 20
-116.0
 30
0.0
 11
343.89999999999998
 21
-133.5
 31
0.0
  0
LINE
  5
8F7
  8
DATA
  6
CONTINUOUS
 62
     7
 10
344.46157456511872
 20
-116.0
 30
0.0
 11
342.53842543488128
 21
-116.0
 31
0.0
  0
LINE
  5
8F8
  8
DATA
  6
CONTINUOUS
 62
     7
 10
346.53842543488128
 20
-116.0
 30
0.0
 11
347.10000000000002
 21
-133.5
 31
0.0
  0
LINE
  5
8F9
  8
DATA
  6
CONTINUOUS
 62
     7
 10
348.46157456511872
 20
-116.0
 30
0.0
 11
347.89999999999998
 21
-133.5
 31
0.0
  0
LINE
  5
8FA
  8
DATA
  6
CONTINUOUS
 62
     7
 10
348.46157456511872
 20
-116.0
 30
0.0
 11
346.53842543488128
 21
-116.0
 31
0.0
  0
LINE
  5
8FB
  8
DATA
  6
CONTINUOUS
 62
     7
 10
350.53842543488128
 20
-116.0
 30
0.0
 11
351.10000000000002
 21
-133.5
 31
0.0
  0
LINE
  5
8FC
  8
DATA
  6
CONTINUOUS
 62
     7
 10
352.46157456511872
 20
-116.0
 30
0.0
 11
351.89999999999998
 21
-133.5
 31
0.0
  0
LINE
  5
8FD
  8
DATA
  6
CONTINUOUS
 62
     7
 10
352.46157456511872
 20
-116.0
 30
0.0
 11
350.53842543488128
 21
-116.0
 31
0.0
  0
LINE
  5
8FE
  8
DATA
  6
CONTINUOUS
 62
     7
 10
354.53842543488128
 20
-116.0
 30
0.0
 11
355.10000000000002
 21
-133.5
 31
0.0
  0
LINE
  5
8FF
  8
DATA
  6
CONTINUOUS
 62
     7
 10
356.46157456511872
 20
-116.0
 30
0.0
 11
355.89999999999998
 21
-133.5
 31
0.0
  0
LINE
  5
900
  8
DATA
  6
CONTINUOUS
 62
     7
 10
356.46157456511872
 20
-116.0
 30
0.0
 11
354.53842543488128
 21
-116.0
 31
0.0
  0
LINE
  5
901
  8
DATA
  6
CONTINUOUS
 62
     7
 10
140.0
 20
-225.15675640386959
 30
0.0
 11
152.93334156767099
 21
-224.23294629189309
 31
0.0
  0
LINE
  5
902
  8
DATA
  6
CONTINUOUS
 62
     7
 10
140.0
 20
-209.1566832869307
 30
0.0
 11
152.9333415680976
 21
-210.0804933989377
 31
0.0
  0
ARC
  5
903
  8
DATA
  6
CONTINUOUS
 62
     7
 10
130.0062929785075
 20
-217.15671984540009
 30
0.0
 40
23.994218840064249
 50
342.84763100813882
 51
17.152368991609929
  0
LINE
  5
904
  8
DATA
  6
CONTINUOUS
 62
     7
 10
143.0
 20
-138.0
 30
0.0
 11
143.0
 21
-89.0
 31
0.0
  0
ARC
  5
905
  8
DATA
  6
CONTINUOUS
 62
     7
 10
140.0
 20
-89.0
 30
0.0
 40
3.0
 50
0.0
 51
90.0
  0
ARC
  5
906
  8
DATA
  6
CONTINUOUS
 62
     7
 10
140.0
 20
-138.0
 30
0.0
 40
3.0
 50
270.0
 51
0.0
  0
ARC
  5
907
  8
DATA
  6
CONTINUOUS
 62
     7
 10
137.7003246009514
 20
-285.32405116644929
 30
0.0
 40
10.08962280077928
 50
54.597247151654393
 51
76.825072412234022
  0
ARC
  5
908
  8
DATA
  6
CONTINUOUS
 62
     7
 10
150.8294803523454
 20
-285.11490928124351
 30
0.0
 40
10.83032290396417
 50
132.26488495395461
 51
180.71469048771871
  0
LINE
  5
909
  8
DATA
  6
CONTINUOUS
 62
     7
 10
142.80000000000001
 20
-230.6387840678322
 30
0.0
 11
140.0
 21
-230.6387840678322
 31
0.0
  0
LINE
  5
90A
  8
DATA
  6
CONTINUOUS
 62
     7
 10
142.80000000000001
 20
-245.36121593216771
 30
0.0
 11
140.0
 21
-245.36121593216771
 31
0.0
  0
LINE
  5
90B
  8
DATA
  6
CONTINUOUS
 62
     7
 10
150.0
 20
-243.0
 30
0.0
 11
142.80000000000001
 21
-243.0
 31
0.0
  0
LINE
  5
90C
  8
DATA
  6
CONTINUOUS
 62
     7
 10
150.0
 20
-233.0
 30
0.0
 11
142.80000000000001
 21
-233.0
 31
0.0
  0
LINE
  5
90D
  8
DATA
  6
CONTINUOUS
 62
     7
 10
150.0
 20
-233.0
 30
0.0
 11
150.0
 21
-243.0
 31
0.0
  0
LINE
  5
90E
  8
DATA
  6
CONTINUOUS
 62
     7
 10
142.80000000000001
 20
-230.6387840678322
 30
0.0
 11
142.80000000000001
 21
-245.36121593216771
 31
0.0
  0
LINE
  5
90F
  8
DATA
  6
CONTINUOUS
 62
     7
 10
142.80000000000001
 20
-237.75
 30
0.0
 11
140.0
 21
-237.75
 31
0.0
  0
LINE
  5
910
  8
DATA
  6
CONTINUOUS
 62
     7
 10
143.5
 20
-233.0
 30
0.0
 11
144.69999999999999
 21
-243.0
 31
0.0
  0
LINE
  5
911
  8
DATA
  6
CONTINUOUS
 62
     7
 10
145.5
 20
-233.0
 30
0.0
 11
146.69999999999999
 21
-243.0
 31
0.0
  0
LINE
  5
912
  8
DATA
  6
CONTINUOUS
 62
     7
 10
147.5
 20
-233.0
 30
0.0
 11
148.69999999999999
 21
-243.0
 31
0.0
  0
LINE
  5
913
  8
DATA
  6
CONTINUOUS
 62
     7
 10
149.5
 20
-233.0
 30
0.0
 11
150.0
 21
-237.16666666666671
 31
0.0
  0
ARC
  5
914
  8
DATA
  6
CONTINUOUS
 62
     7
 10
-281.0
 20
-1270.2826213598739
 30
0.0
 40
785.28262136013245
 50
83.125088204961173
 51
96.874911795038784
  0
LINE
  5
915
  8
DATA
  6
CONTINUOUS
 62
     7
 10
-363.5
 20
-523.49999999974204
 30
0.0
 11
-363.5
 21
-498.49999999974199
 31
0.0
  0
LINE
  5
916
  8
DATA
  6
CONTINUOUS
 62
     7
 10
-198.5
 20
-498.49999999974199
 30
0.0
 11
-198.5
 21
-523.49999999974204
 31
0.0
  0
LINE
  5
917
  8
DATA
  6
CONTINUOUS
 62
     7
 10
-375.0
 20
-498.49999999974199
 30
0.0
 11
-363.5
 21
-498.49999999974199
 31
0.0
  0
LINE
  5
918
  8
DATA
  6
CONTINUOUS
 62
     7
 10
-198.5
 20
-498.49999999974199
 30
0.0
 11
-187.0
 21
-498.49999999974199
 31
0.0
  0
LINE
  5
919
  8
DATA
  6
CONTINUOUS
 62
     7
 10
234.5
 20
-352.5
 30
0.0
 11
234.5
 21
-350.0
 31
0.0
  0
LINE
  5
91A
  8
DATA
  6
CONTINUOUS
 62
     7
 10
403.5
 20
-352.5
 30
0.0
 11
403.5
 21
-350.0
 31
0.0
  0
LINE
  5
91B
  8
DATA
  6
CONTINUOUS
 62
     7
 10
234.5
 20
-352.5
 30
0.0
 11
403.5
 21
-352.5
 31
0.0
  0
ARC
  5
91C
  8
DATA
  6
CONTINUOUS
 62
     7
 10
-1155.9999999999991
 20
-110.0
 30
0.0
 40
1056.4999999999991
 50
358.2371920068357
 51
1.762807993164301
  0
ARC
  5
91D
  8
DATA
  6
CONTINUOUS
 62
     7
 10
-4929.9999999999982
 20
-242.0
 30
0.0
 40
4830.4999999999982
 50
359.17561451719541
 51
0.8243854828046437
  0
CIRCLE
  5
91E
  8
DATA
  6
CONTINUOUS
 62
     7
 10
247.8686556050823
 20
348.62653559686981
 30
0.0
 40
52.800000000000011
  0
CIRCLE
  5
91F
  8
DATA
  6
CONTINUOUS
 62
     7
 10
247.8686556050823
 20
348.62653559686981
 30
0.0
 40
37.199999999999989
  0
ARC
  5
920
  8
DATA
  6
CONTINUOUS
 62
     7
 10
247.86865560508119
 20
348.62653559686868
 30
0.0
 40
49.20000000000239
 50
120.48528599910139
 51
59.514714000900099
  0
CIRCLE
  5
921
  8
DATA
  6
CONTINUOUS
 62
     7
 10
247.8686556050823
 20
329.1865355968697
 30
0.0
 40
6.2400000000000366
  0
CIRCLE
  5
922
  8
DATA
  6
CONTINUOUS
 62
     7
 10
228.42865560507931
 20
348.62653559686981
 30
0.0
 40
6.240000000001146
  0
CIRCLE
  5
923
  8
DATA
  6
CONTINUOUS
 62
     7
 10
267.30865560508238
 20
348.62653559686981
 30
0.0
 40
6.2400000000000366
  0
LINE
  5
924
  8
DATA
  6
CONTINUOUS
 62
     7
 10
222.9086556050782
 20
391.02510161035309
 30
0.0
 11
222.9086556050782
 21
395.15435953051002
 31
0.0
  0
LINE
  5
925
  8
DATA
  6
CONTINUOUS
 62
     7
 10
272.82865560508219
 20
395.15435953051002
 30
0.0
 11
272.82865560508219
 21
391.02510161035309
 31
0.0
  0
ARC
  5
926
  8
DATA
  6
CONTINUOUS
 62
     7
 10
221.56428334493799
 20
374.93090785700929
 30
0.0
 40
3.6000000000009398
 50
42.226540597905
 51
227.77345940208471
  0
CIRCLE
  5
927
  8
DATA
  6
CONTINUOUS
 62
     7
 10
202.26865560507349
 20
406.22653559686847
 30
0.0
 40
12.00000000000219
  0
CIRCLE
  5
928
  8
DATA
  6
CONTINUOUS
 62
     7
 10
293.46865560508121
 20
291.0265355968686
 30
0.0
 40
12.0
  0
LINE
  5
929
  8
DATA
  6
CONTINUOUS
 62
     7
 10
202.26865560507349
 20
399.02653559686883
 30
0.0
 11
202.26865560507349
 21
413.42653559686869
 31
0.0
  0
LINE
  5
92A
  8
DATA
  6
CONTINUOUS
 62
     7
 10
209.46865560507501
 20
406.22653559686847
 30
0.0
 11
195.06865560507319
 21
406.22653559686847
 31
0.0
  0
LINE
  5
92B
  8
DATA
  6
CONTINUOUS
 62
     7
 10
293.46865560508121
 20
298.2265355968687
 30
0.0
 11
293.46865560508121
 21
283.82653559686872
 31
0.0
  0
LINE
  5
92C
  8
DATA
  6
CONTINUOUS
 62
     7
 10
286.26865560508122
 20
291.0265355968686
 30
0.0
 11
300.6686556050812
 21
291.0265355968686
 31
0.0
  0
CIRCLE
  5
92D
  8
DATA
  6
CONTINUOUS
 62
     7
 10
391.61253948309093
 20
324.62653559686981
 30
0.0
 40
12.0
  0
CIRCLE
  5
92E
  8
DATA
  6
CONTINUOUS
 62
     7
 10
391.61253948309093
 20
324.62653559686981
 30
0.0
 40
24.0
  0
POLYLINE
  5
92F
  8
DATA
  6
CONTINUOUS
 62
     7
 66
     1
 10
0.0
 20
0.0
 30
0.0
 70
     1
  0
VERTEX
  5
100E
  8
DATA
  6
CONTINUOUS
 62
     7
 10
350.81253948309092
 20
324.62653559686981
 30
0.0
  0
VERTEX
  5
100F
  8
DATA
  6
CONTINUOUS
 62
     7
 10
371.21253948309089
 20
289.29269912246463
 30
0.0
  0
VERTEX
  5
1010
  8
DATA
  6
CONTINUOUS
 62
     7
 10
412.0125394830909
 20
289.29269912246463
 30
0.0
  0
VERTEX
  5
1011
  8
DATA
  6
CONTINUOUS
 62
     7
 10
432.41253948309082
 20
324.62653559686981
 30
0.0
  0
VERTEX
  5
1012
  8
DATA
  6
CONTINUOUS
 62
     7
 10
412.0125394830909
 20
359.96037207127489
 30
0.0
  0
VERTEX
  5
1013
  8
DATA
  6
CONTINUOUS
 62
     7
 10
371.21253948309089
 20
359.96037207127489
 30
0.0
  0
SEQEND
  5
1014
  8
DATA
  6
CONTINUOUS
 62
     7
  0
CIRCLE
  5
938
  8
DATA
  6
CONTINUOUS
 62
     7
 10
526.01253948309079
 20
324.62653559686981
 30
0.0
 40
19.919999999999838
  0
CIRCLE
  5
939
  8
DATA
  6
CONTINUOUS
 62
     7
 10
526.01253948309079
 20
324.62653559686981
 30
0.0
 40
7.9199999999998436
  0
CIRCLE
  5
93A
  8
DATA
  6
CONTINUOUS
 62
     7
 10
526.01253948309079
 20
425.4265355968696
 30
0.0
 40
40.799999999999962
  0
CIRCLE
  5
93B
  8
DATA
  6
CONTINUOUS
 62
     7
 10
526.01253948309079
 20
425.4265355968696
 30
0.0
 40
33.599999999999973
  0
LINE
  5
93C
  8
DATA
  6
CONTINUOUS
 62
     7
 10
526.01253948309079
 20
425.4265355968696
 30
0.0
 11
504.89253948309101
 21
399.29407302634291
 31
0.0
  0
LINE
  5
93D
  8
DATA
  6
CONTINUOUS
 62
     7
 10
178.0125394830909
 20
47.653416236931832
 30
0.0
 11
178.0125394830909
 21
182.0534162369317
 31
0.0
  0
ARC
  5
93E
  8
DATA
  6
CONTINUOUS
 62
     7
 10
190.0125394830909
 20
47.653416236931832
 30
0.0
 40
12.0
 50
180.0
 51
270.0
  0
LINE
  5
93F
  8
DATA
  6
CONTINUOUS
 62
     7
 10
310.0125394830909
 20
35.653416236931811
 30
0.0
 11
190.0125394830909
 21
35.653416236931811
 31
0.0
  0
ARC
  5
940
  8
DATA
  6
CONTINUOUS
 62
     7
 10
310.0125394830909
 20
47.653416236931832
 30
0.0
 40
12.000000000000011
 50
270.0
 51
0.0
  0
LINE
  5
941
  8
DATA
  6
CONTINUOUS
 62
     7
 10
322.01253948309102
 20
182.0534162369317
 30
0.0
 11
322.01253948309102
 21
47.653416236931832
 31
0.0
  0
ARC
  5
942
  8
DATA
  6
CONTINUOUS
 62
     7
 10
310.0125394830909
 20
182.0534162369317
 30
0.0
 40
12.0
 50
0.0
 51
90.0
  0
LINE
  5
943
  8
DATA
  6
CONTINUOUS
 62
     7
 10
190.0125394830909
 20
194.0534162369317
 30
0.0
 11
310.0125394830909
 21
194.0534162369317
 31
0.0
  0
ARC
  5
944
  8
DATA
  6
CONTINUOUS
 62
     7
 10
190.0125394830909
 20
182.0534162369317
 30
0.0
 40
12.000000000000011
 50
90.0
 51
180.0
  0
LINE
  5
945
  8
DATA
  6
CONTINUOUS
 62
     7
 10
293.21253948309089
 20
49.45349136537768
 30
0.0
 11
206.81253948309089
 21
49.45349136537768
 31
0.0
  0
POLYLINE
  5
946
  8
DATA
  6
CONTINUOUS
 62
     7
 66
     1
 10
0.0
 20
0.0
 30
0.0
  0
VERTEX
  5
1015
  8
DATA
  6
CONTINUOUS
 62
     7
 10
187.6125394830909
 20
68.65349136537769
 30
0.0
  0
VERTEX
  5
1016
  8
DATA
  6
CONTINUOUS
 62
     7
 10
187.6125394830909
 20
131.0534913653776
 30
0.0
  0
VERTEX
  5
1017
  8
DATA
  6
CONTINUOUS
 62
     7
 10
312.412539483091
 20
131.0534913653776
 30
0.0
  0
VERTEX
  5
1018
  8
DATA
  6
CONTINUOUS
 62
     7
 10
312.412539483091
 20
68.65349136537769
 30
0.0
  0
SEQEND
  5
1019
  8
DATA
  6
CONTINUOUS
 62
     7
  0
LINE
  5
94D
  8
DATA
  6
CONTINUOUS
 62
     7
 10
206.81253948309089
 20
49.45349136537768
 30
0.0
 11
187.6125394830909
 21
68.65349136537769
 31
0.0
  0
LINE
  5
94E
  8
DATA
  6
CONTINUOUS
 62
     7
 10
312.412539483091
 20
68.65349136537769
 30
0.0
 11
293.21253948309089
 21
49.45349136537768
 31
0.0
  0
POLYLINE
  5
94F
  8
DATA
  6
CONTINUOUS
 62
     7
 66
     1
 10
0.0
 20
0.0
 30
0.0
 70
     1
  0
VERTEX
  5
101A
  8
DATA
  6
CONTINUOUS
 62
     7
 10
245.21253948309089
 20
83.794249439717632
 30
0.0
  0
VERTEX
  5
101B
  8
DATA
  6
CONTINUOUS
 62
     7
 10
254.81253948309089
 20
83.794249439717632
 30
0.0
  0
VERTEX
  5
101C
  8
DATA
  6
CONTINUOUS
 62
     7
 10
254.81253948309089
 20
59.794249439717703
 30
0.0
  0
VERTEX
  5
101D
  8
DATA
  6
CONTINUOUS
 62
     7
 10
245.21253948309089
 20
59.794249439717703
 30
0.0
  0
SEQEND
  5
101E
  8
DATA
  6
CONTINUOUS
 62
     7
  0
POLYLINE
  5
956
  8
DATA
  6
CONTINUOUS
 62
     7
 66
     1
 10
0.0
 20
0.0
 30
0.0
 70
     1
  0
VERTEX
  5
101F
  8
DATA
  6
CONTINUOUS
 62
     7
 10
215.42780878110199
 20
119.15704183024179
 30
0.0
  0
VERTEX
  5
1020
  8
DATA
  6
CONTINUOUS
 62
     7
 10
225.0278087811021
 20
119.15704183024179
 30
0.0
  0
VERTEX
  5
1021
  8
DATA
  6
CONTINUOUS
 62
     7
 10
225.0278087811021
 20
95.157041830241781
 30
0.0
  0
VERTEX
  5
1022
  8
DATA
  6
CONTINUOUS
 62
     7
 10
215.42780878110199
 20
95.157041830241781
 30
0.0
  0
SEQEND
  5
1023
  8
DATA
  6
CONTINUOUS
 62
     7
  0
POLYLINE
  5
95D
  8
DATA
  6
CONTINUOUS
 62
     7
 66
     1
 10
0.0
 20
0.0
 30
0.0
 70
     1
  0
VERTEX
  5
1024
  8
DATA
  6
CONTINUOUS
 62
     7
 10
274.9972701850798
 20
119.15704183024179
 30
0.0
  0
VERTEX
  5
1025
  8
DATA
  6
CONTINUOUS
 62
     7
 10
284.59727018507982
 20
119.15704183024179
 30
0.0
  0
VERTEX
  5
1026
  8
DATA
  6
CONTINUOUS
 62
     7
 10
284.59727018507982
 20
95.157041830241781
 30
0.0
  0
VERTEX
  5
1027
  8
DATA
  6
CONTINUOUS
 62
     7
 10
274.9972701850798
 20
95.157041830241781
 30
0.0
  0
SEQEND
  5
1028
  8
DATA
  6
CONTINUOUS
 62
     7
  0
TEXT
  5
964
  8
DATA
 62
     7
 10
217.48542914449931
 20
202.41024866464511
 30
0.0
 40
13.55195833333333
  1
T4AL250V
 41
0.7
 11
217.48542914449931
 21
215.9622069979784
 31
0.0
 73
     3
  0
TEXT
  5
965
  8
DATA
 62
     7
 10
232.02853948309121
 20
14.702032802706871
 30
0.0
 40
13.55195833333333
  1
100V
 41
0.7
 11
232.02853948309121
 21
28.253991136040199
 31
0.0
 73
     3
  0
TEXT
  5
966
  8
DATA
 62
     7
 10
199.9928980698399
 20
-7.9406662534513419
 30
0.0
 40
13.55195833333333
  1
50/60Hz 150W
 41
0.7
 11
199.9928980698399
 21
5.6112920798819923
 31
0.0
 73
     3
  0
LINE
  5
967
  8
DATA
  6
CONTINUOUS
 62
     7
 10
588.41253948309088
 20
156.6265355968701
 30
0.0
 11
588.41253948309088
 21
60.62653559687022
 31
0.0
  0
LINE
  5
968
  8
DATA
  6
CONTINUOUS
 62
     7
 10
516.41253948309077
 20
156.6265355968701
 30
0.0
 11
516.41253948309077
 21
60.62653559687022
 31
0.0
  0
LINE
  5
969
  8
DATA
  6
CONTINUOUS
 62
     7
 10
588.41253948309088
 20
60.62653559687022
 30
0.0
 11
516.41253948309077
 21
60.62653559687022
 31
0.0
  0
LINE
  5
96A
  8
DATA
  6
CONTINUOUS
 62
     7
 10
588.41253948309088
 20
156.6265355968701
 30
0.0
 11
516.41253948309077
 21
156.6265355968701
 31
0.0
  0
POLYLINE
  5
96B
  8
DATA
  6
CONTINUOUS
 62
     7
 66
     1
 10
0.0
 20
0.0
 30
0.0
 70
     1
  0
VERTEX
  5
1029
  8
DATA
  6
CONTINUOUS
 62
     7
 10
528.41253948309077
 20
144.6265355968701
 30
0.0
  0
VERTEX
  5
102A
  8
DATA
  6
CONTINUOUS
 62
     7
 10
576.41253948309088
 20
144.6265355968701
 30
0.0
  0
VERTEX
  5
102B
  8
DATA
  6
CONTINUOUS
 62
     7
 10
576.41253948309088
 20
72.626535596870184
 30
0.0
  0
VERTEX
  5
102C
  8
DATA
  6
CONTINUOUS
 62
     7
 10
528.41253948309077
 20
72.626535596870184
 30
0.0
  0
SEQEND
  5
102D
  8
DATA
  6
CONTINUOUS
 62
     7
  0
TEXT
  5
972
  8
DATA
 62
     7
 10
600.24613888528529
 20
135.0784666838382
 30
0.0
 40
13.55195833333333
  1
On
 41
0.7
 11
600.24613888528529
 21
148.6304250171716
 31
0.0
 73
     3
  0
TEXT
  5
973
  8
DATA
 62
     7
 10
600.24613888528529
 20
73.625659510169854
 30
0.0
 40
13.55195833333333
  1
Off
 41
0.7
 11
600.24613888528529
 21
87.177617843503185
 31
0.0
 73
     3
  0
LINE
  5
974
  8
DATA
  6
CONTINUOUS
 62
     7
 10
268.1031610349404
 20
502.22653559686972
 30
0.0
 11
229.70316103494039
 21
502.22653559686972
 31
0.0
  0
LINE
  5
975
  8
DATA
  6
CONTINUOUS
 62
     7
 10
268.1031610349404
 20
487.34653559686961
 30
0.0
 11
229.70316103494039
 21
487.34653559686961
 31
0.0
  0
LINE
  5
976
  8
DATA
  6
CONTINUOUS
 62
     7
 10
229.70316103494039
 20
487.34653559686961
 30
0.0
 11
229.70316103494039
 21
502.22653559686972
 31
0.0
  0
LINE
  5
977
  8
DATA
  6
CONTINUOUS
 62
     7
 10
268.1031610349404
 20
487.34653559686961
 30
0.0
 11
268.1031610349404
 21
502.22653559686972
 31
0.0
  0
LINE
  5
978
  8
DATA
  6
CONTINUOUS
 62
     7
 10
242.06767572022989
 20
487.34653559686961
 30
0.0
 11
242.06767572022989
 21
502.22653559686972
 31
0.0
  0
LINE
  5
979
  8
DATA
  6
CONTINUOUS
 62
     7
 10
256.46767572022992
 20
487.34653559686961
 30
0.0
 11
256.46767572022992
 21
502.22653559686972
 31
0.0
  0
TEXT
  5
97A
  8
DATA
 62
     7
 10
226.07080328441199
 20
466.90973559686978
 30
0.0
 40
10.424583333333331
  1
LF Trim
 41
0.7
 11
226.07080328441199
 21
477.3343189302031
 31
0.0
 73
     3
  0
LINE
  5
97B
  8
DATA
  6
CONTINUOUS
 62
     7
 10
412.10316103494029
 20
502.22653559686972
 30
0.0
 11
373.70316103494042
 21
502.22653559686972
 31
0.0
  0
LINE
  5
97C
  8
DATA
  6
CONTINUOUS
 62
     7
 10
412.10316103494029
 20
487.34653559686961
 30
0.0
 11
373.70316103494042
 21
487.34653559686961
 31
0.0
  0
LINE
  5
97D
  8
DATA
  6
CONTINUOUS
 62
     7
 10
373.70316103494042
 20
487.34653559686961
 30
0.0
 11
373.70316103494042
 21
502.22653559686972
 31
0.0
  0
LINE
  5
97E
  8
DATA
  6
CONTINUOUS
 62
     7
 10
412.10316103494029
 20
487.34653559686961
 30
0.0
 11
412.10316103494029
 21
502.22653559686972
 31
0.0
  0
LINE
  5
97F
  8
DATA
  6
CONTINUOUS
 62
     7
 10
386.06767572022972
 20
487.34653559686961
 30
0.0
 11
386.06767572022972
 21
502.22653559686972
 31
0.0
  0
LINE
  5
980
  8
DATA
  6
CONTINUOUS
 62
     7
 10
400.46767572022981
 20
487.34653559686961
 30
0.0
 11
400.46767572022981
 21
502.22653559686972
 31
0.0
  0
TEXT
  5
981
  8
DATA
 62
     7
 10
370.07080328441191
 20
466.90973559686978
 30
0.0
 40
10.424583333333331
  1
HF Trim
 41
0.7
 11
370.07080328441191
 21
477.3343189302031
 31
0.0
 73
     3
  0
TEXT
  5
982
  8
DATA
 62
     7
 10
208.73253948309079
 20
516.13007976741164
 30
0.0
 40
10.424583333333331
  1
-3dB 0dB +2dB
 41
0.7
 11
208.73253948309079
 21
526.55466310074507
 31
0.0
 73
     3
  0
TEXT
  5
983
  8
DATA
 62
     7
 10
333.31534442812
 20
516.13007976741164
 30
0.0
 40
10.424583333333331
  1
-2.5dB 0dB +2.5dB
 41
0.7
 11
333.31534442812
 21
526.55466310074507
 31
0.0
 73
     3
  0
TEXT
  5
984
  8
DATA
 62
     7
 10
499.59923405878862
 20
515.39210918988954
 30
0.0
 40
13.888500000000001
  1
Volume
 41
0.7
 11
499.59923405878862
 21
529.28060918988945
 31
0.0
 73
     3
  0
TEXT
  5
985
  8
DATA
 62
     7
 10
464.39034215388051
 20
380.18539870180081
 30
0.0
 40
10.424583333333331
  1
-∞
 41
0.7
 11
464.39034215388051
 21
390.60998203513412
 31
0.0
 73
     3
  0
TEXT
  5
986
  8
DATA
 62
     7
 10
568.30302715558537
 20
376.8921337722781
 30
0.0
 40
10.424583333333331
  1
Max
 41
0.7
 11
568.30302715558537
 21
387.31671710561142
 31
0.0
 73
     3
  0
CIRCLE
  5
987
  8
DATA
  6
CONTINUOUS
 62
     7
 10
526.40423650393495
 20
365.243515454521
 30
0.0
 40
12.0
  0
LINE
  5
988
  8
DATA
  6
CONTINUOUS
 62
     7
 10
526.40423650393495
 20
372.4435154545211
 30
0.0
 11
526.40423650393495
 21
358.04351545452101
 31
0.0
  0
LINE
  5
989
  8
DATA
  6
CONTINUOUS
 62
     7
 10
519.20423650393514
 20
365.243515454521
 30
0.0
 11
533.60423650393489
 21
365.243515454521
 31
0.0
  0
ARC
  5
98A
  8
DATA
  6
CONTINUOUS
 62
     7
 10
526.01253948309136
 20
425.42653559686943
 30
0.0
 40
53.243230555630198
 50
310.43473761558238
 51
229.5652623844164
  0
TEXT
  5
98B
  8
DATA
 62
     7
 10
259.3401264942658
 20
255.3086885027389
 30
0.0
 40
13.593
  1
Balanced Input
 41
0.7
 11
259.3401264942658
 21
268.90168850273892
 31
0.0
 73
     3
  0
TEXT
  5
98C
  8
DATA
 62
     7
 10
449.88223253153569
 20
255.3086885027389
 30
0.0
 40
13.593
  1
Unbalanced Input
 41
0.7
 11
449.88223253153569
 21
268.90168850273892
 31
0.0
 73
     3
  0
TEXT
  5
98D
  8
DATA
 62
     7
 10
533.11243125940246
 20
39.223722643114861
 30
0.0
 40
13.55195833333333
  1
Power
 41
0.7
 11
533.11243125940246
 21
52.775680976448179
 31
0.0
 73
     3
  0
TEXT
  5
98E
  8
DATA
 62
     7
 10
240.44402046214279
 20
561.89752274971227
 30
0.0
 40
21.71788194444445
  1
コネクタパネル拡大図
 41
0.7
 11
240.44402046214279
 21
583.61540469415672
 31
0.0
 73
     3
  0
TEXT
  5
98F
  8
DATA
 62
     7
 10
-560.88850085904551
 20
-845.57239979673125
 30
0.0
 40
13.03072916666666
  1
仕様および外観は予告なく変更されることがありますので、ご了承ください。
 41
0.7
 11
-560.88850085904551
 21
-832.54167063006469
 31
0.0
 73
     3
  0
LINE
  5
990
  8
DATA
  6
CONTINUOUS
 62
     7
 10
200.0
 20
550.0
 30
0.0
 11
575.0
 21
550.0
 31
0.0
  0
ENDSEC
  0
EOF
