  0
SECTION
  2
HEADER
  9
$ACADVER
  1
AC1009
  9
$INSBASE
 10
0.0
 20
0.0
 30
0.0
  9
$EXTMIN
 10
-500.10985489947501
 20
-1452.438272791112
 30
-0.0044569222657458
  9
$EXTMAX
 10
3100.10987166328
 20
3900.1630151401669
 30
0.0000001020147522
  9
$LIMMIN
 10
0.0
 20
0.0
  9
$LIMMAX
 10
0.0
 20
0.0
  9
$ORTHOMODE
 70
     0
  9
$REGENMODE
 70
     1
  9
$FILLMODE
 70
     1
  9
$QTEXTMODE
 70
     0
  9
$MIRRTEXT
 70
     1
  9
$DRAGMODE
 70
     2
  9
$LTSCALE
 40
101.59999999999999
  9
$OSMODE
 70
   231
  9
$ATTMODE
 70
     1
  9
$TEXTSIZE
 40
0.0
  9
$TRACEWID
 40
1.0
  9
$TEXTSTYLE
  7
STANDARD
  9
$CLAYER
  8
DATA
  9
$CELTYPE
  6
CONTINUOUS
  9
$CECOLOR
 62
   256
  9
$DIMSCALE
 40
1.0
  9
$DIMASZ
 40
0.18
  9
$DIMEXO
 40
0.0625
  9
$DIMDLI
 40
0.38
  9
$DIMRND
 40
0.0
  9
$DIMDLE
 40
0.0
  9
$DIMEXE
 40
0.18
  9
$DIMTP
 40
0.0
  9
$DIMTM
 40
0.0
  9
$DIMTXT
 40
0.18
  9
$DIMCEN
 40
0.09
  9
$DIMTSZ
 40
0.0
  9
$DIMTOL
 70
     0
  9
$DIMLIM
 70
     0
  9
$DIMTIH
 70
     1
  9
$DIMTOH
 70
     1
  9
$DIMSE1
 70
     0
  9
$DIMSE2
 70
     0
  9
$DIMTAD
 70
     0
  9
$DIMZIN
 70
     0
  9
$DIMBLK
  1

  9
$DIMASO
 70
     1
  9
$DIMSHO
 70
     1
  9
$DIMPOST
  1

  9
$DIMAPOST
  1

  9
$DIMALT
 70
     0
  9
$DIMALTD
 70
     2
  9
$DIMALTF
 40
25.399999999999999
  9
$DIMLFAC
 40
1.0
  9
$DIMTOFL
 70
     0
  9
$DIMTVP
 40
0.0
  9
$DIMTIX
 70
     0
  9
$DIMSOXD
 70
     0
  9
$DIMSAH
 70
     0
  9
$DIMBLK1
  1

  9
$DIMBLK2
  1

  9
$DIMSTYLE
  2
STANDARD
  9
$DIMCLRD
 70
     0
  9
$DIMCLRE
 70
     0
  9
$DIMCLRT
 70
     0
  9
$DIMTFAC
 40
1.0
  9
$DIMGAP
 40
0.09
  9
$LUNITS
 70
     2
  9
$LUPREC
 70
     4
  9
$SKETCHINC
 40
0.1
  9
$FILLETRAD
 40
0.0
  9
$AUNITS
 70
     0
  9
$AUPREC
 70
     0
  9
$MENU
  1
acad
  9
$ELEVATION
 40
0.0
  9
$PELEVATION
 40
0.0
  9
$THICKNESS
 40
0.0
  9
$LIMCHECK
 70
     0
  9
$BLIPMODE
 70
     0
  9
$CHAMFERA
 40
0.0
  9
$CHAMFERB
 40
0.0
  9
$SKPOLY
 70
     0
  9
$TDCREATE
 40
2453685.77087963
  9
$TDUPDATE
 40
2453685.7751931129
  9
$TDINDWG
 40
0.0002771644
  9
$TDUSRTIMER
 40
0.0002771644
  9
$USRTIMER
 70
     1
  9
$ANGBASE
 50
0.0
  9
$ANGDIR
 70
     0
  9
$PDMODE
 70
     1
  9
$PDSIZE
 40
-2.0
  9
$PLINEWID
 40
0.0
  9
$COORDS
 70
     2
  9
$SPLFRAME
 70
     0
  9
$SPLINETYPE
 70
     6
  9
$SPLINESEGS
 70
     8
  9
$ATTDIA
 70
     0
  9
$ATTREQ
 70
     1
  9
$HANDLING
 70
     1
  9
$HANDSEED
  5
9C4
  9
$SURFTAB1
 70
     6
  9
$SURFTAB2
 70
     6
  9
$SURFTYPE
 70
     6
  9
$SURFU
 70
     6
  9
$SURFV
 70
     6
  9
$UCSNAME
  2

  9
$UCSORG
 10
0.0
 20
0.0
 30
0.0
  9
$UCSXDIR
 10
1.0
 20
0.0
 30
0.0
  9
$UCSYDIR
 10
0.0
 20
1.0
 30
0.0
  9
$PUCSNAME
  2

  9
$PUCSORG
 10
0.0
 20
0.0
 30
0.0
  9
$PUCSXDIR
 10
1.0
 20
0.0
 30
0.0
  9
$PUCSYDIR
 10
0.0
 20
1.0
 30
0.0
  9
$USERI1
 70
     0
  9
$USERI2
 70
     0
  9
$USERI3
 70
     0
  9
$USERI4
 70
     0
  9
$USERI5
 70
     0
  9
$USERR1
 40
0.0
  9
$USERR2
 40
0.0
  9
$USERR3
 40
0.0
  9
$USERR4
 40
0.0
  9
$USERR5
 40
0.0
  9
$WORLDVIEW
 70
     1
  9
$SHADEDGE
 70
     3
  9
$SHADEDIF
 70
    70
  9
$TILEMODE
 70
     1
  9
$MAXACTVP
 70
    64
  9
$PLIMCHECK
 70
     0
  9
$PEXTMIN
 10
1.0000000000000000E+020
 20
1.0000000000000000E+020
 30
1.0000000000000000E+020
  9
$PEXTMAX
 10
-1.0000000000000000E+020
 20
-1.0000000000000000E+020
 30
-1.0000000000000000E+020
  9
$PLIMMIN
 10
0.0
 20
0.0
  9
$PLIMMAX
 10
12.0
 20
9.0
  9
$UNITMODE
 70
     0
  9
$VISRETAIN
 70
     0
  9
$PLINEGEN
 70
     1
  9
$PSLTSCALE
 70
     0
  0
ENDSEC
  0
SECTION
  2
TABLES
  0
TABLE
  2
VPORT
 70
     2
  0
VPORT
  2
*ACTIVE
 70
     0
 10
0.0
 20
0.0
 11
1.0
 21
1.0
 12
1300.000008381902
 22
1223.8623711745261
 13
0.0
 23
0.0
 14
1.0
 24
1.0
 15
0.0
 25
0.0
 16
0.0
 26
0.0
 36
1.0
 17
0.0
 27
0.0
 37
0.0
 40
5396.8986779003644
 41
1.665745856353591
 42
50.0
 43
0.0
 44
0.0
 50
0.0
 51
0.0
 71
     0
 72
  2000
 73
     1
 74
     1
 75
     0
 76
     0
 77
     0
 78
     0
  0
ENDTAB
  0
TABLE
  2
LTYPE
 70
    12
  0
LTYPE
  2
CONTINUOUS
 70
     0
  3
Solid line
 72
    65
 73
     0
 40
0.0
  0
ENDTAB
  0
TABLE
  2
LAYER
 70
     6
  0
LAYER
  2
0
 70
     0
 62
     7
  6
CONTINUOUS
  0
LAYER
  2
DATA
 70
     0
 62
     7
  6
CONTINUOUS
  0
LAYER
  2
HIBINO-BASE
 70
     0
 62
     7
  6
CONTINUOUS
  0
LAYER
  2
SPEC
 70
     0
 62
     7
  6
CONTINUOUS
  0
LAYER
  2
PATTERN_FILL
 70
     0
 62
     7
  6
CONTINUOUS
  0
LAYER
  2
DIMNSIONS
 70
     0
 62
     7
  6
CONTINUOUS
  0
ENDTAB
  0
TABLE
  2
STYLE
 70
     2
  0
STYLE
  2
STANDARD
 70
     0
 40
0.0
 41
1.0
 50
0.0
 71
     0
 42
0.0
  3
txt
  4
BIGFONT.SHX
  0
ENDTAB
  0
TABLE
  2
VIEW
 70
     0
  0
ENDTAB
  0
TABLE
  2
UCS
 70
     0
  0
ENDTAB
  0
TABLE
  2
APPID
 70
     1
  0
APPID
  2
ACAD
 70
     0
  0
ENDTAB
  0
TABLE
  2
DIMSTYLE
 70
     1
  0
DIMSTYLE
  2
STANDARD
 70
     0
  3

  4

  5

  6

  7

 40
1.0
 41
0.18
 42
0.0625
 43
0.38
 44
0.18
 45
0.0
 46
0.0
 47
0.0
 48
0.0
140
0.18
141
0.09
142
0.0
143
25.399999999999999
144
1.0
145
0.0
146
1.0
147
0.09
 71
     0
 72
     0
 73
     1
 74
     1
 75
     0
 76
     0
 77
     0
 78
     0
170
     0
171
     2
172
     0
173
     0
174
     0
175
     0
176
     0
177
     0
178
     0
  0
ENDTAB
  0
ENDSEC
  0
SECTION
  2
BLOCKS
  0
BLOCK
  8
0
  2
$MODEL_SPACE
 70
     0
 10
0.0
 20
0.0
 30
0.0
  3
$MODEL_SPACE
  1

  0
ENDBLK
  5
966
  8
0
  0
BLOCK
 67
     1
  8
0
  2
$PAPER_SPACE
 70
     0
 10
0.0
 20
0.0
 30
0.0
  3
$PAPER_SPACE
  1

  0
ENDBLK
  5
962
 67
     1
  8
0
  0
BLOCK
  8
PATTERN_FILL
  2
____
 70
     0
 10
0.0
 20
0.0
 30
0.0
  3
____
  1

  0
CIRCLE
  5
45
  8
0
  6
CONTINUOUS
 62
     7
 10
-689.99999999999955
 20
-764.29551499999968
 30
0.0
 40
3.25
  0
CIRCLE
  5
46
  8
0
  6
CONTINUOUS
 62
     7
 10
-689.99999999999955
 20
-736.29551499999957
 30
0.0
 40
3.25
  0
CIRCLE
  5
47
  8
0
  6
CONTINUOUS
 62
     7
 10
-689.99999999999955
 20
-722.29551499999968
 30
0.0
 40
3.25
  0
CIRCLE
  5
48
  8
0
  6
CONTINUOUS
 62
     7
 10
-689.99999999999955
 20
-708.29551499999957
 30
0.0
 40
3.25
  0
CIRCLE
  5
49
  8
0
  6
CONTINUOUS
 62
     7
 10
-689.99999999999955
 20
-694.29551499999957
 30
0.0
 40
3.25
  0
CIRCLE
  5
4A
  8
0
  6
CONTINUOUS
 62
     7
 10
-689.99999999999955
 20
-680.2955149999998
 30
0.0
 40
3.25
  0
CIRCLE
  5
4B
  8
0
  6
CONTINUOUS
 62
     7
 10
-689.99999999999955
 20
-666.2955149999998
 30
0.0
 40
3.25
  0
CIRCLE
  5
4C
  8
0
  6
CONTINUOUS
 62
     7
 10
-689.99999999999955
 20
-652.29551499999968
 30
0.0
 40
3.25
  0
CIRCLE
  5
4D
  8
0
  6
CONTINUOUS
 62
     7
 10
-689.99999999999955
 20
-638.2955149999998
 30
0.0
 40
3.25
  0
CIRCLE
  5
4E
  8
0
  6
CONTINUOUS
 62
     7
 10
-689.99999999999955
 20
-624.2955149999998
 30
0.0
 40
3.25
  0
CIRCLE
  5
4F
  8
0
  6
CONTINUOUS
 62
     7
 10
-689.99999999999955
 20
-610.29551499999968
 30
0.0
 40
3.25
  0
CIRCLE
  5
50
  8
0
  6
CONTINUOUS
 62
     7
 10
-689.99999999999955
 20
-596.2955149999998
 30
0.0
 40
3.25
  0
CIRCLE
  5
51
  8
0
  6
CONTINUOUS
 62
     7
 10
-689.99999999999955
 20
-582.29551499999968
 30
0.0
 40
3.25
  0
CIRCLE
  5
52
  8
0
  6
CONTINUOUS
 62
     7
 10
-689.99999999999955
 20
-568.29551499999968
 30
0.0
 40
3.25
  0
CIRCLE
  5
53
  8
0
  6
CONTINUOUS
 62
     7
 10
-689.99999999999955
 20
-554.2955149999998
 30
0.0
 40
3.25
  0
CIRCLE
  5
54
  8
0
  6
CONTINUOUS
 62
     7
 10
-689.99999999999955
 20
-540.29551499999968
 30
0.0
 40
3.25
  0
CIRCLE
  5
55
  8
0
  6
CONTINUOUS
 62
     7
 10
-689.99999999999955
 20
-526.2955149999998
 30
0.0
 40
3.25
  0
CIRCLE
  5
56
  8
0
  6
CONTINUOUS
 62
     7
 10
-689.99999999999955
 20
-512.2955149999998
 30
0.0
 40
3.25
  0
CIRCLE
  5
57
  8
0
  6
CONTINUOUS
 62
     7
 10
-689.99999999999955
 20
-498.2955149999998
 30
0.0
 40
3.25
  0
CIRCLE
  5
58
  8
0
  6
CONTINUOUS
 62
     7
 10
-689.99999999999955
 20
-484.2955149999998
 30
0.0
 40
3.25
  0
CIRCLE
  5
59
  8
0
  6
CONTINUOUS
 62
     7
 10
-689.99999999999955
 20
-470.2955149999998
 30
0.0
 40
3.25
  0
CIRCLE
  5
5A
  8
0
  6
CONTINUOUS
 62
     7
 10
-689.99999999999955
 20
-456.2955149999998
 30
0.0
 40
3.25
  0
CIRCLE
  5
5B
  8
0
  6
CONTINUOUS
 62
     7
 10
-689.99999999999955
 20
-442.29551499999991
 30
0.0
 40
3.25
  0
CIRCLE
  5
5C
  8
0
  6
CONTINUOUS
 62
     7
 10
-689.99999999999955
 20
-428.2955149999998
 30
0.0
 40
3.25
  0
CIRCLE
  5
5D
  8
0
  6
CONTINUOUS
 62
     7
 10
-689.99999999999955
 20
-414.2955149999998
 30
0.0
 40
3.25
  0
CIRCLE
  5
5E
  8
0
  6
CONTINUOUS
 62
     7
 10
-689.99999999999955
 20
-400.2955149999998
 30
0.0
 40
3.25
  0
CIRCLE
  5
5F
  8
0
  6
CONTINUOUS
 62
     7
 10
-689.99999999999955
 20
-386.29551499999991
 30
0.0
 40
3.25
  0
CIRCLE
  5
60
  8
0
  6
CONTINUOUS
 62
     7
 10
-689.99999999999955
 20
-372.2955149999998
 30
0.0
 40
3.25
  0
CIRCLE
  5
61
  8
0
  6
CONTINUOUS
 62
     7
 10
-689.99999999999955
 20
-358.29551499999991
 30
0.0
 40
3.25
  0
CIRCLE
  5
62
  8
0
  6
CONTINUOUS
 62
     7
 10
-689.99999999999955
 20
-344.29551499999991
 30
0.0
 40
3.25
  0
CIRCLE
  5
63
  8
0
  6
CONTINUOUS
 62
     7
 10
-689.99999999999955
 20
-330.2955149999998
 30
0.0
 40
3.25
  0
CIRCLE
  5
64
  8
0
  6
CONTINUOUS
 62
     7
 10
-689.99999999999955
 20
-316.2955149999998
 30
0.0
 40
3.25
  0
CIRCLE
  5
65
  8
0
  6
CONTINUOUS
 62
     7
 10
-689.99999999999955
 20
-302.2955149999998
 30
0.0
 40
3.25
  0
CIRCLE
  5
66
  8
0
  6
CONTINUOUS
 62
     7
 10
-689.99999999999955
 20
-778.29551499999957
 30
0.0
 40
3.25
  0
CIRCLE
  5
67
  8
0
  6
CONTINUOUS
 62
     7
 10
-689.99999999999955
 20
-792.29551499999968
 30
0.0
 40
3.25
  0
CIRCLE
  5
68
  8
0
  6
CONTINUOUS
 62
     7
 10
-689.99999999999955
 20
-806.29551499999957
 30
0.0
 40
3.25
  0
CIRCLE
  5
69
  8
0
  6
CONTINUOUS
 62
     7
 10
-689.99999999999955
 20
-820.29551499999968
 30
0.0
 40
3.25
  0
CIRCLE
  5
6A
  8
0
  6
CONTINUOUS
 62
     7
 10
-689.99999999999955
 20
-834.29551499999957
 30
0.0
 40
3.25
  0
CIRCLE
  5
6B
  8
0
  6
CONTINUOUS
 62
     7
 10
-689.99999999999955
 20
-848.29551499999957
 30
0.0
 40
3.25
  0
CIRCLE
  5
6C
  8
0
  6
CONTINUOUS
 62
     7
 10
-689.99999999999955
 20
-862.29551499999968
 30
0.0
 40
3.25
  0
CIRCLE
  5
6D
  8
0
  6
CONTINUOUS
 62
     7
 10
-689.99999999999955
 20
-876.29551499999957
 30
0.0
 40
3.25
  0
CIRCLE
  5
6E
  8
0
  6
CONTINUOUS
 62
     7
 10
-689.99999999999955
 20
-890.29551499999957
 30
0.0
 40
3.25
  0
CIRCLE
  5
6F
  8
0
  6
CONTINUOUS
 62
     7
 10
-689.99999999999955
 20
-904.29551499999968
 30
0.0
 40
3.25
  0
CIRCLE
  5
70
  8
0
  6
CONTINUOUS
 62
     7
 10
-689.99999999999955
 20
-918.29551499999957
 30
0.0
 40
3.25
  0
CIRCLE
  5
71
  8
0
  6
CONTINUOUS
 62
     7
 10
-689.99999999999955
 20
-932.29551499999957
 30
0.0
 40
3.25
  0
CIRCLE
  5
72
  8
0
  6
CONTINUOUS
 62
     7
 10
-689.99999999999955
 20
-946.29551499999968
 30
0.0
 40
3.25
  0
CIRCLE
  5
73
  8
0
  6
CONTINUOUS
 62
     7
 10
-689.99999999999955
 20
-960.29551499999968
 30
0.0
 40
3.25
  0
CIRCLE
  5
74
  8
0
  6
CONTINUOUS
 62
     7
 10
-689.99999999999955
 20
-974.29551499999957
 30
0.0
 40
3.25
  0
CIRCLE
  5
75
  8
0
  6
CONTINUOUS
 62
     7
 10
-689.99999999999955
 20
-988.29551499999968
 30
0.0
 40
3.25
  0
CIRCLE
  5
76
  8
0
  6
CONTINUOUS
 62
     7
 10
-689.99999999999955
 20
-1002.295515
 30
0.0
 40
3.25
  0
CIRCLE
  5
77
  8
0
  6
CONTINUOUS
 62
     7
 10
-689.99999999999955
 20
-1016.295514999999
 30
0.0
 40
3.25
  0
CIRCLE
  5
78
  8
0
  6
CONTINUOUS
 62
     7
 10
-689.99999999999955
 20
-1030.295515
 30
0.0
 40
3.25
  0
CIRCLE
  5
79
  8
0
  6
CONTINUOUS
 62
     7
 10
-689.99999999999955
 20
-1044.2955149999991
 30
0.0
 40
3.25
  0
CIRCLE
  5
7A
  8
0
  6
CONTINUOUS
 62
     7
 10
-689.99999999999955
 20
-1058.295515
 30
0.0
 40
3.25
  0
CIRCLE
  5
7B
  8
0
  6
CONTINUOUS
 62
     7
 10
-689.99999999999955
 20
-1072.295515
 30
0.0
 40
3.25
  0
CIRCLE
  5
7C
  8
0
  6
CONTINUOUS
 62
     7
 10
-689.99999999999955
 20
-1086.2955149999991
 30
0.0
 40
3.25
  0
CIRCLE
  5
7D
  8
0
  6
CONTINUOUS
 62
     7
 10
-689.99999999999955
 20
-1100.295515
 30
0.0
 40
3.25
  0
CIRCLE
  5
7E
  8
0
  6
CONTINUOUS
 62
     7
 10
-689.99999999999955
 20
-1114.295515
 30
0.0
 40
3.25
  0
CIRCLE
  5
7F
  8
0
  6
CONTINUOUS
 62
     7
 10
-689.99999999999955
 20
-1128.295515
 30
0.0
 40
3.25
  0
CIRCLE
  5
80
  8
0
  6
CONTINUOUS
 62
     7
 10
-689.99999999999955
 20
-1142.295515
 30
0.0
 40
3.25
  0
CIRCLE
  5
81
  8
0
  6
CONTINUOUS
 62
     7
 10
-689.99999999999955
 20
-1156.295515
 30
0.0
 40
3.25
  0
CIRCLE
  5
82
  8
0
  6
CONTINUOUS
 62
     7
 10
-689.99999999999955
 20
-1170.295515
 30
0.0
 40
3.25
  0
CIRCLE
  5
83
  8
0
  6
CONTINUOUS
 62
     7
 10
-689.99999999999955
 20
-1184.295515
 30
0.0
 40
3.25
  0
CIRCLE
  5
84
  8
0
  6
CONTINUOUS
 62
     7
 10
-689.99999999999955
 20
-1198.295515
 30
0.0
 40
3.25
  0
ENDBLK
  5
85
  8
PATTERN_FILL
  0
BLOCK
  8
DATA
  2
____-1
 70
     0
 10
0.0
 20
0.0
 30
0.0
  3
____-1
  1

  0
CIRCLE
  5
87
  8
0
  6
CONTINUOUS
 62
     7
 10
-1101.5
 20
-293.69551499999972
 30
0.0
 40
3.4999999999998681
  0
LINE
  5
88
  8
0
  6
CONTINUOUS
 62
     7
 10
-1103.5
 20
-293.69551499999972
 30
0.0
 11
-1099.4999999999991
 21
-293.69551499999972
 31
0.0
  0
LINE
  5
89
  8
0
  6
CONTINUOUS
 62
     7
 10
-1101.5
 20
-291.69551499999972
 30
0.0
 11
-1101.5
 21
-295.69551499999972
 31
0.0
  0
ENDBLK
  5
8A
  8
DATA
  0
BLOCK
  8
DATA
  2
____-2
 70
     0
 10
0.0
 20
0.0
 30
0.0
  3
____-2
  1

  0
CIRCLE
  5
8C
  8
0
  6
CONTINUOUS
 62
     7
 10
-1101.5
 20
-1207.895514999999
 30
0.0
 40
3.4999999999998681
  0
LINE
  5
8D
  8
0
  6
CONTINUOUS
 62
     7
 10
-1103.5
 20
-1207.895514999999
 30
0.0
 11
-1099.4999999999991
 21
-1207.895514999999
 31
0.0
  0
LINE
  5
8E
  8
0
  6
CONTINUOUS
 62
     7
 10
-1101.5
 20
-1209.895514999999
 30
0.0
 11
-1101.5
 21
-1205.895514999999
 31
0.0
  0
ENDBLK
  5
8F
  8
DATA
  0
BLOCK
  8
DATA
  2
____-3
 70
     0
 10
0.0
 20
0.0
 30
0.0
  3
____-3
  1

  0
LINE
  5
91
  8
0
  6
CONTINUOUS
 62
     7
 10
-1272.25
 20
-1237.895514999999
 30
0.0
 11
-1234.75
 21
-1237.895514999999
 31
0.0
  0
LINE
  5
92
  8
0
  6
CONTINUOUS
 62
     7
 10
-1272.25
 20
-1237.895514999999
 30
0.0
 11
-1272.25
 21
-1232.895514999999
 31
0.0
  0
LINE
  5
93
  8
0
  6
CONTINUOUS
 62
     7
 10
-1234.75
 20
-1237.895514999999
 30
0.0
 11
-1234.75
 21
-1232.895514999999
 31
0.0
  0
ENDBLK
  5
94
  8
DATA
  0
BLOCK
  8
DATA
  2
____-4
 70
     0
 10
0.0
 20
0.0
 30
0.0
  3
____-4
  1

  0
LINE
  5
96
  8
0
  6
CONTINUOUS
 62
     7
 10
-930.74999999999966
 20
-1237.895514999999
 30
0.0
 11
-968.24999999999966
 21
-1237.895514999999
 31
0.0
  0
LINE
  5
97
  8
0
  6
CONTINUOUS
 62
     7
 10
-930.74999999999966
 20
-1237.895514999999
 30
0.0
 11
-930.74999999999966
 21
-1232.895514999999
 31
0.0
  0
LINE
  5
98
  8
0
  6
CONTINUOUS
 62
     7
 10
-968.24999999999966
 20
-1237.895514999999
 30
0.0
 11
-968.24999999999966
 21
-1232.895514999999
 31
0.0
  0
ENDBLK
  5
99
  8
DATA
  0
BLOCK
  8
DATA
  2
____-5
 70
     0
 10
0.0
 20
0.0
 30
0.0
  3
____-5
  1

  0
LINE
  5
9B
  8
0
  6
CONTINUOUS
 62
     7
 10
-1180.25
 20
-1237.895514999999
 30
0.0
 11
-1142.75
 21
-1237.895514999999
 31
0.0
  0
LINE
  5
9C
  8
0
  6
CONTINUOUS
 62
     7
 10
-1180.25
 20
-1237.895514999999
 30
0.0
 11
-1180.25
 21
-1232.895514999999
 31
0.0
  0
LINE
  5
9D
  8
0
  6
CONTINUOUS
 62
     7
 10
-1142.75
 20
-1237.895514999999
 30
0.0
 11
-1142.75
 21
-1232.895514999999
 31
0.0
  0
ENDBLK
  5
9E
  8
DATA
  0
BLOCK
  8
DATA
  2
____-6
 70
     0
 10
0.0
 20
0.0
 30
0.0
  3
____-6
  1

  0
LINE
  5
A0
  8
0
  6
CONTINUOUS
 62
     7
 10
-1022.75
 20
-1237.895514999999
 30
0.0
 11
-1060.2499999999991
 21
-1237.895514999999
 31
0.0
  0
LINE
  5
A1
  8
0
  6
CONTINUOUS
 62
     7
 10
-1022.75
 20
-1237.895514999999
 30
0.0
 11
-1022.75
 21
-1232.895514999999
 31
0.0
  0
LINE
  5
A2
  8
0
  6
CONTINUOUS
 62
     7
 10
-1060.2499999999991
 20
-1237.895514999999
 30
0.0
 11
-1060.2499999999991
 21
-1232.895514999999
 31
0.0
  0
ENDBLK
  5
A3
  8
DATA
  0
BLOCK
  8
DATA
  2
____-7
 70
     0
 10
0.0
 20
0.0
 30
0.0
  3
____-7
  1

  0
CIRCLE
  5
A5
  8
0
  6
CONTINUOUS
 62
     7
 10
-1253.5
 20
-1577.895514999999
 30
0.0
 40
18.749999999999901
  0
CIRCLE
  5
A6
  8
0
  6
CONTINUOUS
 62
     7
 10
-1253.5
 20
-1577.895514999999
 30
0.0
 40
3.9999999999999112
  0
LINE
  5
A7
  8
0
  6
CONTINUOUS
 62
     7
 10
-1256.0
 20
-1577.895514999999
 30
0.0
 11
-1251.0
 21
-1577.895514999999
 31
0.0
  0
LINE
  5
A8
  8
0
  6
CONTINUOUS
 62
     7
 10
-1253.5
 20
-1575.395514999999
 30
0.0
 11
-1253.5
 21
-1580.395514999999
 31
0.0
  0
CIRCLE
  5
A9
  8
0
  6
CONTINUOUS
 62
     7
 10
-1253.5
 20
-1577.895514999999
 30
0.0
 40
5.0000000000000089
  0
ENDBLK
  5
AA
  8
DATA
  0
BLOCK
  8
DATA
  2
____-8
 70
     0
 10
0.0
 20
0.0
 30
0.0
  3
____-8
  1

  0
CIRCLE
  5
AC
  8
0
  6
CONTINUOUS
 62
     7
 10
-1161.5
 20
-1885.8955149999999
 30
0.0
 40
18.749999999999901
  0
CIRCLE
  5
AD
  8
0
  6
CONTINUOUS
 62
     7
 10
-1161.5
 20
-1885.8955149999999
 30
0.0
 40
3.9999999999999112
  0
LINE
  5
AE
  8
0
  6
CONTINUOUS
 62
     7
 10
-1164.0
 20
-1885.8955149999999
 30
0.0
 11
-1159.0
 21
-1885.8955149999999
 31
0.0
  0
LINE
  5
AF
  8
0
  6
CONTINUOUS
 62
     7
 10
-1161.5
 20
-1883.3955149999999
 30
0.0
 11
-1161.5
 21
-1888.3955149999999
 31
0.0
  0
CIRCLE
  5
B0
  8
0
  6
CONTINUOUS
 62
     7
 10
-1161.5
 20
-1885.8955149999999
 30
0.0
 40
5.0000000000000089
  0
ENDBLK
  5
B1
  8
DATA
  0
BLOCK
  8
DATA
  2
____-9
 70
     0
 10
0.0
 20
0.0
 30
0.0
  3
____-9
  1

  0
CIRCLE
  5
B3
  8
0
  6
CONTINUOUS
 62
     7
 10
-949.49999999999966
 20
-1577.895514999999
 30
0.0
 40
18.749999999999901
  0
CIRCLE
  5
B4
  8
0
  6
CONTINUOUS
 62
     7
 10
-949.49999999999966
 20
-1577.895514999999
 30
0.0
 40
3.9999999999999112
  0
LINE
  5
B5
  8
0
  6
CONTINUOUS
 62
     7
 10
-946.99999999999966
 20
-1577.895514999999
 30
0.0
 11
-951.99999999999955
 21
-1577.895514999999
 31
0.0
  0
LINE
  5
B6
  8
0
  6
CONTINUOUS
 62
     7
 10
-949.49999999999966
 20
-1575.395514999999
 30
0.0
 11
-949.49999999999966
 21
-1580.395514999999
 31
0.0
  0
CIRCLE
  5
B7
  8
0
  6
CONTINUOUS
 62
     7
 10
-949.49999999999966
 20
-1577.895514999999
 30
0.0
 40
5.0000000000000089
  0
ENDBLK
  5
B8
  8
DATA
  0
BLOCK
  8
DATA
  2
____-10
 70
     0
 10
0.0
 20
0.0
 30
0.0
  3
____-10
  1

  0
CIRCLE
  5
BA
  8
0
  6
CONTINUOUS
 62
     7
 10
-1041.5
 20
-1885.8955149999999
 30
0.0
 40
18.749999999999901
  0
CIRCLE
  5
BB
  8
0
  6
CONTINUOUS
 62
     7
 10
-1041.5
 20
-1885.8955149999999
 30
0.0
 40
3.9999999999999112
  0
LINE
  5
BC
  8
0
  6
CONTINUOUS
 62
     7
 10
-1039.0
 20
-1885.8955149999999
 30
0.0
 11
-1044.0
 21
-1885.8955149999999
 31
0.0
  0
LINE
  5
BD
  8
0
  6
CONTINUOUS
 62
     7
 10
-1041.5
 20
-1883.3955149999999
 30
0.0
 11
-1041.5
 21
-1888.3955149999999
 31
0.0
  0
CIRCLE
  5
BE
  8
0
  6
CONTINUOUS
 62
     7
 10
-1041.5
 20
-1885.8955149999999
 30
0.0
 40
5.0000000000000089
  0
ENDBLK
  5
BF
  8
DATA
  0
BLOCK
  8
DATA
  2
____-11
 70
     0
 10
0.0
 20
0.0
 30
0.0
  3
____-11
  1

  0
LINE
  5
C1
  8
0
  6
CONTINUOUS
 62
     7
 10
-365.74999999999977
 20
-1237.895514999999
 30
0.0
 11
-328.24999999999972
 21
-1237.895514999999
 31
0.0
  0
LINE
  5
C2
  8
0
  6
CONTINUOUS
 62
     7
 10
-365.74999999999977
 20
-1237.895514999999
 30
0.0
 11
-365.74999999999977
 21
-1232.895514999999
 31
0.0
  0
LINE
  5
C3
  8
0
  6
CONTINUOUS
 62
     7
 10
-328.24999999999972
 20
-1237.895514999999
 30
0.0
 11
-328.24999999999972
 21
-1232.895514999999
 31
0.0
  0
ENDBLK
  5
C4
  8
DATA
  0
BLOCK
  8
DATA
  2
____-12
 70
     0
 10
0.0
 20
0.0
 30
0.0
  3
____-12
  1

  0
CIRCLE
  5
C6
  8
0
  6
CONTINUOUS
 62
     7
 10
-655.99999999999966
 20
-750.29551499999968
 30
0.0
 40
3.4999999999998681
  0
LINE
  5
C7
  8
0
  6
CONTINUOUS
 62
     7
 10
-657.99999999999977
 20
-750.29551499999968
 30
0.0
 11
-653.99999999999977
 21
-750.29551499999968
 31
0.0
  0
LINE
  5
C8
  8
0
  6
CONTINUOUS
 62
     7
 10
-655.99999999999966
 20
-748.29551499999957
 30
0.0
 11
-655.99999999999966
 21
-752.29551499999957
 31
0.0
  0
ENDBLK
  5
C9
  8
DATA
  0
BLOCK
  8
DATA
  2
____-13
 70
     0
 10
0.0
 20
0.0
 30
0.0
  3
____-13
  1

  0
CIRCLE
  5
CB
  8
0
  6
CONTINUOUS
 62
     7
 10
-655.99999999999966
 20
-547.29551499999968
 30
0.0
 40
3.4999999999998681
  0
LINE
  5
CC
  8
0
  6
CONTINUOUS
 62
     7
 10
-657.99999999999977
 20
-547.29551499999968
 30
0.0
 11
-653.99999999999977
 21
-547.29551499999968
 31
0.0
  0
LINE
  5
CD
  8
0
  6
CONTINUOUS
 62
     7
 10
-655.99999999999966
 20
-545.2955149999998
 30
0.0
 11
-655.99999999999966
 21
-549.2955149999998
 31
0.0
  0
ENDBLK
  5
CE
  8
DATA
  0
BLOCK
  8
DATA
  2
____-14
 70
     0
 10
0.0
 20
0.0
 30
0.0
  3
____-14
  1

  0
CIRCLE
  5
D0
  8
0
  6
CONTINUOUS
 62
     7
 10
-655.99999999999966
 20
-344.29551499999991
 30
0.0
 40
3.4999999999998681
  0
LINE
  5
D1
  8
0
  6
CONTINUOUS
 62
     7
 10
-657.99999999999977
 20
-344.29551499999991
 30
0.0
 11
-653.99999999999977
 21
-344.29551499999991
 31
0.0
  0
LINE
  5
D2
  8
0
  6
CONTINUOUS
 62
     7
 10
-655.99999999999966
 20
-342.2955149999998
 30
0.0
 11
-655.99999999999966
 21
-346.29551499999991
 31
0.0
  0
ENDBLK
  5
D3
  8
DATA
  0
BLOCK
  8
DATA
  2
____-15
 70
     0
 10
0.0
 20
0.0
 30
0.0
  3
____-15
  1

  0
CIRCLE
  5
D5
  8
0
  6
CONTINUOUS
 62
     7
 10
-655.99999999999966
 20
-953.29551499999968
 30
0.0
 40
3.4999999999998681
  0
LINE
  5
D6
  8
0
  6
CONTINUOUS
 62
     7
 10
-657.99999999999977
 20
-953.29551499999968
 30
0.0
 11
-653.99999999999977
 21
-953.29551499999968
 31
0.0
  0
LINE
  5
D7
  8
0
  6
CONTINUOUS
 62
     7
 10
-655.99999999999966
 20
-951.29551499999957
 30
0.0
 11
-655.99999999999966
 21
-955.29551499999968
 31
0.0
  0
ENDBLK
  5
D8
  8
DATA
  0
BLOCK
  8
DATA
  2
____-16
 70
     0
 10
0.0
 20
0.0
 30
0.0
  3
____-16
  1

  0
CIRCLE
  5
DA
  8
0
  6
CONTINUOUS
 62
     7
 10
-655.99999999999966
 20
-1156.295515
 30
0.0
 40
3.4999999999998681
  0
LINE
  5
DB
  8
0
  6
CONTINUOUS
 62
     7
 10
-657.99999999999977
 20
-1156.295515
 30
0.0
 11
-653.99999999999977
 21
-1156.295515
 31
0.0
  0
LINE
  5
DC
  8
0
  6
CONTINUOUS
 62
     7
 10
-655.99999999999966
 20
-1154.295515
 30
0.0
 11
-655.99999999999966
 21
-1158.295515
 31
0.0
  0
ENDBLK
  5
DD
  8
DATA
  0
BLOCK
  8
DATA
  2
____-17
 70
     0
 10
0.0
 20
0.0
 30
0.0
  3
____-17
  1

  0
LINE
  5
DF
  8
0
  6
CONTINUOUS
 62
     7
 10
-558.72816145433194
 20
-527.69551499999977
 30
0.0
 11
-425.7890840093977
 21
-527.69551499999977
 31
0.0
  0
LINE
  5
E0
  8
0
  6
CONTINUOUS
 62
     7
 10
-415.7890840093977
 20
-537.69551499999966
 30
0.0
 11
-415.7890840093977
 21
-737.69551499999966
 31
0.0
  0
LINE
  5
E1
  8
0
  6
CONTINUOUS
 62
     7
 10
-568.72816145433194
 20
-537.69551499999966
 30
0.0
 11
-568.72816145433194
 21
-737.69551499999966
 31
0.0
  0
LINE
  5
E2
  8
0
  6
CONTINUOUS
 62
     7
 10
-558.72816145433194
 20
-747.69551499999955
 30
0.0
 11
-425.7890840093977
 21
-747.69551499999955
 31
0.0
  0
LINE
  5
E3
  8
0
  6
CONTINUOUS
 62
     7
 10
-538.72816145433194
 20
-553.69551499999977
 30
0.0
 11
-445.7890840093977
 21
-553.69551499999977
 31
0.0
  0
LINE
  5
E4
  8
0
  6
CONTINUOUS
 62
     7
 10
-538.72816145433194
 20
-721.69551499999955
 30
0.0
 11
-445.7890840093977
 21
-721.69551499999955
 31
0.0
  0
LINE
  5
E5
  8
0
  6
CONTINUOUS
 62
     7
 10
-542.72816145433194
 20
-717.69551499999955
 30
0.0
 11
-542.72816145433194
 21
-557.69551499999977
 31
0.0
  0
LINE
  5
E6
  8
0
  6
CONTINUOUS
 62
     7
 10
-441.7890840093977
 20
-717.69551499999955
 30
0.0
 11
-441.7890840093977
 21
-557.69551499999977
 31
0.0
  0
LINE
  5
E7
  8
0
  6
CONTINUOUS
 62
     7
 10
-542.72816145433194
 20
-636.69551499999977
 30
0.0
 11
-441.7890840093977
 21
-636.69551499999977
 31
0.0
  0
LINE
  5
E8
  8
0
  6
CONTINUOUS
 62
     7
 10
-542.72816145433194
 20
-667.69551499999966
 30
0.0
 11
-441.7890840093977
 21
-667.69551499999966
 31
0.0
  0
LINE
  5
E9
  8
0
  6
CONTINUOUS
 62
     7
 10
-542.72816145433194
 20
-642.69551499999966
 30
0.0
 11
-441.7890840093977
 21
-642.69551499999966
 31
0.0
  0
LINE
  5
EA
  8
0
  6
CONTINUOUS
 62
     7
 10
-542.72816145433194
 20
-661.69551499999977
 30
0.0
 11
-441.7890840093977
 21
-661.69551499999977
 31
0.0
  0
CIRCLE
  5
EB
  8
0
  6
CONTINUOUS
 62
     7
 10
-492.2586227318647
 20
-540.69551499999977
 30
0.0
 40
4.5000000000000089
  0
LINE
  5
EC
  8
0
  6
CONTINUOUS
 62
     7
 10
-495.08704985661097
 20
-540.69551499999989
 30
0.0
 11
-489.43019560711849
 21
-540.69551499999989
 31
0.0
  0
LINE
  5
ED
  8
0
  6
CONTINUOUS
 62
     7
 10
-492.2586227318647
 20
-537.86708787525367
 30
0.0
 11
-492.2586227318647
 21
-543.5239421247461
 31
0.0
  0
CIRCLE
  5
EE
  8
0
  6
CONTINUOUS
 62
     7
 10
-492.2586227318647
 20
-734.69551499999955
 30
0.0
 40
4.4999999999999671
  0
LINE
  5
EF
  8
0
  6
CONTINUOUS
 62
     7
 10
-495.08704985661097
 20
-734.69551499999955
 30
0.0
 11
-489.43019560711849
 21
-734.69551499999955
 31
0.0
  0
LINE
  5
F0
  8
0
  6
CONTINUOUS
 62
     7
 10
-492.2586227318647
 20
-731.86708787525345
 30
0.0
 11
-492.2586227318647
 21
-737.5239421247461
 31
0.0
  0
CIRCLE
  5
F1
  8
0
  6
CONTINUOUS
 62
     7
 10
-427.2586227318647
 20
-540.69551499999977
 30
0.0
 40
4.5000000000000089
  0
LINE
  5
F2
  8
0
  6
CONTINUOUS
 62
     7
 10
-430.08704985661092
 20
-540.69551499999989
 30
0.0
 11
-424.43019560711849
 21
-540.69551499999989
 31
0.0
  0
LINE
  5
F3
  8
0
  6
CONTINUOUS
 62
     7
 10
-427.2586227318647
 20
-537.86708787525367
 30
0.0
 11
-427.2586227318647
 21
-543.5239421247461
 31
0.0
  0
CIRCLE
  5
F4
  8
0
  6
CONTINUOUS
 62
     7
 10
-427.2586227318647
 20
-605.69551499999966
 30
0.0
 40
4.5000000000000089
  0
LINE
  5
F5
  8
0
  6
CONTINUOUS
 62
     7
 10
-430.08704985661092
 20
-605.69551499999989
 30
0.0
 11
-424.43019560711849
 21
-605.69551499999989
 31
0.0
  0
LINE
  5
F6
  8
0
  6
CONTINUOUS
 62
     7
 10
-427.2586227318647
 20
-602.86708787525345
 30
0.0
 11
-427.2586227318647
 21
-608.5239421247461
 31
0.0
  0
CIRCLE
  5
F7
  8
0
  6
CONTINUOUS
 62
     7
 10
-427.2586227318647
 20
-670.69551499999966
 30
0.0
 40
4.4999999999999671
  0
LINE
  5
F8
  8
0
  6
CONTINUOUS
 62
     7
 10
-430.08704985661092
 20
-670.69551499999966
 30
0.0
 11
-424.43019560711849
 21
-670.69551499999966
 31
0.0
  0
LINE
  5
F9
  8
0
  6
CONTINUOUS
 62
     7
 10
-427.2586227318647
 20
-667.86708787525345
 30
0.0
 11
-427.2586227318647
 21
-673.52394212474599
 31
0.0
  0
CIRCLE
  5
FA
  8
0
  6
CONTINUOUS
 62
     7
 10
-427.2586227318647
 20
-734.69551499999955
 30
0.0
 40
4.4999999999999671
  0
LINE
  5
FB
  8
0
  6
CONTINUOUS
 62
     7
 10
-430.08704985661092
 20
-734.69551499999955
 30
0.0
 11
-424.43019560711849
 21
-734.69551499999955
 31
0.0
  0
LINE
  5
FC
  8
0
  6
CONTINUOUS
 62
     7
 10
-427.2586227318647
 20
-731.86708787525345
 30
0.0
 11
-427.2586227318647
 21
-737.5239421247461
 31
0.0
  0
CIRCLE
  5
FD
  8
0
  6
CONTINUOUS
 62
     7
 10
-557.25862273186465
 20
-540.69551499999977
 30
0.0
 40
4.5000000000000089
  0
LINE
  5
FE
  8
0
  6
CONTINUOUS
 62
     7
 10
-560.08704985661086
 20
-540.69551499999989
 30
0.0
 11
-554.43019560711855
 21
-540.69551499999989
 31
0.0
  0
LINE
  5
FF
  8
0
  6
CONTINUOUS
 62
     7
 10
-557.25862273186465
 20
-537.86708787525367
 30
0.0
 11
-557.25862273186465
 21
-543.5239421247461
 31
0.0
  0
CIRCLE
  5
100
  8
0
  6
CONTINUOUS
 62
     7
 10
-557.25862273186465
 20
-605.69551499999966
 30
0.0
 40
4.5000000000000089
  0
LINE
  5
101
  8
0
  6
CONTINUOUS
 62
     7
 10
-560.08704985661086
 20
-605.69551499999989
 30
0.0
 11
-554.43019560711855
 21
-605.69551499999989
 31
0.0
  0
LINE
  5
102
  8
0
  6
CONTINUOUS
 62
     7
 10
-557.25862273186465
 20
-602.86708787525345
 30
0.0
 11
-557.25862273186465
 21
-608.5239421247461
 31
0.0
  0
CIRCLE
  5
103
  8
0
  6
CONTINUOUS
 62
     7
 10
-557.25862273186465
 20
-669.69551499999977
 30
0.0
 40
4.4999999999999671
  0
LINE
  5
104
  8
0
  6
CONTINUOUS
 62
     7
 10
-560.08704985661086
 20
-669.69551499999977
 30
0.0
 11
-554.43019560711855
 21
-669.69551499999977
 31
0.0
  0
LINE
  5
105
  8
0
  6
CONTINUOUS
 62
     7
 10
-557.25862273186465
 20
-666.86708787525356
 30
0.0
 11
-557.25862273186465
 21
-672.52394212474599
 31
0.0
  0
CIRCLE
  5
106
  8
0
  6
CONTINUOUS
 62
     7
 10
-557.25862273186465
 20
-734.69551499999955
 30
0.0
 40
4.4999999999999671
  0
LINE
  5
107
  8
0
  6
CONTINUOUS
 62
     7
 10
-560.08704985661086
 20
-734.69551499999955
 30
0.0
 11
-554.43019560711855
 21
-734.69551499999955
 31
0.0
  0
LINE
  5
108
  8
0
  6
CONTINUOUS
 62
     7
 10
-557.25862273186465
 20
-731.86708787525345
 30
0.0
 11
-557.25862273186465
 21
-737.5239421247461
 31
0.0
  0
ARC
  5
109
  8
0
  6
CONTINUOUS
 62
     7
 10
-558.72816145433194
 20
-537.69551499999966
 30
0.0
 40
10.0
 50
90.0
 51
180.0
  0
ARC
  5
10A
  8
0
  6
CONTINUOUS
 62
     7
 10
-425.7890840093977
 20
-537.69551499999966
 30
0.0
 40
10.0
 50
0.0
 51
90.0
  0
ARC
  5
10B
  8
0
  6
CONTINUOUS
 62
     7
 10
-558.72816145433194
 20
-737.69551499999966
 30
0.0
 40
10.0
 50
180.0
 51
270.0
  0
ARC
  5
10C
  8
0
  6
CONTINUOUS
 62
     7
 10
-425.7890840093977
 20
-737.69551499999966
 30
0.0
 40
10.0
 50
270.0
 51
0.0
  0
ARC
  5
10D
  8
0
  6
CONTINUOUS
 62
     7
 10
-538.72816145433194
 20
-557.69551499999977
 30
0.0
 40
4.0
 50
90.0
 51
180.0
  0
ARC
  5
10E
  8
0
  6
CONTINUOUS
 62
     7
 10
-445.7890840093977
 20
-557.69551499999977
 30
0.0
 40
4.0
 50
0.0
 51
90.0
  0
ARC
  5
10F
  8
0
  6
CONTINUOUS
 62
     7
 10
-538.72816145433194
 20
-717.69551499999955
 30
0.0
 40
4.0
 50
180.0
 51
270.0
  0
ARC
  5
110
  8
0
  6
CONTINUOUS
 62
     7
 10
-445.7890840093977
 20
-717.69551499999955
 30
0.0
 40
4.0
 50
270.0
 51
0.0
  0
ENDBLK
  5
111
  8
DATA
  0
BLOCK
  8
DATA
  2
____-18
 70
     0
 10
0.0
 20
0.0
 30
0.0
  3
____-18
  1

  0
LINE
  5
113
  8
0
  6
CONTINUOUS
 62
     7
 10
-72.249999999999787
 20
-1237.895514999999
 30
0.0
 11
-34.749999999999773
 21
-1237.895514999999
 31
0.0
  0
LINE
  5
114
  8
0
  6
CONTINUOUS
 62
     7
 10
-72.249999999999787
 20
-1237.895514999999
 30
0.0
 11
-72.249999999999787
 21
-1232.895514999999
 31
0.0
  0
LINE
  5
115
  8
0
  6
CONTINUOUS
 62
     7
 10
-34.749999999999773
 20
-1237.895514999999
 30
0.0
 11
-34.749999999999773
 21
-1232.895514999999
 31
0.0
  0
ENDBLK
  5
116
  8
DATA
  0
BLOCK
  8
DATA
  2
____-19
 70
     0
 10
0.0
 20
0.0
 30
0.0
  3
____-19
  1

  0
LINE
  5
118
  8
0
  6
CONTINUOUS
 62
     7
 10
269.25000000000028
 20
-1237.895514999999
 30
0.0
 11
231.75000000000031
 21
-1237.895514999999
 31
0.0
  0
LINE
  5
119
  8
0
  6
CONTINUOUS
 62
     7
 10
269.25000000000028
 20
-1237.895514999999
 30
0.0
 11
269.25000000000028
 21
-1232.895514999999
 31
0.0
  0
LINE
  5
11A
  8
0
  6
CONTINUOUS
 62
     7
 10
231.75000000000031
 20
-1237.895514999999
 30
0.0
 11
231.75000000000031
 21
-1232.895514999999
 31
0.0
  0
ENDBLK
  5
11B
  8
DATA
  0
BLOCK
  8
DATA
  2
____-20
 70
     0
 10
0.0
 20
0.0
 30
0.0
  3
____-20
  1

  0
LINE
  5
11D
  8
0
  6
CONTINUOUS
 62
     7
 10
19.75000000000022
 20
-1237.895514999999
 30
0.0
 11
57.25000000000022
 21
-1237.895514999999
 31
0.0
  0
LINE
  5
11E
  8
0
  6
CONTINUOUS
 62
     7
 10
19.75000000000022
 20
-1237.895514999999
 30
0.0
 11
19.75000000000022
 21
-1232.895514999999
 31
0.0
  0
LINE
  5
11F
  8
0
  6
CONTINUOUS
 62
     7
 10
57.25000000000022
 20
-1237.895514999999
 30
0.0
 11
57.25000000000022
 21
-1232.895514999999
 31
0.0
  0
ENDBLK
  5
120
  8
DATA
  0
BLOCK
  8
DATA
  2
____-21
 70
     0
 10
0.0
 20
0.0
 30
0.0
  3
____-21
  1

  0
LINE
  5
122
  8
0
  6
CONTINUOUS
 62
     7
 10
177.2500000000002
 20
-1237.895514999999
 30
0.0
 11
139.7500000000002
 21
-1237.895514999999
 31
0.0
  0
LINE
  5
123
  8
0
  6
CONTINUOUS
 62
     7
 10
177.2500000000002
 20
-1237.895514999999
 30
0.0
 11
177.2500000000002
 21
-1232.895514999999
 31
0.0
  0
LINE
  5
124
  8
0
  6
CONTINUOUS
 62
     7
 10
139.7500000000002
 20
-1237.895514999999
 30
0.0
 11
139.7500000000002
 21
-1232.895514999999
 31
0.0
  0
ENDBLK
  5
125
  8
DATA
  0
ENDSEC
  0
SECTION
  2
ENTITIES
  0
LINE
  5
126
  8
HIBINO-BASE
  6
CONTINUOUS
 62
     7
 10
-500.0
 20
3900.0
 30
0.0
 11
3100.0
 21
3900.0
 31
0.0
  0
LINE
  5
127
  8
HIBINO-BASE
  6
CONTINUOUS
 62
     7
 10
3100.0
 20
-1300.0
 30
0.0
 11
-500.0
 21
-1300.0
 31
0.0
  0
LINE
  5
128
  8
HIBINO-BASE
  6
CONTINUOUS
 62
     7
 10
-500.0
 20
-1300.0
 30
0.0
 11
-500.0
 21
3900.0
 31
0.0
  0
TEXT
  5
129
  8
HIBINO-BASE
 62
     7
 10
-356.31999999999988
 20
-1428.1735559999991
 30
0.0
 40
72.000883593749975
  1
Hibino Corporation
 41
0.8
 11
-356.31999999999988
 21
-1356.1726724062489
 31
0.0
 73
     3
  0
LINE
  5
12A
  8
HIBINO-BASE
  6
CONTINUOUS
 62
     7
 10
3100.0
 20
3900.0
 30
0.0
 11
3100.0
 21
-1300.0
 31
0.0
  0
LINE
  5
12B
  8
HIBINO-BASE
  6
CONTINUOUS
 62
     7
 10
1300.0
 20
-850.0
 30
0.0
 11
3100.0
 21
-850.0
 31
0.0
  0
LINE
  5
12C
  8
HIBINO-BASE
  6
CONTINUOUS
 62
     7
 10
1300.0
 20
-1300.0
 30
0.0
 11
1300.0
 21
-850.0
 31
0.0
  0
TEXT
  5
12D
  8
HIBINO-BASE
 62
     7
 10
1318.0
 20
-904.00006399999995
 30
0.0
 40
36.000518749999998
  1
NOTE
 41
0.8
 11
1318.0
 21
-867.9995452500001
 31
0.0
 73
     3
  0
LINE
  5
12E
  8
HIBINO-BASE
  6
CONTINUOUS
 62
     7
 10
2000.0
 20
-1300.0
 30
0.0
 11
2000.0
 21
-850.0
 31
0.0
  0
TEXT
  5
12F
  8
HIBINO-BASE
 62
     7
 10
2018.0
 20
-904.00006399999995
 30
0.0
 40
36.000518749999998
  1
TITLE
 41
0.8
 11
2018.0
 21
-867.9995452500001
 31
0.0
 73
     3
  0
TEXT
  5
130
  8
HIBINO-BASE
 62
     7
 10
2301.3677999999991
 20
-1428.1735559999991
 30
0.0
 40
72.000883593749975
  1
ヒビノ株式会社
 41
0.8
 11
2301.3677999999991
 21
-1356.1726724062489
 31
0.0
 73
     3
  0
LINE
  5
131
  8
HIBINO-BASE
  6
CONTINUOUS
 62
     7
 10
1300.0
 20
-1100.0
 30
0.0
 11
3100.0
 21
-1100.0
 31
0.0
  0
TEXT
  5
132
  8
HIBINO-BASE
 62
     7
 10
2268.0
 20
-1152.873664
 30
0.0
 40
36.000518749999998
  1
DRAWN
 41
0.8
 11
2268.0
 21
-1116.8731452500001
 31
0.0
 73
     3
  0
TEXT
  5
133
  8
HIBINO-BASE
 62
     7
 10
1768.0
 20
-1152.873664
 30
0.0
 40
36.000518749999998
  1
DATE
 41
0.8
 11
1768.0
 21
-1116.8731452500001
 31
0.0
 73
     3
  0
TEXT
  5
134
  8
HIBINO-BASE
 62
     7
 10
1322.0
 20
-1152.3891239999989
 30
0.0
 40
32.57687421875
  1
図面サイズ
 41
0.8
 11
1322.0
 21
-1119.812249781249
 31
0.0
 73
     3
  0
TEXT
  5
135
  8
HIBINO-BASE
 62
     7
 10
1568.0
 20
-1152.873664
 30
0.0
 40
36.000518749999998
  1
SCALE
 41
0.8
 11
1568.0
 21
-1116.8731452500001
 31
0.0
 73
     3
  0
TEXT
  5
136
  8
HIBINO-BASE
 62
     7
 10
2018.0
 20
-1152.873664
 30
0.0
 40
36.000518749999998
  1
DESIGN
 41
0.8
 11
2018.0
 21
-1116.8731452500001
 31
0.0
 73
     3
  0
TEXT
  5
137
  8
HIBINO-BASE
 62
     7
 10
2768.0
 20
-1152.873664
 30
0.0
 40
36.000518749999998
  1
DRAWING NO.
 41
0.8
 11
2768.0
 21
-1116.8731452500001
 31
0.0
 73
     3
  0
TEXT
  5
138
  8
HIBINO-BASE
 62
     7
 10
2518.0
 20
-1152.873664
 30
0.0
 40
36.000518749999998
  1
CHECK
 41
0.8
 11
2518.0
 21
-1116.8731452500001
 31
0.0
 73
     3
  0
LINE
  5
139
  8
HIBINO-BASE
  6
CONTINUOUS
 62
     7
 10
1587.5
 20
-1275.0
 30
0.0
 11
1662.4999999999991
 21
-1200.0
 31
0.0
  0
TEXT
  5
13A
  8
HIBINO-BASE
 62
     7
 10
1575.0
 20
-1234.3143839999991
 30
0.0
 40
43.4357296875
  1
1
 41
0.8
 11
1575.0
 21
-1190.8786543124991
 31
0.0
 73
     3
  0
LINE
  5
13B
  8
HIBINO-BASE
  6
CONTINUOUS
 62
     7
 10
1550.0
 20
-1300.0
 30
0.0
 11
1550.0
 21
-1100.0
 31
0.0
  0
LINE
  5
13C
  8
HIBINO-BASE
  6
CONTINUOUS
 62
     7
 10
1750.0
 20
-1300.0
 30
0.0
 11
1750.0
 21
-1100.0
 31
0.0
  0
LINE
  5
13D
  8
HIBINO-BASE
  6
CONTINUOUS
 62
     7
 10
2250.0
 20
-1100.0
 30
0.0
 11
2250.0
 21
-1300.0
 31
0.0
  0
LINE
  5
13E
  8
HIBINO-BASE
  6
CONTINUOUS
 62
     7
 10
2750.0
 20
-1100.0
 30
0.0
 11
2750.0
 21
-1300.0
 31
0.0
  0
LINE
  5
13F
  8
HIBINO-BASE
  6
CONTINUOUS
 62
     7
 10
2500.0
 20
-1300.0
 30
0.0
 11
2500.0
 21
-1100.0
 31
0.0
  0
TEXT
  5
140
  8
HIBINO-BASE
 62
     7
 10
1378.217799999999
 20
-1250.030876
 30
0.0
 40
65.153594531249993
  1
A4
 41
0.8
 11
1378.217799999999
 21
-1184.87728146875
 31
0.0
 73
     3
  0
TEXT
  5
141
  8
HIBINO-BASE
 62
     7
 10
1767.130799999999
 20
-1246.5532639999999
 30
0.0
 40
36.000518749999998
  1
'04.11.
 41
0.8
 11
1767.130799999999
 21
-1210.55274525
 31
0.0
 73
     3
  0
TEXT
  5
142
  8
HIBINO-BASE
 62
     7
 10
1649.9999999999991
 20
-1271.814384
 30
0.0
 40
43.4357296875
  1
20
 41
0.8
 11
1649.9999999999991
 21
-1228.3786543124991
 31
0.0
 73
     3
  0
TEXT
  5
143
  8
HIBINO-BASE
 62
     7
 10
2280.116200220692
 20
-1246.5532639999999
 30
0.0
 40
36.000518749999998
  1
N.Sasaki
 41
0.8
 11
2280.116200220692
 21
-1210.55274525
 31
0.0
 73
     3
  0
TEXT
  5
144
  8
HIBINO-BASE
 62
     7
 10
2530.116200220692
 20
-1242.7270666666659
 30
0.0
 40
32.576822916666671
  1
T.Taki
 41
0.8
 11
2530.116200220692
 21
-1210.1502437500001
 31
0.0
 73
     3
  0
LINE
  5
145
  8
SPEC
  6
CONTINUOUS
 62
     7
 10
-350.0
 20
3742.8955150000002
 30
0.0
 11
2200.0
 21
3742.8955150000002
 31
0.0
  0
LINE
  5
146
  8
SPEC
  6
CONTINUOUS
 62
     7
 10
-350.0
 20
3667.8955150000002
 30
0.0
 11
2200.0
 21
3667.8955150000002
 31
0.0
  0
LINE
  5
147
  8
SPEC
  6
CONTINUOUS
 62
     7
 10
-350.0
 20
3367.8955150000002
 30
0.0
 11
2200.0
 21
3367.8955150000002
 31
0.0
  0
LINE
  5
148
  8
SPEC
  6
CONTINUOUS
 62
     7
 10
-350.0
 20
3442.8955150000002
 30
0.0
 11
2200.0
 21
3442.8955150000002
 31
0.0
  0
LINE
  5
149
  8
SPEC
  6
CONTINUOUS
 62
     7
 10
-350.0
 20
3517.8955150000002
 30
0.0
 11
2200.0
 21
3517.8955150000002
 31
0.0
  0
LINE
  5
14A
  8
SPEC
  6
CONTINUOUS
 62
     7
 10
-350.0
 20
3292.8955150000002
 30
0.0
 11
2200.0
 21
3292.8955150000002
 31
0.0
  0
LINE
  5
14B
  8
SPEC
  6
CONTINUOUS
 62
     7
 10
-350.0
 20
3592.8955150000002
 30
0.0
 11
2200.0
 21
3592.8955150000002
 31
0.0
  0
LINE
  5
14C
  8
SPEC
  6
CONTINUOUS
 62
     7
 10
-350.00000000000023
 20
3742.8955150000002
 30
0.0
 11
-350.00000000000023
 21
1867.89103
 31
0.0
  0
TEXT
  5
14D
  8
SPEC
 62
     7
 10
-325.0
 20
3770.7609149999998
 30
0.0
 40
48.865234375000007
  1
仕様
 41
0.8
 11
-325.0
 21
3819.6261493749998
 31
0.0
 73
     3
  0
LINE
  5
14E
  8
SPEC
  6
CONTINUOUS
 62
     7
 10
299.99999999999972
 20
3742.8955150000002
 30
0.0
 11
299.99999999999972
 21
1867.89103
 31
0.0
  0
LINE
  5
14F
  8
SPEC
  6
CONTINUOUS
 62
     7
 10
2200.0
 20
3742.8955150000002
 30
0.0
 11
2200.0
 21
1867.89103
 31
0.0
  0
TEXT
  5
150
  8
SPEC
 62
     7
 10
317.99999999999989
 20
3683.6539594444439
 30
0.0
 40
38.006293402777771
  1
2Wayフルレンジ (デュアル12" 2-Way high-power)
 41
0.8
 11
317.99999999999989
 21
3721.6602528472222
 31
0.0
 73
     3
  0
TEXT
  5
151
  8
SPEC
 62
     7
 10
317.99999999999989
 20
3383.6539594444439
 30
0.0
 40
38.006293402777771
  1
2262H(口径:12インチ)×2
 41
0.8
 11
317.99999999999989
 21
3421.6602528472208
 31
0.0
 73
     3
  0
TEXT
  5
152
  8
SPEC
 62
     7
 10
317.99999999999989
 20
3308.6539594444439
 30
0.0
 40
38.006293402777771
  1
2451H(ダイアフラム径:4インチ)
 41
0.8
 11
317.99999999999989
 21
3346.6602528472222
 31
0.0
 73
     3
  0
TEXT
  5
153
  8
SPEC
 62
     7
 10
317.99999999999989
 20
3233.6539594444439
 30
0.0
 40
38.006293402777771
  1
97dB SPL(PASSIVE駆動時)
 41
0.8
 11
317.99999999999989
 21
3271.6602528472222
 31
0.0
 73
     3
  0
TEXT
  5
154
  8
SPEC
 62
     7
 10
317.99999999999989
 20
3458.6539594444439
 30
0.0
 40
38.006293402777771
  1
75゜×50゜
 41
0.8
 11
317.99999999999989
 21
3496.6602528472222
 31
0.0
 73
     3
  0
TEXT
  5
155
  8
SPEC
 62
     7
 10
317.99999999999989
 20
3608.6539594444439
 30
0.0
 40
38.006293402777771
  1
72Hz～20kHz
 41
0.8
 11
317.99999999999989
 21
3646.6602528472222
 31
0.0
 73
     3
  0
TEXT
  5
156
  8
SPEC
 62
     7
 10
317.99999999999989
 20
3533.6539594444439
 30
0.0
 40
38.006293402777771
  1
81Hz～20kHz
 41
0.8
 11
317.99999999999989
 21
3571.6602528472222
 31
0.0
 73
     3
  0
TEXT
  5
157
  8
SPEC
 62
     7
 10
-332.0000000000075
 20
3233.6539594444439
 30
0.0
 40
38.006293402777771
  1
音圧レベル (1W/1m)
 41
0.8
 11
-332.0000000000075
 21
3271.6602528472222
 31
0.0
 73
     3
  0
TEXT
  5
158
  8
SPEC
 62
     7
 10
-332.00000000001211
 20
3383.653959444443
 30
0.0
 40
38.006293402777771
  1
低域ユニット
 41
0.8
 11
-332.00000000001211
 21
3421.6602528472199
 31
0.0
 73
     3
  0
TEXT
  5
159
  8
SPEC
 62
     7
 10
-332.00000000000119
 20
3308.6539594444439
 30
0.0
 40
38.006293402777771
  1
高域ユニット
 41
0.8
 11
-332.00000000000119
 21
3346.6602528472222
 31
0.0
 73
     3
  0
TEXT
  5
15A
  8
SPEC
 62
     7
 10
-332.00000000000432
 20
3458.6539594444448
 30
0.0
 40
38.006293402777771
  1
公称カバレージ
 41
0.8
 11
-332.00000000000432
 21
3496.6602528472231
 31
0.0
 73
     3
  0
TEXT
  5
15B
  8
SPEC
 62
     7
 10
-332.00000000000301
 20
3608.6539594444439
 30
0.0
 40
38.006293402777771
  1
周波数レンジ(-10dB)
 41
0.8
 11
-332.00000000000301
 21
3646.6602528472222
 31
0.0
 73
     3
  0
TEXT
  5
15C
  8
SPEC
 62
     7
 10
-332.00000000000301
 20
3533.6539594444439
 30
0.0
 40
38.006293402777771
  1
周波数特性(±3dB)
 41
0.8
 11
-332.00000000000301
 21
3571.6602528472222
 31
0.0
 73
     3
  0
TEXT
  5
15D
  8
SPEC
 62
     7
 10
-332.00000000000171
 20
3683.6539594444439
 30
0.0
 40
38.006293402777771
  1
形式
 41
0.8
 11
-332.00000000000171
 21
3721.6602528472222
 31
0.0
 73
     3
  0
TEXT
  5
15E
  8
SPEC
 62
     7
 10
317.99999999999972
 20
3018.6554744444438
 30
0.0
 40
38.006293402777771
  1
BI-AMP駆動時:4Ω(低域),8Ω(高域)
 41
0.8
 11
317.99999999999972
 21
3056.6617678472212
 31
0.0
 73
     3
  0
TEXT
  5
15F
  8
SPEC
 62
     7
 10
317.99999999999989
 20
3083.6539594444439
 30
0.0
 40
38.006293402777771
  1
PASSIVE駆動時:4Ω
 41
0.8
 11
317.99999999999989
 21
3121.6602528472208
 31
0.0
 73
     3
  0
TEXT
  5
160
  8
SPEC
 62
     7
 10
-332.0000000000075
 20
3083.6539594444439
 30
0.0
 40
38.006293402777771
  1
公称インピーダンス
 41
0.8
 11
-332.0000000000075
 21
3121.6602528472208
 31
0.0
 73
     3
  0
TEXT
  5
161
  8
SPEC
 62
     7
 10
317.99999999999972
 20
2813.6554744444429
 30
0.0
 40
38.006293402777771
  1
BI-AMP駆動時(IEC):1200W(低域),75W(高域)
 41
0.8
 11
317.99999999999972
 21
2851.6617678472212
 31
0.0
 73
     3
  0
TEXT
  5
162
  8
SPEC
 62
     7
 10
317.99999999999989
 20
2943.6539594444439
 30
0.0
 40
38.006293402777771
  1
PASSIVE駆動時(IEC):1200W
 41
0.8
 11
317.99999999999989
 21
2981.6602528472222
 31
0.0
 73
     3
  0
TEXT
  5
163
  8
SPEC
 62
     7
 10
-332.0000000000075
 20
2943.6539594444439
 30
0.0
 40
38.006293402777771
  1
許容入力
 41
0.8
 11
-332.0000000000075
 21
2981.6602528472222
 31
0.0
 73
     3
  0
TEXT
  5
164
  8
SPEC
 62
     7
 10
616.39464260843272
 20
2748.6554744444438
 30
0.0
 40
38.006293402777771
  1
Peak:4800W(低域),300W(高域)
 41
0.8
 11
616.39464260843272
 21
2786.6617678472221
 31
0.0
 73
     3
  0
TEXT
  5
165
  8
SPEC
 62
     7
 10
663.72222222222206
 20
2878.6554744444452
 30
0.0
 40
38.006293402777771
  1
Peak:4800W
 41
0.8
 11
663.72222222222206
 21
2916.6617678472221
 31
0.0
 73
     3
  0
LINE
  5
166
  8
SPEC
  6
CONTINUOUS
 62
     7
 10
-350.0
 20
2722.8955149999988
 30
0.0
 11
2200.0
 21
2722.8955149999988
 31
0.0
  0
TEXT
  5
167
  8
SPEC
 62
     7
 10
317.99999999999972
 20
2528.6554744444452
 30
0.0
 40
38.006293402777771
  1
BI-AMP駆動推奨コントローラー:dbx DriveRackシリーズ
 41
0.8
 11
317.99999999999972
 21
2566.6617678472221
 31
0.0
 73
     3
  0
TEXT
  5
168
  8
SPEC
 62
     7
 10
317.99999999999989
 20
2663.6539594444439
 30
0.0
 40
38.006293402777771
  1
PASSIVE/BI-AMPスイッチ切替
 41
0.8
 11
317.99999999999989
 21
2701.6602528472208
 31
0.0
 73
     3
  0
TEXT
  5
169
  8
SPEC
 62
     7
 10
-332.0000000000075
 20
2663.6539594444439
 30
0.0
 40
38.006293402777771
  1
クロスオーバー
 41
0.8
 11
-332.0000000000075
 21
2701.6602528472208
 31
0.0
 73
     3
  0
LINE
  5
16A
  8
SPEC
  6
CONTINUOUS
 62
     7
 10
-350.0
 20
2437.8955150000011
 30
0.0
 11
2200.0
 21
2437.8955150000011
 31
0.0
  0
LINE
  5
16B
  8
SPEC
  6
CONTINUOUS
 62
     7
 10
-350.0
 20
2437.8955150000011
 30
0.0
 11
2200.0
 21
2437.8955150000011
 31
0.0
  0
TEXT
  5
16C
  8
SPEC
 62
     7
 10
317.99999999999989
 20
2453.6539594444448
 30
0.0
 40
38.006293402777771
  1
黒のデュラフレックス塗装
 41
0.8
 11
317.99999999999989
 21
2491.6602528472231
 31
0.0
 73
     3
  0
TEXT
  5
16D
  8
SPEC
 62
     7
 10
-332.0000000000075
 20
2453.6539594444448
 30
0.0
 40
38.006293402777771
  1
仕上げ
 41
0.8
 11
-332.0000000000075
 21
2491.6602528472231
 31
0.0
 73
     3
  0
LINE
  5
16E
  8
SPEC
  6
CONTINUOUS
 62
     7
 10
-350.0
 20
2512.8955150000002
 30
0.0
 11
2200.0
 21
2512.8955150000002
 31
0.0
  0
TEXT
  5
16F
  8
SPEC
 62
     7
 10
317.99999999999972
 20
2098.6554744444452
 30
0.0
 40
38.006293402777771
  1
＊ PASSIVE---±1:Full Range,±2:N/C
 41
0.8
 11
317.99999999999972
 21
2136.6617678472221
 31
0.0
 73
     3
  0
TEXT
  5
170
  8
SPEC
 62
     7
 10
317.99999999999989
 20
2163.6539594444448
 30
0.0
 40
38.006293402777771
  1
NEUTRIK NL4×2(IN,THRU)
 41
0.8
 11
317.99999999999989
 21
2201.6602528472231
 31
0.0
 73
     3
  0
TEXT
  5
171
  8
SPEC
 62
     7
 10
-332.00000000001211
 20
2163.6539594444448
 30
0.0
 40
38.006293402777771
  1
コネクター
 41
0.8
 11
-332.00000000001211
 21
2201.6602528472231
 31
0.0
 73
     3
  0
TEXT
  5
172
  8
SPEC
 62
     7
 10
317.99999999999972
 20
2033.6554744444441
 30
0.0
 40
38.006293402777771
  1
＊ BI-AMP  ---±1:LF(低域),±2:HF(高域)
 41
0.8
 11
317.99999999999972
 21
2071.6617678472221
 31
0.0
 73
     3
  0
LINE
  5
173
  8
SPEC
  6
CONTINUOUS
 62
     7
 10
-349.99999999999977
 20
1942.89103
 30
0.0
 11
2200.0
 21
1942.89103
 31
0.0
  0
LINE
  5
174
  8
SPEC
  6
CONTINUOUS
 62
     7
 10
-349.99999999999977
 20
2017.89103
 30
0.0
 11
2200.0
 21
2017.89103
 31
0.0
  0
TEXT
  5
175
  8
SPEC
 62
     7
 10
318.0
 20
1958.6494744444451
 30
0.0
 40
38.006293402777771
  1
397(W)×965(H)×396(D)mm (ゴム足は含まず)
 41
0.8
 11
318.0
 21
1996.655767847222
 31
0.0
 73
     3
  0
TEXT
  5
176
  8
SPEC
 62
     7
 10
318.0
 20
1883.649474444444
 30
0.0
 40
38.006293402777771
  1
約33.4kg
 41
0.8
 11
318.0
 21
1921.6557678472229
 31
0.0
 73
     3
  0
TEXT
  5
177
  8
SPEC
 62
     7
 10
-332.00000000001211
 20
1958.649474444444
 30
0.0
 40
38.006293402777771
  1
寸法
 41
0.8
 11
-332.00000000001211
 21
1996.6557678472209
 31
0.0
 73
     3
  0
TEXT
  5
178
  8
SPEC
 62
     7
 10
-332.00000000000171
 20
1883.649474444444
 30
0.0
 40
38.006293402777771
  1
重量
 41
0.8
 11
-332.00000000000171
 21
1921.6557678472229
 31
0.0
 73
     3
  0
LINE
  5
179
  8
SPEC
  6
CONTINUOUS
 62
     7
 10
-349.99999999999977
 20
1867.89103
 30
0.0
 11
2200.0
 21
1867.89103
 31
0.0
  0
LINE
  5
17A
  8
SPEC
  6
CONTINUOUS
 62
     7
 10
-350.0
 20
3217.8955150000002
 30
0.0
 11
2200.0
 21
3217.8955150000002
 31
0.0
  0
TEXT
  5
17B
  8
SPEC
 62
     7
 10
317.99999999999989
 20
3158.6539594444439
 30
0.0
 40
38.006293402777771
  1
135dB SPL peak(計算値)
 41
0.8
 11
317.99999999999989
 21
3196.6602528472222
 31
0.0
 73
     3
  0
TEXT
  5
17C
  8
SPEC
 62
     7
 10
-332.0000000000075
 20
3158.6539594444439
 30
0.0
 40
38.006293402777771
  1
最大音圧 (＠/1m)
 41
0.8
 11
-332.0000000000075
 21
3196.6602528472222
 31
0.0
 73
     3
  0
LINE
  5
17D
  8
SPEC
  6
CONTINUOUS
 62
     7
 10
-350.0
 20
3142.8955150000011
 30
0.0
 11
2200.0
 21
3142.8955150000011
 31
0.0
  0
LINE
  5
17E
  8
SPEC
  6
CONTINUOUS
 62
     7
 10
-350.0
 20
3002.8955150000002
 30
0.0
 11
2200.0
 21
3002.8955150000002
 31
0.0
  0
LINE
  5
17F
  8
SPEC
  6
CONTINUOUS
 62
     7
 10
-350.0
 20
2222.8955150000002
 30
0.0
 11
2200.0
 21
2222.8955150000002
 31
0.0
  0
TEXT
  5
180
  8
SPEC
 62
     7
 10
317.99999999999989
 20
2238.6539594444448
 30
0.0
 40
38.006293402777771
  1
SPユニットは前面側で交換
 41
0.8
 11
317.99999999999989
 21
2276.6602528472231
 31
0.0
 73
     3
  0
TEXT
  5
181
  8
SPEC
 62
     7
 10
-332.00000000001211
 20
2238.6539594444448
 30
0.0
 40
38.006293402777771
  1
メンテナンス
 41
0.8
 11
-332.00000000001211
 21
2276.6602528472231
 31
0.0
 73
     3
  0
LINE
  5
182
  8
SPEC
  6
CONTINUOUS
 62
     7
 10
1400.0
 20
3292.8955150000002
 30
0.0
 11
1400.0
 21
3442.8955150000002
 31
0.0
  0
TEXT
  5
183
  8
SPEC
 62
     7
 10
1422.6593098601579
 20
3383.6539594444439
 30
0.0
 40
38.006293402777771
  1
振動板交換パーツ:C8R2262
 41
0.8
 11
1422.6593098601579
 21
3421.6602528472208
 31
0.0
 73
     3
  0
TEXT
  5
184
  8
SPEC
 62
     7
 10
1422.6593098601579
 20
3308.6539594444439
 30
0.0
 40
38.006293402777771
  1
振動板交換パーツ:D8R2450
 41
0.8
 11
1422.6593098601579
 21
3346.6602528472222
 31
0.0
 73
     3
  0
TEXT
  5
185
  8
SPEC
 62
     7
 10
317.99999999999989
 20
2593.6539594444439
 30
0.0
 40
38.006293402777771
  1
PASSIVE駆動時(ネットワーク):1.2kHz
 41
0.8
 11
317.99999999999989
 21
2631.6602528472208
 31
0.0
 73
     3
  0
TEXT
  5
186
  8
SPEC
 62
     7
 10
-332.0000000000075
 20
2378.6444038888881
 30
0.0
 40
38.014843749999997
  1
極性
 41
0.8
 11
-332.0000000000075
 21
2416.6592476388892
 31
0.0
 73
     3
  0
LINE
  5
187
  8
SPEC
  6
CONTINUOUS
 62
     7
 10
-350.0
 20
2297.8955150000002
 30
0.0
 11
2200.0
 21
2297.8955150000002
 31
0.0
  0
TEXT
  5
188
  8
SPEC
 62
     7
 10
317.99999999999972
 20
2313.6554744444429
 30
0.0
 40
38.006293402777771
  1
BI-AMP駆動時:正相(低域),正相(高域)
 41
0.8
 11
317.99999999999972
 21
2351.6617678472212
 31
0.0
 73
     3
  0
TEXT
  5
189
  8
SPEC
 62
     7
 10
317.99999999999989
 20
2378.653959444443
 30
0.0
 40
38.006293402777771
  1
PASSIVE駆動時:正相(低域),逆相(高域)
 41
0.8
 11
317.99999999999989
 21
2416.6602528472222
 31
0.0
 73
     3
  0
CIRCLE
  5
18A
  8
PATTERN_FILL
  6
CONTINUOUS
 62
     7
 10
254.5
 20
468.59999999999991
 30
0.0
 40
3.25
  0
CIRCLE
  5
18B
  8
PATTERN_FILL
  6
CONTINUOUS
 62
     7
 10
270.5
 20
468.59999999999991
 30
0.0
 40
3.25
  0
CIRCLE
  5
18C
  8
PATTERN_FILL
  6
CONTINUOUS
 62
     7
 10
286.5
 20
468.59999999999991
 30
0.0
 40
3.25
  0
CIRCLE
  5
18D
  8
PATTERN_FILL
  6
CONTINUOUS
 62
     7
 10
302.5
 20
468.59999999999991
 30
0.0
 40
3.25
  0
CIRCLE
  5
18E
  8
PATTERN_FILL
  6
CONTINUOUS
 62
     7
 10
318.5
 20
468.59999999999991
 30
0.0
 40
3.25
  0
CIRCLE
  5
18F
  8
PATTERN_FILL
  6
CONTINUOUS
 62
     7
 10
334.50000000000011
 20
468.59999999999991
 30
0.0
 40
3.25
  0
CIRCLE
  5
190
  8
PATTERN_FILL
  6
CONTINUOUS
 62
     7
 10
94.500000000000014
 20
468.59999999999991
 30
0.0
 40
3.25
  0
CIRCLE
  5
191
  8
PATTERN_FILL
  6
CONTINUOUS
 62
     7
 10
78.5
 20
468.59999999999991
 30
0.0
 40
3.25
  0
CIRCLE
  5
192
  8
PATTERN_FILL
  6
CONTINUOUS
 62
     7
 10
62.5
 20
468.59999999999991
 30
0.0
 40
3.25
  0
CIRCLE
  5
193
  8
PATTERN_FILL
  6
CONTINUOUS
 62
     7
 10
46.5
 20
468.59999999999991
 30
0.0
 40
3.25
  0
CIRCLE
  5
194
  8
PATTERN_FILL
  6
CONTINUOUS
 62
     7
 10
30.5
 20
468.59999999999991
 30
0.0
 40
3.25
  0
CIRCLE
  5
195
  8
PATTERN_FILL
  6
CONTINUOUS
 62
     7
 10
14.5
 20
468.59999999999991
 30
0.0
 40
3.25
  0
CIRCLE
  5
196
  8
PATTERN_FILL
  6
CONTINUOUS
 62
     7
 10
350.50000000000011
 20
468.59999999999991
 30
0.0
 40
3.25
  0
CIRCLE
  5
197
  8
PATTERN_FILL
  6
CONTINUOUS
 62
     7
 10
366.5
 20
468.59999999999991
 30
0.0
 40
3.25
  0
CIRCLE
  5
198
  8
PATTERN_FILL
  6
CONTINUOUS
 62
     7
 10
382.50000000000011
 20
468.59999999999991
 30
0.0
 40
3.25
  0
CIRCLE
  5
199
  8
PATTERN_FILL
  6
CONTINUOUS
 62
     7
 10
110.5
 20
468.59999999999991
 30
0.0
 40
3.25
  0
CIRCLE
  5
19A
  8
PATTERN_FILL
  6
CONTINUOUS
 62
     7
 10
126.5
 20
468.59999999999991
 30
0.0
 40
3.25
  0
CIRCLE
  5
19B
  8
PATTERN_FILL
  6
CONTINUOUS
 62
     7
 10
142.5
 20
468.59999999999991
 30
0.0
 40
3.25
  0
CIRCLE
  5
19C
  8
PATTERN_FILL
  6
CONTINUOUS
 62
     7
 10
254.5
 20
496.59999999999991
 30
0.0
 40
3.25
  0
CIRCLE
  5
19D
  8
PATTERN_FILL
  6
CONTINUOUS
 62
     7
 10
270.5
 20
496.59999999999991
 30
0.0
 40
3.25
  0
CIRCLE
  5
19E
  8
PATTERN_FILL
  6
CONTINUOUS
 62
     7
 10
286.5
 20
496.59999999999991
 30
0.0
 40
3.25
  0
CIRCLE
  5
19F
  8
PATTERN_FILL
  6
CONTINUOUS
 62
     7
 10
302.5
 20
496.59999999999991
 30
0.0
 40
3.25
  0
CIRCLE
  5
1A0
  8
PATTERN_FILL
  6
CONTINUOUS
 62
     7
 10
318.5
 20
496.59999999999991
 30
0.0
 40
3.25
  0
CIRCLE
  5
1A1
  8
PATTERN_FILL
  6
CONTINUOUS
 62
     7
 10
334.50000000000011
 20
496.59999999999991
 30
0.0
 40
3.25
  0
CIRCLE
  5
1A2
  8
PATTERN_FILL
  6
CONTINUOUS
 62
     7
 10
94.500000000000014
 20
496.59999999999991
 30
0.0
 40
3.25
  0
CIRCLE
  5
1A3
  8
PATTERN_FILL
  6
CONTINUOUS
 62
     7
 10
78.5
 20
496.59999999999991
 30
0.0
 40
3.25
  0
CIRCLE
  5
1A4
  8
PATTERN_FILL
  6
CONTINUOUS
 62
     7
 10
62.5
 20
496.59999999999991
 30
0.0
 40
3.25
  0
CIRCLE
  5
1A5
  8
PATTERN_FILL
  6
CONTINUOUS
 62
     7
 10
46.5
 20
496.59999999999991
 30
0.0
 40
3.25
  0
CIRCLE
  5
1A6
  8
PATTERN_FILL
  6
CONTINUOUS
 62
     7
 10
30.5
 20
496.59999999999991
 30
0.0
 40
3.25
  0
CIRCLE
  5
1A7
  8
PATTERN_FILL
  6
CONTINUOUS
 62
     7
 10
14.5
 20
496.59999999999991
 30
0.0
 40
3.25
  0
CIRCLE
  5
1A8
  8
PATTERN_FILL
  6
CONTINUOUS
 62
     7
 10
350.50000000000011
 20
496.59999999999991
 30
0.0
 40
3.25
  0
CIRCLE
  5
1A9
  8
PATTERN_FILL
  6
CONTINUOUS
 62
     7
 10
366.5
 20
496.59999999999991
 30
0.0
 40
3.25
  0
CIRCLE
  5
1AA
  8
PATTERN_FILL
  6
CONTINUOUS
 62
     7
 10
382.50000000000011
 20
496.59999999999991
 30
0.0
 40
3.25
  0
CIRCLE
  5
1AB
  8
PATTERN_FILL
  6
CONTINUOUS
 62
     7
 10
110.5
 20
496.59999999999991
 30
0.0
 40
3.25
  0
CIRCLE
  5
1AC
  8
PATTERN_FILL
  6
CONTINUOUS
 62
     7
 10
126.5
 20
496.59999999999991
 30
0.0
 40
3.25
  0
CIRCLE
  5
1AD
  8
PATTERN_FILL
  6
CONTINUOUS
 62
     7
 10
142.5
 20
496.59999999999991
 30
0.0
 40
3.25
  0
CIRCLE
  5
1AE
  8
PATTERN_FILL
  6
CONTINUOUS
 62
     7
 10
254.5
 20
510.5999999999998
 30
0.0
 40
3.25
  0
CIRCLE
  5
1AF
  8
PATTERN_FILL
  6
CONTINUOUS
 62
     7
 10
270.5
 20
510.5999999999998
 30
0.0
 40
3.25
  0
CIRCLE
  5
1B0
  8
PATTERN_FILL
  6
CONTINUOUS
 62
     7
 10
286.5
 20
510.5999999999998
 30
0.0
 40
3.25
  0
CIRCLE
  5
1B1
  8
PATTERN_FILL
  6
CONTINUOUS
 62
     7
 10
302.5
 20
510.5999999999998
 30
0.0
 40
3.25
  0
CIRCLE
  5
1B2
  8
PATTERN_FILL
  6
CONTINUOUS
 62
     7
 10
318.5
 20
510.5999999999998
 30
0.0
 40
3.25
  0
CIRCLE
  5
1B3
  8
PATTERN_FILL
  6
CONTINUOUS
 62
     7
 10
334.50000000000011
 20
510.5999999999998
 30
0.0
 40
3.25
  0
CIRCLE
  5
1B4
  8
PATTERN_FILL
  6
CONTINUOUS
 62
     7
 10
94.500000000000014
 20
510.5999999999998
 30
0.0
 40
3.25
  0
CIRCLE
  5
1B5
  8
PATTERN_FILL
  6
CONTINUOUS
 62
     7
 10
78.5
 20
510.5999999999998
 30
0.0
 40
3.25
  0
CIRCLE
  5
1B6
  8
PATTERN_FILL
  6
CONTINUOUS
 62
     7
 10
62.5
 20
510.5999999999998
 30
0.0
 40
3.25
  0
CIRCLE
  5
1B7
  8
PATTERN_FILL
  6
CONTINUOUS
 62
     7
 10
46.5
 20
510.5999999999998
 30
0.0
 40
3.25
  0
CIRCLE
  5
1B8
  8
PATTERN_FILL
  6
CONTINUOUS
 62
     7
 10
30.5
 20
510.5999999999998
 30
0.0
 40
3.25
  0
CIRCLE
  5
1B9
  8
PATTERN_FILL
  6
CONTINUOUS
 62
     7
 10
14.5
 20
510.5999999999998
 30
0.0
 40
3.25
  0
CIRCLE
  5
1BA
  8
PATTERN_FILL
  6
CONTINUOUS
 62
     7
 10
350.50000000000011
 20
510.5999999999998
 30
0.0
 40
3.25
  0
CIRCLE
  5
1BB
  8
PATTERN_FILL
  6
CONTINUOUS
 62
     7
 10
366.5
 20
510.5999999999998
 30
0.0
 40
3.25
  0
CIRCLE
  5
1BC
  8
PATTERN_FILL
  6
CONTINUOUS
 62
     7
 10
382.50000000000011
 20
510.5999999999998
 30
0.0
 40
3.25
  0
CIRCLE
  5
1BD
  8
PATTERN_FILL
  6
CONTINUOUS
 62
     7
 10
110.5
 20
510.5999999999998
 30
0.0
 40
3.25
  0
CIRCLE
  5
1BE
  8
PATTERN_FILL
  6
CONTINUOUS
 62
     7
 10
126.5
 20
510.5999999999998
 30
0.0
 40
3.25
  0
CIRCLE
  5
1BF
  8
PATTERN_FILL
  6
CONTINUOUS
 62
     7
 10
142.5
 20
510.5999999999998
 30
0.0
 40
3.25
  0
CIRCLE
  5
1C0
  8
PATTERN_FILL
  6
CONTINUOUS
 62
     7
 10
254.5
 20
524.59999999999991
 30
0.0
 40
3.25
  0
CIRCLE
  5
1C1
  8
PATTERN_FILL
  6
CONTINUOUS
 62
     7
 10
270.5
 20
524.59999999999991
 30
0.0
 40
3.25
  0
CIRCLE
  5
1C2
  8
PATTERN_FILL
  6
CONTINUOUS
 62
     7
 10
286.5
 20
524.59999999999991
 30
0.0
 40
3.25
  0
CIRCLE
  5
1C3
  8
PATTERN_FILL
  6
CONTINUOUS
 62
     7
 10
302.5
 20
524.59999999999991
 30
0.0
 40
3.25
  0
CIRCLE
  5
1C4
  8
PATTERN_FILL
  6
CONTINUOUS
 62
     7
 10
318.5
 20
524.59999999999991
 30
0.0
 40
3.25
  0
CIRCLE
  5
1C5
  8
PATTERN_FILL
  6
CONTINUOUS
 62
     7
 10
334.50000000000011
 20
524.59999999999991
 30
0.0
 40
3.25
  0
CIRCLE
  5
1C6
  8
PATTERN_FILL
  6
CONTINUOUS
 62
     7
 10
94.500000000000014
 20
524.59999999999991
 30
0.0
 40
3.25
  0
CIRCLE
  5
1C7
  8
PATTERN_FILL
  6
CONTINUOUS
 62
     7
 10
78.5
 20
524.59999999999991
 30
0.0
 40
3.25
  0
CIRCLE
  5
1C8
  8
PATTERN_FILL
  6
CONTINUOUS
 62
     7
 10
62.5
 20
524.59999999999991
 30
0.0
 40
3.25
  0
CIRCLE
  5
1C9
  8
PATTERN_FILL
  6
CONTINUOUS
 62
     7
 10
46.5
 20
524.59999999999991
 30
0.0
 40
3.25
  0
CIRCLE
  5
1CA
  8
PATTERN_FILL
  6
CONTINUOUS
 62
     7
 10
30.5
 20
524.59999999999991
 30
0.0
 40
3.25
  0
CIRCLE
  5
1CB
  8
PATTERN_FILL
  6
CONTINUOUS
 62
     7
 10
14.5
 20
524.59999999999991
 30
0.0
 40
3.25
  0
CIRCLE
  5
1CC
  8
PATTERN_FILL
  6
CONTINUOUS
 62
     7
 10
350.50000000000011
 20
524.59999999999991
 30
0.0
 40
3.25
  0
CIRCLE
  5
1CD
  8
PATTERN_FILL
  6
CONTINUOUS
 62
     7
 10
366.5
 20
524.59999999999991
 30
0.0
 40
3.25
  0
CIRCLE
  5
1CE
  8
PATTERN_FILL
  6
CONTINUOUS
 62
     7
 10
382.50000000000011
 20
524.59999999999991
 30
0.0
 40
3.25
  0
CIRCLE
  5
1CF
  8
PATTERN_FILL
  6
CONTINUOUS
 62
     7
 10
110.5
 20
524.59999999999991
 30
0.0
 40
3.25
  0
CIRCLE
  5
1D0
  8
PATTERN_FILL
  6
CONTINUOUS
 62
     7
 10
126.5
 20
524.59999999999991
 30
0.0
 40
3.25
  0
CIRCLE
  5
1D1
  8
PATTERN_FILL
  6
CONTINUOUS
 62
     7
 10
142.5
 20
524.59999999999991
 30
0.0
 40
3.25
  0
CIRCLE
  5
1D2
  8
PATTERN_FILL
  6
CONTINUOUS
 62
     7
 10
158.5
 20
524.59999999999991
 30
0.0
 40
3.25
  0
CIRCLE
  5
1D3
  8
PATTERN_FILL
  6
CONTINUOUS
 62
     7
 10
174.5
 20
524.59999999999991
 30
0.0
 40
3.25
  0
CIRCLE
  5
1D4
  8
PATTERN_FILL
  6
CONTINUOUS
 62
     7
 10
190.5
 20
524.59999999999991
 30
0.0
 40
3.25
  0
CIRCLE
  5
1D5
  8
PATTERN_FILL
  6
CONTINUOUS
 62
     7
 10
206.5
 20
524.59999999999991
 30
0.0
 40
3.25
  0
CIRCLE
  5
1D6
  8
PATTERN_FILL
  6
CONTINUOUS
 62
     7
 10
222.5
 20
524.59999999999991
 30
0.0
 40
3.25
  0
CIRCLE
  5
1D7
  8
PATTERN_FILL
  6
CONTINUOUS
 62
     7
 10
238.5
 20
524.59999999999991
 30
0.0
 40
3.25
  0
CIRCLE
  5
1D8
  8
PATTERN_FILL
  6
CONTINUOUS
 62
     7
 10
254.5
 20
538.59999999999991
 30
0.0
 40
3.25
  0
CIRCLE
  5
1D9
  8
PATTERN_FILL
  6
CONTINUOUS
 62
     7
 10
270.5
 20
538.59999999999991
 30
0.0
 40
3.25
  0
CIRCLE
  5
1DA
  8
PATTERN_FILL
  6
CONTINUOUS
 62
     7
 10
286.5
 20
538.59999999999991
 30
0.0
 40
3.25
  0
CIRCLE
  5
1DB
  8
PATTERN_FILL
  6
CONTINUOUS
 62
     7
 10
302.5
 20
538.59999999999991
 30
0.0
 40
3.25
  0
CIRCLE
  5
1DC
  8
PATTERN_FILL
  6
CONTINUOUS
 62
     7
 10
318.5
 20
538.59999999999991
 30
0.0
 40
3.25
  0
CIRCLE
  5
1DD
  8
PATTERN_FILL
  6
CONTINUOUS
 62
     7
 10
334.50000000000011
 20
538.59999999999991
 30
0.0
 40
3.25
  0
CIRCLE
  5
1DE
  8
PATTERN_FILL
  6
CONTINUOUS
 62
     7
 10
94.500000000000014
 20
538.59999999999991
 30
0.0
 40
3.25
  0
CIRCLE
  5
1DF
  8
PATTERN_FILL
  6
CONTINUOUS
 62
     7
 10
78.5
 20
538.59999999999991
 30
0.0
 40
3.25
  0
CIRCLE
  5
1E0
  8
PATTERN_FILL
  6
CONTINUOUS
 62
     7
 10
62.5
 20
538.59999999999991
 30
0.0
 40
3.25
  0
CIRCLE
  5
1E1
  8
PATTERN_FILL
  6
CONTINUOUS
 62
     7
 10
46.5
 20
538.59999999999991
 30
0.0
 40
3.25
  0
CIRCLE
  5
1E2
  8
PATTERN_FILL
  6
CONTINUOUS
 62
     7
 10
30.5
 20
538.59999999999991
 30
0.0
 40
3.25
  0
CIRCLE
  5
1E3
  8
PATTERN_FILL
  6
CONTINUOUS
 62
     7
 10
14.5
 20
538.59999999999991
 30
0.0
 40
3.25
  0
CIRCLE
  5
1E4
  8
PATTERN_FILL
  6
CONTINUOUS
 62
     7
 10
350.50000000000011
 20
538.59999999999991
 30
0.0
 40
3.25
  0
CIRCLE
  5
1E5
  8
PATTERN_FILL
  6
CONTINUOUS
 62
     7
 10
366.5
 20
538.59999999999991
 30
0.0
 40
3.25
  0
CIRCLE
  5
1E6
  8
PATTERN_FILL
  6
CONTINUOUS
 62
     7
 10
382.50000000000011
 20
538.59999999999991
 30
0.0
 40
3.25
  0
CIRCLE
  5
1E7
  8
PATTERN_FILL
  6
CONTINUOUS
 62
     7
 10
110.5
 20
538.59999999999991
 30
0.0
 40
3.25
  0
CIRCLE
  5
1E8
  8
PATTERN_FILL
  6
CONTINUOUS
 62
     7
 10
126.5
 20
538.59999999999991
 30
0.0
 40
3.25
  0
CIRCLE
  5
1E9
  8
PATTERN_FILL
  6
CONTINUOUS
 62
     7
 10
142.5
 20
538.59999999999991
 30
0.0
 40
3.25
  0
CIRCLE
  5
1EA
  8
PATTERN_FILL
  6
CONTINUOUS
 62
     7
 10
158.5
 20
538.59999999999991
 30
0.0
 40
3.25
  0
CIRCLE
  5
1EB
  8
PATTERN_FILL
  6
CONTINUOUS
 62
     7
 10
174.5
 20
538.59999999999991
 30
0.0
 40
3.25
  0
CIRCLE
  5
1EC
  8
PATTERN_FILL
  6
CONTINUOUS
 62
     7
 10
190.5
 20
538.59999999999991
 30
0.0
 40
3.25
  0
CIRCLE
  5
1ED
  8
PATTERN_FILL
  6
CONTINUOUS
 62
     7
 10
206.5
 20
538.59999999999991
 30
0.0
 40
3.25
  0
CIRCLE
  5
1EE
  8
PATTERN_FILL
  6
CONTINUOUS
 62
     7
 10
222.5
 20
538.59999999999991
 30
0.0
 40
3.25
  0
CIRCLE
  5
1EF
  8
PATTERN_FILL
  6
CONTINUOUS
 62
     7
 10
238.5
 20
538.59999999999991
 30
0.0
 40
3.25
  0
CIRCLE
  5
1F0
  8
PATTERN_FILL
  6
CONTINUOUS
 62
     7
 10
254.5
 20
552.5999999999998
 30
0.0
 40
3.25
  0
CIRCLE
  5
1F1
  8
PATTERN_FILL
  6
CONTINUOUS
 62
     7
 10
270.5
 20
552.5999999999998
 30
0.0
 40
3.25
  0
CIRCLE
  5
1F2
  8
PATTERN_FILL
  6
CONTINUOUS
 62
     7
 10
286.5
 20
552.5999999999998
 30
0.0
 40
3.25
  0
CIRCLE
  5
1F3
  8
PATTERN_FILL
  6
CONTINUOUS
 62
     7
 10
302.5
 20
552.5999999999998
 30
0.0
 40
3.25
  0
CIRCLE
  5
1F4
  8
PATTERN_FILL
  6
CONTINUOUS
 62
     7
 10
318.5
 20
552.5999999999998
 30
0.0
 40
3.25
  0
CIRCLE
  5
1F5
  8
PATTERN_FILL
  6
CONTINUOUS
 62
     7
 10
334.50000000000011
 20
552.5999999999998
 30
0.0
 40
3.25
  0
CIRCLE
  5
1F6
  8
PATTERN_FILL
  6
CONTINUOUS
 62
     7
 10
94.500000000000014
 20
552.5999999999998
 30
0.0
 40
3.25
  0
CIRCLE
  5
1F7
  8
PATTERN_FILL
  6
CONTINUOUS
 62
     7
 10
78.5
 20
552.5999999999998
 30
0.0
 40
3.25
  0
CIRCLE
  5
1F8
  8
PATTERN_FILL
  6
CONTINUOUS
 62
     7
 10
62.5
 20
552.5999999999998
 30
0.0
 40
3.25
  0
CIRCLE
  5
1F9
  8
PATTERN_FILL
  6
CONTINUOUS
 62
     7
 10
46.5
 20
552.5999999999998
 30
0.0
 40
3.25
  0
CIRCLE
  5
1FA
  8
PATTERN_FILL
  6
CONTINUOUS
 62
     7
 10
30.5
 20
552.5999999999998
 30
0.0
 40
3.25
  0
CIRCLE
  5
1FB
  8
PATTERN_FILL
  6
CONTINUOUS
 62
     7
 10
14.5
 20
552.5999999999998
 30
0.0
 40
3.25
  0
CIRCLE
  5
1FC
  8
PATTERN_FILL
  6
CONTINUOUS
 62
     7
 10
350.50000000000011
 20
552.5999999999998
 30
0.0
 40
3.25
  0
CIRCLE
  5
1FD
  8
PATTERN_FILL
  6
CONTINUOUS
 62
     7
 10
366.5
 20
552.5999999999998
 30
0.0
 40
3.25
  0
CIRCLE
  5
1FE
  8
PATTERN_FILL
  6
CONTINUOUS
 62
     7
 10
382.50000000000011
 20
552.5999999999998
 30
0.0
 40
3.25
  0
CIRCLE
  5
1FF
  8
PATTERN_FILL
  6
CONTINUOUS
 62
     7
 10
110.5
 20
552.5999999999998
 30
0.0
 40
3.25
  0
CIRCLE
  5
200
  8
PATTERN_FILL
  6
CONTINUOUS
 62
     7
 10
126.5
 20
552.5999999999998
 30
0.0
 40
3.25
  0
CIRCLE
  5
201
  8
PATTERN_FILL
  6
CONTINUOUS
 62
     7
 10
142.5
 20
552.5999999999998
 30
0.0
 40
3.25
  0
CIRCLE
  5
202
  8
PATTERN_FILL
  6
CONTINUOUS
 62
     7
 10
158.5
 20
552.5999999999998
 30
0.0
 40
3.25
  0
CIRCLE
  5
203
  8
PATTERN_FILL
  6
CONTINUOUS
 62
     7
 10
174.5
 20
552.5999999999998
 30
0.0
 40
3.25
  0
CIRCLE
  5
204
  8
PATTERN_FILL
  6
CONTINUOUS
 62
     7
 10
190.5
 20
552.5999999999998
 30
0.0
 40
3.25
  0
CIRCLE
  5
205
  8
PATTERN_FILL
  6
CONTINUOUS
 62
     7
 10
206.5
 20
552.5999999999998
 30
0.0
 40
3.25
  0
CIRCLE
  5
206
  8
PATTERN_FILL
  6
CONTINUOUS
 62
     7
 10
222.5
 20
552.5999999999998
 30
0.0
 40
3.25
  0
CIRCLE
  5
207
  8
PATTERN_FILL
  6
CONTINUOUS
 62
     7
 10
238.5
 20
552.5999999999998
 30
0.0
 40
3.25
  0
CIRCLE
  5
208
  8
PATTERN_FILL
  6
CONTINUOUS
 62
     7
 10
254.5
 20
566.59999999999968
 30
0.0
 40
3.25
  0
CIRCLE
  5
209
  8
PATTERN_FILL
  6
CONTINUOUS
 62
     7
 10
270.5
 20
566.59999999999968
 30
0.0
 40
3.25
  0
CIRCLE
  5
20A
  8
PATTERN_FILL
  6
CONTINUOUS
 62
     7
 10
286.5
 20
566.59999999999968
 30
0.0
 40
3.25
  0
CIRCLE
  5
20B
  8
PATTERN_FILL
  6
CONTINUOUS
 62
     7
 10
302.5
 20
566.59999999999968
 30
0.0
 40
3.25
  0
CIRCLE
  5
20C
  8
PATTERN_FILL
  6
CONTINUOUS
 62
     7
 10
318.5
 20
566.59999999999968
 30
0.0
 40
3.25
  0
CIRCLE
  5
20D
  8
PATTERN_FILL
  6
CONTINUOUS
 62
     7
 10
334.50000000000011
 20
566.59999999999968
 30
0.0
 40
3.25
  0
CIRCLE
  5
20E
  8
PATTERN_FILL
  6
CONTINUOUS
 62
     7
 10
94.500000000000014
 20
566.59999999999968
 30
0.0
 40
3.25
  0
CIRCLE
  5
20F
  8
PATTERN_FILL
  6
CONTINUOUS
 62
     7
 10
78.5
 20
566.59999999999968
 30
0.0
 40
3.25
  0
CIRCLE
  5
210
  8
PATTERN_FILL
  6
CONTINUOUS
 62
     7
 10
62.5
 20
566.59999999999968
 30
0.0
 40
3.25
  0
CIRCLE
  5
211
  8
PATTERN_FILL
  6
CONTINUOUS
 62
     7
 10
46.5
 20
566.59999999999968
 30
0.0
 40
3.25
  0
CIRCLE
  5
212
  8
PATTERN_FILL
  6
CONTINUOUS
 62
     7
 10
30.5
 20
566.59999999999968
 30
0.0
 40
3.25
  0
CIRCLE
  5
213
  8
PATTERN_FILL
  6
CONTINUOUS
 62
     7
 10
14.5
 20
566.59999999999968
 30
0.0
 40
3.25
  0
CIRCLE
  5
214
  8
PATTERN_FILL
  6
CONTINUOUS
 62
     7
 10
350.50000000000011
 20
566.59999999999968
 30
0.0
 40
3.25
  0
CIRCLE
  5
215
  8
PATTERN_FILL
  6
CONTINUOUS
 62
     7
 10
366.5
 20
566.59999999999968
 30
0.0
 40
3.25
  0
CIRCLE
  5
216
  8
PATTERN_FILL
  6
CONTINUOUS
 62
     7
 10
382.50000000000011
 20
566.59999999999968
 30
0.0
 40
3.25
  0
CIRCLE
  5
217
  8
PATTERN_FILL
  6
CONTINUOUS
 62
     7
 10
110.5
 20
566.59999999999968
 30
0.0
 40
3.25
  0
CIRCLE
  5
218
  8
PATTERN_FILL
  6
CONTINUOUS
 62
     7
 10
126.5
 20
566.59999999999968
 30
0.0
 40
3.25
  0
CIRCLE
  5
219
  8
PATTERN_FILL
  6
CONTINUOUS
 62
     7
 10
142.5
 20
566.59999999999968
 30
0.0
 40
3.25
  0
CIRCLE
  5
21A
  8
PATTERN_FILL
  6
CONTINUOUS
 62
     7
 10
158.5
 20
566.59999999999968
 30
0.0
 40
3.25
  0
CIRCLE
  5
21B
  8
PATTERN_FILL
  6
CONTINUOUS
 62
     7
 10
174.5
 20
566.59999999999968
 30
0.0
 40
3.25
  0
CIRCLE
  5
21C
  8
PATTERN_FILL
  6
CONTINUOUS
 62
     7
 10
190.5
 20
566.59999999999968
 30
0.0
 40
3.25
  0
CIRCLE
  5
21D
  8
PATTERN_FILL
  6
CONTINUOUS
 62
     7
 10
206.5
 20
566.59999999999968
 30
0.0
 40
3.25
  0
CIRCLE
  5
21E
  8
PATTERN_FILL
  6
CONTINUOUS
 62
     7
 10
222.5
 20
566.59999999999968
 30
0.0
 40
3.25
  0
CIRCLE
  5
21F
  8
PATTERN_FILL
  6
CONTINUOUS
 62
     7
 10
238.5
 20
566.59999999999968
 30
0.0
 40
3.25
  0
CIRCLE
  5
220
  8
PATTERN_FILL
  6
CONTINUOUS
 62
     7
 10
254.5
 20
580.5999999999998
 30
0.0
 40
3.25
  0
CIRCLE
  5
221
  8
PATTERN_FILL
  6
CONTINUOUS
 62
     7
 10
270.5
 20
580.5999999999998
 30
0.0
 40
3.25
  0
CIRCLE
  5
222
  8
PATTERN_FILL
  6
CONTINUOUS
 62
     7
 10
286.5
 20
580.5999999999998
 30
0.0
 40
3.25
  0
CIRCLE
  5
223
  8
PATTERN_FILL
  6
CONTINUOUS
 62
     7
 10
302.5
 20
580.5999999999998
 30
0.0
 40
3.25
  0
CIRCLE
  5
224
  8
PATTERN_FILL
  6
CONTINUOUS
 62
     7
 10
318.5
 20
580.5999999999998
 30
0.0
 40
3.25
  0
CIRCLE
  5
225
  8
PATTERN_FILL
  6
CONTINUOUS
 62
     7
 10
334.50000000000011
 20
580.5999999999998
 30
0.0
 40
3.25
  0
CIRCLE
  5
226
  8
PATTERN_FILL
  6
CONTINUOUS
 62
     7
 10
94.500000000000014
 20
580.5999999999998
 30
0.0
 40
3.25
  0
CIRCLE
  5
227
  8
PATTERN_FILL
  6
CONTINUOUS
 62
     7
 10
78.5
 20
580.5999999999998
 30
0.0
 40
3.25
  0
CIRCLE
  5
228
  8
PATTERN_FILL
  6
CONTINUOUS
 62
     7
 10
62.5
 20
580.5999999999998
 30
0.0
 40
3.25
  0
CIRCLE
  5
229
  8
PATTERN_FILL
  6
CONTINUOUS
 62
     7
 10
46.5
 20
580.5999999999998
 30
0.0
 40
3.25
  0
CIRCLE
  5
22A
  8
PATTERN_FILL
  6
CONTINUOUS
 62
     7
 10
30.5
 20
580.5999999999998
 30
0.0
 40
3.25
  0
CIRCLE
  5
22B
  8
PATTERN_FILL
  6
CONTINUOUS
 62
     7
 10
14.5
 20
580.5999999999998
 30
0.0
 40
3.25
  0
CIRCLE
  5
22C
  8
PATTERN_FILL
  6
CONTINUOUS
 62
     7
 10
350.50000000000011
 20
580.5999999999998
 30
0.0
 40
3.25
  0
CIRCLE
  5
22D
  8
PATTERN_FILL
  6
CONTINUOUS
 62
     7
 10
366.5
 20
580.5999999999998
 30
0.0
 40
3.25
  0
CIRCLE
  5
22E
  8
PATTERN_FILL
  6
CONTINUOUS
 62
     7
 10
382.50000000000011
 20
580.5999999999998
 30
0.0
 40
3.25
  0
CIRCLE
  5
22F
  8
PATTERN_FILL
  6
CONTINUOUS
 62
     7
 10
110.5
 20
580.5999999999998
 30
0.0
 40
3.25
  0
CIRCLE
  5
230
  8
PATTERN_FILL
  6
CONTINUOUS
 62
     7
 10
126.5
 20
580.5999999999998
 30
0.0
 40
3.25
  0
CIRCLE
  5
231
  8
PATTERN_FILL
  6
CONTINUOUS
 62
     7
 10
142.5
 20
580.5999999999998
 30
0.0
 40
3.25
  0
CIRCLE
  5
232
  8
PATTERN_FILL
  6
CONTINUOUS
 62
     7
 10
158.5
 20
580.5999999999998
 30
0.0
 40
3.25
  0
CIRCLE
  5
233
  8
PATTERN_FILL
  6
CONTINUOUS
 62
     7
 10
174.5
 20
580.5999999999998
 30
0.0
 40
3.25
  0
CIRCLE
  5
234
  8
PATTERN_FILL
  6
CONTINUOUS
 62
     7
 10
190.5
 20
580.5999999999998
 30
0.0
 40
3.25
  0
CIRCLE
  5
235
  8
PATTERN_FILL
  6
CONTINUOUS
 62
     7
 10
206.5
 20
580.5999999999998
 30
0.0
 40
3.25
  0
CIRCLE
  5
236
  8
PATTERN_FILL
  6
CONTINUOUS
 62
     7
 10
222.5
 20
580.5999999999998
 30
0.0
 40
3.25
  0
CIRCLE
  5
237
  8
PATTERN_FILL
  6
CONTINUOUS
 62
     7
 10
238.5
 20
580.5999999999998
 30
0.0
 40
3.25
  0
CIRCLE
  5
238
  8
PATTERN_FILL
  6
CONTINUOUS
 62
     7
 10
254.5
 20
594.59999999999968
 30
0.0
 40
3.25
  0
CIRCLE
  5
239
  8
PATTERN_FILL
  6
CONTINUOUS
 62
     7
 10
270.5
 20
594.59999999999968
 30
0.0
 40
3.25
  0
CIRCLE
  5
23A
  8
PATTERN_FILL
  6
CONTINUOUS
 62
     7
 10
286.5
 20
594.59999999999968
 30
0.0
 40
3.25
  0
CIRCLE
  5
23B
  8
PATTERN_FILL
  6
CONTINUOUS
 62
     7
 10
302.5
 20
594.59999999999968
 30
0.0
 40
3.25
  0
CIRCLE
  5
23C
  8
PATTERN_FILL
  6
CONTINUOUS
 62
     7
 10
318.5
 20
594.59999999999968
 30
0.0
 40
3.25
  0
CIRCLE
  5
23D
  8
PATTERN_FILL
  6
CONTINUOUS
 62
     7
 10
334.50000000000011
 20
594.59999999999968
 30
0.0
 40
3.25
  0
CIRCLE
  5
23E
  8
PATTERN_FILL
  6
CONTINUOUS
 62
     7
 10
94.500000000000014
 20
594.59999999999968
 30
0.0
 40
3.25
  0
CIRCLE
  5
23F
  8
PATTERN_FILL
  6
CONTINUOUS
 62
     7
 10
78.5
 20
594.59999999999968
 30
0.0
 40
3.25
  0
CIRCLE
  5
240
  8
PATTERN_FILL
  6
CONTINUOUS
 62
     7
 10
62.5
 20
594.59999999999968
 30
0.0
 40
3.25
  0
CIRCLE
  5
241
  8
PATTERN_FILL
  6
CONTINUOUS
 62
     7
 10
46.5
 20
594.59999999999968
 30
0.0
 40
3.25
  0
CIRCLE
  5
242
  8
PATTERN_FILL
  6
CONTINUOUS
 62
     7
 10
30.5
 20
594.59999999999968
 30
0.0
 40
3.25
  0
CIRCLE
  5
243
  8
PATTERN_FILL
  6
CONTINUOUS
 62
     7
 10
14.5
 20
594.59999999999968
 30
0.0
 40
3.25
  0
CIRCLE
  5
244
  8
PATTERN_FILL
  6
CONTINUOUS
 62
     7
 10
350.50000000000011
 20
594.59999999999968
 30
0.0
 40
3.25
  0
CIRCLE
  5
245
  8
PATTERN_FILL
  6
CONTINUOUS
 62
     7
 10
366.5
 20
594.59999999999968
 30
0.0
 40
3.25
  0
CIRCLE
  5
246
  8
PATTERN_FILL
  6
CONTINUOUS
 62
     7
 10
382.50000000000011
 20
594.59999999999968
 30
0.0
 40
3.25
  0
CIRCLE
  5
247
  8
PATTERN_FILL
  6
CONTINUOUS
 62
     7
 10
110.5
 20
594.59999999999968
 30
0.0
 40
3.25
  0
CIRCLE
  5
248
  8
PATTERN_FILL
  6
CONTINUOUS
 62
     7
 10
126.5
 20
594.59999999999968
 30
0.0
 40
3.25
  0
CIRCLE
  5
249
  8
PATTERN_FILL
  6
CONTINUOUS
 62
     7
 10
142.5
 20
594.59999999999968
 30
0.0
 40
3.25
  0
CIRCLE
  5
24A
  8
PATTERN_FILL
  6
CONTINUOUS
 62
     7
 10
158.5
 20
594.59999999999968
 30
0.0
 40
3.25
  0
CIRCLE
  5
24B
  8
PATTERN_FILL
  6
CONTINUOUS
 62
     7
 10
174.5
 20
594.59999999999968
 30
0.0
 40
3.25
  0
CIRCLE
  5
24C
  8
PATTERN_FILL
  6
CONTINUOUS
 62
     7
 10
190.5
 20
594.59999999999968
 30
0.0
 40
3.25
  0
CIRCLE
  5
24D
  8
PATTERN_FILL
  6
CONTINUOUS
 62
     7
 10
206.5
 20
594.59999999999968
 30
0.0
 40
3.25
  0
CIRCLE
  5
24E
  8
PATTERN_FILL
  6
CONTINUOUS
 62
     7
 10
222.5
 20
594.59999999999968
 30
0.0
 40
3.25
  0
CIRCLE
  5
24F
  8
PATTERN_FILL
  6
CONTINUOUS
 62
     7
 10
238.5
 20
594.59999999999968
 30
0.0
 40
3.25
  0
CIRCLE
  5
250
  8
PATTERN_FILL
  6
CONTINUOUS
 62
     7
 10
254.5
 20
608.5999999999998
 30
0.0
 40
3.25
  0
CIRCLE
  5
251
  8
PATTERN_FILL
  6
CONTINUOUS
 62
     7
 10
270.5
 20
608.5999999999998
 30
0.0
 40
3.25
  0
CIRCLE
  5
252
  8
PATTERN_FILL
  6
CONTINUOUS
 62
     7
 10
286.5
 20
608.5999999999998
 30
0.0
 40
3.25
  0
CIRCLE
  5
253
  8
PATTERN_FILL
  6
CONTINUOUS
 62
     7
 10
302.5
 20
608.5999999999998
 30
0.0
 40
3.25
  0
CIRCLE
  5
254
  8
PATTERN_FILL
  6
CONTINUOUS
 62
     7
 10
318.5
 20
608.5999999999998
 30
0.0
 40
3.25
  0
CIRCLE
  5
255
  8
PATTERN_FILL
  6
CONTINUOUS
 62
     7
 10
334.50000000000011
 20
608.5999999999998
 30
0.0
 40
3.25
  0
CIRCLE
  5
256
  8
PATTERN_FILL
  6
CONTINUOUS
 62
     7
 10
94.500000000000014
 20
608.5999999999998
 30
0.0
 40
3.25
  0
CIRCLE
  5
257
  8
PATTERN_FILL
  6
CONTINUOUS
 62
     7
 10
78.5
 20
608.5999999999998
 30
0.0
 40
3.25
  0
CIRCLE
  5
258
  8
PATTERN_FILL
  6
CONTINUOUS
 62
     7
 10
62.5
 20
608.5999999999998
 30
0.0
 40
3.25
  0
CIRCLE
  5
259
  8
PATTERN_FILL
  6
CONTINUOUS
 62
     7
 10
46.5
 20
608.5999999999998
 30
0.0
 40
3.25
  0
CIRCLE
  5
25A
  8
PATTERN_FILL
  6
CONTINUOUS
 62
     7
 10
30.5
 20
608.5999999999998
 30
0.0
 40
3.25
  0
CIRCLE
  5
25B
  8
PATTERN_FILL
  6
CONTINUOUS
 62
     7
 10
14.5
 20
608.5999999999998
 30
0.0
 40
3.25
  0
CIRCLE
  5
25C
  8
PATTERN_FILL
  6
CONTINUOUS
 62
     7
 10
350.50000000000011
 20
608.5999999999998
 30
0.0
 40
3.25
  0
CIRCLE
  5
25D
  8
PATTERN_FILL
  6
CONTINUOUS
 62
     7
 10
366.5
 20
608.5999999999998
 30
0.0
 40
3.25
  0
CIRCLE
  5
25E
  8
PATTERN_FILL
  6
CONTINUOUS
 62
     7
 10
382.50000000000011
 20
608.5999999999998
 30
0.0
 40
3.25
  0
CIRCLE
  5
25F
  8
PATTERN_FILL
  6
CONTINUOUS
 62
     7
 10
110.5
 20
608.5999999999998
 30
0.0
 40
3.25
  0
CIRCLE
  5
260
  8
PATTERN_FILL
  6
CONTINUOUS
 62
     7
 10
126.5
 20
608.5999999999998
 30
0.0
 40
3.25
  0
CIRCLE
  5
261
  8
PATTERN_FILL
  6
CONTINUOUS
 62
     7
 10
142.5
 20
608.5999999999998
 30
0.0
 40
3.25
  0
CIRCLE
  5
262
  8
PATTERN_FILL
  6
CONTINUOUS
 62
     7
 10
158.5
 20
608.5999999999998
 30
0.0
 40
3.25
  0
CIRCLE
  5
263
  8
PATTERN_FILL
  6
CONTINUOUS
 62
     7
 10
174.5
 20
608.5999999999998
 30
0.0
 40
3.25
  0
CIRCLE
  5
264
  8
PATTERN_FILL
  6
CONTINUOUS
 62
     7
 10
190.5
 20
608.5999999999998
 30
0.0
 40
3.25
  0
CIRCLE
  5
265
  8
PATTERN_FILL
  6
CONTINUOUS
 62
     7
 10
206.5
 20
608.5999999999998
 30
0.0
 40
3.25
  0
CIRCLE
  5
266
  8
PATTERN_FILL
  6
CONTINUOUS
 62
     7
 10
222.5
 20
608.5999999999998
 30
0.0
 40
3.25
  0
CIRCLE
  5
267
  8
PATTERN_FILL
  6
CONTINUOUS
 62
     7
 10
238.5
 20
608.5999999999998
 30
0.0
 40
3.25
  0
CIRCLE
  5
268
  8
PATTERN_FILL
  6
CONTINUOUS
 62
     7
 10
254.5
 20
622.5999999999998
 30
0.0
 40
3.25
  0
CIRCLE
  5
269
  8
PATTERN_FILL
  6
CONTINUOUS
 62
     7
 10
270.5
 20
622.5999999999998
 30
0.0
 40
3.25
  0
CIRCLE
  5
26A
  8
PATTERN_FILL
  6
CONTINUOUS
 62
     7
 10
286.5
 20
622.5999999999998
 30
0.0
 40
3.25
  0
CIRCLE
  5
26B
  8
PATTERN_FILL
  6
CONTINUOUS
 62
     7
 10
302.5
 20
622.5999999999998
 30
0.0
 40
3.25
  0
CIRCLE
  5
26C
  8
PATTERN_FILL
  6
CONTINUOUS
 62
     7
 10
318.5
 20
622.5999999999998
 30
0.0
 40
3.25
  0
CIRCLE
  5
26D
  8
PATTERN_FILL
  6
CONTINUOUS
 62
     7
 10
334.50000000000011
 20
622.5999999999998
 30
0.0
 40
3.25
  0
CIRCLE
  5
26E
  8
PATTERN_FILL
  6
CONTINUOUS
 62
     7
 10
94.500000000000014
 20
622.5999999999998
 30
0.0
 40
3.25
  0
CIRCLE
  5
26F
  8
PATTERN_FILL
  6
CONTINUOUS
 62
     7
 10
78.5
 20
622.5999999999998
 30
0.0
 40
3.25
  0
CIRCLE
  5
270
  8
PATTERN_FILL
  6
CONTINUOUS
 62
     7
 10
62.5
 20
622.5999999999998
 30
0.0
 40
3.25
  0
CIRCLE
  5
271
  8
PATTERN_FILL
  6
CONTINUOUS
 62
     7
 10
46.5
 20
622.5999999999998
 30
0.0
 40
3.25
  0
CIRCLE
  5
272
  8
PATTERN_FILL
  6
CONTINUOUS
 62
     7
 10
30.5
 20
622.5999999999998
 30
0.0
 40
3.25
  0
CIRCLE
  5
273
  8
PATTERN_FILL
  6
CONTINUOUS
 62
     7
 10
14.5
 20
622.5999999999998
 30
0.0
 40
3.25
  0
CIRCLE
  5
274
  8
PATTERN_FILL
  6
CONTINUOUS
 62
     7
 10
350.50000000000011
 20
622.5999999999998
 30
0.0
 40
3.25
  0
CIRCLE
  5
275
  8
PATTERN_FILL
  6
CONTINUOUS
 62
     7
 10
366.5
 20
622.5999999999998
 30
0.0
 40
3.25
  0
CIRCLE
  5
276
  8
PATTERN_FILL
  6
CONTINUOUS
 62
     7
 10
382.50000000000011
 20
622.5999999999998
 30
0.0
 40
3.25
  0
CIRCLE
  5
277
  8
PATTERN_FILL
  6
CONTINUOUS
 62
     7
 10
110.5
 20
622.5999999999998
 30
0.0
 40
3.25
  0
CIRCLE
  5
278
  8
PATTERN_FILL
  6
CONTINUOUS
 62
     7
 10
126.5
 20
622.5999999999998
 30
0.0
 40
3.25
  0
CIRCLE
  5
279
  8
PATTERN_FILL
  6
CONTINUOUS
 62
     7
 10
142.5
 20
622.5999999999998
 30
0.0
 40
3.25
  0
CIRCLE
  5
27A
  8
PATTERN_FILL
  6
CONTINUOUS
 62
     7
 10
158.5
 20
622.5999999999998
 30
0.0
 40
3.25
  0
CIRCLE
  5
27B
  8
PATTERN_FILL
  6
CONTINUOUS
 62
     7
 10
174.5
 20
622.5999999999998
 30
0.0
 40
3.25
  0
CIRCLE
  5
27C
  8
PATTERN_FILL
  6
CONTINUOUS
 62
     7
 10
190.5
 20
622.5999999999998
 30
0.0
 40
3.25
  0
CIRCLE
  5
27D
  8
PATTERN_FILL
  6
CONTINUOUS
 62
     7
 10
206.5
 20
622.5999999999998
 30
0.0
 40
3.25
  0
CIRCLE
  5
27E
  8
PATTERN_FILL
  6
CONTINUOUS
 62
     7
 10
222.5
 20
622.5999999999998
 30
0.0
 40
3.25
  0
CIRCLE
  5
27F
  8
PATTERN_FILL
  6
CONTINUOUS
 62
     7
 10
238.5
 20
622.5999999999998
 30
0.0
 40
3.25
  0
CIRCLE
  5
280
  8
PATTERN_FILL
  6
CONTINUOUS
 62
     7
 10
254.5
 20
636.59999999999968
 30
0.0
 40
3.25
  0
CIRCLE
  5
281
  8
PATTERN_FILL
  6
CONTINUOUS
 62
     7
 10
270.5
 20
636.59999999999968
 30
0.0
 40
3.25
  0
CIRCLE
  5
282
  8
PATTERN_FILL
  6
CONTINUOUS
 62
     7
 10
286.5
 20
636.59999999999968
 30
0.0
 40
3.25
  0
CIRCLE
  5
283
  8
PATTERN_FILL
  6
CONTINUOUS
 62
     7
 10
302.5
 20
636.59999999999968
 30
0.0
 40
3.25
  0
CIRCLE
  5
284
  8
PATTERN_FILL
  6
CONTINUOUS
 62
     7
 10
318.5
 20
636.59999999999968
 30
0.0
 40
3.25
  0
CIRCLE
  5
285
  8
PATTERN_FILL
  6
CONTINUOUS
 62
     7
 10
334.50000000000011
 20
636.59999999999968
 30
0.0
 40
3.25
  0
CIRCLE
  5
286
  8
PATTERN_FILL
  6
CONTINUOUS
 62
     7
 10
94.500000000000014
 20
636.59999999999968
 30
0.0
 40
3.25
  0
CIRCLE
  5
287
  8
PATTERN_FILL
  6
CONTINUOUS
 62
     7
 10
78.5
 20
636.59999999999968
 30
0.0
 40
3.25
  0
CIRCLE
  5
288
  8
PATTERN_FILL
  6
CONTINUOUS
 62
     7
 10
62.5
 20
636.59999999999968
 30
0.0
 40
3.25
  0
CIRCLE
  5
289
  8
PATTERN_FILL
  6
CONTINUOUS
 62
     7
 10
46.5
 20
636.59999999999968
 30
0.0
 40
3.25
  0
CIRCLE
  5
28A
  8
PATTERN_FILL
  6
CONTINUOUS
 62
     7
 10
30.5
 20
636.59999999999968
 30
0.0
 40
3.25
  0
CIRCLE
  5
28B
  8
PATTERN_FILL
  6
CONTINUOUS
 62
     7
 10
14.5
 20
636.59999999999968
 30
0.0
 40
3.25
  0
CIRCLE
  5
28C
  8
PATTERN_FILL
  6
CONTINUOUS
 62
     7
 10
350.50000000000011
 20
636.59999999999968
 30
0.0
 40
3.25
  0
CIRCLE
  5
28D
  8
PATTERN_FILL
  6
CONTINUOUS
 62
     7
 10
366.5
 20
636.59999999999968
 30
0.0
 40
3.25
  0
CIRCLE
  5
28E
  8
PATTERN_FILL
  6
CONTINUOUS
 62
     7
 10
382.50000000000011
 20
636.59999999999968
 30
0.0
 40
3.25
  0
CIRCLE
  5
28F
  8
PATTERN_FILL
  6
CONTINUOUS
 62
     7
 10
110.5
 20
636.59999999999968
 30
0.0
 40
3.25
  0
CIRCLE
  5
290
  8
PATTERN_FILL
  6
CONTINUOUS
 62
     7
 10
126.5
 20
636.59999999999968
 30
0.0
 40
3.25
  0
CIRCLE
  5
291
  8
PATTERN_FILL
  6
CONTINUOUS
 62
     7
 10
142.5
 20
636.59999999999968
 30
0.0
 40
3.25
  0
CIRCLE
  5
292
  8
PATTERN_FILL
  6
CONTINUOUS
 62
     7
 10
158.5
 20
636.59999999999968
 30
0.0
 40
3.25
  0
CIRCLE
  5
293
  8
PATTERN_FILL
  6
CONTINUOUS
 62
     7
 10
174.5
 20
636.59999999999968
 30
0.0
 40
3.25
  0
CIRCLE
  5
294
  8
PATTERN_FILL
  6
CONTINUOUS
 62
     7
 10
190.5
 20
636.59999999999968
 30
0.0
 40
3.25
  0
CIRCLE
  5
295
  8
PATTERN_FILL
  6
CONTINUOUS
 62
     7
 10
206.5
 20
636.59999999999968
 30
0.0
 40
3.25
  0
CIRCLE
  5
296
  8
PATTERN_FILL
  6
CONTINUOUS
 62
     7
 10
222.5
 20
636.59999999999968
 30
0.0
 40
3.25
  0
CIRCLE
  5
297
  8
PATTERN_FILL
  6
CONTINUOUS
 62
     7
 10
238.5
 20
636.59999999999968
 30
0.0
 40
3.25
  0
CIRCLE
  5
298
  8
PATTERN_FILL
  6
CONTINUOUS
 62
     7
 10
254.5
 20
650.5999999999998
 30
0.0
 40
3.25
  0
CIRCLE
  5
299
  8
PATTERN_FILL
  6
CONTINUOUS
 62
     7
 10
270.5
 20
650.5999999999998
 30
0.0
 40
3.25
  0
CIRCLE
  5
29A
  8
PATTERN_FILL
  6
CONTINUOUS
 62
     7
 10
286.5
 20
650.5999999999998
 30
0.0
 40
3.25
  0
CIRCLE
  5
29B
  8
PATTERN_FILL
  6
CONTINUOUS
 62
     7
 10
302.5
 20
650.5999999999998
 30
0.0
 40
3.25
  0
CIRCLE
  5
29C
  8
PATTERN_FILL
  6
CONTINUOUS
 62
     7
 10
318.5
 20
650.5999999999998
 30
0.0
 40
3.25
  0
CIRCLE
  5
29D
  8
PATTERN_FILL
  6
CONTINUOUS
 62
     7
 10
334.50000000000011
 20
650.5999999999998
 30
0.0
 40
3.25
  0
CIRCLE
  5
29E
  8
PATTERN_FILL
  6
CONTINUOUS
 62
     7
 10
94.500000000000014
 20
650.5999999999998
 30
0.0
 40
3.25
  0
CIRCLE
  5
29F
  8
PATTERN_FILL
  6
CONTINUOUS
 62
     7
 10
78.5
 20
650.5999999999998
 30
0.0
 40
3.25
  0
CIRCLE
  5
2A0
  8
PATTERN_FILL
  6
CONTINUOUS
 62
     7
 10
62.5
 20
650.5999999999998
 30
0.0
 40
3.25
  0
CIRCLE
  5
2A1
  8
PATTERN_FILL
  6
CONTINUOUS
 62
     7
 10
46.5
 20
650.5999999999998
 30
0.0
 40
3.25
  0
CIRCLE
  5
2A2
  8
PATTERN_FILL
  6
CONTINUOUS
 62
     7
 10
30.5
 20
650.5999999999998
 30
0.0
 40
3.25
  0
CIRCLE
  5
2A3
  8
PATTERN_FILL
  6
CONTINUOUS
 62
     7
 10
14.5
 20
650.5999999999998
 30
0.0
 40
3.25
  0
CIRCLE
  5
2A4
  8
PATTERN_FILL
  6
CONTINUOUS
 62
     7
 10
350.50000000000011
 20
650.5999999999998
 30
0.0
 40
3.25
  0
CIRCLE
  5
2A5
  8
PATTERN_FILL
  6
CONTINUOUS
 62
     7
 10
366.5
 20
650.5999999999998
 30
0.0
 40
3.25
  0
CIRCLE
  5
2A6
  8
PATTERN_FILL
  6
CONTINUOUS
 62
     7
 10
382.50000000000011
 20
650.5999999999998
 30
0.0
 40
3.25
  0
CIRCLE
  5
2A7
  8
PATTERN_FILL
  6
CONTINUOUS
 62
     7
 10
110.5
 20
650.5999999999998
 30
0.0
 40
3.25
  0
CIRCLE
  5
2A8
  8
PATTERN_FILL
  6
CONTINUOUS
 62
     7
 10
126.5
 20
650.5999999999998
 30
0.0
 40
3.25
  0
CIRCLE
  5
2A9
  8
PATTERN_FILL
  6
CONTINUOUS
 62
     7
 10
142.5
 20
650.5999999999998
 30
0.0
 40
3.25
  0
CIRCLE
  5
2AA
  8
PATTERN_FILL
  6
CONTINUOUS
 62
     7
 10
158.5
 20
650.5999999999998
 30
0.0
 40
3.25
  0
CIRCLE
  5
2AB
  8
PATTERN_FILL
  6
CONTINUOUS
 62
     7
 10
174.5
 20
650.5999999999998
 30
0.0
 40
3.25
  0
CIRCLE
  5
2AC
  8
PATTERN_FILL
  6
CONTINUOUS
 62
     7
 10
190.5
 20
650.5999999999998
 30
0.0
 40
3.25
  0
CIRCLE
  5
2AD
  8
PATTERN_FILL
  6
CONTINUOUS
 62
     7
 10
206.5
 20
650.5999999999998
 30
0.0
 40
3.25
  0
CIRCLE
  5
2AE
  8
PATTERN_FILL
  6
CONTINUOUS
 62
     7
 10
222.5
 20
650.5999999999998
 30
0.0
 40
3.25
  0
CIRCLE
  5
2AF
  8
PATTERN_FILL
  6
CONTINUOUS
 62
     7
 10
238.5
 20
650.5999999999998
 30
0.0
 40
3.25
  0
CIRCLE
  5
2B0
  8
PATTERN_FILL
  6
CONTINUOUS
 62
     7
 10
254.5
 20
664.5999999999998
 30
0.0
 40
3.25
  0
CIRCLE
  5
2B1
  8
PATTERN_FILL
  6
CONTINUOUS
 62
     7
 10
270.5
 20
664.5999999999998
 30
0.0
 40
3.25
  0
CIRCLE
  5
2B2
  8
PATTERN_FILL
  6
CONTINUOUS
 62
     7
 10
286.5
 20
664.5999999999998
 30
0.0
 40
3.25
  0
CIRCLE
  5
2B3
  8
PATTERN_FILL
  6
CONTINUOUS
 62
     7
 10
302.5
 20
664.5999999999998
 30
0.0
 40
3.25
  0
CIRCLE
  5
2B4
  8
PATTERN_FILL
  6
CONTINUOUS
 62
     7
 10
318.5
 20
664.5999999999998
 30
0.0
 40
3.25
  0
CIRCLE
  5
2B5
  8
PATTERN_FILL
  6
CONTINUOUS
 62
     7
 10
334.50000000000011
 20
664.5999999999998
 30
0.0
 40
3.25
  0
CIRCLE
  5
2B6
  8
PATTERN_FILL
  6
CONTINUOUS
 62
     7
 10
94.500000000000014
 20
664.5999999999998
 30
0.0
 40
3.25
  0
CIRCLE
  5
2B7
  8
PATTERN_FILL
  6
CONTINUOUS
 62
     7
 10
78.5
 20
664.5999999999998
 30
0.0
 40
3.25
  0
CIRCLE
  5
2B8
  8
PATTERN_FILL
  6
CONTINUOUS
 62
     7
 10
62.5
 20
664.5999999999998
 30
0.0
 40
3.25
  0
CIRCLE
  5
2B9
  8
PATTERN_FILL
  6
CONTINUOUS
 62
     7
 10
46.5
 20
664.5999999999998
 30
0.0
 40
3.25
  0
CIRCLE
  5
2BA
  8
PATTERN_FILL
  6
CONTINUOUS
 62
     7
 10
30.5
 20
664.5999999999998
 30
0.0
 40
3.25
  0
CIRCLE
  5
2BB
  8
PATTERN_FILL
  6
CONTINUOUS
 62
     7
 10
14.5
 20
664.5999999999998
 30
0.0
 40
3.25
  0
CIRCLE
  5
2BC
  8
PATTERN_FILL
  6
CONTINUOUS
 62
     7
 10
350.50000000000011
 20
664.5999999999998
 30
0.0
 40
3.25
  0
CIRCLE
  5
2BD
  8
PATTERN_FILL
  6
CONTINUOUS
 62
     7
 10
366.5
 20
664.5999999999998
 30
0.0
 40
3.25
  0
CIRCLE
  5
2BE
  8
PATTERN_FILL
  6
CONTINUOUS
 62
     7
 10
382.50000000000011
 20
664.5999999999998
 30
0.0
 40
3.25
  0
CIRCLE
  5
2BF
  8
PATTERN_FILL
  6
CONTINUOUS
 62
     7
 10
110.5
 20
664.5999999999998
 30
0.0
 40
3.25
  0
CIRCLE
  5
2C0
  8
PATTERN_FILL
  6
CONTINUOUS
 62
     7
 10
126.5
 20
664.5999999999998
 30
0.0
 40
3.25
  0
CIRCLE
  5
2C1
  8
PATTERN_FILL
  6
CONTINUOUS
 62
     7
 10
142.5
 20
664.5999999999998
 30
0.0
 40
3.25
  0
CIRCLE
  5
2C2
  8
PATTERN_FILL
  6
CONTINUOUS
 62
     7
 10
158.5
 20
664.5999999999998
 30
0.0
 40
3.25
  0
CIRCLE
  5
2C3
  8
PATTERN_FILL
  6
CONTINUOUS
 62
     7
 10
174.5
 20
664.5999999999998
 30
0.0
 40
3.25
  0
CIRCLE
  5
2C4
  8
PATTERN_FILL
  6
CONTINUOUS
 62
     7
 10
190.5
 20
664.5999999999998
 30
0.0
 40
3.25
  0
CIRCLE
  5
2C5
  8
PATTERN_FILL
  6
CONTINUOUS
 62
     7
 10
206.5
 20
664.5999999999998
 30
0.0
 40
3.25
  0
CIRCLE
  5
2C6
  8
PATTERN_FILL
  6
CONTINUOUS
 62
     7
 10
222.5
 20
664.5999999999998
 30
0.0
 40
3.25
  0
CIRCLE
  5
2C7
  8
PATTERN_FILL
  6
CONTINUOUS
 62
     7
 10
238.5
 20
664.5999999999998
 30
0.0
 40
3.25
  0
CIRCLE
  5
2C8
  8
PATTERN_FILL
  6
CONTINUOUS
 62
     7
 10
254.5
 20
678.59999999999968
 30
0.0
 40
3.25
  0
CIRCLE
  5
2C9
  8
PATTERN_FILL
  6
CONTINUOUS
 62
     7
 10
270.5
 20
678.59999999999968
 30
0.0
 40
3.25
  0
CIRCLE
  5
2CA
  8
PATTERN_FILL
  6
CONTINUOUS
 62
     7
 10
286.5
 20
678.59999999999968
 30
0.0
 40
3.25
  0
CIRCLE
  5
2CB
  8
PATTERN_FILL
  6
CONTINUOUS
 62
     7
 10
302.5
 20
678.59999999999968
 30
0.0
 40
3.25
  0
CIRCLE
  5
2CC
  8
PATTERN_FILL
  6
CONTINUOUS
 62
     7
 10
318.5
 20
678.59999999999968
 30
0.0
 40
3.25
  0
CIRCLE
  5
2CD
  8
PATTERN_FILL
  6
CONTINUOUS
 62
     7
 10
334.50000000000011
 20
678.59999999999968
 30
0.0
 40
3.25
  0
CIRCLE
  5
2CE
  8
PATTERN_FILL
  6
CONTINUOUS
 62
     7
 10
94.500000000000014
 20
678.59999999999968
 30
0.0
 40
3.25
  0
CIRCLE
  5
2CF
  8
PATTERN_FILL
  6
CONTINUOUS
 62
     7
 10
78.5
 20
678.59999999999968
 30
0.0
 40
3.25
  0
CIRCLE
  5
2D0
  8
PATTERN_FILL
  6
CONTINUOUS
 62
     7
 10
62.5
 20
678.59999999999968
 30
0.0
 40
3.25
  0
CIRCLE
  5
2D1
  8
PATTERN_FILL
  6
CONTINUOUS
 62
     7
 10
46.5
 20
678.59999999999968
 30
0.0
 40
3.25
  0
CIRCLE
  5
2D2
  8
PATTERN_FILL
  6
CONTINUOUS
 62
     7
 10
30.5
 20
678.59999999999968
 30
0.0
 40
3.25
  0
CIRCLE
  5
2D3
  8
PATTERN_FILL
  6
CONTINUOUS
 62
     7
 10
14.5
 20
678.59999999999968
 30
0.0
 40
3.25
  0
CIRCLE
  5
2D4
  8
PATTERN_FILL
  6
CONTINUOUS
 62
     7
 10
350.50000000000011
 20
678.59999999999968
 30
0.0
 40
3.25
  0
CIRCLE
  5
2D5
  8
PATTERN_FILL
  6
CONTINUOUS
 62
     7
 10
366.5
 20
678.59999999999968
 30
0.0
 40
3.25
  0
CIRCLE
  5
2D6
  8
PATTERN_FILL
  6
CONTINUOUS
 62
     7
 10
382.50000000000011
 20
678.59999999999968
 30
0.0
 40
3.25
  0
CIRCLE
  5
2D7
  8
PATTERN_FILL
  6
CONTINUOUS
 62
     7
 10
110.5
 20
678.59999999999968
 30
0.0
 40
3.25
  0
CIRCLE
  5
2D8
  8
PATTERN_FILL
  6
CONTINUOUS
 62
     7
 10
126.5
 20
678.59999999999968
 30
0.0
 40
3.25
  0
CIRCLE
  5
2D9
  8
PATTERN_FILL
  6
CONTINUOUS
 62
     7
 10
142.5
 20
678.59999999999968
 30
0.0
 40
3.25
  0
CIRCLE
  5
2DA
  8
PATTERN_FILL
  6
CONTINUOUS
 62
     7
 10
158.5
 20
678.59999999999968
 30
0.0
 40
3.25
  0
CIRCLE
  5
2DB
  8
PATTERN_FILL
  6
CONTINUOUS
 62
     7
 10
174.5
 20
678.59999999999968
 30
0.0
 40
3.25
  0
CIRCLE
  5
2DC
  8
PATTERN_FILL
  6
CONTINUOUS
 62
     7
 10
190.5
 20
678.59999999999968
 30
0.0
 40
3.25
  0
CIRCLE
  5
2DD
  8
PATTERN_FILL
  6
CONTINUOUS
 62
     7
 10
206.5
 20
678.59999999999968
 30
0.0
 40
3.25
  0
CIRCLE
  5
2DE
  8
PATTERN_FILL
  6
CONTINUOUS
 62
     7
 10
222.5
 20
678.59999999999968
 30
0.0
 40
3.25
  0
CIRCLE
  5
2DF
  8
PATTERN_FILL
  6
CONTINUOUS
 62
     7
 10
238.5
 20
678.59999999999968
 30
0.0
 40
3.25
  0
CIRCLE
  5
2E0
  8
PATTERN_FILL
  6
CONTINUOUS
 62
     7
 10
254.5
 20
692.5999999999998
 30
0.0
 40
3.25
  0
CIRCLE
  5
2E1
  8
PATTERN_FILL
  6
CONTINUOUS
 62
     7
 10
270.5
 20
692.5999999999998
 30
0.0
 40
3.25
  0
CIRCLE
  5
2E2
  8
PATTERN_FILL
  6
CONTINUOUS
 62
     7
 10
286.5
 20
692.5999999999998
 30
0.0
 40
3.25
  0
CIRCLE
  5
2E3
  8
PATTERN_FILL
  6
CONTINUOUS
 62
     7
 10
302.5
 20
692.5999999999998
 30
0.0
 40
3.25
  0
CIRCLE
  5
2E4
  8
PATTERN_FILL
  6
CONTINUOUS
 62
     7
 10
318.5
 20
692.5999999999998
 30
0.0
 40
3.25
  0
CIRCLE
  5
2E5
  8
PATTERN_FILL
  6
CONTINUOUS
 62
     7
 10
334.50000000000011
 20
692.5999999999998
 30
0.0
 40
3.25
  0
CIRCLE
  5
2E6
  8
PATTERN_FILL
  6
CONTINUOUS
 62
     7
 10
94.500000000000014
 20
692.5999999999998
 30
0.0
 40
3.25
  0
CIRCLE
  5
2E7
  8
PATTERN_FILL
  6
CONTINUOUS
 62
     7
 10
78.5
 20
692.5999999999998
 30
0.0
 40
3.25
  0
CIRCLE
  5
2E8
  8
PATTERN_FILL
  6
CONTINUOUS
 62
     7
 10
62.5
 20
692.5999999999998
 30
0.0
 40
3.25
  0
CIRCLE
  5
2E9
  8
PATTERN_FILL
  6
CONTINUOUS
 62
     7
 10
46.5
 20
692.5999999999998
 30
0.0
 40
3.25
  0
CIRCLE
  5
2EA
  8
PATTERN_FILL
  6
CONTINUOUS
 62
     7
 10
30.5
 20
692.5999999999998
 30
0.0
 40
3.25
  0
CIRCLE
  5
2EB
  8
PATTERN_FILL
  6
CONTINUOUS
 62
     7
 10
14.5
 20
692.5999999999998
 30
0.0
 40
3.25
  0
CIRCLE
  5
2EC
  8
PATTERN_FILL
  6
CONTINUOUS
 62
     7
 10
350.50000000000011
 20
692.5999999999998
 30
0.0
 40
3.25
  0
CIRCLE
  5
2ED
  8
PATTERN_FILL
  6
CONTINUOUS
 62
     7
 10
366.5
 20
692.5999999999998
 30
0.0
 40
3.25
  0
CIRCLE
  5
2EE
  8
PATTERN_FILL
  6
CONTINUOUS
 62
     7
 10
382.50000000000011
 20
692.5999999999998
 30
0.0
 40
3.25
  0
CIRCLE
  5
2EF
  8
PATTERN_FILL
  6
CONTINUOUS
 62
     7
 10
110.5
 20
692.5999999999998
 30
0.0
 40
3.25
  0
CIRCLE
  5
2F0
  8
PATTERN_FILL
  6
CONTINUOUS
 62
     7
 10
126.5
 20
692.5999999999998
 30
0.0
 40
3.25
  0
CIRCLE
  5
2F1
  8
PATTERN_FILL
  6
CONTINUOUS
 62
     7
 10
142.5
 20
692.5999999999998
 30
0.0
 40
3.25
  0
CIRCLE
  5
2F2
  8
PATTERN_FILL
  6
CONTINUOUS
 62
     7
 10
158.5
 20
692.5999999999998
 30
0.0
 40
3.25
  0
CIRCLE
  5
2F3
  8
PATTERN_FILL
  6
CONTINUOUS
 62
     7
 10
174.5
 20
692.5999999999998
 30
0.0
 40
3.25
  0
CIRCLE
  5
2F4
  8
PATTERN_FILL
  6
CONTINUOUS
 62
     7
 10
190.5
 20
692.5999999999998
 30
0.0
 40
3.25
  0
CIRCLE
  5
2F5
  8
PATTERN_FILL
  6
CONTINUOUS
 62
     7
 10
206.5
 20
692.5999999999998
 30
0.0
 40
3.25
  0
CIRCLE
  5
2F6
  8
PATTERN_FILL
  6
CONTINUOUS
 62
     7
 10
222.5
 20
692.5999999999998
 30
0.0
 40
3.25
  0
CIRCLE
  5
2F7
  8
PATTERN_FILL
  6
CONTINUOUS
 62
     7
 10
238.5
 20
692.5999999999998
 30
0.0
 40
3.25
  0
CIRCLE
  5
2F8
  8
PATTERN_FILL
  6
CONTINUOUS
 62
     7
 10
254.5
 20
706.5999999999998
 30
0.0
 40
3.25
  0
CIRCLE
  5
2F9
  8
PATTERN_FILL
  6
CONTINUOUS
 62
     7
 10
270.5
 20
706.5999999999998
 30
0.0
 40
3.25
  0
CIRCLE
  5
2FA
  8
PATTERN_FILL
  6
CONTINUOUS
 62
     7
 10
286.5
 20
706.5999999999998
 30
0.0
 40
3.25
  0
CIRCLE
  5
2FB
  8
PATTERN_FILL
  6
CONTINUOUS
 62
     7
 10
302.5
 20
706.5999999999998
 30
0.0
 40
3.25
  0
CIRCLE
  5
2FC
  8
PATTERN_FILL
  6
CONTINUOUS
 62
     7
 10
318.5
 20
706.5999999999998
 30
0.0
 40
3.25
  0
CIRCLE
  5
2FD
  8
PATTERN_FILL
  6
CONTINUOUS
 62
     7
 10
334.50000000000011
 20
706.5999999999998
 30
0.0
 40
3.25
  0
CIRCLE
  5
2FE
  8
PATTERN_FILL
  6
CONTINUOUS
 62
     7
 10
94.500000000000014
 20
706.5999999999998
 30
0.0
 40
3.25
  0
CIRCLE
  5
2FF
  8
PATTERN_FILL
  6
CONTINUOUS
 62
     7
 10
78.5
 20
706.5999999999998
 30
0.0
 40
3.25
  0
CIRCLE
  5
300
  8
PATTERN_FILL
  6
CONTINUOUS
 62
     7
 10
62.5
 20
706.5999999999998
 30
0.0
 40
3.25
  0
CIRCLE
  5
301
  8
PATTERN_FILL
  6
CONTINUOUS
 62
     7
 10
46.5
 20
706.5999999999998
 30
0.0
 40
3.25
  0
CIRCLE
  5
302
  8
PATTERN_FILL
  6
CONTINUOUS
 62
     7
 10
30.5
 20
706.5999999999998
 30
0.0
 40
3.25
  0
CIRCLE
  5
303
  8
PATTERN_FILL
  6
CONTINUOUS
 62
     7
 10
14.5
 20
706.5999999999998
 30
0.0
 40
3.25
  0
CIRCLE
  5
304
  8
PATTERN_FILL
  6
CONTINUOUS
 62
     7
 10
350.50000000000011
 20
706.5999999999998
 30
0.0
 40
3.25
  0
CIRCLE
  5
305
  8
PATTERN_FILL
  6
CONTINUOUS
 62
     7
 10
366.5
 20
706.5999999999998
 30
0.0
 40
3.25
  0
CIRCLE
  5
306
  8
PATTERN_FILL
  6
CONTINUOUS
 62
     7
 10
382.50000000000011
 20
706.5999999999998
 30
0.0
 40
3.25
  0
CIRCLE
  5
307
  8
PATTERN_FILL
  6
CONTINUOUS
 62
     7
 10
110.5
 20
706.5999999999998
 30
0.0
 40
3.25
  0
CIRCLE
  5
308
  8
PATTERN_FILL
  6
CONTINUOUS
 62
     7
 10
126.5
 20
706.5999999999998
 30
0.0
 40
3.25
  0
CIRCLE
  5
309
  8
PATTERN_FILL
  6
CONTINUOUS
 62
     7
 10
142.5
 20
706.5999999999998
 30
0.0
 40
3.25
  0
CIRCLE
  5
30A
  8
PATTERN_FILL
  6
CONTINUOUS
 62
     7
 10
158.5
 20
706.5999999999998
 30
0.0
 40
3.25
  0
CIRCLE
  5
30B
  8
PATTERN_FILL
  6
CONTINUOUS
 62
     7
 10
174.5
 20
706.5999999999998
 30
0.0
 40
3.25
  0
CIRCLE
  5
30C
  8
PATTERN_FILL
  6
CONTINUOUS
 62
     7
 10
190.5
 20
706.5999999999998
 30
0.0
 40
3.25
  0
CIRCLE
  5
30D
  8
PATTERN_FILL
  6
CONTINUOUS
 62
     7
 10
206.5
 20
706.5999999999998
 30
0.0
 40
3.25
  0
CIRCLE
  5
30E
  8
PATTERN_FILL
  6
CONTINUOUS
 62
     7
 10
222.5
 20
706.5999999999998
 30
0.0
 40
3.25
  0
CIRCLE
  5
30F
  8
PATTERN_FILL
  6
CONTINUOUS
 62
     7
 10
238.5
 20
706.5999999999998
 30
0.0
 40
3.25
  0
CIRCLE
  5
310
  8
PATTERN_FILL
  6
CONTINUOUS
 62
     7
 10
254.5
 20
720.59999999999968
 30
0.0
 40
3.25
  0
CIRCLE
  5
311
  8
PATTERN_FILL
  6
CONTINUOUS
 62
     7
 10
270.5
 20
720.59999999999968
 30
0.0
 40
3.25
  0
CIRCLE
  5
312
  8
PATTERN_FILL
  6
CONTINUOUS
 62
     7
 10
286.5
 20
720.59999999999968
 30
0.0
 40
3.25
  0
CIRCLE
  5
313
  8
PATTERN_FILL
  6
CONTINUOUS
 62
     7
 10
302.5
 20
720.59999999999968
 30
0.0
 40
3.25
  0
CIRCLE
  5
314
  8
PATTERN_FILL
  6
CONTINUOUS
 62
     7
 10
318.5
 20
720.59999999999968
 30
0.0
 40
3.25
  0
CIRCLE
  5
315
  8
PATTERN_FILL
  6
CONTINUOUS
 62
     7
 10
334.50000000000011
 20
720.59999999999968
 30
0.0
 40
3.25
  0
CIRCLE
  5
316
  8
PATTERN_FILL
  6
CONTINUOUS
 62
     7
 10
94.500000000000014
 20
720.59999999999968
 30
0.0
 40
3.25
  0
CIRCLE
  5
317
  8
PATTERN_FILL
  6
CONTINUOUS
 62
     7
 10
78.5
 20
720.59999999999968
 30
0.0
 40
3.25
  0
CIRCLE
  5
318
  8
PATTERN_FILL
  6
CONTINUOUS
 62
     7
 10
62.5
 20
720.59999999999968
 30
0.0
 40
3.25
  0
CIRCLE
  5
319
  8
PATTERN_FILL
  6
CONTINUOUS
 62
     7
 10
46.5
 20
720.59999999999968
 30
0.0
 40
3.25
  0
CIRCLE
  5
31A
  8
PATTERN_FILL
  6
CONTINUOUS
 62
     7
 10
30.5
 20
720.59999999999968
 30
0.0
 40
3.25
  0
CIRCLE
  5
31B
  8
PATTERN_FILL
  6
CONTINUOUS
 62
     7
 10
14.5
 20
720.59999999999968
 30
0.0
 40
3.25
  0
CIRCLE
  5
31C
  8
PATTERN_FILL
  6
CONTINUOUS
 62
     7
 10
350.50000000000011
 20
720.59999999999968
 30
0.0
 40
3.25
  0
CIRCLE
  5
31D
  8
PATTERN_FILL
  6
CONTINUOUS
 62
     7
 10
366.5
 20
720.59999999999968
 30
0.0
 40
3.25
  0
CIRCLE
  5
31E
  8
PATTERN_FILL
  6
CONTINUOUS
 62
     7
 10
382.50000000000011
 20
720.59999999999968
 30
0.0
 40
3.25
  0
CIRCLE
  5
31F
  8
PATTERN_FILL
  6
CONTINUOUS
 62
     7
 10
110.5
 20
720.59999999999968
 30
0.0
 40
3.25
  0
CIRCLE
  5
320
  8
PATTERN_FILL
  6
CONTINUOUS
 62
     7
 10
126.5
 20
720.59999999999968
 30
0.0
 40
3.25
  0
CIRCLE
  5
321
  8
PATTERN_FILL
  6
CONTINUOUS
 62
     7
 10
142.5
 20
720.59999999999968
 30
0.0
 40
3.25
  0
CIRCLE
  5
322
  8
PATTERN_FILL
  6
CONTINUOUS
 62
     7
 10
158.5
 20
720.59999999999968
 30
0.0
 40
3.25
  0
CIRCLE
  5
323
  8
PATTERN_FILL
  6
CONTINUOUS
 62
     7
 10
174.5
 20
720.59999999999968
 30
0.0
 40
3.25
  0
CIRCLE
  5
324
  8
PATTERN_FILL
  6
CONTINUOUS
 62
     7
 10
190.5
 20
720.59999999999968
 30
0.0
 40
3.25
  0
CIRCLE
  5
325
  8
PATTERN_FILL
  6
CONTINUOUS
 62
     7
 10
206.5
 20
720.59999999999968
 30
0.0
 40
3.25
  0
CIRCLE
  5
326
  8
PATTERN_FILL
  6
CONTINUOUS
 62
     7
 10
222.5
 20
720.59999999999968
 30
0.0
 40
3.25
  0
CIRCLE
  5
327
  8
PATTERN_FILL
  6
CONTINUOUS
 62
     7
 10
238.5
 20
720.59999999999968
 30
0.0
 40
3.25
  0
CIRCLE
  5
328
  8
PATTERN_FILL
  6
CONTINUOUS
 62
     7
 10
254.5
 20
734.5999999999998
 30
0.0
 40
3.25
  0
CIRCLE
  5
329
  8
PATTERN_FILL
  6
CONTINUOUS
 62
     7
 10
270.5
 20
734.5999999999998
 30
0.0
 40
3.25
  0
CIRCLE
  5
32A
  8
PATTERN_FILL
  6
CONTINUOUS
 62
     7
 10
286.5
 20
734.5999999999998
 30
0.0
 40
3.25
  0
CIRCLE
  5
32B
  8
PATTERN_FILL
  6
CONTINUOUS
 62
     7
 10
302.5
 20
734.5999999999998
 30
0.0
 40
3.25
  0
CIRCLE
  5
32C
  8
PATTERN_FILL
  6
CONTINUOUS
 62
     7
 10
318.5
 20
734.5999999999998
 30
0.0
 40
3.25
  0
CIRCLE
  5
32D
  8
PATTERN_FILL
  6
CONTINUOUS
 62
     7
 10
334.50000000000011
 20
734.5999999999998
 30
0.0
 40
3.25
  0
CIRCLE
  5
32E
  8
PATTERN_FILL
  6
CONTINUOUS
 62
     7
 10
94.500000000000014
 20
734.5999999999998
 30
0.0
 40
3.25
  0
CIRCLE
  5
32F
  8
PATTERN_FILL
  6
CONTINUOUS
 62
     7
 10
78.5
 20
734.5999999999998
 30
0.0
 40
3.25
  0
CIRCLE
  5
330
  8
PATTERN_FILL
  6
CONTINUOUS
 62
     7
 10
62.5
 20
734.5999999999998
 30
0.0
 40
3.25
  0
CIRCLE
  5
331
  8
PATTERN_FILL
  6
CONTINUOUS
 62
     7
 10
46.5
 20
734.5999999999998
 30
0.0
 40
3.25
  0
CIRCLE
  5
332
  8
PATTERN_FILL
  6
CONTINUOUS
 62
     7
 10
30.5
 20
734.5999999999998
 30
0.0
 40
3.25
  0
CIRCLE
  5
333
  8
PATTERN_FILL
  6
CONTINUOUS
 62
     7
 10
14.5
 20
734.5999999999998
 30
0.0
 40
3.25
  0
CIRCLE
  5
334
  8
PATTERN_FILL
  6
CONTINUOUS
 62
     7
 10
350.50000000000011
 20
734.5999999999998
 30
0.0
 40
3.25
  0
CIRCLE
  5
335
  8
PATTERN_FILL
  6
CONTINUOUS
 62
     7
 10
366.5
 20
734.5999999999998
 30
0.0
 40
3.25
  0
CIRCLE
  5
336
  8
PATTERN_FILL
  6
CONTINUOUS
 62
     7
 10
382.50000000000011
 20
734.5999999999998
 30
0.0
 40
3.25
  0
CIRCLE
  5
337
  8
PATTERN_FILL
  6
CONTINUOUS
 62
     7
 10
110.5
 20
734.5999999999998
 30
0.0
 40
3.25
  0
CIRCLE
  5
338
  8
PATTERN_FILL
  6
CONTINUOUS
 62
     7
 10
126.5
 20
734.5999999999998
 30
0.0
 40
3.25
  0
CIRCLE
  5
339
  8
PATTERN_FILL
  6
CONTINUOUS
 62
     7
 10
142.5
 20
734.5999999999998
 30
0.0
 40
3.25
  0
CIRCLE
  5
33A
  8
PATTERN_FILL
  6
CONTINUOUS
 62
     7
 10
158.5
 20
734.5999999999998
 30
0.0
 40
3.25
  0
CIRCLE
  5
33B
  8
PATTERN_FILL
  6
CONTINUOUS
 62
     7
 10
174.5
 20
734.5999999999998
 30
0.0
 40
3.25
  0
CIRCLE
  5
33C
  8
PATTERN_FILL
  6
CONTINUOUS
 62
     7
 10
190.5
 20
734.5999999999998
 30
0.0
 40
3.25
  0
CIRCLE
  5
33D
  8
PATTERN_FILL
  6
CONTINUOUS
 62
     7
 10
206.5
 20
734.5999999999998
 30
0.0
 40
3.25
  0
CIRCLE
  5
33E
  8
PATTERN_FILL
  6
CONTINUOUS
 62
     7
 10
222.5
 20
734.5999999999998
 30
0.0
 40
3.25
  0
CIRCLE
  5
33F
  8
PATTERN_FILL
  6
CONTINUOUS
 62
     7
 10
238.5
 20
734.5999999999998
 30
0.0
 40
3.25
  0
CIRCLE
  5
340
  8
PATTERN_FILL
  6
CONTINUOUS
 62
     7
 10
254.5
 20
748.59999999999968
 30
0.0
 40
3.25
  0
CIRCLE
  5
341
  8
PATTERN_FILL
  6
CONTINUOUS
 62
     7
 10
270.5
 20
748.59999999999968
 30
0.0
 40
3.25
  0
CIRCLE
  5
342
  8
PATTERN_FILL
  6
CONTINUOUS
 62
     7
 10
286.5
 20
748.59999999999968
 30
0.0
 40
3.25
  0
CIRCLE
  5
343
  8
PATTERN_FILL
  6
CONTINUOUS
 62
     7
 10
302.5
 20
748.59999999999968
 30
0.0
 40
3.25
  0
CIRCLE
  5
344
  8
PATTERN_FILL
  6
CONTINUOUS
 62
     7
 10
318.5
 20
748.59999999999968
 30
0.0
 40
3.25
  0
CIRCLE
  5
345
  8
PATTERN_FILL
  6
CONTINUOUS
 62
     7
 10
334.50000000000011
 20
748.59999999999968
 30
0.0
 40
3.25
  0
CIRCLE
  5
346
  8
PATTERN_FILL
  6
CONTINUOUS
 62
     7
 10
94.500000000000014
 20
748.59999999999968
 30
0.0
 40
3.25
  0
CIRCLE
  5
347
  8
PATTERN_FILL
  6
CONTINUOUS
 62
     7
 10
78.5
 20
748.59999999999968
 30
0.0
 40
3.25
  0
CIRCLE
  5
348
  8
PATTERN_FILL
  6
CONTINUOUS
 62
     7
 10
62.5
 20
748.59999999999968
 30
0.0
 40
3.25
  0
CIRCLE
  5
349
  8
PATTERN_FILL
  6
CONTINUOUS
 62
     7
 10
46.5
 20
748.59999999999968
 30
0.0
 40
3.25
  0
CIRCLE
  5
34A
  8
PATTERN_FILL
  6
CONTINUOUS
 62
     7
 10
30.5
 20
748.59999999999968
 30
0.0
 40
3.25
  0
CIRCLE
  5
34B
  8
PATTERN_FILL
  6
CONTINUOUS
 62
     7
 10
14.5
 20
748.59999999999968
 30
0.0
 40
3.25
  0
CIRCLE
  5
34C
  8
PATTERN_FILL
  6
CONTINUOUS
 62
     7
 10
350.50000000000011
 20
748.59999999999968
 30
0.0
 40
3.25
  0
CIRCLE
  5
34D
  8
PATTERN_FILL
  6
CONTINUOUS
 62
     7
 10
366.5
 20
748.59999999999968
 30
0.0
 40
3.25
  0
CIRCLE
  5
34E
  8
PATTERN_FILL
  6
CONTINUOUS
 62
     7
 10
382.50000000000011
 20
748.59999999999968
 30
0.0
 40
3.25
  0
CIRCLE
  5
34F
  8
PATTERN_FILL
  6
CONTINUOUS
 62
     7
 10
110.5
 20
748.59999999999968
 30
0.0
 40
3.25
  0
CIRCLE
  5
350
  8
PATTERN_FILL
  6
CONTINUOUS
 62
     7
 10
126.5
 20
748.59999999999968
 30
0.0
 40
3.25
  0
CIRCLE
  5
351
  8
PATTERN_FILL
  6
CONTINUOUS
 62
     7
 10
142.5
 20
748.59999999999968
 30
0.0
 40
3.25
  0
CIRCLE
  5
352
  8
PATTERN_FILL
  6
CONTINUOUS
 62
     7
 10
158.5
 20
748.59999999999968
 30
0.0
 40
3.25
  0
CIRCLE
  5
353
  8
PATTERN_FILL
  6
CONTINUOUS
 62
     7
 10
174.5
 20
748.59999999999968
 30
0.0
 40
3.25
  0
CIRCLE
  5
354
  8
PATTERN_FILL
  6
CONTINUOUS
 62
     7
 10
190.5
 20
748.59999999999968
 30
0.0
 40
3.25
  0
CIRCLE
  5
355
  8
PATTERN_FILL
  6
CONTINUOUS
 62
     7
 10
206.5
 20
748.59999999999968
 30
0.0
 40
3.25
  0
CIRCLE
  5
356
  8
PATTERN_FILL
  6
CONTINUOUS
 62
     7
 10
222.5
 20
748.59999999999968
 30
0.0
 40
3.25
  0
CIRCLE
  5
357
  8
PATTERN_FILL
  6
CONTINUOUS
 62
     7
 10
238.5
 20
748.59999999999968
 30
0.0
 40
3.25
  0
CIRCLE
  5
358
  8
PATTERN_FILL
  6
CONTINUOUS
 62
     7
 10
254.5
 20
762.59999999999968
 30
0.0
 40
3.25
  0
CIRCLE
  5
359
  8
PATTERN_FILL
  6
CONTINUOUS
 62
     7
 10
270.5
 20
762.59999999999968
 30
0.0
 40
3.25
  0
CIRCLE
  5
35A
  8
PATTERN_FILL
  6
CONTINUOUS
 62
     7
 10
286.5
 20
762.59999999999968
 30
0.0
 40
3.25
  0
CIRCLE
  5
35B
  8
PATTERN_FILL
  6
CONTINUOUS
 62
     7
 10
302.5
 20
762.59999999999968
 30
0.0
 40
3.25
  0
CIRCLE
  5
35C
  8
PATTERN_FILL
  6
CONTINUOUS
 62
     7
 10
318.5
 20
762.59999999999968
 30
0.0
 40
3.25
  0
CIRCLE
  5
35D
  8
PATTERN_FILL
  6
CONTINUOUS
 62
     7
 10
334.50000000000011
 20
762.59999999999968
 30
0.0
 40
3.25
  0
CIRCLE
  5
35E
  8
PATTERN_FILL
  6
CONTINUOUS
 62
     7
 10
94.500000000000014
 20
762.59999999999968
 30
0.0
 40
3.25
  0
CIRCLE
  5
35F
  8
PATTERN_FILL
  6
CONTINUOUS
 62
     7
 10
78.5
 20
762.59999999999968
 30
0.0
 40
3.25
  0
CIRCLE
  5
360
  8
PATTERN_FILL
  6
CONTINUOUS
 62
     7
 10
62.5
 20
762.59999999999968
 30
0.0
 40
3.25
  0
CIRCLE
  5
361
  8
PATTERN_FILL
  6
CONTINUOUS
 62
     7
 10
46.5
 20
762.59999999999968
 30
0.0
 40
3.25
  0
CIRCLE
  5
362
  8
PATTERN_FILL
  6
CONTINUOUS
 62
     7
 10
30.5
 20
762.59999999999968
 30
0.0
 40
3.25
  0
CIRCLE
  5
363
  8
PATTERN_FILL
  6
CONTINUOUS
 62
     7
 10
14.5
 20
762.59999999999968
 30
0.0
 40
3.25
  0
CIRCLE
  5
364
  8
PATTERN_FILL
  6
CONTINUOUS
 62
     7
 10
350.50000000000011
 20
762.59999999999968
 30
0.0
 40
3.25
  0
CIRCLE
  5
365
  8
PATTERN_FILL
  6
CONTINUOUS
 62
     7
 10
366.5
 20
762.59999999999968
 30
0.0
 40
3.25
  0
CIRCLE
  5
366
  8
PATTERN_FILL
  6
CONTINUOUS
 62
     7
 10
382.50000000000011
 20
762.59999999999968
 30
0.0
 40
3.25
  0
CIRCLE
  5
367
  8
PATTERN_FILL
  6
CONTINUOUS
 62
     7
 10
110.5
 20
762.59999999999968
 30
0.0
 40
3.25
  0
CIRCLE
  5
368
  8
PATTERN_FILL
  6
CONTINUOUS
 62
     7
 10
126.5
 20
762.59999999999968
 30
0.0
 40
3.25
  0
CIRCLE
  5
369
  8
PATTERN_FILL
  6
CONTINUOUS
 62
     7
 10
142.5
 20
762.59999999999968
 30
0.0
 40
3.25
  0
CIRCLE
  5
36A
  8
PATTERN_FILL
  6
CONTINUOUS
 62
     7
 10
158.5
 20
762.59999999999968
 30
0.0
 40
3.25
  0
CIRCLE
  5
36B
  8
PATTERN_FILL
  6
CONTINUOUS
 62
     7
 10
174.5
 20
762.59999999999968
 30
0.0
 40
3.25
  0
CIRCLE
  5
36C
  8
PATTERN_FILL
  6
CONTINUOUS
 62
     7
 10
190.5
 20
762.59999999999968
 30
0.0
 40
3.25
  0
CIRCLE
  5
36D
  8
PATTERN_FILL
  6
CONTINUOUS
 62
     7
 10
206.5
 20
762.59999999999968
 30
0.0
 40
3.25
  0
CIRCLE
  5
36E
  8
PATTERN_FILL
  6
CONTINUOUS
 62
     7
 10
222.5
 20
762.59999999999968
 30
0.0
 40
3.25
  0
CIRCLE
  5
36F
  8
PATTERN_FILL
  6
CONTINUOUS
 62
     7
 10
238.5
 20
762.59999999999968
 30
0.0
 40
3.25
  0
CIRCLE
  5
370
  8
PATTERN_FILL
  6
CONTINUOUS
 62
     7
 10
254.5
 20
776.5999999999998
 30
0.0
 40
3.25
  0
CIRCLE
  5
371
  8
PATTERN_FILL
  6
CONTINUOUS
 62
     7
 10
270.5
 20
776.5999999999998
 30
0.0
 40
3.25
  0
CIRCLE
  5
372
  8
PATTERN_FILL
  6
CONTINUOUS
 62
     7
 10
286.5
 20
776.5999999999998
 30
0.0
 40
3.25
  0
CIRCLE
  5
373
  8
PATTERN_FILL
  6
CONTINUOUS
 62
     7
 10
302.5
 20
776.5999999999998
 30
0.0
 40
3.25
  0
CIRCLE
  5
374
  8
PATTERN_FILL
  6
CONTINUOUS
 62
     7
 10
318.5
 20
776.5999999999998
 30
0.0
 40
3.25
  0
CIRCLE
  5
375
  8
PATTERN_FILL
  6
CONTINUOUS
 62
     7
 10
334.50000000000011
 20
776.5999999999998
 30
0.0
 40
3.25
  0
CIRCLE
  5
376
  8
PATTERN_FILL
  6
CONTINUOUS
 62
     7
 10
94.500000000000014
 20
776.5999999999998
 30
0.0
 40
3.25
  0
CIRCLE
  5
377
  8
PATTERN_FILL
  6
CONTINUOUS
 62
     7
 10
78.5
 20
776.5999999999998
 30
0.0
 40
3.25
  0
CIRCLE
  5
378
  8
PATTERN_FILL
  6
CONTINUOUS
 62
     7
 10
62.5
 20
776.5999999999998
 30
0.0
 40
3.25
  0
CIRCLE
  5
379
  8
PATTERN_FILL
  6
CONTINUOUS
 62
     7
 10
46.5
 20
776.5999999999998
 30
0.0
 40
3.25
  0
CIRCLE
  5
37A
  8
PATTERN_FILL
  6
CONTINUOUS
 62
     7
 10
30.5
 20
776.5999999999998
 30
0.0
 40
3.25
  0
CIRCLE
  5
37B
  8
PATTERN_FILL
  6
CONTINUOUS
 62
     7
 10
14.5
 20
776.5999999999998
 30
0.0
 40
3.25
  0
CIRCLE
  5
37C
  8
PATTERN_FILL
  6
CONTINUOUS
 62
     7
 10
350.50000000000011
 20
776.5999999999998
 30
0.0
 40
3.25
  0
CIRCLE
  5
37D
  8
PATTERN_FILL
  6
CONTINUOUS
 62
     7
 10
366.5
 20
776.5999999999998
 30
0.0
 40
3.25
  0
CIRCLE
  5
37E
  8
PATTERN_FILL
  6
CONTINUOUS
 62
     7
 10
382.50000000000011
 20
776.5999999999998
 30
0.0
 40
3.25
  0
CIRCLE
  5
37F
  8
PATTERN_FILL
  6
CONTINUOUS
 62
     7
 10
110.5
 20
776.5999999999998
 30
0.0
 40
3.25
  0
CIRCLE
  5
380
  8
PATTERN_FILL
  6
CONTINUOUS
 62
     7
 10
126.5
 20
776.5999999999998
 30
0.0
 40
3.25
  0
CIRCLE
  5
381
  8
PATTERN_FILL
  6
CONTINUOUS
 62
     7
 10
142.5
 20
776.5999999999998
 30
0.0
 40
3.25
  0
CIRCLE
  5
382
  8
PATTERN_FILL
  6
CONTINUOUS
 62
     7
 10
158.5
 20
776.5999999999998
 30
0.0
 40
3.25
  0
CIRCLE
  5
383
  8
PATTERN_FILL
  6
CONTINUOUS
 62
     7
 10
174.5
 20
776.5999999999998
 30
0.0
 40
3.25
  0
CIRCLE
  5
384
  8
PATTERN_FILL
  6
CONTINUOUS
 62
     7
 10
190.5
 20
776.5999999999998
 30
0.0
 40
3.25
  0
CIRCLE
  5
385
  8
PATTERN_FILL
  6
CONTINUOUS
 62
     7
 10
206.5
 20
776.5999999999998
 30
0.0
 40
3.25
  0
CIRCLE
  5
386
  8
PATTERN_FILL
  6
CONTINUOUS
 62
     7
 10
222.5
 20
776.5999999999998
 30
0.0
 40
3.25
  0
CIRCLE
  5
387
  8
PATTERN_FILL
  6
CONTINUOUS
 62
     7
 10
238.5
 20
776.5999999999998
 30
0.0
 40
3.25
  0
CIRCLE
  5
388
  8
PATTERN_FILL
  6
CONTINUOUS
 62
     7
 10
254.5
 20
790.59999999999968
 30
0.0
 40
3.25
  0
CIRCLE
  5
389
  8
PATTERN_FILL
  6
CONTINUOUS
 62
     7
 10
270.5
 20
790.59999999999968
 30
0.0
 40
3.25
  0
CIRCLE
  5
38A
  8
PATTERN_FILL
  6
CONTINUOUS
 62
     7
 10
286.5
 20
790.59999999999968
 30
0.0
 40
3.25
  0
CIRCLE
  5
38B
  8
PATTERN_FILL
  6
CONTINUOUS
 62
     7
 10
302.5
 20
790.59999999999968
 30
0.0
 40
3.25
  0
CIRCLE
  5
38C
  8
PATTERN_FILL
  6
CONTINUOUS
 62
     7
 10
318.5
 20
790.59999999999968
 30
0.0
 40
3.25
  0
CIRCLE
  5
38D
  8
PATTERN_FILL
  6
CONTINUOUS
 62
     7
 10
334.50000000000011
 20
790.59999999999968
 30
0.0
 40
3.25
  0
CIRCLE
  5
38E
  8
PATTERN_FILL
  6
CONTINUOUS
 62
     7
 10
94.500000000000014
 20
790.59999999999968
 30
0.0
 40
3.25
  0
CIRCLE
  5
38F
  8
PATTERN_FILL
  6
CONTINUOUS
 62
     7
 10
78.5
 20
790.59999999999968
 30
0.0
 40
3.25
  0
CIRCLE
  5
390
  8
PATTERN_FILL
  6
CONTINUOUS
 62
     7
 10
62.5
 20
790.59999999999968
 30
0.0
 40
3.25
  0
CIRCLE
  5
391
  8
PATTERN_FILL
  6
CONTINUOUS
 62
     7
 10
46.5
 20
790.59999999999968
 30
0.0
 40
3.25
  0
CIRCLE
  5
392
  8
PATTERN_FILL
  6
CONTINUOUS
 62
     7
 10
30.5
 20
790.59999999999968
 30
0.0
 40
3.25
  0
CIRCLE
  5
393
  8
PATTERN_FILL
  6
CONTINUOUS
 62
     7
 10
14.5
 20
790.59999999999968
 30
0.0
 40
3.25
  0
CIRCLE
  5
394
  8
PATTERN_FILL
  6
CONTINUOUS
 62
     7
 10
350.50000000000011
 20
790.59999999999968
 30
0.0
 40
3.25
  0
CIRCLE
  5
395
  8
PATTERN_FILL
  6
CONTINUOUS
 62
     7
 10
366.5
 20
790.59999999999968
 30
0.0
 40
3.25
  0
CIRCLE
  5
396
  8
PATTERN_FILL
  6
CONTINUOUS
 62
     7
 10
382.50000000000011
 20
790.59999999999968
 30
0.0
 40
3.25
  0
CIRCLE
  5
397
  8
PATTERN_FILL
  6
CONTINUOUS
 62
     7
 10
110.5
 20
790.59999999999968
 30
0.0
 40
3.25
  0
CIRCLE
  5
398
  8
PATTERN_FILL
  6
CONTINUOUS
 62
     7
 10
126.5
 20
790.59999999999968
 30
0.0
 40
3.25
  0
CIRCLE
  5
399
  8
PATTERN_FILL
  6
CONTINUOUS
 62
     7
 10
142.5
 20
790.59999999999968
 30
0.0
 40
3.25
  0
CIRCLE
  5
39A
  8
PATTERN_FILL
  6
CONTINUOUS
 62
     7
 10
158.5
 20
790.59999999999968
 30
0.0
 40
3.25
  0
CIRCLE
  5
39B
  8
PATTERN_FILL
  6
CONTINUOUS
 62
     7
 10
174.5
 20
790.59999999999968
 30
0.0
 40
3.25
  0
CIRCLE
  5
39C
  8
PATTERN_FILL
  6
CONTINUOUS
 62
     7
 10
190.5
 20
790.59999999999968
 30
0.0
 40
3.25
  0
CIRCLE
  5
39D
  8
PATTERN_FILL
  6
CONTINUOUS
 62
     7
 10
206.5
 20
790.59999999999968
 30
0.0
 40
3.25
  0
CIRCLE
  5
39E
  8
PATTERN_FILL
  6
CONTINUOUS
 62
     7
 10
222.5
 20
790.59999999999968
 30
0.0
 40
3.25
  0
CIRCLE
  5
39F
  8
PATTERN_FILL
  6
CONTINUOUS
 62
     7
 10
238.5
 20
790.59999999999968
 30
0.0
 40
3.25
  0
CIRCLE
  5
3A0
  8
PATTERN_FILL
  6
CONTINUOUS
 62
     7
 10
254.5
 20
804.59999999999968
 30
0.0
 40
3.25
  0
CIRCLE
  5
3A1
  8
PATTERN_FILL
  6
CONTINUOUS
 62
     7
 10
270.5
 20
804.59999999999968
 30
0.0
 40
3.25
  0
CIRCLE
  5
3A2
  8
PATTERN_FILL
  6
CONTINUOUS
 62
     7
 10
286.5
 20
804.59999999999968
 30
0.0
 40
3.25
  0
CIRCLE
  5
3A3
  8
PATTERN_FILL
  6
CONTINUOUS
 62
     7
 10
302.5
 20
804.59999999999968
 30
0.0
 40
3.25
  0
CIRCLE
  5
3A4
  8
PATTERN_FILL
  6
CONTINUOUS
 62
     7
 10
318.5
 20
804.59999999999968
 30
0.0
 40
3.25
  0
CIRCLE
  5
3A5
  8
PATTERN_FILL
  6
CONTINUOUS
 62
     7
 10
334.50000000000011
 20
804.59999999999968
 30
0.0
 40
3.25
  0
CIRCLE
  5
3A6
  8
PATTERN_FILL
  6
CONTINUOUS
 62
     7
 10
94.500000000000014
 20
804.59999999999968
 30
0.0
 40
3.25
  0
CIRCLE
  5
3A7
  8
PATTERN_FILL
  6
CONTINUOUS
 62
     7
 10
78.5
 20
804.59999999999968
 30
0.0
 40
3.25
  0
CIRCLE
  5
3A8
  8
PATTERN_FILL
  6
CONTINUOUS
 62
     7
 10
62.5
 20
804.59999999999968
 30
0.0
 40
3.25
  0
CIRCLE
  5
3A9
  8
PATTERN_FILL
  6
CONTINUOUS
 62
     7
 10
46.5
 20
804.59999999999968
 30
0.0
 40
3.25
  0
CIRCLE
  5
3AA
  8
PATTERN_FILL
  6
CONTINUOUS
 62
     7
 10
30.5
 20
804.59999999999968
 30
0.0
 40
3.25
  0
CIRCLE
  5
3AB
  8
PATTERN_FILL
  6
CONTINUOUS
 62
     7
 10
14.5
 20
804.59999999999968
 30
0.0
 40
3.25
  0
CIRCLE
  5
3AC
  8
PATTERN_FILL
  6
CONTINUOUS
 62
     7
 10
350.50000000000011
 20
804.59999999999968
 30
0.0
 40
3.25
  0
CIRCLE
  5
3AD
  8
PATTERN_FILL
  6
CONTINUOUS
 62
     7
 10
366.5
 20
804.59999999999968
 30
0.0
 40
3.25
  0
CIRCLE
  5
3AE
  8
PATTERN_FILL
  6
CONTINUOUS
 62
     7
 10
382.50000000000011
 20
804.59999999999968
 30
0.0
 40
3.25
  0
CIRCLE
  5
3AF
  8
PATTERN_FILL
  6
CONTINUOUS
 62
     7
 10
110.5
 20
804.59999999999968
 30
0.0
 40
3.25
  0
CIRCLE
  5
3B0
  8
PATTERN_FILL
  6
CONTINUOUS
 62
     7
 10
126.5
 20
804.59999999999968
 30
0.0
 40
3.25
  0
CIRCLE
  5
3B1
  8
PATTERN_FILL
  6
CONTINUOUS
 62
     7
 10
142.5
 20
804.59999999999968
 30
0.0
 40
3.25
  0
CIRCLE
  5
3B2
  8
PATTERN_FILL
  6
CONTINUOUS
 62
     7
 10
158.5
 20
804.59999999999968
 30
0.0
 40
3.25
  0
CIRCLE
  5
3B3
  8
PATTERN_FILL
  6
CONTINUOUS
 62
     7
 10
174.5
 20
804.59999999999968
 30
0.0
 40
3.25
  0
CIRCLE
  5
3B4
  8
PATTERN_FILL
  6
CONTINUOUS
 62
     7
 10
190.5
 20
804.59999999999968
 30
0.0
 40
3.25
  0
CIRCLE
  5
3B5
  8
PATTERN_FILL
  6
CONTINUOUS
 62
     7
 10
206.5
 20
804.59999999999968
 30
0.0
 40
3.25
  0
CIRCLE
  5
3B6
  8
PATTERN_FILL
  6
CONTINUOUS
 62
     7
 10
222.5
 20
804.59999999999968
 30
0.0
 40
3.25
  0
CIRCLE
  5
3B7
  8
PATTERN_FILL
  6
CONTINUOUS
 62
     7
 10
238.5
 20
804.59999999999968
 30
0.0
 40
3.25
  0
CIRCLE
  5
3B8
  8
PATTERN_FILL
  6
CONTINUOUS
 62
     7
 10
254.5
 20
818.5999999999998
 30
0.0
 40
3.25
  0
CIRCLE
  5
3B9
  8
PATTERN_FILL
  6
CONTINUOUS
 62
     7
 10
270.5
 20
818.5999999999998
 30
0.0
 40
3.25
  0
CIRCLE
  5
3BA
  8
PATTERN_FILL
  6
CONTINUOUS
 62
     7
 10
286.5
 20
818.5999999999998
 30
0.0
 40
3.25
  0
CIRCLE
  5
3BB
  8
PATTERN_FILL
  6
CONTINUOUS
 62
     7
 10
302.5
 20
818.5999999999998
 30
0.0
 40
3.25
  0
CIRCLE
  5
3BC
  8
PATTERN_FILL
  6
CONTINUOUS
 62
     7
 10
318.5
 20
818.5999999999998
 30
0.0
 40
3.25
  0
CIRCLE
  5
3BD
  8
PATTERN_FILL
  6
CONTINUOUS
 62
     7
 10
334.50000000000011
 20
818.5999999999998
 30
0.0
 40
3.25
  0
CIRCLE
  5
3BE
  8
PATTERN_FILL
  6
CONTINUOUS
 62
     7
 10
94.500000000000014
 20
818.5999999999998
 30
0.0
 40
3.25
  0
CIRCLE
  5
3BF
  8
PATTERN_FILL
  6
CONTINUOUS
 62
     7
 10
78.5
 20
818.5999999999998
 30
0.0
 40
3.25
  0
CIRCLE
  5
3C0
  8
PATTERN_FILL
  6
CONTINUOUS
 62
     7
 10
62.5
 20
818.5999999999998
 30
0.0
 40
3.25
  0
CIRCLE
  5
3C1
  8
PATTERN_FILL
  6
CONTINUOUS
 62
     7
 10
46.5
 20
818.5999999999998
 30
0.0
 40
3.25
  0
CIRCLE
  5
3C2
  8
PATTERN_FILL
  6
CONTINUOUS
 62
     7
 10
30.5
 20
818.5999999999998
 30
0.0
 40
3.25
  0
CIRCLE
  5
3C3
  8
PATTERN_FILL
  6
CONTINUOUS
 62
     7
 10
14.5
 20
818.5999999999998
 30
0.0
 40
3.25
  0
CIRCLE
  5
3C4
  8
PATTERN_FILL
  6
CONTINUOUS
 62
     7
 10
350.50000000000011
 20
818.5999999999998
 30
0.0
 40
3.25
  0
CIRCLE
  5
3C5
  8
PATTERN_FILL
  6
CONTINUOUS
 62
     7
 10
366.5
 20
818.5999999999998
 30
0.0
 40
3.25
  0
CIRCLE
  5
3C6
  8
PATTERN_FILL
  6
CONTINUOUS
 62
     7
 10
382.50000000000011
 20
818.5999999999998
 30
0.0
 40
3.25
  0
CIRCLE
  5
3C7
  8
PATTERN_FILL
  6
CONTINUOUS
 62
     7
 10
110.5
 20
818.5999999999998
 30
0.0
 40
3.25
  0
CIRCLE
  5
3C8
  8
PATTERN_FILL
  6
CONTINUOUS
 62
     7
 10
126.5
 20
818.5999999999998
 30
0.0
 40
3.25
  0
CIRCLE
  5
3C9
  8
PATTERN_FILL
  6
CONTINUOUS
 62
     7
 10
142.5
 20
818.5999999999998
 30
0.0
 40
3.25
  0
CIRCLE
  5
3CA
  8
PATTERN_FILL
  6
CONTINUOUS
 62
     7
 10
158.5
 20
818.5999999999998
 30
0.0
 40
3.25
  0
CIRCLE
  5
3CB
  8
PATTERN_FILL
  6
CONTINUOUS
 62
     7
 10
174.5
 20
818.5999999999998
 30
0.0
 40
3.25
  0
CIRCLE
  5
3CC
  8
PATTERN_FILL
  6
CONTINUOUS
 62
     7
 10
190.5
 20
818.5999999999998
 30
0.0
 40
3.25
  0
CIRCLE
  5
3CD
  8
PATTERN_FILL
  6
CONTINUOUS
 62
     7
 10
206.5
 20
818.5999999999998
 30
0.0
 40
3.25
  0
CIRCLE
  5
3CE
  8
PATTERN_FILL
  6
CONTINUOUS
 62
     7
 10
222.5
 20
818.5999999999998
 30
0.0
 40
3.25
  0
CIRCLE
  5
3CF
  8
PATTERN_FILL
  6
CONTINUOUS
 62
     7
 10
238.5
 20
818.5999999999998
 30
0.0
 40
3.25
  0
CIRCLE
  5
3D0
  8
PATTERN_FILL
  6
CONTINUOUS
 62
     7
 10
254.5
 20
832.5999999999998
 30
0.0
 40
3.25
  0
CIRCLE
  5
3D1
  8
PATTERN_FILL
  6
CONTINUOUS
 62
     7
 10
270.5
 20
832.5999999999998
 30
0.0
 40
3.25
  0
CIRCLE
  5
3D2
  8
PATTERN_FILL
  6
CONTINUOUS
 62
     7
 10
286.5
 20
832.5999999999998
 30
0.0
 40
3.25
  0
CIRCLE
  5
3D3
  8
PATTERN_FILL
  6
CONTINUOUS
 62
     7
 10
302.5
 20
832.5999999999998
 30
0.0
 40
3.25
  0
CIRCLE
  5
3D4
  8
PATTERN_FILL
  6
CONTINUOUS
 62
     7
 10
318.5
 20
832.5999999999998
 30
0.0
 40
3.25
  0
CIRCLE
  5
3D5
  8
PATTERN_FILL
  6
CONTINUOUS
 62
     7
 10
334.50000000000011
 20
832.5999999999998
 30
0.0
 40
3.25
  0
CIRCLE
  5
3D6
  8
PATTERN_FILL
  6
CONTINUOUS
 62
     7
 10
94.500000000000014
 20
832.5999999999998
 30
0.0
 40
3.25
  0
CIRCLE
  5
3D7
  8
PATTERN_FILL
  6
CONTINUOUS
 62
     7
 10
78.5
 20
832.5999999999998
 30
0.0
 40
3.25
  0
CIRCLE
  5
3D8
  8
PATTERN_FILL
  6
CONTINUOUS
 62
     7
 10
62.5
 20
832.5999999999998
 30
0.0
 40
3.25
  0
CIRCLE
  5
3D9
  8
PATTERN_FILL
  6
CONTINUOUS
 62
     7
 10
46.5
 20
832.5999999999998
 30
0.0
 40
3.25
  0
CIRCLE
  5
3DA
  8
PATTERN_FILL
  6
CONTINUOUS
 62
     7
 10
30.5
 20
832.5999999999998
 30
0.0
 40
3.25
  0
CIRCLE
  5
3DB
  8
PATTERN_FILL
  6
CONTINUOUS
 62
     7
 10
14.5
 20
832.5999999999998
 30
0.0
 40
3.25
  0
CIRCLE
  5
3DC
  8
PATTERN_FILL
  6
CONTINUOUS
 62
     7
 10
350.50000000000011
 20
832.5999999999998
 30
0.0
 40
3.25
  0
CIRCLE
  5
3DD
  8
PATTERN_FILL
  6
CONTINUOUS
 62
     7
 10
366.5
 20
832.5999999999998
 30
0.0
 40
3.25
  0
CIRCLE
  5
3DE
  8
PATTERN_FILL
  6
CONTINUOUS
 62
     7
 10
382.50000000000011
 20
832.5999999999998
 30
0.0
 40
3.25
  0
CIRCLE
  5
3DF
  8
PATTERN_FILL
  6
CONTINUOUS
 62
     7
 10
110.5
 20
832.5999999999998
 30
0.0
 40
3.25
  0
CIRCLE
  5
3E0
  8
PATTERN_FILL
  6
CONTINUOUS
 62
     7
 10
126.5
 20
832.5999999999998
 30
0.0
 40
3.25
  0
CIRCLE
  5
3E1
  8
PATTERN_FILL
  6
CONTINUOUS
 62
     7
 10
142.5
 20
832.5999999999998
 30
0.0
 40
3.25
  0
CIRCLE
  5
3E2
  8
PATTERN_FILL
  6
CONTINUOUS
 62
     7
 10
158.5
 20
832.5999999999998
 30
0.0
 40
3.25
  0
CIRCLE
  5
3E3
  8
PATTERN_FILL
  6
CONTINUOUS
 62
     7
 10
174.5
 20
832.5999999999998
 30
0.0
 40
3.25
  0
CIRCLE
  5
3E4
  8
PATTERN_FILL
  6
CONTINUOUS
 62
     7
 10
190.5
 20
832.5999999999998
 30
0.0
 40
3.25
  0
CIRCLE
  5
3E5
  8
PATTERN_FILL
  6
CONTINUOUS
 62
     7
 10
206.5
 20
832.5999999999998
 30
0.0
 40
3.25
  0
CIRCLE
  5
3E6
  8
PATTERN_FILL
  6
CONTINUOUS
 62
     7
 10
222.5
 20
832.5999999999998
 30
0.0
 40
3.25
  0
CIRCLE
  5
3E7
  8
PATTERN_FILL
  6
CONTINUOUS
 62
     7
 10
238.5
 20
832.5999999999998
 30
0.0
 40
3.25
  0
CIRCLE
  5
3E8
  8
PATTERN_FILL
  6
CONTINUOUS
 62
     7
 10
254.5
 20
846.59999999999968
 30
0.0
 40
3.25
  0
CIRCLE
  5
3E9
  8
PATTERN_FILL
  6
CONTINUOUS
 62
     7
 10
270.5
 20
846.59999999999968
 30
0.0
 40
3.25
  0
CIRCLE
  5
3EA
  8
PATTERN_FILL
  6
CONTINUOUS
 62
     7
 10
286.5
 20
846.59999999999968
 30
0.0
 40
3.25
  0
CIRCLE
  5
3EB
  8
PATTERN_FILL
  6
CONTINUOUS
 62
     7
 10
302.5
 20
846.59999999999968
 30
0.0
 40
3.25
  0
CIRCLE
  5
3EC
  8
PATTERN_FILL
  6
CONTINUOUS
 62
     7
 10
318.5
 20
846.59999999999968
 30
0.0
 40
3.25
  0
CIRCLE
  5
3ED
  8
PATTERN_FILL
  6
CONTINUOUS
 62
     7
 10
334.50000000000011
 20
846.59999999999968
 30
0.0
 40
3.25
  0
CIRCLE
  5
3EE
  8
PATTERN_FILL
  6
CONTINUOUS
 62
     7
 10
94.500000000000014
 20
846.59999999999968
 30
0.0
 40
3.25
  0
CIRCLE
  5
3EF
  8
PATTERN_FILL
  6
CONTINUOUS
 62
     7
 10
78.5
 20
846.59999999999968
 30
0.0
 40
3.25
  0
CIRCLE
  5
3F0
  8
PATTERN_FILL
  6
CONTINUOUS
 62
     7
 10
62.5
 20
846.59999999999968
 30
0.0
 40
3.25
  0
CIRCLE
  5
3F1
  8
PATTERN_FILL
  6
CONTINUOUS
 62
     7
 10
46.5
 20
846.59999999999968
 30
0.0
 40
3.25
  0
CIRCLE
  5
3F2
  8
PATTERN_FILL
  6
CONTINUOUS
 62
     7
 10
30.5
 20
846.59999999999968
 30
0.0
 40
3.25
  0
CIRCLE
  5
3F3
  8
PATTERN_FILL
  6
CONTINUOUS
 62
     7
 10
14.5
 20
846.59999999999968
 30
0.0
 40
3.25
  0
CIRCLE
  5
3F4
  8
PATTERN_FILL
  6
CONTINUOUS
 62
     7
 10
350.50000000000011
 20
846.59999999999968
 30
0.0
 40
3.25
  0
CIRCLE
  5
3F5
  8
PATTERN_FILL
  6
CONTINUOUS
 62
     7
 10
366.5
 20
846.59999999999968
 30
0.0
 40
3.25
  0
CIRCLE
  5
3F6
  8
PATTERN_FILL
  6
CONTINUOUS
 62
     7
 10
382.50000000000011
 20
846.59999999999968
 30
0.0
 40
3.25
  0
CIRCLE
  5
3F7
  8
PATTERN_FILL
  6
CONTINUOUS
 62
     7
 10
110.5
 20
846.59999999999968
 30
0.0
 40
3.25
  0
CIRCLE
  5
3F8
  8
PATTERN_FILL
  6
CONTINUOUS
 62
     7
 10
126.5
 20
846.59999999999968
 30
0.0
 40
3.25
  0
CIRCLE
  5
3F9
  8
PATTERN_FILL
  6
CONTINUOUS
 62
     7
 10
142.5
 20
846.59999999999968
 30
0.0
 40
3.25
  0
CIRCLE
  5
3FA
  8
PATTERN_FILL
  6
CONTINUOUS
 62
     7
 10
158.5
 20
846.59999999999968
 30
0.0
 40
3.25
  0
CIRCLE
  5
3FB
  8
PATTERN_FILL
  6
CONTINUOUS
 62
     7
 10
174.5
 20
846.59999999999968
 30
0.0
 40
3.25
  0
CIRCLE
  5
3FC
  8
PATTERN_FILL
  6
CONTINUOUS
 62
     7
 10
190.5
 20
846.59999999999968
 30
0.0
 40
3.25
  0
CIRCLE
  5
3FD
  8
PATTERN_FILL
  6
CONTINUOUS
 62
     7
 10
206.5
 20
846.59999999999968
 30
0.0
 40
3.25
  0
CIRCLE
  5
3FE
  8
PATTERN_FILL
  6
CONTINUOUS
 62
     7
 10
222.5
 20
846.59999999999968
 30
0.0
 40
3.25
  0
CIRCLE
  5
3FF
  8
PATTERN_FILL
  6
CONTINUOUS
 62
     7
 10
238.5
 20
846.59999999999968
 30
0.0
 40
3.25
  0
CIRCLE
  5
400
  8
PATTERN_FILL
  6
CONTINUOUS
 62
     7
 10
254.5
 20
860.5999999999998
 30
0.0
 40
3.25
  0
CIRCLE
  5
401
  8
PATTERN_FILL
  6
CONTINUOUS
 62
     7
 10
270.5
 20
860.5999999999998
 30
0.0
 40
3.25
  0
CIRCLE
  5
402
  8
PATTERN_FILL
  6
CONTINUOUS
 62
     7
 10
286.5
 20
860.5999999999998
 30
0.0
 40
3.25
  0
CIRCLE
  5
403
  8
PATTERN_FILL
  6
CONTINUOUS
 62
     7
 10
302.5
 20
860.5999999999998
 30
0.0
 40
3.25
  0
CIRCLE
  5
404
  8
PATTERN_FILL
  6
CONTINUOUS
 62
     7
 10
318.5
 20
860.5999999999998
 30
0.0
 40
3.25
  0
CIRCLE
  5
405
  8
PATTERN_FILL
  6
CONTINUOUS
 62
     7
 10
334.50000000000011
 20
860.5999999999998
 30
0.0
 40
3.25
  0
CIRCLE
  5
406
  8
PATTERN_FILL
  6
CONTINUOUS
 62
     7
 10
94.500000000000014
 20
860.5999999999998
 30
0.0
 40
3.25
  0
CIRCLE
  5
407
  8
PATTERN_FILL
  6
CONTINUOUS
 62
     7
 10
78.5
 20
860.5999999999998
 30
0.0
 40
3.25
  0
CIRCLE
  5
408
  8
PATTERN_FILL
  6
CONTINUOUS
 62
     7
 10
62.5
 20
860.5999999999998
 30
0.0
 40
3.25
  0
CIRCLE
  5
409
  8
PATTERN_FILL
  6
CONTINUOUS
 62
     7
 10
46.5
 20
860.5999999999998
 30
0.0
 40
3.25
  0
CIRCLE
  5
40A
  8
PATTERN_FILL
  6
CONTINUOUS
 62
     7
 10
30.5
 20
860.5999999999998
 30
0.0
 40
3.25
  0
CIRCLE
  5
40B
  8
PATTERN_FILL
  6
CONTINUOUS
 62
     7
 10
14.5
 20
860.5999999999998
 30
0.0
 40
3.25
  0
CIRCLE
  5
40C
  8
PATTERN_FILL
  6
CONTINUOUS
 62
     7
 10
350.50000000000011
 20
860.5999999999998
 30
0.0
 40
3.25
  0
CIRCLE
  5
40D
  8
PATTERN_FILL
  6
CONTINUOUS
 62
     7
 10
366.5
 20
860.5999999999998
 30
0.0
 40
3.25
  0
CIRCLE
  5
40E
  8
PATTERN_FILL
  6
CONTINUOUS
 62
     7
 10
382.50000000000011
 20
860.5999999999998
 30
0.0
 40
3.25
  0
CIRCLE
  5
40F
  8
PATTERN_FILL
  6
CONTINUOUS
 62
     7
 10
110.5
 20
860.5999999999998
 30
0.0
 40
3.25
  0
CIRCLE
  5
410
  8
PATTERN_FILL
  6
CONTINUOUS
 62
     7
 10
126.5
 20
860.5999999999998
 30
0.0
 40
3.25
  0
CIRCLE
  5
411
  8
PATTERN_FILL
  6
CONTINUOUS
 62
     7
 10
142.5
 20
860.5999999999998
 30
0.0
 40
3.25
  0
CIRCLE
  5
412
  8
PATTERN_FILL
  6
CONTINUOUS
 62
     7
 10
158.5
 20
860.5999999999998
 30
0.0
 40
3.25
  0
CIRCLE
  5
413
  8
PATTERN_FILL
  6
CONTINUOUS
 62
     7
 10
174.5
 20
860.5999999999998
 30
0.0
 40
3.25
  0
CIRCLE
  5
414
  8
PATTERN_FILL
  6
CONTINUOUS
 62
     7
 10
190.5
 20
860.5999999999998
 30
0.0
 40
3.25
  0
CIRCLE
  5
415
  8
PATTERN_FILL
  6
CONTINUOUS
 62
     7
 10
206.5
 20
860.5999999999998
 30
0.0
 40
3.25
  0
CIRCLE
  5
416
  8
PATTERN_FILL
  6
CONTINUOUS
 62
     7
 10
222.5
 20
860.5999999999998
 30
0.0
 40
3.25
  0
CIRCLE
  5
417
  8
PATTERN_FILL
  6
CONTINUOUS
 62
     7
 10
238.5
 20
860.5999999999998
 30
0.0
 40
3.25
  0
CIRCLE
  5
418
  8
PATTERN_FILL
  6
CONTINUOUS
 62
     7
 10
254.5
 20
874.5999999999998
 30
0.0
 40
3.25
  0
CIRCLE
  5
419
  8
PATTERN_FILL
  6
CONTINUOUS
 62
     7
 10
270.5
 20
874.5999999999998
 30
0.0
 40
3.25
  0
CIRCLE
  5
41A
  8
PATTERN_FILL
  6
CONTINUOUS
 62
     7
 10
286.5
 20
874.5999999999998
 30
0.0
 40
3.25
  0
CIRCLE
  5
41B
  8
PATTERN_FILL
  6
CONTINUOUS
 62
     7
 10
302.5
 20
874.5999999999998
 30
0.0
 40
3.25
  0
CIRCLE
  5
41C
  8
PATTERN_FILL
  6
CONTINUOUS
 62
     7
 10
318.5
 20
874.5999999999998
 30
0.0
 40
3.25
  0
CIRCLE
  5
41D
  8
PATTERN_FILL
  6
CONTINUOUS
 62
     7
 10
334.50000000000011
 20
874.5999999999998
 30
0.0
 40
3.25
  0
CIRCLE
  5
41E
  8
PATTERN_FILL
  6
CONTINUOUS
 62
     7
 10
94.500000000000014
 20
874.5999999999998
 30
0.0
 40
3.25
  0
CIRCLE
  5
41F
  8
PATTERN_FILL
  6
CONTINUOUS
 62
     7
 10
78.5
 20
874.5999999999998
 30
0.0
 40
3.25
  0
CIRCLE
  5
420
  8
PATTERN_FILL
  6
CONTINUOUS
 62
     7
 10
62.5
 20
874.5999999999998
 30
0.0
 40
3.25
  0
CIRCLE
  5
421
  8
PATTERN_FILL
  6
CONTINUOUS
 62
     7
 10
46.5
 20
874.5999999999998
 30
0.0
 40
3.25
  0
CIRCLE
  5
422
  8
PATTERN_FILL
  6
CONTINUOUS
 62
     7
 10
30.5
 20
874.5999999999998
 30
0.0
 40
3.25
  0
CIRCLE
  5
423
  8
PATTERN_FILL
  6
CONTINUOUS
 62
     7
 10
14.5
 20
874.5999999999998
 30
0.0
 40
3.25
  0
CIRCLE
  5
424
  8
PATTERN_FILL
  6
CONTINUOUS
 62
     7
 10
350.50000000000011
 20
874.5999999999998
 30
0.0
 40
3.25
  0
CIRCLE
  5
425
  8
PATTERN_FILL
  6
CONTINUOUS
 62
     7
 10
366.5
 20
874.5999999999998
 30
0.0
 40
3.25
  0
CIRCLE
  5
426
  8
PATTERN_FILL
  6
CONTINUOUS
 62
     7
 10
382.50000000000011
 20
874.5999999999998
 30
0.0
 40
3.25
  0
CIRCLE
  5
427
  8
PATTERN_FILL
  6
CONTINUOUS
 62
     7
 10
110.5
 20
874.5999999999998
 30
0.0
 40
3.25
  0
CIRCLE
  5
428
  8
PATTERN_FILL
  6
CONTINUOUS
 62
     7
 10
126.5
 20
874.5999999999998
 30
0.0
 40
3.25
  0
CIRCLE
  5
429
  8
PATTERN_FILL
  6
CONTINUOUS
 62
     7
 10
142.5
 20
874.5999999999998
 30
0.0
 40
3.25
  0
CIRCLE
  5
42A
  8
PATTERN_FILL
  6
CONTINUOUS
 62
     7
 10
158.5
 20
874.5999999999998
 30
0.0
 40
3.25
  0
CIRCLE
  5
42B
  8
PATTERN_FILL
  6
CONTINUOUS
 62
     7
 10
174.5
 20
874.5999999999998
 30
0.0
 40
3.25
  0
CIRCLE
  5
42C
  8
PATTERN_FILL
  6
CONTINUOUS
 62
     7
 10
190.5
 20
874.5999999999998
 30
0.0
 40
3.25
  0
CIRCLE
  5
42D
  8
PATTERN_FILL
  6
CONTINUOUS
 62
     7
 10
206.5
 20
874.5999999999998
 30
0.0
 40
3.25
  0
CIRCLE
  5
42E
  8
PATTERN_FILL
  6
CONTINUOUS
 62
     7
 10
222.5
 20
874.5999999999998
 30
0.0
 40
3.25
  0
CIRCLE
  5
42F
  8
PATTERN_FILL
  6
CONTINUOUS
 62
     7
 10
238.5
 20
874.5999999999998
 30
0.0
 40
3.25
  0
CIRCLE
  5
430
  8
PATTERN_FILL
  6
CONTINUOUS
 62
     7
 10
254.5
 20
888.59999999999968
 30
0.0
 40
3.25
  0
CIRCLE
  5
431
  8
PATTERN_FILL
  6
CONTINUOUS
 62
     7
 10
270.5
 20
888.59999999999968
 30
0.0
 40
3.25
  0
CIRCLE
  5
432
  8
PATTERN_FILL
  6
CONTINUOUS
 62
     7
 10
286.5
 20
888.59999999999968
 30
0.0
 40
3.25
  0
CIRCLE
  5
433
  8
PATTERN_FILL
  6
CONTINUOUS
 62
     7
 10
302.5
 20
888.59999999999968
 30
0.0
 40
3.25
  0
CIRCLE
  5
434
  8
PATTERN_FILL
  6
CONTINUOUS
 62
     7
 10
318.5
 20
888.59999999999968
 30
0.0
 40
3.25
  0
CIRCLE
  5
435
  8
PATTERN_FILL
  6
CONTINUOUS
 62
     7
 10
334.50000000000011
 20
888.59999999999968
 30
0.0
 40
3.25
  0
CIRCLE
  5
436
  8
PATTERN_FILL
  6
CONTINUOUS
 62
     7
 10
94.500000000000014
 20
888.59999999999968
 30
0.0
 40
3.25
  0
CIRCLE
  5
437
  8
PATTERN_FILL
  6
CONTINUOUS
 62
     7
 10
78.5
 20
888.59999999999968
 30
0.0
 40
3.25
  0
CIRCLE
  5
438
  8
PATTERN_FILL
  6
CONTINUOUS
 62
     7
 10
62.5
 20
888.59999999999968
 30
0.0
 40
3.25
  0
CIRCLE
  5
439
  8
PATTERN_FILL
  6
CONTINUOUS
 62
     7
 10
46.5
 20
888.59999999999968
 30
0.0
 40
3.25
  0
CIRCLE
  5
43A
  8
PATTERN_FILL
  6
CONTINUOUS
 62
     7
 10
30.5
 20
888.59999999999968
 30
0.0
 40
3.25
  0
CIRCLE
  5
43B
  8
PATTERN_FILL
  6
CONTINUOUS
 62
     7
 10
14.5
 20
888.59999999999968
 30
0.0
 40
3.25
  0
CIRCLE
  5
43C
  8
PATTERN_FILL
  6
CONTINUOUS
 62
     7
 10
350.50000000000011
 20
888.59999999999968
 30
0.0
 40
3.25
  0
CIRCLE
  5
43D
  8
PATTERN_FILL
  6
CONTINUOUS
 62
     7
 10
366.5
 20
888.59999999999968
 30
0.0
 40
3.25
  0
CIRCLE
  5
43E
  8
PATTERN_FILL
  6
CONTINUOUS
 62
     7
 10
382.50000000000011
 20
888.59999999999968
 30
0.0
 40
3.25
  0
CIRCLE
  5
43F
  8
PATTERN_FILL
  6
CONTINUOUS
 62
     7
 10
110.5
 20
888.59999999999968
 30
0.0
 40
3.25
  0
CIRCLE
  5
440
  8
PATTERN_FILL
  6
CONTINUOUS
 62
     7
 10
126.5
 20
888.59999999999968
 30
0.0
 40
3.25
  0
CIRCLE
  5
441
  8
PATTERN_FILL
  6
CONTINUOUS
 62
     7
 10
142.5
 20
888.59999999999968
 30
0.0
 40
3.25
  0
CIRCLE
  5
442
  8
PATTERN_FILL
  6
CONTINUOUS
 62
     7
 10
158.5
 20
888.59999999999968
 30
0.0
 40
3.25
  0
CIRCLE
  5
443
  8
PATTERN_FILL
  6
CONTINUOUS
 62
     7
 10
174.5
 20
888.59999999999968
 30
0.0
 40
3.25
  0
CIRCLE
  5
444
  8
PATTERN_FILL
  6
CONTINUOUS
 62
     7
 10
190.5
 20
888.59999999999968
 30
0.0
 40
3.25
  0
CIRCLE
  5
445
  8
PATTERN_FILL
  6
CONTINUOUS
 62
     7
 10
206.5
 20
888.59999999999968
 30
0.0
 40
3.25
  0
CIRCLE
  5
446
  8
PATTERN_FILL
  6
CONTINUOUS
 62
     7
 10
222.5
 20
888.59999999999968
 30
0.0
 40
3.25
  0
CIRCLE
  5
447
  8
PATTERN_FILL
  6
CONTINUOUS
 62
     7
 10
238.5
 20
888.59999999999968
 30
0.0
 40
3.25
  0
CIRCLE
  5
448
  8
PATTERN_FILL
  6
CONTINUOUS
 62
     7
 10
254.5
 20
902.59999999999991
 30
0.0
 40
3.25
  0
CIRCLE
  5
449
  8
PATTERN_FILL
  6
CONTINUOUS
 62
     7
 10
270.5
 20
902.59999999999991
 30
0.0
 40
3.25
  0
CIRCLE
  5
44A
  8
PATTERN_FILL
  6
CONTINUOUS
 62
     7
 10
286.5
 20
902.59999999999991
 30
0.0
 40
3.25
  0
CIRCLE
  5
44B
  8
PATTERN_FILL
  6
CONTINUOUS
 62
     7
 10
302.5
 20
902.59999999999991
 30
0.0
 40
3.25
  0
CIRCLE
  5
44C
  8
PATTERN_FILL
  6
CONTINUOUS
 62
     7
 10
318.5
 20
902.59999999999991
 30
0.0
 40
3.25
  0
CIRCLE
  5
44D
  8
PATTERN_FILL
  6
CONTINUOUS
 62
     7
 10
334.50000000000011
 20
902.59999999999991
 30
0.0
 40
3.25
  0
CIRCLE
  5
44E
  8
PATTERN_FILL
  6
CONTINUOUS
 62
     7
 10
94.500000000000014
 20
902.59999999999991
 30
0.0
 40
3.25
  0
CIRCLE
  5
44F
  8
PATTERN_FILL
  6
CONTINUOUS
 62
     7
 10
78.5
 20
902.59999999999991
 30
0.0
 40
3.25
  0
CIRCLE
  5
450
  8
PATTERN_FILL
  6
CONTINUOUS
 62
     7
 10
62.5
 20
902.59999999999991
 30
0.0
 40
3.25
  0
CIRCLE
  5
451
  8
PATTERN_FILL
  6
CONTINUOUS
 62
     7
 10
46.5
 20
902.59999999999991
 30
0.0
 40
3.25
  0
CIRCLE
  5
452
  8
PATTERN_FILL
  6
CONTINUOUS
 62
     7
 10
30.5
 20
902.59999999999991
 30
0.0
 40
3.25
  0
CIRCLE
  5
453
  8
PATTERN_FILL
  6
CONTINUOUS
 62
     7
 10
14.5
 20
902.59999999999991
 30
0.0
 40
3.25
  0
CIRCLE
  5
454
  8
PATTERN_FILL
  6
CONTINUOUS
 62
     7
 10
350.50000000000011
 20
902.59999999999991
 30
0.0
 40
3.25
  0
CIRCLE
  5
455
  8
PATTERN_FILL
  6
CONTINUOUS
 62
     7
 10
366.5
 20
902.59999999999991
 30
0.0
 40
3.25
  0
CIRCLE
  5
456
  8
PATTERN_FILL
  6
CONTINUOUS
 62
     7
 10
382.50000000000011
 20
902.59999999999991
 30
0.0
 40
3.25
  0
CIRCLE
  5
457
  8
PATTERN_FILL
  6
CONTINUOUS
 62
     7
 10
110.5
 20
902.59999999999991
 30
0.0
 40
3.25
  0
CIRCLE
  5
458
  8
PATTERN_FILL
  6
CONTINUOUS
 62
     7
 10
126.5
 20
902.59999999999991
 30
0.0
 40
3.25
  0
CIRCLE
  5
459
  8
PATTERN_FILL
  6
CONTINUOUS
 62
     7
 10
142.5
 20
902.59999999999991
 30
0.0
 40
3.25
  0
CIRCLE
  5
45A
  8
PATTERN_FILL
  6
CONTINUOUS
 62
     7
 10
158.5
 20
902.59999999999991
 30
0.0
 40
3.25
  0
CIRCLE
  5
45B
  8
PATTERN_FILL
  6
CONTINUOUS
 62
     7
 10
174.5
 20
902.59999999999991
 30
0.0
 40
3.25
  0
CIRCLE
  5
45C
  8
PATTERN_FILL
  6
CONTINUOUS
 62
     7
 10
190.5
 20
902.59999999999991
 30
0.0
 40
3.25
  0
CIRCLE
  5
45D
  8
PATTERN_FILL
  6
CONTINUOUS
 62
     7
 10
206.5
 20
902.59999999999991
 30
0.0
 40
3.25
  0
CIRCLE
  5
45E
  8
PATTERN_FILL
  6
CONTINUOUS
 62
     7
 10
222.5
 20
902.59999999999991
 30
0.0
 40
3.25
  0
CIRCLE
  5
45F
  8
PATTERN_FILL
  6
CONTINUOUS
 62
     7
 10
238.5
 20
902.59999999999991
 30
0.0
 40
3.25
  0
CIRCLE
  5
460
  8
PATTERN_FILL
  6
CONTINUOUS
 62
     7
 10
254.5
 20
916.60000000000002
 30
0.0
 40
3.25
  0
CIRCLE
  5
461
  8
PATTERN_FILL
  6
CONTINUOUS
 62
     7
 10
270.5
 20
916.60000000000002
 30
0.0
 40
3.25
  0
CIRCLE
  5
462
  8
PATTERN_FILL
  6
CONTINUOUS
 62
     7
 10
286.5
 20
916.60000000000002
 30
0.0
 40
3.25
  0
CIRCLE
  5
463
  8
PATTERN_FILL
  6
CONTINUOUS
 62
     7
 10
302.5
 20
916.60000000000002
 30
0.0
 40
3.25
  0
CIRCLE
  5
464
  8
PATTERN_FILL
  6
CONTINUOUS
 62
     7
 10
318.5
 20
916.60000000000002
 30
0.0
 40
3.25
  0
CIRCLE
  5
465
  8
PATTERN_FILL
  6
CONTINUOUS
 62
     7
 10
334.50000000000011
 20
916.60000000000002
 30
0.0
 40
3.25
  0
CIRCLE
  5
466
  8
PATTERN_FILL
  6
CONTINUOUS
 62
     7
 10
94.500000000000014
 20
916.60000000000002
 30
0.0
 40
3.25
  0
CIRCLE
  5
467
  8
PATTERN_FILL
  6
CONTINUOUS
 62
     7
 10
78.5
 20
916.60000000000002
 30
0.0
 40
3.25
  0
CIRCLE
  5
468
  8
PATTERN_FILL
  6
CONTINUOUS
 62
     7
 10
62.5
 20
916.60000000000002
 30
0.0
 40
3.25
  0
CIRCLE
  5
469
  8
PATTERN_FILL
  6
CONTINUOUS
 62
     7
 10
46.5
 20
916.60000000000002
 30
0.0
 40
3.25
  0
CIRCLE
  5
46A
  8
PATTERN_FILL
  6
CONTINUOUS
 62
     7
 10
30.5
 20
916.60000000000002
 30
0.0
 40
3.25
  0
CIRCLE
  5
46B
  8
PATTERN_FILL
  6
CONTINUOUS
 62
     7
 10
14.5
 20
916.60000000000002
 30
0.0
 40
3.25
  0
CIRCLE
  5
46C
  8
PATTERN_FILL
  6
CONTINUOUS
 62
     7
 10
350.50000000000011
 20
916.60000000000002
 30
0.0
 40
3.25
  0
CIRCLE
  5
46D
  8
PATTERN_FILL
  6
CONTINUOUS
 62
     7
 10
366.5
 20
916.60000000000002
 30
0.0
 40
3.25
  0
CIRCLE
  5
46E
  8
PATTERN_FILL
  6
CONTINUOUS
 62
     7
 10
382.50000000000011
 20
916.60000000000002
 30
0.0
 40
3.25
  0
CIRCLE
  5
46F
  8
PATTERN_FILL
  6
CONTINUOUS
 62
     7
 10
110.5
 20
916.60000000000002
 30
0.0
 40
3.25
  0
CIRCLE
  5
470
  8
PATTERN_FILL
  6
CONTINUOUS
 62
     7
 10
126.5
 20
916.60000000000002
 30
0.0
 40
3.25
  0
CIRCLE
  5
471
  8
PATTERN_FILL
  6
CONTINUOUS
 62
     7
 10
142.5
 20
916.60000000000002
 30
0.0
 40
3.25
  0
CIRCLE
  5
472
  8
PATTERN_FILL
  6
CONTINUOUS
 62
     7
 10
158.5
 20
916.60000000000002
 30
0.0
 40
3.25
  0
CIRCLE
  5
473
  8
PATTERN_FILL
  6
CONTINUOUS
 62
     7
 10
174.5
 20
916.60000000000002
 30
0.0
 40
3.25
  0
CIRCLE
  5
474
  8
PATTERN_FILL
  6
CONTINUOUS
 62
     7
 10
190.5
 20
916.60000000000002
 30
0.0
 40
3.25
  0
CIRCLE
  5
475
  8
PATTERN_FILL
  6
CONTINUOUS
 62
     7
 10
206.5
 20
916.60000000000002
 30
0.0
 40
3.25
  0
CIRCLE
  5
476
  8
PATTERN_FILL
  6
CONTINUOUS
 62
     7
 10
222.5
 20
916.60000000000002
 30
0.0
 40
3.25
  0
CIRCLE
  5
477
  8
PATTERN_FILL
  6
CONTINUOUS
 62
     7
 10
238.5
 20
916.60000000000002
 30
0.0
 40
3.25
  0
CIRCLE
  5
478
  8
PATTERN_FILL
  6
CONTINUOUS
 62
     7
 10
254.5
 20
930.60000000000002
 30
0.0
 40
3.25
  0
CIRCLE
  5
479
  8
PATTERN_FILL
  6
CONTINUOUS
 62
     7
 10
270.5
 20
930.60000000000002
 30
0.0
 40
3.25
  0
CIRCLE
  5
47A
  8
PATTERN_FILL
  6
CONTINUOUS
 62
     7
 10
286.5
 20
930.60000000000002
 30
0.0
 40
3.25
  0
CIRCLE
  5
47B
  8
PATTERN_FILL
  6
CONTINUOUS
 62
     7
 10
302.5
 20
930.60000000000002
 30
0.0
 40
3.25
  0
CIRCLE
  5
47C
  8
PATTERN_FILL
  6
CONTINUOUS
 62
     7
 10
318.5
 20
930.60000000000002
 30
0.0
 40
3.25
  0
CIRCLE
  5
47D
  8
PATTERN_FILL
  6
CONTINUOUS
 62
     7
 10
334.50000000000011
 20
930.60000000000002
 30
0.0
 40
3.25
  0
CIRCLE
  5
47E
  8
PATTERN_FILL
  6
CONTINUOUS
 62
     7
 10
94.500000000000014
 20
930.60000000000002
 30
0.0
 40
3.25
  0
CIRCLE
  5
47F
  8
PATTERN_FILL
  6
CONTINUOUS
 62
     7
 10
78.5
 20
930.60000000000002
 30
0.0
 40
3.25
  0
CIRCLE
  5
480
  8
PATTERN_FILL
  6
CONTINUOUS
 62
     7
 10
62.5
 20
930.60000000000002
 30
0.0
 40
3.25
  0
CIRCLE
  5
481
  8
PATTERN_FILL
  6
CONTINUOUS
 62
     7
 10
46.5
 20
930.60000000000002
 30
0.0
 40
3.25
  0
CIRCLE
  5
482
  8
PATTERN_FILL
  6
CONTINUOUS
 62
     7
 10
30.5
 20
930.60000000000002
 30
0.0
 40
3.25
  0
CIRCLE
  5
483
  8
PATTERN_FILL
  6
CONTINUOUS
 62
     7
 10
14.5
 20
930.60000000000002
 30
0.0
 40
3.25
  0
CIRCLE
  5
484
  8
PATTERN_FILL
  6
CONTINUOUS
 62
     7
 10
350.50000000000011
 20
930.60000000000002
 30
0.0
 40
3.25
  0
CIRCLE
  5
485
  8
PATTERN_FILL
  6
CONTINUOUS
 62
     7
 10
366.5
 20
930.60000000000002
 30
0.0
 40
3.25
  0
CIRCLE
  5
486
  8
PATTERN_FILL
  6
CONTINUOUS
 62
     7
 10
382.50000000000011
 20
930.60000000000002
 30
0.0
 40
3.25
  0
CIRCLE
  5
487
  8
PATTERN_FILL
  6
CONTINUOUS
 62
     7
 10
110.5
 20
930.60000000000002
 30
0.0
 40
3.25
  0
CIRCLE
  5
488
  8
PATTERN_FILL
  6
CONTINUOUS
 62
     7
 10
126.5
 20
930.60000000000002
 30
0.0
 40
3.25
  0
CIRCLE
  5
489
  8
PATTERN_FILL
  6
CONTINUOUS
 62
     7
 10
142.5
 20
930.60000000000002
 30
0.0
 40
3.25
  0
CIRCLE
  5
48A
  8
PATTERN_FILL
  6
CONTINUOUS
 62
     7
 10
158.5
 20
930.60000000000002
 30
0.0
 40
3.25
  0
CIRCLE
  5
48B
  8
PATTERN_FILL
  6
CONTINUOUS
 62
     7
 10
174.5
 20
930.60000000000002
 30
0.0
 40
3.25
  0
CIRCLE
  5
48C
  8
PATTERN_FILL
  6
CONTINUOUS
 62
     7
 10
190.5
 20
930.60000000000002
 30
0.0
 40
3.25
  0
CIRCLE
  5
48D
  8
PATTERN_FILL
  6
CONTINUOUS
 62
     7
 10
206.5
 20
930.60000000000002
 30
0.0
 40
3.25
  0
CIRCLE
  5
48E
  8
PATTERN_FILL
  6
CONTINUOUS
 62
     7
 10
222.5
 20
930.60000000000002
 30
0.0
 40
3.25
  0
CIRCLE
  5
48F
  8
PATTERN_FILL
  6
CONTINUOUS
 62
     7
 10
238.5
 20
930.60000000000002
 30
0.0
 40
3.25
  0
CIRCLE
  5
490
  8
PATTERN_FILL
  6
CONTINUOUS
 62
     7
 10
254.5
 20
454.59999999999991
 30
0.0
 40
3.25
  0
CIRCLE
  5
491
  8
PATTERN_FILL
  6
CONTINUOUS
 62
     7
 10
270.5
 20
454.59999999999991
 30
0.0
 40
3.25
  0
CIRCLE
  5
492
  8
PATTERN_FILL
  6
CONTINUOUS
 62
     7
 10
286.5
 20
454.59999999999991
 30
0.0
 40
3.25
  0
CIRCLE
  5
493
  8
PATTERN_FILL
  6
CONTINUOUS
 62
     7
 10
302.5
 20
454.59999999999991
 30
0.0
 40
3.25
  0
CIRCLE
  5
494
  8
PATTERN_FILL
  6
CONTINUOUS
 62
     7
 10
318.5
 20
454.59999999999991
 30
0.0
 40
3.25
  0
CIRCLE
  5
495
  8
PATTERN_FILL
  6
CONTINUOUS
 62
     7
 10
334.50000000000011
 20
454.59999999999991
 30
0.0
 40
3.25
  0
CIRCLE
  5
496
  8
PATTERN_FILL
  6
CONTINUOUS
 62
     7
 10
94.500000000000014
 20
454.59999999999991
 30
0.0
 40
3.25
  0
CIRCLE
  5
497
  8
PATTERN_FILL
  6
CONTINUOUS
 62
     7
 10
78.5
 20
454.59999999999991
 30
0.0
 40
3.25
  0
CIRCLE
  5
498
  8
PATTERN_FILL
  6
CONTINUOUS
 62
     7
 10
62.5
 20
454.59999999999991
 30
0.0
 40
3.25
  0
CIRCLE
  5
499
  8
PATTERN_FILL
  6
CONTINUOUS
 62
     7
 10
46.5
 20
454.59999999999991
 30
0.0
 40
3.25
  0
CIRCLE
  5
49A
  8
PATTERN_FILL
  6
CONTINUOUS
 62
     7
 10
30.5
 20
454.59999999999991
 30
0.0
 40
3.25
  0
CIRCLE
  5
49B
  8
PATTERN_FILL
  6
CONTINUOUS
 62
     7
 10
14.5
 20
454.59999999999991
 30
0.0
 40
3.25
  0
CIRCLE
  5
49C
  8
PATTERN_FILL
  6
CONTINUOUS
 62
     7
 10
350.50000000000011
 20
454.59999999999991
 30
0.0
 40
3.25
  0
CIRCLE
  5
49D
  8
PATTERN_FILL
  6
CONTINUOUS
 62
     7
 10
366.5
 20
454.59999999999991
 30
0.0
 40
3.25
  0
CIRCLE
  5
49E
  8
PATTERN_FILL
  6
CONTINUOUS
 62
     7
 10
382.50000000000011
 20
454.59999999999991
 30
0.0
 40
3.25
  0
CIRCLE
  5
49F
  8
PATTERN_FILL
  6
CONTINUOUS
 62
     7
 10
110.5
 20
454.59999999999991
 30
0.0
 40
3.25
  0
CIRCLE
  5
4A0
  8
PATTERN_FILL
  6
CONTINUOUS
 62
     7
 10
126.5
 20
454.59999999999991
 30
0.0
 40
3.25
  0
CIRCLE
  5
4A1
  8
PATTERN_FILL
  6
CONTINUOUS
 62
     7
 10
142.5
 20
454.59999999999991
 30
0.0
 40
3.25
  0
CIRCLE
  5
4A2
  8
PATTERN_FILL
  6
CONTINUOUS
 62
     7
 10
254.5
 20
440.5999999999998
 30
0.0
 40
3.25
  0
CIRCLE
  5
4A3
  8
PATTERN_FILL
  6
CONTINUOUS
 62
     7
 10
270.5
 20
440.5999999999998
 30
0.0
 40
3.25
  0
CIRCLE
  5
4A4
  8
PATTERN_FILL
  6
CONTINUOUS
 62
     7
 10
286.5
 20
440.5999999999998
 30
0.0
 40
3.25
  0
CIRCLE
  5
4A5
  8
PATTERN_FILL
  6
CONTINUOUS
 62
     7
 10
302.5
 20
440.5999999999998
 30
0.0
 40
3.25
  0
CIRCLE
  5
4A6
  8
PATTERN_FILL
  6
CONTINUOUS
 62
     7
 10
318.5
 20
440.5999999999998
 30
0.0
 40
3.25
  0
CIRCLE
  5
4A7
  8
PATTERN_FILL
  6
CONTINUOUS
 62
     7
 10
334.50000000000011
 20
440.5999999999998
 30
0.0
 40
3.25
  0
CIRCLE
  5
4A8
  8
PATTERN_FILL
  6
CONTINUOUS
 62
     7
 10
94.500000000000014
 20
440.5999999999998
 30
0.0
 40
3.25
  0
CIRCLE
  5
4A9
  8
PATTERN_FILL
  6
CONTINUOUS
 62
     7
 10
78.5
 20
440.5999999999998
 30
0.0
 40
3.25
  0
CIRCLE
  5
4AA
  8
PATTERN_FILL
  6
CONTINUOUS
 62
     7
 10
62.5
 20
440.5999999999998
 30
0.0
 40
3.25
  0
CIRCLE
  5
4AB
  8
PATTERN_FILL
  6
CONTINUOUS
 62
     7
 10
46.5
 20
440.5999999999998
 30
0.0
 40
3.25
  0
CIRCLE
  5
4AC
  8
PATTERN_FILL
  6
CONTINUOUS
 62
     7
 10
30.5
 20
440.5999999999998
 30
0.0
 40
3.25
  0
CIRCLE
  5
4AD
  8
PATTERN_FILL
  6
CONTINUOUS
 62
     7
 10
14.5
 20
440.5999999999998
 30
0.0
 40
3.25
  0
CIRCLE
  5
4AE
  8
PATTERN_FILL
  6
CONTINUOUS
 62
     7
 10
350.50000000000011
 20
440.5999999999998
 30
0.0
 40
3.25
  0
CIRCLE
  5
4AF
  8
PATTERN_FILL
  6
CONTINUOUS
 62
     7
 10
366.5
 20
440.5999999999998
 30
0.0
 40
3.25
  0
CIRCLE
  5
4B0
  8
PATTERN_FILL
  6
CONTINUOUS
 62
     7
 10
382.50000000000011
 20
440.5999999999998
 30
0.0
 40
3.25
  0
CIRCLE
  5
4B1
  8
PATTERN_FILL
  6
CONTINUOUS
 62
     7
 10
110.5
 20
440.5999999999998
 30
0.0
 40
3.25
  0
CIRCLE
  5
4B2
  8
PATTERN_FILL
  6
CONTINUOUS
 62
     7
 10
126.5
 20
440.5999999999998
 30
0.0
 40
3.25
  0
CIRCLE
  5
4B3
  8
PATTERN_FILL
  6
CONTINUOUS
 62
     7
 10
142.5
 20
440.5999999999998
 30
0.0
 40
3.25
  0
CIRCLE
  5
4B4
  8
PATTERN_FILL
  6
CONTINUOUS
 62
     7
 10
158.5
 20
440.5999999999998
 30
0.0
 40
3.25
  0
CIRCLE
  5
4B5
  8
PATTERN_FILL
  6
CONTINUOUS
 62
     7
 10
174.5
 20
440.5999999999998
 30
0.0
 40
3.25
  0
CIRCLE
  5
4B6
  8
PATTERN_FILL
  6
CONTINUOUS
 62
     7
 10
190.5
 20
440.5999999999998
 30
0.0
 40
3.25
  0
CIRCLE
  5
4B7
  8
PATTERN_FILL
  6
CONTINUOUS
 62
     7
 10
206.5
 20
440.5999999999998
 30
0.0
 40
3.25
  0
CIRCLE
  5
4B8
  8
PATTERN_FILL
  6
CONTINUOUS
 62
     7
 10
222.5
 20
440.5999999999998
 30
0.0
 40
3.25
  0
CIRCLE
  5
4B9
  8
PATTERN_FILL
  6
CONTINUOUS
 62
     7
 10
238.5
 20
440.5999999999998
 30
0.0
 40
3.25
  0
CIRCLE
  5
4BA
  8
PATTERN_FILL
  6
CONTINUOUS
 62
     7
 10
254.5
 20
426.59999999999991
 30
0.0
 40
3.25
  0
CIRCLE
  5
4BB
  8
PATTERN_FILL
  6
CONTINUOUS
 62
     7
 10
270.5
 20
426.59999999999991
 30
0.0
 40
3.25
  0
CIRCLE
  5
4BC
  8
PATTERN_FILL
  6
CONTINUOUS
 62
     7
 10
286.5
 20
426.59999999999991
 30
0.0
 40
3.25
  0
CIRCLE
  5
4BD
  8
PATTERN_FILL
  6
CONTINUOUS
 62
     7
 10
302.5
 20
426.59999999999991
 30
0.0
 40
3.25
  0
CIRCLE
  5
4BE
  8
PATTERN_FILL
  6
CONTINUOUS
 62
     7
 10
318.5
 20
426.59999999999991
 30
0.0
 40
3.25
  0
CIRCLE
  5
4BF
  8
PATTERN_FILL
  6
CONTINUOUS
 62
     7
 10
334.50000000000011
 20
426.59999999999991
 30
0.0
 40
3.25
  0
CIRCLE
  5
4C0
  8
PATTERN_FILL
  6
CONTINUOUS
 62
     7
 10
94.500000000000014
 20
426.59999999999991
 30
0.0
 40
3.25
  0
CIRCLE
  5
4C1
  8
PATTERN_FILL
  6
CONTINUOUS
 62
     7
 10
78.5
 20
426.59999999999991
 30
0.0
 40
3.25
  0
CIRCLE
  5
4C2
  8
PATTERN_FILL
  6
CONTINUOUS
 62
     7
 10
62.5
 20
426.59999999999991
 30
0.0
 40
3.25
  0
CIRCLE
  5
4C3
  8
PATTERN_FILL
  6
CONTINUOUS
 62
     7
 10
46.5
 20
426.59999999999991
 30
0.0
 40
3.25
  0
CIRCLE
  5
4C4
  8
PATTERN_FILL
  6
CONTINUOUS
 62
     7
 10
30.5
 20
426.59999999999991
 30
0.0
 40
3.25
  0
CIRCLE
  5
4C5
  8
PATTERN_FILL
  6
CONTINUOUS
 62
     7
 10
14.5
 20
426.59999999999991
 30
0.0
 40
3.25
  0
CIRCLE
  5
4C6
  8
PATTERN_FILL
  6
CONTINUOUS
 62
     7
 10
350.50000000000011
 20
426.59999999999991
 30
0.0
 40
3.25
  0
CIRCLE
  5
4C7
  8
PATTERN_FILL
  6
CONTINUOUS
 62
     7
 10
366.5
 20
426.59999999999991
 30
0.0
 40
3.25
  0
CIRCLE
  5
4C8
  8
PATTERN_FILL
  6
CONTINUOUS
 62
     7
 10
382.50000000000011
 20
426.59999999999991
 30
0.0
 40
3.25
  0
CIRCLE
  5
4C9
  8
PATTERN_FILL
  6
CONTINUOUS
 62
     7
 10
110.5
 20
426.59999999999991
 30
0.0
 40
3.25
  0
CIRCLE
  5
4CA
  8
PATTERN_FILL
  6
CONTINUOUS
 62
     7
 10
126.5
 20
426.59999999999991
 30
0.0
 40
3.25
  0
CIRCLE
  5
4CB
  8
PATTERN_FILL
  6
CONTINUOUS
 62
     7
 10
142.5
 20
426.59999999999991
 30
0.0
 40
3.25
  0
CIRCLE
  5
4CC
  8
PATTERN_FILL
  6
CONTINUOUS
 62
     7
 10
158.5
 20
426.59999999999991
 30
0.0
 40
3.25
  0
CIRCLE
  5
4CD
  8
PATTERN_FILL
  6
CONTINUOUS
 62
     7
 10
174.5
 20
426.59999999999991
 30
0.0
 40
3.25
  0
CIRCLE
  5
4CE
  8
PATTERN_FILL
  6
CONTINUOUS
 62
     7
 10
190.5
 20
426.59999999999991
 30
0.0
 40
3.25
  0
CIRCLE
  5
4CF
  8
PATTERN_FILL
  6
CONTINUOUS
 62
     7
 10
206.5
 20
426.59999999999991
 30
0.0
 40
3.25
  0
CIRCLE
  5
4D0
  8
PATTERN_FILL
  6
CONTINUOUS
 62
     7
 10
222.5
 20
426.59999999999991
 30
0.0
 40
3.25
  0
CIRCLE
  5
4D1
  8
PATTERN_FILL
  6
CONTINUOUS
 62
     7
 10
238.5
 20
426.59999999999991
 30
0.0
 40
3.25
  0
CIRCLE
  5
4D2
  8
PATTERN_FILL
  6
CONTINUOUS
 62
     7
 10
254.5
 20
412.59999999999991
 30
0.0
 40
3.25
  0
CIRCLE
  5
4D3
  8
PATTERN_FILL
  6
CONTINUOUS
 62
     7
 10
270.5
 20
412.59999999999991
 30
0.0
 40
3.25
  0
CIRCLE
  5
4D4
  8
PATTERN_FILL
  6
CONTINUOUS
 62
     7
 10
286.5
 20
412.59999999999991
 30
0.0
 40
3.25
  0
CIRCLE
  5
4D5
  8
PATTERN_FILL
  6
CONTINUOUS
 62
     7
 10
302.5
 20
412.59999999999991
 30
0.0
 40
3.25
  0
CIRCLE
  5
4D6
  8
PATTERN_FILL
  6
CONTINUOUS
 62
     7
 10
318.5
 20
412.59999999999991
 30
0.0
 40
3.25
  0
CIRCLE
  5
4D7
  8
PATTERN_FILL
  6
CONTINUOUS
 62
     7
 10
334.50000000000011
 20
412.59999999999991
 30
0.0
 40
3.25
  0
CIRCLE
  5
4D8
  8
PATTERN_FILL
  6
CONTINUOUS
 62
     7
 10
94.500000000000014
 20
412.59999999999991
 30
0.0
 40
3.25
  0
CIRCLE
  5
4D9
  8
PATTERN_FILL
  6
CONTINUOUS
 62
     7
 10
78.5
 20
412.59999999999991
 30
0.0
 40
3.25
  0
CIRCLE
  5
4DA
  8
PATTERN_FILL
  6
CONTINUOUS
 62
     7
 10
62.5
 20
412.59999999999991
 30
0.0
 40
3.25
  0
CIRCLE
  5
4DB
  8
PATTERN_FILL
  6
CONTINUOUS
 62
     7
 10
46.5
 20
412.59999999999991
 30
0.0
 40
3.25
  0
CIRCLE
  5
4DC
  8
PATTERN_FILL
  6
CONTINUOUS
 62
     7
 10
30.5
 20
412.59999999999991
 30
0.0
 40
3.25
  0
CIRCLE
  5
4DD
  8
PATTERN_FILL
  6
CONTINUOUS
 62
     7
 10
14.5
 20
412.59999999999991
 30
0.0
 40
3.25
  0
CIRCLE
  5
4DE
  8
PATTERN_FILL
  6
CONTINUOUS
 62
     7
 10
350.50000000000011
 20
412.59999999999991
 30
0.0
 40
3.25
  0
CIRCLE
  5
4DF
  8
PATTERN_FILL
  6
CONTINUOUS
 62
     7
 10
366.5
 20
412.59999999999991
 30
0.0
 40
3.25
  0
CIRCLE
  5
4E0
  8
PATTERN_FILL
  6
CONTINUOUS
 62
     7
 10
382.50000000000011
 20
412.59999999999991
 30
0.0
 40
3.25
  0
CIRCLE
  5
4E1
  8
PATTERN_FILL
  6
CONTINUOUS
 62
     7
 10
110.5
 20
412.59999999999991
 30
0.0
 40
3.25
  0
CIRCLE
  5
4E2
  8
PATTERN_FILL
  6
CONTINUOUS
 62
     7
 10
126.5
 20
412.59999999999991
 30
0.0
 40
3.25
  0
CIRCLE
  5
4E3
  8
PATTERN_FILL
  6
CONTINUOUS
 62
     7
 10
142.5
 20
412.59999999999991
 30
0.0
 40
3.25
  0
CIRCLE
  5
4E4
  8
PATTERN_FILL
  6
CONTINUOUS
 62
     7
 10
158.5
 20
412.59999999999991
 30
0.0
 40
3.25
  0
CIRCLE
  5
4E5
  8
PATTERN_FILL
  6
CONTINUOUS
 62
     7
 10
174.5
 20
412.59999999999991
 30
0.0
 40
3.25
  0
CIRCLE
  5
4E6
  8
PATTERN_FILL
  6
CONTINUOUS
 62
     7
 10
190.5
 20
412.59999999999991
 30
0.0
 40
3.25
  0
CIRCLE
  5
4E7
  8
PATTERN_FILL
  6
CONTINUOUS
 62
     7
 10
206.5
 20
412.59999999999991
 30
0.0
 40
3.25
  0
CIRCLE
  5
4E8
  8
PATTERN_FILL
  6
CONTINUOUS
 62
     7
 10
222.5
 20
412.59999999999991
 30
0.0
 40
3.25
  0
CIRCLE
  5
4E9
  8
PATTERN_FILL
  6
CONTINUOUS
 62
     7
 10
238.5
 20
412.59999999999991
 30
0.0
 40
3.25
  0
CIRCLE
  5
4EA
  8
PATTERN_FILL
  6
CONTINUOUS
 62
     7
 10
254.5
 20
398.59999999999991
 30
0.0
 40
3.25
  0
CIRCLE
  5
4EB
  8
PATTERN_FILL
  6
CONTINUOUS
 62
     7
 10
270.5
 20
398.59999999999991
 30
0.0
 40
3.25
  0
CIRCLE
  5
4EC
  8
PATTERN_FILL
  6
CONTINUOUS
 62
     7
 10
286.5
 20
398.59999999999991
 30
0.0
 40
3.25
  0
CIRCLE
  5
4ED
  8
PATTERN_FILL
  6
CONTINUOUS
 62
     7
 10
302.5
 20
398.59999999999991
 30
0.0
 40
3.25
  0
CIRCLE
  5
4EE
  8
PATTERN_FILL
  6
CONTINUOUS
 62
     7
 10
318.5
 20
398.59999999999991
 30
0.0
 40
3.25
  0
CIRCLE
  5
4EF
  8
PATTERN_FILL
  6
CONTINUOUS
 62
     7
 10
334.50000000000011
 20
398.59999999999991
 30
0.0
 40
3.25
  0
CIRCLE
  5
4F0
  8
PATTERN_FILL
  6
CONTINUOUS
 62
     7
 10
94.500000000000014
 20
398.59999999999991
 30
0.0
 40
3.25
  0
CIRCLE
  5
4F1
  8
PATTERN_FILL
  6
CONTINUOUS
 62
     7
 10
78.5
 20
398.59999999999991
 30
0.0
 40
3.25
  0
CIRCLE
  5
4F2
  8
PATTERN_FILL
  6
CONTINUOUS
 62
     7
 10
62.5
 20
398.59999999999991
 30
0.0
 40
3.25
  0
CIRCLE
  5
4F3
  8
PATTERN_FILL
  6
CONTINUOUS
 62
     7
 10
46.5
 20
398.59999999999991
 30
0.0
 40
3.25
  0
CIRCLE
  5
4F4
  8
PATTERN_FILL
  6
CONTINUOUS
 62
     7
 10
30.5
 20
398.59999999999991
 30
0.0
 40
3.25
  0
CIRCLE
  5
4F5
  8
PATTERN_FILL
  6
CONTINUOUS
 62
     7
 10
14.5
 20
398.59999999999991
 30
0.0
 40
3.25
  0
CIRCLE
  5
4F6
  8
PATTERN_FILL
  6
CONTINUOUS
 62
     7
 10
350.50000000000011
 20
398.59999999999991
 30
0.0
 40
3.25
  0
CIRCLE
  5
4F7
  8
PATTERN_FILL
  6
CONTINUOUS
 62
     7
 10
366.5
 20
398.59999999999991
 30
0.0
 40
3.25
  0
CIRCLE
  5
4F8
  8
PATTERN_FILL
  6
CONTINUOUS
 62
     7
 10
382.50000000000011
 20
398.59999999999991
 30
0.0
 40
3.25
  0
CIRCLE
  5
4F9
  8
PATTERN_FILL
  6
CONTINUOUS
 62
     7
 10
110.5
 20
398.59999999999991
 30
0.0
 40
3.25
  0
CIRCLE
  5
4FA
  8
PATTERN_FILL
  6
CONTINUOUS
 62
     7
 10
126.5
 20
398.59999999999991
 30
0.0
 40
3.25
  0
CIRCLE
  5
4FB
  8
PATTERN_FILL
  6
CONTINUOUS
 62
     7
 10
142.5
 20
398.59999999999991
 30
0.0
 40
3.25
  0
CIRCLE
  5
4FC
  8
PATTERN_FILL
  6
CONTINUOUS
 62
     7
 10
158.5
 20
398.59999999999991
 30
0.0
 40
3.25
  0
CIRCLE
  5
4FD
  8
PATTERN_FILL
  6
CONTINUOUS
 62
     7
 10
174.5
 20
398.59999999999991
 30
0.0
 40
3.25
  0
CIRCLE
  5
4FE
  8
PATTERN_FILL
  6
CONTINUOUS
 62
     7
 10
190.5
 20
398.59999999999991
 30
0.0
 40
3.25
  0
CIRCLE
  5
4FF
  8
PATTERN_FILL
  6
CONTINUOUS
 62
     7
 10
206.5
 20
398.59999999999991
 30
0.0
 40
3.25
  0
CIRCLE
  5
500
  8
PATTERN_FILL
  6
CONTINUOUS
 62
     7
 10
222.5
 20
398.59999999999991
 30
0.0
 40
3.25
  0
CIRCLE
  5
501
  8
PATTERN_FILL
  6
CONTINUOUS
 62
     7
 10
238.5
 20
398.59999999999991
 30
0.0
 40
3.25
  0
CIRCLE
  5
502
  8
PATTERN_FILL
  6
CONTINUOUS
 62
     7
 10
254.5
 20
384.59999999999991
 30
0.0
 40
3.25
  0
CIRCLE
  5
503
  8
PATTERN_FILL
  6
CONTINUOUS
 62
     7
 10
270.5
 20
384.59999999999991
 30
0.0
 40
3.25
  0
CIRCLE
  5
504
  8
PATTERN_FILL
  6
CONTINUOUS
 62
     7
 10
286.5
 20
384.59999999999991
 30
0.0
 40
3.25
  0
CIRCLE
  5
505
  8
PATTERN_FILL
  6
CONTINUOUS
 62
     7
 10
302.5
 20
384.59999999999991
 30
0.0
 40
3.25
  0
CIRCLE
  5
506
  8
PATTERN_FILL
  6
CONTINUOUS
 62
     7
 10
318.5
 20
384.59999999999991
 30
0.0
 40
3.25
  0
CIRCLE
  5
507
  8
PATTERN_FILL
  6
CONTINUOUS
 62
     7
 10
334.50000000000011
 20
384.59999999999991
 30
0.0
 40
3.25
  0
CIRCLE
  5
508
  8
PATTERN_FILL
  6
CONTINUOUS
 62
     7
 10
94.500000000000014
 20
384.59999999999991
 30
0.0
 40
3.25
  0
CIRCLE
  5
509
  8
PATTERN_FILL
  6
CONTINUOUS
 62
     7
 10
78.5
 20
384.59999999999991
 30
0.0
 40
3.25
  0
CIRCLE
  5
50A
  8
PATTERN_FILL
  6
CONTINUOUS
 62
     7
 10
62.5
 20
384.59999999999991
 30
0.0
 40
3.25
  0
CIRCLE
  5
50B
  8
PATTERN_FILL
  6
CONTINUOUS
 62
     7
 10
46.5
 20
384.59999999999991
 30
0.0
 40
3.25
  0
CIRCLE
  5
50C
  8
PATTERN_FILL
  6
CONTINUOUS
 62
     7
 10
30.5
 20
384.59999999999991
 30
0.0
 40
3.25
  0
CIRCLE
  5
50D
  8
PATTERN_FILL
  6
CONTINUOUS
 62
     7
 10
14.5
 20
384.59999999999991
 30
0.0
 40
3.25
  0
CIRCLE
  5
50E
  8
PATTERN_FILL
  6
CONTINUOUS
 62
     7
 10
350.50000000000011
 20
384.59999999999991
 30
0.0
 40
3.25
  0
CIRCLE
  5
50F
  8
PATTERN_FILL
  6
CONTINUOUS
 62
     7
 10
366.5
 20
384.59999999999991
 30
0.0
 40
3.25
  0
CIRCLE
  5
510
  8
PATTERN_FILL
  6
CONTINUOUS
 62
     7
 10
382.50000000000011
 20
384.59999999999991
 30
0.0
 40
3.25
  0
CIRCLE
  5
511
  8
PATTERN_FILL
  6
CONTINUOUS
 62
     7
 10
110.5
 20
384.59999999999991
 30
0.0
 40
3.25
  0
CIRCLE
  5
512
  8
PATTERN_FILL
  6
CONTINUOUS
 62
     7
 10
126.5
 20
384.59999999999991
 30
0.0
 40
3.25
  0
CIRCLE
  5
513
  8
PATTERN_FILL
  6
CONTINUOUS
 62
     7
 10
142.5
 20
384.59999999999991
 30
0.0
 40
3.25
  0
CIRCLE
  5
514
  8
PATTERN_FILL
  6
CONTINUOUS
 62
     7
 10
158.5
 20
384.59999999999991
 30
0.0
 40
3.25
  0
CIRCLE
  5
515
  8
PATTERN_FILL
  6
CONTINUOUS
 62
     7
 10
174.5
 20
384.59999999999991
 30
0.0
 40
3.25
  0
CIRCLE
  5
516
  8
PATTERN_FILL
  6
CONTINUOUS
 62
     7
 10
190.5
 20
384.59999999999991
 30
0.0
 40
3.25
  0
CIRCLE
  5
517
  8
PATTERN_FILL
  6
CONTINUOUS
 62
     7
 10
206.5
 20
384.59999999999991
 30
0.0
 40
3.25
  0
CIRCLE
  5
518
  8
PATTERN_FILL
  6
CONTINUOUS
 62
     7
 10
222.5
 20
384.59999999999991
 30
0.0
 40
3.25
  0
CIRCLE
  5
519
  8
PATTERN_FILL
  6
CONTINUOUS
 62
     7
 10
238.5
 20
384.59999999999991
 30
0.0
 40
3.25
  0
CIRCLE
  5
51A
  8
PATTERN_FILL
  6
CONTINUOUS
 62
     7
 10
254.5
 20
370.59999999999991
 30
0.0
 40
3.25
  0
CIRCLE
  5
51B
  8
PATTERN_FILL
  6
CONTINUOUS
 62
     7
 10
270.5
 20
370.59999999999991
 30
0.0
 40
3.25
  0
CIRCLE
  5
51C
  8
PATTERN_FILL
  6
CONTINUOUS
 62
     7
 10
286.5
 20
370.59999999999991
 30
0.0
 40
3.25
  0
CIRCLE
  5
51D
  8
PATTERN_FILL
  6
CONTINUOUS
 62
     7
 10
302.5
 20
370.59999999999991
 30
0.0
 40
3.25
  0
CIRCLE
  5
51E
  8
PATTERN_FILL
  6
CONTINUOUS
 62
     7
 10
318.5
 20
370.59999999999991
 30
0.0
 40
3.25
  0
CIRCLE
  5
51F
  8
PATTERN_FILL
  6
CONTINUOUS
 62
     7
 10
334.50000000000011
 20
370.59999999999991
 30
0.0
 40
3.25
  0
CIRCLE
  5
520
  8
PATTERN_FILL
  6
CONTINUOUS
 62
     7
 10
94.500000000000014
 20
370.59999999999991
 30
0.0
 40
3.25
  0
CIRCLE
  5
521
  8
PATTERN_FILL
  6
CONTINUOUS
 62
     7
 10
78.5
 20
370.59999999999991
 30
0.0
 40
3.25
  0
CIRCLE
  5
522
  8
PATTERN_FILL
  6
CONTINUOUS
 62
     7
 10
62.5
 20
370.59999999999991
 30
0.0
 40
3.25
  0
CIRCLE
  5
523
  8
PATTERN_FILL
  6
CONTINUOUS
 62
     7
 10
46.5
 20
370.59999999999991
 30
0.0
 40
3.25
  0
CIRCLE
  5
524
  8
PATTERN_FILL
  6
CONTINUOUS
 62
     7
 10
30.5
 20
370.59999999999991
 30
0.0
 40
3.25
  0
CIRCLE
  5
525
  8
PATTERN_FILL
  6
CONTINUOUS
 62
     7
 10
14.5
 20
370.59999999999991
 30
0.0
 40
3.25
  0
CIRCLE
  5
526
  8
PATTERN_FILL
  6
CONTINUOUS
 62
     7
 10
350.50000000000011
 20
370.59999999999991
 30
0.0
 40
3.25
  0
CIRCLE
  5
527
  8
PATTERN_FILL
  6
CONTINUOUS
 62
     7
 10
366.5
 20
370.59999999999991
 30
0.0
 40
3.25
  0
CIRCLE
  5
528
  8
PATTERN_FILL
  6
CONTINUOUS
 62
     7
 10
382.50000000000011
 20
370.59999999999991
 30
0.0
 40
3.25
  0
CIRCLE
  5
529
  8
PATTERN_FILL
  6
CONTINUOUS
 62
     7
 10
110.5
 20
370.59999999999991
 30
0.0
 40
3.25
  0
CIRCLE
  5
52A
  8
PATTERN_FILL
  6
CONTINUOUS
 62
     7
 10
126.5
 20
370.59999999999991
 30
0.0
 40
3.25
  0
CIRCLE
  5
52B
  8
PATTERN_FILL
  6
CONTINUOUS
 62
     7
 10
142.5
 20
370.59999999999991
 30
0.0
 40
3.25
  0
CIRCLE
  5
52C
  8
PATTERN_FILL
  6
CONTINUOUS
 62
     7
 10
158.5
 20
370.59999999999991
 30
0.0
 40
3.25
  0
CIRCLE
  5
52D
  8
PATTERN_FILL
  6
CONTINUOUS
 62
     7
 10
174.5
 20
370.59999999999991
 30
0.0
 40
3.25
  0
CIRCLE
  5
52E
  8
PATTERN_FILL
  6
CONTINUOUS
 62
     7
 10
190.5
 20
370.59999999999991
 30
0.0
 40
3.25
  0
CIRCLE
  5
52F
  8
PATTERN_FILL
  6
CONTINUOUS
 62
     7
 10
206.5
 20
370.59999999999991
 30
0.0
 40
3.25
  0
CIRCLE
  5
530
  8
PATTERN_FILL
  6
CONTINUOUS
 62
     7
 10
222.5
 20
370.59999999999991
 30
0.0
 40
3.25
  0
CIRCLE
  5
531
  8
PATTERN_FILL
  6
CONTINUOUS
 62
     7
 10
238.5
 20
370.59999999999991
 30
0.0
 40
3.25
  0
CIRCLE
  5
532
  8
PATTERN_FILL
  6
CONTINUOUS
 62
     7
 10
254.5
 20
356.59999999999991
 30
0.0
 40
3.25
  0
CIRCLE
  5
533
  8
PATTERN_FILL
  6
CONTINUOUS
 62
     7
 10
270.5
 20
356.59999999999991
 30
0.0
 40
3.25
  0
CIRCLE
  5
534
  8
PATTERN_FILL
  6
CONTINUOUS
 62
     7
 10
286.5
 20
356.59999999999991
 30
0.0
 40
3.25
  0
CIRCLE
  5
535
  8
PATTERN_FILL
  6
CONTINUOUS
 62
     7
 10
302.5
 20
356.59999999999991
 30
0.0
 40
3.25
  0
CIRCLE
  5
536
  8
PATTERN_FILL
  6
CONTINUOUS
 62
     7
 10
318.5
 20
356.59999999999991
 30
0.0
 40
3.25
  0
CIRCLE
  5
537
  8
PATTERN_FILL
  6
CONTINUOUS
 62
     7
 10
334.50000000000011
 20
356.59999999999991
 30
0.0
 40
3.25
  0
CIRCLE
  5
538
  8
PATTERN_FILL
  6
CONTINUOUS
 62
     7
 10
94.500000000000014
 20
356.59999999999991
 30
0.0
 40
3.25
  0
CIRCLE
  5
539
  8
PATTERN_FILL
  6
CONTINUOUS
 62
     7
 10
78.5
 20
356.59999999999991
 30
0.0
 40
3.25
  0
CIRCLE
  5
53A
  8
PATTERN_FILL
  6
CONTINUOUS
 62
     7
 10
62.5
 20
356.59999999999991
 30
0.0
 40
3.25
  0
CIRCLE
  5
53B
  8
PATTERN_FILL
  6
CONTINUOUS
 62
     7
 10
46.5
 20
356.59999999999991
 30
0.0
 40
3.25
  0
CIRCLE
  5
53C
  8
PATTERN_FILL
  6
CONTINUOUS
 62
     7
 10
30.5
 20
356.59999999999991
 30
0.0
 40
3.25
  0
CIRCLE
  5
53D
  8
PATTERN_FILL
  6
CONTINUOUS
 62
     7
 10
14.5
 20
356.59999999999991
 30
0.0
 40
3.25
  0
CIRCLE
  5
53E
  8
PATTERN_FILL
  6
CONTINUOUS
 62
     7
 10
350.50000000000011
 20
356.59999999999991
 30
0.0
 40
3.25
  0
CIRCLE
  5
53F
  8
PATTERN_FILL
  6
CONTINUOUS
 62
     7
 10
366.5
 20
356.59999999999991
 30
0.0
 40
3.25
  0
CIRCLE
  5
540
  8
PATTERN_FILL
  6
CONTINUOUS
 62
     7
 10
382.50000000000011
 20
356.59999999999991
 30
0.0
 40
3.25
  0
CIRCLE
  5
541
  8
PATTERN_FILL
  6
CONTINUOUS
 62
     7
 10
110.5
 20
356.59999999999991
 30
0.0
 40
3.25
  0
CIRCLE
  5
542
  8
PATTERN_FILL
  6
CONTINUOUS
 62
     7
 10
126.5
 20
356.59999999999991
 30
0.0
 40
3.25
  0
CIRCLE
  5
543
  8
PATTERN_FILL
  6
CONTINUOUS
 62
     7
 10
142.5
 20
356.59999999999991
 30
0.0
 40
3.25
  0
CIRCLE
  5
544
  8
PATTERN_FILL
  6
CONTINUOUS
 62
     7
 10
158.5
 20
356.59999999999991
 30
0.0
 40
3.25
  0
CIRCLE
  5
545
  8
PATTERN_FILL
  6
CONTINUOUS
 62
     7
 10
174.5
 20
356.59999999999991
 30
0.0
 40
3.25
  0
CIRCLE
  5
546
  8
PATTERN_FILL
  6
CONTINUOUS
 62
     7
 10
190.5
 20
356.59999999999991
 30
0.0
 40
3.25
  0
CIRCLE
  5
547
  8
PATTERN_FILL
  6
CONTINUOUS
 62
     7
 10
206.5
 20
356.59999999999991
 30
0.0
 40
3.25
  0
CIRCLE
  5
548
  8
PATTERN_FILL
  6
CONTINUOUS
 62
     7
 10
222.5
 20
356.59999999999991
 30
0.0
 40
3.25
  0
CIRCLE
  5
549
  8
PATTERN_FILL
  6
CONTINUOUS
 62
     7
 10
238.5
 20
356.59999999999991
 30
0.0
 40
3.25
  0
CIRCLE
  5
54A
  8
PATTERN_FILL
  6
CONTINUOUS
 62
     7
 10
254.5
 20
342.59999999999991
 30
0.0
 40
3.25
  0
CIRCLE
  5
54B
  8
PATTERN_FILL
  6
CONTINUOUS
 62
     7
 10
270.5
 20
342.59999999999991
 30
0.0
 40
3.25
  0
CIRCLE
  5
54C
  8
PATTERN_FILL
  6
CONTINUOUS
 62
     7
 10
286.5
 20
342.59999999999991
 30
0.0
 40
3.25
  0
CIRCLE
  5
54D
  8
PATTERN_FILL
  6
CONTINUOUS
 62
     7
 10
302.5
 20
342.59999999999991
 30
0.0
 40
3.25
  0
CIRCLE
  5
54E
  8
PATTERN_FILL
  6
CONTINUOUS
 62
     7
 10
318.5
 20
342.59999999999991
 30
0.0
 40
3.25
  0
CIRCLE
  5
54F
  8
PATTERN_FILL
  6
CONTINUOUS
 62
     7
 10
334.50000000000011
 20
342.59999999999991
 30
0.0
 40
3.25
  0
CIRCLE
  5
550
  8
PATTERN_FILL
  6
CONTINUOUS
 62
     7
 10
94.500000000000014
 20
342.59999999999991
 30
0.0
 40
3.25
  0
CIRCLE
  5
551
  8
PATTERN_FILL
  6
CONTINUOUS
 62
     7
 10
78.5
 20
342.59999999999991
 30
0.0
 40
3.25
  0
CIRCLE
  5
552
  8
PATTERN_FILL
  6
CONTINUOUS
 62
     7
 10
62.5
 20
342.59999999999991
 30
0.0
 40
3.25
  0
CIRCLE
  5
553
  8
PATTERN_FILL
  6
CONTINUOUS
 62
     7
 10
46.5
 20
342.59999999999991
 30
0.0
 40
3.25
  0
CIRCLE
  5
554
  8
PATTERN_FILL
  6
CONTINUOUS
 62
     7
 10
30.5
 20
342.59999999999991
 30
0.0
 40
3.25
  0
CIRCLE
  5
555
  8
PATTERN_FILL
  6
CONTINUOUS
 62
     7
 10
14.5
 20
342.59999999999991
 30
0.0
 40
3.25
  0
CIRCLE
  5
556
  8
PATTERN_FILL
  6
CONTINUOUS
 62
     7
 10
350.50000000000011
 20
342.59999999999991
 30
0.0
 40
3.25
  0
CIRCLE
  5
557
  8
PATTERN_FILL
  6
CONTINUOUS
 62
     7
 10
366.5
 20
342.59999999999991
 30
0.0
 40
3.25
  0
CIRCLE
  5
558
  8
PATTERN_FILL
  6
CONTINUOUS
 62
     7
 10
382.50000000000011
 20
342.59999999999991
 30
0.0
 40
3.25
  0
CIRCLE
  5
559
  8
PATTERN_FILL
  6
CONTINUOUS
 62
     7
 10
110.5
 20
342.59999999999991
 30
0.0
 40
3.25
  0
CIRCLE
  5
55A
  8
PATTERN_FILL
  6
CONTINUOUS
 62
     7
 10
126.5
 20
342.59999999999991
 30
0.0
 40
3.25
  0
CIRCLE
  5
55B
  8
PATTERN_FILL
  6
CONTINUOUS
 62
     7
 10
142.5
 20
342.59999999999991
 30
0.0
 40
3.25
  0
CIRCLE
  5
55C
  8
PATTERN_FILL
  6
CONTINUOUS
 62
     7
 10
158.5
 20
342.59999999999991
 30
0.0
 40
3.25
  0
CIRCLE
  5
55D
  8
PATTERN_FILL
  6
CONTINUOUS
 62
     7
 10
174.5
 20
342.59999999999991
 30
0.0
 40
3.25
  0
CIRCLE
  5
55E
  8
PATTERN_FILL
  6
CONTINUOUS
 62
     7
 10
190.5
 20
342.59999999999991
 30
0.0
 40
3.25
  0
CIRCLE
  5
55F
  8
PATTERN_FILL
  6
CONTINUOUS
 62
     7
 10
206.5
 20
342.59999999999991
 30
0.0
 40
3.25
  0
CIRCLE
  5
560
  8
PATTERN_FILL
  6
CONTINUOUS
 62
     7
 10
222.5
 20
342.59999999999991
 30
0.0
 40
3.25
  0
CIRCLE
  5
561
  8
PATTERN_FILL
  6
CONTINUOUS
 62
     7
 10
238.5
 20
342.59999999999991
 30
0.0
 40
3.25
  0
CIRCLE
  5
562
  8
PATTERN_FILL
  6
CONTINUOUS
 62
     7
 10
254.5
 20
328.59999999999991
 30
0.0
 40
3.25
  0
CIRCLE
  5
563
  8
PATTERN_FILL
  6
CONTINUOUS
 62
     7
 10
270.5
 20
328.59999999999991
 30
0.0
 40
3.25
  0
CIRCLE
  5
564
  8
PATTERN_FILL
  6
CONTINUOUS
 62
     7
 10
286.5
 20
328.59999999999991
 30
0.0
 40
3.25
  0
CIRCLE
  5
565
  8
PATTERN_FILL
  6
CONTINUOUS
 62
     7
 10
302.5
 20
328.59999999999991
 30
0.0
 40
3.25
  0
CIRCLE
  5
566
  8
PATTERN_FILL
  6
CONTINUOUS
 62
     7
 10
318.5
 20
328.59999999999991
 30
0.0
 40
3.25
  0
CIRCLE
  5
567
  8
PATTERN_FILL
  6
CONTINUOUS
 62
     7
 10
334.50000000000011
 20
328.59999999999991
 30
0.0
 40
3.25
  0
CIRCLE
  5
568
  8
PATTERN_FILL
  6
CONTINUOUS
 62
     7
 10
94.500000000000014
 20
328.59999999999991
 30
0.0
 40
3.25
  0
CIRCLE
  5
569
  8
PATTERN_FILL
  6
CONTINUOUS
 62
     7
 10
78.5
 20
328.59999999999991
 30
0.0
 40
3.25
  0
CIRCLE
  5
56A
  8
PATTERN_FILL
  6
CONTINUOUS
 62
     7
 10
62.5
 20
328.59999999999991
 30
0.0
 40
3.25
  0
CIRCLE
  5
56B
  8
PATTERN_FILL
  6
CONTINUOUS
 62
     7
 10
46.5
 20
328.59999999999991
 30
0.0
 40
3.25
  0
CIRCLE
  5
56C
  8
PATTERN_FILL
  6
CONTINUOUS
 62
     7
 10
30.5
 20
328.59999999999991
 30
0.0
 40
3.25
  0
CIRCLE
  5
56D
  8
PATTERN_FILL
  6
CONTINUOUS
 62
     7
 10
14.5
 20
328.59999999999991
 30
0.0
 40
3.25
  0
CIRCLE
  5
56E
  8
PATTERN_FILL
  6
CONTINUOUS
 62
     7
 10
350.50000000000011
 20
328.59999999999991
 30
0.0
 40
3.25
  0
CIRCLE
  5
56F
  8
PATTERN_FILL
  6
CONTINUOUS
 62
     7
 10
366.5
 20
328.59999999999991
 30
0.0
 40
3.25
  0
CIRCLE
  5
570
  8
PATTERN_FILL
  6
CONTINUOUS
 62
     7
 10
382.50000000000011
 20
328.59999999999991
 30
0.0
 40
3.25
  0
CIRCLE
  5
571
  8
PATTERN_FILL
  6
CONTINUOUS
 62
     7
 10
110.5
 20
328.59999999999991
 30
0.0
 40
3.25
  0
CIRCLE
  5
572
  8
PATTERN_FILL
  6
CONTINUOUS
 62
     7
 10
126.5
 20
328.59999999999991
 30
0.0
 40
3.25
  0
CIRCLE
  5
573
  8
PATTERN_FILL
  6
CONTINUOUS
 62
     7
 10
142.5
 20
328.59999999999991
 30
0.0
 40
3.25
  0
CIRCLE
  5
574
  8
PATTERN_FILL
  6
CONTINUOUS
 62
     7
 10
158.5
 20
328.59999999999991
 30
0.0
 40
3.25
  0
CIRCLE
  5
575
  8
PATTERN_FILL
  6
CONTINUOUS
 62
     7
 10
174.5
 20
328.59999999999991
 30
0.0
 40
3.25
  0
CIRCLE
  5
576
  8
PATTERN_FILL
  6
CONTINUOUS
 62
     7
 10
190.5
 20
328.59999999999991
 30
0.0
 40
3.25
  0
CIRCLE
  5
577
  8
PATTERN_FILL
  6
CONTINUOUS
 62
     7
 10
206.5
 20
328.59999999999991
 30
0.0
 40
3.25
  0
CIRCLE
  5
578
  8
PATTERN_FILL
  6
CONTINUOUS
 62
     7
 10
222.5
 20
328.59999999999991
 30
0.0
 40
3.25
  0
CIRCLE
  5
579
  8
PATTERN_FILL
  6
CONTINUOUS
 62
     7
 10
238.5
 20
328.59999999999991
 30
0.0
 40
3.25
  0
CIRCLE
  5
57A
  8
PATTERN_FILL
  6
CONTINUOUS
 62
     7
 10
254.5
 20
314.59999999999991
 30
0.0
 40
3.25
  0
CIRCLE
  5
57B
  8
PATTERN_FILL
  6
CONTINUOUS
 62
     7
 10
270.5
 20
314.59999999999991
 30
0.0
 40
3.25
  0
CIRCLE
  5
57C
  8
PATTERN_FILL
  6
CONTINUOUS
 62
     7
 10
286.5
 20
314.59999999999991
 30
0.0
 40
3.25
  0
CIRCLE
  5
57D
  8
PATTERN_FILL
  6
CONTINUOUS
 62
     7
 10
302.5
 20
314.59999999999991
 30
0.0
 40
3.25
  0
CIRCLE
  5
57E
  8
PATTERN_FILL
  6
CONTINUOUS
 62
     7
 10
318.5
 20
314.59999999999991
 30
0.0
 40
3.25
  0
CIRCLE
  5
57F
  8
PATTERN_FILL
  6
CONTINUOUS
 62
     7
 10
334.50000000000011
 20
314.59999999999991
 30
0.0
 40
3.25
  0
CIRCLE
  5
580
  8
PATTERN_FILL
  6
CONTINUOUS
 62
     7
 10
94.500000000000014
 20
314.59999999999991
 30
0.0
 40
3.25
  0
CIRCLE
  5
581
  8
PATTERN_FILL
  6
CONTINUOUS
 62
     7
 10
78.5
 20
314.59999999999991
 30
0.0
 40
3.25
  0
CIRCLE
  5
582
  8
PATTERN_FILL
  6
CONTINUOUS
 62
     7
 10
62.5
 20
314.59999999999991
 30
0.0
 40
3.25
  0
CIRCLE
  5
583
  8
PATTERN_FILL
  6
CONTINUOUS
 62
     7
 10
46.5
 20
314.59999999999991
 30
0.0
 40
3.25
  0
CIRCLE
  5
584
  8
PATTERN_FILL
  6
CONTINUOUS
 62
     7
 10
30.5
 20
314.59999999999991
 30
0.0
 40
3.25
  0
CIRCLE
  5
585
  8
PATTERN_FILL
  6
CONTINUOUS
 62
     7
 10
14.5
 20
314.59999999999991
 30
0.0
 40
3.25
  0
CIRCLE
  5
586
  8
PATTERN_FILL
  6
CONTINUOUS
 62
     7
 10
350.50000000000011
 20
314.59999999999991
 30
0.0
 40
3.25
  0
CIRCLE
  5
587
  8
PATTERN_FILL
  6
CONTINUOUS
 62
     7
 10
366.5
 20
314.59999999999991
 30
0.0
 40
3.25
  0
CIRCLE
  5
588
  8
PATTERN_FILL
  6
CONTINUOUS
 62
     7
 10
382.50000000000011
 20
314.59999999999991
 30
0.0
 40
3.25
  0
CIRCLE
  5
589
  8
PATTERN_FILL
  6
CONTINUOUS
 62
     7
 10
110.5
 20
314.59999999999991
 30
0.0
 40
3.25
  0
CIRCLE
  5
58A
  8
PATTERN_FILL
  6
CONTINUOUS
 62
     7
 10
126.5
 20
314.59999999999991
 30
0.0
 40
3.25
  0
CIRCLE
  5
58B
  8
PATTERN_FILL
  6
CONTINUOUS
 62
     7
 10
142.5
 20
314.59999999999991
 30
0.0
 40
3.25
  0
CIRCLE
  5
58C
  8
PATTERN_FILL
  6
CONTINUOUS
 62
     7
 10
158.5
 20
314.59999999999991
 30
0.0
 40
3.25
  0
CIRCLE
  5
58D
  8
PATTERN_FILL
  6
CONTINUOUS
 62
     7
 10
174.5
 20
314.59999999999991
 30
0.0
 40
3.25
  0
CIRCLE
  5
58E
  8
PATTERN_FILL
  6
CONTINUOUS
 62
     7
 10
190.5
 20
314.59999999999991
 30
0.0
 40
3.25
  0
CIRCLE
  5
58F
  8
PATTERN_FILL
  6
CONTINUOUS
 62
     7
 10
206.5
 20
314.59999999999991
 30
0.0
 40
3.25
  0
CIRCLE
  5
590
  8
PATTERN_FILL
  6
CONTINUOUS
 62
     7
 10
222.5
 20
314.59999999999991
 30
0.0
 40
3.25
  0
CIRCLE
  5
591
  8
PATTERN_FILL
  6
CONTINUOUS
 62
     7
 10
238.5
 20
314.59999999999991
 30
0.0
 40
3.25
  0
CIRCLE
  5
592
  8
PATTERN_FILL
  6
CONTINUOUS
 62
     7
 10
254.5
 20
300.59999999999991
 30
0.0
 40
3.25
  0
CIRCLE
  5
593
  8
PATTERN_FILL
  6
CONTINUOUS
 62
     7
 10
270.5
 20
300.59999999999991
 30
0.0
 40
3.25
  0
CIRCLE
  5
594
  8
PATTERN_FILL
  6
CONTINUOUS
 62
     7
 10
286.5
 20
300.59999999999991
 30
0.0
 40
3.25
  0
CIRCLE
  5
595
  8
PATTERN_FILL
  6
CONTINUOUS
 62
     7
 10
302.5
 20
300.59999999999991
 30
0.0
 40
3.25
  0
CIRCLE
  5
596
  8
PATTERN_FILL
  6
CONTINUOUS
 62
     7
 10
318.5
 20
300.59999999999991
 30
0.0
 40
3.25
  0
CIRCLE
  5
597
  8
PATTERN_FILL
  6
CONTINUOUS
 62
     7
 10
334.50000000000011
 20
300.59999999999991
 30
0.0
 40
3.25
  0
CIRCLE
  5
598
  8
PATTERN_FILL
  6
CONTINUOUS
 62
     7
 10
94.500000000000014
 20
300.59999999999991
 30
0.0
 40
3.25
  0
CIRCLE
  5
599
  8
PATTERN_FILL
  6
CONTINUOUS
 62
     7
 10
78.5
 20
300.59999999999991
 30
0.0
 40
3.25
  0
CIRCLE
  5
59A
  8
PATTERN_FILL
  6
CONTINUOUS
 62
     7
 10
62.5
 20
300.59999999999991
 30
0.0
 40
3.25
  0
CIRCLE
  5
59B
  8
PATTERN_FILL
  6
CONTINUOUS
 62
     7
 10
46.5
 20
300.59999999999991
 30
0.0
 40
3.25
  0
CIRCLE
  5
59C
  8
PATTERN_FILL
  6
CONTINUOUS
 62
     7
 10
30.5
 20
300.59999999999991
 30
0.0
 40
3.25
  0
CIRCLE
  5
59D
  8
PATTERN_FILL
  6
CONTINUOUS
 62
     7
 10
14.5
 20
300.59999999999991
 30
0.0
 40
3.25
  0
CIRCLE
  5
59E
  8
PATTERN_FILL
  6
CONTINUOUS
 62
     7
 10
350.50000000000011
 20
300.59999999999991
 30
0.0
 40
3.25
  0
CIRCLE
  5
59F
  8
PATTERN_FILL
  6
CONTINUOUS
 62
     7
 10
366.5
 20
300.59999999999991
 30
0.0
 40
3.25
  0
CIRCLE
  5
5A0
  8
PATTERN_FILL
  6
CONTINUOUS
 62
     7
 10
382.50000000000011
 20
300.59999999999991
 30
0.0
 40
3.25
  0
CIRCLE
  5
5A1
  8
PATTERN_FILL
  6
CONTINUOUS
 62
     7
 10
110.5
 20
300.59999999999991
 30
0.0
 40
3.25
  0
CIRCLE
  5
5A2
  8
PATTERN_FILL
  6
CONTINUOUS
 62
     7
 10
126.5
 20
300.59999999999991
 30
0.0
 40
3.25
  0
CIRCLE
  5
5A3
  8
PATTERN_FILL
  6
CONTINUOUS
 62
     7
 10
142.5
 20
300.59999999999991
 30
0.0
 40
3.25
  0
CIRCLE
  5
5A4
  8
PATTERN_FILL
  6
CONTINUOUS
 62
     7
 10
158.5
 20
300.59999999999991
 30
0.0
 40
3.25
  0
CIRCLE
  5
5A5
  8
PATTERN_FILL
  6
CONTINUOUS
 62
     7
 10
174.5
 20
300.59999999999991
 30
0.0
 40
3.25
  0
CIRCLE
  5
5A6
  8
PATTERN_FILL
  6
CONTINUOUS
 62
     7
 10
190.5
 20
300.59999999999991
 30
0.0
 40
3.25
  0
CIRCLE
  5
5A7
  8
PATTERN_FILL
  6
CONTINUOUS
 62
     7
 10
206.5
 20
300.59999999999991
 30
0.0
 40
3.25
  0
CIRCLE
  5
5A8
  8
PATTERN_FILL
  6
CONTINUOUS
 62
     7
 10
222.5
 20
300.59999999999991
 30
0.0
 40
3.25
  0
CIRCLE
  5
5A9
  8
PATTERN_FILL
  6
CONTINUOUS
 62
     7
 10
238.5
 20
300.59999999999991
 30
0.0
 40
3.25
  0
CIRCLE
  5
5AA
  8
PATTERN_FILL
  6
CONTINUOUS
 62
     7
 10
254.5
 20
286.59999999999991
 30
0.0
 40
3.25
  0
CIRCLE
  5
5AB
  8
PATTERN_FILL
  6
CONTINUOUS
 62
     7
 10
270.5
 20
286.59999999999991
 30
0.0
 40
3.25
  0
CIRCLE
  5
5AC
  8
PATTERN_FILL
  6
CONTINUOUS
 62
     7
 10
286.5
 20
286.59999999999991
 30
0.0
 40
3.25
  0
CIRCLE
  5
5AD
  8
PATTERN_FILL
  6
CONTINUOUS
 62
     7
 10
302.5
 20
286.59999999999991
 30
0.0
 40
3.25
  0
CIRCLE
  5
5AE
  8
PATTERN_FILL
  6
CONTINUOUS
 62
     7
 10
318.5
 20
286.59999999999991
 30
0.0
 40
3.25
  0
CIRCLE
  5
5AF
  8
PATTERN_FILL
  6
CONTINUOUS
 62
     7
 10
334.50000000000011
 20
286.59999999999991
 30
0.0
 40
3.25
  0
CIRCLE
  5
5B0
  8
PATTERN_FILL
  6
CONTINUOUS
 62
     7
 10
94.500000000000014
 20
286.59999999999991
 30
0.0
 40
3.25
  0
CIRCLE
  5
5B1
  8
PATTERN_FILL
  6
CONTINUOUS
 62
     7
 10
78.5
 20
286.59999999999991
 30
0.0
 40
3.25
  0
CIRCLE
  5
5B2
  8
PATTERN_FILL
  6
CONTINUOUS
 62
     7
 10
62.5
 20
286.59999999999991
 30
0.0
 40
3.25
  0
CIRCLE
  5
5B3
  8
PATTERN_FILL
  6
CONTINUOUS
 62
     7
 10
46.5
 20
286.59999999999991
 30
0.0
 40
3.25
  0
CIRCLE
  5
5B4
  8
PATTERN_FILL
  6
CONTINUOUS
 62
     7
 10
30.5
 20
286.59999999999991
 30
0.0
 40
3.25
  0
CIRCLE
  5
5B5
  8
PATTERN_FILL
  6
CONTINUOUS
 62
     7
 10
14.5
 20
286.59999999999991
 30
0.0
 40
3.25
  0
CIRCLE
  5
5B6
  8
PATTERN_FILL
  6
CONTINUOUS
 62
     7
 10
350.50000000000011
 20
286.59999999999991
 30
0.0
 40
3.25
  0
CIRCLE
  5
5B7
  8
PATTERN_FILL
  6
CONTINUOUS
 62
     7
 10
366.5
 20
286.59999999999991
 30
0.0
 40
3.25
  0
CIRCLE
  5
5B8
  8
PATTERN_FILL
  6
CONTINUOUS
 62
     7
 10
382.50000000000011
 20
286.59999999999991
 30
0.0
 40
3.25
  0
CIRCLE
  5
5B9
  8
PATTERN_FILL
  6
CONTINUOUS
 62
     7
 10
110.5
 20
286.59999999999991
 30
0.0
 40
3.25
  0
CIRCLE
  5
5BA
  8
PATTERN_FILL
  6
CONTINUOUS
 62
     7
 10
126.5
 20
286.59999999999991
 30
0.0
 40
3.25
  0
CIRCLE
  5
5BB
  8
PATTERN_FILL
  6
CONTINUOUS
 62
     7
 10
142.5
 20
286.59999999999991
 30
0.0
 40
3.25
  0
CIRCLE
  5
5BC
  8
PATTERN_FILL
  6
CONTINUOUS
 62
     7
 10
158.5
 20
286.59999999999991
 30
0.0
 40
3.25
  0
CIRCLE
  5
5BD
  8
PATTERN_FILL
  6
CONTINUOUS
 62
     7
 10
174.5
 20
286.59999999999991
 30
0.0
 40
3.25
  0
CIRCLE
  5
5BE
  8
PATTERN_FILL
  6
CONTINUOUS
 62
     7
 10
190.5
 20
286.59999999999991
 30
0.0
 40
3.25
  0
CIRCLE
  5
5BF
  8
PATTERN_FILL
  6
CONTINUOUS
 62
     7
 10
206.5
 20
286.59999999999991
 30
0.0
 40
3.25
  0
CIRCLE
  5
5C0
  8
PATTERN_FILL
  6
CONTINUOUS
 62
     7
 10
222.5
 20
286.59999999999991
 30
0.0
 40
3.25
  0
CIRCLE
  5
5C1
  8
PATTERN_FILL
  6
CONTINUOUS
 62
     7
 10
238.5
 20
286.59999999999991
 30
0.0
 40
3.25
  0
CIRCLE
  5
5C2
  8
PATTERN_FILL
  6
CONTINUOUS
 62
     7
 10
254.5
 20
272.59999999999991
 30
0.0
 40
3.25
  0
CIRCLE
  5
5C3
  8
PATTERN_FILL
  6
CONTINUOUS
 62
     7
 10
270.5
 20
272.59999999999991
 30
0.0
 40
3.25
  0
CIRCLE
  5
5C4
  8
PATTERN_FILL
  6
CONTINUOUS
 62
     7
 10
286.5
 20
272.59999999999991
 30
0.0
 40
3.25
  0
CIRCLE
  5
5C5
  8
PATTERN_FILL
  6
CONTINUOUS
 62
     7
 10
302.5
 20
272.59999999999991
 30
0.0
 40
3.25
  0
CIRCLE
  5
5C6
  8
PATTERN_FILL
  6
CONTINUOUS
 62
     7
 10
318.5
 20
272.59999999999991
 30
0.0
 40
3.25
  0
CIRCLE
  5
5C7
  8
PATTERN_FILL
  6
CONTINUOUS
 62
     7
 10
334.50000000000011
 20
272.59999999999991
 30
0.0
 40
3.25
  0
CIRCLE
  5
5C8
  8
PATTERN_FILL
  6
CONTINUOUS
 62
     7
 10
94.500000000000014
 20
272.59999999999991
 30
0.0
 40
3.25
  0
CIRCLE
  5
5C9
  8
PATTERN_FILL
  6
CONTINUOUS
 62
     7
 10
78.5
 20
272.59999999999991
 30
0.0
 40
3.25
  0
CIRCLE
  5
5CA
  8
PATTERN_FILL
  6
CONTINUOUS
 62
     7
 10
62.5
 20
272.59999999999991
 30
0.0
 40
3.25
  0
CIRCLE
  5
5CB
  8
PATTERN_FILL
  6
CONTINUOUS
 62
     7
 10
46.5
 20
272.59999999999991
 30
0.0
 40
3.25
  0
CIRCLE
  5
5CC
  8
PATTERN_FILL
  6
CONTINUOUS
 62
     7
 10
30.5
 20
272.59999999999991
 30
0.0
 40
3.25
  0
CIRCLE
  5
5CD
  8
PATTERN_FILL
  6
CONTINUOUS
 62
     7
 10
14.5
 20
272.59999999999991
 30
0.0
 40
3.25
  0
CIRCLE
  5
5CE
  8
PATTERN_FILL
  6
CONTINUOUS
 62
     7
 10
350.50000000000011
 20
272.59999999999991
 30
0.0
 40
3.25
  0
CIRCLE
  5
5CF
  8
PATTERN_FILL
  6
CONTINUOUS
 62
     7
 10
366.5
 20
272.59999999999991
 30
0.0
 40
3.25
  0
CIRCLE
  5
5D0
  8
PATTERN_FILL
  6
CONTINUOUS
 62
     7
 10
382.50000000000011
 20
272.59999999999991
 30
0.0
 40
3.25
  0
CIRCLE
  5
5D1
  8
PATTERN_FILL
  6
CONTINUOUS
 62
     7
 10
110.5
 20
272.59999999999991
 30
0.0
 40
3.25
  0
CIRCLE
  5
5D2
  8
PATTERN_FILL
  6
CONTINUOUS
 62
     7
 10
126.5
 20
272.59999999999991
 30
0.0
 40
3.25
  0
CIRCLE
  5
5D3
  8
PATTERN_FILL
  6
CONTINUOUS
 62
     7
 10
142.5
 20
272.59999999999991
 30
0.0
 40
3.25
  0
CIRCLE
  5
5D4
  8
PATTERN_FILL
  6
CONTINUOUS
 62
     7
 10
158.5
 20
272.59999999999991
 30
0.0
 40
3.25
  0
CIRCLE
  5
5D5
  8
PATTERN_FILL
  6
CONTINUOUS
 62
     7
 10
174.5
 20
272.59999999999991
 30
0.0
 40
3.25
  0
CIRCLE
  5
5D6
  8
PATTERN_FILL
  6
CONTINUOUS
 62
     7
 10
190.5
 20
272.59999999999991
 30
0.0
 40
3.25
  0
CIRCLE
  5
5D7
  8
PATTERN_FILL
  6
CONTINUOUS
 62
     7
 10
206.5
 20
272.59999999999991
 30
0.0
 40
3.25
  0
CIRCLE
  5
5D8
  8
PATTERN_FILL
  6
CONTINUOUS
 62
     7
 10
222.5
 20
272.59999999999991
 30
0.0
 40
3.25
  0
CIRCLE
  5
5D9
  8
PATTERN_FILL
  6
CONTINUOUS
 62
     7
 10
238.5
 20
272.59999999999991
 30
0.0
 40
3.25
  0
CIRCLE
  5
5DA
  8
PATTERN_FILL
  6
CONTINUOUS
 62
     7
 10
254.5
 20
258.59999999999991
 30
0.0
 40
3.25
  0
CIRCLE
  5
5DB
  8
PATTERN_FILL
  6
CONTINUOUS
 62
     7
 10
270.5
 20
258.59999999999991
 30
0.0
 40
3.25
  0
CIRCLE
  5
5DC
  8
PATTERN_FILL
  6
CONTINUOUS
 62
     7
 10
286.5
 20
258.59999999999991
 30
0.0
 40
3.25
  0
CIRCLE
  5
5DD
  8
PATTERN_FILL
  6
CONTINUOUS
 62
     7
 10
302.5
 20
258.59999999999991
 30
0.0
 40
3.25
  0
CIRCLE
  5
5DE
  8
PATTERN_FILL
  6
CONTINUOUS
 62
     7
 10
318.5
 20
258.59999999999991
 30
0.0
 40
3.25
  0
CIRCLE
  5
5DF
  8
PATTERN_FILL
  6
CONTINUOUS
 62
     7
 10
334.50000000000011
 20
258.59999999999991
 30
0.0
 40
3.25
  0
CIRCLE
  5
5E0
  8
PATTERN_FILL
  6
CONTINUOUS
 62
     7
 10
94.500000000000014
 20
258.59999999999991
 30
0.0
 40
3.25
  0
CIRCLE
  5
5E1
  8
PATTERN_FILL
  6
CONTINUOUS
 62
     7
 10
78.5
 20
258.59999999999991
 30
0.0
 40
3.25
  0
CIRCLE
  5
5E2
  8
PATTERN_FILL
  6
CONTINUOUS
 62
     7
 10
62.5
 20
258.59999999999991
 30
0.0
 40
3.25
  0
CIRCLE
  5
5E3
  8
PATTERN_FILL
  6
CONTINUOUS
 62
     7
 10
46.5
 20
258.59999999999991
 30
0.0
 40
3.25
  0
CIRCLE
  5
5E4
  8
PATTERN_FILL
  6
CONTINUOUS
 62
     7
 10
30.5
 20
258.59999999999991
 30
0.0
 40
3.25
  0
CIRCLE
  5
5E5
  8
PATTERN_FILL
  6
CONTINUOUS
 62
     7
 10
14.5
 20
258.59999999999991
 30
0.0
 40
3.25
  0
CIRCLE
  5
5E6
  8
PATTERN_FILL
  6
CONTINUOUS
 62
     7
 10
350.50000000000011
 20
258.59999999999991
 30
0.0
 40
3.25
  0
CIRCLE
  5
5E7
  8
PATTERN_FILL
  6
CONTINUOUS
 62
     7
 10
366.5
 20
258.59999999999991
 30
0.0
 40
3.25
  0
CIRCLE
  5
5E8
  8
PATTERN_FILL
  6
CONTINUOUS
 62
     7
 10
382.50000000000011
 20
258.59999999999991
 30
0.0
 40
3.25
  0
CIRCLE
  5
5E9
  8
PATTERN_FILL
  6
CONTINUOUS
 62
     7
 10
110.5
 20
258.59999999999991
 30
0.0
 40
3.25
  0
CIRCLE
  5
5EA
  8
PATTERN_FILL
  6
CONTINUOUS
 62
     7
 10
126.5
 20
258.59999999999991
 30
0.0
 40
3.25
  0
CIRCLE
  5
5EB
  8
PATTERN_FILL
  6
CONTINUOUS
 62
     7
 10
142.5
 20
258.59999999999991
 30
0.0
 40
3.25
  0
CIRCLE
  5
5EC
  8
PATTERN_FILL
  6
CONTINUOUS
 62
     7
 10
158.5
 20
258.59999999999991
 30
0.0
 40
3.25
  0
CIRCLE
  5
5ED
  8
PATTERN_FILL
  6
CONTINUOUS
 62
     7
 10
174.5
 20
258.59999999999991
 30
0.0
 40
3.25
  0
CIRCLE
  5
5EE
  8
PATTERN_FILL
  6
CONTINUOUS
 62
     7
 10
190.5
 20
258.59999999999991
 30
0.0
 40
3.25
  0
CIRCLE
  5
5EF
  8
PATTERN_FILL
  6
CONTINUOUS
 62
     7
 10
206.5
 20
258.59999999999991
 30
0.0
 40
3.25
  0
CIRCLE
  5
5F0
  8
PATTERN_FILL
  6
CONTINUOUS
 62
     7
 10
222.5
 20
258.59999999999991
 30
0.0
 40
3.25
  0
CIRCLE
  5
5F1
  8
PATTERN_FILL
  6
CONTINUOUS
 62
     7
 10
238.5
 20
258.59999999999991
 30
0.0
 40
3.25
  0
CIRCLE
  5
5F2
  8
PATTERN_FILL
  6
CONTINUOUS
 62
     7
 10
254.5
 20
244.59999999999991
 30
0.0
 40
3.25
  0
CIRCLE
  5
5F3
  8
PATTERN_FILL
  6
CONTINUOUS
 62
     7
 10
270.5
 20
244.59999999999991
 30
0.0
 40
3.25
  0
CIRCLE
  5
5F4
  8
PATTERN_FILL
  6
CONTINUOUS
 62
     7
 10
286.5
 20
244.59999999999991
 30
0.0
 40
3.25
  0
CIRCLE
  5
5F5
  8
PATTERN_FILL
  6
CONTINUOUS
 62
     7
 10
302.5
 20
244.59999999999991
 30
0.0
 40
3.25
  0
CIRCLE
  5
5F6
  8
PATTERN_FILL
  6
CONTINUOUS
 62
     7
 10
318.5
 20
244.59999999999991
 30
0.0
 40
3.25
  0
CIRCLE
  5
5F7
  8
PATTERN_FILL
  6
CONTINUOUS
 62
     7
 10
334.50000000000011
 20
244.59999999999991
 30
0.0
 40
3.25
  0
CIRCLE
  5
5F8
  8
PATTERN_FILL
  6
CONTINUOUS
 62
     7
 10
94.500000000000014
 20
244.59999999999991
 30
0.0
 40
3.25
  0
CIRCLE
  5
5F9
  8
PATTERN_FILL
  6
CONTINUOUS
 62
     7
 10
78.5
 20
244.59999999999991
 30
0.0
 40
3.25
  0
CIRCLE
  5
5FA
  8
PATTERN_FILL
  6
CONTINUOUS
 62
     7
 10
62.5
 20
244.59999999999991
 30
0.0
 40
3.25
  0
CIRCLE
  5
5FB
  8
PATTERN_FILL
  6
CONTINUOUS
 62
     7
 10
46.5
 20
244.59999999999991
 30
0.0
 40
3.25
  0
CIRCLE
  5
5FC
  8
PATTERN_FILL
  6
CONTINUOUS
 62
     7
 10
30.5
 20
244.59999999999991
 30
0.0
 40
3.25
  0
CIRCLE
  5
5FD
  8
PATTERN_FILL
  6
CONTINUOUS
 62
     7
 10
14.5
 20
244.59999999999991
 30
0.0
 40
3.25
  0
CIRCLE
  5
5FE
  8
PATTERN_FILL
  6
CONTINUOUS
 62
     7
 10
350.50000000000011
 20
244.59999999999991
 30
0.0
 40
3.25
  0
CIRCLE
  5
5FF
  8
PATTERN_FILL
  6
CONTINUOUS
 62
     7
 10
366.5
 20
244.59999999999991
 30
0.0
 40
3.25
  0
CIRCLE
  5
600
  8
PATTERN_FILL
  6
CONTINUOUS
 62
     7
 10
382.50000000000011
 20
244.59999999999991
 30
0.0
 40
3.25
  0
CIRCLE
  5
601
  8
PATTERN_FILL
  6
CONTINUOUS
 62
     7
 10
110.5
 20
244.59999999999991
 30
0.0
 40
3.25
  0
CIRCLE
  5
602
  8
PATTERN_FILL
  6
CONTINUOUS
 62
     7
 10
126.5
 20
244.59999999999991
 30
0.0
 40
3.25
  0
CIRCLE
  5
603
  8
PATTERN_FILL
  6
CONTINUOUS
 62
     7
 10
142.5
 20
244.59999999999991
 30
0.0
 40
3.25
  0
CIRCLE
  5
604
  8
PATTERN_FILL
  6
CONTINUOUS
 62
     7
 10
158.5
 20
244.59999999999991
 30
0.0
 40
3.25
  0
CIRCLE
  5
605
  8
PATTERN_FILL
  6
CONTINUOUS
 62
     7
 10
174.5
 20
244.59999999999991
 30
0.0
 40
3.25
  0
CIRCLE
  5
606
  8
PATTERN_FILL
  6
CONTINUOUS
 62
     7
 10
190.5
 20
244.59999999999991
 30
0.0
 40
3.25
  0
CIRCLE
  5
607
  8
PATTERN_FILL
  6
CONTINUOUS
 62
     7
 10
206.5
 20
244.59999999999991
 30
0.0
 40
3.25
  0
CIRCLE
  5
608
  8
PATTERN_FILL
  6
CONTINUOUS
 62
     7
 10
222.5
 20
244.59999999999991
 30
0.0
 40
3.25
  0
CIRCLE
  5
609
  8
PATTERN_FILL
  6
CONTINUOUS
 62
     7
 10
238.5
 20
244.59999999999991
 30
0.0
 40
3.25
  0
CIRCLE
  5
60A
  8
PATTERN_FILL
  6
CONTINUOUS
 62
     7
 10
254.5
 20
230.59999999999999
 30
0.0
 40
3.25
  0
CIRCLE
  5
60B
  8
PATTERN_FILL
  6
CONTINUOUS
 62
     7
 10
270.5
 20
230.59999999999999
 30
0.0
 40
3.25
  0
CIRCLE
  5
60C
  8
PATTERN_FILL
  6
CONTINUOUS
 62
     7
 10
286.5
 20
230.59999999999999
 30
0.0
 40
3.25
  0
CIRCLE
  5
60D
  8
PATTERN_FILL
  6
CONTINUOUS
 62
     7
 10
302.5
 20
230.59999999999999
 30
0.0
 40
3.25
  0
CIRCLE
  5
60E
  8
PATTERN_FILL
  6
CONTINUOUS
 62
     7
 10
318.5
 20
230.59999999999999
 30
0.0
 40
3.25
  0
CIRCLE
  5
60F
  8
PATTERN_FILL
  6
CONTINUOUS
 62
     7
 10
334.50000000000011
 20
230.59999999999999
 30
0.0
 40
3.25
  0
CIRCLE
  5
610
  8
PATTERN_FILL
  6
CONTINUOUS
 62
     7
 10
94.500000000000014
 20
230.59999999999999
 30
0.0
 40
3.25
  0
CIRCLE
  5
611
  8
PATTERN_FILL
  6
CONTINUOUS
 62
     7
 10
78.5
 20
230.59999999999999
 30
0.0
 40
3.25
  0
CIRCLE
  5
612
  8
PATTERN_FILL
  6
CONTINUOUS
 62
     7
 10
62.5
 20
230.59999999999999
 30
0.0
 40
3.25
  0
CIRCLE
  5
613
  8
PATTERN_FILL
  6
CONTINUOUS
 62
     7
 10
46.5
 20
230.59999999999999
 30
0.0
 40
3.25
  0
CIRCLE
  5
614
  8
PATTERN_FILL
  6
CONTINUOUS
 62
     7
 10
30.5
 20
230.59999999999999
 30
0.0
 40
3.25
  0
CIRCLE
  5
615
  8
PATTERN_FILL
  6
CONTINUOUS
 62
     7
 10
14.5
 20
230.59999999999999
 30
0.0
 40
3.25
  0
CIRCLE
  5
616
  8
PATTERN_FILL
  6
CONTINUOUS
 62
     7
 10
350.50000000000011
 20
230.59999999999999
 30
0.0
 40
3.25
  0
CIRCLE
  5
617
  8
PATTERN_FILL
  6
CONTINUOUS
 62
     7
 10
366.5
 20
230.59999999999999
 30
0.0
 40
3.25
  0
CIRCLE
  5
618
  8
PATTERN_FILL
  6
CONTINUOUS
 62
     7
 10
382.50000000000011
 20
230.59999999999999
 30
0.0
 40
3.25
  0
CIRCLE
  5
619
  8
PATTERN_FILL
  6
CONTINUOUS
 62
     7
 10
110.5
 20
230.59999999999999
 30
0.0
 40
3.25
  0
CIRCLE
  5
61A
  8
PATTERN_FILL
  6
CONTINUOUS
 62
     7
 10
126.5
 20
230.59999999999999
 30
0.0
 40
3.25
  0
CIRCLE
  5
61B
  8
PATTERN_FILL
  6
CONTINUOUS
 62
     7
 10
142.5
 20
230.59999999999999
 30
0.0
 40
3.25
  0
CIRCLE
  5
61C
  8
PATTERN_FILL
  6
CONTINUOUS
 62
     7
 10
158.5
 20
230.59999999999999
 30
0.0
 40
3.25
  0
CIRCLE
  5
61D
  8
PATTERN_FILL
  6
CONTINUOUS
 62
     7
 10
174.5
 20
230.59999999999999
 30
0.0
 40
3.25
  0
CIRCLE
  5
61E
  8
PATTERN_FILL
  6
CONTINUOUS
 62
     7
 10
190.5
 20
230.59999999999999
 30
0.0
 40
3.25
  0
CIRCLE
  5
61F
  8
PATTERN_FILL
  6
CONTINUOUS
 62
     7
 10
206.5
 20
230.59999999999999
 30
0.0
 40
3.25
  0
CIRCLE
  5
620
  8
PATTERN_FILL
  6
CONTINUOUS
 62
     7
 10
222.5
 20
230.59999999999999
 30
0.0
 40
3.25
  0
CIRCLE
  5
621
  8
PATTERN_FILL
  6
CONTINUOUS
 62
     7
 10
238.5
 20
230.59999999999999
 30
0.0
 40
3.25
  0
CIRCLE
  5
622
  8
PATTERN_FILL
  6
CONTINUOUS
 62
     7
 10
254.5
 20
216.59999999999991
 30
0.0
 40
3.25
  0
CIRCLE
  5
623
  8
PATTERN_FILL
  6
CONTINUOUS
 62
     7
 10
270.5
 20
216.59999999999991
 30
0.0
 40
3.25
  0
CIRCLE
  5
624
  8
PATTERN_FILL
  6
CONTINUOUS
 62
     7
 10
286.5
 20
216.59999999999991
 30
0.0
 40
3.25
  0
CIRCLE
  5
625
  8
PATTERN_FILL
  6
CONTINUOUS
 62
     7
 10
302.5
 20
216.59999999999991
 30
0.0
 40
3.25
  0
CIRCLE
  5
626
  8
PATTERN_FILL
  6
CONTINUOUS
 62
     7
 10
318.5
 20
216.59999999999991
 30
0.0
 40
3.25
  0
CIRCLE
  5
627
  8
PATTERN_FILL
  6
CONTINUOUS
 62
     7
 10
334.50000000000011
 20
216.59999999999991
 30
0.0
 40
3.25
  0
CIRCLE
  5
628
  8
PATTERN_FILL
  6
CONTINUOUS
 62
     7
 10
94.500000000000014
 20
216.59999999999991
 30
0.0
 40
3.25
  0
CIRCLE
  5
629
  8
PATTERN_FILL
  6
CONTINUOUS
 62
     7
 10
78.5
 20
216.59999999999991
 30
0.0
 40
3.25
  0
CIRCLE
  5
62A
  8
PATTERN_FILL
  6
CONTINUOUS
 62
     7
 10
62.5
 20
216.59999999999991
 30
0.0
 40
3.25
  0
CIRCLE
  5
62B
  8
PATTERN_FILL
  6
CONTINUOUS
 62
     7
 10
46.5
 20
216.59999999999991
 30
0.0
 40
3.25
  0
CIRCLE
  5
62C
  8
PATTERN_FILL
  6
CONTINUOUS
 62
     7
 10
30.5
 20
216.59999999999991
 30
0.0
 40
3.25
  0
CIRCLE
  5
62D
  8
PATTERN_FILL
  6
CONTINUOUS
 62
     7
 10
14.5
 20
216.59999999999991
 30
0.0
 40
3.25
  0
CIRCLE
  5
62E
  8
PATTERN_FILL
  6
CONTINUOUS
 62
     7
 10
350.50000000000011
 20
216.59999999999991
 30
0.0
 40
3.25
  0
CIRCLE
  5
62F
  8
PATTERN_FILL
  6
CONTINUOUS
 62
     7
 10
366.5
 20
216.59999999999991
 30
0.0
 40
3.25
  0
CIRCLE
  5
630
  8
PATTERN_FILL
  6
CONTINUOUS
 62
     7
 10
382.50000000000011
 20
216.59999999999991
 30
0.0
 40
3.25
  0
CIRCLE
  5
631
  8
PATTERN_FILL
  6
CONTINUOUS
 62
     7
 10
110.5
 20
216.59999999999991
 30
0.0
 40
3.25
  0
CIRCLE
  5
632
  8
PATTERN_FILL
  6
CONTINUOUS
 62
     7
 10
126.5
 20
216.59999999999991
 30
0.0
 40
3.25
  0
CIRCLE
  5
633
  8
PATTERN_FILL
  6
CONTINUOUS
 62
     7
 10
142.5
 20
216.59999999999991
 30
0.0
 40
3.25
  0
CIRCLE
  5
634
  8
PATTERN_FILL
  6
CONTINUOUS
 62
     7
 10
158.5
 20
216.59999999999991
 30
0.0
 40
3.25
  0
CIRCLE
  5
635
  8
PATTERN_FILL
  6
CONTINUOUS
 62
     7
 10
174.5
 20
216.59999999999991
 30
0.0
 40
3.25
  0
CIRCLE
  5
636
  8
PATTERN_FILL
  6
CONTINUOUS
 62
     7
 10
190.5
 20
216.59999999999991
 30
0.0
 40
3.25
  0
CIRCLE
  5
637
  8
PATTERN_FILL
  6
CONTINUOUS
 62
     7
 10
206.5
 20
216.59999999999991
 30
0.0
 40
3.25
  0
CIRCLE
  5
638
  8
PATTERN_FILL
  6
CONTINUOUS
 62
     7
 10
222.5
 20
216.59999999999991
 30
0.0
 40
3.25
  0
CIRCLE
  5
639
  8
PATTERN_FILL
  6
CONTINUOUS
 62
     7
 10
238.5
 20
216.59999999999991
 30
0.0
 40
3.25
  0
CIRCLE
  5
63A
  8
PATTERN_FILL
  6
CONTINUOUS
 62
     7
 10
254.5
 20
202.59999999999991
 30
0.0
 40
3.25
  0
CIRCLE
  5
63B
  8
PATTERN_FILL
  6
CONTINUOUS
 62
     7
 10
270.5
 20
202.59999999999991
 30
0.0
 40
3.25
  0
CIRCLE
  5
63C
  8
PATTERN_FILL
  6
CONTINUOUS
 62
     7
 10
286.5
 20
202.59999999999991
 30
0.0
 40
3.25
  0
CIRCLE
  5
63D
  8
PATTERN_FILL
  6
CONTINUOUS
 62
     7
 10
302.5
 20
202.59999999999991
 30
0.0
 40
3.25
  0
CIRCLE
  5
63E
  8
PATTERN_FILL
  6
CONTINUOUS
 62
     7
 10
318.5
 20
202.59999999999991
 30
0.0
 40
3.25
  0
CIRCLE
  5
63F
  8
PATTERN_FILL
  6
CONTINUOUS
 62
     7
 10
334.50000000000011
 20
202.59999999999991
 30
0.0
 40
3.25
  0
CIRCLE
  5
640
  8
PATTERN_FILL
  6
CONTINUOUS
 62
     7
 10
94.500000000000014
 20
202.59999999999991
 30
0.0
 40
3.25
  0
CIRCLE
  5
641
  8
PATTERN_FILL
  6
CONTINUOUS
 62
     7
 10
78.5
 20
202.59999999999991
 30
0.0
 40
3.25
  0
CIRCLE
  5
642
  8
PATTERN_FILL
  6
CONTINUOUS
 62
     7
 10
62.5
 20
202.59999999999991
 30
0.0
 40
3.25
  0
CIRCLE
  5
643
  8
PATTERN_FILL
  6
CONTINUOUS
 62
     7
 10
46.5
 20
202.59999999999991
 30
0.0
 40
3.25
  0
CIRCLE
  5
644
  8
PATTERN_FILL
  6
CONTINUOUS
 62
     7
 10
30.5
 20
202.59999999999991
 30
0.0
 40
3.25
  0
CIRCLE
  5
645
  8
PATTERN_FILL
  6
CONTINUOUS
 62
     7
 10
14.5
 20
202.59999999999991
 30
0.0
 40
3.25
  0
CIRCLE
  5
646
  8
PATTERN_FILL
  6
CONTINUOUS
 62
     7
 10
350.50000000000011
 20
202.59999999999991
 30
0.0
 40
3.25
  0
CIRCLE
  5
647
  8
PATTERN_FILL
  6
CONTINUOUS
 62
     7
 10
366.5
 20
202.59999999999991
 30
0.0
 40
3.25
  0
CIRCLE
  5
648
  8
PATTERN_FILL
  6
CONTINUOUS
 62
     7
 10
382.50000000000011
 20
202.59999999999991
 30
0.0
 40
3.25
  0
CIRCLE
  5
649
  8
PATTERN_FILL
  6
CONTINUOUS
 62
     7
 10
110.5
 20
202.59999999999991
 30
0.0
 40
3.25
  0
CIRCLE
  5
64A
  8
PATTERN_FILL
  6
CONTINUOUS
 62
     7
 10
126.5
 20
202.59999999999991
 30
0.0
 40
3.25
  0
CIRCLE
  5
64B
  8
PATTERN_FILL
  6
CONTINUOUS
 62
     7
 10
142.5
 20
202.59999999999991
 30
0.0
 40
3.25
  0
CIRCLE
  5
64C
  8
PATTERN_FILL
  6
CONTINUOUS
 62
     7
 10
158.5
 20
202.59999999999991
 30
0.0
 40
3.25
  0
CIRCLE
  5
64D
  8
PATTERN_FILL
  6
CONTINUOUS
 62
     7
 10
174.5
 20
202.59999999999991
 30
0.0
 40
3.25
  0
CIRCLE
  5
64E
  8
PATTERN_FILL
  6
CONTINUOUS
 62
     7
 10
190.5
 20
202.59999999999991
 30
0.0
 40
3.25
  0
CIRCLE
  5
64F
  8
PATTERN_FILL
  6
CONTINUOUS
 62
     7
 10
206.5
 20
202.59999999999991
 30
0.0
 40
3.25
  0
CIRCLE
  5
650
  8
PATTERN_FILL
  6
CONTINUOUS
 62
     7
 10
222.5
 20
202.59999999999991
 30
0.0
 40
3.25
  0
CIRCLE
  5
651
  8
PATTERN_FILL
  6
CONTINUOUS
 62
     7
 10
238.5
 20
202.59999999999991
 30
0.0
 40
3.25
  0
CIRCLE
  5
652
  8
PATTERN_FILL
  6
CONTINUOUS
 62
     7
 10
254.5
 20
188.59999999999991
 30
0.0
 40
3.25
  0
CIRCLE
  5
653
  8
PATTERN_FILL
  6
CONTINUOUS
 62
     7
 10
270.5
 20
188.59999999999991
 30
0.0
 40
3.25
  0
CIRCLE
  5
654
  8
PATTERN_FILL
  6
CONTINUOUS
 62
     7
 10
286.5
 20
188.59999999999991
 30
0.0
 40
3.25
  0
CIRCLE
  5
655
  8
PATTERN_FILL
  6
CONTINUOUS
 62
     7
 10
302.5
 20
188.59999999999991
 30
0.0
 40
3.25
  0
CIRCLE
  5
656
  8
PATTERN_FILL
  6
CONTINUOUS
 62
     7
 10
318.5
 20
188.59999999999991
 30
0.0
 40
3.25
  0
CIRCLE
  5
657
  8
PATTERN_FILL
  6
CONTINUOUS
 62
     7
 10
334.50000000000011
 20
188.59999999999991
 30
0.0
 40
3.25
  0
CIRCLE
  5
658
  8
PATTERN_FILL
  6
CONTINUOUS
 62
     7
 10
94.500000000000014
 20
188.59999999999991
 30
0.0
 40
3.25
  0
CIRCLE
  5
659
  8
PATTERN_FILL
  6
CONTINUOUS
 62
     7
 10
78.5
 20
188.59999999999991
 30
0.0
 40
3.25
  0
CIRCLE
  5
65A
  8
PATTERN_FILL
  6
CONTINUOUS
 62
     7
 10
62.5
 20
188.59999999999991
 30
0.0
 40
3.25
  0
CIRCLE
  5
65B
  8
PATTERN_FILL
  6
CONTINUOUS
 62
     7
 10
46.5
 20
188.59999999999991
 30
0.0
 40
3.25
  0
CIRCLE
  5
65C
  8
PATTERN_FILL
  6
CONTINUOUS
 62
     7
 10
30.5
 20
188.59999999999991
 30
0.0
 40
3.25
  0
CIRCLE
  5
65D
  8
PATTERN_FILL
  6
CONTINUOUS
 62
     7
 10
14.5
 20
188.59999999999991
 30
0.0
 40
3.25
  0
CIRCLE
  5
65E
  8
PATTERN_FILL
  6
CONTINUOUS
 62
     7
 10
350.50000000000011
 20
188.59999999999991
 30
0.0
 40
3.25
  0
CIRCLE
  5
65F
  8
PATTERN_FILL
  6
CONTINUOUS
 62
     7
 10
366.5
 20
188.59999999999991
 30
0.0
 40
3.25
  0
CIRCLE
  5
660
  8
PATTERN_FILL
  6
CONTINUOUS
 62
     7
 10
382.50000000000011
 20
188.59999999999991
 30
0.0
 40
3.25
  0
CIRCLE
  5
661
  8
PATTERN_FILL
  6
CONTINUOUS
 62
     7
 10
110.5
 20
188.59999999999991
 30
0.0
 40
3.25
  0
CIRCLE
  5
662
  8
PATTERN_FILL
  6
CONTINUOUS
 62
     7
 10
126.5
 20
188.59999999999991
 30
0.0
 40
3.25
  0
CIRCLE
  5
663
  8
PATTERN_FILL
  6
CONTINUOUS
 62
     7
 10
142.5
 20
188.59999999999991
 30
0.0
 40
3.25
  0
CIRCLE
  5
664
  8
PATTERN_FILL
  6
CONTINUOUS
 62
     7
 10
158.5
 20
188.59999999999991
 30
0.0
 40
3.25
  0
CIRCLE
  5
665
  8
PATTERN_FILL
  6
CONTINUOUS
 62
     7
 10
174.5
 20
188.59999999999991
 30
0.0
 40
3.25
  0
CIRCLE
  5
666
  8
PATTERN_FILL
  6
CONTINUOUS
 62
     7
 10
190.5
 20
188.59999999999991
 30
0.0
 40
3.25
  0
CIRCLE
  5
667
  8
PATTERN_FILL
  6
CONTINUOUS
 62
     7
 10
206.5
 20
188.59999999999991
 30
0.0
 40
3.25
  0
CIRCLE
  5
668
  8
PATTERN_FILL
  6
CONTINUOUS
 62
     7
 10
222.5
 20
188.59999999999991
 30
0.0
 40
3.25
  0
CIRCLE
  5
669
  8
PATTERN_FILL
  6
CONTINUOUS
 62
     7
 10
238.5
 20
188.59999999999991
 30
0.0
 40
3.25
  0
CIRCLE
  5
66A
  8
PATTERN_FILL
  6
CONTINUOUS
 62
     7
 10
254.5
 20
174.59999999999991
 30
0.0
 40
3.25
  0
CIRCLE
  5
66B
  8
PATTERN_FILL
  6
CONTINUOUS
 62
     7
 10
270.5
 20
174.59999999999991
 30
0.0
 40
3.25
  0
CIRCLE
  5
66C
  8
PATTERN_FILL
  6
CONTINUOUS
 62
     7
 10
286.5
 20
174.59999999999991
 30
0.0
 40
3.25
  0
CIRCLE
  5
66D
  8
PATTERN_FILL
  6
CONTINUOUS
 62
     7
 10
302.5
 20
174.59999999999991
 30
0.0
 40
3.25
  0
CIRCLE
  5
66E
  8
PATTERN_FILL
  6
CONTINUOUS
 62
     7
 10
318.5
 20
174.59999999999991
 30
0.0
 40
3.25
  0
CIRCLE
  5
66F
  8
PATTERN_FILL
  6
CONTINUOUS
 62
     7
 10
334.50000000000011
 20
174.59999999999991
 30
0.0
 40
3.25
  0
CIRCLE
  5
670
  8
PATTERN_FILL
  6
CONTINUOUS
 62
     7
 10
94.500000000000014
 20
174.59999999999991
 30
0.0
 40
3.25
  0
CIRCLE
  5
671
  8
PATTERN_FILL
  6
CONTINUOUS
 62
     7
 10
78.5
 20
174.59999999999991
 30
0.0
 40
3.25
  0
CIRCLE
  5
672
  8
PATTERN_FILL
  6
CONTINUOUS
 62
     7
 10
62.5
 20
174.59999999999991
 30
0.0
 40
3.25
  0
CIRCLE
  5
673
  8
PATTERN_FILL
  6
CONTINUOUS
 62
     7
 10
46.5
 20
174.59999999999991
 30
0.0
 40
3.25
  0
CIRCLE
  5
674
  8
PATTERN_FILL
  6
CONTINUOUS
 62
     7
 10
30.5
 20
174.59999999999991
 30
0.0
 40
3.25
  0
CIRCLE
  5
675
  8
PATTERN_FILL
  6
CONTINUOUS
 62
     7
 10
14.5
 20
174.59999999999991
 30
0.0
 40
3.25
  0
CIRCLE
  5
676
  8
PATTERN_FILL
  6
CONTINUOUS
 62
     7
 10
350.50000000000011
 20
174.59999999999991
 30
0.0
 40
3.25
  0
CIRCLE
  5
677
  8
PATTERN_FILL
  6
CONTINUOUS
 62
     7
 10
366.5
 20
174.59999999999991
 30
0.0
 40
3.25
  0
CIRCLE
  5
678
  8
PATTERN_FILL
  6
CONTINUOUS
 62
     7
 10
382.50000000000011
 20
174.59999999999991
 30
0.0
 40
3.25
  0
CIRCLE
  5
679
  8
PATTERN_FILL
  6
CONTINUOUS
 62
     7
 10
110.5
 20
174.59999999999991
 30
0.0
 40
3.25
  0
CIRCLE
  5
67A
  8
PATTERN_FILL
  6
CONTINUOUS
 62
     7
 10
126.5
 20
174.59999999999991
 30
0.0
 40
3.25
  0
CIRCLE
  5
67B
  8
PATTERN_FILL
  6
CONTINUOUS
 62
     7
 10
142.5
 20
174.59999999999991
 30
0.0
 40
3.25
  0
CIRCLE
  5
67C
  8
PATTERN_FILL
  6
CONTINUOUS
 62
     7
 10
158.5
 20
174.59999999999991
 30
0.0
 40
3.25
  0
CIRCLE
  5
67D
  8
PATTERN_FILL
  6
CONTINUOUS
 62
     7
 10
174.5
 20
174.59999999999991
 30
0.0
 40
3.25
  0
CIRCLE
  5
67E
  8
PATTERN_FILL
  6
CONTINUOUS
 62
     7
 10
190.5
 20
174.59999999999991
 30
0.0
 40
3.25
  0
CIRCLE
  5
67F
  8
PATTERN_FILL
  6
CONTINUOUS
 62
     7
 10
206.5
 20
174.59999999999991
 30
0.0
 40
3.25
  0
CIRCLE
  5
680
  8
PATTERN_FILL
  6
CONTINUOUS
 62
     7
 10
222.5
 20
174.59999999999991
 30
0.0
 40
3.25
  0
CIRCLE
  5
681
  8
PATTERN_FILL
  6
CONTINUOUS
 62
     7
 10
238.5
 20
174.59999999999991
 30
0.0
 40
3.25
  0
CIRCLE
  5
682
  8
PATTERN_FILL
  6
CONTINUOUS
 62
     7
 10
254.5
 20
160.59999999999991
 30
0.0
 40
3.25
  0
CIRCLE
  5
683
  8
PATTERN_FILL
  6
CONTINUOUS
 62
     7
 10
270.5
 20
160.59999999999991
 30
0.0
 40
3.25
  0
CIRCLE
  5
684
  8
PATTERN_FILL
  6
CONTINUOUS
 62
     7
 10
286.5
 20
160.59999999999991
 30
0.0
 40
3.25
  0
CIRCLE
  5
685
  8
PATTERN_FILL
  6
CONTINUOUS
 62
     7
 10
302.5
 20
160.59999999999991
 30
0.0
 40
3.25
  0
CIRCLE
  5
686
  8
PATTERN_FILL
  6
CONTINUOUS
 62
     7
 10
318.5
 20
160.59999999999991
 30
0.0
 40
3.25
  0
CIRCLE
  5
687
  8
PATTERN_FILL
  6
CONTINUOUS
 62
     7
 10
334.50000000000011
 20
160.59999999999991
 30
0.0
 40
3.25
  0
CIRCLE
  5
688
  8
PATTERN_FILL
  6
CONTINUOUS
 62
     7
 10
94.500000000000014
 20
160.59999999999991
 30
0.0
 40
3.25
  0
CIRCLE
  5
689
  8
PATTERN_FILL
  6
CONTINUOUS
 62
     7
 10
78.5
 20
160.59999999999991
 30
0.0
 40
3.25
  0
CIRCLE
  5
68A
  8
PATTERN_FILL
  6
CONTINUOUS
 62
     7
 10
62.5
 20
160.59999999999991
 30
0.0
 40
3.25
  0
CIRCLE
  5
68B
  8
PATTERN_FILL
  6
CONTINUOUS
 62
     7
 10
46.5
 20
160.59999999999991
 30
0.0
 40
3.25
  0
CIRCLE
  5
68C
  8
PATTERN_FILL
  6
CONTINUOUS
 62
     7
 10
30.5
 20
160.59999999999991
 30
0.0
 40
3.25
  0
CIRCLE
  5
68D
  8
PATTERN_FILL
  6
CONTINUOUS
 62
     7
 10
14.5
 20
160.59999999999991
 30
0.0
 40
3.25
  0
CIRCLE
  5
68E
  8
PATTERN_FILL
  6
CONTINUOUS
 62
     7
 10
350.50000000000011
 20
160.59999999999991
 30
0.0
 40
3.25
  0
CIRCLE
  5
68F
  8
PATTERN_FILL
  6
CONTINUOUS
 62
     7
 10
366.5
 20
160.59999999999991
 30
0.0
 40
3.25
  0
CIRCLE
  5
690
  8
PATTERN_FILL
  6
CONTINUOUS
 62
     7
 10
382.50000000000011
 20
160.59999999999991
 30
0.0
 40
3.25
  0
CIRCLE
  5
691
  8
PATTERN_FILL
  6
CONTINUOUS
 62
     7
 10
110.5
 20
160.59999999999991
 30
0.0
 40
3.25
  0
CIRCLE
  5
692
  8
PATTERN_FILL
  6
CONTINUOUS
 62
     7
 10
126.5
 20
160.59999999999991
 30
0.0
 40
3.25
  0
CIRCLE
  5
693
  8
PATTERN_FILL
  6
CONTINUOUS
 62
     7
 10
142.5
 20
160.59999999999991
 30
0.0
 40
3.25
  0
CIRCLE
  5
694
  8
PATTERN_FILL
  6
CONTINUOUS
 62
     7
 10
158.5
 20
160.59999999999991
 30
0.0
 40
3.25
  0
CIRCLE
  5
695
  8
PATTERN_FILL
  6
CONTINUOUS
 62
     7
 10
174.5
 20
160.59999999999991
 30
0.0
 40
3.25
  0
CIRCLE
  5
696
  8
PATTERN_FILL
  6
CONTINUOUS
 62
     7
 10
190.5
 20
160.59999999999991
 30
0.0
 40
3.25
  0
CIRCLE
  5
697
  8
PATTERN_FILL
  6
CONTINUOUS
 62
     7
 10
206.5
 20
160.59999999999991
 30
0.0
 40
3.25
  0
CIRCLE
  5
698
  8
PATTERN_FILL
  6
CONTINUOUS
 62
     7
 10
222.5
 20
160.59999999999991
 30
0.0
 40
3.25
  0
CIRCLE
  5
699
  8
PATTERN_FILL
  6
CONTINUOUS
 62
     7
 10
238.5
 20
160.59999999999991
 30
0.0
 40
3.25
  0
CIRCLE
  5
69A
  8
PATTERN_FILL
  6
CONTINUOUS
 62
     7
 10
254.5
 20
146.59999999999991
 30
0.0
 40
3.25
  0
CIRCLE
  5
69B
  8
PATTERN_FILL
  6
CONTINUOUS
 62
     7
 10
270.5
 20
146.59999999999991
 30
0.0
 40
3.25
  0
CIRCLE
  5
69C
  8
PATTERN_FILL
  6
CONTINUOUS
 62
     7
 10
286.5
 20
146.59999999999991
 30
0.0
 40
3.25
  0
CIRCLE
  5
69D
  8
PATTERN_FILL
  6
CONTINUOUS
 62
     7
 10
302.5
 20
146.59999999999991
 30
0.0
 40
3.25
  0
CIRCLE
  5
69E
  8
PATTERN_FILL
  6
CONTINUOUS
 62
     7
 10
318.5
 20
146.59999999999991
 30
0.0
 40
3.25
  0
CIRCLE
  5
69F
  8
PATTERN_FILL
  6
CONTINUOUS
 62
     7
 10
334.50000000000011
 20
146.59999999999991
 30
0.0
 40
3.25
  0
CIRCLE
  5
6A0
  8
PATTERN_FILL
  6
CONTINUOUS
 62
     7
 10
94.500000000000014
 20
146.59999999999991
 30
0.0
 40
3.25
  0
CIRCLE
  5
6A1
  8
PATTERN_FILL
  6
CONTINUOUS
 62
     7
 10
78.5
 20
146.59999999999991
 30
0.0
 40
3.25
  0
CIRCLE
  5
6A2
  8
PATTERN_FILL
  6
CONTINUOUS
 62
     7
 10
62.5
 20
146.59999999999991
 30
0.0
 40
3.25
  0
CIRCLE
  5
6A3
  8
PATTERN_FILL
  6
CONTINUOUS
 62
     7
 10
46.5
 20
146.59999999999991
 30
0.0
 40
3.25
  0
CIRCLE
  5
6A4
  8
PATTERN_FILL
  6
CONTINUOUS
 62
     7
 10
30.5
 20
146.59999999999991
 30
0.0
 40
3.25
  0
CIRCLE
  5
6A5
  8
PATTERN_FILL
  6
CONTINUOUS
 62
     7
 10
14.5
 20
146.59999999999991
 30
0.0
 40
3.25
  0
CIRCLE
  5
6A6
  8
PATTERN_FILL
  6
CONTINUOUS
 62
     7
 10
350.50000000000011
 20
146.59999999999991
 30
0.0
 40
3.25
  0
CIRCLE
  5
6A7
  8
PATTERN_FILL
  6
CONTINUOUS
 62
     7
 10
366.5
 20
146.59999999999991
 30
0.0
 40
3.25
  0
CIRCLE
  5
6A8
  8
PATTERN_FILL
  6
CONTINUOUS
 62
     7
 10
382.50000000000011
 20
146.59999999999991
 30
0.0
 40
3.25
  0
CIRCLE
  5
6A9
  8
PATTERN_FILL
  6
CONTINUOUS
 62
     7
 10
110.5
 20
146.59999999999991
 30
0.0
 40
3.25
  0
CIRCLE
  5
6AA
  8
PATTERN_FILL
  6
CONTINUOUS
 62
     7
 10
126.5
 20
146.59999999999991
 30
0.0
 40
3.25
  0
CIRCLE
  5
6AB
  8
PATTERN_FILL
  6
CONTINUOUS
 62
     7
 10
142.5
 20
146.59999999999991
 30
0.0
 40
3.25
  0
CIRCLE
  5
6AC
  8
PATTERN_FILL
  6
CONTINUOUS
 62
     7
 10
158.5
 20
146.59999999999991
 30
0.0
 40
3.25
  0
CIRCLE
  5
6AD
  8
PATTERN_FILL
  6
CONTINUOUS
 62
     7
 10
174.5
 20
146.59999999999991
 30
0.0
 40
3.25
  0
CIRCLE
  5
6AE
  8
PATTERN_FILL
  6
CONTINUOUS
 62
     7
 10
190.5
 20
146.59999999999991
 30
0.0
 40
3.25
  0
CIRCLE
  5
6AF
  8
PATTERN_FILL
  6
CONTINUOUS
 62
     7
 10
206.5
 20
146.59999999999991
 30
0.0
 40
3.25
  0
CIRCLE
  5
6B0
  8
PATTERN_FILL
  6
CONTINUOUS
 62
     7
 10
222.5
 20
146.59999999999991
 30
0.0
 40
3.25
  0
CIRCLE
  5
6B1
  8
PATTERN_FILL
  6
CONTINUOUS
 62
     7
 10
238.5
 20
146.59999999999991
 30
0.0
 40
3.25
  0
CIRCLE
  5
6B2
  8
PATTERN_FILL
  6
CONTINUOUS
 62
     7
 10
254.5
 20
132.59999999999991
 30
0.0
 40
3.25
  0
CIRCLE
  5
6B3
  8
PATTERN_FILL
  6
CONTINUOUS
 62
     7
 10
270.5
 20
132.59999999999991
 30
0.0
 40
3.25
  0
CIRCLE
  5
6B4
  8
PATTERN_FILL
  6
CONTINUOUS
 62
     7
 10
286.5
 20
132.59999999999991
 30
0.0
 40
3.25
  0
CIRCLE
  5
6B5
  8
PATTERN_FILL
  6
CONTINUOUS
 62
     7
 10
302.5
 20
132.59999999999991
 30
0.0
 40
3.25
  0
CIRCLE
  5
6B6
  8
PATTERN_FILL
  6
CONTINUOUS
 62
     7
 10
318.5
 20
132.59999999999991
 30
0.0
 40
3.25
  0
CIRCLE
  5
6B7
  8
PATTERN_FILL
  6
CONTINUOUS
 62
     7
 10
334.50000000000011
 20
132.59999999999991
 30
0.0
 40
3.25
  0
CIRCLE
  5
6B8
  8
PATTERN_FILL
  6
CONTINUOUS
 62
     7
 10
94.500000000000014
 20
132.59999999999991
 30
0.0
 40
3.25
  0
CIRCLE
  5
6B9
  8
PATTERN_FILL
  6
CONTINUOUS
 62
     7
 10
78.5
 20
132.59999999999991
 30
0.0
 40
3.25
  0
CIRCLE
  5
6BA
  8
PATTERN_FILL
  6
CONTINUOUS
 62
     7
 10
62.5
 20
132.59999999999991
 30
0.0
 40
3.25
  0
CIRCLE
  5
6BB
  8
PATTERN_FILL
  6
CONTINUOUS
 62
     7
 10
46.5
 20
132.59999999999991
 30
0.0
 40
3.25
  0
CIRCLE
  5
6BC
  8
PATTERN_FILL
  6
CONTINUOUS
 62
     7
 10
30.5
 20
132.59999999999991
 30
0.0
 40
3.25
  0
CIRCLE
  5
6BD
  8
PATTERN_FILL
  6
CONTINUOUS
 62
     7
 10
14.5
 20
132.59999999999991
 30
0.0
 40
3.25
  0
CIRCLE
  5
6BE
  8
PATTERN_FILL
  6
CONTINUOUS
 62
     7
 10
350.50000000000011
 20
132.59999999999991
 30
0.0
 40
3.25
  0
CIRCLE
  5
6BF
  8
PATTERN_FILL
  6
CONTINUOUS
 62
     7
 10
366.5
 20
132.59999999999991
 30
0.0
 40
3.25
  0
CIRCLE
  5
6C0
  8
PATTERN_FILL
  6
CONTINUOUS
 62
     7
 10
382.50000000000011
 20
132.59999999999991
 30
0.0
 40
3.25
  0
CIRCLE
  5
6C1
  8
PATTERN_FILL
  6
CONTINUOUS
 62
     7
 10
110.5
 20
132.59999999999991
 30
0.0
 40
3.25
  0
CIRCLE
  5
6C2
  8
PATTERN_FILL
  6
CONTINUOUS
 62
     7
 10
126.5
 20
132.59999999999991
 30
0.0
 40
3.25
  0
CIRCLE
  5
6C3
  8
PATTERN_FILL
  6
CONTINUOUS
 62
     7
 10
142.5
 20
132.59999999999991
 30
0.0
 40
3.25
  0
CIRCLE
  5
6C4
  8
PATTERN_FILL
  6
CONTINUOUS
 62
     7
 10
158.5
 20
132.59999999999991
 30
0.0
 40
3.25
  0
CIRCLE
  5
6C5
  8
PATTERN_FILL
  6
CONTINUOUS
 62
     7
 10
174.5
 20
132.59999999999991
 30
0.0
 40
3.25
  0
CIRCLE
  5
6C6
  8
PATTERN_FILL
  6
CONTINUOUS
 62
     7
 10
190.5
 20
132.59999999999991
 30
0.0
 40
3.25
  0
CIRCLE
  5
6C7
  8
PATTERN_FILL
  6
CONTINUOUS
 62
     7
 10
206.5
 20
132.59999999999991
 30
0.0
 40
3.25
  0
CIRCLE
  5
6C8
  8
PATTERN_FILL
  6
CONTINUOUS
 62
     7
 10
222.5
 20
132.59999999999991
 30
0.0
 40
3.25
  0
CIRCLE
  5
6C9
  8
PATTERN_FILL
  6
CONTINUOUS
 62
     7
 10
238.5
 20
132.59999999999991
 30
0.0
 40
3.25
  0
CIRCLE
  5
6CA
  8
PATTERN_FILL
  6
CONTINUOUS
 62
     7
 10
254.5
 20
118.59999999999989
 30
0.0
 40
3.25
  0
CIRCLE
  5
6CB
  8
PATTERN_FILL
  6
CONTINUOUS
 62
     7
 10
270.5
 20
118.59999999999989
 30
0.0
 40
3.25
  0
CIRCLE
  5
6CC
  8
PATTERN_FILL
  6
CONTINUOUS
 62
     7
 10
286.5
 20
118.59999999999989
 30
0.0
 40
3.25
  0
CIRCLE
  5
6CD
  8
PATTERN_FILL
  6
CONTINUOUS
 62
     7
 10
302.5
 20
118.59999999999989
 30
0.0
 40
3.25
  0
CIRCLE
  5
6CE
  8
PATTERN_FILL
  6
CONTINUOUS
 62
     7
 10
318.5
 20
118.59999999999989
 30
0.0
 40
3.25
  0
CIRCLE
  5
6CF
  8
PATTERN_FILL
  6
CONTINUOUS
 62
     7
 10
334.50000000000011
 20
118.59999999999989
 30
0.0
 40
3.25
  0
CIRCLE
  5
6D0
  8
PATTERN_FILL
  6
CONTINUOUS
 62
     7
 10
94.500000000000014
 20
118.59999999999989
 30
0.0
 40
3.25
  0
CIRCLE
  5
6D1
  8
PATTERN_FILL
  6
CONTINUOUS
 62
     7
 10
78.5
 20
118.59999999999989
 30
0.0
 40
3.25
  0
CIRCLE
  5
6D2
  8
PATTERN_FILL
  6
CONTINUOUS
 62
     7
 10
62.5
 20
118.59999999999989
 30
0.0
 40
3.25
  0
CIRCLE
  5
6D3
  8
PATTERN_FILL
  6
CONTINUOUS
 62
     7
 10
46.5
 20
118.59999999999989
 30
0.0
 40
3.25
  0
CIRCLE
  5
6D4
  8
PATTERN_FILL
  6
CONTINUOUS
 62
     7
 10
30.5
 20
118.59999999999989
 30
0.0
 40
3.25
  0
CIRCLE
  5
6D5
  8
PATTERN_FILL
  6
CONTINUOUS
 62
     7
 10
14.5
 20
118.59999999999989
 30
0.0
 40
3.25
  0
CIRCLE
  5
6D6
  8
PATTERN_FILL
  6
CONTINUOUS
 62
     7
 10
350.50000000000011
 20
118.59999999999989
 30
0.0
 40
3.25
  0
CIRCLE
  5
6D7
  8
PATTERN_FILL
  6
CONTINUOUS
 62
     7
 10
366.5
 20
118.59999999999989
 30
0.0
 40
3.25
  0
CIRCLE
  5
6D8
  8
PATTERN_FILL
  6
CONTINUOUS
 62
     7
 10
382.50000000000011
 20
118.59999999999989
 30
0.0
 40
3.25
  0
CIRCLE
  5
6D9
  8
PATTERN_FILL
  6
CONTINUOUS
 62
     7
 10
110.5
 20
118.59999999999989
 30
0.0
 40
3.25
  0
CIRCLE
  5
6DA
  8
PATTERN_FILL
  6
CONTINUOUS
 62
     7
 10
126.5
 20
118.59999999999989
 30
0.0
 40
3.25
  0
CIRCLE
  5
6DB
  8
PATTERN_FILL
  6
CONTINUOUS
 62
     7
 10
142.5
 20
118.59999999999989
 30
0.0
 40
3.25
  0
CIRCLE
  5
6DC
  8
PATTERN_FILL
  6
CONTINUOUS
 62
     7
 10
158.5
 20
118.59999999999989
 30
0.0
 40
3.25
  0
CIRCLE
  5
6DD
  8
PATTERN_FILL
  6
CONTINUOUS
 62
     7
 10
174.5
 20
118.59999999999989
 30
0.0
 40
3.25
  0
CIRCLE
  5
6DE
  8
PATTERN_FILL
  6
CONTINUOUS
 62
     7
 10
190.5
 20
118.59999999999989
 30
0.0
 40
3.25
  0
CIRCLE
  5
6DF
  8
PATTERN_FILL
  6
CONTINUOUS
 62
     7
 10
206.5
 20
118.59999999999989
 30
0.0
 40
3.25
  0
CIRCLE
  5
6E0
  8
PATTERN_FILL
  6
CONTINUOUS
 62
     7
 10
222.5
 20
118.59999999999989
 30
0.0
 40
3.25
  0
CIRCLE
  5
6E1
  8
PATTERN_FILL
  6
CONTINUOUS
 62
     7
 10
238.5
 20
118.59999999999989
 30
0.0
 40
3.25
  0
CIRCLE
  5
6E2
  8
PATTERN_FILL
  6
CONTINUOUS
 62
     7
 10
254.5
 20
104.59999999999989
 30
0.0
 40
3.25
  0
CIRCLE
  5
6E3
  8
PATTERN_FILL
  6
CONTINUOUS
 62
     7
 10
270.5
 20
104.59999999999989
 30
0.0
 40
3.25
  0
CIRCLE
  5
6E4
  8
PATTERN_FILL
  6
CONTINUOUS
 62
     7
 10
286.5
 20
104.59999999999989
 30
0.0
 40
3.25
  0
CIRCLE
  5
6E5
  8
PATTERN_FILL
  6
CONTINUOUS
 62
     7
 10
302.5
 20
104.59999999999989
 30
0.0
 40
3.25
  0
CIRCLE
  5
6E6
  8
PATTERN_FILL
  6
CONTINUOUS
 62
     7
 10
318.5
 20
104.59999999999989
 30
0.0
 40
3.25
  0
CIRCLE
  5
6E7
  8
PATTERN_FILL
  6
CONTINUOUS
 62
     7
 10
334.50000000000011
 20
104.59999999999989
 30
0.0
 40
3.25
  0
CIRCLE
  5
6E8
  8
PATTERN_FILL
  6
CONTINUOUS
 62
     7
 10
94.500000000000014
 20
104.59999999999989
 30
0.0
 40
3.25
  0
CIRCLE
  5
6E9
  8
PATTERN_FILL
  6
CONTINUOUS
 62
     7
 10
78.5
 20
104.59999999999989
 30
0.0
 40
3.25
  0
CIRCLE
  5
6EA
  8
PATTERN_FILL
  6
CONTINUOUS
 62
     7
 10
62.5
 20
104.59999999999989
 30
0.0
 40
3.25
  0
CIRCLE
  5
6EB
  8
PATTERN_FILL
  6
CONTINUOUS
 62
     7
 10
46.5
 20
104.59999999999989
 30
0.0
 40
3.25
  0
CIRCLE
  5
6EC
  8
PATTERN_FILL
  6
CONTINUOUS
 62
     7
 10
30.5
 20
104.59999999999989
 30
0.0
 40
3.25
  0
CIRCLE
  5
6ED
  8
PATTERN_FILL
  6
CONTINUOUS
 62
     7
 10
14.5
 20
104.59999999999989
 30
0.0
 40
3.25
  0
CIRCLE
  5
6EE
  8
PATTERN_FILL
  6
CONTINUOUS
 62
     7
 10
350.50000000000011
 20
104.59999999999989
 30
0.0
 40
3.25
  0
CIRCLE
  5
6EF
  8
PATTERN_FILL
  6
CONTINUOUS
 62
     7
 10
366.5
 20
104.59999999999989
 30
0.0
 40
3.25
  0
CIRCLE
  5
6F0
  8
PATTERN_FILL
  6
CONTINUOUS
 62
     7
 10
382.50000000000011
 20
104.59999999999989
 30
0.0
 40
3.25
  0
CIRCLE
  5
6F1
  8
PATTERN_FILL
  6
CONTINUOUS
 62
     7
 10
110.5
 20
104.59999999999989
 30
0.0
 40
3.25
  0
CIRCLE
  5
6F2
  8
PATTERN_FILL
  6
CONTINUOUS
 62
     7
 10
126.5
 20
104.59999999999989
 30
0.0
 40
3.25
  0
CIRCLE
  5
6F3
  8
PATTERN_FILL
  6
CONTINUOUS
 62
     7
 10
142.5
 20
104.59999999999989
 30
0.0
 40
3.25
  0
CIRCLE
  5
6F4
  8
PATTERN_FILL
  6
CONTINUOUS
 62
     7
 10
158.5
 20
104.59999999999989
 30
0.0
 40
3.25
  0
CIRCLE
  5
6F5
  8
PATTERN_FILL
  6
CONTINUOUS
 62
     7
 10
174.5
 20
104.59999999999989
 30
0.0
 40
3.25
  0
CIRCLE
  5
6F6
  8
PATTERN_FILL
  6
CONTINUOUS
 62
     7
 10
190.5
 20
104.59999999999989
 30
0.0
 40
3.25
  0
CIRCLE
  5
6F7
  8
PATTERN_FILL
  6
CONTINUOUS
 62
     7
 10
206.5
 20
104.59999999999989
 30
0.0
 40
3.25
  0
CIRCLE
  5
6F8
  8
PATTERN_FILL
  6
CONTINUOUS
 62
     7
 10
222.5
 20
104.59999999999989
 30
0.0
 40
3.25
  0
CIRCLE
  5
6F9
  8
PATTERN_FILL
  6
CONTINUOUS
 62
     7
 10
238.5
 20
104.59999999999989
 30
0.0
 40
3.25
  0
CIRCLE
  5
6FA
  8
PATTERN_FILL
  6
CONTINUOUS
 62
     7
 10
254.5
 20
90.599999999999923
 30
0.0
 40
3.25
  0
CIRCLE
  5
6FB
  8
PATTERN_FILL
  6
CONTINUOUS
 62
     7
 10
270.5
 20
90.599999999999923
 30
0.0
 40
3.25
  0
CIRCLE
  5
6FC
  8
PATTERN_FILL
  6
CONTINUOUS
 62
     7
 10
286.5
 20
90.599999999999923
 30
0.0
 40
3.25
  0
CIRCLE
  5
6FD
  8
PATTERN_FILL
  6
CONTINUOUS
 62
     7
 10
302.5
 20
90.599999999999923
 30
0.0
 40
3.25
  0
CIRCLE
  5
6FE
  8
PATTERN_FILL
  6
CONTINUOUS
 62
     7
 10
318.5
 20
90.599999999999923
 30
0.0
 40
3.25
  0
CIRCLE
  5
6FF
  8
PATTERN_FILL
  6
CONTINUOUS
 62
     7
 10
334.50000000000011
 20
90.599999999999923
 30
0.0
 40
3.25
  0
CIRCLE
  5
700
  8
PATTERN_FILL
  6
CONTINUOUS
 62
     7
 10
94.500000000000014
 20
90.599999999999923
 30
0.0
 40
3.25
  0
CIRCLE
  5
701
  8
PATTERN_FILL
  6
CONTINUOUS
 62
     7
 10
78.5
 20
90.599999999999923
 30
0.0
 40
3.25
  0
CIRCLE
  5
702
  8
PATTERN_FILL
  6
CONTINUOUS
 62
     7
 10
62.5
 20
90.599999999999923
 30
0.0
 40
3.25
  0
CIRCLE
  5
703
  8
PATTERN_FILL
  6
CONTINUOUS
 62
     7
 10
46.5
 20
90.599999999999923
 30
0.0
 40
3.25
  0
CIRCLE
  5
704
  8
PATTERN_FILL
  6
CONTINUOUS
 62
     7
 10
30.5
 20
90.599999999999923
 30
0.0
 40
3.25
  0
CIRCLE
  5
705
  8
PATTERN_FILL
  6
CONTINUOUS
 62
     7
 10
14.5
 20
90.599999999999923
 30
0.0
 40
3.25
  0
CIRCLE
  5
706
  8
PATTERN_FILL
  6
CONTINUOUS
 62
     7
 10
350.50000000000011
 20
90.599999999999923
 30
0.0
 40
3.25
  0
CIRCLE
  5
707
  8
PATTERN_FILL
  6
CONTINUOUS
 62
     7
 10
366.5
 20
90.599999999999923
 30
0.0
 40
3.25
  0
CIRCLE
  5
708
  8
PATTERN_FILL
  6
CONTINUOUS
 62
     7
 10
382.50000000000011
 20
90.599999999999923
 30
0.0
 40
3.25
  0
CIRCLE
  5
709
  8
PATTERN_FILL
  6
CONTINUOUS
 62
     7
 10
110.5
 20
90.599999999999923
 30
0.0
 40
3.25
  0
CIRCLE
  5
70A
  8
PATTERN_FILL
  6
CONTINUOUS
 62
     7
 10
126.5
 20
90.599999999999923
 30
0.0
 40
3.25
  0
CIRCLE
  5
70B
  8
PATTERN_FILL
  6
CONTINUOUS
 62
     7
 10
142.5
 20
90.599999999999923
 30
0.0
 40
3.25
  0
CIRCLE
  5
70C
  8
PATTERN_FILL
  6
CONTINUOUS
 62
     7
 10
158.5
 20
90.599999999999923
 30
0.0
 40
3.25
  0
CIRCLE
  5
70D
  8
PATTERN_FILL
  6
CONTINUOUS
 62
     7
 10
174.5
 20
90.599999999999923
 30
0.0
 40
3.25
  0
CIRCLE
  5
70E
  8
PATTERN_FILL
  6
CONTINUOUS
 62
     7
 10
190.5
 20
90.599999999999923
 30
0.0
 40
3.25
  0
CIRCLE
  5
70F
  8
PATTERN_FILL
  6
CONTINUOUS
 62
     7
 10
206.5
 20
90.599999999999923
 30
0.0
 40
3.25
  0
CIRCLE
  5
710
  8
PATTERN_FILL
  6
CONTINUOUS
 62
     7
 10
222.5
 20
90.599999999999923
 30
0.0
 40
3.25
  0
CIRCLE
  5
711
  8
PATTERN_FILL
  6
CONTINUOUS
 62
     7
 10
238.5
 20
90.599999999999923
 30
0.0
 40
3.25
  0
CIRCLE
  5
712
  8
PATTERN_FILL
  6
CONTINUOUS
 62
     7
 10
254.5
 20
76.599999999999923
 30
0.0
 40
3.25
  0
CIRCLE
  5
713
  8
PATTERN_FILL
  6
CONTINUOUS
 62
     7
 10
270.5
 20
76.599999999999923
 30
0.0
 40
3.25
  0
CIRCLE
  5
714
  8
PATTERN_FILL
  6
CONTINUOUS
 62
     7
 10
286.5
 20
76.599999999999923
 30
0.0
 40
3.25
  0
CIRCLE
  5
715
  8
PATTERN_FILL
  6
CONTINUOUS
 62
     7
 10
302.5
 20
76.599999999999923
 30
0.0
 40
3.25
  0
CIRCLE
  5
716
  8
PATTERN_FILL
  6
CONTINUOUS
 62
     7
 10
318.5
 20
76.599999999999923
 30
0.0
 40
3.25
  0
CIRCLE
  5
717
  8
PATTERN_FILL
  6
CONTINUOUS
 62
     7
 10
334.50000000000011
 20
76.599999999999923
 30
0.0
 40
3.25
  0
CIRCLE
  5
718
  8
PATTERN_FILL
  6
CONTINUOUS
 62
     7
 10
94.500000000000014
 20
76.599999999999923
 30
0.0
 40
3.25
  0
CIRCLE
  5
719
  8
PATTERN_FILL
  6
CONTINUOUS
 62
     7
 10
78.5
 20
76.599999999999923
 30
0.0
 40
3.25
  0
CIRCLE
  5
71A
  8
PATTERN_FILL
  6
CONTINUOUS
 62
     7
 10
62.5
 20
76.599999999999923
 30
0.0
 40
3.25
  0
CIRCLE
  5
71B
  8
PATTERN_FILL
  6
CONTINUOUS
 62
     7
 10
46.5
 20
76.599999999999923
 30
0.0
 40
3.25
  0
CIRCLE
  5
71C
  8
PATTERN_FILL
  6
CONTINUOUS
 62
     7
 10
30.5
 20
76.599999999999923
 30
0.0
 40
3.25
  0
CIRCLE
  5
71D
  8
PATTERN_FILL
  6
CONTINUOUS
 62
     7
 10
14.5
 20
76.599999999999923
 30
0.0
 40
3.25
  0
CIRCLE
  5
71E
  8
PATTERN_FILL
  6
CONTINUOUS
 62
     7
 10
350.50000000000011
 20
76.599999999999923
 30
0.0
 40
3.25
  0
CIRCLE
  5
71F
  8
PATTERN_FILL
  6
CONTINUOUS
 62
     7
 10
366.5
 20
76.599999999999923
 30
0.0
 40
3.25
  0
CIRCLE
  5
720
  8
PATTERN_FILL
  6
CONTINUOUS
 62
     7
 10
382.50000000000011
 20
76.599999999999923
 30
0.0
 40
3.25
  0
CIRCLE
  5
721
  8
PATTERN_FILL
  6
CONTINUOUS
 62
     7
 10
110.5
 20
76.599999999999923
 30
0.0
 40
3.25
  0
CIRCLE
  5
722
  8
PATTERN_FILL
  6
CONTINUOUS
 62
     7
 10
126.5
 20
76.599999999999923
 30
0.0
 40
3.25
  0
CIRCLE
  5
723
  8
PATTERN_FILL
  6
CONTINUOUS
 62
     7
 10
142.5
 20
76.599999999999923
 30
0.0
 40
3.25
  0
CIRCLE
  5
724
  8
PATTERN_FILL
  6
CONTINUOUS
 62
     7
 10
158.5
 20
76.599999999999923
 30
0.0
 40
3.25
  0
CIRCLE
  5
725
  8
PATTERN_FILL
  6
CONTINUOUS
 62
     7
 10
174.5
 20
76.599999999999923
 30
0.0
 40
3.25
  0
CIRCLE
  5
726
  8
PATTERN_FILL
  6
CONTINUOUS
 62
     7
 10
190.5
 20
76.599999999999923
 30
0.0
 40
3.25
  0
CIRCLE
  5
727
  8
PATTERN_FILL
  6
CONTINUOUS
 62
     7
 10
206.5
 20
76.599999999999923
 30
0.0
 40
3.25
  0
CIRCLE
  5
728
  8
PATTERN_FILL
  6
CONTINUOUS
 62
     7
 10
222.5
 20
76.599999999999923
 30
0.0
 40
3.25
  0
CIRCLE
  5
729
  8
PATTERN_FILL
  6
CONTINUOUS
 62
     7
 10
238.5
 20
76.599999999999923
 30
0.0
 40
3.25
  0
CIRCLE
  5
72A
  8
PATTERN_FILL
  6
CONTINUOUS
 62
     7
 10
254.5
 20
62.599999999999902
 30
0.0
 40
3.25
  0
CIRCLE
  5
72B
  8
PATTERN_FILL
  6
CONTINUOUS
 62
     7
 10
270.5
 20
62.599999999999902
 30
0.0
 40
3.25
  0
CIRCLE
  5
72C
  8
PATTERN_FILL
  6
CONTINUOUS
 62
     7
 10
286.5
 20
62.599999999999902
 30
0.0
 40
3.25
  0
CIRCLE
  5
72D
  8
PATTERN_FILL
  6
CONTINUOUS
 62
     7
 10
302.5
 20
62.599999999999902
 30
0.0
 40
3.25
  0
CIRCLE
  5
72E
  8
PATTERN_FILL
  6
CONTINUOUS
 62
     7
 10
318.5
 20
62.599999999999902
 30
0.0
 40
3.25
  0
CIRCLE
  5
72F
  8
PATTERN_FILL
  6
CONTINUOUS
 62
     7
 10
334.50000000000011
 20
62.599999999999902
 30
0.0
 40
3.25
  0
CIRCLE
  5
730
  8
PATTERN_FILL
  6
CONTINUOUS
 62
     7
 10
94.500000000000014
 20
62.599999999999902
 30
0.0
 40
3.25
  0
CIRCLE
  5
731
  8
PATTERN_FILL
  6
CONTINUOUS
 62
     7
 10
78.5
 20
62.599999999999902
 30
0.0
 40
3.25
  0
CIRCLE
  5
732
  8
PATTERN_FILL
  6
CONTINUOUS
 62
     7
 10
62.5
 20
62.599999999999902
 30
0.0
 40
3.25
  0
CIRCLE
  5
733
  8
PATTERN_FILL
  6
CONTINUOUS
 62
     7
 10
46.5
 20
62.599999999999902
 30
0.0
 40
3.25
  0
CIRCLE
  5
734
  8
PATTERN_FILL
  6
CONTINUOUS
 62
     7
 10
30.5
 20
62.599999999999902
 30
0.0
 40
3.25
  0
CIRCLE
  5
735
  8
PATTERN_FILL
  6
CONTINUOUS
 62
     7
 10
14.5
 20
62.599999999999902
 30
0.0
 40
3.25
  0
CIRCLE
  5
736
  8
PATTERN_FILL
  6
CONTINUOUS
 62
     7
 10
350.50000000000011
 20
62.599999999999902
 30
0.0
 40
3.25
  0
CIRCLE
  5
737
  8
PATTERN_FILL
  6
CONTINUOUS
 62
     7
 10
366.5
 20
62.599999999999902
 30
0.0
 40
3.25
  0
CIRCLE
  5
738
  8
PATTERN_FILL
  6
CONTINUOUS
 62
     7
 10
382.50000000000011
 20
62.599999999999902
 30
0.0
 40
3.25
  0
CIRCLE
  5
739
  8
PATTERN_FILL
  6
CONTINUOUS
 62
     7
 10
110.5
 20
62.599999999999902
 30
0.0
 40
3.25
  0
CIRCLE
  5
73A
  8
PATTERN_FILL
  6
CONTINUOUS
 62
     7
 10
126.5
 20
62.599999999999902
 30
0.0
 40
3.25
  0
CIRCLE
  5
73B
  8
PATTERN_FILL
  6
CONTINUOUS
 62
     7
 10
142.5
 20
62.599999999999902
 30
0.0
 40
3.25
  0
CIRCLE
  5
73C
  8
PATTERN_FILL
  6
CONTINUOUS
 62
     7
 10
158.5
 20
62.599999999999902
 30
0.0
 40
3.25
  0
CIRCLE
  5
73D
  8
PATTERN_FILL
  6
CONTINUOUS
 62
     7
 10
174.5
 20
62.599999999999902
 30
0.0
 40
3.25
  0
CIRCLE
  5
73E
  8
PATTERN_FILL
  6
CONTINUOUS
 62
     7
 10
190.5
 20
62.599999999999902
 30
0.0
 40
3.25
  0
CIRCLE
  5
73F
  8
PATTERN_FILL
  6
CONTINUOUS
 62
     7
 10
206.5
 20
62.599999999999902
 30
0.0
 40
3.25
  0
CIRCLE
  5
740
  8
PATTERN_FILL
  6
CONTINUOUS
 62
     7
 10
222.5
 20
62.599999999999902
 30
0.0
 40
3.25
  0
CIRCLE
  5
741
  8
PATTERN_FILL
  6
CONTINUOUS
 62
     7
 10
238.5
 20
62.599999999999902
 30
0.0
 40
3.25
  0
CIRCLE
  5
742
  8
PATTERN_FILL
  6
CONTINUOUS
 62
     7
 10
254.5
 20
48.599999999999902
 30
0.0
 40
3.25
  0
CIRCLE
  5
743
  8
PATTERN_FILL
  6
CONTINUOUS
 62
     7
 10
270.5
 20
48.599999999999902
 30
0.0
 40
3.25
  0
CIRCLE
  5
744
  8
PATTERN_FILL
  6
CONTINUOUS
 62
     7
 10
286.5
 20
48.599999999999902
 30
0.0
 40
3.25
  0
CIRCLE
  5
745
  8
PATTERN_FILL
  6
CONTINUOUS
 62
     7
 10
302.5
 20
48.599999999999902
 30
0.0
 40
3.25
  0
CIRCLE
  5
746
  8
PATTERN_FILL
  6
CONTINUOUS
 62
     7
 10
318.5
 20
48.599999999999902
 30
0.0
 40
3.25
  0
CIRCLE
  5
747
  8
PATTERN_FILL
  6
CONTINUOUS
 62
     7
 10
334.50000000000011
 20
48.599999999999902
 30
0.0
 40
3.25
  0
CIRCLE
  5
748
  8
PATTERN_FILL
  6
CONTINUOUS
 62
     7
 10
94.500000000000014
 20
48.599999999999902
 30
0.0
 40
3.25
  0
CIRCLE
  5
749
  8
PATTERN_FILL
  6
CONTINUOUS
 62
     7
 10
78.5
 20
48.599999999999902
 30
0.0
 40
3.25
  0
CIRCLE
  5
74A
  8
PATTERN_FILL
  6
CONTINUOUS
 62
     7
 10
62.5
 20
48.599999999999902
 30
0.0
 40
3.25
  0
CIRCLE
  5
74B
  8
PATTERN_FILL
  6
CONTINUOUS
 62
     7
 10
46.5
 20
48.599999999999902
 30
0.0
 40
3.25
  0
CIRCLE
  5
74C
  8
PATTERN_FILL
  6
CONTINUOUS
 62
     7
 10
30.5
 20
48.599999999999902
 30
0.0
 40
3.25
  0
CIRCLE
  5
74D
  8
PATTERN_FILL
  6
CONTINUOUS
 62
     7
 10
14.5
 20
48.599999999999902
 30
0.0
 40
3.25
  0
CIRCLE
  5
74E
  8
PATTERN_FILL
  6
CONTINUOUS
 62
     7
 10
350.50000000000011
 20
48.599999999999902
 30
0.0
 40
3.25
  0
CIRCLE
  5
74F
  8
PATTERN_FILL
  6
CONTINUOUS
 62
     7
 10
366.5
 20
48.599999999999902
 30
0.0
 40
3.25
  0
CIRCLE
  5
750
  8
PATTERN_FILL
  6
CONTINUOUS
 62
     7
 10
382.50000000000011
 20
48.599999999999902
 30
0.0
 40
3.25
  0
CIRCLE
  5
751
  8
PATTERN_FILL
  6
CONTINUOUS
 62
     7
 10
110.5
 20
48.599999999999902
 30
0.0
 40
3.25
  0
CIRCLE
  5
752
  8
PATTERN_FILL
  6
CONTINUOUS
 62
     7
 10
126.5
 20
48.599999999999902
 30
0.0
 40
3.25
  0
CIRCLE
  5
753
  8
PATTERN_FILL
  6
CONTINUOUS
 62
     7
 10
142.5
 20
48.599999999999902
 30
0.0
 40
3.25
  0
CIRCLE
  5
754
  8
PATTERN_FILL
  6
CONTINUOUS
 62
     7
 10
158.5
 20
48.599999999999902
 30
0.0
 40
3.25
  0
CIRCLE
  5
755
  8
PATTERN_FILL
  6
CONTINUOUS
 62
     7
 10
174.5
 20
48.599999999999902
 30
0.0
 40
3.25
  0
CIRCLE
  5
756
  8
PATTERN_FILL
  6
CONTINUOUS
 62
     7
 10
190.5
 20
48.599999999999902
 30
0.0
 40
3.25
  0
CIRCLE
  5
757
  8
PATTERN_FILL
  6
CONTINUOUS
 62
     7
 10
206.5
 20
48.599999999999902
 30
0.0
 40
3.25
  0
CIRCLE
  5
758
  8
PATTERN_FILL
  6
CONTINUOUS
 62
     7
 10
222.5
 20
48.599999999999902
 30
0.0
 40
3.25
  0
CIRCLE
  5
759
  8
PATTERN_FILL
  6
CONTINUOUS
 62
     7
 10
238.5
 20
48.599999999999902
 30
0.0
 40
3.25
  0
CIRCLE
  5
75A
  8
PATTERN_FILL
  6
CONTINUOUS
 62
     7
 10
254.5
 20
34.599999999999909
 30
0.0
 40
3.25
  0
CIRCLE
  5
75B
  8
PATTERN_FILL
  6
CONTINUOUS
 62
     7
 10
270.5
 20
34.599999999999909
 30
0.0
 40
3.25
  0
CIRCLE
  5
75C
  8
PATTERN_FILL
  6
CONTINUOUS
 62
     7
 10
286.5
 20
34.599999999999909
 30
0.0
 40
3.25
  0
CIRCLE
  5
75D
  8
PATTERN_FILL
  6
CONTINUOUS
 62
     7
 10
302.5
 20
34.599999999999909
 30
0.0
 40
3.25
  0
CIRCLE
  5
75E
  8
PATTERN_FILL
  6
CONTINUOUS
 62
     7
 10
318.5
 20
34.599999999999909
 30
0.0
 40
3.25
  0
CIRCLE
  5
75F
  8
PATTERN_FILL
  6
CONTINUOUS
 62
     7
 10
334.50000000000011
 20
34.599999999999909
 30
0.0
 40
3.25
  0
CIRCLE
  5
760
  8
PATTERN_FILL
  6
CONTINUOUS
 62
     7
 10
94.500000000000014
 20
34.599999999999909
 30
0.0
 40
3.25
  0
CIRCLE
  5
761
  8
PATTERN_FILL
  6
CONTINUOUS
 62
     7
 10
78.5
 20
34.599999999999909
 30
0.0
 40
3.25
  0
CIRCLE
  5
762
  8
PATTERN_FILL
  6
CONTINUOUS
 62
     7
 10
62.5
 20
34.599999999999909
 30
0.0
 40
3.25
  0
CIRCLE
  5
763
  8
PATTERN_FILL
  6
CONTINUOUS
 62
     7
 10
46.5
 20
34.599999999999909
 30
0.0
 40
3.25
  0
CIRCLE
  5
764
  8
PATTERN_FILL
  6
CONTINUOUS
 62
     7
 10
30.5
 20
34.599999999999909
 30
0.0
 40
3.25
  0
CIRCLE
  5
765
  8
PATTERN_FILL
  6
CONTINUOUS
 62
     7
 10
14.5
 20
34.599999999999909
 30
0.0
 40
3.25
  0
CIRCLE
  5
766
  8
PATTERN_FILL
  6
CONTINUOUS
 62
     7
 10
350.50000000000011
 20
34.599999999999909
 30
0.0
 40
3.25
  0
CIRCLE
  5
767
  8
PATTERN_FILL
  6
CONTINUOUS
 62
     7
 10
366.5
 20
34.599999999999909
 30
0.0
 40
3.25
  0
CIRCLE
  5
768
  8
PATTERN_FILL
  6
CONTINUOUS
 62
     7
 10
382.50000000000011
 20
34.599999999999909
 30
0.0
 40
3.25
  0
CIRCLE
  5
769
  8
PATTERN_FILL
  6
CONTINUOUS
 62
     7
 10
110.5
 20
34.599999999999909
 30
0.0
 40
3.25
  0
CIRCLE
  5
76A
  8
PATTERN_FILL
  6
CONTINUOUS
 62
     7
 10
126.5
 20
34.599999999999909
 30
0.0
 40
3.25
  0
CIRCLE
  5
76B
  8
PATTERN_FILL
  6
CONTINUOUS
 62
     7
 10
142.5
 20
34.599999999999909
 30
0.0
 40
3.25
  0
CIRCLE
  5
76C
  8
PATTERN_FILL
  6
CONTINUOUS
 62
     7
 10
158.5
 20
34.599999999999909
 30
0.0
 40
3.25
  0
CIRCLE
  5
76D
  8
PATTERN_FILL
  6
CONTINUOUS
 62
     7
 10
174.5
 20
34.599999999999909
 30
0.0
 40
3.25
  0
CIRCLE
  5
76E
  8
PATTERN_FILL
  6
CONTINUOUS
 62
     7
 10
190.5
 20
34.599999999999909
 30
0.0
 40
3.25
  0
CIRCLE
  5
76F
  8
PATTERN_FILL
  6
CONTINUOUS
 62
     7
 10
206.5
 20
34.599999999999909
 30
0.0
 40
3.25
  0
CIRCLE
  5
770
  8
PATTERN_FILL
  6
CONTINUOUS
 62
     7
 10
222.5
 20
34.599999999999909
 30
0.0
 40
3.25
  0
CIRCLE
  5
771
  8
PATTERN_FILL
  6
CONTINUOUS
 62
     7
 10
238.5
 20
34.599999999999909
 30
0.0
 40
3.25
  0
INSERT
  5
772
  8
PATTERN_FILL
 62
     7
  2
____
 10
1300.0
 20
1232.895514999999
 30
0.0
  0
LINE
  5
773
  8
DIMNSIONS
  6
CONTINUOUS
 62
     7
 10
273.33395308632538
 20
1628.084206929999
 30
0.0
 11
230.0260643315971
 21
1735.2749930360419
 31
0.0
  0
LINE
  5
774
  8
DIMNSIONS
  6
CONTINUOUS
 62
     7
 10
397.0
 20
1640.0
 30
0.0
 11
397.0
 21
1767.731438269208
 31
0.0
  0
ARC
  5
775
  8
DIMNSIONS
  6
CONTINUOUS
 62
     7
 10
397.0
 20
1322.0
 30
0.0
 40
405.73143826920801
 50
90.0
 51
112.0
  0
LINE
  5
776
  8
DIMNSIONS
  6
CONTINUOUS
 62
     7
 10
245.0103280682336
 20
1698.1876388533699
 30
0.0
 11
297.51265641246641
 21
1737.750981016994
 31
0.0
  0
LINE
  5
777
  8
DIMNSIONS
  6
CONTINUOUS
 62
     7
 10
245.0103280682336
 20
1698.1876388533699
 30
0.0
 11
310.26034925398272
 21
1706.199334053568
 31
0.0
  0
LINE
  5
778
  8
DIMNSIONS
  6
CONTINUOUS
 62
     7
 10
397.0
 20
1727.731438269208
 30
0.0
 11
333.5
 21
1710.716664549831
 31
0.0
  0
LINE
  5
779
  8
DIMNSIONS
  6
CONTINUOUS
 62
     7
 10
397.0
 20
1727.731438269208
 30
0.0
 11
333.5
 21
1744.746211988584
 31
0.0
  0
TEXT
  5
77A
  8
DIMNSIONS
 62
     7
 10
253.49848508560709
 20
1749.7300259077399
 30
0.0
 40
54.294704861111107
  1
22°
 50
9.549133928735932
 41
0.8
 11
244.49135552465151
 21
1803.2724071867549
 31
0.0
 73
     3
  0
TEXT
  5
77B
  8
DIMNSIONS
 62
     7
 10
899.99999999999955
 20
-1048.5424222222221
 30
0.0
 40
43.435763888888893
  1
(単位：mm)
 41
0.8
 11
899.99999999999955
 21
-1005.106658333333
 31
0.0
 73
     3
  0
LINE
  5
77C
  8
DIMNSIONS
  6
CONTINUOUS
 62
     7
 10
-32.0
 20
965.20000000000005
 30
0.0
 11
-240.0
 21
965.20000000000005
 31
0.0
  0
LINE
  5
77D
  8
DIMNSIONS
  6
CONTINUOUS
 62
     7
 10
-32.0
 20
0.0
 30
0.0
 11
-240.0
 21
0.0
 31
0.0
  0
LINE
  5
77E
  8
DIMNSIONS
  6
CONTINUOUS
 62
     7
 10
-200.0
 20
965.20000000000005
 30
0.0
 11
-200.0
 21
0.0
 31
0.0
  0
LINE
  5
77F
  8
DIMNSIONS
  6
CONTINUOUS
 62
     7
 10
-200.0
 20
965.20000000000005
 30
0.0
 11
-182.98522628062369
 21
901.70000000000005
 31
0.0
  0
LINE
  5
780
  8
DIMNSIONS
  6
CONTINUOUS
 62
     7
 10
-200.0
 20
965.20000000000005
 30
0.0
 11
-217.01477371937631
 21
901.70000000000005
 31
0.0
  0
LINE
  5
781
  8
DIMNSIONS
  6
CONTINUOUS
 62
     7
 10
-200.0
 20
0.0
 30
0.0
 11
-217.01477371937631
 21
63.5
 31
0.0
  0
LINE
  5
782
  8
DIMNSIONS
  6
CONTINUOUS
 62
     7
 10
-200.0
 20
0.0
 30
0.0
 11
-182.98522628062369
 21
63.5
 31
0.0
  0
TEXT
  5
783
  8
DIMNSIONS
 62
     7
 10
-219.87777777777791
 20
429.68333333333311
 30
0.0
 40
54.294704861111107
  1
965
 50
90.0
 41
0.8
 11
-274.17248263888911
 21
429.68333333333311
 31
0.0
 73
     3
  0
LINE
  5
784
  8
DIMNSIONS
  6
CONTINUOUS
 62
     7
 10
0.0
 20
-32.0
 30
0.0
 11
0.0
 21
-240.0
 31
0.0
  0
LINE
  5
785
  8
DIMNSIONS
  6
CONTINUOUS
 62
     7
 10
397.0
 20
-32.0
 30
0.0
 11
397.0
 21
-240.0
 31
0.0
  0
LINE
  5
786
  8
DIMNSIONS
  6
CONTINUOUS
 62
     7
 10
0.0
 20
-200.0
 30
0.0
 11
397.0
 21
-200.0
 31
0.0
  0
LINE
  5
787
  8
DIMNSIONS
  6
CONTINUOUS
 62
     7
 10
0.0
 20
-200.0
 30
0.0
 11
63.5
 21
-182.98522628062369
 31
0.0
  0
LINE
  5
788
  8
DIMNSIONS
  6
CONTINUOUS
 62
     7
 10
0.0
 20
-200.0
 30
0.0
 11
63.5
 21
-217.01477371937631
 31
0.0
  0
LINE
  5
789
  8
DIMNSIONS
  6
CONTINUOUS
 62
     7
 10
397.0
 20
-200.0
 30
0.0
 11
333.5
 21
-217.01477371937631
 31
0.0
  0
LINE
  5
78A
  8
DIMNSIONS
  6
CONTINUOUS
 62
     7
 10
397.0
 20
-200.0
 30
0.0
 11
333.5
 21
-182.98522628062369
 31
0.0
  0
TEXT
  5
78B
  8
DIMNSIONS
 62
     7
 10
145.5833333333332
 20
-180.12222222222201
 30
0.0
 40
54.294704861111107
  1
397
 41
0.8
 11
145.5833333333332
 21
-125.82751736111091
 31
0.0
 73
     3
  0
LINE
  5
78C
  8
DIMNSIONS
  6
CONTINUOUS
 62
     7
 10
600.0
 20
-32.0
 30
0.0
 11
600.0
 21
-240.0
 31
0.0
  0
LINE
  5
78D
  8
DIMNSIONS
  6
CONTINUOUS
 62
     7
 10
996.0
 20
-32.0
 30
0.0
 11
996.0
 21
-240.0
 31
0.0
  0
LINE
  5
78E
  8
DIMNSIONS
  6
CONTINUOUS
 62
     7
 10
600.0
 20
-200.0
 30
0.0
 11
996.0
 21
-200.0
 31
0.0
  0
LINE
  5
78F
  8
DIMNSIONS
  6
CONTINUOUS
 62
     7
 10
600.0
 20
-200.0
 30
0.0
 11
663.49999999999989
 21
-182.98522628062369
 31
0.0
  0
LINE
  5
790
  8
DIMNSIONS
  6
CONTINUOUS
 62
     7
 10
600.0
 20
-200.0
 30
0.0
 11
663.49999999999989
 21
-217.01477371937631
 31
0.0
  0
LINE
  5
791
  8
DIMNSIONS
  6
CONTINUOUS
 62
     7
 10
996.0
 20
-200.0
 30
0.0
 11
932.50000000000011
 21
-217.01477371937631
 31
0.0
  0
LINE
  5
792
  8
DIMNSIONS
  6
CONTINUOUS
 62
     7
 10
996.0
 20
-200.0
 30
0.0
 11
932.50000000000011
 21
-182.98522628062369
 31
0.0
  0
TEXT
  5
793
  8
DIMNSIONS
 62
     7
 10
745.08333333333314
 20
-180.12222222222201
 30
0.0
 40
54.294704861111107
  1
396
 41
0.8
 11
745.08333333333314
 21
-125.82751736111091
 31
0.0
 73
     3
  0
LINE
  5
794
  8
DIMNSIONS
  6
CONTINUOUS
 62
     7
 10
397.0
 20
1350.0
 30
0.0
 11
397.0
 21
1600.0
 31
0.0
  0
TEXT
  5
795
  8
DATA
 62
     7
 10
2250.0
 20
-1001.9213
 30
0.0
 40
32.576822916666671
  1
2WAYフルレンジラウドスピーカーシステム
 41
0.8
 11
2250.0
 21
-969.344477083333
 31
0.0
 73
     3
  0
TEXT
  5
796
  8
DATA
 62
     7
 10
2300.0
 20
-932.3821999999999
 30
0.0
 40
48.865234375000007
  1
JBL
 41
0.8
 11
2300.0
 21
-883.51696562500001
 31
0.0
 73
     3
  0
TEXT
  5
797
  8
DATA
 62
     7
 10
-300.0
 20
-1215.24
 30
0.0
 40
32.576822916666671
  1
仕様および外観は予告なく変更されることがありますので、ご了承ください。
 41
0.8
 11
-300.0
 21
-1182.663177083333
 31
0.0
 73
     3
  0
TEXT
  5
798
  8
DATA
 62
     7
 10
2300.0
 20
-1077.3822
 30
0.0
 40
48.865234375000007
  1
SRX722
 41
0.8
 11
2300.0
 21
-1028.516965625
 31
0.0
 73
     3
  0
LINE
  5
799
  8
DATA
  6
CONTINUOUS
 62
     7
 10
8.0
 20
0.0
 30
0.0
 11
389.0
 21
0.0
 31
0.0
  0
LINE
  5
79A
  8
DATA
  6
CONTINUOUS
 62
     7
 10
0.0
 20
8.0
 30
0.0
 11
0.0
 21
957.20000000000005
 31
0.0
  0
LINE
  5
79B
  8
DATA
  6
CONTINUOUS
 62
     7
 10
8.0
 20
965.20000000000005
 30
0.0
 11
389.0
 21
965.20000000000005
 31
0.0
  0
LINE
  5
79C
  8
DATA
  6
CONTINUOUS
 62
     7
 10
397.0
 20
957.20000000000005
 30
0.0
 11
397.0
 21
8.0
 31
0.0
  0
LINE
  5
79D
  8
DATA
  6
CONTINUOUS
 62
     7
 10
0.0
 20
16.0
 30
0.0
 11
397.0
 21
16.0
 31
0.0
  0
LINE
  5
79E
  8
DATA
  6
CONTINUOUS
 62
     7
 10
0.0
 20
947.20000000000005
 30
0.0
 11
397.0
 21
947.20000000000005
 31
0.0
  0
LINE
  5
79F
  8
DATA
  6
CONTINUOUS
 62
     7
 10
34.0
 20
0.0
 30
0.0
 11
34.0
 21
965.20000000000005
 31
0.0
  0
LINE
  5
7A0
  8
DATA
  6
CONTINUOUS
 62
     7
 10
363.0
 20
0.0
 30
0.0
 11
363.0
 21
965.20000000000005
 31
0.0
  0
LINE
  5
7A1
  8
DATA
  6
CONTINUOUS
 62
     7
 10
2.0
 20
947.20000000000005
 30
0.0
 11
2.0
 21
16.0
 31
0.0
  0
LINE
  5
7A2
  8
DATA
  6
CONTINUOUS
 62
     7
 10
395.0
 20
947.20000000000005
 30
0.0
 11
395.0
 21
16.0
 31
0.0
  0
INSERT
  5
7A3
  8
DATA
 62
     7
  2
____-1
 10
1300.0
 20
1232.895514999999
 30
0.0
  0
INSERT
  5
7A4
  8
DATA
 62
     7
  2
____-2
 10
1300.0
 20
1232.895514999999
 30
0.0
  0
POLYLINE
  5
7A5
  8
DATA
  6
CONTINUOUS
 62
     7
 66
     1
 10
0.0
 20
0.0
 30
0.0
 70
     1
  0
VERTEX
  5
99B
  8
DATA
  6
CONTINUOUS
 62
     7
 10
170.5
 20
505.09999999999991
 30
0.0
  0
VERTEX
  5
99C
  8
DATA
  6
CONTINUOUS
 62
     7
 10
226.5
 20
505.09999999999991
 30
0.0
  0
VERTEX
  5
99D
  8
DATA
  6
CONTINUOUS
 62
     7
 10
226.5
 20
460.09999999999991
 30
0.0
  0
VERTEX
  5
99E
  8
DATA
  6
CONTINUOUS
 62
     7
 10
170.5
 20
460.09999999999991
 30
0.0
  0
SEQEND
  5
99F
  8
DATA
  6
CONTINUOUS
 62
     7
  0
INSERT
  5
7AB
  8
DATA
 62
     7
  2
____-3
 10
1300.0
 20
1232.895514999999
 30
0.0
  0
INSERT
  5
7AC
  8
DATA
 62
     7
  2
____-4
 10
1300.0
 20
1232.895514999999
 30
0.0
  0
INSERT
  5
7AD
  8
DATA
 62
     7
  2
____-5
 10
1300.0
 20
1232.895514999999
 30
0.0
  0
INSERT
  5
7AE
  8
DATA
 62
     7
  2
____-6
 10
1300.0
 20
1232.895514999999
 30
0.0
  0
LINE
  5
7AF
  8
DATA
  6
CONTINUOUS
 62
     7
 10
35.987008054818943
 20
1200.0
 30
0.0
 11
361.01299194518089
 21
1200.0
 31
0.0
  0
LINE
  5
7B0
  8
DATA
  6
CONTINUOUS
 62
     7
 10
116.09925401357231
 20
1596.0
 30
0.0
 11
280.90074598642752
 21
1596.0
 31
0.0
  0
LINE
  5
7B1
  8
DATA
  6
CONTINUOUS
 62
     7
 10
397.0
 20
1222.816651323139
 30
0.0
 11
397.0
 21
1320.444957526897
 31
0.0
  0
LINE
  5
7B2
  8
DATA
  6
CONTINUOUS
 62
     7
 10
396.41747083653439
 20
1323.441810274225
 30
0.0
 11
288.3182168229618
 21
1590.996852747327
 31
0.0
  0
LINE
  5
7B3
  8
DATA
  6
CONTINUOUS
 62
     7
 10
0.0
 20
1222.816651323139
 30
0.0
 11
0.0
 21
1320.444957526898
 31
0.0
  0
LINE
  5
7B4
  8
DATA
  6
CONTINUOUS
 62
     7
 10
0.5825291634657788
 20
1323.441810274225
 30
0.0
 11
108.6817831770381
 21
1590.996852747327
 31
0.0
  0
LINE
  5
7B5
  8
DATA
  6
CONTINUOUS
 62
     7
 10
32.243906291466601
 20
1200.9296966692229
 30
0.0
 11
4.2568982366476567
 21
1215.7463479923631
 31
0.0
  0
LINE
  5
7B6
  8
DATA
  6
CONTINUOUS
 62
     7
 10
364.75609370853317
 20
1200.9296966692229
 30
0.0
 11
392.74310176335229
 21
1215.7463479923631
 31
0.0
  0
LINE
  5
7B7
  8
DATA
  6
CONTINUOUS
 62
     7
 10
35.987008054819398
 20
-300.0
 30
0.0
 11
361.01299194518089
 21
-300.0
 31
0.0
  0
LINE
  5
7B8
  8
DATA
  6
CONTINUOUS
 62
     7
 10
116.09925401357231
 20
-696.0
 30
0.0
 11
280.90074598642769
 21
-696.0
 31
0.0
  0
LINE
  5
7B9
  8
DATA
  6
CONTINUOUS
 62
     7
 10
397.0
 20
-322.81665132313952
 30
0.0
 11
397.0
 21
-420.44495752689789
 31
0.0
  0
LINE
  5
7BA
  8
DATA
  6
CONTINUOUS
 62
     7
 10
396.41747083653439
 20
-423.44181027422508
 30
0.0
 11
288.31821682296209
 21
-690.99685274732724
 31
0.0
  0
LINE
  5
7BB
  8
DATA
  6
CONTINUOUS
 62
     7
 10
0.0
 20
-322.81665132313952
 30
0.0
 11
0.0
 21
-420.44495752689761
 31
0.0
  0
LINE
  5
7BC
  8
DATA
  6
CONTINUOUS
 62
     7
 10
0.5825291634657788
 20
-423.44181027422491
 30
0.0
 11
108.6817831770381
 21
-690.99685274732724
 31
0.0
  0
LINE
  5
7BD
  8
DATA
  6
CONTINUOUS
 62
     7
 10
32.243906291467063
 20
-300.92969666922329
 30
0.0
 11
4.2568982366476567
 21
-315.74634799236293
 31
0.0
  0
LINE
  5
7BE
  8
DATA
  6
CONTINUOUS
 62
     7
 10
364.75609370853317
 20
-300.92969666922329
 30
0.0
 11
392.74310176335229
 21
-315.74634799236293
 31
0.0
  0
INSERT
  5
7BF
  8
DATA
 62
     7
  2
____-7
 10
1300.0
 20
1232.895514999999
 30
0.0
  0
INSERT
  5
7C0
  8
DATA
 62
     7
  2
____-8
 10
1300.0
 20
1232.895514999999
 30
0.0
  0
INSERT
  5
7C1
  8
DATA
 62
     7
  2
____-9
 10
1300.0
 20
1232.895514999999
 30
0.0
  0
INSERT
  5
7C2
  8
DATA
 62
     7
  2
____-10
 10
1300.0
 20
1232.895514999999
 30
0.0
  0
LINE
  5
7C3
  8
DATA
  6
CONTINUOUS
 62
     7
 10
608.0
 20
965.20000000000005
 30
0.0
 11
988.0
 21
965.20000000000005
 31
0.0
  0
LINE
  5
7C4
  8
DATA
  6
CONTINUOUS
 62
     7
 10
600.0
 20
957.20000000000005
 30
0.0
 11
600.0
 21
947.20000000000005
 31
0.0
  0
LINE
  5
7C5
  8
DATA
  6
CONTINUOUS
 62
     7
 10
996.0
 20
957.20000000000005
 30
0.0
 11
996.0
 21
8.0
 31
0.0
  0
LINE
  5
7C6
  8
DATA
  6
CONTINUOUS
 62
     7
 10
608.0
 20
0.0
 30
0.0
 11
988.0
 21
0.0
 31
0.0
  0
LINE
  5
7C7
  8
DATA
  6
CONTINUOUS
 62
     7
 10
618.0
 20
965.20000000000005
 30
0.0
 11
618.0
 21
0.0
 31
0.0
  0
LINE
  5
7C8
  8
DATA
  6
CONTINUOUS
 62
     7
 10
722.0
 20
965.20000000000005
 30
0.0
 11
722.0
 21
0.0
 31
0.0
  0
LINE
  5
7C9
  8
DATA
  6
CONTINUOUS
 62
     7
 10
600.0
 20
947.20000000000005
 30
0.0
 11
652.0
 21
947.20000000000005
 31
0.0
  0
LINE
  5
7CA
  8
DATA
  6
CONTINUOUS
 62
     7
 10
600.0
 20
16.0
 30
0.0
 11
652.0
 21
16.0
 31
0.0
  0
LINE
  5
7CB
  8
DATA
  6
CONTINUOUS
 62
     7
 10
600.0
 20
16.0
 30
0.0
 11
600.0
 21
8.0
 31
0.0
  0
LINE
  5
7CC
  8
DATA
  6
CONTINUOUS
 62
     7
 10
652.0
 20
947.20000000000005
 30
0.0
 11
652.0
 21
16.0
 31
0.0
  0
LINE
  5
7CD
  8
DATA
  6
CONTINUOUS
 62
     7
 10
602.0
 20
947.20000000000005
 30
0.0
 11
602.0
 21
16.0
 31
0.0
  0
LINE
  5
7CE
  8
DATA
  6
CONTINUOUS
 62
     7
 10
626.25
 20
-5.0
 30
0.0
 11
663.75
 21
-5.0
 31
0.0
  0
LINE
  5
7CF
  8
DATA
  6
CONTINUOUS
 62
     7
 10
626.25
 20
-5.0
 30
0.0
 11
626.25
 21
0.0
 31
0.0
  0
LINE
  5
7D0
  8
DATA
  6
CONTINUOUS
 62
     7
 10
663.75
 20
-5.0
 30
0.0
 11
663.75
 21
0.0
 31
0.0
  0
INSERT
  5
7D1
  8
DATA
 62
     7
  2
____-11
 10
1300.0
 20
1232.895514999999
 30
0.0
  0
INSERT
  5
7D2
  8
DATA
 62
     7
  2
____-12
 10
1300.0
 20
1232.895514999999
 30
0.0
  0
INSERT
  5
7D3
  8
DATA
 62
     7
  2
____-13
 10
1300.0
 20
1232.895514999999
 30
0.0
  0
INSERT
  5
7D4
  8
DATA
 62
     7
  2
____-14
 10
1300.0
 20
1232.895514999999
 30
0.0
  0
INSERT
  5
7D5
  8
DATA
 62
     7
  2
____-15
 10
1300.0
 20
1232.895514999999
 30
0.0
  0
INSERT
  5
7D6
  8
DATA
 62
     7
  2
____-16
 10
1300.0
 20
1232.895514999999
 30
0.0
  0
INSERT
  5
7D7
  8
DATA
 62
     7
  2
____-17
 10
1300.0
 20
1232.895514999999
 30
0.0
  0
LINE
  5
7D8
  8
DATA
  6
CONTINUOUS
 62
     7
 10
1200.0
 20
957.20000000000005
 30
0.0
 11
1200.0
 21
8.0
 31
0.0
  0
LINE
  5
7D9
  8
DATA
  6
CONTINUOUS
 62
     7
 10
1208.0
 20
965.20000000000005
 30
0.0
 11
1589.0
 21
965.20000000000005
 31
0.0
  0
LINE
  5
7DA
  8
DATA
  6
CONTINUOUS
 62
     7
 10
1597.0
 20
957.20000000000005
 30
0.0
 11
1597.0
 21
8.0
 31
0.0
  0
LINE
  5
7DB
  8
DATA
  6
CONTINUOUS
 62
     7
 10
1208.0
 20
0.0
 30
0.0
 11
1589.0
 21
0.0
 31
0.0
  0
LINE
  5
7DC
  8
DATA
  6
CONTINUOUS
 62
     7
 10
1310.703185878833
 20
965.20000000000005
 30
0.0
 11
1310.703185878833
 21
0.0
 31
0.0
  0
LINE
  5
7DD
  8
DATA
  6
CONTINUOUS
 62
     7
 10
1486.296814121167
 20
965.20000000000005
 30
0.0
 11
1486.296814121167
 21
0.0
 31
0.0
  0
LINE
  5
7DE
  8
DATA
  6
CONTINUOUS
 62
     7
 10
1213.7460659341591
 20
705.19999999999982
 30
0.0
 11
1255.637163360127
 21
705.19999999999982
 31
0.0
  0
LINE
  5
7DF
  8
DATA
  6
CONTINUOUS
 62
     7
 10
1213.7460659341591
 20
485.19999999999982
 30
0.0
 11
1255.637163360127
 21
485.19999999999982
 31
0.0
  0
LINE
  5
7E0
  8
DATA
  6
CONTINUOUS
 62
     7
 10
1203.7460659341591
 20
695.19999999999982
 30
0.0
 11
1203.7460659341591
 21
495.19999999999987
 31
0.0
  0
LINE
  5
7E1
  8
DATA
  6
CONTINUOUS
 62
     7
 10
1265.637163360127
 20
695.19999999999982
 30
0.0
 11
1265.637163360127
 21
495.19999999999987
 31
0.0
  0
LINE
  5
7E2
  8
DATA
  6
CONTINUOUS
 62
     7
 10
1214.2400070864819
 20
671.1999999999997
 30
0.0
 11
1214.2400070864819
 21
516.19999999999982
 31
0.0
  0
LINE
  5
7E3
  8
DATA
  6
CONTINUOUS
 62
     7
 10
1255.109860893363
 20
671.1999999999997
 30
0.0
 11
1255.109860893363
 21
516.19999999999982
 31
0.0
  0
LINE
  5
7E4
  8
DATA
  6
CONTINUOUS
 62
     7
 10
1222.2400070864819
 20
679.19999999999982
 30
0.0
 11
1247.109860893363
 21
679.19999999999982
 31
0.0
  0
LINE
  5
7E5
  8
DATA
  6
CONTINUOUS
 62
     7
 10
1222.2400070864819
 20
508.19999999999982
 30
0.0
 11
1247.109860893363
 21
508.19999999999982
 31
0.0
  0
LINE
  5
7E6
  8
DATA
  6
CONTINUOUS
 62
     7
 10
1214.2400070864819
 20
596.1999999999997
 30
0.0
 11
1255.109860893363
 21
596.1999999999997
 31
0.0
  0
LINE
  5
7E7
  8
DATA
  6
CONTINUOUS
 62
     7
 10
1214.2400070864819
 20
565.19999999999982
 30
0.0
 11
1255.109860893363
 21
565.19999999999982
 31
0.0
  0
LINE
  5
7E8
  8
DATA
  6
CONTINUOUS
 62
     7
 10
1214.2400070864819
 20
590.19999999999982
 30
0.0
 11
1255.109860893363
 21
590.19999999999982
 31
0.0
  0
LINE
  5
7E9
  8
DATA
  6
CONTINUOUS
 62
     7
 10
1214.2400070864819
 20
571.1999999999997
 30
0.0
 11
1255.109860893363
 21
571.1999999999997
 31
0.0
  0
CIRCLE
  5
7EA
  8
DATA
  6
CONTINUOUS
 62
     7
 10
1261.182606385333
 20
692.1999999999997
 30
0.0
 40
4.5000000000000222
  0
LINE
  5
7EB
  8
DATA
  6
CONTINUOUS
 62
     7
 10
1258.354179260587
 20
692.1999999999997
 30
0.0
 11
1264.011033510079
 21
692.1999999999997
 31
0.0
  0
LINE
  5
7EC
  8
DATA
  6
CONTINUOUS
 62
     7
 10
1261.182606385333
 20
695.02842712474592
 30
0.0
 11
1261.182606385333
 21
689.37157287525349
 31
0.0
  0
CIRCLE
  5
7ED
  8
DATA
  6
CONTINUOUS
 62
     7
 10
1261.182606385333
 20
627.19999999999982
 30
0.0
 40
4.5000000000000222
  0
LINE
  5
7EE
  8
DATA
  6
CONTINUOUS
 62
     7
 10
1258.354179260587
 20
627.19999999999982
 30
0.0
 11
1264.011033510079
 21
627.19999999999982
 31
0.0
  0
LINE
  5
7EF
  8
DATA
  6
CONTINUOUS
 62
     7
 10
1261.182606385333
 20
630.02842712474603
 30
0.0
 11
1261.182606385333
 21
624.37157287525361
 31
0.0
  0
CIRCLE
  5
7F0
  8
DATA
  6
CONTINUOUS
 62
     7
 10
1261.182606385333
 20
563.1999999999997
 30
0.0
 40
4.5000000000000639
  0
LINE
  5
7F1
  8
DATA
  6
CONTINUOUS
 62
     7
 10
1258.354179260587
 20
563.1999999999997
 30
0.0
 11
1264.011033510079
 21
563.1999999999997
 31
0.0
  0
LINE
  5
7F2
  8
DATA
  6
CONTINUOUS
 62
     7
 10
1261.182606385333
 20
566.02842712474614
 30
0.0
 11
1261.182606385333
 21
560.37157287525372
 31
0.0
  0
CIRCLE
  5
7F3
  8
DATA
  6
CONTINUOUS
 62
     7
 10
1261.182606385333
 20
498.19999999999982
 30
0.0
 40
4.5000000000001057
  0
LINE
  5
7F4
  8
DATA
  6
CONTINUOUS
 62
     7
 10
1258.354179260587
 20
498.19999999999982
 30
0.0
 11
1264.011033510079
 21
498.19999999999982
 31
0.0
  0
LINE
  5
7F5
  8
DATA
  6
CONTINUOUS
 62
     7
 10
1261.182606385333
 20
501.02842712474609
 30
0.0
 11
1261.182606385333
 21
495.37157287525361
 31
0.0
  0
CIRCLE
  5
7F6
  8
DATA
  6
CONTINUOUS
 62
     7
 10
1208.3531901568319
 20
692.1999999999997
 30
0.0
 40
4.5000000000000089
  0
LINE
  5
7F7
  8
DATA
  6
CONTINUOUS
 62
     7
 10
1205.524763032086
 20
692.1999999999997
 30
0.0
 11
1211.1816172815779
 21
692.1999999999997
 31
0.0
  0
LINE
  5
7F8
  8
DATA
  6
CONTINUOUS
 62
     7
 10
1208.3531901568319
 20
695.02842712474592
 30
0.0
 11
1208.3531901568319
 21
689.37157287525349
 31
0.0
  0
CIRCLE
  5
7F9
  8
DATA
  6
CONTINUOUS
 62
     7
 10
1208.3531901568319
 20
627.19999999999982
 30
0.0
 40
4.5000000000000089
  0
LINE
  5
7FA
  8
DATA
  6
CONTINUOUS
 62
     7
 10
1205.524763032086
 20
627.19999999999982
 30
0.0
 11
1211.1816172815779
 21
627.19999999999982
 31
0.0
  0
LINE
  5
7FB
  8
DATA
  6
CONTINUOUS
 62
     7
 10
1208.3531901568319
 20
630.02842712474603
 30
0.0
 11
1208.3531901568319
 21
624.37157287525361
 31
0.0
  0
CIRCLE
  5
7FC
  8
DATA
  6
CONTINUOUS
 62
     7
 10
1208.3531901568319
 20
563.1999999999997
 30
0.0
 40
4.5000000000000524
  0
LINE
  5
7FD
  8
DATA
  6
CONTINUOUS
 62
     7
 10
1205.524763032086
 20
563.1999999999997
 30
0.0
 11
1211.1816172815779
 21
563.1999999999997
 31
0.0
  0
LINE
  5
7FE
  8
DATA
  6
CONTINUOUS
 62
     7
 10
1208.3531901568319
 20
566.02842712474614
 30
0.0
 11
1208.3531901568319
 21
560.37157287525372
 31
0.0
  0
CIRCLE
  5
7FF
  8
DATA
  6
CONTINUOUS
 62
     7
 10
1208.3531901568319
 20
498.19999999999982
 30
0.0
 40
4.5000000000000941
  0
LINE
  5
800
  8
DATA
  6
CONTINUOUS
 62
     7
 10
1205.524763032086
 20
498.19999999999982
 30
0.0
 11
1211.1816172815779
 21
498.19999999999982
 31
0.0
  0
LINE
  5
801
  8
DATA
  6
CONTINUOUS
 62
     7
 10
1208.3531901568319
 20
501.02842712474609
 30
0.0
 11
1208.3531901568319
 21
495.37157287525361
 31
0.0
  0
CIRCLE
  5
802
  8
DATA
  6
CONTINUOUS
 62
     7
 10
1234.682606385333
 20
692.1999999999997
 30
0.0
 40
4.5000000000000089
  0
LINE
  5
803
  8
DATA
  6
CONTINUOUS
 62
     7
 10
1231.854179260587
 20
692.1999999999997
 30
0.0
 11
1237.511033510079
 21
692.1999999999997
 31
0.0
  0
LINE
  5
804
  8
DATA
  6
CONTINUOUS
 62
     7
 10
1234.682606385333
 20
695.02842712474592
 30
0.0
 11
1234.682606385333
 21
689.37157287525349
 31
0.0
  0
CIRCLE
  5
805
  8
DATA
  6
CONTINUOUS
 62
     7
 10
1234.682606385333
 20
498.19999999999982
 30
0.0
 40
4.5000000000000089
  0
LINE
  5
806
  8
DATA
  6
CONTINUOUS
 62
     7
 10
1231.854179260587
 20
498.19999999999982
 30
0.0
 11
1237.511033510079
 21
498.19999999999982
 31
0.0
  0
LINE
  5
807
  8
DATA
  6
CONTINUOUS
 62
     7
 10
1234.682606385333
 20
501.02842712474609
 30
0.0
 11
1234.682606385333
 21
495.37157287525361
 31
0.0
  0
ARC
  5
808
  8
DATA
  6
CONTINUOUS
 62
     7
 10
1213.7460659341591
 20
695.19999999999982
 30
0.0
 40
10.0
 50
90.0
 51
180.0
  0
ARC
  5
809
  8
DATA
  6
CONTINUOUS
 62
     7
 10
1255.637163360127
 20
695.19999999999982
 30
0.0
 40
10.000000000000011
 50
0.0
 51
90.0
  0
ARC
  5
80A
  8
DATA
  6
CONTINUOUS
 62
     7
 10
1213.7460659341591
 20
495.19999999999987
 30
0.0
 40
10.0
 50
180.0
 51
270.0
  0
ARC
  5
80B
  8
DATA
  6
CONTINUOUS
 62
     7
 10
1255.637163360127
 20
495.19999999999987
 30
0.0
 40
10.0
 50
270.0
 51
0.0
  0
ARC
  5
80C
  8
DATA
  6
CONTINUOUS
 62
     7
 10
1222.2400070864819
 20
671.1999999999997
 30
0.0
 40
8.0
 50
90.0
 51
180.0
  0
ARC
  5
80D
  8
DATA
  6
CONTINUOUS
 62
     7
 10
1247.109860893363
 20
671.1999999999997
 30
0.0
 40
8.0
 50
0.0
 51
90.0
  0
ARC
  5
80E
  8
DATA
  6
CONTINUOUS
 62
     7
 10
1222.2400070864819
 20
516.19999999999982
 30
0.0
 40
8.0000000000000142
 50
180.0
 51
270.0
  0
ARC
  5
80F
  8
DATA
  6
CONTINUOUS
 62
     7
 10
1247.109860893363
 20
516.19999999999982
 30
0.0
 40
8.0
 50
270.0
 51
0.0
  0
LINE
  5
810
  8
DATA
  6
CONTINUOUS
 62
     7
 10
1583.25393406584
 20
705.19999999999982
 30
0.0
 11
1541.362836639873
 21
705.19999999999982
 31
0.0
  0
LINE
  5
811
  8
DATA
  6
CONTINUOUS
 62
     7
 10
1583.25393406584
 20
485.19999999999982
 30
0.0
 11
1541.362836639873
 21
485.19999999999982
 31
0.0
  0
LINE
  5
812
  8
DATA
  6
CONTINUOUS
 62
     7
 10
1593.25393406584
 20
695.19999999999982
 30
0.0
 11
1593.25393406584
 21
495.19999999999987
 31
0.0
  0
LINE
  5
813
  8
DATA
  6
CONTINUOUS
 62
     7
 10
1531.362836639873
 20
695.19999999999982
 30
0.0
 11
1531.362836639873
 21
495.19999999999987
 31
0.0
  0
LINE
  5
814
  8
DATA
  6
CONTINUOUS
 62
     7
 10
1582.759992913517
 20
671.1999999999997
 30
0.0
 11
1582.759992913517
 21
516.19999999999982
 31
0.0
  0
LINE
  5
815
  8
DATA
  6
CONTINUOUS
 62
     7
 10
1541.8901391066361
 20
671.1999999999997
 30
0.0
 11
1541.8901391066361
 21
516.19999999999982
 31
0.0
  0
LINE
  5
816
  8
DATA
  6
CONTINUOUS
 62
     7
 10
1574.759992913517
 20
679.19999999999982
 30
0.0
 11
1549.8901391066361
 21
679.19999999999982
 31
0.0
  0
LINE
  5
817
  8
DATA
  6
CONTINUOUS
 62
     7
 10
1574.759992913517
 20
508.19999999999982
 30
0.0
 11
1549.8901391066361
 21
508.19999999999982
 31
0.0
  0
LINE
  5
818
  8
DATA
  6
CONTINUOUS
 62
     7
 10
1582.759992913517
 20
596.1999999999997
 30
0.0
 11
1541.8901391066361
 21
596.1999999999997
 31
0.0
  0
LINE
  5
819
  8
DATA
  6
CONTINUOUS
 62
     7
 10
1582.759992913517
 20
565.19999999999982
 30
0.0
 11
1541.8901391066361
 21
565.19999999999982
 31
0.0
  0
LINE
  5
81A
  8
DATA
  6
CONTINUOUS
 62
     7
 10
1582.759992913517
 20
590.19999999999982
 30
0.0
 11
1541.8901391066361
 21
590.19999999999982
 31
0.0
  0
LINE
  5
81B
  8
DATA
  6
CONTINUOUS
 62
     7
 10
1582.759992913517
 20
571.1999999999997
 30
0.0
 11
1541.8901391066361
 21
571.1999999999997
 31
0.0
  0
CIRCLE
  5
81C
  8
DATA
  6
CONTINUOUS
 62
     7
 10
1535.817393614667
 20
692.1999999999997
 30
0.0
 40
4.5000000000000089
  0
LINE
  5
81D
  8
DATA
  6
CONTINUOUS
 62
     7
 10
1538.645820739413
 20
692.1999999999997
 30
0.0
 11
1532.9889664899199
 21
692.1999999999997
 31
0.0
  0
LINE
  5
81E
  8
DATA
  6
CONTINUOUS
 62
     7
 10
1535.817393614667
 20
695.02842712474592
 30
0.0
 11
1535.817393614667
 21
689.37157287525349
 31
0.0
  0
CIRCLE
  5
81F
  8
DATA
  6
CONTINUOUS
 62
     7
 10
1535.817393614667
 20
627.19999999999982
 30
0.0
 40
4.5000000000000089
  0
LINE
  5
820
  8
DATA
  6
CONTINUOUS
 62
     7
 10
1538.645820739413
 20
627.19999999999982
 30
0.0
 11
1532.9889664899199
 21
627.19999999999982
 31
0.0
  0
LINE
  5
821
  8
DATA
  6
CONTINUOUS
 62
     7
 10
1535.817393614667
 20
630.02842712474603
 30
0.0
 11
1535.817393614667
 21
624.37157287525361
 31
0.0
  0
CIRCLE
  5
822
  8
DATA
  6
CONTINUOUS
 62
     7
 10
1535.817393614667
 20
563.1999999999997
 30
0.0
 40
4.5000000000000524
  0
LINE
  5
823
  8
DATA
  6
CONTINUOUS
 62
     7
 10
1538.645820739413
 20
563.1999999999997
 30
0.0
 11
1532.9889664899199
 21
563.1999999999997
 31
0.0
  0
LINE
  5
824
  8
DATA
  6
CONTINUOUS
 62
     7
 10
1535.817393614667
 20
566.02842712474614
 30
0.0
 11
1535.817393614667
 21
560.37157287525372
 31
0.0
  0
CIRCLE
  5
825
  8
DATA
  6
CONTINUOUS
 62
     7
 10
1535.817393614667
 20
498.19999999999982
 30
0.0
 40
4.5000000000000941
  0
LINE
  5
826
  8
DATA
  6
CONTINUOUS
 62
     7
 10
1538.645820739413
 20
498.19999999999982
 30
0.0
 11
1532.9889664899199
 21
498.19999999999982
 31
0.0
  0
LINE
  5
827
  8
DATA
  6
CONTINUOUS
 62
     7
 10
1535.817393614667
 20
501.02842712474609
 30
0.0
 11
1535.817393614667
 21
495.37157287525361
 31
0.0
  0
CIRCLE
  5
828
  8
DATA
  6
CONTINUOUS
 62
     7
 10
1588.6468098431681
 20
692.1999999999997
 30
0.0
 40
4.5000000000000089
  0
LINE
  5
829
  8
DATA
  6
CONTINUOUS
 62
     7
 10
1591.475236967914
 20
692.1999999999997
 30
0.0
 11
1585.8183827184221
 21
692.1999999999997
 31
0.0
  0
LINE
  5
82A
  8
DATA
  6
CONTINUOUS
 62
     7
 10
1588.6468098431681
 20
695.02842712474592
 30
0.0
 11
1588.6468098431681
 21
689.37157287525349
 31
0.0
  0
CIRCLE
  5
82B
  8
DATA
  6
CONTINUOUS
 62
     7
 10
1588.6468098431681
 20
627.19999999999982
 30
0.0
 40
4.5000000000000089
  0
LINE
  5
82C
  8
DATA
  6
CONTINUOUS
 62
     7
 10
1591.475236967914
 20
627.19999999999982
 30
0.0
 11
1585.8183827184221
 21
627.19999999999982
 31
0.0
  0
LINE
  5
82D
  8
DATA
  6
CONTINUOUS
 62
     7
 10
1588.6468098431681
 20
630.02842712474603
 30
0.0
 11
1588.6468098431681
 21
624.37157287525361
 31
0.0
  0
CIRCLE
  5
82E
  8
DATA
  6
CONTINUOUS
 62
     7
 10
1588.6468098431681
 20
563.1999999999997
 30
0.0
 40
4.5000000000000524
  0
LINE
  5
82F
  8
DATA
  6
CONTINUOUS
 62
     7
 10
1591.475236967914
 20
563.1999999999997
 30
0.0
 11
1585.8183827184221
 21
563.1999999999997
 31
0.0
  0
LINE
  5
830
  8
DATA
  6
CONTINUOUS
 62
     7
 10
1588.6468098431681
 20
566.02842712474614
 30
0.0
 11
1588.6468098431681
 21
560.37157287525372
 31
0.0
  0
CIRCLE
  5
831
  8
DATA
  6
CONTINUOUS
 62
     7
 10
1588.6468098431681
 20
498.19999999999982
 30
0.0
 40
4.5000000000000941
  0
LINE
  5
832
  8
DATA
  6
CONTINUOUS
 62
     7
 10
1591.475236967914
 20
498.19999999999982
 30
0.0
 11
1585.8183827184221
 21
498.19999999999982
 31
0.0
  0
LINE
  5
833
  8
DATA
  6
CONTINUOUS
 62
     7
 10
1588.6468098431681
 20
501.02842712474609
 30
0.0
 11
1588.6468098431681
 21
495.37157287525361
 31
0.0
  0
CIRCLE
  5
834
  8
DATA
  6
CONTINUOUS
 62
     7
 10
1562.317393614667
 20
692.1999999999997
 30
0.0
 40
4.5000000000000089
  0
LINE
  5
835
  8
DATA
  6
CONTINUOUS
 62
     7
 10
1565.145820739413
 20
692.1999999999997
 30
0.0
 11
1559.4889664899199
 21
692.1999999999997
 31
0.0
  0
LINE
  5
836
  8
DATA
  6
CONTINUOUS
 62
     7
 10
1562.317393614667
 20
695.02842712474592
 30
0.0
 11
1562.317393614667
 21
689.37157287525349
 31
0.0
  0
CIRCLE
  5
837
  8
DATA
  6
CONTINUOUS
 62
     7
 10
1562.317393614667
 20
498.19999999999982
 30
0.0
 40
4.5000000000000089
  0
LINE
  5
838
  8
DATA
  6
CONTINUOUS
 62
     7
 10
1565.145820739413
 20
498.19999999999982
 30
0.0
 11
1559.4889664899199
 21
498.19999999999982
 31
0.0
  0
LINE
  5
839
  8
DATA
  6
CONTINUOUS
 62
     7
 10
1562.317393614667
 20
501.02842712474609
 30
0.0
 11
1562.317393614667
 21
495.37157287525361
 31
0.0
  0
ARC
  5
83A
  8
DATA
  6
CONTINUOUS
 62
     7
 10
1583.25393406584
 20
695.19999999999982
 30
0.0
 40
10.0
 50
0.0
 51
90.0
  0
ARC
  5
83B
  8
DATA
  6
CONTINUOUS
 62
     7
 10
1541.362836639873
 20
695.19999999999982
 30
0.0
 40
10.0
 50
90.0
 51
180.0
  0
ARC
  5
83C
  8
DATA
  6
CONTINUOUS
 62
     7
 10
1583.25393406584
 20
495.19999999999987
 30
0.0
 40
10.0
 50
270.0
 51
0.0
  0
ARC
  5
83D
  8
DATA
  6
CONTINUOUS
 62
     7
 10
1541.362836639873
 20
495.19999999999987
 30
0.0
 40
10.0
 50
180.0
 51
270.0
  0
ARC
  5
83E
  8
DATA
  6
CONTINUOUS
 62
     7
 10
1574.759992913517
 20
671.1999999999997
 30
0.0
 40
8.0
 50
0.0
 51
90.0
  0
ARC
  5
83F
  8
DATA
  6
CONTINUOUS
 62
     7
 10
1549.8901391066361
 20
671.1999999999997
 30
0.0
 40
8.0
 50
90.0
 51
180.0
  0
ARC
  5
840
  8
DATA
  6
CONTINUOUS
 62
     7
 10
1574.759992913517
 20
516.19999999999982
 30
0.0
 40
8.0
 50
270.0
 51
0.0
  0
ARC
  5
841
  8
DATA
  6
CONTINUOUS
 62
     7
 10
1549.8901391066361
 20
516.19999999999982
 30
0.0
 40
8.0
 50
180.0
 51
270.0
  0
CIRCLE
  5
842
  8
DATA
  6
CONTINUOUS
 62
     7
 10
1451.855
 20
248.19999999999999
 30
0.0
 40
3.5
  0
LINE
  5
843
  8
DATA
  6
CONTINUOUS
 62
     7
 10
1451.855
 20
250.19999999999999
 30
0.0
 11
1451.855
 21
246.19999999999999
 31
0.0
  0
LINE
  5
844
  8
DATA
  6
CONTINUOUS
 62
     7
 10
1449.855
 20
248.19999999999999
 30
0.0
 11
1453.855
 21
248.19999999999999
 31
0.0
  0
CIRCLE
  5
845
  8
DATA
  6
CONTINUOUS
 62
     7
 10
1451.855
 20
155.19999999999979
 30
0.0
 40
3.5
  0
LINE
  5
846
  8
DATA
  6
CONTINUOUS
 62
     7
 10
1451.855
 20
157.19999999999979
 30
0.0
 11
1451.855
 21
153.19999999999979
 31
0.0
  0
LINE
  5
847
  8
DATA
  6
CONTINUOUS
 62
     7
 10
1449.855
 20
155.19999999999979
 30
0.0
 11
1453.855
 21
155.19999999999979
 31
0.0
  0
CIRCLE
  5
848
  8
DATA
  6
CONTINUOUS
 62
     7
 10
1451.855
 20
341.19999999999987
 30
0.0
 40
3.5
  0
LINE
  5
849
  8
DATA
  6
CONTINUOUS
 62
     7
 10
1451.855
 20
343.19999999999987
 30
0.0
 11
1451.855
 21
339.19999999999987
 31
0.0
  0
LINE
  5
84A
  8
DATA
  6
CONTINUOUS
 62
     7
 10
1449.855
 20
341.19999999999987
 30
0.0
 11
1453.855
 21
341.19999999999987
 31
0.0
  0
CIRCLE
  5
84B
  8
DATA
  6
CONTINUOUS
 62
     7
 10
1346.355
 20
248.19999999999999
 30
0.0
 40
3.5
  0
LINE
  5
84C
  8
DATA
  6
CONTINUOUS
 62
     7
 10
1346.355
 20
250.19999999999999
 30
0.0
 11
1346.355
 21
246.19999999999999
 31
0.0
  0
LINE
  5
84D
  8
DATA
  6
CONTINUOUS
 62
     7
 10
1344.355
 20
248.19999999999999
 30
0.0
 11
1348.355
 21
248.19999999999999
 31
0.0
  0
CIRCLE
  5
84E
  8
DATA
  6
CONTINUOUS
 62
     7
 10
1346.355
 20
155.19999999999979
 30
0.0
 40
3.5
  0
LINE
  5
84F
  8
DATA
  6
CONTINUOUS
 62
     7
 10
1346.355
 20
157.19999999999979
 30
0.0
 11
1346.355
 21
153.19999999999979
 31
0.0
  0
LINE
  5
850
  8
DATA
  6
CONTINUOUS
 62
     7
 10
1344.355
 20
155.19999999999979
 30
0.0
 11
1348.355
 21
155.19999999999979
 31
0.0
  0
CIRCLE
  5
851
  8
DATA
  6
CONTINUOUS
 62
     7
 10
1346.355
 20
341.19999999999987
 30
0.0
 40
3.5
  0
LINE
  5
852
  8
DATA
  6
CONTINUOUS
 62
     7
 10
1346.355
 20
343.19999999999987
 30
0.0
 11
1346.355
 21
339.19999999999987
 31
0.0
  0
LINE
  5
853
  8
DATA
  6
CONTINUOUS
 62
     7
 10
1344.355
 20
341.19999999999987
 30
0.0
 11
1348.355
 21
341.19999999999987
 31
0.0
  0
POLYLINE
  5
854
  8
DATA
  6
CONTINUOUS
 62
     7
 66
     1
 10
0.0
 20
0.0
 30
0.0
 70
   129
  0
VERTEX
  5
9A0
  8
DATA
  6
CONTINUOUS
 62
     7
 10
1392.649110867548
 20
212.1999994820813
 30
0.0
 42
-0.4142135623730951
  0
VERTEX
  5
9A1
  8
DATA
  6
CONTINUOUS
 62
     7
 10
1394.649110867548
 20
214.1999994820813
 30
0.0
  0
VERTEX
  5
9A2
  8
DATA
  6
CONTINUOUS
 62
     7
 10
1402.649110867548
 20
214.1999994820813
 30
0.0
 42
-0.4142135623731117
  0
VERTEX
  5
9A3
  8
DATA
  6
CONTINUOUS
 62
     7
 10
1404.649110867548
 20
212.1999994820813
 30
0.0
  0
VERTEX
  5
9A4
  8
DATA
  6
CONTINUOUS
 62
     7
 10
1404.649110867548
 20
204.19999948208121
 30
0.0
 42
-0.4142135623730951
  0
VERTEX
  5
9A5
  8
DATA
  6
CONTINUOUS
 62
     7
 10
1402.649110867548
 20
202.19999948208121
 30
0.0
  0
VERTEX
  5
9A6
  8
DATA
  6
CONTINUOUS
 62
     7
 10
1394.649110867548
 20
202.19999948208121
 30
0.0
 42
-0.4142135623730784
  0
VERTEX
  5
9A7
  8
DATA
  6
CONTINUOUS
 62
     7
 10
1392.649110867548
 20
204.19999948208121
 30
0.0
  0
SEQEND
  5
9A8
  8
DATA
  6
CONTINUOUS
 62
     7
  0
POLYLINE
  5
85E
  8
DATA
  6
CONTINUOUS
 62
     7
 66
     1
 10
0.0
 20
0.0
 30
0.0
 70
     1
  0
VERTEX
  5
9A9
  8
DATA
  6
CONTINUOUS
 62
     7
 10
1394.149110867548
 20
212.6999994820813
 30
0.0
  0
VERTEX
  5
9AA
  8
DATA
  6
CONTINUOUS
 62
     7
 10
1403.149110867548
 20
212.6999994820813
 30
0.0
  0
VERTEX
  5
9AB
  8
DATA
  6
CONTINUOUS
 62
     7
 10
1403.149110867548
 20
209.6999994820813
 30
0.0
  0
VERTEX
  5
9AC
  8
DATA
  6
CONTINUOUS
 62
     7
 10
1394.149110867548
 20
209.6999994820813
 30
0.0
  0
SEQEND
  5
9AD
  8
DATA
  6
CONTINUOUS
 62
     7
  0
LINE
  5
864
  8
DATA
  6
CONTINUOUS
 62
     7
 10
1346.0608891324521
 20
347.19999999999987
 30
0.0
 11
1450.9391108675479
 21
347.19999999999987
 31
0.0
  0
LINE
  5
865
  8
DATA
  6
CONTINUOUS
 62
     7
 10
1338.0608891324521
 20
339.19999999999987
 30
0.0
 11
1338.0608891324521
 21
157.19999999999979
 31
0.0
  0
LINE
  5
866
  8
DATA
  6
CONTINUOUS
 62
     7
 10
1458.9391108675479
 20
339.19999999999987
 30
0.0
 11
1458.9391108675479
 21
157.19999999999979
 31
0.0
  0
LINE
  5
867
  8
DATA
  6
CONTINUOUS
 62
     7
 10
1450.9391108675479
 20
149.19999999999979
 30
0.0
 11
1346.0608891324521
 21
149.19999999999979
 31
0.0
  0
LINE
  5
868
  8
DATA
  6
CONTINUOUS
 62
     7
 10
1358.649110867548
 20
332.19999999999987
 30
0.0
 11
1438.649110867548
 21
332.19999999999987
 31
0.0
  0
LINE
  5
869
  8
DATA
  6
CONTINUOUS
 62
     7
 10
1354.649110867548
 20
328.19999999999999
 30
0.0
 11
1354.649110867548
 21
168.19999999999979
 31
0.0
  0
LINE
  5
86A
  8
DATA
  6
CONTINUOUS
 62
     7
 10
1358.649110867548
 20
164.19999999999979
 30
0.0
 11
1438.649110867548
 21
164.19999999999979
 31
0.0
  0
LINE
  5
86B
  8
DATA
  6
CONTINUOUS
 62
     7
 10
1442.649110867548
 20
328.19999999999999
 30
0.0
 11
1442.649110867548
 21
168.19999999999979
 31
0.0
  0
LINE
  5
86C
  8
DATA
  6
CONTINUOUS
 62
     7
 10
1389.149110867548
 20
220.69999948208121
 30
0.0
 11
1408.149110867548
 21
220.69999948208121
 31
0.0
  0
LINE
  5
86D
  8
DATA
  6
CONTINUOUS
 62
     7
 10
1408.149110867548
 20
195.69999948208121
 30
0.0
 11
1408.149110867548
 21
220.69999948208121
 31
0.0
  0
LINE
  5
86E
  8
DATA
  6
CONTINUOUS
 62
     7
 10
1389.149110867548
 20
195.69999948208121
 30
0.0
 11
1389.149110867548
 21
220.69999948208121
 31
0.0
  0
LINE
  5
86F
  8
DATA
  6
CONTINUOUS
 62
     7
 10
1389.149110867548
 20
195.69999948208121
 30
0.0
 11
1408.149110867548
 21
195.69999948208121
 31
0.0
  0
ARC
  5
870
  8
DATA
  6
CONTINUOUS
 62
     7
 10
1346.0608891324521
 20
339.19999999999987
 30
0.0
 40
8.0
 50
90.0
 51
180.0
  0
ARC
  5
871
  8
DATA
  6
CONTINUOUS
 62
     7
 10
1346.0608891324521
 20
157.19999999999979
 30
0.0
 40
8.0
 50
180.0
 51
270.0
  0
ARC
  5
872
  8
DATA
  6
CONTINUOUS
 62
     7
 10
1450.9391108675479
 20
157.19999999999979
 30
0.0
 40
8.0
 50
270.0
 51
0.0
  0
ARC
  5
873
  8
DATA
  6
CONTINUOUS
 62
     7
 10
1450.9391108675479
 20
339.19999999999987
 30
0.0
 40
8.0
 50
0.0
 51
90.0
  0
ARC
  5
874
  8
DATA
  6
CONTINUOUS
 62
     7
 10
1358.649110867548
 20
328.19999999999999
 30
0.0
 40
4.0
 50
90.0
 51
180.0
  0
ARC
  5
875
  8
DATA
  6
CONTINUOUS
 62
     7
 10
1358.649110867548
 20
168.19999999999979
 30
0.0
 40
4.0
 50
180.0
 51
270.0
  0
ARC
  5
876
  8
DATA
  6
CONTINUOUS
 62
     7
 10
1438.649110867548
 20
168.19999999999979
 30
0.0
 40
4.0
 50
270.0
 51
0.0
  0
ARC
  5
877
  8
DATA
  6
CONTINUOUS
 62
     7
 10
1438.649110867548
 20
328.19999999999999
 30
0.0
 40
4.0
 50
0.0
 51
90.0
  0
INSERT
  5
878
  8
DATA
 62
     7
  2
____-18
 10
1300.0
 20
1232.895514999999
 30
0.0
  0
INSERT
  5
879
  8
DATA
 62
     7
  2
____-19
 10
1300.0
 20
1232.895514999999
 30
0.0
  0
INSERT
  5
87A
  8
DATA
 62
     7
  2
____-20
 10
1300.0
 20
1232.895514999999
 30
0.0
  0
INSERT
  5
87B
  8
DATA
 62
     7
  2
____-21
 10
1300.0
 20
1232.895514999999
 30
0.0
  0
ARC
  5
87C
  8
DATA
  6
CONTINUOUS
 62
     7
 10
8.0
 20
957.20000000000005
 30
0.0
 40
8.0
 50
90.0
 51
180.0
  0
ARC
  5
87D
  8
DATA
  6
CONTINUOUS
 62
     7
 10
389.0
 20
957.20000000000005
 30
0.0
 40
8.0
 50
0.0
 51
90.0
  0
ARC
  5
87E
  8
DATA
  6
CONTINUOUS
 62
     7
 10
8.0
 20
8.0
 30
0.0
 40
8.0
 50
180.0
 51
270.0
  0
ARC
  5
87F
  8
DATA
  6
CONTINUOUS
 62
     7
 10
389.0
 20
8.0
 30
0.0
 40
8.0
 50
270.0
 51
0.0
  0
ARC
  5
880
  8
DATA
  6
CONTINUOUS
 62
     7
 10
8.0
 20
-322.81665132313969
 30
0.0
 40
8.0000000000003286
 50
117.897271030947
 51
179.99999999999829
  0
ARC
  5
881
  8
DATA
  6
CONTINUOUS
 62
     7
 10
8.0000000000002274
 20
-420.44495752689789
 30
0.0
 40
8.0000000000002274
 50
179.99999999999829
 51
201.9999999999977
  0
ARC
  5
882
  8
DATA
  6
CONTINUOUS
 62
     7
 10
35.987008054818723
 20
-308.00000000000028
 30
0.0
 40
8.0000000000002274
 50
89.999999999995083
 51
117.8972710309427
  0
ARC
  5
883
  8
DATA
  6
CONTINUOUS
 62
     7
 10
116.09925401357209
 20
-688.0
 30
0.0
 40
7.9999999999996936
 50
202.0000000000004
 51
270.00000000000159
  0
ARC
  5
884
  8
DATA
  6
CONTINUOUS
 62
     7
 10
280.90074598642758
 20
-688.00000000000011
 30
0.0
 40
7.9999999999997717
 50
270.0000000000008
 51
338.00000000000227
  0
ARC
  5
885
  8
DATA
  6
CONTINUOUS
 62
     7
 10
389.0
 20
-420.44495752689789
 30
0.0
 40
8.0000000000000089
 50
338.0000000000004
 51
0.0
  0
ARC
  5
886
  8
DATA
  6
CONTINUOUS
 62
     7
 10
389.0
 20
-322.81665132313918
 30
0.0
 40
8.0000000000001137
 50
359.99999999999841
 51
62.102728969051441
  0
ARC
  5
887
  8
DATA
  6
CONTINUOUS
 62
     7
 10
361.01299194518077
 20
-308.0
 30
0.0
 40
8.0000000000001261
 50
62.102728969052201
 51
89.999999999999176
  0
ARC
  5
888
  8
DATA
  6
CONTINUOUS
 62
     7
 10
116.09925401357231
 20
1588.0
 30
0.0
 40
8.0000000000000568
 50
90.0
 51
157.9999999999994
  0
ARC
  5
889
  8
DATA
  6
CONTINUOUS
 62
     7
 10
280.90074598642741
 20
1588.0
 30
0.0
 40
8.0000000000001368
 50
21.999999999999599
 51
89.999999999999176
  0
ARC
  5
88A
  8
DATA
  6
CONTINUOUS
 62
     7
 10
8.0
 20
1320.444957526897
 30
0.0
 40
8.0000000000002167
 50
157.99999999999471
 51
179.99999999999449
  0
ARC
  5
88B
  8
DATA
  6
CONTINUOUS
 62
     7
 10
8.0000000000002274
 20
1222.816651323139
 30
0.0
 40
8.0000000000002274
 50
179.99999999999881
 51
242.10272896904991
  0
ARC
  5
88C
  8
DATA
  6
CONTINUOUS
 62
     7
 10
35.987008054819171
 20
1208.0
 30
0.0
 40
8.0000000000001457
 50
242.10272896905039
 51
269.99999999999841
  0
ARC
  5
88D
  8
DATA
  6
CONTINUOUS
 62
     7
 10
361.01299194518089
 20
1208.0
 30
0.0
 40
8.0000000000000142
 50
270.0
 51
297.89727103094742
  0
ARC
  5
88E
  8
DATA
  6
CONTINUOUS
 62
     7
 10
389.0
 20
1222.816651323139
 30
0.0
 40
8.0000000000000497
 50
297.89727103094719
 51
359.9999999999996
  0
ARC
  5
88F
  8
DATA
  6
CONTINUOUS
 62
     7
 10
389.0
 20
1320.444957526897
 30
0.0
 40
7.9999999999998863
 50
0.0000000000014211
 51
22.000000000001531
  0
ARC
  5
890
  8
DATA
  6
CONTINUOUS
 62
     7
 10
608.0
 20
957.20000000000005
 30
0.0
 40
8.0
 50
90.0
 51
180.0
  0
ARC
  5
891
  8
DATA
  6
CONTINUOUS
 62
     7
 10
988.0
 20
957.20000000000005
 30
0.0
 40
8.0
 50
0.0
 51
90.0
  0
ARC
  5
892
  8
DATA
  6
CONTINUOUS
 62
     7
 10
608.0
 20
8.0
 30
0.0
 40
8.0
 50
180.0
 51
270.0
  0
ARC
  5
893
  8
DATA
  6
CONTINUOUS
 62
     7
 10
988.0
 20
8.0
 30
0.0
 40
8.0
 50
270.0
 51
0.0
  0
ARC
  5
894
  8
DATA
  6
CONTINUOUS
 62
     7
 10
1208.0
 20
957.20000000000005
 30
0.0
 40
8.0
 50
90.0
 51
180.0
  0
ARC
  5
895
  8
DATA
  6
CONTINUOUS
 62
     7
 10
1589.0
 20
957.20000000000005
 30
0.0
 40
8.0
 50
0.0
 51
90.0
  0
ARC
  5
896
  8
DATA
  6
CONTINUOUS
 62
     7
 10
1208.0
 20
8.0
 30
0.0
 40
8.0
 50
180.0
 51
270.0
  0
ARC
  5
897
  8
DATA
  6
CONTINUOUS
 62
     7
 10
1589.0
 20
8.0
 30
0.0
 40
8.0
 50
270.0
 51
0.0
  0
LINE
  5
898
  8
DATA
  6
CONTINUOUS
 62
     7
 10
2012.593476071035
 20
550.0
 30
0.0
 11
2712.5934760710352
 21
550.0
 31
0.0
  0
TEXT
  5
899
  8
DATA
 62
     7
 10
2059.2026809238632
 20
571.45507812500011
 30
0.0
 40
45.46546936035157
  1
コネクターパネル拡大図
 41
0.8
 11
2059.2026809238632
 21
616.92054748535168
 31
0.0
 73
     3
  0
CIRCLE
  5
89A
  8
DATA
  6
CONTINUOUS
 62
     7
 10
2682.764665205289
 20
-90.000000000000455
 30
0.0
 40
21.0
  0
LINE
  5
89B
  8
DATA
  6
CONTINUOUS
 62
     7
 10
2682.764665205289
 20
-78.000000000000455
 30
0.0
 11
2682.764665205289
 21
-102.0000000000004
 31
0.0
  0
LINE
  5
89C
  8
DATA
  6
CONTINUOUS
 62
     7
 10
2670.764665205289
 20
-90.000000000000455
 30
0.0
 11
2694.764665205289
 21
-90.000000000000455
 31
0.0
  0
CIRCLE
  5
89D
  8
DATA
  6
CONTINUOUS
 62
     7
 10
2682.764665205289
 20
-648.00000000000045
 30
0.0
 40
21.0
  0
LINE
  5
89E
  8
DATA
  6
CONTINUOUS
 62
     7
 10
2682.764665205289
 20
-636.00000000000045
 30
0.0
 11
2682.764665205289
 21
-660.00000000000045
 31
0.0
  0
LINE
  5
89F
  8
DATA
  6
CONTINUOUS
 62
     7
 10
2670.764665205289
 20
-648.00000000000045
 30
0.0
 11
2694.764665205289
 21
-648.00000000000045
 31
0.0
  0
CIRCLE
  5
8A0
  8
DATA
  6
CONTINUOUS
 62
     7
 10
2682.764665205289
 20
468.00000000000011
 30
0.0
 40
21.0
  0
LINE
  5
8A1
  8
DATA
  6
CONTINUOUS
 62
     7
 10
2682.764665205289
 20
480.00000000000011
 30
0.0
 11
2682.764665205289
 21
456.00000000000011
 31
0.0
  0
LINE
  5
8A2
  8
DATA
  6
CONTINUOUS
 62
     7
 10
2670.764665205289
 20
468.00000000000011
 30
0.0
 11
2694.764665205289
 21
468.00000000000011
 31
0.0
  0
CIRCLE
  5
8A3
  8
DATA
  6
CONTINUOUS
 62
     7
 10
2049.764665205289
 20
-90.000000000000455
 30
0.0
 40
21.0
  0
LINE
  5
8A4
  8
DATA
  6
CONTINUOUS
 62
     7
 10
2049.764665205289
 20
-78.000000000000455
 30
0.0
 11
2049.764665205289
 21
-102.0000000000004
 31
0.0
  0
LINE
  5
8A5
  8
DATA
  6
CONTINUOUS
 62
     7
 10
2037.764665205289
 20
-90.000000000000455
 30
0.0
 11
2061.764665205289
 21
-90.000000000000455
 31
0.0
  0
CIRCLE
  5
8A6
  8
DATA
  6
CONTINUOUS
 62
     7
 10
2049.764665205289
 20
-648.00000000000045
 30
0.0
 40
21.0
  0
LINE
  5
8A7
  8
DATA
  6
CONTINUOUS
 62
     7
 10
2049.764665205289
 20
-636.00000000000045
 30
0.0
 11
2049.764665205289
 21
-660.00000000000045
 31
0.0
  0
LINE
  5
8A8
  8
DATA
  6
CONTINUOUS
 62
     7
 10
2037.764665205289
 20
-648.00000000000045
 30
0.0
 11
2061.764665205289
 21
-648.00000000000045
 31
0.0
  0
CIRCLE
  5
8A9
  8
DATA
  6
CONTINUOUS
 62
     7
 10
2049.764665205289
 20
468.00000000000011
 30
0.0
 40
21.0
  0
LINE
  5
8AA
  8
DATA
  6
CONTINUOUS
 62
     7
 10
2049.764665205289
 20
480.00000000000011
 30
0.0
 11
2049.764665205289
 21
456.00000000000011
 31
0.0
  0
LINE
  5
8AB
  8
DATA
  6
CONTINUOUS
 62
     7
 10
2037.764665205289
 20
468.00000000000011
 30
0.0
 11
2061.764665205289
 21
468.00000000000011
 31
0.0
  0
POLYLINE
  5
8AC
  8
DATA
  6
CONTINUOUS
 62
     7
 66
     1
 10
0.0
 20
0.0
 30
0.0
 70
   129
  0
VERTEX
  5
9AE
  8
DATA
  6
CONTINUOUS
 62
     7
 10
2327.529330410578
 20
-306.00000310751187
 30
0.0
 42
-0.4142135623730951
  0
VERTEX
  5
9AF
  8
DATA
  6
CONTINUOUS
 62
     7
 10
2339.529330410578
 20
-294.00000310751187
 30
0.0
  0
VERTEX
  5
9B0
  8
DATA
  6
CONTINUOUS
 62
     7
 10
2387.529330410578
 20
-294.00000310751187
 30
0.0
 42
-0.4142135623730895
  0
VERTEX
  5
9B1
  8
DATA
  6
CONTINUOUS
 62
     7
 10
2399.529330410578
 20
-306.00000310751187
 30
0.0
  0
VERTEX
  5
9B2
  8
DATA
  6
CONTINUOUS
 62
     7
 10
2399.529330410578
 20
-354.00000310751187
 30
0.0
 42
-0.4142135623730951
  0
VERTEX
  5
9B3
  8
DATA
  6
CONTINUOUS
 62
     7
 10
2387.529330410578
 20
-366.00000310751187
 30
0.0
  0
VERTEX
  5
9B4
  8
DATA
  6
CONTINUOUS
 62
     7
 10
2339.529330410578
 20
-366.00000310751187
 30
0.0
 42
-0.4142135623730951
  0
VERTEX
  5
9B5
  8
DATA
  6
CONTINUOUS
 62
     7
 10
2327.529330410578
 20
-354.00000310751187
 30
0.0
  0
SEQEND
  5
9B6
  8
DATA
  6
CONTINUOUS
 62
     7
  0
POLYLINE
  5
8B6
  8
DATA
  6
CONTINUOUS
 62
     7
 66
     1
 10
0.0
 20
0.0
 30
0.0
 70
     1
  0
VERTEX
  5
9B7
  8
DATA
  6
CONTINUOUS
 62
     7
 10
2336.529330410578
 20
-303.00000310751187
 30
0.0
  0
VERTEX
  5
9B8
  8
DATA
  6
CONTINUOUS
 62
     7
 10
2390.529330410578
 20
-303.00000310751187
 30
0.0
  0
VERTEX
  5
9B9
  8
DATA
  6
CONTINUOUS
 62
     7
 10
2390.529330410578
 20
-321.00000310751187
 30
0.0
  0
VERTEX
  5
9BA
  8
DATA
  6
CONTINUOUS
 62
     7
 10
2336.529330410578
 20
-321.00000310751187
 30
0.0
  0
SEQEND
  5
9BB
  8
DATA
  6
CONTINUOUS
 62
     7
  0
LINE
  5
8BC
  8
DATA
  6
CONTINUOUS
 62
     7
 10
2048.0
 20
504.00000000000011
 30
0.0
 11
2677.2693304105778
 21
504.00000000000011
 31
0.0
  0
LINE
  5
8BD
  8
DATA
  6
CONTINUOUS
 62
     7
 10
2000.0
 20
456.00000000000011
 30
0.0
 11
2000.0
 21
-636.00000000000045
 31
0.0
  0
LINE
  5
8BE
  8
DATA
  6
CONTINUOUS
 62
     7
 10
2725.2693304105778
 20
456.00000000000011
 30
0.0
 11
2725.2693304105778
 21
-636.00000000000045
 31
0.0
  0
LINE
  5
8BF
  8
DATA
  6
CONTINUOUS
 62
     7
 10
2677.2693304105778
 20
-684.00000000000057
 30
0.0
 11
2048.0
 21
-684.00000000000057
 31
0.0
  0
LINE
  5
8C0
  8
DATA
  6
CONTINUOUS
 62
     7
 10
2123.529330410578
 20
414.00000000000011
 30
0.0
 11
2603.529330410578
 21
414.00000000000011
 31
0.0
  0
LINE
  5
8C1
  8
DATA
  6
CONTINUOUS
 62
     7
 10
2099.529330410578
 20
390.00000000000023
 30
0.0
 11
2099.529330410578
 21
-570.00000000000045
 31
0.0
  0
LINE
  5
8C2
  8
DATA
  6
CONTINUOUS
 62
     7
 10
2123.529330410578
 20
-594.00000000000045
 30
0.0
 11
2603.529330410578
 21
-594.00000000000045
 31
0.0
  0
LINE
  5
8C3
  8
DATA
  6
CONTINUOUS
 62
     7
 10
2627.529330410578
 20
390.00000000000023
 30
0.0
 11
2627.529330410578
 21
-570.00000000000045
 31
0.0
  0
LINE
  5
8C4
  8
DATA
  6
CONTINUOUS
 62
     7
 10
2306.529330410578
 20
-255.00000310751199
 30
0.0
 11
2420.529330410578
 21
-255.00000310751199
 31
0.0
  0
LINE
  5
8C5
  8
DATA
  6
CONTINUOUS
 62
     7
 10
2420.529330410578
 20
-405.00000310751187
 30
0.0
 11
2420.529330410578
 21
-255.00000310751199
 31
0.0
  0
LINE
  5
8C6
  8
DATA
  6
CONTINUOUS
 62
     7
 10
2306.529330410578
 20
-405.00000310751187
 30
0.0
 11
2306.529330410578
 21
-255.00000310751199
 31
0.0
  0
LINE
  5
8C7
  8
DATA
  6
CONTINUOUS
 62
     7
 10
2306.529330410578
 20
-405.00000310751187
 30
0.0
 11
2420.529330410578
 21
-405.00000310751187
 31
0.0
  0
ARC
  5
8C8
  8
DATA
  6
CONTINUOUS
 62
     7
 10
2048.0
 20
456.00000000000011
 30
0.0
 40
48.0
 50
90.0
 51
180.0
  0
ARC
  5
8C9
  8
DATA
  6
CONTINUOUS
 62
     7
 10
2048.0
 20
-636.00000000000045
 30
0.0
 40
48.0
 50
180.0
 51
270.0
  0
ARC
  5
8CA
  8
DATA
  6
CONTINUOUS
 62
     7
 10
2677.2693304105778
 20
-636.00000000000045
 30
0.0
 40
48.0
 50
270.0
 51
0.0
  0
ARC
  5
8CB
  8
DATA
  6
CONTINUOUS
 62
     7
 10
2677.2693304105778
 20
456.00000000000011
 30
0.0
 40
48.0
 50
0.0
 51
90.0
  0
ARC
  5
8CC
  8
DATA
  6
CONTINUOUS
 62
     7
 10
2123.529330410578
 20
390.00000000000023
 30
0.0
 40
24.0
 50
90.0
 51
180.0
  0
ARC
  5
8CD
  8
DATA
  6
CONTINUOUS
 62
     7
 10
2123.529330410578
 20
-570.00000000000045
 30
0.0
 40
24.0
 50
180.0
 51
270.0
  0
ARC
  5
8CE
  8
DATA
  6
CONTINUOUS
 62
     7
 10
2603.529330410578
 20
-570.00000000000045
 30
0.0
 40
24.0
 50
270.0
 51
0.0
  0
ARC
  5
8CF
  8
DATA
  6
CONTINUOUS
 62
     7
 10
2603.529330410578
 20
390.00000000000023
 30
0.0
 40
24.0
 50
0.0
 51
90.0
  0
TEXT
  5
8D0
  8
DATA
 62
     7
 10
2146.4722222222231
 20
295.27802222222238
 30
0.0
 40
35.182968750000001
  1
SRX722
 41
0.8
 11
2146.4722222222231
 21
330.46099097222242
 31
0.0
 73
     3
  0
TEXT
  5
8D1
  8
DATA
 62
     7
 10
2146.4722222222231
 20
-117.7899999999994
 30
0.0
 40
32.576822916666671
  1
PASSIVE
 41
0.8
 11
2146.4722222222231
 21
-85.213177083332766
 31
0.0
 73
     3
  0
TEXT
  5
8D2
  8
DATA
 62
     7
 10
2142.6622222222222
 20
-155.8900000000003
 30
0.0
 40
27.147352430555561
  1
±1 IN:4Ω
 41
0.8
 11
2142.6622222222222
 21
-128.7426475694447
 31
0.0
 73
     3
  0
TEXT
  5
8D3
  8
DATA
 62
     7
 10
2142.6622222222222
 20
-192.9616666666669
 30
0.0
 40
27.147352430555561
  1
±2 N/C
 41
0.8
 11
2142.6622222222222
 21
-165.81431423611139
 31
0.0
 73
     3
  0
TEXT
  5
8D4
  8
DATA
 62
     7
 10
2433.632217377557
 20
-116.5299999999996
 30
0.0
 40
32.576822916666671
  1
BI-AMP
 41
0.8
 11
2433.632217377557
 21
-83.953177083332989
 31
0.0
 73
     3
  0
TEXT
  5
8D5
  8
DATA
 62
     7
 10
2429.8222173775571
 20
-154.63000000000051
 30
0.0
 40
27.147352430555561
  1
±1 LF:4Ω
 41
0.8
 11
2429.8222173775571
 21
-127.48264756944489
 31
0.0
 73
     3
  0
TEXT
  5
8D6
  8
DATA
 62
     7
 10
2429.8222173775571
 20
-191.70166666666671
 30
0.0
 40
27.147352430555561
  1
±2 HF:8Ω
 41
0.8
 11
2429.8222173775571
 21
-164.5543142361112
 31
0.0
 73
     3
  0
TEXT
  5
8D7
  8
DATA
 62
     7
 10
2293.2944492891111
 20
-246.88944444444439
 30
0.0
 40
32.576822916666671
  1
PASSIVE
 41
0.8
 11
2293.2944492891111
 21
-214.31262152777771
 31
0.0
 73
     3
  0
TEXT
  5
8D8
  8
DATA
 62
     7
 10
2303.9483381779992
 20
-450.46499999999958
 30
0.0
 40
32.576822916666671
  1
BI-AMP
 41
0.8
 11
2303.9483381779992
 21
-417.88817708333289
 31
0.0
 73
     3
  0
TEXT
  5
8D9
  8
DATA
 62
     7
 10
2291.0966715113318
 20
95.361298555358744
 30
0.0
 40
32.576822916666671
  1
IN/THRU
 41
0.8
 11
2291.0966715113318
 21
127.9381214720254
 31
0.0
 73
     3
  0
TEXT
  5
8DA
  8
DATA
 62
     7
 10
2342.2645245103708
 20
-548.65973450751653
 30
0.0
 40
54.729062500000012
  1
SRX700
 41
0.8
 11
2342.2645245103708
 21
-493.93067200751648
 31
0.0
 73
     3
  0
LINE
  5
8DB
  8
DATA
  6
CONTINUOUS
 62
     7
 10
2365.1800048446648
 20
157.50005823398121
 30
0.0
 11
2365.1800048446648
 21
137.37152769873501
 31
0.0
  0
LINE
  5
8DC
  8
DATA
  6
CONTINUOUS
 62
     7
 10
2365.1800048446648
 20
89.434631888692337
 30
0.0
 11
2365.1800048446648
 21
70.499941607933124
 31
0.0
  0
LINE
  5
8DD
  8
DATA
  6
CONTINUOUS
 62
     7
 10
1400.099111821037
 20
303.71099029433651
 30
0.0
 11
1400.449500089891
 21
304.31776611715787
 31
0.0
  0
LINE
  5
8DE
  8
DATA
  6
CONTINUOUS
 62
     7
 10
1401.4611118210371
 20
306.07099029433601
 30
0.0
 11
1401.748731190344
 21
306.5692100482118
 31
0.0
  0
LINE
  5
8DF
  8
DATA
  6
CONTINUOUS
 62
     7
 10
1393.777703312463
 20
304.01264874340097
 30
0.0
 11
1393.279861848446
 21
304.2995573176197
 31
0.0
  0
ARC
  5
8E0
  8
DATA
  6
CONTINUOUS
 62
     7
 10
1398.6491118210381
 20
301.19999029433632
 30
0.0
 40
6.199690395495332
 50
60.002409879683043
 51
150.00296847067909
  0
LINE
  5
8E1
  8
DATA
  6
CONTINUOUS
 62
     7
 10
1396.1491118210381
 20
309.6375568274072
 30
0.0
 11
1396.1491118210381
 21
310.67589744795538
 31
0.0
  0
LINE
  5
8E2
  8
DATA
  6
CONTINUOUS
 62
     7
 10
1401.149111821037
 20
309.6375568274072
 30
0.0
 11
1401.149111821037
 21
310.67589744795538
 31
0.0
  0
ARC
  5
8E3
  8
DATA
  6
CONTINUOUS
 62
     7
 10
1398.6491118210381
 20
301.19999029433632
 30
0.0
 40
9.8001436920087368
 50
75.220590009595696
 51
104.7794099904043
  0
LINE
  5
8E4
  8
DATA
  6
CONTINUOUS
 62
     7
 10
1397.1994245257181
 20
298.68880974611
 30
0.0
 11
1396.849111821037
 21
298.08199029433661
 31
0.0
  0
LINE
  5
8E5
  8
DATA
  6
CONTINUOUS
 62
     7
 10
1396.137861862285
 20
302.64955734855232
 30
0.0
 11
1395.531111821037
 21
302.99999029433673
 31
0.0
  0
LINE
  5
8E6
  8
DATA
  6
CONTINUOUS
 62
     7
 10
1401.1601118210369
 20
299.74999029433621
 30
0.0
 11
1401.766861767926
 21
299.39955721624813
 31
0.0
  0
LINE
  5
8E7
  8
DATA
  6
CONTINUOUS
 62
     7
 10
1403.5199533042189
 20
298.38808179578228
 30
0.0
 11
1404.0181118210371
 21
298.09999029433658
 31
0.0
  0
ARC
  5
8E8
  8
DATA
  6
CONTINUOUS
 62
     7
 10
1398.6491118210381
 20
301.19999029433632
 30
0.0
 40
3.600267212305257
 50
240.00245515180839
 51
329.99449667149338
  0
ARC
  5
8E9
  8
DATA
  6
CONTINUOUS
 62
     7
 10
1398.6491118210381
 20
301.19999029433632
 30
0.0
 40
2.899589798575168
 50
150.0051985676777
 51
240.00245515180671
  0
ARC
  5
8EA
  8
DATA
  6
CONTINUOUS
 62
     7
 10
1398.6491118210381
 20
301.19999029433632
 30
0.0
 40
5.6246597452645331
 50
330.00495624442863
 51
59.997998874590678
  0
ARC
  5
8EB
  8
DATA
  6
CONTINUOUS
 62
     7
 10
1398.6491118210381
 20
301.19999029433632
 30
0.0
 40
2.8995897985749579
 50
329.99532014014738
 51
59.995320140151293
  0
ARC
  5
8EC
  8
DATA
  6
CONTINUOUS
 62
     7
 10
1398.6491118210381
 20
301.19999029433632
 30
0.0
 40
5.6246597452647791
 50
149.9961350790791
 51
240.00234990249601
  0
ARC
  5
8ED
  8
DATA
  6
CONTINUOUS
 62
     7
 10
1398.6491118210381
 20
301.19999029433632
 30
0.0
 40
3.6002672123051309
 50
59.99532014015233
 51
150.00245515181149
  0
LINE
  5
8EE
  8
DATA
  6
CONTINUOUS
 62
     7
 10
1397.149111821037
 20
291.5153211526457
 30
0.0
 11
1397.149111821037
 21
292.52862771397997
 31
0.0
  0
LINE
  5
8EF
  8
DATA
  6
CONTINUOUS
 62
     7
 10
1400.149111821037
 20
291.5153211526457
 30
0.0
 11
1400.149111821037
 21
292.52862771397997
 31
0.0
  0
ARC
  5
8F0
  8
DATA
  6
CONTINUOUS
 62
     7
 10
1398.6491118210381
 20
301.19999029433632
 30
0.0
 40
9.8001436920087528
 50
261.19575921336138
 51
278.80424078663862
  0
LINE
  5
8F1
  8
DATA
  6
CONTINUOUS
 62
     7
 10
1395.8364817317311
 20
296.32877672779892
 30
0.0
 11
1395.5491118210371
 21
295.8309902943364
 31
0.0
  0
ARC
  5
8F2
  8
DATA
  6
CONTINUOUS
 62
     7
 10
1398.6491118210381
 20
301.19999029433632
 30
0.0
 40
6.1996903954956757
 50
239.99834802721119
 51
329.99834802721421
  0
ARC
  5
8F3
  8
DATA
  6
CONTINUOUS
 62
     7
 10
1398.6491118210381
 20
301.19999029433632
 30
0.0
 40
8.8001436920085272
 50
278.8042407866364
 51
73.495761680205845
  0
ARC
  5
8F4
  8
DATA
  6
CONTINUOUS
 62
     7
 10
1398.6491118210381
 20
301.19999029433632
 30
0.0
 40
8.8001436920087048
 50
106.5042383197937
 51
260.18591350361152
  0
CIRCLE
  5
8F5
  8
DATA
  6
CONTINUOUS
 62
     7
 10
1398.6491118210381
 20
301.19999029433632
 30
0.0
 40
11.75
  0
LINE
  5
8F6
  8
DATA
  6
CONTINUOUS
 62
     7
 10
1400.099111821037
 20
265.71099029433651
 30
0.0
 11
1400.449500089891
 21
266.31776611715799
 31
0.0
  0
LINE
  5
8F7
  8
DATA
  6
CONTINUOUS
 62
     7
 10
1401.4611118210371
 20
268.07099029433601
 30
0.0
 11
1401.748731190344
 21
268.56921004821191
 31
0.0
  0
LINE
  5
8F8
  8
DATA
  6
CONTINUOUS
 62
     7
 10
1393.777703312463
 20
266.01264874340097
 30
0.0
 11
1393.279861848446
 21
266.29955731761959
 31
0.0
  0
ARC
  5
8F9
  8
DATA
  6
CONTINUOUS
 62
     7
 10
1398.6491118210381
 20
263.19999029433632
 30
0.0
 40
6.199690395495332
 50
60.002409879683043
 51
150.00296847067909
  0
LINE
  5
8FA
  8
DATA
  6
CONTINUOUS
 62
     7
 10
1396.1491118210381
 20
271.6375568274072
 30
0.0
 11
1396.1491118210381
 21
272.67589744795549
 31
0.0
  0
LINE
  5
8FB
  8
DATA
  6
CONTINUOUS
 62
     7
 10
1401.149111821037
 20
271.6375568274072
 30
0.0
 11
1401.149111821037
 21
272.67589744795549
 31
0.0
  0
ARC
  5
8FC
  8
DATA
  6
CONTINUOUS
 62
     7
 10
1398.6491118210381
 20
263.19999029433632
 30
0.0
 40
9.8001436920087368
 50
75.220590009595696
 51
104.7794099904043
  0
LINE
  5
8FD
  8
DATA
  6
CONTINUOUS
 62
     7
 10
1397.1994245257181
 20
260.68880974611
 30
0.0
 11
1396.849111821037
 21
260.08199029433661
 31
0.0
  0
LINE
  5
8FE
  8
DATA
  6
CONTINUOUS
 62
     7
 10
1396.137861862285
 20
264.64955734855232
 30
0.0
 11
1395.531111821037
 21
264.99999029433673
 31
0.0
  0
LINE
  5
8FF
  8
DATA
  6
CONTINUOUS
 62
     7
 10
1401.1601118210369
 20
261.74999029433633
 30
0.0
 11
1401.766861767926
 21
261.39955721624813
 31
0.0
  0
LINE
  5
900
  8
DATA
  6
CONTINUOUS
 62
     7
 10
1403.5199533042189
 20
260.38808179578228
 30
0.0
 11
1404.0181118210371
 21
260.09999029433669
 31
0.0
  0
ARC
  5
901
  8
DATA
  6
CONTINUOUS
 62
     7
 10
1398.6491118210381
 20
263.19999029433632
 30
0.0
 40
3.600267212305257
 50
240.00245515180839
 51
329.99449667149338
  0
ARC
  5
902
  8
DATA
  6
CONTINUOUS
 62
     7
 10
1398.6491118210381
 20
263.19999029433632
 30
0.0
 40
2.899589798575168
 50
150.0051985676777
 51
240.00245515180671
  0
ARC
  5
903
  8
DATA
  6
CONTINUOUS
 62
     7
 10
1398.6491118210381
 20
263.19999029433632
 30
0.0
 40
5.6246597452645331
 50
330.00495624442863
 51
59.997998874590678
  0
ARC
  5
904
  8
DATA
  6
CONTINUOUS
 62
     7
 10
1398.6491118210381
 20
263.19999029433632
 30
0.0
 40
2.8995897985749579
 50
329.99532014014738
 51
59.995320140151293
  0
ARC
  5
905
  8
DATA
  6
CONTINUOUS
 62
     7
 10
1398.6491118210381
 20
263.19999029433632
 30
0.0
 40
5.6246597452647791
 50
149.9961350790791
 51
240.00234990249601
  0
ARC
  5
906
  8
DATA
  6
CONTINUOUS
 62
     7
 10
1398.6491118210381
 20
263.19999029433632
 30
0.0
 40
3.6002672123051309
 50
59.99532014015233
 51
150.00245515181149
  0
LINE
  5
907
  8
DATA
  6
CONTINUOUS
 62
     7
 10
1397.149111821037
 20
253.5153211526457
 30
0.0
 11
1397.149111821037
 21
254.52862771398
 31
0.0
  0
LINE
  5
908
  8
DATA
  6
CONTINUOUS
 62
     7
 10
1400.149111821037
 20
253.5153211526457
 30
0.0
 11
1400.149111821037
 21
254.52862771398
 31
0.0
  0
ARC
  5
909
  8
DATA
  6
CONTINUOUS
 62
     7
 10
1398.6491118210381
 20
263.19999029433632
 30
0.0
 40
9.8001436920087528
 50
261.19575921336138
 51
278.80424078663862
  0
LINE
  5
90A
  8
DATA
  6
CONTINUOUS
 62
     7
 10
1395.8364817317311
 20
258.32877672779898
 30
0.0
 11
1395.5491118210371
 21
257.8309902943364
 31
0.0
  0
ARC
  5
90B
  8
DATA
  6
CONTINUOUS
 62
     7
 10
1398.6491118210381
 20
263.19999029433632
 30
0.0
 40
6.1996903954956757
 50
239.99834802721119
 51
329.99834802721421
  0
ARC
  5
90C
  8
DATA
  6
CONTINUOUS
 62
     7
 10
1398.6491118210381
 20
263.19999029433632
 30
0.0
 40
8.8001436920085272
 50
278.8042407866364
 51
73.495761680205845
  0
ARC
  5
90D
  8
DATA
  6
CONTINUOUS
 62
     7
 10
1398.6491118210381
 20
263.19999029433632
 30
0.0
 40
8.8001436920087048
 50
106.5042383197937
 51
260.18591350361152
  0
CIRCLE
  5
90E
  8
DATA
  6
CONTINUOUS
 62
     7
 10
1398.6491118210381
 20
263.19999029433632
 30
0.0
 40
11.75
  0
LINE
  5
90F
  8
DATA
  6
CONTINUOUS
 62
     7
 10
2372.2293361315119
 20
243.06594176601899
 30
0.0
 11
2374.3316657446348
 21
246.70659670294759
 31
0.0
  0
LINE
  5
910
  8
DATA
  6
CONTINUOUS
 62
     7
 10
2380.401336131516
 20
257.22594176601569
 30
0.0
 11
2382.1270523473572
 21
260.2152602892711
 31
0.0
  0
LINE
  5
911
  8
DATA
  6
CONTINUOUS
 62
     7
 10
2334.3008850800702
 20
244.87589246040571
 30
0.0
 11
2331.3138362959671
 21
246.59734390571751
 31
0.0
  0
ARC
  5
912
  8
DATA
  6
CONTINUOUS
 62
     7
 10
2363.529336131513
 20
227.9999417660178
 30
0.0
 40
37.198142372972001
 50
60.002409879683043
 51
150.00296847067889
  0
LINE
  5
913
  8
DATA
  6
CONTINUOUS
 62
     7
 10
2348.5293361315162
 20
278.62534096444278
 30
0.0
 11
2348.5293361315162
 21
284.85538468773262
 31
0.0
  0
LINE
  5
914
  8
DATA
  6
CONTINUOUS
 62
     7
 10
2378.529336131513
 20
278.62534096444278
 30
0.0
 11
2378.529336131513
 21
284.85538468773262
 31
0.0
  0
ARC
  5
915
  8
DATA
  6
CONTINUOUS
 62
     7
 10
2363.529336131513
 20
227.9999417660178
 30
0.0
 40
58.800862152052403
 50
75.220590009595696
 51
104.7794099904043
  0
LINE
  5
916
  8
DATA
  6
CONTINUOUS
 62
     7
 10
2354.8312123595961
 20
212.93285847665999
 30
0.0
 11
2352.7293361315119
 21
209.29194176601959
 31
0.0
  0
LINE
  5
917
  8
DATA
  6
CONTINUOUS
 62
     7
 10
2348.4618363790032
 20
236.69734409131391
 30
0.0
 11
2344.8213361315129
 21
238.79994176602031
 31
0.0
  0
LINE
  5
918
  8
DATA
  6
CONTINUOUS
 62
     7
 10
2378.5953361315128
 20
219.29994176601761
 30
0.0
 11
2382.2358358128481
 21
217.19734329748869
 31
0.0
  0
LINE
  5
919
  8
DATA
  6
CONTINUOUS
 62
     7
 10
2392.754385030601
 20
211.128490774694
 30
0.0
 11
2395.743336131512
 21
209.39994176601971
 31
0.0
  0
ARC
  5
91A
  8
DATA
  6
CONTINUOUS
 62
     7
 10
2363.529336131513
 20
227.9999417660178
 30
0.0
 40
21.60160327383155
 50
240.00245515180839
 51
329.99449667149361
  0
ARC
  5
91B
  8
DATA
  6
CONTINUOUS
 62
     7
 10
2363.529336131513
 20
227.9999417660178
 30
0.0
 40
17.397538791451009
 50
150.0051985676777
 51
240.00245515180649
  0
ARC
  5
91C
  8
DATA
  6
CONTINUOUS
 62
     7
 10
2363.529336131513
 20
227.9999417660178
 30
0.0
 40
33.747958471587211
 50
330.00495624442863
 51
59.997998874590493
  0
ARC
  5
91D
  8
DATA
  6
CONTINUOUS
 62
     7
 10
2363.529336131513
 20
227.9999417660178
 30
0.0
 40
17.397538791449751
 50
329.99532014014738
 51
59.995320140151541
  0
ARC
  5
91E
  8
DATA
  6
CONTINUOUS
 62
     7
 10
2363.529336131513
 20
227.9999417660178
 30
0.0
 40
33.747958471588682
 50
149.9961350790791
 51
240.00234990249609
  0
ARC
  5
91F
  8
DATA
  6
CONTINUOUS
 62
     7
 10
2363.529336131513
 20
227.9999417660178
 30
0.0
 40
21.601603273830801
 50
59.99532014015233
 51
150.00245515181149
  0
LINE
  5
920
  8
DATA
  6
CONTINUOUS
 62
     7
 10
2354.529336131513
 20
169.89192691587411
 30
0.0
 11
2354.529336131513
 21
175.97176628387979
 31
0.0
  0
LINE
  5
921
  8
DATA
  6
CONTINUOUS
 62
     7
 10
2372.529336131513
 20
169.89192691587411
 30
0.0
 11
2372.529336131513
 21
175.97176628387979
 31
0.0
  0
ARC
  5
922
  8
DATA
  6
CONTINUOUS
 62
     7
 10
2363.529336131513
 20
227.9999417660178
 30
0.0
 40
58.80086215205251
 50
261.19575921336138
 51
278.80424078663862
  0
LINE
  5
923
  8
DATA
  6
CONTINUOUS
 62
     7
 10
2346.653555595678
 20
198.7726603667939
 30
0.0
 11
2344.929336131514
 21
195.7859417660184
 31
0.0
  0
ARC
  5
924
  8
DATA
  6
CONTINUOUS
 62
     7
 10
2363.529336131513
 20
227.9999417660178
 30
0.0
 40
37.198142372974061
 50
239.99834802721119
 51
329.99834802721398
  0
ARC
  5
925
  8
DATA
  6
CONTINUOUS
 62
     7
 10
2363.529336131513
 20
227.9999417660178
 30
0.0
 40
52.800862152051188
 50
278.8042407866364
 51
73.495761680205931
  0
ARC
  5
926
  8
DATA
  6
CONTINUOUS
 62
     7
 10
2363.529336131513
 20
227.9999417660178
 30
0.0
 40
52.800862152052233
 50
106.5042383197937
 51
260.18591350361152
  0
CIRCLE
  5
927
  8
DATA
  6
CONTINUOUS
 62
     7
 10
2363.529336131513
 20
227.9999417660178
 30
0.0
 40
70.5
  0
LINE
  5
928
  8
DATA
  6
CONTINUOUS
 62
     7
 10
2372.2293304105769
 20
15.0660582339824
 30
0.0
 11
2374.331660023699
 21
18.70671317091092
 31
0.0
  0
LINE
  5
929
  8
DATA
  6
CONTINUOUS
 62
     7
 10
2380.4013304105802
 20
29.226058233979071
 30
0.0
 11
2382.1270466264209
 21
32.21537675723448
 31
0.0
  0
LINE
  5
92A
  8
DATA
  6
CONTINUOUS
 62
     7
 10
2334.3008793591348
 20
16.876008928369181
 30
0.0
 11
2331.3138305750322
 21
18.59746037368086
 31
0.0
  0
ARC
  5
92B
  8
DATA
  6
CONTINUOUS
 62
     7
 10
2363.529330410578
 20
0.0000582339812354
 30
0.0
 40
37.198142372972001
 50
60.002409879683043
 51
150.00296847067909
  0
LINE
  5
92C
  8
DATA
  6
CONTINUOUS
 62
     7
 10
2348.5293304105812
 20
50.625457432406158
 30
0.0
 11
2348.5293304105812
 21
56.855501155695933
 31
0.0
  0
LINE
  5
92D
  8
DATA
  6
CONTINUOUS
 62
     7
 10
2378.529330410578
 20
50.625457432406158
 30
0.0
 11
2378.529330410578
 21
56.855501155695933
 31
0.0
  0
ARC
  5
92E
  8
DATA
  6
CONTINUOUS
 62
     7
 10
2363.529330410578
 20
0.0000582339812354
 30
0.0
 40
58.800862152052403
 50
75.220590009595696
 51
104.7794099904043
  0
LINE
  5
92F
  8
DATA
  6
CONTINUOUS
 62
     7
 10
2354.8312066386611
 20
-15.067025055376689
 30
0.0
 11
2352.7293304105769
 21
-18.707941766017019
 31
0.0
  0
LINE
  5
930
  8
DATA
  6
CONTINUOUS
 62
     7
 10
2348.4618306580678
 20
8.6974605592772605
 30
0.0
 11
2344.821330410578
 21
10.800058233983689
 31
0.0
  0
LINE
  5
931
  8
DATA
  6
CONTINUOUS
 62
     7
 10
2378.5953304105769
 20
-8.6999417660190375
 30
0.0
 11
2382.2358300919118
 21
-10.8025402345479
 31
0.0
  0
LINE
  5
932
  8
DATA
  6
CONTINUOUS
 62
     7
 10
2392.7543793096661
 20
-16.871392757342619
 30
0.0
 11
2395.7433304105762
 21
-18.599941766016851
 31
0.0
  0
ARC
  5
933
  8
DATA
  6
CONTINUOUS
 62
     7
 10
2363.529330410578
 20
0.0000582339812354
 30
0.0
 40
21.60160327383155
 50
240.00245515180839
 51
329.99449667149361
  0
ARC
  5
934
  8
DATA
  6
CONTINUOUS
 62
     7
 10
2363.529330410578
 20
0.0000582339812354
 30
0.0
 40
17.397538791451009
 50
150.0051985676777
 51
240.00245515180671
  0
ARC
  5
935
  8
DATA
  6
CONTINUOUS
 62
     7
 10
2363.529330410578
 20
0.0000582339812354
 30
0.0
 40
33.747958471587211
 50
330.00495624442863
 51
59.997998874590493
  0
ARC
  5
936
  8
DATA
  6
CONTINUOUS
 62
     7
 10
2363.529330410578
 20
0.0000582339812354
 30
0.0
 40
17.397538791449751
 50
329.99532014014738
 51
59.995320140151421
  0
ARC
  5
937
  8
DATA
  6
CONTINUOUS
 62
     7
 10
2363.529330410578
 20
0.0000582339812354
 30
0.0
 40
33.747958471588682
 50
149.9961350790791
 51
240.00234990249609
  0
ARC
  5
938
  8
DATA
  6
CONTINUOUS
 62
     7
 10
2363.529330410578
 20
0.0000582339812354
 30
0.0
 40
21.601603273830801
 50
59.99532014015233
 51
150.00245515181149
  0
LINE
  5
939
  8
DATA
  6
CONTINUOUS
 62
     7
 10
2354.529330410578
 20
-58.107956616162483
 30
0.0
 11
2354.529330410578
 21
-52.028117248156818
 31
0.0
  0
LINE
  5
93A
  8
DATA
  6
CONTINUOUS
 62
     7
 10
2372.529330410578
 20
-58.107956616162483
 30
0.0
 11
2372.529330410578
 21
-52.028117248156818
 31
0.0
  0
ARC
  5
93B
  8
DATA
  6
CONTINUOUS
 62
     7
 10
2363.529330410578
 20
0.0000582339812354
 30
0.0
 40
58.80086215205251
 50
261.19575921336138
 51
278.80424078663862
  0
LINE
  5
93C
  8
DATA
  6
CONTINUOUS
 62
     7
 10
2346.6535498747421
 20
-29.227223165242769
 30
0.0
 11
2344.929330410579
 21
-32.213941766018252
 31
0.0
  0
ARC
  5
93D
  8
DATA
  6
CONTINUOUS
 62
     7
 10
2363.529330410578
 20
0.0000582339812354
 30
0.0
 40
37.198142372974061
 50
239.99834802721119
 51
329.99834802721398
  0
ARC
  5
93E
  8
DATA
  6
CONTINUOUS
 62
     7
 10
2363.529330410578
 20
0.0000582339812354
 30
0.0
 40
52.800862152051188
 50
278.8042407866364
 51
73.495761680205931
  0
ARC
  5
93F
  8
DATA
  6
CONTINUOUS
 62
     7
 10
2363.529330410578
 20
0.0000582339812354
 30
0.0
 40
52.800862152052233
 50
106.5042383197937
 51
260.18591350361152
  0
CIRCLE
  5
940
  8
DATA
  6
CONTINUOUS
 62
     7
 10
2363.529330410578
 20
0.0000582339812354
 30
0.0
 40
70.5
  0
ENDSEC
  0
EOF
