  0
SECTION
  2
HEADER
  9
$ACADVER
  1
AC1004
  9
$INSBASE
 10
0.0
 20
0.0
  9
$EXTMIN
 10
0.0
 20
0.0
  9
$EXTMAX
 10
1050.0
 20
1485.0
  9
$LIMMIN
 10
0.0
 20
0.0
  9
$LIMMAX
 10
1050.0
 20
1485.0
  9
$VIEWCTR
 10
6.0
 20
4.5
  9
$VIEWSIZE
 40
9.0
  9
$SNAPMODE
 70
     0
  9
$SNAPUNIT
 10
12.5
 20
12.5
  9
$SNAPBASE
 10
0.0
 20
0.0
  9
$SNAPANG
 50
0.0
  9
$SNAPSTYLE
 70
     0
  9
$SNAPISOPAIR
 70
     0
  9
$GRIDMODE
 70
     1
  9
$GRIDUNIT
 10
25.0
 20
25.0
  9
$ORTHOMODE
 70
     0
  9
$REGENMODE
 70
     1
  9
$FILLMODE
 70
     1
  9
$QTEXTMODE
 70
     0
  9
$DRAGMODE
 70
     2
  9
$LTSCALE
 40
1.0
  9
$OSMODE
 70
     1
  9
$ATTMODE
 70
     1
  9
$TEXTSIZE
 40
0.2
  9
$TRACEWID
 40
0.05
  9
$TEXTSTYLE
  7
STANDARD
  9
$CLAYER
  8
DATA
  9
$CELTYPE
  6
CONTINUOUS
  9
$CECOLOR
 62
     7
  9
$DIMSCALE
 40
1.0
  9
$DIMASZ
 40
0.18
  9
$DIMEXO
 40
0.0625
  9
$DIMDLI
 40
0.38
  9
$DIMRND
 40
0.0
  9
$DIMDLE
 40
0.0
  9
$DIMEXE
 40
0.18
  9
$DIMTP
 40
0.0
  9
$DIMTM
 40
0.0
  9
$DIMTXT
 40
0.18
  9
$DIMCEN
 40
0.09
  9
$DIMTSZ
 40
0.0
  9
$DIMTOL
 70
     0
  9
$DIMLIM
 70
     0
  9
$DIMTIH
 70
     1
  9
$DIMTOH
 70
     1
  9
$DIMSE1
 70
     0
  9
$DIMSE2
 70
     0
  9
$DIMTAD
 70
     0
  9
$DIMZIN
 70
     0
  9
$DIMBLK
  1

  9
$DIMASO
 70
     1
  9
$DIMSHO
 70
     1
  9
$DIMPOST
  1

  9
$DIMAPOST
  1

  9
$DIMALT
 70
     0
  9
$DIMALTD
 70
     2
  9
$DIMALTF
 40
25.4
  9
$DIMLFAC
 40
1.0
  9
$LUNITS
 70
     2
  9
$LUPREC
 70
     4
  9
$AXISMODE
 70
     0
  9
$AXISUNIT
 10
0.0
 20
0.0
  9
$SKETCHINC
 40
0.1
  9
$FILLETRAD
 40
2.4
  9
$AUNITS
 70
     0
  9
$AUPREC
 70
     0
  9
$MENU
  1
acad
  9
$ELEVATION
 40
0.0
  9
$THICKNESS
 40
0.0
  9
$VIEWDIR
 10
0.0
 20
0.0
 30
1.0
  9
$LIMCHECK
 70
     0
  9
$BLIPMODE
 70
     1
  9
$CHAMFERA
 40
0.0
  9
$CHAMFERB
 40
0.0
  9
$FASTZOOM
 70
     1
  9
$SKPOLY
 70
     0
  9
$TDCREATE
 40
0.0
  9
$TDUPDATE
 40
0.0
  9
$TDINDWG
 40
0.0
  9
$TDUSRTIMER
 40
0.0
  9
$USRTIMER
 70
     1
  9
$ANGBASE
 50
0.0
  9
$ANGDIR
 70
     0
  9
$PDMODE
 70
     0
  9
$PDSIZE
 40
0.0
  9
$PLINEWID
 40
0.0
  9
$COORDS
 70
     1
  9
$SPLFRAME
 70
     0
  9
$SPLINESEGS
 70
    10
  9
$ATTDIA
 70
     0
  9
$ATTREQ
 70
     1
  9
$USERI1
 70
     0
  9
$USERI2
 70
     0
  9
$USERI3
 70
     0
  9
$USERI4
 70
     0
  9
$USERI5
 70
     0
  9
$USERR1
 40
0.0
  9
$USERR2
 40
0.0
  9
$USERR3
 40
0.0
  9
$USERR4
 40
0.0
  9
$USERR5
 40
0.0
  0
ENDSEC
  0
SECTION
  2
TABLES
  0
TABLE
  2
LTYPE
 70
    11
  0
LTYPE
  2
CONTINUOUS
 70
     0
  3
Solid line
 72
    65
 73
     0
 40
0.0
  0
LTYPE
  2
DASHED
 70
     0
  3
__ __ __ __ __ __ __ __ __ __ __ __ __ __ __
 72
    65
 73
     2
 40
0.75
 49
0.5
 49
-0.25
  0
LTYPE
  2
HIDDEN
 70
     0
  3
_ _ _ _ _ _ _ _ _ _ _ _ _ _ _ _ _ _ _ _ _ _ 
 72
    65
 73
     2
 40
0.25
 49
0.125
 49
-0.125
  0
LTYPE
  2
CENTER
 70
     0
  3
____ _ ____ _ ____ _ ____ _ ____ _ ____ _ __
 72
    65
 73
     4
 40
2.0
 49
1.25
 49
-0.25
 49
0.25
 49
-0.25
  0
LTYPE
  2
PHANTOM
 70
     0
  3
_____ _ _ _____ _ _ _____ _ _ _____ _ _ ____
 72
    65
 73
     6
 40
2.5
 49
1.25
 49
-0.25
 49
0.25
 49
-0.25
 49
0.25
 49
-0.25
  0
LTYPE
  2
DOT
 70
     0
  3
............................................
 72
    65
 73
     2
 40
0.25
 49
0.0
 49
-0.25
  0
LTYPE
  2
DASHDOT
 70
     0
  3
__ . __ . __ . __ . __ . __ . __ . __ . __ .
 72
    65
 73
     4
 40
1.0
 49
0.5
 49
-0.25
 49
0.0
 49
-0.25
  0
LTYPE
  2
BORDER
 70
     0
  3
__ __ . __ __ . __ __ . __ __ . __ __ . __ _
 72
    65
 73
     6
 40
1.75
 49
0.5
 49
-0.25
 49
0.5
 49
-0.25
 49
0.0
 49
-0.25
  0
LTYPE
  2
DIVIDE
 70
     0
  3
__ . . __ . . __ . . __ . . __ . . __ . . __
 72
    65
 73
     6
 40
1.25
 49
0.5
 49
-0.25
 49
0.0
 49
-0.25
 49
0.0
 49
-0.25
  0
LTYPE
  2
DOTS
 70
     0
  3
close                                       
 72
    65
 73
     2
 40
0.1
 49
0.05
 49
-0.05
  0
LTYPE
  2
CLOSE
 70
     0
  3
                                            
 72
    65
 73
     0
 40
0.0
  0
ENDTAB
  0
TABLE
  2
LAYER
 70
     6
  0
LAYER
  2
0
 70
     0
 62
     7
  6
CONTINUOUS
  0
LAYER
  2
LAYER01
 70
     0
 62
     7
  6
CONTINUOUS
  0
LAYER
  2
DATA
 70
     0
 62
     7
  6
CONTINUOUS
  0
LAYER
  2
DIMENSIONS
 70
     0
 62
     7
  6
CONTINUOUS
  0
LAYER
  2
SPEC
 70
     0
 62
     7
  6
CONTINUOUS
  0
LAYER
  2
HIBINO-BASE
 70
     0
 62
     7
  6
CONTINUOUS
  0
ENDTAB
  0
TABLE
  2
STYLE
 70
     2
  0
STYLE
  2
STANDARD
 70
     0
 40
0.0
 41
1.0
 50
0.0
 71
     0
 42
0.2
  3
txt
  4

  0
STYLE
  2
TTF_DEFAULT
 70
     0
 40
0.0
 41
1.0
 50
0.0
 71
     0
 42
0.0
  3
txt
  4
BIGFONT
  0
ENDTAB
  0
TABLE
  2
VIEW
 70
     0
  0
ENDTAB
  0
ENDSEC
  0
SECTION
  2
BLOCKS
  0
ENDSEC
  0
SECTION
  2
ENTITIES
  0
LINE
  8
SPEC
  6
CONTINUOUS
 62
     7
 10
87.5
 20
1325.0
 11
575.0
 21
1325.0
  0
LINE
  8
SPEC
  6
CONTINUOUS
 62
     7
 10
87.5
 20
1287.5
 11
575.0
 21
1287.5
  0
LINE
  8
SPEC
  6
CONTINUOUS
 62
     7
 10
87.5
 20
1268.75
 11
575.0
 21
1268.75
  0
POLYLINE
  8
HIBINO-BASE
  6
CONTINUOUS
 62
     7
 66
     1
 70
     1
 40
1.5
 41
1.5
  0
VERTEX
  8
HIBINO-BASE
 10
50.0
 20
75.0
  0
VERTEX
  8
HIBINO-BASE
 10
50.0
 20
1375.0
  0
VERTEX
  8
HIBINO-BASE
 10
950.0
 20
1375.0
  0
VERTEX
  8
HIBINO-BASE
 10
950.0
 20
75.0
  0
SEQEND
  8
HIBINO-BASE
  0
LINE
  8
HIBINO-BASE
  6
CONTINUOUS
 62
     7
 10
500.0
 20
125.0
 11
950.0
 21
125.0
  0
LINE
  8
0
  6
CONTINUOUS
 62
     7
 10
500.0
 20
188.25
 11
950.0
 21
188.25
  0
LINE
  8
0
  6
CONTINUOUS
 62
     7
 10
500.0
 20
186.75
 11
950.0
 21
186.75
  0
LINE
  8
0
  6
CONTINUOUS
 62
     7
 10
500.0
 20
188.25
 11
500.0
 21
186.75
  0
LINE
  8
0
  6
CONTINUOUS
 62
     7
 10
950.0
 20
188.25
 11
950.0
 21
186.75
  0
SOLID
  8
HIBINO-BASE
  6
CONTINUOUS
 62
     7
 10
500.0
 20
188.25
 11
950.0
 21
188.25
 12
500.0
 22
186.75
 13
950.0
 23
186.75
  0
TEXT
  8
HIBINO-BASE
  6
CONTINUOUS
 62
     7
 10
502.5
 20
112.5
 40
11.25
  1
図面サイズ
  7
TTF_DEFAULT
  0
TEXT
  8
HIBINO-BASE
  6
CONTINUOUS
 62
     7
 10
502.5
 20
175.0
 40
12.5
  1
NOTE
  7
TTF_DEFAULT
  0
TEXT
  8
HIBINO-BASE
  6
CONTINUOUS
 62
     7
 10
518.75
 20
81.25
 40
20.0
  1
A4
  7
TTF_DEFAULT
  0
LINE
  8
DIMENSIONS
  6
CONTINUOUS
 62
     7
 10
597.24254
 20
325.0
 11
518.75
 21
325.0
  0
LINE
  8
DIMENSIONS
  6
CONTINUOUS
 62
     7
 10
612.49254
 20
515.0
 11
518.75
 21
515.0
  0
LINE
  8
DIMENSIONS
  6
CONTINUOUS
 62
     7
 10
570.0
 20
575.0
 11
518.75
 21
575.0
  0
LINE
  8
DIMENSIONS
  6
CONTINUOUS
 62
     7
 10
606.59254
 20
646.5
 11
518.75
 21
646.5
  0
LINE
  8
DATA
  6
CONTINUOUS
 62
     7
 10
179.25
 20
575.0
 11
277.75
 21
575.0
  0
LINE
  8
DATA
  6
CONTINUOUS
 62
     7
 10
190.25
 20
651.27713
 11
266.75
 21
651.27713
  0
LINE
  8
DATA
  6
CONTINUOUS
 62
     7
 10
190.25
 20
649.67713
 11
266.75
 21
649.67713
  0
LINE
  8
DATA
  6
CONTINUOUS
 62
     7
 10
190.25
 20
499.553361
 11
266.75
 21
499.553361
  0
LINE
  8
DATA
  6
CONTINUOUS
 62
     7
 10
190.25
 20
472.061895
 11
266.75
 21
472.061895
  0
LINE
  8
DATA
  6
CONTINUOUS
 62
     7
 10
179.25
 20
325.0
 11
277.75
 21
325.0
  0
LINE
  8
DATA
  6
CONTINUOUS
 62
     7
 10
193.25
 20
518.433029
 11
263.75
 21
518.433029
  0
LINE
  8
DIMENSIONS
  6
CONTINUOUS
 62
     7
 10
150.0
 20
275.0
 11
307.0
 21
275.0
  0
LINE
  8
DATA
  6
CONTINUOUS
 62
     7
 10
162.5
 20
225.0
 11
287.5
 21
225.0
  0
TEXT
  8
DATA
  6
CONTINUOUS
 62
     7
 10
178.772816
 20
231.25
 40
12.5
  1
スピーカー側金具
  7
TTF_DEFAULT
  0
POLYLINE
  8
DATA
  6
CONTINUOUS
 62
     7
 66
     1
 70
     1
  0
VERTEX
  8
DATA
 10
266.925
 20
335.642019
 42
0.104168
 70
     2
 50
90.0
  0
VERTEX
  8
DATA
 10
266.662025
 20
336.890589
 42
0.100664
 70
     2
 50
113.596311
  0
VERTEX
  8
DATA
 10
265.899874
 20
337.96764
 42
0.096076
 70
     2
 50
136.780821
  0
VERTEX
  8
DATA
 10
264.774388
 20
338.677587
 42
0.093065
 70
     2
 50
158.568704
  0
VERTEX
  8
DATA
 10
263.425
 20
338.930943
 42
0.093065
 70
     2
 50
180.0
  0
VERTEX
  8
DATA
 10
262.075612
 20
338.677587
 42
0.096076
 70
     2
 50
201.431296
  0
VERTEX
  8
DATA
 10
260.950126
 20
337.96764
 42
0.100664
 70
     2
 50
223.219179
  0
VERTEX
  8
DATA
 10
260.187975
 20
336.890589
 42
0.104168
 70
     2
 50
246.403689
  0
VERTEX
  8
DATA
 10
259.925
 20
335.642019
 42
0.104168
 70
     2
 50
270.0
  0
VERTEX
  8
DATA
 10
260.187975
 20
334.393449
 42
0.100664
 70
     2
 50
293.596311
  0
VERTEX
  8
DATA
 10
260.950126
 20
333.316398
 42
0.096076
 70
     2
 50
316.780821
  0
VERTEX
  8
DATA
 10
262.075612
 20
332.60645
 42
0.093065
 70
     2
 50
338.568704
  0
VERTEX
  8
DATA
 10
263.425
 20
332.353095
 42
0.093065
 70
     2
 50
0.0
  0
VERTEX
  8
DATA
 10
264.774388
 20
332.60645
 42
0.096076
 70
     2
 50
21.431296
  0
VERTEX
  8
DATA
 10
265.899874
 20
333.316398
 42
0.100664
 70
     2
 50
43.219179
  0
VERTEX
  8
DATA
 10
266.662025
 20
334.393449
 42
0.104168
 70
     2
 50
66.403689
  0
SEQEND
  8
DATA
  0
POLYLINE
  8
DATA
  6
CONTINUOUS
 62
     7
 66
     1
 70
     1
  0
VERTEX
  8
DATA
 10
266.925
 20
454.982982
 42
0.104168
 70
     2
 50
90.0
  0
VERTEX
  8
DATA
 10
266.662025
 20
456.231551
 42
0.100664
 70
     2
 50
113.596311
  0
VERTEX
  8
DATA
 10
265.899874
 20
457.308602
 42
0.096076
 70
     2
 50
136.780821
  0
VERTEX
  8
DATA
 10
264.774388
 20
458.01855
 42
0.093065
 70
     2
 50
158.568704
  0
VERTEX
  8
DATA
 10
263.425
 20
458.271906
 42
0.093065
 70
     2
 50
180.0
  0
VERTEX
  8
DATA
 10
262.075612
 20
458.01855
 42
0.096076
 70
     2
 50
201.431296
  0
VERTEX
  8
DATA
 10
260.950126
 20
457.308602
 42
0.100664
 70
     2
 50
223.219179
  0
VERTEX
  8
DATA
 10
260.187975
 20
456.231551
 42
0.104168
 70
     2
 50
246.403689
  0
VERTEX
  8
DATA
 10
259.925
 20
454.982982
 42
0.104168
 70
     2
 50
270.0
  0
VERTEX
  8
DATA
 10
260.187975
 20
453.734412
 42
0.100664
 70
     2
 50
293.596311
  0
VERTEX
  8
DATA
 10
260.950126
 20
452.657361
 42
0.096076
 70
     2
 50
316.780821
  0
VERTEX
  8
DATA
 10
262.075612
 20
451.947413
 42
0.093065
 70
     2
 50
338.568704
  0
VERTEX
  8
DATA
 10
263.425
 20
451.694058
 42
0.093065
 70
     2
 50
0.0
  0
VERTEX
  8
DATA
 10
264.774388
 20
451.947413
 42
0.096076
 70
     2
 50
21.431296
  0
VERTEX
  8
DATA
 10
265.899874
 20
452.657361
 42
0.100664
 70
     2
 50
43.219179
  0
VERTEX
  8
DATA
 10
266.662025
 20
453.734412
 42
0.104168
 70
     2
 50
66.403689
  0
SEQEND
  8
DATA
  0
LINE
  8
DATA
  6
CONTINUOUS
 62
     7
 10
179.25
 20
325.0
 11
179.25
 21
484.778129
  0
LINE
  8
DIMENSIONS
  6
CONTINUOUS
 62
     7
 10
100.0
 20
518.433029
 11
100.0
 21
325.0
  0
LINE
  8
DATA
  6
CONTINUOUS
 62
     7
 10
150.0
 20
336.778129
 11
165.25
 21
484.778129
  0
TEXT
  8
HIBINO-BASE
  6
CONTINUOUS
 62
     7
 10
85.92
 20
42.9566
 40
20.0
  1
Hibino Corporation
  7
TTF_DEFAULT
  0
LINE
  8
DIMENSIONS
  6
CONTINUOUS
 62
     7
 10
174.25
 20
325.0
 11
93.75
 21
325.0
  0
LINE
  8
DIMENSIONS
  6
CONTINUOUS
 62
     7
 10
98.3334
 20
335.0
 11
100.0
 21
325.0
  0
LINE
  8
DIMENSIONS
  6
CONTINUOUS
 62
     7
 10
101.6666
 20
335.0
 11
100.0
 21
325.0
  0
TEXT
  8
DIMENSIONS
  6
CONTINUOUS
 62
     7
 10
218.230707
 20
281.25
 40
12.5
  1
157
  7
TTF_DEFAULT
  0
LINE
  8
DATA
  6
CONTINUOUS
 62
     7
 10
179.25
 20
327.889732
 11
150.0
 21
336.778129
  0
POLYLINE
  8
DATA
  6
CONTINUOUS
 62
     7
 66
     1
 70
     1
  0
VERTEX
  8
DATA
 10
197.075
 20
335.642019
 42
0.104168
 70
     2
 50
90.0
  0
VERTEX
  8
DATA
 10
196.812025
 20
336.890589
 42
0.100664
 70
     2
 50
113.596311
  0
VERTEX
  8
DATA
 10
196.049874
 20
337.96764
 42
0.096076
 70
     2
 50
136.780821
  0
VERTEX
  8
DATA
 10
194.924388
 20
338.677587
 42
0.093065
 70
     2
 50
158.568704
  0
VERTEX
  8
DATA
 10
193.575
 20
338.930943
 42
0.093065
 70
     2
 50
180.0
  0
VERTEX
  8
DATA
 10
192.225612
 20
338.677587
 42
0.096076
 70
     2
 50
201.431296
  0
VERTEX
  8
DATA
 10
191.100126
 20
337.96764
 42
0.100664
 70
     2
 50
223.219179
  0
VERTEX
  8
DATA
 10
190.337975
 20
336.890589
 42
0.104168
 70
     2
 50
246.403689
  0
VERTEX
  8
DATA
 10
190.075
 20
335.642019
 42
0.104168
 70
     2
 50
270.0
  0
VERTEX
  8
DATA
 10
190.337975
 20
334.393449
 42
0.100664
 70
     2
 50
293.596311
  0
VERTEX
  8
DATA
 10
191.100126
 20
333.316398
 42
0.096076
 70
     2
 50
316.780821
  0
VERTEX
  8
DATA
 10
192.225612
 20
332.60645
 42
0.093065
 70
     2
 50
338.568704
  0
VERTEX
  8
DATA
 10
193.575
 20
332.353095
 42
0.093065
 70
     2
 50
0.0
  0
VERTEX
  8
DATA
 10
194.924388
 20
332.60645
 42
0.096076
 70
     2
 50
21.431296
  0
VERTEX
  8
DATA
 10
196.049874
 20
333.316398
 42
0.100664
 70
     2
 50
43.219179
  0
VERTEX
  8
DATA
 10
196.812025
 20
334.393449
 42
0.104168
 70
     2
 50
66.403689
  0
SEQEND
  8
DATA
  0
LINE
  8
DIMENSIONS
  6
CONTINUOUS
 62
     7
 10
150.0
 20
331.778129
 11
150.0
 21
268.75
  0
LINE
  8
DIMENSIONS
  6
CONTINUOUS
 62
     7
 10
160.0
 20
273.3334
 11
150.0
 21
275.0
  0
LINE
  8
DIMENSIONS
  6
CONTINUOUS
 62
     7
 10
160.0
 20
276.6666
 11
150.0
 21
275.0
  0
LINE
  8
DIMENSIONS
  6
CONTINUOUS
 62
     7
 10
188.25
 20
518.433029
 11
93.75
 21
518.433029
  0
LINE
  8
DIMENSIONS
  6
CONTINUOUS
 62
     7
 10
174.25
 20
575.0
 11
93.75
 21
575.0
  0
LINE
  8
DIMENSIONS
  6
CONTINUOUS
 62
     7
 10
185.25
 20
651.27713
 11
93.75
 21
651.27713
  0
TEXT
  8
DIMENSIONS
  6
CONTINUOUS
 62
     7
 10
93.75
 20
406.557082
 40
12.5
  1
193.4
 50
90.0
  7
TTF_DEFAULT
  0
LINE
  8
DIMENSIONS
  6
CONTINUOUS
 62
     7
 10
98.3334
 20
508.433029
 11
100.0
 21
518.433029
  0
LINE
  8
DIMENSIONS
  6
CONTINUOUS
 62
     7
 10
101.6666
 20
508.433029
 11
100.0
 21
518.433029
  0
TEXT
  8
DIMENSIONS
  6
CONTINUOUS
 62
     7
 10
93.75
 20
601.402231
 40
12.5
  1
76.3
 50
90.0
  7
TTF_DEFAULT
  0
LINE
  8
DIMENSIONS
  6
CONTINUOUS
 62
     7
 10
100.0
 20
575.0
 11
100.0
 21
651.27713
  0
LINE
  8
DIMENSIONS
  6
CONTINUOUS
 62
     7
 10
101.6666
 20
585.0
 11
100.0
 21
575.0
  0
LINE
  8
DIMENSIONS
  6
CONTINUOUS
 62
     7
 10
98.3334
 20
585.0
 11
100.0
 21
575.0
  0
LINE
  8
DIMENSIONS
  6
CONTINUOUS
 62
     7
 10
101.6666
 20
641.27713
 11
100.0
 21
651.27713
  0
LINE
  8
DIMENSIONS
  6
CONTINUOUS
 62
     7
 10
98.3334
 20
641.27713
 11
100.0
 21
651.27713
  0
CIRCLE
  8
DATA
  6
CONTINUOUS
 62
     7
 10
228.5
 20
509.683029
 40
2.0
  0
LINE
  8
DATA
  6
CONTINUOUS
 62
     7
 10
179.25
 20
465.625001
 11
190.25
 21
465.625001
  0
LINE
  8
DATA
  6
CONTINUOUS
 62
     7
 10
180.85
 20
484.778129
 11
165.25
 21
484.778129
  0
LINE
  8
DATA
  6
CONTINUOUS
 62
     7
 10
180.85
 20
465.625001
 11
180.85
 21
484.778129
  0
LINE
  8
DATA
  6
CONTINUOUS
 62
     7
 10
199.5
 20
506.933029
 11
199.5
 21
512.433029
  0
LINE
  8
DATA
  6
CONTINUOUS
 62
     7
 10
206.5
 20
506.933029
 11
206.5
 21
512.433029
  0
ARC
  8
DATA
  6
CONTINUOUS
 62
     7
 10
203.0
 20
512.433029
 40
3.5
 50
0.0
 51
180.0
  0
ARC
  8
DATA
  6
CONTINUOUS
 62
     7
 10
203.0
 20
506.933029
 40
3.5
 50
180.0
 51
0.0
  0
LINE
  8
DATA
  6
CONTINUOUS
 62
     7
 10
190.25
 20
465.625001
 11
190.25
 21
515.433029
  0
ARC
  8
DATA
  6
CONTINUOUS
 62
     7
 10
193.25
 20
515.433029
 40
3.0
 50
90.0
 51
180.0
  0
POLYLINE
  8
DATA
  6
CONTINUOUS
 62
     7
 66
     1
 70
     1
  0
VERTEX
  8
DATA
 10
197.075
 20
454.982982
 42
0.104168
 70
     2
 50
90.0
  0
VERTEX
  8
DATA
 10
196.812025
 20
456.231551
 42
0.100664
 70
     2
 50
113.596311
  0
VERTEX
  8
DATA
 10
196.049874
 20
457.308602
 42
0.096076
 70
     2
 50
136.780821
  0
VERTEX
  8
DATA
 10
194.924388
 20
458.01855
 42
0.093065
 70
     2
 50
158.568704
  0
VERTEX
  8
DATA
 10
193.575
 20
458.271906
 42
0.093065
 70
     2
 50
180.0
  0
VERTEX
  8
DATA
 10
192.225612
 20
458.01855
 42
0.096076
 70
     2
 50
201.431296
  0
VERTEX
  8
DATA
 10
191.100126
 20
457.308602
 42
0.100664
 70
     2
 50
223.219179
  0
VERTEX
  8
DATA
 10
190.337975
 20
456.231551
 42
0.104168
 70
     2
 50
246.403689
  0
VERTEX
  8
DATA
 10
190.075
 20
454.982982
 42
0.104168
 70
     2
 50
270.0
  0
VERTEX
  8
DATA
 10
190.337975
 20
453.734412
 42
0.100664
 70
     2
 50
293.596311
  0
VERTEX
  8
DATA
 10
191.100126
 20
452.657361
 42
0.096076
 70
     2
 50
316.780821
  0
VERTEX
  8
DATA
 10
192.225612
 20
451.947413
 42
0.093065
 70
     2
 50
338.568704
  0
VERTEX
  8
DATA
 10
193.575
 20
451.694058
 42
0.093065
 70
     2
 50
0.0
  0
VERTEX
  8
DATA
 10
194.924388
 20
451.947413
 42
0.096076
 70
     2
 50
21.431296
  0
VERTEX
  8
DATA
 10
196.049874
 20
452.657361
 42
0.100664
 70
     2
 50
43.219179
  0
VERTEX
  8
DATA
 10
196.812025
 20
453.734412
 42
0.104168
 70
     2
 50
66.403689
  0
SEQEND
  8
DATA
  0
ARC
  8
DATA
  6
CONTINUOUS
 62
     7
 10
254.0
 20
512.433029
 40
3.5
 50
0.0
 51
180.0
  0
ARC
  8
DATA
  6
CONTINUOUS
 62
     7
 10
254.0
 20
506.933029
 40
3.5
 50
180.0
 51
0.0
  0
LINE
  8
DATA
  6
CONTINUOUS
 62
     7
 10
250.5
 20
506.933029
 11
250.5
 21
512.433029
  0
LINE
  8
DATA
  6
CONTINUOUS
 62
     7
 10
257.5
 20
506.933029
 11
257.5
 21
512.433029
  0
LINE
  8
DATA
  6
CONTINUOUS
 62
     7
 10
180.85
 20
576.6
 11
190.25
 21
576.6
  0
LINE
  8
DATA
  6
CONTINUOUS
 62
     7
 10
180.85
 20
627.671102
 11
190.25
 21
627.671102
  0
LINE
  8
DATA
  6
CONTINUOUS
 62
     7
 10
166.85
 20
637.210574
 11
180.85
 21
637.210574
  0
LINE
  8
DATA
  6
CONTINUOUS
 62
     7
 10
166.85
 20
637.210574
 11
166.85
 21
640.510574
  0
LINE
  8
DATA
  6
CONTINUOUS
 62
     7
 10
166.85
 20
640.510574
 11
175.05
 21
640.510574
  0
LINE
  8
DATA
  6
CONTINUOUS
 62
     7
 10
175.05
 20
640.510574
 11
175.05
 21
642.110574
  0
LINE
  8
DATA
  6
CONTINUOUS
 62
     7
 10
165.25
 20
635.610574
 11
165.25
 21
642.110574
  0
LINE
  8
DATA
  6
CONTINUOUS
 62
     7
 10
150.0
 20
642.110574
 11
175.05
 21
642.110574
  0
LINE
  8
DATA
  6
CONTINUOUS
 62
     7
 10
150.0
 20
635.610574
 11
179.25
 21
635.610574
  0
LINE
  8
DATA
  6
CONTINUOUS
 62
     7
 10
150.0
 20
635.610574
 11
150.0
 21
642.110574
  0
LINE
  8
DATA
  6
CONTINUOUS
 62
     7
 10
190.25
 20
575.0
 11
190.25
 21
651.27713
  0
LINE
  8
DATA
  6
CONTINUOUS
 62
     7
 10
179.25
 20
575.0
 11
179.25
 21
635.610574
  0
LINE
  8
DATA
  6
CONTINUOUS
 62
     7
 10
180.85
 20
576.6
 11
180.85
 21
637.210574
  0
LINE
  8
DATA
  6
CONTINUOUS
 62
     7
 10
414.439472
 20
330.255538
 11
414.439472
 21
484.778129
  0
LINE
  8
DATA
  6
CONTINUOUS
 62
     7
 10
407.939472
 20
327.889732
 11
407.939472
 21
484.778129
  0
LINE
  8
DATA
  6
CONTINUOUS
 62
     7
 10
347.328898
 20
469.712664
 11
400.0
 21
325.0
  0
LINE
  8
DATA
  6
CONTINUOUS
 62
     7
 10
277.75
 20
325.0
 11
277.75
 21
484.778129
  0
LINE
  8
DIMENSIONS
  6
CONTINUOUS
 62
     7
 10
347.328898
 20
464.712664
 11
347.328898
 21
268.75
  0
LINE
  8
DIMENSIONS
  6
CONTINUOUS
 62
     7
 10
423.606028
 20
496.233859
 11
423.606028
 21
268.75
  0
LINE
  8
DATA
  6
CONTINUOUS
 62
     7
 10
291.75
 20
484.778129
 11
307.0
 21
336.778129
  0
LINE
  8
DIMENSIONS
  6
CONTINUOUS
 62
     7
 10
525.0
 20
325.0
 11
525.0
 21
515.0
  0
LINE
  8
DIMENSIONS
  6
CONTINUOUS
 62
     7
 10
347.328898
 20
275.0
 11
423.606028
 21
275.0
  0
TEXT
  8
DIMENSIONS
  6
CONTINUOUS
 62
     7
 10
373.731129
 20
281.25
 40
12.5
  1
76.3
  7
TTF_DEFAULT
  0
LINE
  8
DATA
  6
CONTINUOUS
 62
     7
 10
277.75
 20
327.889732
 11
307.0
 21
336.778129
  0
LINE
  8
DIMENSIONS
  6
CONTINUOUS
 62
     7
 10
307.0
 20
331.778129
 11
307.0
 21
268.75
  0
LINE
  8
DIMENSIONS
  6
CONTINUOUS
 62
     7
 10
297.0
 20
273.3334
 11
307.0
 21
275.0
  0
LINE
  8
DIMENSIONS
  6
CONTINUOUS
 62
     7
 10
297.0
 20
276.6666
 11
307.0
 21
275.0
  0
LINE
  8
DIMENSIONS
  6
CONTINUOUS
 62
     7
 10
357.328898
 20
273.3334
 11
347.328898
 21
275.0
  0
LINE
  8
DIMENSIONS
  6
CONTINUOUS
 62
     7
 10
357.328898
 20
276.6666
 11
347.328898
 21
275.0
  0
LINE
  8
0
  6
CONTINUOUS
 62
     7
 10
499.25
 20
75.0
 11
499.25
 21
187.5
  0
LINE
  8
0
  6
CONTINUOUS
 62
     7
 10
500.75
 20
75.0
 11
500.75
 21
187.5
  0
LINE
  8
0
  6
CONTINUOUS
 62
     7
 10
499.25
 20
75.0
 11
500.75
 21
75.0
  0
LINE
  8
0
  6
CONTINUOUS
 62
     7
 10
499.25
 20
187.5
 11
500.75
 21
187.5
  0
SOLID
  8
HIBINO-BASE
  6
CONTINUOUS
 62
     7
 10
499.25
 20
75.0
 11
499.25
 21
187.5
 12
500.75
 22
75.0
 13
500.75
 23
187.5
  0
TEXT
  8
DIMENSIONS
  6
CONTINUOUS
 62
     7
 10
425.0
 20
137.5
 40
12.5
  1
(単位 : mm)
  7
TTF_DEFAULT
  0
LINE
  8
DATA
  6
CONTINUOUS
 62
     7
 10
409.539472
 20
328.472084
 11
409.539472
 21
336.778129
  0
LINE
  8
DATA
  6
CONTINUOUS
 62
     7
 10
414.439472
 20
330.255538
 11
400.0
 21
325.0
  0
LINE
  8
DIMENSIONS
  6
CONTINUOUS
 62
     7
 10
413.606028
 20
273.3334
 11
423.606028
 21
275.0
  0
LINE
  8
DIMENSIONS
  6
CONTINUOUS
 62
     7
 10
413.606028
 20
276.6666
 11
423.606028
 21
275.0
  0
LINE
  8
DATA
  6
CONTINUOUS
 62
     7
 10
414.439472
 20
336.778129
 11
407.939472
 21
336.778129
  0
LINE
  8
DIMENSIONS
  6
CONTINUOUS
 62
     7
 10
523.3334
 20
335.0
 11
525.0
 21
325.0
  0
LINE
  8
DATA
  6
CONTINUOUS
 62
     7
 10
348.816686
 20
465.625001
 11
401.439472
 21
484.778129
  0
LINE
  8
DATA
  6
CONTINUOUS
 62
     7
 10
420.974109
 20
497.475088
 11
349.370311
 21
471.413437
  0
LINE
  8
DATA
  6
CONTINUOUS
 62
     7
 10
420.426877
 20
498.978597
 11
348.823079
 21
472.916946
  0
ARC
  8
DATA
  6
CONTINUOUS
 62
     7
 10
349.678129
 20
470.567714
 40
2.5
 50
110.0
 51
200.0
  0
LINE
  8
DATA
  6
CONTINUOUS
 62
     7
 10
348.832406
 20
470.259896
 11
350.320194
 21
466.172233
  0
ARC
  8
DATA
  6
CONTINUOUS
 62
     7
 10
349.678129
 20
470.567714
 40
0.9
 50
110.0
 51
200.0
  0
LINE
  8
DATA
  6
CONTINUOUS
 62
     7
 10
266.75
 20
465.625001
 11
277.75
 21
465.625001
  0
LINE
  8
DATA
  6
CONTINUOUS
 62
     7
 10
276.15
 20
484.778129
 11
291.75
 21
484.778129
  0
LINE
  8
DATA
  6
CONTINUOUS
 62
     7
 10
276.15
 20
465.625001
 11
276.15
 21
484.778129
  0
LINE
  8
DATA
  6
CONTINUOUS
 62
     7
 10
266.75
 20
465.625001
 11
266.75
 21
515.433029
  0
ARC
  8
DATA
  6
CONTINUOUS
 62
     7
 10
263.75
 20
515.433029
 40
3.0
 50
0.0
 51
90.0
  0
LINE
  8
DATA
  6
CONTINUOUS
 62
     7
 10
266.75
 20
576.6
 11
276.15
 21
576.6
  0
LINE
  8
DATA
  6
CONTINUOUS
 62
     7
 10
266.75
 20
627.671102
 11
276.15
 21
627.671102
  0
LINE
  8
DATA
  6
CONTINUOUS
 62
     7
 10
276.15
 20
637.210574
 11
290.15
 21
637.210574
  0
LINE
  8
DATA
  6
CONTINUOUS
 62
     7
 10
281.95
 20
640.510574
 11
290.15
 21
640.510574
  0
LINE
  8
DATA
  6
CONTINUOUS
 62
     7
 10
290.15
 20
637.210574
 11
290.15
 21
640.510574
  0
LINE
  8
DATA
  6
CONTINUOUS
 62
     7
 10
281.95
 20
642.110574
 11
281.95
 21
640.510574
  0
LINE
  8
DATA
  6
CONTINUOUS
 62
     7
 10
291.75
 20
635.610574
 11
291.75
 21
642.110574
  0
LINE
  8
DATA
  6
CONTINUOUS
 62
     7
 10
281.95
 20
642.110574
 11
307.0
 21
642.110574
  0
LINE
  8
DATA
  6
CONTINUOUS
 62
     7
 10
277.75
 20
635.610574
 11
307.0
 21
635.610574
  0
LINE
  8
DATA
  6
CONTINUOUS
 62
     7
 10
307.0
 20
635.610574
 11
307.0
 21
642.110574
  0
LINE
  8
DATA
  6
CONTINUOUS
 62
     7
 10
266.75
 20
575.0
 11
266.75
 21
651.27713
  0
LINE
  8
DATA
  6
CONTINUOUS
 62
     7
 10
276.15
 20
576.6
 11
276.15
 21
637.210574
  0
LINE
  8
DATA
  6
CONTINUOUS
 62
     7
 10
277.75
 20
575.0
 11
277.75
 21
635.610574
  0
TEXT
  8
DIMENSIONS
  6
CONTINUOUS
 62
     7
 10
518.75
 20
409.641652
 40
12.5
  1
190
 50
90.0
  7
TTF_DEFAULT
  0
LINE
  8
DATA
  6
CONTINUOUS
 62
     7
 10
423.606028
 20
518.433029
 11
422.006028
 21
518.433029
  0
LINE
  8
DATA
  6
CONTINUOUS
 62
     7
 10
401.439472
 20
484.778129
 11
414.439472
 21
484.778129
  0
LINE
  8
DATA
  6
CONTINUOUS
 62
     7
 10
423.606028
 20
518.433029
 11
423.606028
 21
501.233859
  0
ARC
  8
DATA
  6
CONTINUOUS
 62
     7
 10
419.606028
 20
501.233859
 40
4.0
 50
290.0
 51
0.0
  0
LINE
  8
DATA
  6
CONTINUOUS
 62
     7
 10
422.006028
 20
501.233859
 11
422.006028
 21
518.433029
  0
ARC
  8
DATA
  6
CONTINUOUS
 62
     7
 10
419.606028
 20
501.233859
 40
2.4
 50
290.0
 51
0.0
  0
LINE
  8
DIMENSIONS
  6
CONTINUOUS
 62
     7
 10
523.3334
 20
505.0
 11
525.0
 21
515.0
  0
TEXT
  8
DIMENSIONS
  6
CONTINUOUS
 62
     7
 10
518.75
 20
599.096646
 40
12.5
  1
71.5
 50
90.0
  7
TTF_DEFAULT
  0
LINE
  8
DIMENSIONS
  6
CONTINUOUS
 62
     7
 10
525.0
 20
575.0
 11
525.0
 21
646.5
  0
LINE
  8
DIMENSIONS
  6
CONTINUOUS
 62
     7
 10
523.3334
 20
585.0
 11
525.0
 21
575.0
  0
LINE
  8
DIMENSIONS
  6
CONTINUOUS
 62
     7
 10
523.3334
 20
636.5
 11
525.0
 21
646.5
  0
TEXT
  8
SPEC
  6
CONTINUOUS
 62
     7
 10
253.125
 20
1309.375
 40
12.5
  1
スピーカー側金具 : 157(W)×193.4(H)×76.3(D)mm
  7
TTF_DEFAULT
  0
TEXT
  8
SPEC
  6
CONTINUOUS
 62
     7
 10
253.125
 20
1294.375
 40
12.5
  1
壁側金具 : 154.5(W)×190(H)×71.5(D)mm
  7
TTF_DEFAULT
  0
TEXT
  8
SPEC
  6
CONTINUOUS
 62
     7
 10
253.125
 20
1271.875
 40
12.5
  1
約1.1kg
  7
TTF_DEFAULT
  0
LINE
  8
SPEC
  6
CONTINUOUS
 62
     7
 10
87.5
 20
1268.75
 11
87.5
 21
1325.0
  0
TEXT
  8
SPEC
  6
CONTINUOUS
 62
     7
 10
90.625
 20
1271.875
 40
12.5
  1
重量
  7
TTF_DEFAULT
  0
TEXT
  8
SPEC
  6
CONTINUOUS
 62
     7
 10
93.75
 20
1331.25
 40
15.0
  1
仕様
  7
TTF_DEFAULT
  0
TEXT
  8
SPEC
  6
CONTINUOUS
 62
     7
 10
90.625
 20
1309.375
 40
12.5
  1
寸法
  7
TTF_DEFAULT
  0
LINE
  8
SPEC
  6
CONTINUOUS
 62
     7
 10
250.0
 20
1325.0
 11
250.0
 21
1268.75
  0
LINE
  8
DATA
  6
CONTINUOUS
 62
     7
 10
775.0
 20
325.0
 11
846.5
 21
325.0
  0
LINE
  8
DIMENSIONS
  6
CONTINUOUS
 62
     7
 10
775.0
 20
275.0
 11
846.5
 21
275.0
  0
LINE
  8
DATA
  6
CONTINUOUS
 62
     7
 10
775.0
 20
483.5
 11
846.5
 21
483.5
  0
TEXT
  8
HIBINO-BASE
  6
CONTINUOUS
 62
     7
 10
743.75
 20
87.5
 40
12.5
  1
N.Sasaki
  7
TTF_DEFAULT
  0
TEXT
  8
DATA
  6
CONTINUOUS
 62
     7
 10
762.5
 20
134.375
 40
15.0
  1
2516
  7
TTF_DEFAULT
  0
TEXT
  8
DATA
  6
CONTINUOUS
 62
     7
 10
762.5
 20
150.0
 40
9.0
  1
マウント　ブラケット (8330A , 8340A用)
  7
TTF_DEFAULT
  0
LINE
  8
DATA
  6
CONTINUOUS
 62
     7
 10
696.89254
 20
325.0
 11
696.89254
 21
483.5
  0
LINE
  8
DATA
  6
CONTINUOUS
 62
     7
 10
607.59254
 20
325.0
 11
607.59254
 21
483.5
  0
LINE
  8
DATA
  6
CONTINUOUS
 62
     7
 10
575.019166
 20
338.632414
 11
589.913181
 21
480.365783
  0
LINE
  8
DIMENSIONS
  6
CONTINUOUS
 62
     7
 10
550.0
 20
340.75
 11
550.0
 21
404.25
  0
LINE
  8
DATA
  6
CONTINUOUS
 62
     7
 10
729.465913
 20
338.632414
 11
714.571898
 21
480.365783
  0
LINE
  8
DATA
  6
CONTINUOUS
 62
     7
 10
776.6
 20
325.0
 11
776.6
 21
483.5
  0
LINE
  8
DATA
  6
CONTINUOUS
 62
     7
 10
775.0
 20
325.0
 11
775.0
 21
483.5
  0
TEXT
  8
DIMENSIONS
  6
CONTINUOUS
 62
     7
 10
543.75
 20
361.35112
 40
12.5
  1
63.5
 50
90.0
  7
TTF_DEFAULT
  0
LINE
  8
DATA
  6
CONTINUOUS
 62
     7
 10
602.24254
 20
325.0
 11
702.24254
 21
325.0
  0
LINE
  8
DIMENSIONS
  6
CONTINUOUS
 62
     7
 10
620.49254
 20
300.0
 11
683.99254
 21
300.0
  0
LINE
  8
DIMENSIONS
  6
CONTINUOUS
 62
     7
 10
575.0
 20
275.0
 11
729.48508
 21
275.0
  0
LINE
  8
DATA
  6
CONTINUOUS
 62
     7
 10
612.5
 20
225.0
 11
687.5
 21
225.0
  0
TEXT
  8
DIMENSIONS
  6
CONTINUOUS
 62
     7
 10
641.09366
 20
306.25
 40
12.5
  1
63.5
  7
TTF_DEFAULT
  0
TEXT
  8
DIMENSIONS
  6
CONTINUOUS
 62
     7
 10
637.841903
 20
281.25
 40
12.5
  1
154.5
  7
TTF_DEFAULT
  0
TEXT
  8
DATA
  6
CONTINUOUS
 62
     7
 10
625.616431
 20
231.25
 40
12.5
  1
壁側金具
  7
TTF_DEFAULT
  0
TEXT
  8
HIBINO-BASE
  6
CONTINUOUS
 62
     7
 10
618.75
 20
87.5
 40
12.5
  1
'99.06.
  7
TTF_DEFAULT
  0
TEXT
  8
HIBINO-BASE
  6
CONTINUOUS
 62
     7
 10
615.0
 20
112.5
 40
12.5
  1
DATE
  7
TTF_DEFAULT
  0
LINE
  8
HIBINO-BASE
  6
CONTINUOUS
 62
     7
 10
571.875
 20
81.25
 11
590.625
 21
100.0
  0
TEXT
  8
HIBINO-BASE
  6
CONTINUOUS
 62
     7
 10
568.75
 20
90.625
 40
15.0
  1
1
  7
TTF_DEFAULT
  0
TEXT
  8
HIBINO-BASE
  6
CONTINUOUS
 62
     7
 10
565.0
 20
112.5
 40
12.5
  1
SCALE
  7
TTF_DEFAULT
  0
LINE
  8
HIBINO-BASE
  6
CONTINUOUS
 62
     7
 10
612.5
 20
75.0
 11
612.5
 21
125.0
  0
LINE
  8
HIBINO-BASE
  6
CONTINUOUS
 62
     7
 10
562.5
 20
75.0
 11
562.5
 21
125.0
  0
TEXT
  8
HIBINO-BASE
  6
CONTINUOUS
 62
     7
 10
587.5
 20
81.25
 40
15.0
  1
5
  7
TTF_DEFAULT
  0
LINE
  8
DIMENSIONS
  6
CONTINUOUS
 62
     7
 10
551.6666
 20
350.75
 11
550.0
 21
340.75
  0
LINE
  8
DIMENSIONS
  6
CONTINUOUS
 62
     7
 10
548.3334
 20
350.75
 11
550.0
 21
340.75
  0
ARC
  8
DATA
  6
CONTINUOUS
 62
     7
 10
578.5
 20
338.266631
 40
3.5
 50
174.001104
 51
248.198591
  0
LINE
  8
DIMENSIONS
  6
CONTINUOUS
 62
     7
 10
630.49254
 20
298.3334
 11
620.49254
 21
300.0
  0
LINE
  8
DIMENSIONS
  6
CONTINUOUS
 62
     7
 10
630.49254
 20
301.6666
 11
620.49254
 21
300.0
  0
LINE
  8
DATA
  6
CONTINUOUS
 62
     7
 10
602.24254
 20
325.0
 11
577.200133
 21
335.016963
  0
LINE
  8
DIMENSIONS
  6
CONTINUOUS
 62
     7
 10
550.0
 20
325.0
 11
550.0
 21
305.0
  0
LINE
  8
DIMENSIONS
  6
CONTINUOUS
 62
     7
 10
551.6666
 20
315.0
 11
550.0
 21
325.0
  0
LINE
  8
DIMENSIONS
  6
CONTINUOUS
 62
     7
 10
548.3334
 20
315.0
 11
550.0
 21
325.0
  0
LINE
  8
DIMENSIONS
  6
CONTINUOUS
 62
     7
 10
575.0
 20
300.0
 11
620.49254
 21
300.0
  0
LINE
  8
DIMENSIONS
  6
CONTINUOUS
 62
     7
 10
585.0
 20
298.3334
 11
575.0
 21
300.0
  0
LINE
  8
DIMENSIONS
  6
CONTINUOUS
 62
     7
 10
585.0
 20
301.6666
 11
575.0
 21
300.0
  0
LINE
  8
DIMENSIONS
  6
CONTINUOUS
 62
     7
 10
610.49254
 20
298.3334
 11
620.49254
 21
300.0
  0
LINE
  8
DIMENSIONS
  6
CONTINUOUS
 62
     7
 10
610.49254
 20
301.6666
 11
620.49254
 21
300.0
  0
LINE
  8
DIMENSIONS
  6
CONTINUOUS
 62
     7
 10
620.49254
 20
332.25
 11
620.49254
 21
293.75
  0
LINE
  8
DIMENSIONS
  6
CONTINUOUS
 62
     7
 10
575.0
 20
333.266631
 11
575.0
 21
268.75
  0
LINE
  8
DIMENSIONS
  6
CONTINUOUS
 62
     7
 10
585.0
 20
273.3334
 11
575.0
 21
275.0
  0
LINE
  8
DIMENSIONS
  6
CONTINUOUS
 62
     7
 10
585.0
 20
276.6666
 11
575.0
 21
275.0
  0
LINE
  8
DIMENSIONS
  6
CONTINUOUS
 62
     7
 10
526.6666
 20
335.0
 11
525.0
 21
325.0
  0
TEXT
  8
DIMENSIONS
  6
CONTINUOUS
 62
     7
 10
543.75
 20
292.0
 40
12.5
  1
15.7
 50
90.0
  7
TTF_DEFAULT
  0
TEXT
  8
DIMENSIONS
  6
CONTINUOUS
 62
     7
 10
586.59739
 20
306.25
 40
12.5
  1
45.5
  7
TTF_DEFAULT
  0
CIRCLE
  8
DATA
  6
CONTINUOUS
 62
     7
 10
620.49254
 20
340.75
 40
3.5
  0
LINE
  8
DIMENSIONS
  6
CONTINUOUS
 62
     7
 10
611.99254
 20
340.75
 11
543.75
 21
340.75
  0
LINE
  8
HIBINO-BASE
  6
CONTINUOUS
 62
     7
 10
675.0
 20
75.0
 11
675.0
 21
187.5
  0
TEXT
  8
HIBINO-BASE
  6
CONTINUOUS
 62
     7
 10
677.5
 20
175.0
 40
12.5
  1
TITLE
  7
TTF_DEFAULT
  0
TEXT
  8
DATA
  6
CONTINUOUS
 62
     7
 10
762.5
 20
165.625
 40
15.0
  1
JBL
  7
TTF_DEFAULT
  0
TEXT
  8
HIBINO-BASE
  6
CONTINUOUS
 62
     7
 10
740.0
 20
112.5
 40
12.5
  1
DRAWN
  7
TTF_DEFAULT
  0
TEXT
  8
HIBINO-BASE
  6
CONTINUOUS
 62
     7
 10
677.5
 20
112.5
 40
12.5
  1
DESIGN
  7
TTF_DEFAULT
  0
LINE
  8
HIBINO-BASE
  6
CONTINUOUS
 62
     7
 10
737.5
 20
125.0
 11
737.5
 21
75.0
  0
LINE
  8
DIMENSIONS
  6
CONTINUOUS
 62
     7
 10
785.0
 20
273.3334
 11
775.0
 21
275.0
  0
LINE
  8
DIMENSIONS
  6
CONTINUOUS
 62
     7
 10
785.0
 20
276.6666
 11
775.0
 21
275.0
  0
ARC
  8
DATA
  6
CONTINUOUS
 62
     7
 10
725.98508
 20
338.266631
 40
3.5
 50
291.801409
 51
5.998896
  0
LINE
  8
DATA
  6
CONTINUOUS
 62
     7
 10
702.24254
 20
325.0
 11
727.284947
 21
335.016963
  0
LINE
  8
DIMENSIONS
  6
CONTINUOUS
 62
     7
 10
683.99254
 20
332.25
 11
683.99254
 21
293.75
  0
LINE
  8
DIMENSIONS
  6
CONTINUOUS
 62
     7
 10
673.99254
 20
298.3334
 11
683.99254
 21
300.0
  0
LINE
  8
DIMENSIONS
  6
CONTINUOUS
 62
     7
 10
673.99254
 20
301.6666
 11
683.99254
 21
300.0
  0
LINE
  8
DIMENSIONS
  6
CONTINUOUS
 62
     7
 10
729.48508
 20
333.266631
 11
729.48508
 21
268.75
  0
LINE
  8
DIMENSIONS
  6
CONTINUOUS
 62
     7
 10
719.48508
 20
273.3334
 11
729.48508
 21
275.0
  0
LINE
  8
DIMENSIONS
  6
CONTINUOUS
 62
     7
 10
719.48508
 20
276.6666
 11
729.48508
 21
275.0
  0
CIRCLE
  8
DATA
  6
CONTINUOUS
 62
     7
 10
683.99254
 20
340.75
 40
3.5
  0
LINE
  8
DATA
  6
CONTINUOUS
 62
     7
 10
775.0
 20
336.0
 11
776.6
 21
336.0
  0
LINE
  8
DIMENSIONS
  6
CONTINUOUS
 62
     7
 10
775.0
 20
320.0
 11
775.0
 21
268.75
  0
LINE
  8
DATA
  6
CONTINUOUS
 62
     7
 10
613.99254
 20
590.1
 11
690.49254
 21
590.1
  0
LINE
  8
DATA
  6
CONTINUOUS
 62
     7
 10
613.99254
 20
588.5
 11
690.49254
 21
588.5
  0
LINE
  8
DATA
  6
CONTINUOUS
 62
     7
 10
617.49254
 20
515.0
 11
686.99254
 21
515.0
  0
LINE
  8
DATA
  6
CONTINUOUS
 62
     7
 10
613.99254
 20
496.0
 11
690.49254
 21
496.0
  0
LINE
  8
DATA
  6
CONTINUOUS
 62
     7
 10
611.59254
 20
646.5
 11
692.89254
 21
646.5
  0
CIRCLE
  8
DATA
  6
CONTINUOUS
 62
     7
 10
620.49254
 20
467.75
 40
3.5
  0
CIRCLE
  8
DATA
  6
CONTINUOUS
 62
     7
 10
620.49254
 20
404.25
 40
3.5
  0
ARC
  8
DATA
  6
CONTINUOUS
 62
     7
 10
593.394015
 20
480.0
 40
3.5
 50
90.0
 51
174.001104
  0
LINE
  8
DATA
  6
CONTINUOUS
 62
     7
 10
593.394015
 20
483.5
 11
613.99254
 21
483.5
  0
ARC
  8
DATA
  6
CONTINUOUS
 62
     7
 10
617.49254
 20
511.5
 40
3.5
 50
90.0
 51
180.0
  0
LINE
  8
DATA
  6
CONTINUOUS
 62
     7
 10
613.99254
 20
483.5
 11
613.99254
 21
511.5
  0
LINE
  8
DIMENSIONS
  6
CONTINUOUS
 62
     7
 10
526.6666
 20
505.0
 11
525.0
 21
515.0
  0
LINE
  8
DIMENSIONS
  6
CONTINUOUS
 62
     7
 10
611.99254
 20
404.25
 11
543.75
 21
404.25
  0
LINE
  8
DIMENSIONS
  6
CONTINUOUS
 62
     7
 10
551.6666
 20
394.25
 11
550.0
 21
404.25
  0
LINE
  8
DIMENSIONS
  6
CONTINUOUS
 62
     7
 10
548.3334
 20
394.25
 11
550.0
 21
404.25
  0
LINE
  8
DIMENSIONS
  6
CONTINUOUS
 62
     7
 10
550.0
 20
404.25
 11
550.0
 21
467.75
  0
LINE
  8
DIMENSIONS
  6
CONTINUOUS
 62
     7
 10
611.99254
 20
404.25
 11
543.75
 21
404.25
  0
LINE
  8
DIMENSIONS
  6
CONTINUOUS
 62
     7
 10
611.99254
 20
467.75
 11
543.75
 21
467.75
  0
LINE
  8
DIMENSIONS
  6
CONTINUOUS
 62
     7
 10
551.6666
 20
414.25
 11
550.0
 21
404.25
  0
LINE
  8
DIMENSIONS
  6
CONTINUOUS
 62
     7
 10
548.3334
 20
414.25
 11
550.0
 21
404.25
  0
LINE
  8
DIMENSIONS
  6
CONTINUOUS
 62
     7
 10
551.6666
 20
457.75
 11
550.0
 21
467.75
  0
LINE
  8
DIMENSIONS
  6
CONTINUOUS
 62
     7
 10
548.3334
 20
457.75
 11
550.0
 21
467.75
  0
TEXT
  8
DIMENSIONS
  6
CONTINUOUS
 62
     7
 10
543.75
 20
424.85112
 40
12.5
  1
63.5
 50
90.0
  7
TTF_DEFAULT
  0
CIRCLE
  8
DATA
  6
CONTINUOUS
 62
     7
 10
626.99254
 20
506.7
 40
3.5
  0
CIRCLE
  8
DATA
  6
CONTINUOUS
 62
     7
 10
652.24254
 20
506.7
 40
1.75
  0
LINE
  8
DATA
  6
CONTINUOUS
 62
     7
 10
613.99254
 20
588.5
 11
613.99254
 21
644.9
  0
LINE
  8
DATA
  6
CONTINUOUS
 62
     7
 10
575.0
 20
576.6
 11
575.0
 21
575.0
  0
LINE
  8
DATA
  6
CONTINUOUS
 62
     7
 10
590.24254
 20
575.0
 11
590.24254
 21
576.6
  0
LINE
  8
DATA
  6
CONTINUOUS
 62
     7
 10
575.0
 20
575.0
 11
605.19254
 21
575.0
  0
ARC
  8
DATA
  6
CONTINUOUS
 62
     7
 10
605.19254
 20
579.0
 40
4.0
 50
270.0
 51
0.0
  0
ARC
  8
DATA
  6
CONTINUOUS
 62
     7
 10
611.59254
 20
642.5
 40
4.0
 50
90.0
 51
180.0
  0
LINE
  8
DATA
  6
CONTINUOUS
 62
     7
 10
607.59254
 20
579.0
 11
607.59254
 21
642.5
  0
LINE
  8
DATA
  6
CONTINUOUS
 62
     7
 10
575.0
 20
576.6
 11
605.19254
 21
576.6
  0
ARC
  8
DATA
  6
CONTINUOUS
 62
     7
 10
605.19254
 20
579.0
 40
2.4
 50
270.0
 51
360.0
  0
LINE
  8
DATA
  6
CONTINUOUS
 62
     7
 10
609.19254
 20
579.0
 11
609.19254
 21
642.5
  0
LINE
  8
DATA
  6
CONTINUOUS
 62
     7
 10
611.59254
 20
644.9
 11
613.99254
 21
644.9
  0
ARC
  8
DATA
  6
CONTINUOUS
 62
     7
 10
611.59254
 20
642.5
 40
2.4
 50
90.0
 51
180.0
  0
LINE
  8
DIMENSIONS
  6
CONTINUOUS
 62
     7
 10
526.6666
 20
585.0
 11
525.0
 21
575.0
  0
LINE
  8
DIMENSIONS
  6
CONTINUOUS
 62
     7
 10
526.6666
 20
636.5
 11
525.0
 21
646.5
  0
LINE
  8
DIMENSIONS
  6
CONTINUOUS
 62
     7
 10
550.0
 20
646.5
 11
550.0
 21
588.5
  0
LINE
  8
DIMENSIONS
  6
CONTINUOUS
 62
     7
 10
608.99254
 20
588.5
 11
543.75
 21
588.5
  0
LINE
  8
DIMENSIONS
  6
CONTINUOUS
 62
     7
 10
548.3334
 20
636.5
 11
550.0
 21
646.5
  0
LINE
  8
DIMENSIONS
  6
CONTINUOUS
 62
     7
 10
551.6666
 20
636.5
 11
550.0
 21
646.5
  0
LINE
  8
DIMENSIONS
  6
CONTINUOUS
 62
     7
 10
548.3334
 20
598.5
 11
550.0
 21
588.5
  0
LINE
  8
DIMENSIONS
  6
CONTINUOUS
 62
     7
 10
551.6666
 20
598.5
 11
550.0
 21
588.5
  0
TEXT
  8
DIMENSIONS
  6
CONTINUOUS
 62
     7
 10
543.75
 20
610.880763
 40
12.5
  1
58
 50
90.0
  7
TTF_DEFAULT
  0
TEXT
  8
DIMENSIONS
  6
CONTINUOUS
 62
     7
 10
731.25
 20
531.25
 40
12.5
  1
6-φ7
  7
TTF_DEFAULT
  0
LINE
  8
DIMENSIONS
  6
CONTINUOUS
 62
     7
 10
685.316695
 20
470.989848
 11
712.5
 21
537.5
  0
ARC
  8
DATA
  6
CONTINUOUS
 62
     7
 10
711.091065
 20
480.0
 40
3.5
 50
5.998896
 51
90.0
  0
LINE
  8
DATA
  6
CONTINUOUS
 62
     7
 10
690.49254
 20
483.5
 11
711.091065
 21
483.5
  0
ARC
  8
DATA
  6
CONTINUOUS
 62
     7
 10
686.99254
 20
511.5
 40
3.5
 50
360.0
 51
90.0
  0
LINE
  8
DATA
  6
CONTINUOUS
 62
     7
 10
690.49254
 20
483.5
 11
690.49254
 21
511.5
  0
CIRCLE
  8
DATA
  6
CONTINUOUS
 62
     7
 10
677.49254
 20
506.7
 40
3.5
  0
CIRCLE
  8
DATA
  6
CONTINUOUS
 62
     7
 10
683.99254
 20
467.75
 40
3.5
  0
CIRCLE
  8
DATA
  6
CONTINUOUS
 62
     7
 10
683.99254
 20
404.25
 40
3.5
  0
LINE
  8
DIMENSIONS
  6
CONTINUOUS
 62
     7
 10
690.642719
 20
479.61603
 11
685.316695
 21
470.989848
  0
LINE
  8
DIMENSIONS
  6
CONTINUOUS
 62
     7
 10
687.557273
 20
480.87708
 11
685.316695
 21
470.989848
  0
LINE
  8
DIMENSIONS
  6
CONTINUOUS
 62
     7
 10
712.5
 20
537.5
 11
725.0
 21
537.5
  0
LINE
  8
DATA
  6
CONTINUOUS
 62
     7
 10
690.49254
 20
588.5
 11
690.49254
 21
644.9
  0
LINE
  8
DATA
  6
CONTINUOUS
 62
     7
 10
729.48508
 20
575.0
 11
729.48508
 21
576.6
  0
LINE
  8
DATA
  6
CONTINUOUS
 62
     7
 10
714.24254
 20
576.6
 11
714.24254
 21
575.0
  0
LINE
  8
DATA
  6
CONTINUOUS
 62
     7
 10
699.29254
 20
575.0
 11
729.48508
 21
575.0
  0
ARC
  8
DATA
  6
CONTINUOUS
 62
     7
 10
699.29254
 20
579.0
 40
4.0
 50
180.0
 51
270.0
  0
ARC
  8
DATA
  6
CONTINUOUS
 62
     7
 10
692.89254
 20
642.5
 40
4.0
 50
0.0
 51
90.0
  0
LINE
  8
DATA
  6
CONTINUOUS
 62
     7
 10
690.49254
 20
644.9
 11
692.89254
 21
644.9
  0
LINE
  8
DATA
  6
CONTINUOUS
 62
     7
 10
695.29254
 20
579.0
 11
695.29254
 21
642.5
  0
ARC
  8
DATA
  6
CONTINUOUS
 62
     7
 10
692.89254
 20
642.5
 40
2.4
 50
360.0
 51
90.0
  0
LINE
  8
DATA
  6
CONTINUOUS
 62
     7
 10
699.29254
 20
576.6
 11
729.48508
 21
576.6
  0
LINE
  8
DATA
  6
CONTINUOUS
 62
     7
 10
696.89254
 20
642.5
 11
696.89254
 21
579.0
  0
ARC
  8
DATA
  6
CONTINUOUS
 62
     7
 10
699.29254
 20
579.0
 40
2.4
 50
180.0
 51
270.0
  0
LINE
  8
DATA
  6
CONTINUOUS
 62
     7
 10
846.5
 20
325.0
 11
846.5
 21
493.6
  0
TEXT
  8
HIBINO-BASE
  6
CONTINUOUS
 62
     7
 10
865.0
 20
112.5
 40
12.5
  1
DRAWING NO.
  7
TTF_DEFAULT
  0
TEXT
  8
HIBINO-BASE
  6
CONTINUOUS
 62
     7
 10
793.650131
 20
42.9566
 40
20.0
  1
ヒビノ株式会社
  7
TTF_DEFAULT
  0
TEXT
  8
HIBINO-BASE
  6
CONTINUOUS
 62
     7
 10
802.5
 20
112.5
 40
12.5
  1
CHECK
  7
TTF_DEFAULT
  0
LINE
  8
HIBINO-BASE
  6
CONTINUOUS
 62
     7
 10
862.5
 20
125.0
 11
862.5
 21
75.0
  0
LINE
  8
HIBINO-BASE
  6
CONTINUOUS
 62
     7
 10
800.0
 20
75.0
 11
800.0
 21
125.0
  0
LINE
  8
DIMENSIONS
  6
CONTINUOUS
 62
     7
 10
846.5
 20
320.0
 11
846.5
 21
268.75
  0
LINE
  8
DIMENSIONS
  6
CONTINUOUS
 62
     7
 10
836.5
 20
273.3334
 11
846.5
 21
275.0
  0
LINE
  8
DIMENSIONS
  6
CONTINUOUS
 62
     7
 10
836.5
 20
276.6666
 11
846.5
 21
275.0
  0
TEXT
  8
DIMENSIONS
  6
CONTINUOUS
 62
     7
 10
799.013666
 20
281.25
 40
12.5
  1
71.5
  7
TTF_DEFAULT
  0
ARC
  8
DATA
  6
CONTINUOUS
 62
     7
 10
842.5
 20
493.6
 40
2.4
 50
0.0
 51
90.0
  0
LINE
  8
DATA
  6
CONTINUOUS
 62
     7
 10
844.9
 20
493.6
 11
844.9
 21
483.5
  0
LINE
  8
DATA
  6
CONTINUOUS
 62
     7
 10
792.5
 20
496.0
 11
842.5
 21
496.0
  0
ARC
  8
DATA
  6
CONTINUOUS
 62
     7
 10
792.5
 20
500.0
 40
2.4
 50
180.0
 51
270.0
  0
LINE
  8
DATA
  6
CONTINUOUS
 62
     7
 10
792.5
 20
497.6
 11
842.5
 21
497.6
  0
LINE
  8
DATA
  6
CONTINUOUS
 62
     7
 10
790.1
 20
500.0
 11
790.1
 21
515.0
  0
ARC
  8
DATA
  6
CONTINUOUS
 62
     7
 10
792.5
 20
500.0
 40
4.0
 50
180.0
 51
270.0
  0
LINE
  8
DATA
  6
CONTINUOUS
 62
     7
 10
788.5
 20
500.0
 11
788.5
 21
515.0
  0
ARC
  8
DATA
  6
CONTINUOUS
 62
     7
 10
842.5
 20
493.6
 40
4.0
 50
0.0
 51
90.0
  0
LINE
  8
DATA
  6
CONTINUOUS
 62
     7
 10
788.5
 20
515.0
 11
790.1
 21
515.0
  0
LINE
  8
SPEC
  6
CONTINUOUS
 62
     7
 10
575.0
 20
1325.0
 11
575.0
 21
1268.75
  0
ENDSEC
  0
EOF
