  0
SECTION
  2
HEADER
  9
$ACADVER
  1
AC1004
  9
$INSBASE
 10
0.0
 20
0.0
  9
$EXTMIN
 10
-66.173333
 20
-68.95
  9
$EXTMAX
 10
2033.826667
 20
2901.05
  9
$LIMMIN
 10
-66.173333
 20
-68.95
  9
$LIMMAX
 10
2033.826667
 20
2901.05
  9
$VIEWCTR
 10
6.0
 20
4.5
  9
$VIEWSIZE
 40
9.0
  9
$SNAPMODE
 70
     0
  9
$SNAPUNIT
 10
12.5
 20
12.5
  9
$SNAPBASE
 10
0.0
 20
0.0
  9
$SNAPANG
 50
0.0
  9
$SNAPSTYLE
 70
     0
  9
$SNAPISOPAIR
 70
     0
  9
$GRIDMODE
 70
     1
  9
$GRIDUNIT
 10
50.0
 20
50.0
  9
$ORTHOMODE
 70
     0
  9
$REGENMODE
 70
     1
  9
$FILLMODE
 70
     1
  9
$QTEXTMODE
 70
     0
  9
$DRAGMODE
 70
     2
  9
$LTSCALE
 40
1.0
  9
$OSMODE
 70
     1
  9
$ATTMODE
 70
     1
  9
$TEXTSIZE
 40
0.2
  9
$TRACEWID
 40
0.05
  9
$TEXTSTYLE
  7
STANDARD
  9
$CLAYER
  8
DATA
  9
$CELTYPE
  6
CONTINUOUS
  9
$CECOLOR
 62
     7
  9
$DIMSCALE
 40
1.0
  9
$DIMASZ
 40
0.18
  9
$DIMEXO
 40
0.0625
  9
$DIMDLI
 40
0.38
  9
$DIMRND
 40
0.0
  9
$DIMDLE
 40
0.0
  9
$DIMEXE
 40
0.18
  9
$DIMTP
 40
0.0
  9
$DIMTM
 40
0.0
  9
$DIMTXT
 40
0.18
  9
$DIMCEN
 40
0.09
  9
$DIMTSZ
 40
0.0
  9
$DIMTOL
 70
     0
  9
$DIMLIM
 70
     0
  9
$DIMTIH
 70
     1
  9
$DIMTOH
 70
     1
  9
$DIMSE1
 70
     0
  9
$DIMSE2
 70
     0
  9
$DIMTAD
 70
     0
  9
$DIMZIN
 70
     0
  9
$DIMBLK
  1

  9
$DIMASO
 70
     1
  9
$DIMSHO
 70
     1
  9
$DIMPOST
  1

  9
$DIMAPOST
  1

  9
$DIMALT
 70
     0
  9
$DIMALTD
 70
     2
  9
$DIMALTF
 40
25.4
  9
$DIMLFAC
 40
1.0
  9
$LUNITS
 70
     2
  9
$LUPREC
 70
     4
  9
$AXISMODE
 70
     0
  9
$AXISUNIT
 10
0.0
 20
0.0
  9
$SKETCHINC
 40
0.1
  9
$FILLETRAD
 40
5.0
  9
$AUNITS
 70
     0
  9
$AUPREC
 70
     0
  9
$MENU
  1
acad
  9
$ELEVATION
 40
0.0
  9
$THICKNESS
 40
0.0
  9
$VIEWDIR
 10
0.0
 20
0.0
 30
1.0
  9
$LIMCHECK
 70
     0
  9
$BLIPMODE
 70
     1
  9
$CHAMFERA
 40
0.0
  9
$CHAMFERB
 40
0.0
  9
$FASTZOOM
 70
     1
  9
$SKPOLY
 70
     0
  9
$TDCREATE
 40
0.0
  9
$TDUPDATE
 40
0.0
  9
$TDINDWG
 40
0.0
  9
$TDUSRTIMER
 40
0.0
  9
$USRTIMER
 70
     1
  9
$ANGBASE
 50
0.0
  9
$ANGDIR
 70
     0
  9
$PDMODE
 70
     0
  9
$PDSIZE
 40
0.0
  9
$PLINEWID
 40
0.0
  9
$COORDS
 70
     1
  9
$SPLFRAME
 70
     0
  9
$SPLINESEGS
 70
    10
  9
$ATTDIA
 70
     0
  9
$ATTREQ
 70
     1
  9
$USERI1
 70
     0
  9
$USERI2
 70
     0
  9
$USERI3
 70
     0
  9
$USERI4
 70
     0
  9
$USERI5
 70
     0
  9
$USERR1
 40
0.0
  9
$USERR2
 40
0.0
  9
$USERR3
 40
0.0
  9
$USERR4
 40
0.0
  9
$USERR5
 40
0.0
  0
ENDSEC
  0
SECTION
  2
TABLES
  0
TABLE
  2
LTYPE
 70
    11
  0
LTYPE
  2
CONTINUOUS
 70
     0
  3
Solid line
 72
    65
 73
     0
 40
0.0
  0
LTYPE
  2
DASHED
 70
     0
  3
__ __ __ __ __ __ __ __ __ __ __ __ __ __ __
 72
    65
 73
     2
 40
0.75
 49
0.5
 49
-0.25
  0
LTYPE
  2
HIDDEN
 70
     0
  3
_ _ _ _ _ _ _ _ _ _ _ _ _ _ _ _ _ _ _ _ _ _ 
 72
    65
 73
     2
 40
0.25
 49
0.125
 49
-0.125
  0
LTYPE
  2
CENTER
 70
     0
  3
____ _ ____ _ ____ _ ____ _ ____ _ ____ _ __
 72
    65
 73
     4
 40
2.0
 49
1.25
 49
-0.25
 49
0.25
 49
-0.25
  0
LTYPE
  2
PHANTOM
 70
     0
  3
_____ _ _ _____ _ _ _____ _ _ _____ _ _ ____
 72
    65
 73
     6
 40
2.5
 49
1.25
 49
-0.25
 49
0.25
 49
-0.25
 49
0.25
 49
-0.25
  0
LTYPE
  2
DOT
 70
     0
  3
............................................
 72
    65
 73
     2
 40
0.25
 49
0.0
 49
-0.25
  0
LTYPE
  2
DASHDOT
 70
     0
  3
__ . __ . __ . __ . __ . __ . __ . __ . __ .
 72
    65
 73
     4
 40
1.0
 49
0.5
 49
-0.25
 49
0.0
 49
-0.25
  0
LTYPE
  2
BORDER
 70
     0
  3
__ __ . __ __ . __ __ . __ __ . __ __ . __ _
 72
    65
 73
     6
 40
1.75
 49
0.5
 49
-0.25
 49
0.5
 49
-0.25
 49
0.0
 49
-0.25
  0
LTYPE
  2
DIVIDE
 70
     0
  3
__ . . __ . . __ . . __ . . __ . . __ . . __
 72
    65
 73
     6
 40
1.25
 49
0.5
 49
-0.25
 49
0.0
 49
-0.25
 49
0.0
 49
-0.25
  0
LTYPE
  2
DOTS
 70
     0
  3
close                                       
 72
    65
 73
     2
 40
0.1
 49
0.05
 49
-0.05
  0
LTYPE
  2
CLOSE
 70
     0
  3
                                            
 72
    65
 73
     0
 40
0.0
  0
ENDTAB
  0
TABLE
  2
LAYER
 70
     6
  0
LAYER
  2
0
 70
     0
 62
     7
  6
CONTINUOUS
  0
LAYER
  2
LAYER01
 70
     0
 62
     7
  6
CONTINUOUS
  0
LAYER
  2
DATA
 70
     0
 62
     7
  6
CONTINUOUS
  0
LAYER
  2
HIBINO-BASE
 70
     0
 62
     7
  6
CONTINUOUS
  0
LAYER
  2
KANAGU
 70
     0
 62
     7
  6
CONTINUOUS
  0
LAYER
  2
DIMENSIONS
 70
     0
 62
     7
  6
CONTINUOUS
  0
ENDTAB
  0
TABLE
  2
STYLE
 70
     2
  0
STYLE
  2
STANDARD
 70
     0
 40
0.0
 41
1.0
 50
0.0
 71
     0
 42
0.2
  3
txt
  4

  0
STYLE
  2
TTF_DEFAULT
 70
     0
 40
0.0
 41
1.0
 50
0.0
 71
     0
 42
0.0
  3
txt
  4
BIGFONT
  0
ENDTAB
  0
TABLE
  2
VIEW
 70
     0
  0
ENDTAB
  0
ENDSEC
  0
SECTION
  2
BLOCKS
  0
ENDSEC
  0
SECTION
  2
ENTITIES
  0
POLYLINE
  8
HIBINO-BASE
  6
CONTINUOUS
 62
     7
 66
     1
 70
     1
 40
3.0
 41
3.0
  0
VERTEX
  8
HIBINO-BASE
 10
100.0
 20
150.0
  0
VERTEX
  8
HIBINO-BASE
 10
100.0
 20
2750.0
  0
VERTEX
  8
HIBINO-BASE
 10
1900.0
 20
2750.0
  0
VERTEX
  8
HIBINO-BASE
 10
1900.0
 20
150.0
  0
SEQEND
  8
HIBINO-BASE
  0
LINE
  8
DATA
  6
CONTINUOUS
 62
     7
 10
545.337316
 20
1413.539842
 11
545.337316
 21
1482.539842
  0
LINE
  8
DATA
  6
CONTINUOUS
 62
     7
 10
559.337316
 20
1413.539842
 11
559.337316
 21
1482.539842
  0
LINE
  8
DATA
  6
CONTINUOUS
 62
     7
 10
662.837316
 20
1413.539842
 11
662.837316
 21
1482.539842
  0
LINE
  8
DATA
  6
CONTINUOUS
 62
     7
 10
676.837316
 20
1413.539842
 11
676.837316
 21
1482.539842
  0
LINE
  8
DATA
  6
CONTINUOUS
 62
     7
 10
504.767891
 20
1430.681186
 11
500.0
 21
1388.246958
  0
LINE
  8
DATA
  6
CONTINUOUS
 62
     7
 10
911.837316
 20
1413.539842
 11
911.837316
 21
1482.539842
  0
LINE
  8
DATA
  6
CONTINUOUS
 62
     7
 10
897.837316
 20
1413.539842
 11
897.837316
 21
1482.539842
  0
LINE
  8
DATA
  6
CONTINUOUS
 62
     7
 10
780.337316
 20
1413.539842
 11
780.337316
 21
1482.539842
  0
LINE
  8
DATA
  6
CONTINUOUS
 62
     7
 10
794.337316
 20
1413.539842
 11
794.337316
 21
1482.539842
  0
LINE
  8
DATA
  6
CONTINUOUS
 62
     7
 10
952.432109
 20
1430.681186
 11
957.2
 21
1388.246958
  0
ARC
  8
DATA
  6
CONTINUOUS
 62
     7
 10
669.837316
 20
1408.039842
 40
8.5
 50
61.927513
 51
118.072487
  0
ARC
  8
DATA
  6
CONTINUOUS
 62
     7
 10
552.337316
 20
1408.039842
 40
8.5
 50
61.927513
 51
118.072487
  0
ARC
  8
DATA
  6
CONTINUOUS
 62
     7
 10
904.837316
 20
1408.039842
 40
8.5
 50
61.927513
 51
118.072487
  0
ARC
  8
DATA
  6
CONTINUOUS
 62
     7
 10
787.337316
 20
1408.039842
 40
8.5
 50
61.927513
 51
118.072487
  0
LINE
  8
DIMENSIONS
  6
CONTINUOUS
 62
     7
 10
400.0
 20
1610.289977
 11
400.0
 21
1350.0
  0
TEXT
  8
HIBINO-BASE
  6
CONTINUOUS
 62
     7
 10
171.84
 20
85.9132
 40
40.0
  1
Hibino Corporation
  7
TTF_DEFAULT
  0
LINE
  8
DIMENSIONS
  6
CONTINUOUS
 62
     7
 10
515.0
 20
1350.0
 11
387.5
 21
1350.0
  0
LINE
  8
DIMENSIONS
  6
CONTINUOUS
 62
     7
 10
684.021971
 20
1121.363358
 11
387.5
 21
1121.363358
  0
LINE
  8
DIMENSIONS
  6
CONTINUOUS
 62
     7
 10
520.671971
 20
1103.004266
 11
387.5
 21
1103.004266
  0
LINE
  8
DIMENSIONS
  6
CONTINUOUS
 62
     7
 10
520.0
 20
650.0
 11
387.5
 21
650.0
  0
LINE
  8
DIMENSIONS
  6
CONTINUOUS
 62
     7
 10
400.0
 20
1103.004266
 11
400.0
 21
650.0
  0
LINE
  8
DIMENSIONS
  6
CONTINUOUS
 62
     7
 10
396.6668
 20
670.0
 11
400.0
 21
650.0
  0
LINE
  8
DIMENSIONS
  6
CONTINUOUS
 62
     7
 10
403.3332
 20
670.0
 11
400.0
 21
650.0
  0
TEXT
  8
DIMENSIONS
  6
CONTINUOUS
 62
     7
 10
387.5
 20
857.205994
 40
25.0
  1
453
 50
90.0
  7
TTF_DEFAULT
  0
LINE
  8
DIMENSIONS
  6
CONTINUOUS
 62
     7
 10
396.6668
 20
1370.0
 11
400.0
 21
1350.0
  0
LINE
  8
DIMENSIONS
  6
CONTINUOUS
 62
     7
 10
403.3332
 20
1370.0
 11
400.0
 21
1350.0
  0
LINE
  8
DIMENSIONS
  6
CONTINUOUS
 62
     7
 10
400.0
 20
1121.363358
 11
400.0
 21
1161.363358
  0
LINE
  8
DIMENSIONS
  6
CONTINUOUS
 62
     7
 10
400.0
 20
1103.004266
 11
400.0
 21
1063.004266
  0
LINE
  8
DIMENSIONS
  6
CONTINUOUS
 62
     7
 10
396.6668
 20
1141.363358
 11
400.0
 21
1121.363358
  0
LINE
  8
DIMENSIONS
  6
CONTINUOUS
 62
     7
 10
403.3332
 20
1141.363358
 11
400.0
 21
1121.363358
  0
LINE
  8
DIMENSIONS
  6
CONTINUOUS
 62
     7
 10
396.6668
 20
1083.004266
 11
400.0
 21
1103.004266
  0
LINE
  8
DIMENSIONS
  6
CONTINUOUS
 62
     7
 10
403.3332
 20
1083.004266
 11
400.0
 21
1103.004266
  0
LINE
  8
DIMENSIONS
  6
CONTINUOUS
 62
     7
 10
396.6668
 20
1083.004266
 11
400.0
 21
1103.004266
  0
LINE
  8
DIMENSIONS
  6
CONTINUOUS
 62
     7
 10
403.3332
 20
1083.004266
 11
400.0
 21
1103.004266
  0
TEXT
  8
DIMENSIONS
  6
CONTINUOUS
 62
     7
 10
387.5
 20
1173.863358
 40
25.0
  1
18.4
 50
90.0
  7
TTF_DEFAULT
  0
POLYLINE
  8
DATA
  6
CONTINUOUS
 62
     7
 66
     1
  0
VERTEX
  8
DATA
 10
500.0
 20
678.19094
 42
0.104167
 70
     2
 50
270.0
  0
VERTEX
  8
DATA
 10
502.254077
 20
667.488845
 42
0.100664
 70
     2
 50
293.596209
  0
VERTEX
  8
DATA
 10
508.786797
 20
658.256935
 42
0.096076
 70
     2
 50
316.780657
  0
VERTEX
  8
DATA
 10
518.433826
 20
652.17163
 42
0.093065
 70
     2
 50
338.568607
  0
VERTEX
  8
DATA
 10
530.0
 20
650.0
 42
0.093065
 70
     2
 50
0.0
  0
SEQEND
  8
DATA
  0
LINE
  8
DATA
  6
CONTINUOUS
 62
     7
 10
714.1
 20
667.214963
 11
714.1
 21
690.714963
  0
LINE
  8
DATA
  6
CONTINUOUS
 62
     7
 10
743.1
 20
690.714963
 11
743.1
 21
667.214963
  0
POLYLINE
  8
DATA
  6
CONTINUOUS
 62
     7
 66
     1
  0
VERTEX
  8
DATA
 10
927.2
 20
650.0
 42
0.093065
 70
     2
 50
0.0
  0
VERTEX
  8
DATA
 10
938.766174
 20
652.17163
 42
0.096076
 70
     2
 50
21.431393
  0
VERTEX
  8
DATA
 10
948.413203
 20
658.256935
 42
0.100664
 70
     2
 50
43.219343
  0
VERTEX
  8
DATA
 10
954.945923
 20
667.488845
 42
0.104167
 70
     2
 50
66.403791
  0
VERTEX
  8
DATA
 10
957.2
 20
678.19094
 42
0.104167
 70
     2
 50
90.0
  0
SEQEND
  8
DATA
  0
LINE
  8
DATA
  6
CONTINUOUS
 62
     7
 10
530.0
 20
650.0
 11
927.2
 21
650.0
  0
LINE
  8
DATA
  6
CONTINUOUS
 62
     7
 10
743.1
 20
667.214963
 11
714.1
 21
667.214963
  0
LINE
  8
DIMENSIONS
  6
CONTINUOUS
 62
     7
 10
500.0
 20
550.0
 11
957.2
 21
550.0
  0
TEXT
  8
DIMENSIONS
  6
CONTINUOUS
 62
     7
 10
696.439769
 20
562.5
 40
25.0
  1
457.2
  7
TTF_DEFAULT
  0
LINE
  8
DIMENSIONS
  6
CONTINUOUS
 62
     7
 10
500.0
 20
668.19094
 11
500.0
 21
537.5
  0
LINE
  8
DIMENSIONS
  6
CONTINUOUS
 62
     7
 10
520.0
 20
546.6668
 11
500.0
 21
550.0
  0
LINE
  8
DIMENSIONS
  6
CONTINUOUS
 62
     7
 10
520.0
 20
553.3332
 11
500.0
 21
550.0
  0
TEXT
  8
DIMENSIONS
  6
CONTINUOUS
 62
     7
 10
850.0
 20
262.5
 40
25.0
  1
(単位 : mm)
  7
TTF_DEFAULT
  0
LINE
  8
DIMENSIONS
  6
CONTINUOUS
 62
     7
 10
957.2
 20
668.19094
 11
957.2
 21
537.5
  0
LINE
  8
DIMENSIONS
  6
CONTINUOUS
 62
     7
 10
937.2
 20
546.6668
 11
957.2
 21
550.0
  0
LINE
  8
DIMENSIONS
  6
CONTINUOUS
 62
     7
 10
937.2
 20
553.3332
 11
957.2
 21
550.0
  0
ARC
  8
DATA
  6
CONTINUOUS
 62
     7
 10
722.872452
 20
676.61578
 40
2.578854
 50
216.008742
 51
275.309078
  0
LINE
  8
DATA
  6
CONTINUOUS
 62
     7
 10
525.0
 20
1350.0
 11
932.2
 21
1350.0
  0
LINE
  8
DATA
  6
CONTINUOUS
 62
     7
 10
500.0
 20
1388.246958
 11
957.2
 21
1388.246958
  0
LINE
  8
DATA
  6
CONTINUOUS
 62
     7
 10
530.0
 20
1079.629926
 11
927.2
 21
1079.629926
  0
LINE
  8
DATA
  6
CONTINUOUS
 62
     7
 10
530.671971
 20
1103.004266
 11
927.871971
 21
1103.004266
  0
LINE
  8
DATA
  6
CONTINUOUS
 62
     7
 10
714.1
 20
690.714963
 11
743.1
 21
690.714963
  0
LINE
  8
DATA
  6
CONTINUOUS
 62
     7
 10
500.0
 20
1223.663358
 11
957.2
 21
1223.663358
  0
TEXT
  8
DATA
  6
CONTINUOUS
 62
     7
 10
675.0
 20
1162.5
 40
25.0
  1
取付必要スペース
  7
TTF_DEFAULT
  0
LINE
  8
KANAGU
  6
CONTINUOUS
 62
     7
 10
694.021971
 20
1121.363358
 11
764.521971
 21
1121.363358
  0
LINE
  8
DATA
  6
CONTINUOUS
 62
     7
 10
722.317712
 20
677.18452
 11
720.657196
 21
677.18452
  0
CIRCLE
  8
DATA
  6
CONTINUOUS
 62
     7
 10
721.62583
 20
679.103339
 40
0.950185
  0
LINE
  8
DATA
  6
CONTINUOUS
 62
     7
 10
720.048339
 20
684.047989
 11
723.018819
 21
684.047989
  0
LINE
  8
DATA
  6
CONTINUOUS
 62
     7
 10
721.524354
 20
680.487103
 11
720.048339
 21
684.047989
  0
LINE
  8
DATA
  6
CONTINUOUS
 62
     7
 10
500.0
 20
678.19094
 11
500.0
 21
1074.813326
  0
LINE
  8
DATA
  6
CONTINUOUS
 62
     7
 10
720.657196
 20
677.18452
 11
720.657196
 21
675.579354
  0
ARC
  8
DATA
  6
CONTINUOUS
 62
     7
 10
721.822633
 20
675.635887
 40
1.166806
 50
182.777139
 51
207.359837
  0
ARC
  8
DATA
  6
CONTINUOUS
 62
     7
 10
525.0
 20
1370.0
 40
20.0
 50
192.53588
 51
270.0
  0
LINE
  8
DATA
  6
CONTINUOUS
 62
     7
 10
500.0
 20
1388.246958
 11
505.476794
 21
1365.658981
  0
LINE
  8
DATA
  6
CONTINUOUS
 62
     7
 10
665.837316
 20
1415.539842
 11
673.837316
 21
1415.539842
  0
LINE
  8
DATA
  6
CONTINUOUS
 62
     7
 10
673.837316
 20
1413.539842
 11
673.837316
 21
1415.539842
  0
LINE
  8
DATA
  6
CONTINUOUS
 62
     7
 10
665.837316
 20
1413.539842
 11
665.837316
 21
1415.539842
  0
LINE
  8
DATA
  6
CONTINUOUS
 62
     7
 10
662.837316
 20
1413.539842
 11
676.837316
 21
1413.539842
  0
LINE
  8
DATA
  6
CONTINUOUS
 62
     7
 10
548.337316
 20
1415.539842
 11
556.337316
 21
1415.539842
  0
LINE
  8
DATA
  6
CONTINUOUS
 62
     7
 10
556.337316
 20
1413.539842
 11
556.337316
 21
1415.539842
  0
LINE
  8
DATA
  6
CONTINUOUS
 62
     7
 10
548.337316
 20
1413.539842
 11
548.337316
 21
1415.539842
  0
LINE
  8
DATA
  6
CONTINUOUS
 62
     7
 10
545.337316
 20
1413.539842
 11
559.337316
 21
1413.539842
  0
POLYLINE
  8
DATA
  6
CONTINUOUS
 62
     7
 66
     1
  0
VERTEX
  8
DATA
 10
530.0
 20
1079.629926
 42
0.093065
 70
     2
 50
180.0
  0
VERTEX
  8
DATA
 10
518.433826
 20
1077.458295
 42
0.096076
 70
     2
 50
201.431393
  0
VERTEX
  8
DATA
 10
508.786797
 20
1071.37299
 42
0.100664
 70
     2
 50
223.219343
  0
VERTEX
  8
DATA
 10
502.254077
 20
1062.141081
 42
0.104167
 70
     2
 50
246.403791
  0
VERTEX
  8
DATA
 10
500.0
 20
1051.438986
 42
0.104167
 70
     2
 50
270.0
  0
SEQEND
  8
DATA
  0
POLYLINE
  8
DATA
  6
CONTINUOUS
 62
     7
 66
     1
  0
VERTEX
  8
DATA
 10
530.671971
 20
1103.004266
 42
0.093065
 70
     2
 50
180.0
  0
VERTEX
  8
DATA
 10
519.105797
 20
1100.832635
 42
0.096076
 70
     2
 50
201.431393
  0
VERTEX
  8
DATA
 10
509.458767
 20
1094.747331
 42
0.100664
 70
     2
 50
223.219343
  0
VERTEX
  8
DATA
 10
502.926048
 20
1085.515421
 42
0.104167
 70
     2
 50
246.403791
  0
VERTEX
  8
DATA
 10
500.671971
 20
1074.813326
 42
0.104167
 70
     2
 50
270.0
  0
SEQEND
  8
DATA
  0
LINE
  8
DATA
  6
CONTINUOUS
 62
     7
 10
528.6
 20
1223.663358
 11
557.467513
 21
1273.663358
  0
LINE
  8
DATA
  6
CONTINUOUS
 62
     7
 10
578.6
 20
1223.663358
 11
607.467513
 21
1273.663358
  0
LINE
  8
DATA
  6
CONTINUOUS
 62
     7
 10
628.6
 20
1223.663358
 11
657.467513
 21
1273.663358
  0
LINE
  8
DATA
  6
CONTINUOUS
 62
     7
 10
678.6
 20
1223.663358
 11
707.467513
 21
1273.663358
  0
LINE
  8
KANAGU
  6
CONTINUOUS
 62
     7
 10
691.021971
 20
1103.004266
 11
691.021971
 21
1118.363358
  0
ARC
  8
KANAGU
  6
CONTINUOUS
 62
     7
 10
694.021971
 20
1118.363358
 40
3.0
 50
90.0
 51
180.0
  0
ARC
  8
KANAGU
  6
CONTINUOUS
 62
     7
 10
703.771971
 20
1109.863358
 40
3.5
 50
180.0
 51
0.0
  0
ARC
  8
KANAGU
  6
CONTINUOUS
 62
     7
 10
703.771971
 20
1115.363358
 40
3.5
 50
0.0
 51
180.0
  0
LINE
  8
KANAGU
  6
CONTINUOUS
 62
     7
 10
707.271971
 20
1109.863358
 11
707.271971
 21
1115.363358
  0
LINE
  8
KANAGU
  6
CONTINUOUS
 62
     7
 10
700.271971
 20
1109.863358
 11
700.271971
 21
1115.363358
  0
LINE
  8
DIMENSIONS
  6
CONTINUOUS
 62
     7
 10
650.0
 20
1121.363358
 11
650.0
 21
1223.663358
  0
LINE
  8
DIMENSIONS
  6
CONTINUOUS
 62
     7
 10
653.3332
 20
1141.363358
 11
650.0
 21
1121.363358
  0
LINE
  8
DIMENSIONS
  6
CONTINUOUS
 62
     7
 10
646.6668
 20
1141.363358
 11
650.0
 21
1121.363358
  0
LINE
  8
DIMENSIONS
  6
CONTINUOUS
 62
     7
 10
653.3332
 20
1203.663358
 11
650.0
 21
1223.663358
  0
LINE
  8
DIMENSIONS
  6
CONTINUOUS
 62
     7
 10
646.6668
 20
1203.663358
 11
650.0
 21
1223.663358
  0
TEXT
  8
DIMENSIONS
  6
CONTINUOUS
 62
     7
 10
637.5
 20
1140.353126
 40
25.0
  1
102.3
 50
90.0
  7
TTF_DEFAULT
  0
LINE
  8
DATA
  6
CONTINUOUS
 62
     7
 10
957.2
 20
678.19094
 11
957.2
 21
1074.813326
  0
LINE
  8
DATA
  6
CONTINUOUS
 62
     7
 10
732.852768
 20
674.047989
 11
732.852768
 21
684.047989
  0
LINE
  8
DATA
  6
CONTINUOUS
 62
     7
 10
734.771587
 20
684.047989
 11
734.771587
 21
675.579354
  0
LINE
  8
DATA
  6
CONTINUOUS
 62
     7
 10
723.719926
 20
684.047989
 11
723.719926
 21
675.579354
  0
LINE
  8
DATA
  6
CONTINUOUS
 62
     7
 10
725.564945
 20
684.047989
 11
725.564945
 21
675.579354
  0
LINE
  8
DATA
  6
CONTINUOUS
 62
     7
 10
726.524354
 20
684.047989
 11
726.524354
 21
674.047989
  0
LINE
  8
DATA
  6
CONTINUOUS
 62
     7
 10
722.317712
 20
677.18452
 11
722.317712
 21
675.579354
  0
LINE
  8
DATA
  6
CONTINUOUS
 62
     7
 10
728.203321
 20
674.988948
 11
728.203321
 21
678.937288
  0
LINE
  8
DATA
  6
CONTINUOUS
 62
     7
 10
730.029889
 20
675.431752
 11
730.029889
 21
678.457583
  0
LINE
  8
DATA
  6
CONTINUOUS
 62
     7
 10
731.801107
 20
675.653155
 11
731.801107
 21
678.273081
  0
LINE
  8
DATA
  6
CONTINUOUS
 62
     7
 10
737.852768
 20
674.047989
 11
737.852768
 21
677.18452
  0
LINE
  8
DATA
  6
CONTINUOUS
 62
     7
 10
736.173801
 20
677.18452
 11
736.173801
 21
675.579354
  0
LINE
  8
DATA
  6
CONTINUOUS
 62
     7
 10
737.852768
 20
674.047989
 11
732.852768
 21
674.047989
  0
ARC
  8
DATA
  6
CONTINUOUS
 62
     7
 10
735.476205
 20
675.557719
 40
0.697932
 50
269.711814
 51
1.776304
  0
ARC
  8
DATA
  6
CONTINUOUS
 62
     7
 10
723.349688
 20
676.61578
 40
2.578854
 50
264.690922
 51
323.991258
  0
ARC
  8
DATA
  6
CONTINUOUS
 62
     7
 10
723.02233
 20
675.557719
 40
0.697932
 50
269.711814
 51
1.776304
  0
ARC
  8
DATA
  6
CONTINUOUS
 62
     7
 10
723.015308
 20
675.557719
 40
0.697932
 50
178.223696
 51
270.288186
  0
LINE
  8
DATA
  6
CONTINUOUS
 62
     7
 10
726.524354
 20
674.047989
 11
730.048339
 21
674.047989
  0
LINE
  8
DATA
  6
CONTINUOUS
 62
     7
 10
728.203321
 20
674.988948
 11
729.10738
 21
674.988948
  0
ARC
  8
DATA
  6
CONTINUOUS
 62
     7
 10
724.399507
 20
675.635887
 40
1.166806
 50
332.640163
 51
357.222861
  0
ARC
  8
DATA
  6
CONTINUOUS
 62
     7
 10
735.469183
 20
675.557719
 40
0.697932
 50
178.223696
 51
270.288186
  0
ARC
  8
DATA
  6
CONTINUOUS
 62
     7
 10
729.902766
 20
675.946356
 40
1.90262
 50
273.831089
 51
351.135159
  0
POLYLINE
  8
DATA
  6
CONTINUOUS
 62
     7
 66
     1
  0
VERTEX
  8
DATA
 10
729.10738
 20
674.988948
 42
0.049105
 70
     2
 50
0.0
  0
VERTEX
  8
DATA
 10
729.481123
 20
675.025742
 42
0.062897
 70
     2
 50
11.974362
  0
VERTEX
  8
DATA
 10
729.759693
 20
675.118642
 42
0.103193
 70
     2
 50
25.641006
  0
VERTEX
  8
DATA
 10
729.974622
 20
675.283113
 42
0.179894
 70
     2
 50
53.354628
  0
VERTEX
  8
DATA
 10
730.029889
 20
675.431752
 42
0.179894
 70
     2
 50
90.0
  0
SEQEND
  8
DATA
  0
LINE
  8
DATA
  6
CONTINUOUS
 62
     7
 10
721.524354
 20
680.487103
 11
723.018819
 21
684.047989
  0
LINE
  8
DATA
  6
CONTINUOUS
 62
     7
 10
728.203321
 20
683.107029
 11
728.203321
 21
679.896697
  0
LINE
  8
DATA
  6
CONTINUOUS
 62
     7
 10
731.801107
 20
680.081199
 11
731.801107
 21
682.442823
  0
LINE
  8
DATA
  6
CONTINUOUS
 62
     7
 10
730.029889
 20
682.664225
 11
730.029889
 21
680.376402
  0
LINE
  8
DATA
  6
CONTINUOUS
 62
     7
 10
728.203321
 20
678.937288
 11
729.10738
 21
678.937288
  0
LINE
  8
DATA
  6
CONTINUOUS
 62
     7
 10
728.203321
 20
679.896697
 11
729.10738
 21
679.896697
  0
ARC
  8
DATA
  6
CONTINUOUS
 62
     7
 10
730.814969
 20
678.244566
 40
0.969897
 50
3.867274
 51
88.36169
  0
ARC
  8
DATA
  6
CONTINUOUS
 62
     7
 10
730.814076
 20
680.184498
 40
0.970854
 50
271.689416
 51
356.078333
  0
POLYLINE
  8
DATA
  6
CONTINUOUS
 62
     7
 66
     1
  0
VERTEX
  8
DATA
 10
729.10738
 20
679.896697
 42
0.053087
 70
     2
 50
0.0
  0
VERTEX
  8
DATA
 10
729.479802
 20
679.936351
 42
0.066942
 70
     2
 50
12.889821
  0
VERTEX
  8
DATA
 10
729.759693
 20
680.037199
 42
0.105042
 70
     2
 50
27.474432
  0
VERTEX
  8
DATA
 10
729.972586
 20
680.212492
 42
0.169764
 70
     2
 50
54.984322
  0
VERTEX
  8
DATA
 10
730.029889
 20
680.376402
 42
0.169764
 70
     2
 50
90.0
  0
SEQEND
  8
DATA
  0
POLYLINE
  8
DATA
  6
CONTINUOUS
 62
     7
 66
     1
  0
VERTEX
  8
DATA
 10
730.029889
 20
678.457583
 42
0.169764
 70
     2
 50
90.0
  0
VERTEX
  8
DATA
 10
729.972586
 20
678.621493
 42
0.105042
 70
     2
 50
125.015678
  0
VERTEX
  8
DATA
 10
729.759693
 20
678.796785
 42
0.066942
 70
     2
 50
152.525568
  0
VERTEX
  8
DATA
 10
729.479802
 20
678.897634
 42
0.053087
 70
     2
 50
167.110179
  0
VERTEX
  8
DATA
 10
729.10738
 20
678.937288
 42
0.053087
 70
     2
 50
180.0
  0
SEQEND
  8
DATA
  0
LINE
  8
DATA
  6
CONTINUOUS
 62
     7
 10
723.719926
 20
684.047989
 11
725.564945
 21
684.047989
  0
LINE
  8
DATA
  6
CONTINUOUS
 62
     7
 10
732.852768
 20
684.047989
 11
734.771587
 21
684.047989
  0
LINE
  8
DATA
  6
CONTINUOUS
 62
     7
 10
726.524354
 20
684.047989
 11
730.048339
 21
684.047989
  0
LINE
  8
DATA
  6
CONTINUOUS
 62
     7
 10
728.203321
 20
683.107029
 11
729.10738
 21
683.107029
  0
ARC
  8
DATA
  6
CONTINUOUS
 62
     7
 10
729.902472
 20
682.152531
 40
1.899734
 50
8.226924
 51
86.154223
  0
POLYLINE
  8
DATA
  6
CONTINUOUS
 62
     7
 66
     1
  0
VERTEX
  8
DATA
 10
730.029889
 20
682.664225
 42
0.179894
 70
     2
 50
90.0
  0
VERTEX
  8
DATA
 10
729.974622
 20
682.812864
 42
0.103193
 70
     2
 50
126.645372
  0
VERTEX
  8
DATA
 10
729.759693
 20
682.977335
 42
0.062897
 70
     2
 50
154.358994
  0
VERTEX
  8
DATA
 10
729.481123
 20
683.070235
 42
0.049105
 70
     2
 50
168.025638
  0
VERTEX
  8
DATA
 10
729.10738
 20
683.107029
 42
0.049105
 70
     2
 50
180.0
  0
SEQEND
  8
DATA
  0
LINE
  8
DATA
  6
CONTINUOUS
 62
     7
 10
737.852768
 20
677.18452
 11
736.173801
 21
677.18452
  0
ARC
  8
DATA
  6
CONTINUOUS
 62
     7
 10
932.2
 20
1370.0
 40
20.0
 50
270.0
 51
347.46412
  0
LINE
  8
DATA
  6
CONTINUOUS
 62
     7
 10
951.723206
 20
1365.658981
 11
957.2
 21
1388.246958
  0
LINE
  8
DATA
  6
CONTINUOUS
 62
     7
 10
900.837316
 20
1415.539842
 11
908.837316
 21
1415.539842
  0
LINE
  8
DATA
  6
CONTINUOUS
 62
     7
 10
908.837316
 20
1413.539842
 11
908.837316
 21
1415.539842
  0
LINE
  8
DATA
  6
CONTINUOUS
 62
     7
 10
900.837316
 20
1413.539842
 11
900.837316
 21
1415.539842
  0
LINE
  8
DATA
  6
CONTINUOUS
 62
     7
 10
897.837316
 20
1413.539842
 11
911.837316
 21
1413.539842
  0
LINE
  8
DATA
  6
CONTINUOUS
 62
     7
 10
783.337316
 20
1415.539842
 11
791.337316
 21
1415.539842
  0
LINE
  8
DATA
  6
CONTINUOUS
 62
     7
 10
791.337316
 20
1413.539842
 11
791.337316
 21
1415.539842
  0
LINE
  8
DATA
  6
CONTINUOUS
 62
     7
 10
783.337316
 20
1413.539842
 11
783.337316
 21
1415.539842
  0
LINE
  8
DATA
  6
CONTINUOUS
 62
     7
 10
780.337316
 20
1413.539842
 11
794.337316
 21
1413.539842
  0
POLYLINE
  8
DATA
  6
CONTINUOUS
 62
     7
 66
     1
  0
VERTEX
  8
DATA
 10
957.2
 20
1051.438986
 42
0.104167
 70
     2
 50
90.0
  0
VERTEX
  8
DATA
 10
954.945923
 20
1062.141081
 42
0.100664
 70
     2
 50
113.596209
  0
VERTEX
  8
DATA
 10
948.413203
 20
1071.37299
 42
0.096076
 70
     2
 50
136.780657
  0
VERTEX
  8
DATA
 10
938.766174
 20
1077.458295
 42
0.093065
 70
     2
 50
158.568607
  0
VERTEX
  8
DATA
 10
927.2
 20
1079.629926
 42
0.093065
 70
     2
 50
180.0
  0
SEQEND
  8
DATA
  0
POLYLINE
  8
DATA
  6
CONTINUOUS
 62
     7
 66
     1
  0
VERTEX
  8
DATA
 10
957.871971
 20
1074.813326
 42
0.104167
 70
     2
 50
90.0
  0
VERTEX
  8
DATA
 10
955.617894
 20
1085.515421
 42
0.100664
 70
     2
 50
113.596209
  0
VERTEX
  8
DATA
 10
949.085174
 20
1094.747331
 42
0.096076
 70
     2
 50
136.780657
  0
VERTEX
  8
DATA
 10
939.438144
 20
1100.832635
 42
0.093065
 70
     2
 50
158.568607
  0
VERTEX
  8
DATA
 10
927.871971
 20
1103.004266
 42
0.093065
 70
     2
 50
180.0
  0
SEQEND
  8
DATA
  0
LINE
  8
DATA
  6
CONTINUOUS
 62
     7
 10
728.6
 20
1223.663358
 11
757.467513
 21
1273.663358
  0
LINE
  8
DATA
  6
CONTINUOUS
 62
     7
 10
778.6
 20
1223.663358
 11
807.467513
 21
1273.663358
  0
LINE
  8
DATA
  6
CONTINUOUS
 62
     7
 10
828.6
 20
1223.663358
 11
857.467513
 21
1273.663358
  0
LINE
  8
DATA
  6
CONTINUOUS
 62
     7
 10
878.6
 20
1223.663358
 11
907.467513
 21
1273.663358
  0
LINE
  8
DATA
  6
CONTINUOUS
 62
     7
 10
928.6
 20
1223.663358
 11
957.467513
 21
1273.663358
  0
LINE
  8
KANAGU
  6
CONTINUOUS
 62
     7
 10
767.521971
 20
1103.004266
 11
767.521971
 21
1118.363358
  0
ARC
  8
KANAGU
  6
CONTINUOUS
 62
     7
 10
764.521971
 20
1118.363358
 40
3.0
 50
0.0
 51
90.0
  0
LINE
  8
KANAGU
  6
CONTINUOUS
 62
     7
 10
758.271971
 20
1109.863358
 11
758.271971
 21
1115.363358
  0
LINE
  8
KANAGU
  6
CONTINUOUS
 62
     7
 10
751.271971
 20
1109.863358
 11
751.271971
 21
1115.363358
  0
CIRCLE
  8
KANAGU
  6
CONTINUOUS
 62
     7
 10
729.271971
 20
1112.613358
 40
2.0
  0
ARC
  8
KANAGU
  6
CONTINUOUS
 62
     7
 10
754.771971
 20
1109.863358
 40
3.5
 50
180.0
 51
0.0
  0
ARC
  8
KANAGU
  6
CONTINUOUS
 62
     7
 10
754.771971
 20
1115.363358
 40
3.5
 50
0.0
 51
180.0
  0
LINE
  8
DIMENSIONS
  6
CONTINUOUS
 62
     7
 10
677.939584
 20
1687.943079
 11
387.5
 21
1687.943079
  0
LINE
  8
DIMENSIONS
  6
CONTINUOUS
 62
     7
 10
538.58573
 20
1610.289977
 11
387.5
 21
1610.289977
  0
LINE
  8
DIMENSIONS
  6
CONTINUOUS
 62
     7
 10
400.0
 20
1687.943079
 11
400.0
 21
1610.289977
  0
LINE
  8
DIMENSIONS
  6
CONTINUOUS
 62
     7
 10
396.6668
 20
1667.943079
 11
400.0
 21
1687.943079
  0
LINE
  8
DIMENSIONS
  6
CONTINUOUS
 62
     7
 10
403.3332
 20
1667.943079
 11
400.0
 21
1687.943079
  0
LINE
  8
DIMENSIONS
  6
CONTINUOUS
 62
     7
 10
396.6668
 20
1630.289977
 11
400.0
 21
1610.289977
  0
LINE
  8
DIMENSIONS
  6
CONTINUOUS
 62
     7
 10
403.3332
 20
1630.289977
 11
400.0
 21
1610.289977
  0
LINE
  8
DIMENSIONS
  6
CONTINUOUS
 62
     7
 10
396.6668
 20
1590.289977
 11
400.0
 21
1610.289977
  0
LINE
  8
DIMENSIONS
  6
CONTINUOUS
 62
     7
 10
403.3332
 20
1590.289977
 11
400.0
 21
1610.289977
  0
TEXT
  8
DIMENSIONS
  6
CONTINUOUS
 62
     7
 10
387.5
 20
1635.680698
 40
25.0
  1
78
 50
90.0
  7
TTF_DEFAULT
  0
TEXT
  8
DIMENSIONS
  6
CONTINUOUS
 62
     7
 10
387.5
 20
1446.555413
 40
25.0
  1
260.3
 50
90.0
  7
TTF_DEFAULT
  0
LINE
  8
DATA
  6
CONTINUOUS
 62
     7
 10
677.580204
 20
1553.155389
 11
779.580204
 21
1553.155389
  0
LINE
  8
DATA
  6
CONTINUOUS
 62
     7
 10
677.580204
 20
1607.365581
 11
779.580204
 21
1607.365581
  0
LINE
  8
DATA
  6
CONTINUOUS
 62
     7
 10
677.580204
 20
1515.559372
 11
779.580204
 21
1515.559372
  0
LINE
  8
DATA
  6
CONTINUOUS
 62
     7
 10
548.58573
 20
1610.289977
 11
908.593438
 21
1610.289977
  0
LINE
  8
KANAGU
  6
CONTINUOUS
 62
     7
 10
687.939584
 20
1687.943079
 11
769.239584
 21
1687.943079
  0
LINE
  8
KANAGU
  6
CONTINUOUS
 62
     7
 10
679.339584
 20
1610.289977
 11
777.839584
 21
1610.289977
  0
LINE
  8
DATA
  6
CONTINUOUS
 62
     7
 10
711.682204
 20
1520.559372
 11
745.478204
 21
1520.559372
  0
LINE
  8
DATA
  6
CONTINUOUS
 62
     7
 10
712.656204
 20
1538.059372
 11
725.856204
 21
1538.059372
  0
LINE
  8
DATA
  6
CONTINUOUS
 62
     7
 10
711.830204
 20
1528.559372
 11
726.682204
 21
1528.559372
  0
LINE
  8
KANAGU
  6
CONTINUOUS
 62
     7
 10
690.339584
 20
1631.543079
 11
766.839584
 21
1631.543079
  0
LINE
  8
KANAGU
  6
CONTINUOUS
 62
     7
 10
690.339584
 20
1629.943079
 11
766.839584
 21
1629.943079
  0
LINE
  8
KANAGU
  6
CONTINUOUS
 62
     7
 10
690.339584
 20
1629.659635
 11
766.839584
 21
1629.659635
  0
LINE
  8
KANAGU
  6
CONTINUOUS
 62
     7
 10
690.339584
 20
1628.059635
 11
766.839584
 21
1628.059635
  0
LINE
  8
KANAGU
  6
CONTINUOUS
 62
     7
 10
683.939584
 20
1620.443079
 11
683.939584
 21
1683.943079
  0
LINE
  8
KANAGU
  6
CONTINUOUS
 62
     7
 10
685.539584
 20
1620.443079
 11
685.539584
 21
1683.943079
  0
LINE
  8
KANAGU
  6
CONTINUOUS
 62
     7
 10
690.339584
 20
1629.943079
 11
690.339584
 21
1686.343079
  0
ARC
  8
DATA
  6
CONTINUOUS
 62
     7
 10
693.729204
 20
1555.182261
 40
7.618096
 50
21.252599
 51
158.747401
  0
ARC
  8
DATA
  6
CONTINUOUS
 62
     7
 10
693.729204
 20
1567.109005
 40
11.593677
 50
232.236558
 51
307.763442
  0
LINE
  8
DATA
  6
CONTINUOUS
 62
     7
 10
677.580204
 20
1529.193227
 11
712.656204
 21
1529.193227
  0
ARC
  8
DATA
  6
CONTINUOUS
 62
     7
 10
693.729204
 20
1610.545563
 40
11.593677
 50
232.236558
 51
307.763442
  0
ARC
  8
DATA
  6
CONTINUOUS
 62
     7
 10
693.729204
 20
1598.618819
 40
7.618096
 50
21.252599
 51
158.747401
  0
LINE
  8
DATA
  6
CONTINUOUS
 62
     7
 10
677.580204
 20
1515.559372
 11
677.580204
 21
1610.289977
  0
LINE
  8
DATA
  6
CONTINUOUS
 62
     7
 10
674.580204
 20
1610.289977
 11
677.580204
 21
1515.559372
  0
LINE
  8
DATA
  6
CONTINUOUS
 62
     7
 10
542.622133
 20
1604.721957
 11
531.672369
 21
1453.029522
  0
POLYLINE
  8
DATA
  6
CONTINUOUS
 62
     7
 66
     1
  0
VERTEX
  8
DATA
 10
559.337316
 20
1482.539842
 42
0.047772
 70
     2
 50
90.0
  0
VERTEX
  8
DATA
 10
558.754696
 20
1488.623791
 42
0.061498
 70
     2
 50
101.665525
  0
VERTEX
  8
DATA
 10
557.287064
 20
1493.146443
 42
0.102418
 70
     2
 50
115.016893
  0
VERTEX
  8
DATA
 10
554.672093
 20
1496.653123
 42
0.1835
 70
     2
 50
142.778499
  0
VERTEX
  8
DATA
 10
552.337316
 20
1497.539842
 42
0.1835
 70
     2
 50
180.0
  0
VERTEX
  8
DATA
 10
550.00254
 20
1496.653123
 42
0.102418
 70
     2
 50
217.221501
  0
VERTEX
  8
DATA
 10
547.387569
 20
1493.146443
 42
0.061498
 70
     2
 50
244.983107
  0
VERTEX
  8
DATA
 10
545.919937
 20
1488.623791
 42
0.047772
 70
     2
 50
258.334475
  0
VERTEX
  8
DATA
 10
545.337316
 20
1482.539842
 42
0.047772
 70
     2
 50
270.0
  0
SEQEND
  8
DATA
  0
POLYLINE
  8
DATA
  6
CONTINUOUS
 62
     7
 66
     1
  0
VERTEX
  8
DATA
 10
676.837316
 20
1482.539842
 42
0.047772
 70
     2
 50
90.0
  0
VERTEX
  8
DATA
 10
676.254696
 20
1488.623791
 42
0.061498
 70
     2
 50
101.665525
  0
VERTEX
  8
DATA
 10
674.787064
 20
1493.146443
 42
0.102418
 70
     2
 50
115.016893
  0
VERTEX
  8
DATA
 10
672.172093
 20
1496.653123
 42
0.1835
 70
     2
 50
142.778499
  0
VERTEX
  8
DATA
 10
669.837316
 20
1497.539842
 42
0.1835
 70
     2
 50
180.0
  0
VERTEX
  8
DATA
 10
667.50254
 20
1496.653123
 42
0.102418
 70
     2
 50
217.221501
  0
VERTEX
  8
DATA
 10
664.887569
 20
1493.146443
 42
0.061498
 70
     2
 50
244.983107
  0
VERTEX
  8
DATA
 10
663.419937
 20
1488.623791
 42
0.047772
 70
     2
 50
258.334475
  0
VERTEX
  8
DATA
 10
662.837316
 20
1482.539842
 42
0.047772
 70
     2
 50
270.0
  0
SEQEND
  8
DATA
  0
ARC
  8
DATA
  6
CONTINUOUS
 62
     7
 10
529.677559
 20
1453.173515
 40
2.0
 50
307.620603
 51
355.871323
  0
LINE
  8
DATA
  6
CONTINUOUS
 62
     7
 10
530.898419
 20
1451.589375
 11
505.534524
 21
1432.042012
  0
ARC
  8
DATA
  6
CONTINUOUS
 62
     7
 10
506.755384
 20
1430.457872
 40
2.0
 50
127.620603
 51
173.58916
  0
ARC
  8
DATA
  6
CONTINUOUS
 62
     7
 10
548.58573
 20
1604.289977
 40
6.0
 50
90.0
 51
175.871323
  0
ARC
  8
KANAGU
  6
CONTINUOUS
 62
     7
 10
681.539584
 20
1620.443079
 40
4.0
 50
270.0
 51
0.0
  0
ARC
  8
KANAGU
  6
CONTINUOUS
 62
     7
 10
681.539584
 20
1620.443079
 40
2.4
 50
270.0
 51
360.0
  0
LINE
  8
KANAGU
  6
CONTINUOUS
 62
     7
 10
666.939584
 20
1616.443079
 11
681.539584
 21
1616.443079
  0
LINE
  8
KANAGU
  6
CONTINUOUS
 62
     7
 10
666.939584
 20
1618.043079
 11
681.539584
 21
1618.043079
  0
LINE
  8
KANAGU
  6
CONTINUOUS
 62
     7
 10
666.939584
 20
1615.593079
 11
680.939584
 21
1615.593079
  0
LINE
  8
KANAGU
  6
CONTINUOUS
 62
     7
 10
666.939584
 20
1615.593079
 11
666.939584
 21
1618.893079
  0
LINE
  8
KANAGU
  6
CONTINUOUS
 62
     7
 10
666.939584
 20
1618.893079
 11
675.139584
 21
1618.893079
  0
LINE
  8
KANAGU
  6
CONTINUOUS
 62
     7
 10
675.139584
 20
1618.893079
 11
675.139584
 21
1620.493079
  0
LINE
  8
KANAGU
  6
CONTINUOUS
 62
     7
 10
665.339584
 20
1613.993079
 11
665.339584
 21
1620.493079
  0
LINE
  8
KANAGU
  6
CONTINUOUS
 62
     7
 10
650.089584
 20
1620.493079
 11
675.139584
 21
1620.493079
  0
LINE
  8
KANAGU
  6
CONTINUOUS
 62
     7
 10
650.089584
 20
1613.993079
 11
679.339584
 21
1613.993079
  0
LINE
  8
KANAGU
  6
CONTINUOUS
 62
     7
 10
650.089584
 20
1613.993079
 11
650.089584
 21
1620.493079
  0
LINE
  8
KANAGU
  6
CONTINUOUS
 62
     7
 10
679.339584
 20
1610.289977
 11
679.339584
 21
1613.993079
  0
LINE
  8
KANAGU
  6
CONTINUOUS
 62
     7
 10
680.939584
 20
1610.289977
 11
680.939584
 21
1615.593079
  0
LINE
  8
DATA
  6
CONTINUOUS
 62
     7
 10
711.830204
 20
1515.559372
 11
711.830204
 21
1520.559372
  0
LINE
  8
DATA
  6
CONTINUOUS
 62
     7
 10
712.656204
 20
1528.559372
 11
712.656204
 21
1538.059372
  0
LINE
  8
DATA
  6
CONTINUOUS
 62
     7
 10
715.956204
 20
1528.559372
 11
715.956204
 21
1538.059372
  0
LINE
  8
DATA
  6
CONTINUOUS
 62
     7
 10
711.682204
 20
1520.559372
 11
711.682204
 21
1528.559372
  0
LINE
  8
KANAGU
  6
CONTINUOUS
 62
     7
 10
690.339584
 20
1610.289977
 11
690.339584
 21
1629.659635
  0
LINE
  8
KANAGU
  6
CONTINUOUS
 62
     7
 10
687.939584
 20
1686.343079
 11
690.339584
 21
1686.343079
  0
ARC
  8
KANAGU
  6
CONTINUOUS
 62
     7
 10
687.939584
 20
1683.943079
 40
4.0
 50
90.0
 51
180.0
  0
ARC
  8
KANAGU
  6
CONTINUOUS
 62
     7
 10
687.939584
 20
1683.943079
 40
2.4
 50
90.0
 51
180.0
  0
LINE
  8
KANAGU
  6
CONTINUOUS
 62
     7
 10
766.839584
 20
1629.943079
 11
766.839584
 21
1686.343079
  0
LINE
  8
KANAGU
  6
CONTINUOUS
 62
     7
 10
771.639584
 20
1620.443079
 11
771.639584
 21
1683.943079
  0
LINE
  8
KANAGU
  6
CONTINUOUS
 62
     7
 10
773.239584
 20
1683.943079
 11
773.239584
 21
1620.443079
  0
LINE
  8
DATA
  6
CONTINUOUS
 62
     7
 10
779.580204
 20
1515.559372
 11
779.580204
 21
1610.289977
  0
LINE
  8
DATA
  6
CONTINUOUS
 62
     7
 10
779.580204
 20
1515.559372
 11
782.580204
 21
1610.289977
  0
LINE
  8
DATA
  6
CONTINUOUS
 62
     7
 10
914.577867
 20
1604.721957
 11
925.527631
 21
1453.029522
  0
LINE
  8
DATA
  6
CONTINUOUS
 62
     7
 10
745.330204
 20
1515.559372
 11
745.330204
 21
1520.559372
  0
POLYLINE
  8
DATA
  6
CONTINUOUS
 62
     7
 66
     1
  0
VERTEX
  8
DATA
 10
911.837316
 20
1482.539842
 42
0.047772
 70
     2
 50
90.0
  0
VERTEX
  8
DATA
 10
911.254696
 20
1488.623791
 42
0.061498
 70
     2
 50
101.665525
  0
VERTEX
  8
DATA
 10
909.787064
 20
1493.146443
 42
0.102418
 70
     2
 50
115.016893
  0
VERTEX
  8
DATA
 10
907.172093
 20
1496.653123
 42
0.1835
 70
     2
 50
142.778499
  0
VERTEX
  8
DATA
 10
904.837316
 20
1497.539842
 42
0.1835
 70
     2
 50
180.0
  0
VERTEX
  8
DATA
 10
902.50254
 20
1496.653123
 42
0.102418
 70
     2
 50
217.221501
  0
VERTEX
  8
DATA
 10
899.887569
 20
1493.146443
 42
0.061498
 70
     2
 50
244.983107
  0
VERTEX
  8
DATA
 10
898.419937
 20
1488.623791
 42
0.047772
 70
     2
 50
258.334475
  0
VERTEX
  8
DATA
 10
897.837316
 20
1482.539842
 42
0.047772
 70
     2
 50
270.0
  0
SEQEND
  8
DATA
  0
POLYLINE
  8
DATA
  6
CONTINUOUS
 62
     7
 66
     1
  0
VERTEX
  8
DATA
 10
794.337316
 20
1482.539842
 42
0.047772
 70
     2
 50
90.0
  0
VERTEX
  8
DATA
 10
793.754696
 20
1488.623791
 42
0.061498
 70
     2
 50
101.665525
  0
VERTEX
  8
DATA
 10
792.287064
 20
1493.146443
 42
0.102418
 70
     2
 50
115.016893
  0
VERTEX
  8
DATA
 10
789.672093
 20
1496.653123
 42
0.1835
 70
     2
 50
142.778499
  0
VERTEX
  8
DATA
 10
787.337316
 20
1497.539842
 42
0.1835
 70
     2
 50
180.0
  0
VERTEX
  8
DATA
 10
785.00254
 20
1496.653123
 42
0.102418
 70
     2
 50
217.221501
  0
VERTEX
  8
DATA
 10
782.387569
 20
1493.146443
 42
0.061498
 70
     2
 50
244.983107
  0
VERTEX
  8
DATA
 10
780.919937
 20
1488.623791
 42
0.047772
 70
     2
 50
258.334475
  0
VERTEX
  8
DATA
 10
780.337316
 20
1482.539842
 42
0.047772
 70
     2
 50
270.0
  0
SEQEND
  8
DATA
  0
ARC
  8
DATA
  6
CONTINUOUS
 62
     7
 10
927.522441
 20
1453.173515
 40
2.0
 50
184.128677
 51
232.379397
  0
LINE
  8
DATA
  6
CONTINUOUS
 62
     7
 10
926.301581
 20
1451.589375
 11
951.665476
 21
1432.042012
  0
ARC
  8
DATA
  6
CONTINUOUS
 62
     7
 10
950.444616
 20
1430.457872
 40
2.0
 50
6.41084
 51
52.379397
  0
LINE
  8
DATA
  6
CONTINUOUS
 62
     7
 10
731.452204
 20
1538.059372
 11
744.652204
 21
1538.059372
  0
LINE
  8
DATA
  6
CONTINUOUS
 62
     7
 10
730.626204
 20
1528.559372
 11
745.478204
 21
1528.559372
  0
LINE
  8
DATA
  6
CONTINUOUS
 62
     7
 10
725.856204
 20
1529.193227
 11
731.452204
 21
1529.193227
  0
LINE
  8
DATA
  6
CONTINUOUS
 62
     7
 10
731.452204
 20
1528.559372
 11
731.452204
 21
1538.059372
  0
LINE
  8
DATA
  6
CONTINUOUS
 62
     7
 10
734.752204
 20
1528.559372
 11
734.752204
 21
1538.059372
  0
LINE
  8
DATA
  6
CONTINUOUS
 62
     7
 10
730.478204
 20
1520.559372
 11
730.478204
 21
1528.559372
  0
LINE
  8
DATA
  6
CONTINUOUS
 62
     7
 10
725.856204
 20
1538.059372
 11
725.856204
 21
1528.559372
  0
LINE
  8
DATA
  6
CONTINUOUS
 62
     7
 10
722.556204
 20
1528.559372
 11
722.556204
 21
1538.059372
  0
LINE
  8
DATA
  6
CONTINUOUS
 62
     7
 10
726.682204
 20
1520.559372
 11
726.682204
 21
1528.559372
  0
ARC
  8
DATA
  6
CONTINUOUS
 62
     7
 10
763.579204
 20
1555.182261
 40
7.618096
 50
21.252599
 51
158.747401
  0
ARC
  8
DATA
  6
CONTINUOUS
 62
     7
 10
763.579204
 20
1567.109005
 40
11.593677
 50
232.236558
 51
307.763442
  0
LINE
  8
DATA
  6
CONTINUOUS
 62
     7
 10
744.652204
 20
1529.193227
 11
779.580204
 21
1529.193227
  0
LINE
  8
DATA
  6
CONTINUOUS
 62
     7
 10
744.652204
 20
1538.059372
 11
744.652204
 21
1528.559372
  0
LINE
  8
DATA
  6
CONTINUOUS
 62
     7
 10
741.352204
 20
1528.559372
 11
741.352204
 21
1538.059372
  0
LINE
  8
DATA
  6
CONTINUOUS
 62
     7
 10
745.478204
 20
1520.559372
 11
745.478204
 21
1528.559372
  0
ARC
  8
DATA
  6
CONTINUOUS
 62
     7
 10
763.579204
 20
1610.545563
 40
11.593677
 50
232.236558
 51
307.763442
  0
ARC
  8
DATA
  6
CONTINUOUS
 62
     7
 10
763.579204
 20
1598.618819
 40
7.618096
 50
21.252599
 51
158.747401
  0
ARC
  8
DATA
  6
CONTINUOUS
 62
     7
 10
908.593438
 20
1604.289977
 40
6.0
 50
4.128677
 51
90.0
  0
ARC
  8
KANAGU
  6
CONTINUOUS
 62
     7
 10
775.639584
 20
1620.443079
 40
4.0
 50
180.0
 51
270.0
  0
ARC
  8
KANAGU
  6
CONTINUOUS
 62
     7
 10
775.639584
 20
1620.443079
 40
2.4
 50
180.0
 51
270.0
  0
LINE
  8
KANAGU
  6
CONTINUOUS
 62
     7
 10
775.639584
 20
1616.443079
 11
790.239584
 21
1616.443079
  0
LINE
  8
KANAGU
  6
CONTINUOUS
 62
     7
 10
775.639584
 20
1618.043079
 11
790.239584
 21
1618.043079
  0
LINE
  8
KANAGU
  6
CONTINUOUS
 62
     7
 10
776.239584
 20
1615.593079
 11
790.239584
 21
1615.593079
  0
LINE
  8
KANAGU
  6
CONTINUOUS
 62
     7
 10
782.039584
 20
1618.893079
 11
790.239584
 21
1618.893079
  0
LINE
  8
KANAGU
  6
CONTINUOUS
 62
     7
 10
790.239584
 20
1615.593079
 11
790.239584
 21
1618.893079
  0
LINE
  8
KANAGU
  6
CONTINUOUS
 62
     7
 10
782.039584
 20
1620.493079
 11
782.039584
 21
1618.893079
  0
LINE
  8
KANAGU
  6
CONTINUOUS
 62
     7
 10
791.839584
 20
1613.993079
 11
791.839584
 21
1620.493079
  0
LINE
  8
KANAGU
  6
CONTINUOUS
 62
     7
 10
782.039584
 20
1620.493079
 11
807.089584
 21
1620.493079
  0
LINE
  8
KANAGU
  6
CONTINUOUS
 62
     7
 10
777.839584
 20
1613.993079
 11
807.089584
 21
1613.993079
  0
LINE
  8
KANAGU
  6
CONTINUOUS
 62
     7
 10
807.089584
 20
1613.993079
 11
807.089584
 21
1620.493079
  0
LINE
  8
KANAGU
  6
CONTINUOUS
 62
     7
 10
766.839584
 20
1610.289977
 11
766.839584
 21
1629.659635
  0
LINE
  8
KANAGU
  6
CONTINUOUS
 62
     7
 10
776.239584
 20
1610.289977
 11
776.239584
 21
1615.593079
  0
LINE
  8
KANAGU
  6
CONTINUOUS
 62
     7
 10
777.839584
 20
1610.289977
 11
777.839584
 21
1613.993079
  0
ARC
  8
KANAGU
  6
CONTINUOUS
 62
     7
 10
769.239584
 20
1683.943079
 40
4.0
 50
0.0
 51
90.0
  0
LINE
  8
KANAGU
  6
CONTINUOUS
 62
     7
 10
766.839584
 20
1686.343079
 11
769.239584
 21
1686.343079
  0
ARC
  8
KANAGU
  6
CONTINUOUS
 62
     7
 10
769.239584
 20
1683.943079
 40
2.4
 50
360.0
 51
90.0
  0
TEXT
  8
HIBINO-BASE
  6
CONTINUOUS
 62
     7
 10
1487.5
 20
175.0
 40
25.0
  1
N.Sasaki
  7
TTF_DEFAULT
  0
LINE
  8
HIBINO-BASE
  6
CONTINUOUS
 62
     7
 10
1000.0
 20
250.0
 11
1900.0
 21
250.0
  0
TEXT
  8
HIBINO-BASE
  6
CONTINUOUS
 62
     7
 10
1480.0
 20
225.0
 40
25.0
  1
DRAWN
  7
TTF_DEFAULT
  0
TEXT
  8
DATA
  6
CONTINUOUS
 62
     7
 10
1500.0
 20
331.25
 40
30.0
  1
JBL
  7
TTF_DEFAULT
  0
TEXT
  8
DATA
  6
CONTINUOUS
 62
     7
 10
1500.0
 20
300.0
 40
20.0
  1
8330A & 8340A用
  7
TTF_DEFAULT
  0
TEXT
  8
DATA
  6
CONTINUOUS
 62
     7
 10
1500.0
 20
268.75
 40
30.0
  1
2516取付金具装着外観図
  7
TTF_DEFAULT
  0
LINE
  8
KANAGU
  6
CONTINUOUS
 62
     7
 10
1000.0
 20
376.5
 11
1900.0
 21
376.5
  0
LINE
  8
KANAGU
  6
CONTINUOUS
 62
     7
 10
1000.0
 20
373.5
 11
1900.0
 21
373.5
  0
LINE
  8
KANAGU
  6
CONTINUOUS
 62
     7
 10
1000.0
 20
376.5
 11
1000.0
 21
373.5
  0
LINE
  8
KANAGU
  6
CONTINUOUS
 62
     7
 10
1900.0
 20
376.5
 11
1900.0
 21
373.5
  0
SOLID
  8
HIBINO-BASE
  6
CONTINUOUS
 62
     7
 10
1000.0
 20
376.5
 11
1900.0
 21
376.5
 12
1000.0
 22
373.5
 13
1900.0
 23
373.5
  0
LINE
  8
DIMENSIONS
  6
CONTINUOUS
 62
     7
 10
1388.859635
 20
1121.363358
 11
1562.5
 21
1121.363358
  0
LINE
  8
DIMENSIONS
  6
CONTINUOUS
 62
     7
 10
1447.943079
 20
1073.663358
 11
1662.5
 21
1073.663358
  0
LINE
  8
DIMENSIONS
  6
CONTINUOUS
 62
     7
 10
1447.943079
 20
1223.663358
 11
1662.5
 21
1223.663358
  0
LINE
  8
DIMENSIONS
  6
CONTINUOUS
 62
     7
 10
1447.943079
 20
1010.163358
 11
1562.5
 21
1010.163358
  0
LINE
  8
DIMENSIONS
  6
CONTINUOUS
 62
     7
 10
1447.943079
 20
946.663358
 11
1562.5
 21
946.663358
  0
LINE
  8
DATA
  6
CONTINUOUS
 62
     7
 10
1138.246958
 20
1086.603869
 11
1294.618567
 21
656.976403
  0
LINE
  8
DATA
  6
CONTINUOUS
 62
     7
 10
1101.639099
 20
1040.992915
 11
1237.257164
 21
668.385343
  0
ARC
  8
DATA
  6
CONTINUOUS
 62
     7
 10
1149.117327
 20
970.935011
 40
346.035574
 50
294.864933
 51
305.673031
  0
LINE
  8
DIMENSIONS
  6
CONTINUOUS
 62
     7
 10
1437.943079
 20
920.913358
 11
1437.943079
 21
537.5
  0
LINE
  8
DIMENSIONS
  6
CONTINUOUS
 62
     7
 10
1100.0
 20
1040.467288
 11
1100.0
 21
537.5
  0
LINE
  8
DIMENSIONS
  6
CONTINUOUS
 62
     7
 10
1360.289977
 20
698.108264
 11
1360.289977
 21
537.5
  0
ARC
  8
DATA
  6
CONTINUOUS
 62
     7
 10
1263.695227
 20
678.201595
 40
28.201595
 50
200.369581
 51
283.919826
  0
TEXT
  8
HIBINO-BASE
  6
CONTINUOUS
 62
     7
 10
1230.0
 20
225.0
 40
25.0
  1
DATE
  7
TTF_DEFAULT
  0
TEXT
  8
HIBINO-BASE
  6
CONTINUOUS
 62
     7
 10
1237.5
 20
193.75
 40
25.0
  1
'99.06.
  7
TTF_DEFAULT
  0
TEXT
  8
HIBINO-BASE
  6
CONTINUOUS
 62
     7
 10
1237.5
 20
168.75
 40
20.0
  1
'99.10.修正
  7
TTF_DEFAULT
  0
LINE
  8
DIMENSIONS
  6
CONTINUOUS
 62
     7
 10
1100.0
 20
550.0
 11
1360.289977
 21
550.0
  0
TEXT
  8
DIMENSIONS
  6
CONTINUOUS
 62
     7
 10
1195.462386
 20
562.5
 40
25.0
  1
260.3
  7
TTF_DEFAULT
  0
LINE
  8
KANAGU
  6
CONTINUOUS
 62
     7
 10
998.5
 20
150.0
 11
998.5
 21
375.0
  0
LINE
  8
KANAGU
  6
CONTINUOUS
 62
     7
 10
1001.5
 20
150.0
 11
1001.5
 21
375.0
  0
LINE
  8
KANAGU
  6
CONTINUOUS
 62
     7
 10
998.5
 20
150.0
 11
1001.5
 21
150.0
  0
LINE
  8
KANAGU
  6
CONTINUOUS
 62
     7
 10
998.5
 20
375.0
 11
1001.5
 21
375.0
  0
SOLID
  8
HIBINO-BASE
  6
CONTINUOUS
 62
     7
 10
998.5
 20
150.0
 11
998.5
 21
375.0
 12
1001.5
 22
150.0
 13
1001.5
 23
375.0
  0
TEXT
  8
HIBINO-BASE
  6
CONTINUOUS
 62
     7
 10
1037.5
 20
162.5
 40
40.0
  1
A4
  7
TTF_DEFAULT
  0
LINE
  8
HIBINO-BASE
  6
CONTINUOUS
 62
     7
 10
1143.75
 20
162.5
 11
1181.25
 21
200.0
  0
TEXT
  8
HIBINO-BASE
  6
CONTINUOUS
 62
     7
 10
1137.5
 20
181.25
 40
30.0
  1
1
  7
TTF_DEFAULT
  0
TEXT
  8
HIBINO-BASE
  6
CONTINUOUS
 62
     7
 10
1005.0
 20
225.0
 40
22.5
  1
図面サイズ
  7
TTF_DEFAULT
  0
TEXT
  8
HIBINO-BASE
  6
CONTINUOUS
 62
     7
 10
1130.0
 20
225.0
 40
25.0
  1
SCALE
  7
TTF_DEFAULT
  0
LINE
  8
HIBINO-BASE
  6
CONTINUOUS
 62
     7
 10
1225.0
 20
150.0
 11
1225.0
 21
250.0
  0
LINE
  8
HIBINO-BASE
  6
CONTINUOUS
 62
     7
 10
1125.0
 20
150.0
 11
1125.0
 21
250.0
  0
TEXT
  8
HIBINO-BASE
  6
CONTINUOUS
 62
     7
 10
1175.0
 20
162.5
 40
30.0
  1
10
  7
TTF_DEFAULT
  0
TEXT
  8
HIBINO-BASE
  6
CONTINUOUS
 62
     7
 10
1005.0
 20
350.0
 40
25.0
  1
NOTE
  7
TTF_DEFAULT
  0
LINE
  8
DIMENSIONS
  6
CONTINUOUS
 62
     7
 10
1120.0
 20
546.6668
 11
1100.0
 21
550.0
  0
LINE
  8
DIMENSIONS
  6
CONTINUOUS
 62
     7
 10
1120.0
 20
553.3332
 11
1100.0
 21
550.0
  0
LINE
  8
HIBINO-BASE
  6
CONTINUOUS
 62
     7
 10
1350.0
 20
150.0
 11
1350.0
 21
375.0
  0
TEXT
  8
HIBINO-BASE
  6
CONTINUOUS
 62
     7
 10
1355.0
 20
225.0
 40
25.0
  1
DESIGN
  7
TTF_DEFAULT
  0
LINE
  8
HIBINO-BASE
  6
CONTINUOUS
 62
     7
 10
1475.0
 20
250.0
 11
1475.0
 21
150.0
  0
LINE
  8
DATA
  6
CONTINUOUS
 62
     7
 10
1270.479513
 20
650.828188
 11
1294.618567
 21
656.976403
  0
TEXT
  8
HIBINO-BASE
  6
CONTINUOUS
 62
     7
 10
1355.0
 20
350.0
 40
25.0
  1
TITLE
  7
TTF_DEFAULT
  0
LINE
  8
DIMENSIONS
  6
CONTINUOUS
 62
     7
 10
1360.289977
 20
550.0
 11
1437.943079
 21
550.0
  0
LINE
  8
DIMENSIONS
  6
CONTINUOUS
 62
     7
 10
1380.289977
 20
546.6668
 11
1360.289977
 21
550.0
  0
LINE
  8
DIMENSIONS
  6
CONTINUOUS
 62
     7
 10
1380.289977
 20
553.3332
 11
1360.289977
 21
550.0
  0
LINE
  8
DIMENSIONS
  6
CONTINUOUS
 62
     7
 10
1417.943079
 20
546.6668
 11
1437.943079
 21
550.0
  0
LINE
  8
DIMENSIONS
  6
CONTINUOUS
 62
     7
 10
1417.943079
 20
553.3332
 11
1437.943079
 21
550.0
  0
LINE
  8
DIMENSIONS
  6
CONTINUOUS
 62
     7
 10
1340.289977
 20
546.6668
 11
1360.289977
 21
550.0
  0
LINE
  8
DIMENSIONS
  6
CONTINUOUS
 62
     7
 10
1340.289977
 20
553.3332
 11
1360.289977
 21
550.0
  0
TEXT
  8
DIMENSIONS
  6
CONTINUOUS
 62
     7
 10
1385.243487
 20
562.5
 40
25.0
  1
78
  7
TTF_DEFAULT
  0
LINE
  8
DATA
  6
CONTINUOUS
 62
     7
 10
1181.293157
 20
1098.444705
 11
1334.134863
 21
678.515569
  0
LINE
  8
DATA
  6
CONTINUOUS
 62
     7
 10
1202.002252
 20
1101.484924
 11
1351.641057
 21
690.355686
  0
ARC
  8
DATA
  6
CONTINUOUS
 62
     7
 10
1230.47533
 20
835.482204
 40
267.522267
 50
64.729525
 51
110.166552
  0
POLYLINE
  8
DATA
  6
CONTINUOUS
 62
     7
 66
     1
 70
     1
  0
VERTEX
  8
DATA
 10
1245.207533
 20
952.810395
 42
0.135076
 70
     2
 50
200.0
  0
VERTEX
  8
DATA
 10
1243.982649
 20
951.940384
 42
0.106889
 70
     2
 50
229.220826
  0
VERTEX
  8
DATA
 10
1243.125689
 20
950.260446
 42
0.081996
 70
     2
 50
255.175511
  0
VERTEX
  8
DATA
 10
1242.937944
 20
948.292413
 42
0.070252
 70
     2
 50
273.296023
  0
VERTEX
  8
DATA
 10
1243.415378
 20
946.039082
 42
0.070252
 70
     2
 50
290.0
  0
VERTEX
  8
DATA
 10
1244.498055
 20
944.006042
 42
0.081996
 70
     2
 50
306.703977
  0
VERTEX
  8
DATA
 10
1245.906904
 20
942.619121
 42
0.106889
 70
     2
 50
324.824489
  0
VERTEX
  8
DATA
 10
1247.643217
 20
941.883058
 42
0.135076
 70
     2
 50
350.779174
  0
VERTEX
  8
DATA
 10
1249.140764
 20
942.00393
 42
0.135076
 70
     2
 50
20.0
  0
VERTEX
  8
DATA
 10
1250.365648
 20
942.873942
 42
0.106889
 70
     2
 50
49.220826
  0
VERTEX
  8
DATA
 10
1251.222608
 20
944.553879
 42
0.081996
 70
     2
 50
75.175511
  0
VERTEX
  8
DATA
 10
1251.410353
 20
946.521913
 42
0.070252
 70
     2
 50
93.296023
  0
VERTEX
  8
DATA
 10
1250.932919
 20
948.775243
 42
0.070252
 70
     2
 50
110.0
  0
VERTEX
  8
DATA
 10
1249.850242
 20
950.808283
 42
0.081996
 70
     2
 50
126.703977
  0
VERTEX
  8
DATA
 10
1248.441393
 20
952.195204
 42
0.106889
 70
     2
 50
144.824489
  0
VERTEX
  8
DATA
 10
1246.70508
 20
952.931268
 42
0.135076
 70
     2
 50
170.779174
  0
SEQEND
  8
DATA
  0
LINE
  8
DATA
  6
CONTINUOUS
 62
     7
 10
1100.0
 20
1223.663358
 11
1437.943079
 21
1223.663358
  0
LINE
  8
DATA
  6
CONTINUOUS
 62
     7
 10
1218.97154
 20
1223.663358
 11
1247.839053
 21
1273.663358
  0
ARC
  8
DATA
  6
CONTINUOUS
 62
     7
 10
1128.201595
 20
1050.467288
 40
28.201595
 50
116.080174
 51
199.630419
  0
LINE
  8
DATA
  6
CONTINUOUS
 62
     7
 10
1115.803373
 20
1075.79739
 11
1138.246958
 21
1086.603869
  0
POLYLINE
  8
DATA
  6
CONTINUOUS
 62
     7
 66
     1
 70
     1
  0
VERTEX
  8
DATA
 10
1205.020166
 20
1063.224278
 42
0.135076
 70
     2
 50
200.0
  0
VERTEX
  8
DATA
 10
1203.795283
 20
1062.354267
 42
0.106889
 70
     2
 50
229.220826
  0
VERTEX
  8
DATA
 10
1202.938322
 20
1060.674329
 42
0.081996
 70
     2
 50
255.175511
  0
VERTEX
  8
DATA
 10
1202.750577
 20
1058.706296
 42
0.070252
 70
     2
 50
273.296023
  0
VERTEX
  8
DATA
 10
1203.228011
 20
1056.452965
 42
0.070252
 70
     2
 50
290.0
  0
VERTEX
  8
DATA
 10
1204.310688
 20
1054.419925
 42
0.081996
 70
     2
 50
306.703977
  0
VERTEX
  8
DATA
 10
1205.719537
 20
1053.033004
 42
0.106889
 70
     2
 50
324.824489
  0
VERTEX
  8
DATA
 10
1207.45585
 20
1052.296941
 42
0.135076
 70
     2
 50
350.779174
  0
VERTEX
  8
DATA
 10
1208.953397
 20
1052.417813
 42
0.135076
 70
     2
 50
20.0
  0
VERTEX
  8
DATA
 10
1210.178281
 20
1053.287825
 42
0.106889
 70
     2
 50
49.220826
  0
VERTEX
  8
DATA
 10
1211.035241
 20
1054.967762
 42
0.081996
 70
     2
 50
75.175511
  0
VERTEX
  8
DATA
 10
1211.222986
 20
1056.935796
 42
0.070252
 70
     2
 50
93.296023
  0
VERTEX
  8
DATA
 10
1210.745552
 20
1059.189126
 42
0.070252
 70
     2
 50
110.0
  0
VERTEX
  8
DATA
 10
1209.662875
 20
1061.222166
 42
0.081996
 70
     2
 50
126.703977
  0
VERTEX
  8
DATA
 10
1208.254026
 20
1062.609087
 42
0.106889
 70
     2
 50
144.824489
  0
VERTEX
  8
DATA
 10
1206.517713
 20
1063.345151
 42
0.135076
 70
     2
 50
170.779174
  0
SEQEND
  8
DATA
  0
LINE
  8
DATA
  6
CONTINUOUS
 62
     7
 10
1118.97154
 20
1223.663358
 11
1147.839053
 21
1273.663358
  0
LINE
  8
DATA
  6
CONTINUOUS
 62
     7
 10
1168.97154
 20
1223.663358
 11
1197.839053
 21
1273.663358
  0
LINE
  8
DATA
  6
CONTINUOUS
 62
     7
 10
1360.289977
 20
1048.264183
 11
1360.289977
 21
708.108264
  0
LINE
  8
DATA
  6
HIDDEN
 62
     7
 10
1303.155389
 20
1071.069007
 11
1357.365581
 21
922.127727
  0
LINE
  8
KANAGU
  6
CONTINUOUS
 62
     7
 10
1363.193079
 20
930.820061
 11
1363.193079
 21
1087.708458
  0
LINE
  8
KANAGU
  6
CONTINUOUS
 62
     7
 10
1369.693079
 20
933.185867
 11
1369.693079
 21
1087.708458
  0
LINE
  8
KANAGU
  6
CONTINUOUS
 62
     7
 10
1437.943079
 20
930.913358
 11
1437.943079
 21
1099.513358
  0
LINE
  8
DATA
  6
CONTINUOUS
 62
     7
 10
1437.943079
 20
1175.0
 11
1437.943079
 21
837.056921
  0
LINE
  8
DATA
  6
CONTINUOUS
 62
     7
 10
1437.943079
 20
1056.02846
 11
1487.943079
 21
1027.160947
  0
ARC
  8
DATA
  6
HIDDEN
 62
     7
 10
1346.257562
 20
936.70785
 40
8.951429
 50
327.517301
 51
72.482699
  0
ARC
  8
DATA
  6
CONTINUOUS
 62
     7
 10
1337.789977
 20
708.108264
 40
22.5
 50
305.673031
 51
0.0
  0
POLYLINE
  8
DATA
  6
CONTINUOUS
 62
     7
 66
     1
 70
     1
  0
VERTEX
  8
DATA
 10
1325.582266
 20
731.982629
 42
0.135076
 70
     2
 50
200.0
  0
VERTEX
  8
DATA
 10
1324.357383
 20
731.112618
 42
0.106889
 70
     2
 50
229.220826
  0
VERTEX
  8
DATA
 10
1323.500423
 20
729.43268
 42
0.081996
 70
     2
 50
255.175511
  0
VERTEX
  8
DATA
 10
1323.312678
 20
727.464647
 42
0.070252
 70
     2
 50
273.296023
  0
VERTEX
  8
DATA
 10
1323.790112
 20
725.211316
 42
0.070252
 70
     2
 50
290.0
  0
VERTEX
  8
DATA
 10
1324.872789
 20
723.178276
 42
0.081996
 70
     2
 50
306.703977
  0
VERTEX
  8
DATA
 10
1326.281637
 20
721.791355
 42
0.106889
 70
     2
 50
324.824489
  0
VERTEX
  8
DATA
 10
1328.01795
 20
721.055292
 42
0.135076
 70
     2
 50
350.779174
  0
VERTEX
  8
DATA
 10
1329.515498
 20
721.176164
 42
0.135076
 70
     2
 50
20.0
  0
VERTEX
  8
DATA
 10
1330.740381
 20
722.046176
 42
0.106889
 70
     2
 50
49.220826
  0
VERTEX
  8
DATA
 10
1331.597342
 20
723.726114
 42
0.081996
 70
     2
 50
75.175511
  0
VERTEX
  8
DATA
 10
1331.785087
 20
725.694147
 42
0.070252
 70
     2
 50
93.296023
  0
VERTEX
  8
DATA
 10
1331.307653
 20
727.947477
 42
0.070252
 70
     2
 50
110.0
  0
VERTEX
  8
DATA
 10
1330.224975
 20
729.980518
 42
0.081996
 70
     2
 50
126.703977
  0
VERTEX
  8
DATA
 10
1328.816127
 20
731.367438
 42
0.106889
 70
     2
 50
144.824489
  0
VERTEX
  8
DATA
 10
1327.079814
 20
732.103502
 42
0.135076
 70
     2
 50
170.779174
  0
SEQEND
  8
DATA
  0
POLYLINE
  8
DATA
  6
CONTINUOUS
 62
     7
 66
     1
 70
     1
  0
VERTEX
  8
DATA
 10
1285.3949
 20
842.396512
 42
0.135076
 70
     2
 50
200.0
  0
VERTEX
  8
DATA
 10
1284.170016
 20
841.526501
 42
0.106889
 70
     2
 50
229.220826
  0
VERTEX
  8
DATA
 10
1283.313056
 20
839.846563
 42
0.081996
 70
     2
 50
255.175511
  0
VERTEX
  8
DATA
 10
1283.125311
 20
837.87853
 42
0.070252
 70
     2
 50
273.296023
  0
VERTEX
  8
DATA
 10
1283.602745
 20
835.625199
 42
0.070252
 70
     2
 50
290.0
  0
VERTEX
  8
DATA
 10
1284.685422
 20
833.592159
 42
0.081996
 70
     2
 50
306.703977
  0
VERTEX
  8
DATA
 10
1286.094271
 20
832.205238
 42
0.106889
 70
     2
 50
324.824489
  0
VERTEX
  8
DATA
 10
1287.830584
 20
831.469175
 42
0.135076
 70
     2
 50
350.779174
  0
VERTEX
  8
DATA
 10
1289.328131
 20
831.590047
 42
0.135076
 70
     2
 50
20.0
  0
VERTEX
  8
DATA
 10
1290.553014
 20
832.460059
 42
0.106889
 70
     2
 50
49.220826
  0
VERTEX
  8
DATA
 10
1291.409975
 20
834.139996
 42
0.081996
 70
     2
 50
75.175511
  0
VERTEX
  8
DATA
 10
1291.59772
 20
836.10803
 42
0.070252
 70
     2
 50
93.296023
  0
VERTEX
  8
DATA
 10
1291.120286
 20
838.36136
 42
0.070252
 70
     2
 50
110.0
  0
VERTEX
  8
DATA
 10
1290.037609
 20
840.394401
 42
0.081996
 70
     2
 50
126.703977
  0
VERTEX
  8
DATA
 10
1288.62876
 20
841.781321
 42
0.106889
 70
     2
 50
144.824489
  0
VERTEX
  8
DATA
 10
1286.892447
 20
842.517385
 42
0.135076
 70
     2
 50
170.779174
  0
SEQEND
  8
DATA
  0
LINE
  8
DATA
  6
HIDDEN
 62
     7
 10
1357.365581
 20
922.127727
 11
1360.289977
 21
923.19212
  0
ARC
  8
DATA
  6
HIDDEN
 62
     7
 10
1443.394508
 20
1010.163358
 40
8.951429
 50
127.517301
 51
232.482699
  0
ARC
  8
DATA
  6
HIDDEN
 62
     7
 10
1443.394508
 20
946.663358
 40
8.951429
 50
127.517301
 51
232.482699
  0
LINE
  8
KANAGU
  6
CONTINUOUS
 62
     7
 10
1360.289977
 20
929.763418
 11
1369.693079
 21
933.185867
  0
LINE
  8
KANAGU
  6
CONTINUOUS
 62
     7
 10
1369.693079
 20
939.708458
 11
1363.193079
 21
939.708458
  0
LINE
  8
KANAGU
  6
CONTINUOUS
 62
     7
 10
1364.793079
 20
931.402413
 11
1364.793079
 21
939.708458
  0
LINE
  8
KANAGU
  6
CONTINUOUS
 62
     7
 10
1366.443079
 20
930.913358
 11
1366.443079
 21
932.002964
  0
LINE
  8
KANAGU
  6
CONTINUOUS
 62
     7
 10
1368.043079
 20
930.913358
 11
1368.043079
 21
932.585316
  0
LINE
  8
KANAGU
  6
CONTINUOUS
 62
     7
 10
1366.443079
 20
930.913358
 11
1437.943079
 21
930.913358
  0
LINE
  8
DATA
  6
CONTINUOUS
 62
     7
 10
1437.943079
 20
856.02846
 11
1487.943079
 21
827.160947
  0
LINE
  8
DATA
  6
CONTINUOUS
 62
     7
 10
1437.943079
 20
1006.02846
 11
1487.943079
 21
977.160947
  0
LINE
  8
DATA
  6
CONTINUOUS
 62
     7
 10
1437.943079
 20
956.02846
 11
1487.943079
 21
927.160947
  0
LINE
  8
DATA
  6
CONTINUOUS
 62
     7
 10
1437.943079
 20
906.02846
 11
1487.943079
 21
877.160947
  0
LINE
  8
DATA
  6
HIDDEN
 62
     7
 10
1265.559372
 20
1099.806201
 11
1279.193227
 21
1062.347494
  0
LINE
  8
DATA
  6
HIDDEN
 62
     7
 10
1279.193227
 20
1062.347494
 11
1303.155389
 21
1071.069007
  0
ARC
  8
DATA
  6
HIDDEN
 62
     7
 10
1302.821003
 20
1056.048812
 40
8.951429
 50
327.517301
 51
72.482699
  0
LINE
  8
DATA
  6
HIDDEN
 62
     7
 10
1275.306984
 20
1087.643879
 11
1280.50569
 21
1073.360551
  0
LINE
  8
DATA
  6
HIDDEN
 62
     7
 10
1275.807227
 20
1071.650451
 11
1280.50569
 21
1073.360551
  0
LINE
  8
DATA
  6
HIDDEN
 62
     7
 10
1270.608521
 20
1085.933779
 11
1275.306984
 21
1087.643879
  0
LINE
  8
DATA
  6
HIDDEN
 62
     7
 10
1292.093625
 20
1092.689539
 11
1296.608291
 21
1080.285597
  0
LINE
  8
DATA
  6
HIDDEN
 62
     7
 10
1296.608291
 20
1080.285597
 11
1287.681211
 21
1077.036405
  0
LINE
  8
DATA
  6
HIDDEN
 62
     7
 10
1283.166545
 20
1089.440348
 11
1292.093625
 21
1092.689539
  0
LINE
  8
DATA
  6
HIDDEN
 62
     7
 10
1286.552545
 20
1080.137391
 11
1295.479625
 21
1083.386582
  0
LINE
  8
DATA
  6
HIDDEN
 62
     7
 10
1284.295212
 20
1086.339362
 11
1293.222292
 21
1089.588554
  0
LINE
  8
DATA
  6
HIDDEN
 62
     7
 10
1280.446179
 20
1073.524058
 11
1287.96372
 21
1076.260219
  0
LINE
  8
DATA
  6
HIDDEN
 62
     7
 10
1282.884037
 20
1090.216534
 11
1287.96372
 21
1076.260219
  0
LINE
  8
DATA
  6
HIDDEN
 62
     7
 10
1275.315877
 20
1087.619447
 11
1282.833418
 21
1090.355608
  0
ARC
  8
DATA
  6
CONTINUOUS
 62
     7
 10
1325.289977
 20
1048.264183
 40
35.0
 50
0.0
 51
56.361187
  0
LINE
  8
DATA
  6
CONTINUOUS
 62
     7
 10
1268.97154
 20
1223.663358
 11
1297.839053
 21
1273.663358
  0
LINE
  8
DATA
  6
CONTINUOUS
 62
     7
 10
1318.97154
 20
1223.663358
 11
1347.839053
 21
1273.663358
  0
LINE
  8
DATA
  6
CONTINUOUS
 62
     7
 10
1368.97154
 20
1223.663358
 11
1397.839053
 21
1273.663358
  0
LINE
  8
DATA
  6
CONTINUOUS
 62
     7
 10
1418.97154
 20
1223.663358
 11
1447.839053
 21
1273.663358
  0
ARC
  8
DATA
  6
HIDDEN
 62
     7
 10
1443.394508
 20
1073.663358
 40
8.951429
 50
127.517301
 51
232.482699
  0
LINE
  8
KANAGU
  6
CONTINUOUS
 62
     7
 10
1337.426007
 20
1080.695817
 11
1356.693079
 21
1087.708458
  0
LINE
  8
KANAGU
  6
CONTINUOUS
 62
     7
 10
1328.053183
 20
1084.574006
 11
1375.680484
 21
1101.908925
  0
LINE
  8
KANAGU
  6
CONTINUOUS
 62
     7
 10
1330.290895
 20
1083.685782
 11
1376.227716
 21
1100.405417
  0
ARC
  8
KANAGU
  6
CONTINUOUS
 62
     7
 10
1374.859635
 20
1104.164188
 40
2.4
 50
290.0
 51
0.0
  0
LINE
  8
KANAGU
  6
CONTINUOUS
 62
     7
 10
1377.259635
 20
1104.164188
 11
1377.259635
 21
1121.363358
  0
ARC
  8
KANAGU
  6
CONTINUOUS
 62
     7
 10
1374.859635
 20
1104.164188
 40
4.0
 50
290.0
 51
0.0
  0
LINE
  8
KANAGU
  6
CONTINUOUS
 62
     7
 10
1378.859635
 20
1121.363358
 11
1378.859635
 21
1104.164188
  0
LINE
  8
KANAGU
  6
CONTINUOUS
 62
     7
 10
1356.693079
 20
1087.708458
 11
1369.693079
 21
1087.708458
  0
LINE
  8
KANAGU
  6
CONTINUOUS
 62
     7
 10
1378.859635
 20
1121.363358
 11
1377.259635
 21
1121.363358
  0
ARC
  8
KANAGU
  6
CONTINUOUS
 62
     7
 10
1433.943079
 20
1099.513358
 40
4.0
 50
0.0
 51
90.0
  0
LINE
  8
KANAGU
  6
CONTINUOUS
 62
     7
 10
1436.343079
 20
1099.513358
 11
1436.343079
 21
1089.413358
  0
ARC
  8
KANAGU
  6
CONTINUOUS
 62
     7
 10
1433.943079
 20
1099.513358
 40
2.4
 50
0.0
 51
90.0
  0
LINE
  8
KANAGU
  6
CONTINUOUS
 62
     7
 10
1368.043079
 20
1087.708458
 11
1368.043079
 21
1089.413358
  0
LINE
  8
KANAGU
  6
CONTINUOUS
 62
     7
 10
1366.443079
 20
1087.708458
 11
1366.443079
 21
1089.413358
  0
LINE
  8
KANAGU
  6
CONTINUOUS
 62
     7
 10
1379.943079
 20
1120.913358
 11
1381.543079
 21
1120.913358
  0
LINE
  8
KANAGU
  6
CONTINUOUS
 62
     7
 10
1379.943079
 20
1105.913358
 11
1379.943079
 21
1120.913358
  0
ARC
  8
KANAGU
  6
CONTINUOUS
 62
     7
 10
1383.943079
 20
1105.913358
 40
4.0
 50
180.0
 51
270.0
  0
LINE
  8
KANAGU
  6
CONTINUOUS
 62
     7
 10
1381.543079
 20
1105.913358
 11
1381.543079
 21
1120.913358
  0
ARC
  8
KANAGU
  6
CONTINUOUS
 62
     7
 10
1383.943079
 20
1105.913358
 40
2.4
 50
180.0
 51
270.0
  0
LINE
  8
KANAGU
  6
CONTINUOUS
 62
     7
 10
1366.443079
 20
1089.413358
 11
1437.943079
 21
1089.413358
  0
LINE
  8
KANAGU
  6
CONTINUOUS
 62
     7
 10
1383.943079
 20
1103.513358
 11
1433.943079
 21
1103.513358
  0
LINE
  8
KANAGU
  6
CONTINUOUS
 62
     7
 10
1383.943079
 20
1101.913358
 11
1433.943079
 21
1101.913358
  0
LINE
  8
DATA
  6
CONTINUOUS
 62
     7
 10
1437.943079
 20
1106.02846
 11
1487.943079
 21
1077.160947
  0
LINE
  8
DATA
  6
CONTINUOUS
 62
     7
 10
1437.943079
 20
1156.02846
 11
1487.943079
 21
1127.160947
  0
TEXT
  8
HIBINO-BASE
  6
CONTINUOUS
 62
     7
 10
1730.0
 20
225.0
 40
25.0
  1
DRAWING NO.
  7
TTF_DEFAULT
  0
TEXT
  8
HIBINO-BASE
  6
CONTINUOUS
 62
     7
 10
1562.300263
 20
85.9132
 40
40.0
  1
ヒビノ株式会社
  7
TTF_DEFAULT
  0
TEXT
  8
HIBINO-BASE
  6
CONTINUOUS
 62
     7
 10
1605.0
 20
225.0
 40
25.0
  1
CHECK
  7
TTF_DEFAULT
  0
LINE
  8
HIBINO-BASE
  6
CONTINUOUS
 62
     7
 10
1725.0
 20
250.0
 11
1725.0
 21
150.0
  0
LINE
  8
HIBINO-BASE
  6
CONTINUOUS
 62
     7
 10
1600.0
 20
150.0
 11
1600.0
 21
250.0
  0
LINE
  8
DIMENSIONS
  6
CONTINUOUS
 62
     7
 10
1550.0
 20
1073.663358
 11
1550.0
 21
1010.163358
  0
TEXT
  8
DIMENSIONS
  6
CONTINUOUS
 62
     7
 10
1537.5
 20
1014.335434
 40
25.0
  1
63.5
 50
90.0
  7
TTF_DEFAULT
  0
LINE
  8
DIMENSIONS
  6
CONTINUOUS
 62
     7
 10
1546.6668
 20
1030.163358
 11
1550.0
 21
1010.163358
  0
LINE
  8
DIMENSIONS
  6
CONTINUOUS
 62
     7
 10
1553.3332
 20
1030.163358
 11
1550.0
 21
1010.163358
  0
LINE
  8
DIMENSIONS
  6
CONTINUOUS
 62
     7
 10
1550.0
 20
1010.163358
 11
1550.0
 21
946.663358
  0
LINE
  8
DIMENSIONS
  6
CONTINUOUS
 62
     7
 10
1546.6668
 20
990.163358
 11
1550.0
 21
1010.163358
  0
LINE
  8
DIMENSIONS
  6
CONTINUOUS
 62
     7
 10
1553.3332
 20
990.163358
 11
1550.0
 21
1010.163358
  0
LINE
  8
DIMENSIONS
  6
CONTINUOUS
 62
     7
 10
1546.6668
 20
966.663358
 11
1550.0
 21
946.663358
  0
LINE
  8
DIMENSIONS
  6
CONTINUOUS
 62
     7
 10
1553.3332
 20
966.663358
 11
1550.0
 21
946.663358
  0
TEXT
  8
DIMENSIONS
  6
CONTINUOUS
 62
     7
 10
1537.5
 20
950.835434
 40
25.0
  1
63.5
 50
90.0
  7
TTF_DEFAULT
  0
LINE
  8
DIMENSIONS
  6
CONTINUOUS
 62
     7
 10
1550.0
 20
1121.363358
 11
1550.0
 21
1161.363358
  0
LINE
  8
DIMENSIONS
  6
CONTINUOUS
 62
     7
 10
1553.3332
 20
1141.363358
 11
1550.0
 21
1121.363358
  0
LINE
  8
DIMENSIONS
  6
CONTINUOUS
 62
     7
 10
1546.6668
 20
1141.363358
 11
1550.0
 21
1121.363358
  0
LINE
  8
DIMENSIONS
  6
CONTINUOUS
 62
     7
 10
1546.6668
 20
1053.663358
 11
1550.0
 21
1073.663358
  0
LINE
  8
DIMENSIONS
  6
CONTINUOUS
 62
     7
 10
1553.3332
 20
1053.663358
 11
1550.0
 21
1073.663358
  0
LINE
  8
DIMENSIONS
  6
CONTINUOUS
 62
     7
 10
1650.0
 20
1073.663358
 11
1650.0
 21
1223.663358
  0
LINE
  8
DIMENSIONS
  6
CONTINUOUS
 62
     7
 10
1653.3332
 20
1093.663358
 11
1650.0
 21
1073.663358
  0
LINE
  8
DIMENSIONS
  6
CONTINUOUS
 62
     7
 10
1646.6668
 20
1093.663358
 11
1650.0
 21
1073.663358
  0
LINE
  8
DIMENSIONS
  6
CONTINUOUS
 62
     7
 10
1653.3332
 20
1203.663358
 11
1650.0
 21
1223.663358
  0
LINE
  8
DIMENSIONS
  6
CONTINUOUS
 62
     7
 10
1646.6668
 20
1203.663358
 11
1650.0
 21
1223.663358
  0
TEXT
  8
DIMENSIONS
  6
CONTINUOUS
 62
     7
 10
1700.0
 20
1087.5
 40
25.0
  1
150(取付穴最小寸法)
 50
90.0
  7
TTF_DEFAULT
  0
TEXT
  8
DIMENSIONS
  6
CONTINUOUS
 62
     7
 10
1537.5
 20
1148.863358
 40
25.0
  1
47.7
 50
90.0
  7
TTF_DEFAULT
  0
LINE
  8
KANAGU
  6
CONTINUOUS
 62
     7
 10
1523.795979
 20
2222.475088
 11
1452.192182
 21
2196.413437
  0
LINE
  8
KANAGU
  6
CONTINUOUS
 62
     7
 10
1523.248747
 20
2223.978597
 11
1451.64495
 21
2197.916946
  0
LINE
  8
KANAGU
  6
CONTINUOUS
 62
     7
 10
1502.821871
 20
2050.0
 11
1517.261343
 21
2055.255538
  0
LINE
  8
KANAGU
  6
CONTINUOUS
 62
     7
 10
1504.261343
 20
2209.778129
 11
1517.261343
 21
2209.778129
  0
LINE
  8
DIMENSIONS
  6
CONTINUOUS
 62
     7
 10
1450.0
 20
1950.0
 11
1585.511343
 21
1950.0
  0
TEXT
  8
DIMENSIONS
  6
CONTINUOUS
 62
     7
 10
1482.862871
 20
1962.5
 40
25.0
  1
135.5
  7
TTF_DEFAULT
  0
LINE
  8
KANAGU
  6
CONTINUOUS
 62
     7
 10
1229.25
 20
2050.0
 11
1229.25
 21
2209.778129
  0
LINE
  8
KANAGU
  6
CONTINUOUS
 62
     7
 10
1200.0
 20
2061.778129
 11
1215.25
 21
2209.778129
  0
LINE
  8
KANAGU
  6
CONTINUOUS
 62
     7
 10
1327.75
 20
2050.0
 11
1327.75
 21
2209.778129
  0
LINE
  8
KANAGU
  6
CONTINUOUS
 62
     7
 10
1341.75
 20
2209.778129
 11
1357.0
 21
2061.778129
  0
LINE
  8
KANAGU
  6
CONTINUOUS
 62
     7
 10
1450.150768
 20
2194.712664
 11
1502.821871
 21
2050.0
  0
LINE
  8
DIMENSIONS
  6
CONTINUOUS
 62
     7
 10
1100.0
 20
2243.433029
 11
1100.0
 21
2050.0
  0
LINE
  8
DIMENSIONS
  6
CONTINUOUS
 62
     7
 10
1450.0
 20
2185.567714
 11
1450.0
 21
1937.5
  0
TEXT
  8
DIMENSIONS
  6
CONTINUOUS
 62
     7
 10
1087.5
 20
2111.823714
 40
25.0
  1
193.4
 50
90.0
  7
TTF_DEFAULT
  0
LINE
  8
KANAGU
  6
CONTINUOUS
 62
     7
 10
1229.25
 20
2050.0
 11
1327.75
 21
2050.0
  0
POLYLINE
  8
KANAGU
  6
CONTINUOUS
 62
     7
 66
     1
 70
     1
  0
VERTEX
  8
KANAGU
 10
1247.075
 20
2060.642019
 42
0.104168
 70
     2
 50
90.0
  0
VERTEX
  8
KANAGU
 10
1246.812025
 20
2061.890589
 42
0.100664
 70
     2
 50
113.596311
  0
VERTEX
  8
KANAGU
 10
1246.049874
 20
2062.96764
 42
0.096076
 70
     2
 50
136.780821
  0
VERTEX
  8
KANAGU
 10
1244.924388
 20
2063.677587
 42
0.093065
 70
     2
 50
158.568704
  0
VERTEX
  8
KANAGU
 10
1243.575
 20
2063.930943
 42
0.093065
 70
     2
 50
180.0
  0
VERTEX
  8
KANAGU
 10
1242.225612
 20
2063.677587
 42
0.096076
 70
     2
 50
201.431296
  0
VERTEX
  8
KANAGU
 10
1241.100126
 20
2062.96764
 42
0.100664
 70
     2
 50
223.219179
  0
VERTEX
  8
KANAGU
 10
1240.337975
 20
2061.890589
 42
0.104168
 70
     2
 50
246.403689
  0
VERTEX
  8
KANAGU
 10
1240.075
 20
2060.642019
 42
0.104168
 70
     2
 50
270.0
  0
VERTEX
  8
KANAGU
 10
1240.337975
 20
2059.393449
 42
0.100664
 70
     2
 50
293.596311
  0
VERTEX
  8
KANAGU
 10
1241.100126
 20
2058.316398
 42
0.096076
 70
     2
 50
316.780821
  0
VERTEX
  8
KANAGU
 10
1242.225612
 20
2057.60645
 42
0.093065
 70
     2
 50
338.568704
  0
VERTEX
  8
KANAGU
 10
1243.575
 20
2057.353095
 42
0.093065
 70
     2
 50
0.0
  0
VERTEX
  8
KANAGU
 10
1244.924388
 20
2057.60645
 42
0.096076
 70
     2
 50
21.431296
  0
VERTEX
  8
KANAGU
 10
1246.049874
 20
2058.316398
 42
0.100664
 70
     2
 50
43.219179
  0
VERTEX
  8
KANAGU
 10
1246.812025
 20
2059.393449
 42
0.104168
 70
     2
 50
66.403689
  0
SEQEND
  8
KANAGU
  0
LINE
  8
DIMENSIONS
  6
CONTINUOUS
 62
     7
 10
1200.0
 20
1950.0
 11
1357.0
 21
1950.0
  0
LINE
  8
KANAGU
  6
CONTINUOUS
 62
     7
 10
1229.25
 20
2052.889732
 11
1200.0
 21
2061.778129
  0
LINE
  8
DIMENSIONS
  6
CONTINUOUS
 62
     7
 10
1219.25
 20
2050.0
 11
1087.5
 21
2050.0
  0
LINE
  8
DIMENSIONS
  6
CONTINUOUS
 62
     7
 10
1096.6668
 20
2070.0
 11
1100.0
 21
2050.0
  0
LINE
  8
DIMENSIONS
  6
CONTINUOUS
 62
     7
 10
1103.3332
 20
2070.0
 11
1100.0
 21
2050.0
  0
LINE
  8
DIMENSIONS
  6
CONTINUOUS
 62
     7
 10
1200.0
 20
2051.778129
 11
1200.0
 21
1937.5
  0
LINE
  8
DIMENSIONS
  6
CONTINUOUS
 62
     7
 10
1220.0
 20
1946.6668
 11
1200.0
 21
1950.0
  0
LINE
  8
DIMENSIONS
  6
CONTINUOUS
 62
     7
 10
1220.0
 20
1953.3332
 11
1200.0
 21
1950.0
  0
TEXT
  8
DATA
  6
CONTINUOUS
 62
     7
 10
1271.42814
 20
1862.5
 40
25.0
  1
2516取付金具
  7
TTF_DEFAULT
  0
LINE
  8
DATA
  6
CONTINUOUS
 62
     7
 10
1250.0
 20
1850.0
 11
1450.0
 21
1850.0
  0
LINE
  8
KANAGU
  6
CONTINUOUS
 62
     7
 10
1327.75
 20
2052.889732
 11
1357.0
 21
2061.778129
  0
POLYLINE
  8
KANAGU
  6
CONTINUOUS
 62
     7
 66
     1
 70
     1
  0
VERTEX
  8
KANAGU
 10
1316.925
 20
2060.642019
 42
0.104168
 70
     2
 50
90.0
  0
VERTEX
  8
KANAGU
 10
1316.662025
 20
2061.890589
 42
0.100664
 70
     2
 50
113.596311
  0
VERTEX
  8
KANAGU
 10
1315.899874
 20
2062.96764
 42
0.096076
 70
     2
 50
136.780821
  0
VERTEX
  8
KANAGU
 10
1314.774388
 20
2063.677587
 42
0.093065
 70
     2
 50
158.568704
  0
VERTEX
  8
KANAGU
 10
1313.425
 20
2063.930943
 42
0.093065
 70
     2
 50
180.0
  0
VERTEX
  8
KANAGU
 10
1312.075612
 20
2063.677587
 42
0.096076
 70
     2
 50
201.431296
  0
VERTEX
  8
KANAGU
 10
1310.950126
 20
2062.96764
 42
0.100664
 70
     2
 50
223.219179
  0
VERTEX
  8
KANAGU
 10
1310.187975
 20
2061.890589
 42
0.104168
 70
     2
 50
246.403689
  0
VERTEX
  8
KANAGU
 10
1309.925
 20
2060.642019
 42
0.104168
 70
     2
 50
270.0
  0
VERTEX
  8
KANAGU
 10
1310.187975
 20
2059.393449
 42
0.100664
 70
     2
 50
293.596311
  0
VERTEX
  8
KANAGU
 10
1310.950126
 20
2058.316398
 42
0.096076
 70
     2
 50
316.780821
  0
VERTEX
  8
KANAGU
 10
1312.075612
 20
2057.60645
 42
0.093065
 70
     2
 50
338.568704
  0
VERTEX
  8
KANAGU
 10
1313.425
 20
2057.353095
 42
0.093065
 70
     2
 50
0.0
  0
VERTEX
  8
KANAGU
 10
1314.774388
 20
2057.60645
 42
0.096076
 70
     2
 50
21.431296
  0
VERTEX
  8
KANAGU
 10
1315.899874
 20
2058.316398
 42
0.100664
 70
     2
 50
43.219179
  0
VERTEX
  8
KANAGU
 10
1316.662025
 20
2059.393449
 42
0.104168
 70
     2
 50
66.403689
  0
SEQEND
  8
KANAGU
  0
LINE
  8
DIMENSIONS
  6
CONTINUOUS
 62
     7
 10
1470.0
 20
1946.6668
 11
1450.0
 21
1950.0
  0
LINE
  8
DIMENSIONS
  6
CONTINUOUS
 62
     7
 10
1470.0
 20
1953.3332
 11
1450.0
 21
1950.0
  0
LINE
  8
DIMENSIONS
  6
CONTINUOUS
 62
     7
 10
1357.0
 20
2051.778129
 11
1357.0
 21
1937.5
  0
LINE
  8
DIMENSIONS
  6
CONTINUOUS
 62
     7
 10
1337.0
 20
1946.6668
 11
1357.0
 21
1950.0
  0
LINE
  8
DIMENSIONS
  6
CONTINUOUS
 62
     7
 10
1337.0
 20
1953.3332
 11
1357.0
 21
1950.0
  0
TEXT
  8
DIMENSIONS
  6
CONTINUOUS
 62
     7
 10
1257.56432
 20
1962.5
 40
25.0
  1
157
  7
TTF_DEFAULT
  0
LINE
  8
KANAGU
  6
CONTINUOUS
 62
     7
 10
1240.25
 20
2378.160574
 11
1316.75
 21
2378.160574
  0
LINE
  8
KANAGU
  6
CONTINUOUS
 62
     7
 10
1240.25
 20
2376.560574
 11
1316.75
 21
2376.560574
  0
LINE
  8
KANAGU
  6
CONTINUOUS
 62
     7
 10
1237.85
 20
2434.560574
 11
1319.15
 21
2434.560574
  0
LINE
  8
KANAGU
  6
CONTINUOUS
 62
     7
 10
1240.25
 20
2224.553361
 11
1316.75
 21
2224.553361
  0
LINE
  8
KANAGU
  6
CONTINUOUS
 62
     7
 10
1240.25
 20
2197.061895
 11
1316.75
 21
2197.061895
  0
LINE
  8
KANAGU
  6
CONTINUOUS
 62
     7
 10
1243.25
 20
2243.433029
 11
1313.75
 21
2243.433029
  0
POLYLINE
  8
KANAGU
  6
CONTINUOUS
 62
     7
 66
     1
 70
     1
  0
VERTEX
  8
KANAGU
 10
1247.075
 20
2179.982982
 42
0.104168
 70
     2
 50
90.0
  0
VERTEX
  8
KANAGU
 10
1246.812025
 20
2181.231551
 42
0.100664
 70
     2
 50
113.596311
  0
VERTEX
  8
KANAGU
 10
1246.049874
 20
2182.308602
 42
0.096076
 70
     2
 50
136.780821
  0
VERTEX
  8
KANAGU
 10
1244.924388
 20
2183.01855
 42
0.093065
 70
     2
 50
158.568704
  0
VERTEX
  8
KANAGU
 10
1243.575
 20
2183.271906
 42
0.093065
 70
     2
 50
180.0
  0
VERTEX
  8
KANAGU
 10
1242.225612
 20
2183.01855
 42
0.096076
 70
     2
 50
201.431296
  0
VERTEX
  8
KANAGU
 10
1241.100126
 20
2182.308602
 42
0.100664
 70
     2
 50
223.219179
  0
VERTEX
  8
KANAGU
 10
1240.337975
 20
2181.231551
 42
0.104168
 70
     2
 50
246.403689
  0
VERTEX
  8
KANAGU
 10
1240.075
 20
2179.982982
 42
0.104168
 70
     2
 50
270.0
  0
VERTEX
  8
KANAGU
 10
1240.337975
 20
2178.734412
 42
0.100664
 70
     2
 50
293.596311
  0
VERTEX
  8
KANAGU
 10
1241.100126
 20
2177.657361
 42
0.096076
 70
     2
 50
316.780821
  0
VERTEX
  8
KANAGU
 10
1242.225612
 20
2176.947413
 42
0.093065
 70
     2
 50
338.568704
  0
VERTEX
  8
KANAGU
 10
1243.575
 20
2176.694058
 42
0.093065
 70
     2
 50
0.0
  0
VERTEX
  8
KANAGU
 10
1244.924388
 20
2176.947413
 42
0.096076
 70
     2
 50
21.431296
  0
VERTEX
  8
KANAGU
 10
1246.049874
 20
2177.657361
 42
0.100664
 70
     2
 50
43.219179
  0
VERTEX
  8
KANAGU
 10
1246.812025
 20
2178.734412
 42
0.104168
 70
     2
 50
66.403689
  0
SEQEND
  8
KANAGU
  0
LINE
  8
KANAGU
  6
CONTINUOUS
 62
     7
 10
1229.25
 20
2300.0
 11
1327.75
 21
2300.0
  0
LINE
  8
KANAGU
  6
CONTINUOUS
 62
     7
 10
1240.25
 20
2376.27713
 11
1316.75
 21
2376.27713
  0
LINE
  8
KANAGU
  6
CONTINUOUS
 62
     7
 10
1240.25
 20
2374.67713
 11
1316.75
 21
2374.67713
  0
LINE
  8
DIMENSIONS
  6
CONTINUOUS
 62
     7
 10
1233.85
 20
2500.0
 11
1323.15
 21
2500.0
  0
LINE
  8
DIMENSIONS
  6
CONTINUOUS
 62
     7
 10
1253.85
 20
2496.6668
 11
1233.85
 21
2500.0
  0
LINE
  8
DIMENSIONS
  6
CONTINUOUS
 62
     7
 10
1253.85
 20
2503.3332
 11
1233.85
 21
2500.0
  0
LINE
  8
KANAGU
  6
CONTINUOUS
 62
     7
 10
1219.651475
 20
2211.483029
 11
1240.25
 21
2211.483029
  0
ARC
  8
KANAGU
  6
CONTINUOUS
 62
     7
 10
1219.651475
 20
2207.983029
 40
3.5
 50
90.0
 51
149.143761
  0
LINE
  8
KANAGU
  6
CONTINUOUS
 62
     7
 10
1233.85
 20
2211.483029
 11
1233.85
 21
2190.625001
  0
LINE
  8
KANAGU
  6
CONTINUOUS
 62
     7
 10
1240.25
 20
2376.560574
 11
1240.25
 21
2432.960574
  0
ARC
  8
KANAGU
  6
CONTINUOUS
 62
     7
 10
1231.45
 20
2367.060574
 40
4.0
 50
270.0
 51
0.0
  0
ARC
  8
KANAGU
  6
CONTINUOUS
 62
     7
 10
1237.85
 20
2430.560574
 40
4.0
 50
90.0
 51
180.0
  0
LINE
  8
KANAGU
  6
CONTINUOUS
 62
     7
 10
1233.85
 20
2367.060574
 11
1233.85
 21
2430.560574
  0
ARC
  8
KANAGU
  6
CONTINUOUS
 62
     7
 10
1231.45
 20
2367.060574
 40
2.4
 50
270.0
 51
360.0
  0
LINE
  8
KANAGU
  6
CONTINUOUS
 62
     7
 10
1235.45
 20
2367.060574
 11
1235.45
 21
2430.560574
  0
LINE
  8
KANAGU
  6
CONTINUOUS
 62
     7
 10
1237.85
 20
2432.960574
 11
1240.25
 21
2432.960574
  0
ARC
  8
KANAGU
  6
CONTINUOUS
 62
     7
 10
1237.85
 20
2430.560574
 40
2.4
 50
90.0
 51
180.0
  0
LINE
  8
KANAGU
  6
CONTINUOUS
 62
     7
 10
1216.85
 20
2363.060574
 11
1231.45
 21
2363.060574
  0
LINE
  8
KANAGU
  6
CONTINUOUS
 62
     7
 10
1216.85
 20
2364.660574
 11
1231.45
 21
2364.660574
  0
LINE
  8
KANAGU
  6
CONTINUOUS
 62
     7
 10
1229.25
 20
2190.625001
 11
1240.25
 21
2190.625001
  0
LINE
  8
KANAGU
  6
CONTINUOUS
 62
     7
 10
1230.85
 20
2209.778129
 11
1215.25
 21
2209.778129
  0
LINE
  8
KANAGU
  6
CONTINUOUS
 62
     7
 10
1230.85
 20
2190.625001
 11
1230.85
 21
2209.778129
  0
LINE
  8
KANAGU
  6
CONTINUOUS
 62
     7
 10
1240.25
 20
2190.625001
 11
1240.25
 21
2240.433029
  0
ARC
  8
KANAGU
  6
CONTINUOUS
 62
     7
 10
1243.25
 20
2240.433029
 40
3.0
 50
90.0
 51
180.0
  0
LINE
  8
KANAGU
  6
CONTINUOUS
 62
     7
 10
1240.25
 20
2300.0
 11
1240.25
 21
2376.27713
  0
LINE
  8
KANAGU
  6
CONTINUOUS
 62
     7
 10
1229.25
 20
2300.0
 11
1229.25
 21
2360.610574
  0
LINE
  8
KANAGU
  6
CONTINUOUS
 62
     7
 10
1230.85
 20
2301.6
 11
1230.85
 21
2362.210574
  0
LINE
  8
KANAGU
  6
CONTINUOUS
 62
     7
 10
1230.85
 20
2301.6
 11
1240.25
 21
2301.6
  0
LINE
  8
KANAGU
  6
CONTINUOUS
 62
     7
 10
1230.85
 20
2352.671102
 11
1240.25
 21
2352.671102
  0
LINE
  8
KANAGU
  6
CONTINUOUS
 62
     7
 10
1216.85
 20
2362.210574
 11
1230.85
 21
2362.210574
  0
LINE
  8
KANAGU
  6
CONTINUOUS
 62
     7
 10
1216.85
 20
2362.210574
 11
1216.85
 21
2365.510574
  0
LINE
  8
KANAGU
  6
CONTINUOUS
 62
     7
 10
1216.85
 20
2365.510574
 11
1225.05
 21
2365.510574
  0
LINE
  8
KANAGU
  6
CONTINUOUS
 62
     7
 10
1225.05
 20
2365.510574
 11
1225.05
 21
2367.110574
  0
LINE
  8
KANAGU
  6
CONTINUOUS
 62
     7
 10
1215.25
 20
2360.610574
 11
1215.25
 21
2367.110574
  0
LINE
  8
KANAGU
  6
CONTINUOUS
 62
     7
 10
1200.0
 20
2367.110574
 11
1225.05
 21
2367.110574
  0
LINE
  8
KANAGU
  6
CONTINUOUS
 62
     7
 10
1200.0
 20
2360.610574
 11
1229.25
 21
2360.610574
  0
LINE
  8
KANAGU
  6
CONTINUOUS
 62
     7
 10
1200.0
 20
2360.610574
 11
1200.0
 21
2367.110574
  0
LINE
  8
DIMENSIONS
  6
CONTINUOUS
 62
     7
 10
1150.0
 20
2434.560574
 11
1150.0
 21
2378.160574
  0
LINE
  8
DIMENSIONS
  6
CONTINUOUS
 62
     7
 10
1230.25
 20
2378.160574
 11
1137.5
 21
2378.160574
  0
LINE
  8
DIMENSIONS
  6
CONTINUOUS
 62
     7
 10
1146.6668
 20
2414.560574
 11
1150.0
 21
2434.560574
  0
LINE
  8
DIMENSIONS
  6
CONTINUOUS
 62
     7
 10
1153.3332
 20
2414.560574
 11
1150.0
 21
2434.560574
  0
LINE
  8
DIMENSIONS
  6
CONTINUOUS
 62
     7
 10
1146.6668
 20
2398.160574
 11
1150.0
 21
2378.160574
  0
LINE
  8
DIMENSIONS
  6
CONTINUOUS
 62
     7
 10
1153.3332
 20
2398.160574
 11
1150.0
 21
2378.160574
  0
LINE
  8
DIMENSIONS
  6
CONTINUOUS
 62
     7
 10
1233.85
 20
2440.560574
 11
1233.85
 21
2512.5
  0
LINE
  8
DIMENSIONS
  6
CONTINUOUS
 62
     7
 10
1233.25
 20
2243.433029
 11
1087.5
 21
2243.433029
  0
LINE
  8
DIMENSIONS
  6
CONTINUOUS
 62
     7
 10
1096.6668
 20
2223.433029
 11
1100.0
 21
2243.433029
  0
LINE
  8
DIMENSIONS
  6
CONTINUOUS
 62
     7
 10
1103.3332
 20
2223.433029
 11
1100.0
 21
2243.433029
  0
LINE
  8
DIMENSIONS
  6
CONTINUOUS
 62
     7
 10
1100.0
 20
2434.560574
 11
1100.0
 21
2300.0
  0
LINE
  8
DIMENSIONS
  6
CONTINUOUS
 62
     7
 10
1227.85
 20
2434.560574
 11
1087.5
 21
2434.560574
  0
LINE
  8
DIMENSIONS
  6
CONTINUOUS
 62
     7
 10
1219.25
 20
2300.0
 11
1087.5
 21
2300.0
  0
LINE
  8
DIMENSIONS
  6
CONTINUOUS
 62
     7
 10
1096.6668
 20
2414.560574
 11
1100.0
 21
2434.560574
  0
LINE
  8
DIMENSIONS
  6
CONTINUOUS
 62
     7
 10
1103.3332
 20
2414.560574
 11
1100.0
 21
2434.560574
  0
LINE
  8
DIMENSIONS
  6
CONTINUOUS
 62
     7
 10
1096.6668
 20
2320.0
 11
1100.0
 21
2300.0
  0
LINE
  8
DIMENSIONS
  6
CONTINUOUS
 62
     7
 10
1103.3332
 20
2320.0
 11
1100.0
 21
2300.0
  0
TEXT
  8
DIMENSIONS
  6
CONTINUOUS
 62
     7
 10
1137.5
 20
2380.420975
 40
25.0
  1
56.4
 50
90.0
  7
TTF_DEFAULT
  0
TEXT
  8
DIMENSIONS
  6
CONTINUOUS
 62
     7
 10
1087.5
 20
2334.855788
 40
25.0
  1
134.6
 50
90.0
  7
TTF_DEFAULT
  0
TEXT
  8
DIMENSIONS
  6
CONTINUOUS
 62
     7
 10
1250.58576
 20
2512.5
 40
25.0
  1
89.3
  7
TTF_DEFAULT
  0
LINE
  8
KANAGU
  6
CONTINUOUS
 62
     7
 10
1316.75
 20
2211.483029
 11
1337.348525
 21
2211.483029
  0
ARC
  8
KANAGU
  6
CONTINUOUS
 62
     7
 10
1337.348525
 20
2207.983029
 40
3.5
 50
30.856239
 51
90.0
  0
LINE
  8
KANAGU
  6
CONTINUOUS
 62
     7
 10
1323.15
 20
2190.625001
 11
1323.15
 21
2211.483029
  0
LINE
  8
KANAGU
  6
CONTINUOUS
 62
     7
 10
1316.75
 20
2376.560574
 11
1316.75
 21
2432.960574
  0
ARC
  8
KANAGU
  6
CONTINUOUS
 62
     7
 10
1325.55
 20
2367.060574
 40
4.0
 50
180.0
 51
270.0
  0
ARC
  8
KANAGU
  6
CONTINUOUS
 62
     7
 10
1319.15
 20
2430.560574
 40
4.0
 50
0.0
 51
90.0
  0
LINE
  8
KANAGU
  6
CONTINUOUS
 62
     7
 10
1316.75
 20
2432.960574
 11
1319.15
 21
2432.960574
  0
LINE
  8
KANAGU
  6
CONTINUOUS
 62
     7
 10
1321.55
 20
2367.060574
 11
1321.55
 21
2430.560574
  0
ARC
  8
KANAGU
  6
CONTINUOUS
 62
     7
 10
1319.15
 20
2430.560574
 40
2.4
 50
360.0
 51
90.0
  0
LINE
  8
KANAGU
  6
CONTINUOUS
 62
     7
 10
1323.15
 20
2430.560574
 11
1323.15
 21
2367.060574
  0
ARC
  8
KANAGU
  6
CONTINUOUS
 62
     7
 10
1325.55
 20
2367.060574
 40
2.4
 50
180.0
 51
270.0
  0
LINE
  8
KANAGU
  6
CONTINUOUS
 62
     7
 10
1325.55
 20
2363.060574
 11
1340.15
 21
2363.060574
  0
LINE
  8
KANAGU
  6
CONTINUOUS
 62
     7
 10
1325.55
 20
2364.660574
 11
1340.15
 21
2364.660574
  0
ARC
  8
KANAGU
  6
CONTINUOUS
 62
     7
 10
1304.0
 20
2237.433029
 40
3.5
 50
0.0
 51
180.0
  0
ARC
  8
KANAGU
  6
CONTINUOUS
 62
     7
 10
1304.0
 20
2231.933029
 40
3.5
 50
180.0
 51
0.0
  0
CIRCLE
  8
KANAGU
  6
CONTINUOUS
 62
     7
 10
1278.5
 20
2234.683029
 40
2.0
  0
LINE
  8
KANAGU
  6
CONTINUOUS
 62
     7
 10
1300.5
 20
2231.933029
 11
1300.5
 21
2237.433029
  0
LINE
  8
KANAGU
  6
CONTINUOUS
 62
     7
 10
1249.5
 20
2231.933029
 11
1249.5
 21
2237.433029
  0
LINE
  8
KANAGU
  6
CONTINUOUS
 62
     7
 10
1256.5
 20
2231.933029
 11
1256.5
 21
2237.433029
  0
ARC
  8
KANAGU
  6
CONTINUOUS
 62
     7
 10
1253.0
 20
2237.433029
 40
3.5
 50
0.0
 51
180.0
  0
ARC
  8
KANAGU
  6
CONTINUOUS
 62
     7
 10
1253.0
 20
2231.933029
 40
3.5
 50
180.0
 51
0.0
  0
LINE
  8
KANAGU
  6
CONTINUOUS
 62
     7
 10
1316.75
 20
2190.625001
 11
1327.75
 21
2190.625001
  0
LINE
  8
KANAGU
  6
CONTINUOUS
 62
     7
 10
1326.15
 20
2209.778129
 11
1341.75
 21
2209.778129
  0
LINE
  8
KANAGU
  6
CONTINUOUS
 62
     7
 10
1326.15
 20
2190.625001
 11
1326.15
 21
2209.778129
  0
LINE
  8
KANAGU
  6
CONTINUOUS
 62
     7
 10
1307.5
 20
2231.933029
 11
1307.5
 21
2237.433029
  0
LINE
  8
KANAGU
  6
CONTINUOUS
 62
     7
 10
1316.75
 20
2190.625001
 11
1316.75
 21
2240.433029
  0
ARC
  8
KANAGU
  6
CONTINUOUS
 62
     7
 10
1313.75
 20
2240.433029
 40
3.0
 50
0.0
 51
90.0
  0
POLYLINE
  8
KANAGU
  6
CONTINUOUS
 62
     7
 66
     1
 70
     1
  0
VERTEX
  8
KANAGU
 10
1316.925
 20
2179.982982
 42
0.104168
 70
     2
 50
90.0
  0
VERTEX
  8
KANAGU
 10
1316.662025
 20
2181.231551
 42
0.100664
 70
     2
 50
113.596311
  0
VERTEX
  8
KANAGU
 10
1315.899874
 20
2182.308602
 42
0.096076
 70
     2
 50
136.780821
  0
VERTEX
  8
KANAGU
 10
1314.774388
 20
2183.01855
 42
0.093065
 70
     2
 50
158.568704
  0
VERTEX
  8
KANAGU
 10
1313.425
 20
2183.271906
 42
0.093065
 70
     2
 50
180.0
  0
VERTEX
  8
KANAGU
 10
1312.075612
 20
2183.01855
 42
0.096076
 70
     2
 50
201.431296
  0
VERTEX
  8
KANAGU
 10
1310.950126
 20
2182.308602
 42
0.100664
 70
     2
 50
223.219179
  0
VERTEX
  8
KANAGU
 10
1310.187975
 20
2181.231551
 42
0.104168
 70
     2
 50
246.403689
  0
VERTEX
  8
KANAGU
 10
1309.925
 20
2179.982982
 42
0.104168
 70
     2
 50
270.0
  0
VERTEX
  8
KANAGU
 10
1310.187975
 20
2178.734412
 42
0.100664
 70
     2
 50
293.596311
  0
VERTEX
  8
KANAGU
 10
1310.950126
 20
2177.657361
 42
0.096076
 70
     2
 50
316.780821
  0
VERTEX
  8
KANAGU
 10
1312.075612
 20
2176.947413
 42
0.093065
 70
     2
 50
338.568704
  0
VERTEX
  8
KANAGU
 10
1313.425
 20
2176.694058
 42
0.093065
 70
     2
 50
0.0
  0
VERTEX
  8
KANAGU
 10
1314.774388
 20
2176.947413
 42
0.096076
 70
     2
 50
21.431296
  0
VERTEX
  8
KANAGU
 10
1315.899874
 20
2177.657361
 42
0.100664
 70
     2
 50
43.219179
  0
VERTEX
  8
KANAGU
 10
1316.662025
 20
2178.734412
 42
0.104168
 70
     2
 50
66.403689
  0
SEQEND
  8
KANAGU
  0
LINE
  8
KANAGU
  6
CONTINUOUS
 62
     7
 10
1451.638556
 20
2190.625001
 11
1504.261343
 21
2209.778129
  0
ARC
  8
KANAGU
  6
CONTINUOUS
 62
     7
 10
1452.5
 20
2195.567714
 40
2.5
 50
110.0
 51
200.0
  0
LINE
  8
KANAGU
  6
CONTINUOUS
 62
     7
 10
1451.654277
 20
2195.259896
 11
1453.142064
 21
2191.172233
  0
ARC
  8
KANAGU
  6
CONTINUOUS
 62
     7
 10
1452.5
 20
2195.567714
 40
0.9
 50
110.0
 51
200.0
  0
LINE
  8
KANAGU
  6
CONTINUOUS
 62
     7
 10
1316.75
 20
2300.0
 11
1316.75
 21
2376.27713
  0
LINE
  8
KANAGU
  6
CONTINUOUS
 62
     7
 10
1326.15
 20
2301.6
 11
1326.15
 21
2362.210574
  0
LINE
  8
KANAGU
  6
CONTINUOUS
 62
     7
 10
1327.75
 20
2300.0
 11
1327.75
 21
2360.610574
  0
LINE
  8
KANAGU
  6
CONTINUOUS
 62
     7
 10
1316.75
 20
2301.6
 11
1326.15
 21
2301.6
  0
LINE
  8
KANAGU
  6
CONTINUOUS
 62
     7
 10
1316.75
 20
2352.671102
 11
1326.15
 21
2352.671102
  0
LINE
  8
KANAGU
  6
CONTINUOUS
 62
     7
 10
1326.15
 20
2362.210574
 11
1340.15
 21
2362.210574
  0
LINE
  8
KANAGU
  6
CONTINUOUS
 62
     7
 10
1331.95
 20
2365.510574
 11
1340.15
 21
2365.510574
  0
LINE
  8
KANAGU
  6
CONTINUOUS
 62
     7
 10
1340.15
 20
2362.210574
 11
1340.15
 21
2365.510574
  0
LINE
  8
KANAGU
  6
CONTINUOUS
 62
     7
 10
1331.95
 20
2367.110574
 11
1331.95
 21
2365.510574
  0
LINE
  8
KANAGU
  6
CONTINUOUS
 62
     7
 10
1341.75
 20
2360.610574
 11
1341.75
 21
2367.110574
  0
LINE
  8
KANAGU
  6
CONTINUOUS
 62
     7
 10
1331.95
 20
2367.110574
 11
1357.0
 21
2367.110574
  0
LINE
  8
KANAGU
  6
CONTINUOUS
 62
     7
 10
1327.75
 20
2360.610574
 11
1357.0
 21
2360.610574
  0
LINE
  8
KANAGU
  6
CONTINUOUS
 62
     7
 10
1357.0
 20
2360.610574
 11
1357.0
 21
2367.110574
  0
LINE
  8
DIMENSIONS
  6
CONTINUOUS
 62
     7
 10
1323.15
 20
2440.560574
 11
1323.15
 21
2512.5
  0
LINE
  8
DIMENSIONS
  6
CONTINUOUS
 62
     7
 10
1303.15
 20
2496.6668
 11
1323.15
 21
2500.0
  0
LINE
  8
DIMENSIONS
  6
CONTINUOUS
 62
     7
 10
1303.15
 20
2503.3332
 11
1323.15
 21
2500.0
  0
LINE
  8
KANAGU
  6
CONTINUOUS
 62
     7
 10
1585.511343
 20
2052.983029
 11
1585.511343
 21
2221.583029
  0
LINE
  8
KANAGU
  6
CONTINUOUS
 62
     7
 10
1517.261343
 20
2055.255538
 11
1517.261343
 21
2209.778129
  0
LINE
  8
KANAGU
  6
CONTINUOUS
 62
     7
 10
1510.761343
 20
2052.889732
 11
1510.761343
 21
2209.778129
  0
LINE
  8
DIMENSIONS
  6
CONTINUOUS
 62
     7
 10
1650.0
 20
2225.583029
 11
1650.0
 21
2052.983029
  0
TEXT
  8
DIMENSIONS
  6
CONTINUOUS
 62
     7
 10
1637.5
 20
2104.390229
 40
25.0
  1
172.6
 50
90.0
  7
TTF_DEFAULT
  0
LINE
  8
KANAGU
  6
CONTINUOUS
 62
     7
 10
1514.011343
 20
2052.983029
 11
1585.511343
 21
2052.983029
  0
LINE
  8
KANAGU
  6
CONTINUOUS
 62
     7
 10
1515.611343
 20
2052.983029
 11
1515.611343
 21
2054.654987
  0
LINE
  8
KANAGU
  6
CONTINUOUS
 62
     7
 10
1514.011343
 20
2052.983029
 11
1514.011343
 21
2054.072635
  0
LINE
  8
KANAGU
  6
CONTINUOUS
 62
     7
 10
1512.361343
 20
2053.472084
 11
1512.361343
 21
2061.778129
  0
LINE
  8
KANAGU
  6
CONTINUOUS
 62
     7
 10
1517.261343
 20
2061.778129
 11
1510.761343
 21
2061.778129
  0
LINE
  8
DIMENSIONS
  6
CONTINUOUS
 62
     7
 10
1585.511343
 20
2042.983029
 11
1585.511343
 21
1937.5
  0
LINE
  8
DIMENSIONS
  6
CONTINUOUS
 62
     7
 10
1565.511343
 20
1946.6668
 11
1585.511343
 21
1950.0
  0
LINE
  8
DIMENSIONS
  6
CONTINUOUS
 62
     7
 10
1565.511343
 20
1953.3332
 11
1585.511343
 21
1950.0
  0
LINE
  8
DIMENSIONS
  6
CONTINUOUS
 62
     7
 10
1595.511343
 20
2052.983029
 11
1662.5
 21
2052.983029
  0
LINE
  8
DIMENSIONS
  6
CONTINUOUS
 62
     7
 10
1646.6668
 20
2072.983029
 11
1650.0
 21
2052.983029
  0
LINE
  8
DIMENSIONS
  6
CONTINUOUS
 62
     7
 10
1653.3332
 20
2072.983029
 11
1650.0
 21
2052.983029
  0
LINE
  8
KANAGU
  6
CONTINUOUS
 62
     7
 10
1514.011343
 20
2211.483029
 11
1585.511343
 21
2211.483029
  0
LINE
  8
KANAGU
  6
CONTINUOUS
 62
     7
 10
1514.011343
 20
2209.778129
 11
1514.011343
 21
2211.483029
  0
LINE
  8
KANAGU
  6
CONTINUOUS
 62
     7
 10
1515.611343
 20
2209.778129
 11
1515.611343
 21
2211.483029
  0
ARC
  8
KANAGU
  6
CONTINUOUS
 62
     7
 10
1581.511343
 20
2221.583029
 40
2.4
 50
0.0
 51
90.0
  0
LINE
  8
KANAGU
  6
CONTINUOUS
 62
     7
 10
1583.911343
 20
2221.583029
 11
1583.911343
 21
2211.483029
  0
LINE
  8
KANAGU
  6
CONTINUOUS
 62
     7
 10
1531.511343
 20
2223.983029
 11
1581.511343
 21
2223.983029
  0
ARC
  8
KANAGU
  6
CONTINUOUS
 62
     7
 10
1531.511343
 20
2227.983029
 40
2.4
 50
180.0
 51
270.0
  0
LINE
  8
KANAGU
  6
CONTINUOUS
 62
     7
 10
1531.511343
 20
2225.583029
 11
1581.511343
 21
2225.583029
  0
LINE
  8
KANAGU
  6
CONTINUOUS
 62
     7
 10
1529.111343
 20
2227.983029
 11
1529.111343
 21
2242.983029
  0
ARC
  8
KANAGU
  6
CONTINUOUS
 62
     7
 10
1531.511343
 20
2227.983029
 40
4.0
 50
180.0
 51
270.0
  0
LINE
  8
KANAGU
  6
CONTINUOUS
 62
     7
 10
1527.511343
 20
2227.983029
 11
1527.511343
 21
2242.983029
  0
ARC
  8
KANAGU
  6
CONTINUOUS
 62
     7
 10
1581.511343
 20
2221.583029
 40
4.0
 50
0.0
 51
90.0
  0
LINE
  8
KANAGU
  6
CONTINUOUS
 62
     7
 10
1527.511343
 20
2242.983029
 11
1529.111343
 21
2242.983029
  0
LINE
  8
KANAGU
  6
CONTINUOUS
 62
     7
 10
1526.427899
 20
2243.433029
 11
1524.827899
 21
2243.433029
  0
LINE
  8
KANAGU
  6
CONTINUOUS
 62
     7
 10
1526.427899
 20
2243.433029
 11
1526.427899
 21
2226.233859
  0
ARC
  8
KANAGU
  6
CONTINUOUS
 62
     7
 10
1522.427899
 20
2226.233859
 40
4.0
 50
290.0
 51
0.0
  0
LINE
  8
KANAGU
  6
CONTINUOUS
 62
     7
 10
1524.827899
 20
2226.233859
 11
1524.827899
 21
2243.433029
  0
ARC
  8
KANAGU
  6
CONTINUOUS
 62
     7
 10
1522.427899
 20
2226.233859
 40
2.4
 50
290.0
 51
0.0
  0
LINE
  8
DIMENSIONS
  6
CONTINUOUS
 62
     7
 10
1591.511343
 20
2225.583029
 11
1662.5
 21
2225.583029
  0
LINE
  8
DIMENSIONS
  6
CONTINUOUS
 62
     7
 10
1646.6668
 20
2205.583029
 11
1650.0
 21
2225.583029
  0
LINE
  8
DIMENSIONS
  6
CONTINUOUS
 62
     7
 10
1653.3332
 20
2205.583029
 11
1650.0
 21
2225.583029
  0
ENDSEC
  0
EOF
