  0
SECTION
  2
HEADER
  9
$ACADVER
  1
AC1004
  9
$INSBASE
 10
0.0
 20
0.0
  9
$EXTMIN
 10
-19.852
 20
-20.685
  9
$EXTMAX
 10
610.148
 20
870.315
  9
$LIMMIN
 10
-19.852
 20
-20.685
  9
$LIMMAX
 10
610.148
 20
870.315
  9
$VIEWCTR
 10
6.0
 20
4.5
  9
$VIEWSIZE
 40
9.0
  9
$SNAPMODE
 70
     0
  9
$SNAPUNIT
 10
12.5
 20
12.5
  9
$SNAPBASE
 10
0.0
 20
0.0
  9
$SNAPANG
 50
0.0
  9
$SNAPSTYLE
 70
     0
  9
$SNAPISOPAIR
 70
     0
  9
$GRIDMODE
 70
     1
  9
$GRIDUNIT
 10
25.0
 20
25.0
  9
$ORTHOMODE
 70
     0
  9
$REGENMODE
 70
     1
  9
$FILLMODE
 70
     1
  9
$QTEXTMODE
 70
     0
  9
$DRAGMODE
 70
     2
  9
$LTSCALE
 40
1.0
  9
$OSMODE
 70
     1
  9
$ATTMODE
 70
     1
  9
$TEXTSIZE
 40
0.2
  9
$TRACEWID
 40
0.05
  9
$TEXTSTYLE
  7
STANDARD
  9
$CLAYER
  8
DATA
  9
$CELTYPE
  6
CONTINUOUS
  9
$CECOLOR
 62
     7
  9
$DIMSCALE
 40
1.0
  9
$DIMASZ
 40
0.18
  9
$DIMEXO
 40
0.0625
  9
$DIMDLI
 40
0.38
  9
$DIMRND
 40
0.0
  9
$DIMDLE
 40
0.0
  9
$DIMEXE
 40
0.18
  9
$DIMTP
 40
0.0
  9
$DIMTM
 40
0.0
  9
$DIMTXT
 40
0.18
  9
$DIMCEN
 40
0.09
  9
$DIMTSZ
 40
0.0
  9
$DIMTOL
 70
     0
  9
$DIMLIM
 70
     0
  9
$DIMTIH
 70
     1
  9
$DIMTOH
 70
     1
  9
$DIMSE1
 70
     0
  9
$DIMSE2
 70
     0
  9
$DIMTAD
 70
     0
  9
$DIMZIN
 70
     0
  9
$DIMBLK
  1

  9
$DIMASO
 70
     1
  9
$DIMSHO
 70
     1
  9
$DIMPOST
  1

  9
$DIMAPOST
  1

  9
$DIMALT
 70
     0
  9
$DIMALTD
 70
     2
  9
$DIMALTF
 40
25.4
  9
$DIMLFAC
 40
1.0
  9
$LUNITS
 70
     2
  9
$LUPREC
 70
     4
  9
$AXISMODE
 70
     0
  9
$AXISUNIT
 10
0.0
 20
0.0
  9
$SKETCHINC
 40
0.1
  9
$FILLETRAD
 40
7.0
  9
$AUNITS
 70
     0
  9
$AUPREC
 70
     0
  9
$MENU
  1
acad
  9
$ELEVATION
 40
0.0
  9
$THICKNESS
 40
0.0
  9
$VIEWDIR
 10
0.0
 20
0.0
 30
1.0
  9
$LIMCHECK
 70
     0
  9
$BLIPMODE
 70
     1
  9
$CHAMFERA
 40
0.0
  9
$CHAMFERB
 40
0.0
  9
$FASTZOOM
 70
     1
  9
$SKPOLY
 70
     0
  9
$TDCREATE
 40
0.0
  9
$TDUPDATE
 40
0.0
  9
$TDINDWG
 40
0.0
  9
$TDUSRTIMER
 40
0.0
  9
$USRTIMER
 70
     1
  9
$ANGBASE
 50
0.0
  9
$ANGDIR
 70
     0
  9
$PDMODE
 70
     0
  9
$PDSIZE
 40
0.0
  9
$PLINEWID
 40
0.0
  9
$COORDS
 70
     1
  9
$SPLFRAME
 70
     0
  9
$SPLINESEGS
 70
    10
  9
$ATTDIA
 70
     0
  9
$ATTREQ
 70
     1
  9
$USERI1
 70
     0
  9
$USERI2
 70
     0
  9
$USERI3
 70
     0
  9
$USERI4
 70
     0
  9
$USERI5
 70
     0
  9
$USERR1
 40
0.0
  9
$USERR2
 40
0.0
  9
$USERR3
 40
0.0
  9
$USERR4
 40
0.0
  9
$USERR5
 40
0.0
  0
ENDSEC
  0
SECTION
  2
TABLES
  0
TABLE
  2
LTYPE
 70
    11
  0
LTYPE
  2
CONTINUOUS
 70
     0
  3
Solid line
 72
    65
 73
     0
 40
0.0
  0
LTYPE
  2
DASHED
 70
     0
  3
__ __ __ __ __ __ __ __ __ __ __ __ __ __ __
 72
    65
 73
     2
 40
0.75
 49
0.5
 49
-0.25
  0
LTYPE
  2
HIDDEN
 70
     0
  3
_ _ _ _ _ _ _ _ _ _ _ _ _ _ _ _ _ _ _ _ _ _ 
 72
    65
 73
     2
 40
0.25
 49
0.125
 49
-0.125
  0
LTYPE
  2
CENTER
 70
     0
  3
____ _ ____ _ ____ _ ____ _ ____ _ ____ _ __
 72
    65
 73
     4
 40
2.0
 49
1.25
 49
-0.25
 49
0.25
 49
-0.25
  0
LTYPE
  2
PHANTOM
 70
     0
  3
_____ _ _ _____ _ _ _____ _ _ _____ _ _ ____
 72
    65
 73
     6
 40
2.5
 49
1.25
 49
-0.25
 49
0.25
 49
-0.25
 49
0.25
 49
-0.25
  0
LTYPE
  2
DOT
 70
     0
  3
............................................
 72
    65
 73
     2
 40
0.25
 49
0.0
 49
-0.25
  0
LTYPE
  2
DASHDOT
 70
     0
  3
__ . __ . __ . __ . __ . __ . __ . __ . __ .
 72
    65
 73
     4
 40
1.0
 49
0.5
 49
-0.25
 49
0.0
 49
-0.25
  0
LTYPE
  2
BORDER
 70
     0
  3
__ __ . __ __ . __ __ . __ __ . __ __ . __ _
 72
    65
 73
     6
 40
1.75
 49
0.5
 49
-0.25
 49
0.5
 49
-0.25
 49
0.0
 49
-0.25
  0
LTYPE
  2
DIVIDE
 70
     0
  3
__ . . __ . . __ . . __ . . __ . . __ . . __
 72
    65
 73
     6
 40
1.25
 49
0.5
 49
-0.25
 49
0.0
 49
-0.25
 49
0.0
 49
-0.25
  0
LTYPE
  2
DOTS
 70
     0
  3
close                                       
 72
    65
 73
     2
 40
0.1
 49
0.05
 49
-0.05
  0
LTYPE
  2
CLOSE
 70
     0
  3
                                            
 72
    65
 73
     0
 40
0.0
  0
ENDTAB
  0
TABLE
  2
LAYER
 70
     6
  0
LAYER
  2
0
 70
     0
 62
     7
  6
CONTINUOUS
  0
LAYER
  2
LAYER01
 70
     0
 62
     7
  6
CONTINUOUS
  0
LAYER
  2
DATA
 70
     0
 62
     7
  6
CONTINUOUS
  0
LAYER
  2
DIMENSIONS
 70
     0
 62
     7
  6
CONTINUOUS
  0
LAYER
  2
SPEC
 70
     0
 62
     7
  6
CONTINUOUS
  0
LAYER
  2
HIBINO-BASE
 70
     0
 62
     7
  6
CONTINUOUS
  0
ENDTAB
  0
TABLE
  2
STYLE
 70
     2
  0
STYLE
  2
STANDARD
 70
     0
 40
0.0
 41
1.0
 50
0.0
 71
     0
 42
0.2
  3
txt
  4

  0
STYLE
  2
TTF_DEFAULT
 70
     0
 40
0.0
 41
1.0
 50
0.0
 71
     0
 42
0.0
  3
txt
  4
BIGFONT
  0
ENDTAB
  0
TABLE
  2
VIEW
 70
     0
  0
ENDTAB
  0
ENDSEC
  0
SECTION
  2
BLOCKS
  0
ENDSEC
  0
SECTION
  2
ENTITIES
  0
POLYLINE
  8
HIBINO-BASE
  6
CONTINUOUS
 62
     7
 66
     1
 70
     1
 40
0.7
 41
0.7
  0
VERTEX
  8
HIBINO-BASE
 10
30.0
 20
45.0
  0
VERTEX
  8
HIBINO-BASE
 10
30.0
 20
825.0
  0
VERTEX
  8
HIBINO-BASE
 10
570.0
 20
825.0
  0
VERTEX
  8
HIBINO-BASE
 10
570.0
 20
45.0
  0
SEQEND
  8
HIBINO-BASE
  0
TEXT
  8
DATA
  6
CONTINUOUS
 62
     7
 10
281.25
 20
273.4375
 40
7.5
  1
壁取り付け
  7
TTF_DEFAULT
  0
LINE
  8
SPEC
  6
CONTINUOUS
 62
     7
 10
52.5
 20
795.0
 11
485.0
 21
795.0
  0
LINE
  8
SPEC
  6
CONTINUOUS
 62
     7
 10
52.5
 20
772.5
 11
485.0
 21
772.5
  0
LINE
  8
SPEC
  6
CONTINUOUS
 62
     7
 10
52.5
 20
783.75
 11
485.0
 21
783.75
  0
LINE
  8
SPEC
  6
CONTINUOUS
 62
     7
 10
52.5
 20
750.0
 11
485.0
 21
750.0
  0
TEXT
  8
SPEC
  6
CONTINUOUS
 62
     7
 10
152.7
 20
753.95
 40
7.5
  1
1/4インチ丸平ボルト:8本,1/4インチ菊座ワッシャー:8枚,1/4インチ平ワッシャー:８枚
  7
TTF_DEFAULT
  0
LINE
  8
DATA
  6
CONTINUOUS
 62
     7
 10
125.0
 20
365.75
 11
125.0
 21
447.25
  0
LINE
  8
DATA
  6
CONTINUOUS
 62
     7
 10
188.75
 20
442.25
 11
188.75
 21
422.75
  0
LINE
  8
DATA
  6
CONTINUOUS
 62
     7
 10
163.25
 20
422.75
 11
163.25
 21
442.25
  0
LINE
  8
DATA
  6
CONTINUOUS
 62
     7
 10
184.25
 20
423.1
 11
184.25
 21
439.1
  0
LINE
  8
DATA
  6
CONTINUOUS
 62
     7
 10
179.75
 20
423.1
 11
179.75
 21
439.1
  0
LINE
  8
DATA
  6
CONTINUOUS
 62
     7
 10
227.0
 20
365.75
 11
227.0
 21
447.25
  0
LINE
  8
DIMENSIONS
  6
CONTINUOUS
 62
     7
 10
62.5
 20
225.0
 11
62.5
 21
450.25
  0
TEXT
  8
HIBINO-BASE
  6
CONTINUOUS
 62
     7
 10
51.552
 20
25.77396
 40
12.0
  1
Hibino Corporation
  7
TTF_DEFAULT
  0
ARC
  8
DATA
  6
CONTINUOUS
 62
     7
 10
140.25
 20
228.0
 40
3.0
 50
180.0
 51
270.0
  0
LINE
  8
DATA
  6
CONTINUOUS
 62
     7
 10
136.25
 20
336.9
 11
139.25
 21
336.9
  0
LINE
  8
DATA
  6
CONTINUOUS
 62
     7
 10
125.0
 20
333.55
 11
139.25
 21
333.55
  0
ARC
  8
DATA
  6
CONTINUOUS
 62
     7
 10
140.25
 20
324.0
 40
3.0
 50
90.0
 51
180.0
  0
LINE
  8
DATA
  6
CONTINUOUS
 62
     7
 10
136.25
 20
362.4
 11
139.25
 21
362.4
  0
LINE
  8
DATA
  6
CONTINUOUS
 62
     7
 10
125.0
 20
365.75
 11
139.25
 21
365.75
  0
LINE
  8
DIMENSIONS
  6
CONTINUOUS
 62
     7
 10
137.25
 20
162.5
 11
214.75
 21
162.5
  0
LINE
  8
DIMENSIONS
  6
CONTINUOUS
 62
     7
 10
143.25
 20
161.50004
 11
137.25
 21
162.5
  0
LINE
  8
DIMENSIONS
  6
CONTINUOUS
 62
     7
 10
143.25
 20
163.49996
 11
137.25
 21
162.5
  0
LINE
  8
DIMENSIONS
  6
CONTINUOUS
 62
     7
 10
125.0
 20
137.5
 11
227.0
 21
137.5
  0
LINE
  8
DIMENSIONS
  6
CONTINUOUS
 62
     7
 10
137.65
 20
231.5
 11
96.25
 21
231.5
  0
LINE
  8
DIMENSIONS
  6
CONTINUOUS
 62
     7
 10
137.65
 20
320.5
 11
96.25
 21
320.5
  0
LINE
  8
DIMENSIONS
  6
CONTINUOUS
 62
     7
 10
137.25
 20
225.0
 11
137.25
 21
158.75
  0
LINE
  8
DIMENSIONS
  6
CONTINUOUS
 62
     7
 10
125.0
 20
297.05
 11
125.0
 21
133.75
  0
LINE
  8
DIMENSIONS
  6
CONTINUOUS
 62
     7
 10
131.25
 20
175.99996
 11
137.25
 21
175.0
  0
LINE
  8
DIMENSIONS
  6
CONTINUOUS
 62
     7
 10
131.25
 20
174.00004
 11
137.25
 21
175.0
  0
LINE
  8
DIMENSIONS
  6
CONTINUOUS
 62
     7
 10
131.0
 20
136.50004
 11
125.0
 21
137.5
  0
LINE
  8
DIMENSIONS
  6
CONTINUOUS
 62
     7
 10
131.0
 20
138.49996
 11
125.0
 21
137.5
  0
TEXT
  8
DIMENSIONS
  6
CONTINUOUS
 62
     7
 10
109.5
 20
178.75
 40
7.5
  1
6.5
  7
TTF_DEFAULT
  0
LINE
  8
DIMENSIONS
  6
CONTINUOUS
 62
     7
 10
121.875
 20
175.0
 11
137.25
 21
175.0
  0
LINE
  8
DIMENSIONS
  6
CONTINUOUS
 62
     7
 10
137.25
 20
225.0
 11
58.75
 21
225.0
  0
TEXT
  8
DIMENSIONS
  6
CONTINUOUS
 62
     7
 10
58.75
 20
325.905212
 40
7.5
  1
225.2
 50
90.0
  7
TTF_DEFAULT
  0
LINE
  8
DATA
  6
CONTINUOUS
 62
     7
 10
137.25
 20
228.0
 11
137.25
 21
324.0
  0
LINE
  8
DATA
  6
CONTINUOUS
 62
     7
 10
125.0
 20
300.05
 11
125.0
 21
333.55
  0
LINE
  8
DIMENSIONS
  6
CONTINUOUS
 62
     7
 10
100.0
 20
231.5
 11
100.0
 21
320.5
  0
LINE
  8
DIMENSIONS
  6
CONTINUOUS
 62
     7
 10
87.5
 20
327.0
 11
87.5
 21
225.0
  0
ARC
  8
DATA
  6
CONTINUOUS
 62
     7
 10
128.0
 20
300.05
 40
3.0
 50
180.0
 51
270.0
  0
LINE
  8
DATA
  6
CONTINUOUS
 62
     7
 10
128.0
 20
297.05
 11
137.25
 21
297.05
  0
ARC
  8
DATA
  6
CONTINUOUS
 62
     7
 10
141.0
 20
310.15
 40
4.25
 50
151.927513
 51
208.072487
  0
LINE
  8
DIMENSIONS
  6
CONTINUOUS
 62
     7
 10
100.0
 20
225.0
 11
100.0
 21
213.0
  0
LINE
  8
DIMENSIONS
  6
CONTINUOUS
 62
     7
 10
100.99996
 20
219.0
 11
100.0
 21
225.0
  0
LINE
  8
DIMENSIONS
  6
CONTINUOUS
 62
     7
 10
99.00004
 20
219.0
 11
100.0
 21
225.0
  0
LINE
  8
DIMENSIONS
  6
CONTINUOUS
 62
     7
 10
100.99996
 20
237.5
 11
100.0
 21
231.5
  0
LINE
  8
DIMENSIONS
  6
CONTINUOUS
 62
     7
 10
99.00004
 20
237.5
 11
100.0
 21
231.5
  0
LINE
  8
DIMENSIONS
  6
CONTINUOUS
 62
     7
 10
86.50004
 20
231.0
 11
87.5
 21
225.0
  0
LINE
  8
DIMENSIONS
  6
CONTINUOUS
 62
     7
 10
88.49996
 20
231.0
 11
87.5
 21
225.0
  0
LINE
  8
DIMENSIONS
  6
CONTINUOUS
 62
     7
 10
63.49996
 20
231.0
 11
62.5
 21
225.0
  0
LINE
  8
DIMENSIONS
  6
CONTINUOUS
 62
     7
 10
61.50004
 20
231.0
 11
62.5
 21
225.0
  0
TEXT
  8
DIMENSIONS
  6
CONTINUOUS
 62
     7
 10
83.75
 20
269.841494
 40
7.5
  1
102
 50
90.0
  7
TTF_DEFAULT
  0
TEXT
  8
DIMENSIONS
  6
CONTINUOUS
 62
     7
 10
96.25
 20
271.894329
 40
7.5
  1
89
 50
90.0
  7
TTF_DEFAULT
  0
TEXT
  8
DIMENSIONS
  6
CONTINUOUS
 62
     7
 10
96.25
 20
203.5
 40
7.5
  1
6.5
 50
90.0
  7
TTF_DEFAULT
  0
LINE
  8
DATA
  6
CONTINUOUS
 62
     7
 10
136.25
 20
336.9
 11
136.25
 21
362.4
  0
ARC
  8
DATA
  6
CONTINUOUS
 62
     7
 10
137.004783
 20
351.236658
 40
5.218218
 50
98.316657
 51
158.489867
  0
ARC
  8
DATA
  6
CONTINUOUS
 62
     7
 10
137.004783
 20
348.063342
 40
5.218218
 50
201.510133
 51
261.683343
  0
LINE
  8
DATA
  6
CONTINUOUS
 62
     7
 10
132.15
 20
346.15
 11
132.15
 21
353.15
  0
LINE
  8
DIMENSIONS
  6
CONTINUOUS
 62
     7
 10
100.99996
 20
314.5
 11
100.0
 21
320.5
  0
LINE
  8
DIMENSIONS
  6
CONTINUOUS
 62
     7
 10
99.00004
 20
314.5
 11
100.0
 21
320.5
  0
LINE
  8
DIMENSIONS
  6
CONTINUOUS
 62
     7
 10
137.25
 20
327.0
 11
83.75
 21
327.0
  0
LINE
  8
DIMENSIONS
  6
CONTINUOUS
 62
     7
 10
86.50004
 20
321.0
 11
87.5
 21
327.0
  0
LINE
  8
DIMENSIONS
  6
CONTINUOUS
 62
     7
 10
88.49996
 20
321.0
 11
87.5
 21
327.0
  0
LINE
  8
DIMENSIONS
  6
CONTINUOUS
 62
     7
 10
209.966184
 20
228.91839
 11
237.5
 21
187.5
  0
LINE
  8
DIMENSIONS
  6
CONTINUOUS
 62
     7
 10
143.75
 20
225.4
 11
143.75
 21
171.25
  0
LINE
  8
DIMENSIONS
  6
CONTINUOUS
 62
     7
 10
208.25
 20
225.4
 11
208.25
 21
171.25
  0
LINE
  8
DIMENSIONS
  6
CONTINUOUS
 62
     7
 10
214.75
 20
225.0
 11
214.75
 21
158.75
  0
LINE
  8
DIMENSIONS
  6
CONTINUOUS
 62
     7
 10
227.0
 20
297.05
 11
227.0
 21
133.75
  0
LINE
  8
DIMENSIONS
  6
CONTINUOUS
 62
     7
 10
143.75
 20
175.0
 11
208.25
 21
175.0
  0
LINE
  8
DIMENSIONS
  6
CONTINUOUS
 62
     7
 10
149.75
 20
174.00004
 11
143.75
 21
175.0
  0
LINE
  8
DIMENSIONS
  6
CONTINUOUS
 62
     7
 10
149.75
 20
175.99996
 11
143.75
 21
175.0
  0
LINE
  8
DIMENSIONS
  6
CONTINUOUS
 62
     7
 10
202.25
 20
174.00004
 11
208.25
 21
175.0
  0
LINE
  8
DIMENSIONS
  6
CONTINUOUS
 62
     7
 10
202.25
 20
175.99996
 11
208.25
 21
175.0
  0
LINE
  8
DIMENSIONS
  6
CONTINUOUS
 62
     7
 10
208.75
 20
161.50004
 11
214.75
 21
162.5
  0
LINE
  8
DIMENSIONS
  6
CONTINUOUS
 62
     7
 10
208.75
 20
163.49996
 11
214.75
 21
162.5
  0
TEXT
  8
DIMENSIONS
  6
CONTINUOUS
 62
     7
 10
168.083888
 20
178.75
 40
7.5
  1
64.5
  7
TTF_DEFAULT
  0
TEXT
  8
DIMENSIONS
  6
CONTINUOUS
 62
     7
 10
168.083888
 20
166.25
 40
7.5
  1
77.5
  7
TTF_DEFAULT
  0
TEXT
  8
DIMENSIONS
  6
CONTINUOUS
 62
     7
 10
169.736559
 20
141.25
 40
7.5
  1
102
  7
TTF_DEFAULT
  0
TEXT
  8
DIMENSIONS
  6
CONTINUOUS
 62
     7
 10
255.0
 20
78.75
 40
7.5
  1
(単位 : mm)
  7
TTF_DEFAULT
  0
LINE
  8
DIMENSIONS
  6
CONTINUOUS
 62
     7
 10
237.5
 20
187.5
 11
250.0
 21
187.5
  0
TEXT
  8
DIMENSIONS
  6
CONTINUOUS
 62
     7
 10
253.75
 20
183.75
 40
7.5
  1
4-φ6.2
  7
TTF_DEFAULT
  0
LINE
  8
DIMENSIONS
  6
CONTINUOUS
 62
     7
 10
221.0
 20
136.50004
 11
227.0
 21
137.5
  0
LINE
  8
DIMENSIONS
  6
CONTINUOUS
 62
     7
 10
221.0
 20
138.49996
 11
227.0
 21
137.5
  0
LINE
  8
DATA
  6
CONTINUOUS
 62
     7
 10
214.75
 20
297.05
 11
224.0
 21
297.05
  0
LINE
  8
DATA
  6
CONTINUOUS
 62
     7
 10
212.75
 20
333.55
 11
227.0
 21
333.55
  0
ARC
  8
DATA
  6
CONTINUOUS
 62
     7
 10
214.995217
 20
351.236658
 40
5.218218
 50
21.510133
 51
81.683343
  0
ARC
  8
DATA
  6
CONTINUOUS
 62
     7
 10
214.995217
 20
348.063342
 40
5.218218
 50
278.316657
 51
338.489867
  0
LINE
  8
DATA
  6
CONTINUOUS
 62
     7
 10
212.75
 20
365.75
 11
227.0
 21
365.75
  0
LINE
  8
DATA
  6
CONTINUOUS
 62
     7
 10
169.35
 20
225.0
 11
169.35
 21
327.0
  0
LINE
  8
DATA
  6
CONTINUOUS
 62
     7
 10
182.65
 20
225.0
 11
182.65
 21
327.0
  0
LINE
  8
DATA
  6
CONTINUOUS
 62
     7
 10
169.5
 20
266.15
 11
169.5
 21
349.65
  0
LINE
  8
DATA
  6
CONTINUOUS
 62
     7
 10
182.5
 20
266.15
 11
182.5
 21
349.65
  0
LINE
  8
DATA
  6
CONTINUOUS
 62
     7
 10
214.75
 20
228.0
 11
214.75
 21
324.0
  0
ARC
  8
DATA
  6
CONTINUOUS
 62
     7
 10
211.75
 20
228.0
 40
3.0
 50
270.0
 51
0.0
  0
LINE
  8
DATA
  6
CONTINUOUS
 62
     7
 10
211.75
 20
225.0
 11
140.25
 21
225.0
  0
CIRCLE
  8
DATA
  6
CONTINUOUS
 62
     7
 10
143.75
 20
231.5
 40
3.1
  0
CIRCLE
  8
DATA
  6
CONTINUOUS
 62
     7
 10
208.25
 20
231.5
 40
3.1
  0
CIRCLE
  8
DATA
  6
CONTINUOUS
 62
     7
 10
176.0
 20
231.3
 40
2.9
  0
ARC
  8
DATA
  6
CONTINUOUS
 62
     7
 10
176.0
 20
258.2125
 40
4.0625
 50
202.619865
 51
337.380135
  0
LINE
  8
DATA
  6
CONTINUOUS
 62
     7
 10
182.5
 20
266.15
 11
169.5
 21
266.15
  0
LINE
  8
DATA
  6
CONTINUOUS
 62
     7
 10
172.25
 20
256.65
 11
169.5
 21
266.15
  0
LINE
  8
DATA
  6
CONTINUOUS
 62
     7
 10
179.75
 20
256.65
 11
182.5
 21
266.15
  0
CIRCLE
  8
DATA
  6
CONTINUOUS
 62
     7
 10
176.0
 20
304.65
 40
2.5
  0
ARC
  8
DATA
  6
CONTINUOUS
 62
     7
 10
211.0
 20
310.15
 40
4.25
 50
331.927513
 51
28.072487
  0
LINE
  8
DIMENSIONS
  6
CONTINUOUS
 62
     7
 10
212.455087
 20
223.368139
 11
209.966184
 21
228.91839
  0
LINE
  8
DIMENSIONS
  6
CONTINUOUS
 62
     7
 10
214.120575
 20
224.47531
 11
209.966184
 21
228.91839
  0
LINE
  8
DATA
  6
CONTINUOUS
 62
     7
 10
137.85
 20
336.9
 11
137.85
 21
362.4
  0
LINE
  8
DATA
  6
CONTINUOUS
 62
     7
 10
139.25
 20
333.55
 11
139.25
 21
341.65
  0
LINE
  8
DATA
  6
CONTINUOUS
 62
     7
 10
214.15
 20
336.9
 11
214.15
 21
362.4
  0
LINE
  8
DATA
  6
CONTINUOUS
 62
     7
 10
215.75
 20
336.9
 11
215.75
 21
362.4
  0
LINE
  8
DATA
  6
CONTINUOUS
 62
     7
 10
212.75
 20
333.55
 11
212.75
 21
341.65
  0
LINE
  8
DATA
  6
CONTINUOUS
 62
     7
 10
140.25
 20
327.0
 11
169.5
 21
327.0
  0
CIRCLE
  8
DATA
  6
CONTINUOUS
 62
     7
 10
143.75
 20
320.5
 40
3.1
  0
LINE
  8
DATA
  6
CONTINUOUS
 62
     7
 10
212.75
 20
336.9
 11
215.75
 21
336.9
  0
CIRCLE
  8
DATA
  6
CONTINUOUS
 62
     7
 10
208.25
 20
320.5
 40
3.1
  0
ARC
  8
DATA
  6
CONTINUOUS
 62
     7
 10
211.75
 20
324.0
 40
3.0
 50
0.0
 51
90.0
  0
LINE
  8
DATA
  6
CONTINUOUS
 62
     7
 10
182.5
 20
327.0
 11
211.75
 21
327.0
  0
LINE
  8
DATA
  6
CONTINUOUS
 62
     7
 10
137.85
 20
341.65
 11
169.5
 21
341.65
  0
LINE
  8
DATA
  6
CONTINUOUS
 62
     7
 10
137.85
 20
357.65
 11
214.15
 21
357.65
  0
LINE
  8
DATA
  6
CONTINUOUS
 62
     7
 10
139.25
 20
357.65
 11
139.25
 21
365.75
  0
LINE
  8
DATA
  6
CONTINUOUS
 62
     7
 10
139.4
 20
341.65
 11
139.4
 21
357.65
  0
LINE
  8
DATA
  6
CONTINUOUS
 62
     7
 10
212.75
 20
357.65
 11
212.75
 21
365.75
  0
ARC
  8
DATA
  6
CONTINUOUS
 62
     7
 10
176.0
 20
349.65
 40
6.5
 50
0.0
 51
180.0
  0
LINE
  8
DATA
  6
CONTINUOUS
 62
     7
 10
212.75
 20
362.4
 11
215.75
 21
362.4
  0
LINE
  8
DATA
  6
CONTINUOUS
 62
     7
 10
212.6
 20
357.65
 11
212.6
 21
341.65
  0
LINE
  8
DATA
  6
CONTINUOUS
 62
     7
 10
182.5
 20
341.65
 11
214.15
 21
341.65
  0
ARC
  8
DATA
  6
CONTINUOUS
 62
     7
 10
185.75
 20
422.75
 40
3.0
 50
270.0
 51
0.0
  0
LINE
  8
DATA
  6
CONTINUOUS
 62
     7
 10
185.75
 20
419.75
 11
166.25
 21
419.75
  0
ARC
  8
DATA
  6
CONTINUOUS
 62
     7
 10
166.25
 20
422.75
 40
3.0
 50
180.0
 51
270.0
  0
LINE
  8
DATA
  6
CONTINUOUS
 62
     7
 10
179.75
 20
423.1
 11
184.25
 21
423.1
  0
LINE
  8
DATA
  6
CONTINUOUS
 62
     7
 10
227.0
 20
300.05
 11
227.0
 21
333.55
  0
ARC
  8
DATA
  6
CONTINUOUS
 62
     7
 10
224.0
 20
300.05
 40
3.0
 50
270.0
 51
360.0
  0
LINE
  8
DATA
  6
CONTINUOUS
 62
     7
 10
219.85
 20
346.15
 11
219.85
 21
353.15
  0
CIRCLE
  8
DATA
  6
CONTINUOUS
 62
     7
 10
141.0
 20
437.15
 40
4.25
  0
LINE
  8
DATA
  6
CONTINUOUS
 62
     7
 10
128.0
 20
450.25
 11
224.0
 21
450.25
  0
LINE
  8
DATA
  6
CONTINUOUS
 62
     7
 10
137.25
 20
500.0
 11
166.35
 21
500.0
  0
LINE
  8
DATA
  6
CONTINUOUS
 62
     7
 10
137.25
 20
501.6
 11
166.35
 21
501.6
  0
LINE
  8
DATA
  6
CONTINUOUS
 62
     7
 10
125.0
 20
658.3
 11
227.0
 21
658.3
  0
LINE
  8
DATA
  6
CONTINUOUS
 62
     7
 10
125.0
 20
656.7
 11
227.0
 21
656.7
  0
LINE
  8
DATA
  6
CONTINUOUS
 62
     7
 10
136.25
 20
605.8
 11
137.85
 21
605.8
  0
LINE
  8
DATA
  6
CONTINUOUS
 62
     7
 10
136.25
 20
605.8
 11
136.25
 21
656.7
  0
LINE
  8
DIMENSIONS
  6
CONTINUOUS
 62
     7
 10
62.5
 20
658.3
 11
62.5
 21
500.0
  0
LINE
  8
DIMENSIONS
  6
CONTINUOUS
 62
     7
 10
125.0
 20
450.25
 11
58.75
 21
450.25
  0
LINE
  8
DIMENSIONS
  6
CONTINUOUS
 62
     7
 10
134.25
 20
500.0
 11
58.75
 21
500.0
  0
TEXT
  8
DIMENSIONS
  6
CONTINUOUS
 62
     7
 10
58.75
 20
568.982782
 40
7.5
  1
158.3
 50
90.0
  7
TTF_DEFAULT
  0
ARC
  8
DATA
  6
CONTINUOUS
 62
     7
 10
128.0
 20
447.25
 40
3.0
 50
90.0
 51
180.0
  0
LINE
  8
DATA
  6
CONTINUOUS
 62
     7
 10
137.25
 20
500.0
 11
137.25
 21
501.6
  0
LINE
  8
DIMENSIONS
  6
CONTINUOUS
 62
     7
 10
63.49996
 20
444.25
 11
62.5
 21
450.25
  0
LINE
  8
DIMENSIONS
  6
CONTINUOUS
 62
     7
 10
61.50004
 20
444.25
 11
62.5
 21
450.25
  0
LINE
  8
DIMENSIONS
  6
CONTINUOUS
 62
     7
 10
61.50004
 20
506.0
 11
62.5
 21
500.0
  0
LINE
  8
DIMENSIONS
  6
CONTINUOUS
 62
     7
 10
63.49996
 20
506.0
 11
62.5
 21
500.0
  0
LINE
  8
DATA
  6
CONTINUOUS
 62
     7
 10
132.15
 20
615.2
 11
132.15
 21
622.2
  0
ARC
  8
DATA
  6
CONTINUOUS
 62
     7
 10
137.004783
 20
617.113342
 40
5.218218
 50
201.510133
 51
261.683343
  0
ARC
  8
DATA
  6
CONTINUOUS
 62
     7
 10
137.004783
 20
620.286658
 40
5.218218
 50
98.316657
 51
158.489867
  0
TEXT
  8
SPEC
  6
CONTINUOUS
 62
     7
 10
56.25
 20
798.75
 40
9.0
  1
仕様
  7
TTF_DEFAULT
  0
TEXT
  8
SPEC
  6
CONTINUOUS
 62
     7
 10
55.2
 20
786.45
 40
7.5
  1
寸法
  7
TTF_DEFAULT
  0
TEXT
  8
SPEC
  6
CONTINUOUS
 62
     7
 10
55.2
 20
775.2
 40
7.5
  1
重量
  7
TTF_DEFAULT
  0
LINE
  8
DIMENSIONS
  6
CONTINUOUS
 62
     7
 10
122.0
 20
658.3
 11
58.75
 21
658.3
  0
TEXT
  8
SPEC
  6
CONTINUOUS
 62
     7
 10
55.2
 20
763.95
 40
7.5
  1
付属品
  7
TTF_DEFAULT
  0
LINE
  8
SPEC
  6
CONTINUOUS
 62
     7
 10
52.5
 20
795.0
 11
52.5
 21
750.0
  0
LINE
  8
DATA
  6
CONTINUOUS
 62
     7
 10
125.0
 20
656.7
 11
125.0
 21
658.3
  0
LINE
  8
DIMENSIONS
  6
CONTINUOUS
 62
     7
 10
61.50004
 20
652.3
 11
62.5
 21
658.3
  0
LINE
  8
DIMENSIONS
  6
CONTINUOUS
 62
     7
 10
63.49996
 20
652.3
 11
62.5
 21
658.3
  0
LINE
  8
DATA
  6
CONTINUOUS
 62
     7
 10
137.85
 20
605.8
 11
137.85
 21
656.7
  0
LINE
  8
DATA
  6
CONTINUOUS
 62
     7
 10
215.75
 20
605.8
 11
215.75
 21
656.7
  0
LINE
  8
DATA
  6
CONTINUOUS
 62
     7
 10
214.15
 20
605.8
 11
214.15
 21
656.7
  0
ARC
  8
DATA
  6
CONTINUOUS
 62
     7
 10
214.995217
 20
617.113342
 40
5.218218
 50
278.316657
 51
338.489867
  0
ARC
  8
DATA
  6
CONTINUOUS
 62
     7
 10
214.995217
 20
620.286658
 40
5.218218
 50
21.510133
 51
81.683343
  0
LINE
  8
DATA
  6
CONTINUOUS
 62
     7
 10
169.5
 20
509.4
 11
169.5
 21
610.9
  0
LINE
  8
DATA
  6
CONTINUOUS
 62
     7
 10
182.5
 20
509.4
 11
182.5
 21
610.9
  0
ARC
  8
DATA
  6
CONTINUOUS
 62
     7
 10
166.25
 20
442.25
 40
3.0
 50
90.0
 51
180.0
  0
LINE
  8
DATA
  6
CONTINUOUS
 62
     7
 10
166.25
 20
445.25
 11
185.75
 21
445.25
  0
ARC
  8
DATA
  6
CONTINUOUS
 62
     7
 10
185.75
 20
442.25
 40
3.0
 50
0.0
 51
90.0
  0
TEXT
  8
DATA
  6
CONTINUOUS
 62
     7
 10
170.170642
 20
437.25
 40
3.0
  1
With
  7
TTF_DEFAULT
  0
TEXT
  8
DATA
  6
CONTINUOUS
 62
     7
 10
165.644494
 20
441.25
 40
3.0
  1
Install
  7
TTF_DEFAULT
  0
LINE
  8
DATA
  6
CONTINUOUS
 62
     7
 10
184.25
 20
439.1
 11
185.4
 21
439.1
  0
LINE
  8
DATA
  6
CONTINUOUS
 62
     7
 10
178.6
 20
439.1
 11
179.75
 21
439.1
  0
LINE
  8
DATA
  6
CONTINUOUS
 62
     7
 10
182.0
 20
441.9
 11
185.4
 21
439.1
  0
LINE
  8
DATA
  6
CONTINUOUS
 62
     7
 10
178.6
 20
439.1
 11
182.0
 21
441.9
  0
TEXT
  8
DATA
  6
CONTINUOUS
 62
     7
 10
173.188074
 20
425.25
 40
3.0
  1
Up
  7
TTF_DEFAULT
  0
TEXT
  8
DATA
  6
CONTINUOUS
 62
     7
 10
171.679358
 20
429.25
 40
3.0
  1
End
  7
TTF_DEFAULT
  0
TEXT
  8
DATA
  6
CONTINUOUS
 62
     7
 10
170.170642
 20
433.25
 40
3.0
  1
This
  7
TTF_DEFAULT
  0
CIRCLE
  8
DATA
  6
CONTINUOUS
 62
     7
 10
211.0
 20
437.15
 40
4.25
  0
ARC
  8
DATA
  6
CONTINUOUS
 62
     7
 10
176.0
 20
509.4
 40
6.5
 50
180.0
 51
0.0
  0
LINE
  8
DATA
  6
CONTINUOUS
 62
     7
 10
169.35
 20
509.25
 11
169.35
 21
503.0
  0
LINE
  8
DATA
  6
CONTINUOUS
 62
     7
 10
182.65
 20
509.25
 11
182.65
 21
503.0
  0
LINE
  8
DATA
  6
CONTINUOUS
 62
     7
 10
167.75
 20
509.25
 11
167.75
 21
503.0
  0
LINE
  8
DATA
  6
CONTINUOUS
 62
     7
 10
184.25
 20
509.25
 11
184.25
 21
503.0
  0
LINE
  8
DATA
  6
CONTINUOUS
 62
     7
 10
214.75
 20
501.6
 11
214.75
 21
500.0
  0
ARC
  8
DATA
  6
CONTINUOUS
 62
     7
 10
166.35
 20
503.0
 40
3.0
 50
270.0
 51
0.0
  0
LINE
  8
DATA
  6
CONTINUOUS
 62
     7
 10
185.65
 20
500.0
 11
214.75
 21
500.0
  0
ARC
  8
DATA
  6
CONTINUOUS
 62
     7
 10
185.65
 20
503.0
 40
3.0
 50
180.0
 51
270.0
  0
ARC
  8
DATA
  6
CONTINUOUS
 62
     7
 10
166.35
 20
503.0
 40
1.4
 50
270.0
 51
0.0
  0
LINE
  8
DATA
  6
CONTINUOUS
 62
     7
 10
185.65
 20
501.6
 11
214.75
 21
501.6
  0
ARC
  8
DATA
  6
CONTINUOUS
 62
     7
 10
185.65
 20
503.0
 40
1.4
 50
180.0
 51
270.0
  0
ARC
  8
DATA
  6
CONTINUOUS
 62
     7
 10
176.0
 20
509.25
 40
8.25
 50
0.0
 51
38.01228
  0
ARC
  8
DATA
  6
CONTINUOUS
 62
     7
 10
176.0
 20
509.25
 40
8.25
 50
141.98772
 51
180.0
  0
ARC
  8
DATA
  6
CONTINUOUS
 62
     7
 10
176.0
 20
509.25
 40
6.65
 50
0.0
 51
12.192484
  0
ARC
  8
DATA
  6
CONTINUOUS
 62
     7
 10
176.0
 20
509.25
 40
6.65
 50
167.807516
 51
180.0
  0
LINE
  8
DATA
  6
CONTINUOUS
 62
     7
 10
166.7
 20
519.1
 11
166.7
 21
517.5
  0
LINE
  8
DATA
  6
CONTINUOUS
 62
     7
 10
185.3
 20
519.1
 11
185.3
 21
517.5
  0
LINE
  8
DATA
  6
CONTINUOUS
 62
     7
 10
185.3
 20
519.1
 11
182.5
 21
519.1
  0
LINE
  8
DATA
  6
CONTINUOUS
 62
     7
 10
169.5
 20
519.1
 11
166.7
 21
519.1
  0
LINE
  8
DATA
  6
CONTINUOUS
 62
     7
 10
185.3
 20
517.5
 11
182.5
 21
517.5
  0
LINE
  8
DATA
  6
CONTINUOUS
 62
     7
 10
169.5
 20
517.5
 11
166.7
 21
517.5
  0
LINE
  8
DATA
  6
CONTINUOUS
 62
     7
 10
137.85
 20
610.7
 11
169.5
 21
610.7
  0
LINE
  8
DATA
  6
CONTINUOUS
 62
     7
 10
137.85
 20
626.7
 11
214.15
 21
626.7
  0
LINE
  8
DATA
  6
CONTINUOUS
 62
     7
 10
139.4
 20
610.7
 11
139.4
 21
626.7
  0
LINE
  8
DATA
  6
CONTINUOUS
 62
     7
 10
212.6
 20
610.7
 11
212.6
 21
626.7
  0
LINE
  8
DATA
  6
CONTINUOUS
 62
     7
 10
214.15
 20
605.8
 11
215.75
 21
605.8
  0
LINE
  8
DATA
  6
CONTINUOUS
 62
     7
 10
169.5
 20
610.9
 11
182.5
 21
610.9
  0
LINE
  8
DATA
  6
CONTINUOUS
 62
     7
 10
182.5
 20
610.7
 11
214.15
 21
610.7
  0
ARC
  8
DATA
  6
CONTINUOUS
 62
     7
 10
224.0
 20
447.25
 40
3.0
 50
0.0
 51
90.0
  0
LINE
  8
DATA
  6
CONTINUOUS
 62
     7
 10
219.85
 20
615.2
 11
219.85
 21
622.2
  0
TEXT
  8
SPEC
  6
CONTINUOUS
 62
     7
 10
152.7
 20
786.45
 40
7.5
  1
102(W)×225.2(H)×158.3(D)mm（１個）
  7
TTF_DEFAULT
  0
LINE
  8
SPEC
  6
CONTINUOUS
 62
     7
 10
150.0
 20
795.0
 11
150.0
 21
750.0
  0
TEXT
  8
SPEC
  6
CONTINUOUS
 62
     7
 10
152.7
 20
775.2
 40
7.5
  1
約700g（１個）
  7
TTF_DEFAULT
  0
TEXT
  8
SPEC
  6
CONTINUOUS
 62
     7
 10
152.7
 20
763.95
 40
7.5
  1
２個一組
  7
TTF_DEFAULT
  0
LINE
  8
DATA
  6
CONTINUOUS
 62
     7
 10
227.0
 20
658.3
 11
227.0
 21
656.7
  0
LINE
  8
DATA
  6
CONTINUOUS
 62
     7
 10
508.3
 20
297.05
 11
508.3
 21
450.25
  0
LINE
  8
DATA
  6
CONTINUOUS
 62
     7
 10
506.7
 20
362.4
 11
506.7
 21
450.25
  0
TEXT
  8
HIBINO-BASE
  6
CONTINUOUS
 62
     7
 10
446.25
 20
52.5
 40
7.5
  1
N.Sasaki
  7
TTF_DEFAULT
  0
LINE
  8
HIBINO-BASE
  6
CONTINUOUS
 62
     7
 10
300.0
 20
75.0
 11
570.0
 21
75.0
  0
TEXT
  8
HIBINO-BASE
  6
CONTINUOUS
 62
     7
 10
444.0
 20
67.5
 40
7.5
  1
DRAWN
  7
TTF_DEFAULT
  0
TEXT
  8
DATA
  6
CONTINUOUS
 62
     7
 10
450.0
 20
99.375
 40
9.0
  1
JBL
  7
TTF_DEFAULT
  0
TEXT
  8
DATA
  6
CONTINUOUS
 62
     7
 10
450.0
 20
80.625
 40
9.0
  1
2517
  7
TTF_DEFAULT
  0
LINE
  8
0
  6
CONTINUOUS
 62
     7
 10
300.0
 20
112.85
 11
570.0
 21
112.85
  0
LINE
  8
0
  6
CONTINUOUS
 62
     7
 10
300.0
 20
112.15
 11
570.0
 21
112.15
  0
LINE
  8
0
  6
CONTINUOUS
 62
     7
 10
300.0
 20
112.85
 11
300.0
 21
112.15
  0
LINE
  8
0
  6
CONTINUOUS
 62
     7
 10
570.0
 20
112.85
 11
570.0
 21
112.15
  0
SOLID
  8
HIBINO-BASE
  6
CONTINUOUS
 62
     7
 10
300.0
 20
112.85
 11
570.0
 21
112.85
 12
300.0
 22
112.15
 13
570.0
 23
112.15
  0
LINE
  8
DATA
  6
CONTINUOUS
 62
     7
 10
372.9
 20
343.15
 11
457.581295
 21
343.15
  0
LINE
  8
DATA
  6
CONTINUOUS
 62
     7
 10
372.9
 20
356.15
 11
457.581295
 21
356.15
  0
TEXT
  8
DATA
  6
CONTINUOUS
 62
     7
 10
428.125
 20
90.0
 40
5.5
  1
アジャスタ 　マウント　ブラケット (8330A , 8340A用)
  7
TTF_DEFAULT
  0
TEXT
  8
HIBINO-BASE
  6
CONTINUOUS
 62
     7
 10
369.0
 20
67.5
 40
7.5
  1
DATE
  7
TTF_DEFAULT
  0
TEXT
  8
HIBINO-BASE
  6
CONTINUOUS
 62
     7
 10
371.25
 20
52.5
 40
7.5
  1
'00.03.
  7
TTF_DEFAULT
  0
LINE
  8
0
  6
CONTINUOUS
 62
     7
 10
299.65
 20
45.0
 11
299.65
 21
112.5
  0
LINE
  8
0
  6
CONTINUOUS
 62
     7
 10
300.35
 20
45.0
 11
300.35
 21
112.5
  0
LINE
  8
0
  6
CONTINUOUS
 62
     7
 10
299.65
 20
45.0
 11
300.35
 21
45.0
  0
LINE
  8
0
  6
CONTINUOUS
 62
     7
 10
299.65
 20
112.5
 11
300.35
 21
112.5
  0
SOLID
  8
HIBINO-BASE
  6
CONTINUOUS
 62
     7
 10
299.65
 20
45.0
 11
299.65
 21
112.5
 12
300.35
 22
45.0
 13
300.35
 23
112.5
  0
TEXT
  8
HIBINO-BASE
  6
CONTINUOUS
 62
     7
 10
311.25
 20
48.75
 40
12.0
  1
A4
  7
TTF_DEFAULT
  0
LINE
  8
HIBINO-BASE
  6
CONTINUOUS
 62
     7
 10
343.125
 20
48.75
 11
354.375
 21
60.0
  0
TEXT
  8
HIBINO-BASE
  6
CONTINUOUS
 62
     7
 10
341.25
 20
54.375
 40
9.0
  1
1
  7
TTF_DEFAULT
  0
TEXT
  8
HIBINO-BASE
  6
CONTINUOUS
 62
     7
 10
301.5
 20
67.5
 40
6.75
  1
図面サイズ
  7
TTF_DEFAULT
  0
TEXT
  8
HIBINO-BASE
  6
CONTINUOUS
 62
     7
 10
339.0
 20
67.5
 40
7.5
  1
SCALE
  7
TTF_DEFAULT
  0
LINE
  8
HIBINO-BASE
  6
CONTINUOUS
 62
     7
 10
367.5
 20
45.0
 11
367.5
 21
75.0
  0
LINE
  8
HIBINO-BASE
  6
CONTINUOUS
 62
     7
 10
337.5
 20
45.0
 11
337.5
 21
75.0
  0
TEXT
  8
HIBINO-BASE
  6
CONTINUOUS
 62
     7
 10
352.5
 20
48.75
 40
9.0
  1
3
  7
TTF_DEFAULT
  0
TEXT
  8
HIBINO-BASE
  6
CONTINUOUS
 62
     7
 10
301.5
 20
105.0
 40
7.5
  1
NOTE
  7
TTF_DEFAULT
  0
LINE
  8
HIBINO-BASE
  6
CONTINUOUS
 62
     7
 10
405.0
 20
45.0
 11
405.0
 21
112.5
  0
TEXT
  8
HIBINO-BASE
  6
CONTINUOUS
 62
     7
 10
406.5
 20
67.5
 40
7.5
  1
DESIGN
  7
TTF_DEFAULT
  0
LINE
  8
HIBINO-BASE
  6
CONTINUOUS
 62
     7
 10
442.5
 20
75.0
 11
442.5
 21
45.0
  0
TEXT
  8
HIBINO-BASE
  6
CONTINUOUS
 62
     7
 10
406.5
 20
105.0
 40
7.5
  1
TITLE
  7
TTF_DEFAULT
  0
LINE
  8
DATA
  6
CONTINUOUS
 62
     7
 10
375.3
 20
309.3
 11
369.1
 21
309.3
  0
LINE
  8
DATA
  6
CONTINUOUS
 62
     7
 10
375.3
 20
300.0
 11
369.1
 21
300.0
  0
LINE
  8
DATA
  6
CONTINUOUS
 62
     7
 10
350.0
 20
327.0
 11
350.0
 21
225.0
  0
LINE
  8
DATA
  6
CONTINUOUS
 62
     7
 10
351.6
 20
327.0
 11
351.6
 21
225.0
  0
LINE
  8
DATA
  6
CONTINUOUS
 62
     7
 10
367.5
 20
234.2
 11
367.5
 21
327.0
  0
LINE
  8
DATA
  6
CONTINUOUS
 62
     7
 10
369.1
 20
295.35
 11
369.1
 21
313.95
  0
LINE
  8
DATA
  6
CONTINUOUS
 62
     7
 10
367.5
 20
225.0
 11
367.5
 21
228.4
  0
LINE
  8
DATA
  6
CONTINUOUS
 62
     7
 10
367.5
 20
225.0
 11
350.0
 21
225.0
  0
ARC
  8
DATA
  6
CONTINUOUS
 62
     7
 10
370.084615
 20
231.3
 40
3.884615
 50
131.708916
 51
228.291084
  0
LINE
  8
DATA
  6
CONTINUOUS
 62
     7
 10
365.9
 20
301.5
 11
365.9
 21
307.8
  0
ARC
  8
DATA
  6
CONTINUOUS
 62
     7
 10
359.65
 20
304.65
 40
3.15
 50
90.0
 51
270.0
  0
LINE
  8
DATA
  6
CONTINUOUS
 62
     7
 10
359.65
 20
307.8
 11
367.5
 21
307.8
  0
LINE
  8
DATA
  6
CONTINUOUS
 62
     7
 10
359.65
 20
301.5
 11
367.5
 21
301.5
  0
LINE
  8
DATA
  6
CONTINUOUS
 62
     7
 10
369.1
 20
295.35
 11
367.5
 21
295.35
  0
LINE
  8
DATA
  6
CONTINUOUS
 62
     7
 10
337.5
 20
275.0
 11
325.0
 21
275.0
  0
LINE
  8
DATA
  6
CONTINUOUS
 62
     7
 10
331.0
 20
274.00004
 11
325.0
 21
275.0
  0
LINE
  8
DATA
  6
CONTINUOUS
 62
     7
 10
331.0
 20
275.99996
 11
325.0
 21
275.0
  0
ARC
  8
DATA
  6
CONTINUOUS
 62
     7
 10
372.9
 20
336.15
 40
7.0
 50
90.0
 51
180.0
  0
ARC
  8
DATA
  6
CONTINUOUS
 62
     7
 10
372.9
 20
336.15
 40
20.0
 50
90.0
 51
180.0
  0
LINE
  8
DATA
  6
CONTINUOUS
 62
     7
 10
352.9
 20
327.0
 11
352.9
 21
336.15
  0
LINE
  8
DATA
  6
CONTINUOUS
 62
     7
 10
365.9
 20
327.0
 11
365.9
 21
336.15
  0
LINE
  8
DATA
  6
CONTINUOUS
 62
     7
 10
350.0
 20
327.0
 11
367.5
 21
327.0
  0
LINE
  8
DATA
  6
CONTINUOUS
 62
     7
 10
369.1
 20
313.95
 11
367.5
 21
313.95
  0
LINE
  8
DATA
  6
CONTINUOUS
 62
     7
 10
375.3
 20
300.0
 11
375.3
 21
309.3
  0
TEXT
  8
HIBINO-BASE
  6
CONTINUOUS
 62
     7
 10
519.0
 20
67.5
 40
7.5
  1
DRAWING NO.
  7
TTF_DEFAULT
  0
TEXT
  8
HIBINO-BASE
  6
CONTINUOUS
 62
     7
 10
468.690079
 20
25.77396
 40
12.0
  1
ヒビノ株式会社
  7
TTF_DEFAULT
  0
TEXT
  8
HIBINO-BASE
  6
CONTINUOUS
 62
     7
 10
481.5
 20
67.5
 40
7.5
  1
CHECK
  7
TTF_DEFAULT
  0
LINE
  8
HIBINO-BASE
  6
CONTINUOUS
 62
     7
 10
517.5
 20
75.0
 11
517.5
 21
45.0
  0
LINE
  8
HIBINO-BASE
  6
CONTINUOUS
 62
     7
 10
480.0
 20
45.0
 11
480.0
 21
75.0
  0
LINE
  8
DATA
  6
CONTINUOUS
 62
     7
 10
506.7
 20
297.05
 11
506.7
 21
336.9
  0
LINE
  8
DATA
  6
CONTINUOUS
 62
     7
 10
506.7
 20
297.05
 11
508.3
 21
297.05
  0
LINE
  8
DATA
  6
CONTINUOUS
 62
     7
 10
468.55
 20
336.9
 11
508.3
 21
336.9
  0
LINE
  8
DATA
  6
CONTINUOUS
 62
     7
 10
468.55
 20
362.4
 11
508.3
 21
362.4
  0
ARC
  8
DATA
  6
CONTINUOUS
 62
     7
 10
468.55
 20
349.65
 40
12.75
 50
90.0
 51
270.0
  0
CIRCLE
  8
DATA
  6
CONTINUOUS
 62
     7
 10
468.7
 20
349.65
 40
6.75
  0
LINE
  8
DATA
  6
CONTINUOUS
 62
     7
 10
466.448334
 20
350.95
 11
466.448334
 21
348.35
  0
LINE
  8
DATA
  6
CONTINUOUS
 62
     7
 10
466.448334
 20
348.35
 11
468.7
 21
347.05
  0
LINE
  8
DATA
  6
CONTINUOUS
 62
     7
 10
468.7
 20
347.05
 11
470.951666
 21
348.35
  0
LINE
  8
DATA
  6
CONTINUOUS
 62
     7
 10
470.951666
 20
348.35
 11
470.951666
 21
350.95
  0
LINE
  8
DATA
  6
CONTINUOUS
 62
     7
 10
470.951666
 20
350.95
 11
468.7
 21
352.25
  0
LINE
  8
DATA
  6
CONTINUOUS
 62
     7
 10
468.7
 20
352.25
 11
466.448334
 21
350.95
  0
CIRCLE
  8
DATA
  6
CONTINUOUS
 62
     7
 10
468.7
 20
349.65
 40
3.5
  0
LINE
  8
DATA
  6
CONTINUOUS
 62
     7
 10
506.7
 20
333.55
 11
508.3
 21
333.55
  0
CIRCLE
  8
DATA
  6
CONTINUOUS
 62
     7
 10
487.8
 20
343.3
 40
3.1
  0
LINE
  8
DATA
  6
CONTINUOUS
 62
     7
 10
506.7
 20
365.75
 11
508.3
 21
365.75
  0
LINE
  8
DATA
  6
CONTINUOUS
 62
     7
 10
506.7
 20
450.25
 11
508.3
 21
450.25
  0
LINE
  8
SPEC
  6
CONTINUOUS
 62
     7
 10
485.0
 20
795.0
 11
485.0
 21
750.0
  0
ENDSEC
  0
EOF
