  0
SECTION
  2
HEADER
  9
$ACADVER
  1
AC1009
  9
$DWGCODEPAGE
  3
ansi_932
  9
$INSBASE
 10
0.0
 20
0.0
 30
0.0
  9
$EXTMIN
 10
-899.9999999999999
 20
-1350.850112265625
 30
0.0
  9
$EXTMAX
 10
914.8818480985016
 20
1331.786335
 30
0.0
  9
$LIMMIN
 10
0.0
 20
0.0
  9
$LIMMAX
 10
0.0
 20
0.0
  9
$ORTHOMODE
 70
     0
  9
$REGENMODE
 70
     1
  9
$FILLMODE
 70
     1
  9
$QTEXTMODE
 70
     0
  9
$MIRRTEXT
 70
     1
  9
$DRAGMODE
 70
     2
  9
$LTSCALE
 40
50.8
  9
$OSMODE
 70
  8423
  9
$ATTMODE
 70
     1
  9
$TEXTSIZE
 40
0.0
  9
$TRACEWID
 40
1.0
  9
$TEXTSTYLE
  7
STANDARD
  9
$CLAYER
  8
DATA
  9
$CELTYPE
  6
BYLAYER
  9
$CECOLOR
 62
   256
  9
$DIMSCALE
 40
1.0
  9
$DIMASZ
 40
0.18
  9
$DIMEXO
 40
0.0625
  9
$DIMDLI
 40
0.38
  9
$DIMRND
 40
0.0
  9
$DIMDLE
 40
0.0
  9
$DIMEXE
 40
0.18
  9
$DIMTP
 40
0.0
  9
$DIMTM
 40
0.0
  9
$DIMTXT
 40
0.18
  9
$DIMCEN
 40
0.09
  9
$DIMTSZ
 40
0.0
  9
$DIMTOL
 70
     0
  9
$DIMLIM
 70
     0
  9
$DIMTIH
 70
     1
  9
$DIMTOH
 70
     1
  9
$DIMSE1
 70
     0
  9
$DIMSE2
 70
     0
  9
$DIMTAD
 70
     0
  9
$DIMZIN
 70
     0
  9
$DIMBLK
  1

  9
$DIMASO
 70
     1
  9
$DIMSHO
 70
     1
  9
$DIMPOST
  1

  9
$DIMAPOST
  1

  9
$DIMALT
 70
     0
  9
$DIMALTD
 70
     2
  9
$DIMALTF
 40
25.4
  9
$DIMLFAC
 40
1.0
  9
$DIMTOFL
 70
     0
  9
$DIMTVP
 40
0.0
  9
$DIMTIX
 70
     0
  9
$DIMSOXD
 70
     0
  9
$DIMSAH
 70
     0
  9
$DIMBLK1
  1

  9
$DIMBLK2
  1

  9
$DIMSTYLE
  2
STANDARD
  9
$DIMCLRD
 70
     0
  9
$DIMCLRE
 70
     0
  9
$DIMCLRT
 70
     0
  9
$DIMTFAC
 40
1.0
  9
$DIMGAP
 40
0.09
  9
$LUNITS
 70
     2
  9
$LUPREC
 70
     2
  9
$SKETCHINC
 40
0.1
  9
$FILLETRAD
 40
0.0
  9
$AUNITS
 70
     0
  9
$AUPREC
 70
     0
  9
$MENU
  1
acad
  9
$ELEVATION
 40
0.0
  9
$PELEVATION
 40
0.0
  9
$THICKNESS
 40
0.0
  9
$LIMCHECK
 70
     0
  9
$CHAMFERA
 40
0.0
  9
$CHAMFERB
 40
0.0
  9
$SKPOLY
 70
     0
  9
$TDCREATE
 40
2459529.596438067
  9
$TDUPDATE
 40
2459529.597101215
  9
$TDINDWG
 40
2459529.222101759
  9
$TDUSRTIMER
 40
0.0006637037
  9
$USRTIMER
 70
     1
  9
$ANGBASE
 50
0.0
  9
$ANGDIR
 70
     0
  9
$PDMODE
 70
     1
  9
$PDSIZE
 40
-2.0
  9
$PLINEWID
 40
0.0
  9
$COORDS
 70
     1
  9
$SPLFRAME
 70
     0
  9
$SPLINETYPE
 70
     6
  9
$SPLINESEGS
 70
     8
  9
$ATTDIA
 70
     1
  9
$ATTREQ
 70
     1
  9
$HANDLING
 70
     1
  9
$HANDSEED
  5
930
  9
$SURFTAB1
 70
     6
  9
$SURFTAB2
 70
     6
  9
$SURFTYPE
 70
     6
  9
$SURFU
 70
     6
  9
$SURFV
 70
     6
  9
$UCSNAME
  2

  9
$UCSORG
 10
0.0
 20
0.0
 30
0.0
  9
$UCSXDIR
 10
1.0
 20
0.0
 30
0.0
  9
$UCSYDIR
 10
0.0
 20
1.0
 30
0.0
  9
$PUCSNAME
  2

  9
$PUCSORG
 10
0.0
 20
0.0
 30
0.0
  9
$PUCSXDIR
 10
1.0
 20
0.0
 30
0.0
  9
$PUCSYDIR
 10
0.0
 20
1.0
 30
0.0
  9
$USERI1
 70
     0
  9
$USERI2
 70
     0
  9
$USERI3
 70
     0
  9
$USERI4
 70
     0
  9
$USERI5
 70
     0
  9
$USERR1
 40
0.0
  9
$USERR2
 40
0.0
  9
$USERR3
 40
0.0
  9
$USERR4
 40
0.0
  9
$USERR5
 40
0.0
  9
$WORLDVIEW
 70
     1
  9
$SHADEDGE
 70
     3
  9
$SHADEDIF
 70
    70
  9
$TILEMODE
 70
     1
  9
$MAXACTVP
 70
    64
  9
$PLIMCHECK
 70
     0
  9
$PEXTMIN
 10
1.000000000000000E+20
 20
1.000000000000000E+20
 30
1.000000000000000E+20
  9
$PEXTMAX
 10
-1.000000000000000E+20
 20
-1.000000000000000E+20
 30
-1.000000000000000E+20
  9
$PLIMMIN
 10
0.0
 20
0.0
  9
$PLIMMAX
 10
12.0
 20
9.0
  9
$UNITMODE
 70
     0
  9
$VISRETAIN
 70
     0
  9
$PLINEGEN
 70
     1
  9
$PSLTSCALE
 70
     0
  0
ENDSEC
  0
SECTION
  2
TABLES
  0
TABLE
  2
VPORT
 70
     1
  0
VPORT
  2
*ACTIVE
 70
     0
 10
0.0
 20
0.0
 11
1.0
 21
1.0
 12
0.0
 22
-3.531814999999824
 13
0.0
 23
0.0
 14
1.0
 24
1.0
 15
0.0
 25
0.0
 16
0.0
 26
0.0
 36
1.0
 17
0.0
 27
0.0
 37
0.0
 40
2670.6363
 41
2.402046783625731
 42
50.0
 43
0.0
 44
0.0
 50
0.0
 51
0.0
 71
     0
 72
  2000
 73
     1
 74
     1
 75
     0
 76
     0
 77
     0
 78
     0
  0
ENDTAB
  0
TABLE
  2
LTYPE
 70
    11
  0
LTYPE
  2
CONTINUOUS
 70
     0
  3
Solid line
 72
    65
 73
     0
 40
0.0
  0
ENDTAB
  0
TABLE
  2
LAYER
 70
     5
  0
LAYER
  2
0
 70
     0
 62
     7
  6
CONTINUOUS
  0
LAYER
  2
HIBINO-BASE
 70
     0
 62
     7
  6
CONTINUOUS
  0
LAYER
  2
SPEC
 70
     0
 62
     7
  6
CONTINUOUS
  0
LAYER
  2
DIMNSIONS
 70
     0
 62
     7
  6
CONTINUOUS
  0
LAYER
  2
DATA
 70
     0
 62
     7
  6
CONTINUOUS
  0
ENDTAB
  0
TABLE
  2
STYLE
 70
     2
  0
STYLE
  2
STANDARD
 70
     0
 40
0.0
 41
1.0
 50
0.0
 71
     0
 42
0.0
  3
txt
  4
BIGFONT.SHX
  0
ENDTAB
  0
TABLE
  2
VIEW
 70
     0
  0
ENDTAB
  0
TABLE
  2
UCS
 70
     0
  0
ENDTAB
  0
TABLE
  2
APPID
 70
     3
  0
APPID
  2
ACAD
 70
     0
  0
APPID
  2
ACAD_MLEADERVER
 70
     0
  0
APPID
  2
ACADANNOPO
 70
     0
  0
ENDTAB
  0
TABLE
  2
DIMSTYLE
 70
     1
  0
DIMSTYLE
  2
STANDARD
 70
     0
  3

  4

  5

  6

  7

 40
1.0
 41
0.18
 42
0.0625
 43
0.38
 44
0.18
 45
0.0
 46
0.0
 47
0.0
 48
0.0
140
0.18
141
0.09
142
0.0
143
25.4
144
1.0
145
0.0
146
1.0
147
0.09
 71
     0
 72
     0
 73
     1
 74
     1
 75
     0
 76
     0
 77
     0
 78
     0
170
     0
171
     2
172
     0
173
     0
174
     0
175
     0
176
     0
177
     0
178
     0
  0
ENDTAB
  0
ENDSEC
  0
SECTION
  2
BLOCKS
  0
BLOCK
  8
DATA
  2
$MODEL_SPACE
 70
     0
 10
0.0
 20
0.0
 30
0.0
  3
$MODEL_SPACE
  1

  0
ENDBLK
  5
71F
  8
DATA
  6
CONTINUOUS
  0
BLOCK
 67
     1
  8
DATA
  2
$PAPER_SPACE
 70
     0
 10
0.0
 20
0.0
 30
0.0
  3
$PAPER_SPACE
  1

  0
ENDBLK
  5
71D
 67
     1
  8
DATA
  6
CONTINUOUS
  0
ENDSEC
  0
SECTION
  2
ENTITIES
  0
LINE
  5
2C
  8
HIBINO-BASE
  6
CONTINUOUS
 62
     7
 10
-899.9999999999999
 20
1331.786335
 30
0.0
 11
899.9999999999999
 21
1331.786335
 31
0.0
  0
LINE
  5
2D
  8
HIBINO-BASE
  6
CONTINUOUS
 62
     7
 10
899.9999999999999
 20
-1268.213665
 30
0.0
 11
-899.9999999999999
 21
-1268.213665
 31
0.0
  0
LINE
  5
2E
  8
HIBINO-BASE
  6
CONTINUOUS
 62
     7
 10
-899.9999999999999
 20
-1268.213665
 30
0.0
 11
-899.9999999999999
 21
1331.786335
 31
0.0
  0
LINE
  5
2F
  8
HIBINO-BASE
  6
CONTINUOUS
 62
     7
 10
899.9999999999999
 20
1331.786335
 30
0.0
 11
899.9999999999999
 21
-1268.213665
 31
0.0
  0
LINE
  5
30
  8
HIBINO-BASE
  6
CONTINUOUS
 62
     7
 10
0.0000000000001421
 20
-1043.213665
 30
0.0
 11
899.9999999999999
 21
-1043.213665
 31
0.0
  0
LINE
  5
31
  8
HIBINO-BASE
  6
CONTINUOUS
 62
     7
 10
0.0000000000001421
 20
-1268.213665
 30
0.0
 11
0.0000000000001421
 21
-1043.213665
 31
0.0
  0
TEXT
  5
32
  8
HIBINO-BASE
 62
     7
 10
9.000000000000199
 20
-1068.300598333333
 30
0.0
 40
16.28841145833333
  1
NOTE
 41
0.7
 11
9.000000000000199
 21
-1052.012186875
 31
0.0
 73
     3
  0
LINE
  5
33
  8
HIBINO-BASE
  6
CONTINUOUS
 62
     7
 10
350.0000000000001
 20
-1268.213665
 30
0.0
 11
350.0000000000001
 21
-1043.213665
 31
0.0
  0
TEXT
  5
34
  8
HIBINO-BASE
 62
     7
 10
358.9999999999999
 20
-1068.300598333333
 30
0.0
 40
16.28841145833333
  1
TITLE
 41
0.7
 11
358.9999999999999
 21
-1052.012186875
 31
0.0
 73
     3
  0
LINE
  5
35
  8
HIBINO-BASE
  6
CONTINUOUS
 62
     7
 10
0.0000000000001421
 20
-1168.213665
 30
0.0
 11
899.9999999999999
 21
-1168.213665
 31
0.0
  0
TEXT
  5
36
  8
HIBINO-BASE
 62
     7
 10
483.9999999999999
 20
-1192.737398333333
 30
0.0
 40
16.28841145833333
  1
DRAWN
 41
0.7
 11
483.9999999999999
 21
-1176.448986875
 31
0.0
 73
     3
  0
TEXT
  5
37
  8
HIBINO-BASE
 62
     7
 10
233.9999999999999
 20
-1192.737398333333
 30
0.0
 40
16.28841145833333
  1
DATE
 41
0.7
 11
233.9999999999999
 21
-1176.448986875
 31
0.0
 73
     3
  0
TEXT
  5
38
  8
HIBINO-BASE
 62
     7
 10
133.9999999999999
 20
-1192.737398333333
 30
0.0
 40
16.28841145833333
  1
SCALE
 41
0.7
 11
133.9999999999999
 21
-1176.448986875
 31
0.0
 73
     3
  0
TEXT
  5
39
  8
HIBINO-BASE
 62
     7
 10
358.9999999999999
 20
-1192.737398333333
 30
0.0
 40
16.28841145833333
  1
DESIGN
 41
0.7
 11
358.9999999999999
 21
-1176.448986875
 31
0.0
 73
     3
  0
TEXT
  5
3A
  8
HIBINO-BASE
 62
     7
 10
733.9999999999999
 20
-1192.737398333333
 30
0.0
 40
16.28841145833333
  1
DRAWING NO.
 41
0.7
 11
733.9999999999999
 21
-1176.448986875
 31
0.0
 73
     3
  0
TEXT
  5
3B
  8
HIBINO-BASE
 62
     7
 10
608.9999999999999
 20
-1192.737398333333
 30
0.0
 40
16.28841145833333
  1
CHECK
 41
0.7
 11
608.9999999999999
 21
-1176.448986875
 31
0.0
 73
     3
  0
LINE
  5
3C
  8
HIBINO-BASE
  6
CONTINUOUS
 62
     7
 10
143.7500000000001
 20
-1255.713665
 30
0.0
 11
181.2500000000001
 21
-1218.213665
 31
0.0
  0
TEXT
  5
3D
  8
HIBINO-BASE
 62
     7
 10
137.5000000000001
 20
-1229.303098333333
 30
0.0
 40
16.28841145833333
  1
1
 41
0.7
 11
137.5000000000001
 21
-1213.014686875
 31
0.0
 73
     3
  0
LINE
  5
3E
  8
HIBINO-BASE
  6
CONTINUOUS
 62
     7
 10
125.0000000000001
 20
-1268.213665
 30
0.0
 11
125.0000000000001
 21
-1168.213665
 31
0.0
  0
LINE
  5
3F
  8
HIBINO-BASE
  6
CONTINUOUS
 62
     7
 10
224.9999999999999
 20
-1268.213665
 30
0.0
 11
224.9999999999999
 21
-1168.213665
 31
0.0
  0
LINE
  5
40
  8
HIBINO-BASE
  6
CONTINUOUS
 62
     7
 10
474.9999999999999
 20
-1168.213665
 30
0.0
 11
474.9999999999999
 21
-1268.213665
 31
0.0
  0
LINE
  5
41
  8
HIBINO-BASE
  6
CONTINUOUS
 62
     7
 10
725.0000000000001
 20
-1168.213665
 30
0.0
 11
725.0000000000001
 21
-1268.213665
 31
0.0
  0
LINE
  5
42
  8
HIBINO-BASE
  6
CONTINUOUS
 62
     7
 10
599.9999999999999
 20
-1268.213665
 30
0.0
 11
599.9999999999999
 21
-1168.213665
 31
0.0
  0
TEXT
  5
43
  8
HIBINO-BASE
 62
     7
 10
233.5654000000001
 20
-1239.577198333333
 30
0.0
 40
16.28841145833333
  1
'21.11.
 41
0.7
 11
233.5654000000001
 21
-1223.288786874999
 31
0.0
 73
     3
  0
TEXT
  5
44
  8
HIBINO-BASE
 62
     7
 10
175.0000000000001
 20
-1248.053098333333
 30
0.0
 40
16.28841145833333
  1
10
 41
0.7
 11
175.0000000000001
 21
-1231.764686875
 31
0.0
 73
     3
  0
TEXT
  5
45
  8
HIBINO-BASE
 62
     7
 10
490.0581001103462
 20
-1239.577198333333
 30
0.0
 40
16.28841145833333
  1
N.Sasaki
 41
0.7
 11
490.0581001103462
 21
-1223.288786874999
 31
0.0
 73
     3
  0
TEXT
  5
46
  8
HIBINO-BASE
 62
     7
 10
38.83333333333368
 20
-1248.453665
 30
0.0
 40
32.57682291666666
  1
A4
 41
0.7
 11
38.83333333333368
 21
-1215.876842083333
 31
0.0
 73
     3
  0
TEXT
  5
47
  8
HIBINO-BASE
 62
     7
 10
9.583333333333286
 20
-1194.408215
 30
0.0
 40
16.28841145833333
  1
PAPER SIZE
 41
0.7
 11
9.583333333333286
 21
-1178.119803541666
 31
0.0
 73
     3
  0
TEXT
  5
48
  8
HIBINO-BASE
 62
     7
 10
-828.1599999999997
 20
-1332.300443
 30
0.0
 40
36.00044179687499
  1
Hibino Corporation
 41
0.7
 11
-828.1599999999997
 21
-1296.300001203125
 31
0.0
 73
     3
  0
TEXT
  5
49
  8
HIBINO-BASE
 62
     7
 10
500.6839000000001
 20
-1332.300443
 30
0.0
 40
36.00044179687499
  1
ヒビノ株式会社
 41
0.7
 11
500.6839000000001
 21
-1296.300001203125
 31
0.0
 73
     3
  0
LINE
  5
4A
  8
SPEC
  6
CONTINUOUS
 62
     7
 10
-824.9999999999998
 20
1231.786335
 30
0.0
 11
650.0
 21
1231.786335
 31
0.0
  0
LINE
  5
4B
  8
SPEC
  6
CONTINUOUS
 62
     7
 10
-824.9999999999998
 20
1194.286335
 30
0.0
 11
650.0000000000001
 21
1194.286335
 31
0.0
  0
LINE
  5
4C
  8
SPEC
  6
CONTINUOUS
 62
     7
 10
-824.9999999999998
 20
1231.786335
 30
0.0
 11
-824.9999999999998
 21
594.286335
 31
0.0
  0
TEXT
  5
4D
  8
SPEC
 62
     7
 10
-812.4999999999998
 20
1245.719035
 30
0.0
 40
24.4326171875
  1
仕様
 41
0.7
 11
-812.4999999999998
 21
1270.1516521875
 31
0.0
 73
     3
  0
LINE
  5
4E
  8
SPEC
  6
CONTINUOUS
 62
     7
 10
-187.5
 20
1231.786335
 30
0.0
 11
-187.5
 21
594.286335
 31
0.0
  0
LINE
  5
4F
  8
SPEC
  6
CONTINUOUS
 62
     7
 10
650.0000000000001
 20
1231.786335
 30
0.0
 11
650.0000000000001
 21
594.286335
 31
0.0
  0
TEXT
  5
50
  8
SPEC
 62
     7
 10
-816.0
 20
602.1655127777776
 30
0.0
 40
19.00314670138889
  1
付属品
 41
0.7
 11
-816.0
 21
621.1686594791665
 31
0.0
 73
     3
  0
TEXT
  5
51
  8
SPEC
 62
     7
 10
-816.0
 20
677.1655127777776
 30
0.0
 40
19.00314670138889
  1
寸法(W×H×D)
 41
0.7
 11
-816.0
 21
696.1686594791665
 31
0.0
 73
     3
  0
TEXT
  5
52
  8
SPEC
 62
     7
 10
-816.0
 20
639.6655127777776
 30
0.0
 40
19.00314670138889
  1
質量
 41
0.7
 11
-816.0
 21
658.6686594791665
 31
0.0
 73
     3
  0
TEXT
  5
53
  8
SPEC
 62
     7
 10
-178.5
 20
677.1655127777776
 30
0.0
 40
19.00314670138889
  1
152×269×273mm
 41
0.7
 11
-178.5
 21
696.1686594791665
 31
0.0
 73
     3
  0
TEXT
  5
54
  8
SPEC
 62
     7
 10
-178.5
 20
639.6655127777776
 30
0.0
 40
19.00314670138889
  1
5.5kg
 41
0.7
 11
-178.5
 21
658.6686594791665
 31
0.0
 73
     3
  0
LINE
  5
55
  8
SPEC
  6
CONTINUOUS
 62
     7
 10
-824.9999999999998
 20
1156.786335
 30
0.0
 11
650.0000000000001
 21
1156.786335
 31
0.0
  0
LINE
  5
56
  8
SPEC
  6
CONTINUOUS
 62
     7
 10
-824.9999999999998
 20
1119.286335
 30
0.0
 11
650.0000000000001
 21
1119.286335
 31
0.0
  0
LINE
  5
57
  8
SPEC
  6
CONTINUOUS
 62
     7
 10
-475.0
 20
1081.786335
 30
0.0
 11
650.0000000000001
 21
1081.786335
 31
0.0
  0
LINE
  5
58
  8
SPEC
  6
CONTINUOUS
 62
     7
 10
-824.9999999999998
 20
1044.286335
 30
0.0
 11
650.0000000000001
 21
1044.286335
 31
0.0
  0
LINE
  5
59
  8
SPEC
  6
CONTINUOUS
 62
     7
 10
-824.9999999999998
 20
1006.786335
 30
0.0
 11
650.0000000000001
 21
1006.786335
 31
0.0
  0
LINE
  5
5A
  8
SPEC
  6
CONTINUOUS
 62
     7
 10
-824.9999999999998
 20
969.286335
 30
0.0
 11
650.0000000000001
 21
969.286335
 31
0.0
  0
LINE
  5
5B
  8
SPEC
  6
CONTINUOUS
 62
     7
 10
-475.0
 20
931.786335
 30
0.0
 11
650.0000000000001
 21
931.786335
 31
0.0
  0
LINE
  5
5C
  8
SPEC
  6
CONTINUOUS
 62
     7
 10
-824.9999999999998
 20
894.286335
 30
0.0
 11
650.0000000000001
 21
894.286335
 31
0.0
  0
LINE
  5
5D
  8
SPEC
  6
CONTINUOUS
 62
     7
 10
-475.0
 20
856.786335
 30
0.0
 11
650.0000000000001
 21
856.786335
 31
0.0
  0
LINE
  5
5E
  8
SPEC
  6
CONTINUOUS
 62
     7
 10
-824.9999999999998
 20
819.286335
 30
0.0
 11
650.0000000000001
 21
819.286335
 31
0.0
  0
LINE
  5
5F
  8
SPEC
  6
CONTINUOUS
 62
     7
 10
-824.9999999999998
 20
781.786335
 30
0.0
 11
650.0000000000001
 21
781.786335
 31
0.0
  0
LINE
  5
60
  8
SPEC
  6
CONTINUOUS
 62
     7
 10
-824.9999999999998
 20
744.286335
 30
0.0
 11
650.0000000000001
 21
744.286335
 31
0.0
  0
LINE
  5
61
  8
SPEC
  6
CONTINUOUS
 62
     7
 10
-824.9999999999998
 20
706.786335
 30
0.0
 11
650.0000000000001
 21
706.786335
 31
0.0
  0
LINE
  5
62
  8
SPEC
  6
CONTINUOUS
 62
     7
 10
-824.9999999999998
 20
669.286335
 30
0.0
 11
650.0000000000001
 21
669.286335
 31
0.0
  0
LINE
  5
63
  8
SPEC
  6
CONTINUOUS
 62
     7
 10
-824.9999999999998
 20
631.786335
 30
0.0
 11
650.0000000000001
 21
631.786335
 31
0.0
  0
LINE
  5
64
  8
SPEC
  6
CONTINUOUS
 62
     7
 10
-824.9999999999998
 20
594.286335
 30
0.0
 11
650.0000000000001
 21
594.286335
 31
0.0
  0
TEXT
  5
65
  8
SPEC
 62
     7
 10
-178.5
 20
602.1655127777776
 30
0.0
 40
19.00314670138889
  1
電源コード
 41
0.7
 11
-178.5
 21
621.1686594791665
 31
0.0
 73
     3
  0
TEXT
  5
66
  8
SPEC
 62
     7
 10
-816.0
 20
1202.165512777778
 30
0.0
 40
19.00314670138889
  1
周波数レンジ(-10dB)
 41
0.7
 11
-816.0
 21
1221.168659479167
 31
0.0
 73
     3
  0
TEXT
  5
67
  8
SPEC
 62
     7
 10
-816.0
 20
1164.665512777778
 30
0.0
 40
19.00314670138889
  1
指向角度(水平×垂直)
 41
0.7
 11
-816.0
 21
1183.668659479167
 31
0.0
 73
     3
  0
TEXT
  5
68
  8
SPEC
 62
     7
 10
-816.0
 20
1127.165512777778
 30
0.0
 40
19.00314670138889
  1
最大音圧レベル(1m、Cウェイト)
 41
0.7
 11
-816.0
 21
1146.168659479167
 31
0.0
 73
     3
  0
TEXT
  5
69
  8
SPEC
 62
     7
 10
-816.0
 20
1089.665512777778
 30
0.0
 40
19.00314670138889
  1
ドライバー構成
 41
0.7
 11
-816.0
 21
1108.668659479167
 31
0.0
 73
     3
  0
TEXT
  5
6A
  8
SPEC
 62
     7
 10
-816.0
 20
1014.665512777778
 30
0.0
 40
19.00314670138889
  1
クロスオーバー周波数
 41
0.7
 11
-816.0
 21
1033.668659479167
 31
0.0
 73
     3
  0
TEXT
  5
6B
  8
SPEC
 62
     7
 10
-816.0
 20
977.1655127777776
 30
0.0
 40
19.00314670138889
  1
パワーアンプ
 41
0.7
 11
-816.0
 21
996.1686594791665
 31
0.0
 73
     3
  0
TEXT
  5
6C
  8
SPEC
 62
     7
 10
-816.0
 20
939.6655127777777
 30
0.0
 40
19.00314670138889
  1
アナログ入力
 41
0.7
 11
-816.0
 21
958.6686594791666
 31
0.0
 73
     3
  0
TEXT
  5
6D
  8
SPEC
 62
     7
 10
-816.0
 20
864.6655127777776
 30
0.0
 40
19.00314670138889
  1
デジタル入力
 41
0.7
 11
-816.0
 21
883.6686594791665
 31
0.0
 73
     3
  0
TEXT
  5
6E
  8
SPEC
 62
     7
 10
-178.5
 20
752.1655127777776
 30
0.0
 40
19.00314670138889
  1
AC100V、50/60Hz
 41
0.7
 11
-178.5
 21
771.1686594791665
 31
0.0
 73
     3
  0
TEXT
  5
6F
  8
SPEC
 62
     7
 10
-178.5
 20
1202.165512777778
 30
0.0
 40
19.00314670138889
  1
39Hz～36kHz
 41
0.7
 11
-178.5
 21
1221.168659479167
 31
0.0
 73
     3
  0
TEXT
  5
70
  8
SPEC
 62
     7
 10
-178.5
 20
1164.665512777778
 30
0.0
 40
19.00314670138889
  1
110 ゜×90 ゜
 41
0.7
 11
-178.5
 21
1183.668659479167
 31
0.0
 73
     3
  0
TEXT
  5
71
  8
SPEC
 62
     7
 10
-178.5
 20
1127.165512777778
 30
0.0
 40
19.00314670138889
  1
107dB SPL(ピーク)
 41
0.7
 11
-178.5
 21
1146.168659479167
 31
0.0
 73
     3
  0
TEXT
  5
72
  8
SPEC
 62
     7
 10
-466.0
 20
1089.665512777778
 30
0.0
 40
19.00314670138889
  1
LF
 41
0.7
 11
-466.0
 21
1108.668659479167
 31
0.0
 73
     3
  0
TEXT
  5
73
  8
SPEC
 62
     7
 10
-178.5
 20
1014.665512777778
 30
0.0
 40
19.00314670138889
  1
1,750Hz
 41
0.7
 11
-178.5
 21
1033.668659479167
 31
0.0
 73
     3
  0
TEXT
  5
74
  8
SPEC
 62
     7
 10
-178.5
 20
977.1655127777776
 30
0.0
 40
19.00314670138889
  1
250W×2、Class D
 41
0.7
 11
-178.5
 21
996.1686594791665
 31
0.0
 73
     3
  0
TEXT
  5
75
  8
SPEC
 62
     7
 10
-466.0
 20
939.6655127777776
 30
0.0
 40
19.00314670138889
  1
端子・形式
 41
0.7
 11
-466.0
 21
958.6686594791665
 31
0.0
 73
     3
  0
TEXT
  5
76
  8
SPEC
 62
     7
 10
-466.0
 20
864.6655127777776
 30
0.0
 40
19.00314670138889
  1
端子・形式
 41
0.7
 11
-466.0
 21
883.6686594791665
 31
0.0
 73
     3
  0
TEXT
  5
77
  8
SPEC
 62
     7
 10
-466.0
 20
1052.165512777778
 30
0.0
 40
19.00314670138889
  1
HF
 41
0.7
 11
-466.0
 21
1071.168659479167
 31
0.0
 73
     3
  0
TEXT
  5
78
  8
SPEC
 62
     7
 10
-178.5
 20
1089.665512777778
 30
0.0
 40
19.00314670138889
  1
725G(5インチ(127mm))
 41
0.7
 11
-178.5
 21
1108.668659479167
 31
0.0
 73
     3
  0
TEXT
  5
79
  8
SPEC
 62
     7
 10
-178.5
 20
1052.165512777778
 30
0.0
 40
19.00314670138889
  1
2409H(1インチ(25mm))
 41
0.7
 11
-178.5
 21
1071.168659479167
 31
0.0
 73
     3
  0
LINE
  5
7A
  8
SPEC
  6
CONTINUOUS
 62
     7
 10
-475.0
 20
1119.286335
 30
0.0
 11
-475.0
 21
1044.286335
 31
0.0
  0
LINE
  5
7B
  8
SPEC
  6
CONTINUOUS
 62
     7
 10
-475.0
 20
969.286335
 30
0.0
 11
-475.0
 21
781.786335
 31
0.0
  0
TEXT
  5
7C
  8
SPEC
 62
     7
 10
-178.5
 20
939.6655127777776
 30
0.0
 40
19.00314670138889
  1
XLR、バランス
 41
0.7
 11
-178.5
 21
958.6686594791665
 31
0.0
 73
     3
  0
TEXT
  5
7D
  8
SPEC
 62
     7
 10
-178.5
 20
864.6655127777776
 30
0.0
 40
19.00314670138889
  1
XLR、AES/EBU
 41
0.7
 11
-178.5
 21
883.6686594791665
 31
0.0
 73
     3
  0
TEXT
  5
7E
  8
SPEC
 62
     7
 10
-466.0
 20
902.1655127777776
 30
0.0
 40
19.00314670138889
  1
最大入力レベル(+4dBu)
 41
0.7
 11
-466.0
 21
921.1686594791665
 31
0.0
 73
     3
  0
TEXT
  5
7F
  8
SPEC
 62
     7
 10
-178.5
 20
902.1655127777776
 30
0.0
 40
19.00314670138889
  1
+23.3dBu
 41
0.7
 11
-178.5
 21
921.1686594791665
 31
0.0
 73
     3
  0
TEXT
  5
80
  8
SPEC
 62
     7
 10
-466.0
 20
827.1655127777776
 30
0.0
 40
19.00314670138889
  1
サンプリングレート
 41
0.7
 11
-466.0
 21
846.1686594791665
 31
0.0
 73
     3
  0
TEXT
  5
81
  8
SPEC
 62
     7
 10
-178.5
 20
827.1655127777776
 30
0.0
 40
19.00314670138889
  1
44.1/48/88.2/96/176.4/192kHz
 41
0.7
 11
-178.5
 21
846.1686594791665
 31
0.0
 73
     3
  0
TEXT
  5
82
  8
SPEC
 62
     7
 10
-816.0
 20
789.6655127777776
 30
0.0
 40
19.00314670138889
  1
デジタル出力(スルーアウト)
 41
0.7
 11
-816.0
 21
808.6686594791665
 31
0.0
 73
     3
  0
TEXT
  5
83
  8
SPEC
 62
     7
 10
-466.0
 20
789.6655127777776
 30
0.0
 40
19.00314670138889
  1
端子・形式
 41
0.7
 11
-466.0
 21
808.6686594791665
 31
0.0
 73
     3
  0
TEXT
  5
84
  8
SPEC
 62
     7
 10
-178.5
 20
789.6655127777776
 30
0.0
 40
19.00314670138889
  1
XLR、AES/EBU
 41
0.7
 11
-178.5
 21
808.6686594791665
 31
0.0
 73
     3
  0
TEXT
  5
85
  8
SPEC
 62
     7
 10
-816.0
 20
753.6099999999999
 30
0.0
 40
19.00314670138889
  1
電源
 41
0.7
 11
-816.0
 21
772.6131467013888
 31
0.0
 73
     3
  0
TEXT
  5
86
  8
SPEC
 62
     7
 10
-816.0
 20
714.6655127777776
 30
0.0
 40
19.00314670138889
  1
消費電力(1/8 出力、ピンクノイズ)
 41
0.7
 11
-816.0
 21
733.6686594791665
 31
0.0
 73
     3
  0
TEXT
  5
87
  8
SPEC
 62
     7
 10
-178.5
 20
714.6655127777777
 30
0.0
 40
19.00314670138889
  1
50W
 41
0.7
 11
-178.5
 21
733.6686594791666
 31
0.0
 73
     3
  0
TEXT
  5
88
  8
DIMNSIONS
 62
     7
 10
-199.9999999999999
 20
-1145.518765
 30
0.0
 40
24.4326171875
  1
(単位：mm)
 41
0.7
 11
-199.9999999999999
 21
-1121.0861478125
 31
0.0
 73
     3
  0
LINE
  5
89
  8
DIMNSIONS
  6
CONTINUOUS
 62
     7
 10
-634.29
 20
-354.5
 30
0.0
 11
-634.29
 21
-547.5
 31
0.0
  0
LINE
  5
8A
  8
DIMNSIONS
  6
CONTINUOUS
 62
     7
 10
-565.7099999999999
 20
-354.5
 30
0.0
 11
-565.7099999999999
 21
-547.5
 31
0.0
  0
LINE
  5
8B
  8
DIMNSIONS
  6
CONTINUOUS
 62
     7
 10
-565.7099999999999
 20
-537.5
 30
0.0
 11
-479.4444444444445
 21
-537.5
 31
0.0
  0
LINE
  5
8C
  8
DIMNSIONS
  6
CONTINUOUS
 62
     7
 10
-634.29
 20
-537.5
 30
0.0
 11
-565.7099999999999
 21
-537.5
 31
0.0
  0
LINE
  5
8D
  8
DIMNSIONS
  6
CONTINUOUS
 62
     7
 10
-634.29
 20
-537.5
 30
0.0
 11
-614.291220703125
 21
-532.1413432377941
 31
0.0
  0
LINE
  5
8E
  8
DIMNSIONS
  6
CONTINUOUS
 62
     7
 10
-634.29
 20
-537.5
 30
0.0
 11
-614.291220703125
 21
-542.8586567622059
 31
0.0
  0
LINE
  5
8F
  8
DIMNSIONS
  6
CONTINUOUS
 62
     7
 10
-565.7099999999999
 20
-537.5
 30
0.0
 11
-585.7087792968749
 21
-542.8586567622059
 31
0.0
  0
LINE
  5
90
  8
DIMNSIONS
  6
CONTINUOUS
 62
     7
 10
-565.7099999999999
 20
-537.5
 30
0.0
 11
-585.7087792968749
 21
-532.1413432377941
 31
0.0
  0
TEXT
  5
91
  8
DIMNSIONS
 62
     7
 10
-550.0
 20
-529.5611111111111
 30
0.0
 40
27.14735243055556
  1
68.6
 41
0.7
 11
-550.0
 21
-502.4137586805556
 31
0.0
 73
     3
  0
LINE
  5
92
  8
DIMNSIONS
  6
CONTINUOUS
 62
     7
 10
-559.1508009936143
 20
-343.8760865387462
 30
0.0
 11
-512.5
 21
-374.9999999999999
 31
0.0
  0
LINE
  5
93
  8
DIMNSIONS
  6
CONTINUOUS
 62
     7
 10
-559.1508009936143
 20
-343.8760865387462
 30
0.0
 11
-539.4598797545444
 21
-350.2740546862909
 31
0.0
  0
LINE
  5
94
  8
DIMNSIONS
  6
CONTINUOUS
 62
     7
 10
-559.1508009936143
 20
-343.8760865387462
 30
0.0
 11
-545.2969470504336
 21
-359.2623501066585
 31
0.0
  0
LINE
  5
95
  8
DIMNSIONS
  6
CONTINUOUS
 62
     7
 10
-512.5
 20
-374.9999999999999
 30
0.0
 11
-492.5
 21
-374.9999999999999
 31
0.0
  0
TEXT
  5
96
  8
DIMNSIONS
 62
     7
 10
-492.5
 20
-387.6999999999999
 30
0.0
 40
27.14735243055556
  1
M6金具取付ポイント(4ヵ所)
 41
0.7
 11
-492.5
 21
-360.5526475694444
 31
0.0
 73
     3
  0
TEXT
  5
97
  8
DIMNSIONS
 62
     7
 10
75.0
 20
-1012.7
 30
0.0
 40
27.14735243055556
  1
※センター振り分け
 41
0.7
 11
75.0
 21
-985.5526475694444
 31
0.0
 73
     3
  0
TEXT
  5
98
  8
DIMNSIONS
 62
     7
 10
-479.4444444444445
 20
-508.1122222222223
 30
0.0
 40
19.00314670138889
  1
※
 41
0.7
 11
-479.4444444444445
 21
-489.1090755208334
 31
0.0
 73
     3
  0
LINE
  5
99
  8
DIMNSIONS
  6
CONTINUOUS
 62
     7
 10
-684.75
 20
-565.75
 30
0.0
 11
-710.0
 21
-565.75
 31
0.0
  0
LINE
  5
9A
  8
DIMNSIONS
  6
CONTINUOUS
 62
     7
 10
-684.75
 20
-834.25
 30
0.0
 11
-710.0
 21
-834.25
 31
0.0
  0
LINE
  5
9B
  8
DIMNSIONS
  6
CONTINUOUS
 62
     7
 10
-700.0
 20
-565.75
 30
0.0
 11
-700.0
 21
-834.25
 31
0.0
  0
LINE
  5
9C
  8
DIMNSIONS
  6
CONTINUOUS
 62
     7
 10
-700.0
 20
-565.75
 30
0.0
 11
-694.6413432377941
 21
-585.748779296875
 31
0.0
  0
LINE
  5
9D
  8
DIMNSIONS
  6
CONTINUOUS
 62
     7
 10
-700.0
 20
-565.75
 30
0.0
 11
-705.3586567622059
 21
-585.748779296875
 31
0.0
  0
LINE
  5
9E
  8
DIMNSIONS
  6
CONTINUOUS
 62
     7
 10
-700.0
 20
-834.25
 30
0.0
 11
-705.3586567622059
 21
-814.251220703125
 31
0.0
  0
LINE
  5
9F
  8
DIMNSIONS
  6
CONTINUOUS
 62
     7
 10
-700.0
 20
-834.25
 30
0.0
 11
-694.6413432377941
 21
-814.251220703125
 31
0.0
  0
TEXT
  5
A0
  8
DIMNSIONS
 62
     7
 10
-707.938888888889
 20
-726.4583333333334
 30
0.0
 40
27.14735243055556
  1
269
 50
90.0
 41
0.7
 11
-735.0862413194445
 21
-726.4583333333334
 31
0.0
 73
     3
  0
LINE
  5
A1
  8
DIMNSIONS
  6
CONTINUOUS
 62
     7
 10
-615.0
 20
-500.0
 30
0.0
 11
-710.0
 21
-500.0
 31
0.0
  0
LINE
  5
A2
  8
DIMNSIONS
  6
CONTINUOUS
 62
     7
 10
-690.75
 20
-227.0
 30
0.0
 11
-710.0
 21
-227.0
 31
0.0
  0
LINE
  5
A3
  8
DIMNSIONS
  6
CONTINUOUS
 62
     7
 10
-700.0
 20
-500.0
 30
0.0
 11
-700.0
 21
-227.0
 31
0.0
  0
LINE
  5
A4
  8
DIMNSIONS
  6
CONTINUOUS
 62
     7
 10
-700.0
 20
-500.0
 30
0.0
 11
-705.3586567622059
 21
-480.001220703125
 31
0.0
  0
LINE
  5
A5
  8
DIMNSIONS
  6
CONTINUOUS
 62
     7
 10
-700.0
 20
-500.0
 30
0.0
 11
-694.6413432377941
 21
-480.001220703125
 31
0.0
  0
LINE
  5
A6
  8
DIMNSIONS
  6
CONTINUOUS
 62
     7
 10
-700.0
 20
-227.0
 30
0.0
 11
-694.6413432377941
 21
-246.998779296875
 31
0.0
  0
LINE
  5
A7
  8
DIMNSIONS
  6
CONTINUOUS
 62
     7
 10
-700.0
 20
-227.0
 30
0.0
 11
-705.3586567622059
 21
-246.998779296875
 31
0.0
  0
TEXT
  5
A8
  8
DIMNSIONS
 62
     7
 10
-707.938888888889
 20
-389.9583333333334
 30
0.0
 40
27.14735243055556
  1
273
 50
90.0
 41
0.7
 11
-735.0862413194445
 21
-389.9583333333334
 31
0.0
 73
     3
  0
LINE
  5
A9
  8
DIMNSIONS
  6
CONTINUOUS
 62
     7
 10
-509.25
 20
-227.0
 30
0.0
 11
-465.0
 21
-227.0
 31
0.0
  0
LINE
  5
AA
  8
DIMNSIONS
  6
CONTINUOUS
 62
     7
 10
-550.7099999999999
 20
-339.5
 30
0.0
 11
-465.0
 21
-339.5
 31
0.0
  0
LINE
  5
AB
  8
DIMNSIONS
  6
CONTINUOUS
 62
     7
 10
-475.0
 20
-227.0
 30
0.0
 11
-475.0
 21
-339.5
 31
0.0
  0
LINE
  5
AC
  8
DIMNSIONS
  6
CONTINUOUS
 62
     7
 10
-475.0
 20
-227.0
 30
0.0
 11
-469.6413432377941
 21
-246.998779296875
 31
0.0
  0
LINE
  5
AD
  8
DIMNSIONS
  6
CONTINUOUS
 62
     7
 10
-475.0
 20
-227.0
 30
0.0
 11
-480.3586567622059
 21
-246.998779296875
 31
0.0
  0
LINE
  5
AE
  8
DIMNSIONS
  6
CONTINUOUS
 62
     7
 10
-475.0
 20
-339.5
 30
0.0
 11
-480.3586567622059
 21
-319.501220703125
 31
0.0
  0
LINE
  5
AF
  8
DIMNSIONS
  6
CONTINUOUS
 62
     7
 10
-475.0
 20
-339.5
 30
0.0
 11
-469.6413432377941
 21
-319.501220703125
 31
0.0
  0
TEXT
  5
B0
  8
DIMNSIONS
 62
     7
 10
-482.938888888889
 20
-309.7083333333334
 30
0.0
 40
27.14735243055556
  1
113
 50
90.0
 41
0.7
 11
-510.0862413194445
 21
-309.7083333333334
 31
0.0
 73
     3
  0
LINE
  5
B1
  8
DIMNSIONS
  6
CONTINUOUS
 62
     7
 10
-675.75
 20
-843.25
 30
0.0
 11
-675.75
 21
-910.0
 31
0.0
  0
LINE
  5
B2
  8
DIMNSIONS
  6
CONTINUOUS
 62
     7
 10
-524.25
 20
-843.25
 30
0.0
 11
-524.25
 21
-910.0
 31
0.0
  0
LINE
  5
B3
  8
DIMNSIONS
  6
CONTINUOUS
 62
     7
 10
-675.75
 20
-900.0
 30
0.0
 11
-524.25
 21
-900.0
 31
0.0
  0
LINE
  5
B4
  8
DIMNSIONS
  6
CONTINUOUS
 62
     7
 10
-675.75
 20
-900.0
 30
0.0
 11
-655.751220703125
 21
-894.6413432377941
 31
0.0
  0
LINE
  5
B5
  8
DIMNSIONS
  6
CONTINUOUS
 62
     7
 10
-675.75
 20
-900.0
 30
0.0
 11
-655.751220703125
 21
-905.3586567622059
 31
0.0
  0
LINE
  5
B6
  8
DIMNSIONS
  6
CONTINUOUS
 62
     7
 10
-524.25
 20
-900.0
 30
0.0
 11
-544.248779296875
 21
-905.3586567622059
 31
0.0
  0
LINE
  5
B7
  8
DIMNSIONS
  6
CONTINUOUS
 62
     7
 10
-524.25
 20
-900.0
 30
0.0
 11
-544.248779296875
 21
-894.6413432377941
 31
0.0
  0
TEXT
  5
B8
  8
DIMNSIONS
 62
     7
 10
-626.4583333333334
 20
-892.061111111111
 30
0.0
 40
27.14735243055556
  1
152
 41
0.7
 11
-626.4583333333334
 21
-864.9137586805555
 31
0.0
 73
     3
  0
TEXT
  5
B9
  8
DATA
 62
     7
 10
499.9999999999998
 20
-1156.904765
 30
0.0
 40
24.4326171875
  1
705P Powered
 41
0.7
 11
499.9999999999998
 21
-1132.4721478125
 31
0.0
 73
     3
  0
LINE
  5
BA
  8
DATA
  6
CONTINUOUS
 62
     7
 10
425.0
 20
-800.0
 30
0.0
 11
725.0
 21
-800.0
 31
0.0
  0
TEXT
  5
BB
  8
DATA
 62
     7
 10
-874.9999999999999
 20
-1189.450887222222
 30
0.0
 40
19.00314670138889
  1
※仕様及び外観は予告なく変更されることがあります。
 41
0.7
 11
-874.9999999999999
 21
-1170.447740520833
 31
0.0
 73
     3
  0
TEXT
  5
BC
  8
DATA
 62
     7
 10
-874.9999999999999
 20
-1214.145331666666
 30
0.0
 40
19.00314670138889
  1
　また、同一商品でも若干の個体差があることがあります。ご了承ください。
 41
0.7
 11
-874.9999999999999
 21
-1195.142184965277
 31
0.0
 73
     3
  0
TEXT
  5
BD
  8
DATA
 62
     7
 10
499.9999999999998
 20
-1084.404765
 30
0.0
 40
24.4326171875
  1
JBL PROFESSIONAL
 41
0.7
 11
499.9999999999998
 21
-1059.9721478125
 31
0.0
 73
     3
  0
CIRCLE
  5
BE
  8
DATA
  6
CONTINUOUS
 62
     7
 10
-565.7099999999999
 20
-339.5
 30
0.0
 40
7.884999999999991
  0
POLYLINE
  5
BF
  8
DATA
  6
CONTINUOUS
 62
     7
 66
     1
 10
0.0
 20
0.0
 30
0.0
 70
     1
  0
VERTEX
  5
75E
  8
DATA
  6
CONTINUOUS
 62
     7
 10
-568.0785794793504
 20
-338.1325
 30
0.0
  0
VERTEX
  5
75F
  8
DATA
  6
CONTINUOUS
 62
     7
 10
-568.0785794793504
 20
-340.8675
 30
0.0
  0
VERTEX
  5
760
  8
DATA
  6
CONTINUOUS
 62
     7
 10
-565.7099999999999
 20
-342.235
 30
0.0
  0
VERTEX
  5
761
  8
DATA
  6
CONTINUOUS
 62
     7
 10
-563.3414205206495
 20
-340.8675
 30
0.0
  0
VERTEX
  5
762
  8
DATA
  6
CONTINUOUS
 62
     7
 10
-563.3414205206495
 20
-338.1325
 30
0.0
  0
VERTEX
  5
763
  8
DATA
  6
CONTINUOUS
 62
     7
 10
-565.7099999999999
 20
-336.765
 30
0.0
  0
SEQEND
  5
8D4
  8
DATA
  6
CONTINUOUS
 62
     7
  0
CIRCLE
  5
C8
  8
DATA
  6
CONTINUOUS
 62
     7
 10
-634.29
 20
-339.4999999999999
 30
0.0
 40
7.884999999999991
  0
POLYLINE
  5
C9
  8
DATA
  6
CONTINUOUS
 62
     7
 66
     1
 10
0.0
 20
0.0
 30
0.0
 70
     1
  0
VERTEX
  5
764
  8
DATA
  6
CONTINUOUS
 62
     7
 10
-636.6585794793504
 20
-338.1325
 30
0.0
  0
VERTEX
  5
765
  8
DATA
  6
CONTINUOUS
 62
     7
 10
-636.6585794793504
 20
-340.8675
 30
0.0
  0
VERTEX
  5
766
  8
DATA
  6
CONTINUOUS
 62
     7
 10
-634.29
 20
-342.235
 30
0.0
  0
VERTEX
  5
767
  8
DATA
  6
CONTINUOUS
 62
     7
 10
-631.9214205206496
 20
-340.8675
 30
0.0
  0
VERTEX
  5
768
  8
DATA
  6
CONTINUOUS
 62
     7
 10
-631.9214205206496
 20
-338.1325
 30
0.0
  0
VERTEX
  5
769
  8
DATA
  6
CONTINUOUS
 62
     7
 10
-634.29
 20
-336.765
 30
0.0
  0
SEQEND
  5
8D5
  8
DATA
  6
CONTINUOUS
 62
     7
  0
LINE
  5
D2
  8
DATA
  6
CONTINUOUS
 62
     7
 10
-200.5
 20
-827.25
 30
0.0
 11
-200.5
 21
-572.75
 31
0.0
  0
ARC
  5
D3
  8
DATA
  6
CONTINUOUS
 62
     7
 10
-193.5
 20
-827.25
 30
0.0
 40
7.0
 50
180.0
 51
270.0
  0
LINE
  5
D4
  8
DATA
  6
CONTINUOUS
 62
     7
 10
-56.5
 20
-834.25
 30
0.0
 11
-193.5
 21
-834.25
 31
0.0
  0
ARC
  5
D5
  8
DATA
  6
CONTINUOUS
 62
     7
 10
-56.5
 20
-827.25
 30
0.0
 40
7.0
 50
270.0
 51
0.0
  0
LINE
  5
D6
  8
DATA
  6
CONTINUOUS
 62
     7
 10
-49.5
 20
-572.75
 30
0.0
 11
-49.5
 21
-827.25
 31
0.0
  0
ARC
  5
D7
  8
DATA
  6
CONTINUOUS
 62
     7
 10
-56.5
 20
-572.75
 30
0.0
 40
7.0
 50
0.0
 51
90.0
  0
LINE
  5
D8
  8
DATA
  6
CONTINUOUS
 62
     7
 10
-193.5
 20
-565.75
 30
0.0
 11
-56.5
 21
-565.75
 31
0.0
  0
ARC
  5
D9
  8
DATA
  6
CONTINUOUS
 62
     7
 10
-193.5
 20
-572.75
 30
0.0
 40
7.0
 50
90.0
 51
180.0
  0
LINE
  5
DA
  8
DATA
  6
CONTINUOUS
 62
     7
 10
-76.5
 20
-810.0
 30
0.0
 11
-173.5
 21
-810.0
 31
0.0
  0
LINE
  5
DB
  8
DATA
  6
CONTINUOUS
 62
     7
 10
-173.5
 20
-590.0
 30
0.0
 11
-76.5
 21
-590.0
 31
0.0
  0
ARC
  5
DC
  8
DATA
  6
CONTINUOUS
 62
     7
 10
-185.0
 20
-632.10029585796
 30
0.0
 40
0.2797041420059878
 50
189.5720101113174
 51
350.4279898886826
  0
ARC
  5
DD
  8
DATA
  6
CONTINUOUS
 62
     7
 10
-184.078905325463
 20
-632.3453827748792
 30
0.0
 40
0.6751479289800464
 50
77.10488551045492
 51
162.8951144895488
  0
ARC
  5
DE
  8
DATA
  6
CONTINUOUS
 62
     7
 10
-185.921094674537
 20
-632.3453827748792
 30
0.0
 40
0.6751479289799812
 50
17.10488551045119
 51
102.8951144895475
  0
ARC
  5
DF
  8
DATA
  6
CONTINUOUS
 62
     7
 10
-183.157810650926
 20
-630.75
 30
0.0
 40
0.6751479289799744
 50
137.1048855104553
 51
222.8951144895464
  0
ARC
  5
E0
  8
DATA
  6
CONTINUOUS
 62
     7
 10
-183.8306094843817
 20
-631.42514792898
 30
0.0
 40
0.2797041420059809
 50
249.5720101113054
 51
50.42798988870217
  0
ARC
  5
E1
  8
DATA
  6
CONTINUOUS
 62
     7
 10
-184.078905325463
 20
-629.1546172251208
 30
0.0
 40
0.6751479289800418
 50
197.1048855104597
 51
282.8951144895474
  0
ARC
  5
E2
  8
DATA
  6
CONTINUOUS
 62
     7
 10
-183.8306094843817
 20
-630.07485207102
 30
0.0
 40
0.2797041420060216
 50
309.5720101112978
 51
110.4279898887
  0
ARC
  5
E3
  8
DATA
  6
CONTINUOUS
 62
     7
 10
-186.842189349074
 20
-630.75
 30
0.0
 40
0.6751479289799744
 50
317.1048855104553
 51
42.89511448954466
  0
ARC
  5
E4
  8
DATA
  6
CONTINUOUS
 62
     7
 10
-185.0
 20
-629.39970414204
 30
0.0
 40
0.2797041420059689
 50
9.572010111294457
 51
170.4279898887056
  0
ARC
  5
E5
  8
DATA
  6
CONTINUOUS
 62
     7
 10
-185.921094674537
 20
-629.1546172251208
 30
0.0
 40
0.6751479289800464
 50
257.1048855104549
 51
342.8951144895403
  0
ARC
  5
E6
  8
DATA
  6
CONTINUOUS
 62
     7
 10
-186.1693905156183
 20
-630.07485207102
 30
0.0
 40
0.2797041420059908
 50
69.57201011130005
 51
230.4279898887022
  0
ARC
  5
E7
  8
DATA
  6
CONTINUOUS
 62
     7
 10
-186.1693905156183
 20
-631.4251479289801
 30
0.0
 40
0.2797041420061273
 50
129.5720101112875
 51
290.4279898887081
  0
CIRCLE
  5
E8
  8
DATA
  6
CONTINUOUS
 62
     7
 10
-185.0
 20
-630.75
 30
0.0
 40
4.0
  0
ARC
  5
E9
  8
DATA
  6
CONTINUOUS
 62
     7
 10
-65.0
 20
-632.10029585796
 30
0.0
 40
0.2797041420059878
 50
189.5720101113174
 51
350.4279898886826
  0
ARC
  5
EA
  8
DATA
  6
CONTINUOUS
 62
     7
 10
-64.07890532546298
 20
-632.3453827748792
 30
0.0
 40
0.6751479289800464
 50
77.10488551045492
 51
162.8951144895488
  0
ARC
  5
EB
  8
DATA
  6
CONTINUOUS
 62
     7
 10
-65.92109467453702
 20
-632.3453827748792
 30
0.0
 40
0.6751479289800355
 50
17.10488551044977
 51
102.8951144895451
  0
ARC
  5
EC
  8
DATA
  6
CONTINUOUS
 62
     7
 10
-63.15781065092597
 20
-630.75
 30
0.0
 40
0.6751479289800161
 50
137.1048855104586
 51
222.8951144895447
  0
ARC
  5
ED
  8
DATA
  6
CONTINUOUS
 62
     7
 10
-63.83060948438174
 20
-631.42514792898
 30
0.0
 40
0.2797041420059908
 50
249.5720101113
 51
50.42798988870666
  0
ARC
  5
EE
  8
DATA
  6
CONTINUOUS
 62
     7
 10
-64.07890532546298
 20
-629.1546172251208
 30
0.0
 40
0.6751479289800689
 50
197.104885510459
 51
282.8951144895451
  0
ARC
  5
EF
  8
DATA
  6
CONTINUOUS
 62
     7
 10
-63.83060948438174
 20
-630.07485207102
 30
0.0
 40
0.2797041420060035
 50
309.5720101112933
 51
110.4279898887
  0
ARC
  5
F0
  8
DATA
  6
CONTINUOUS
 62
     7
 10
-66.84218934907403
 20
-630.75
 30
0.0
 40
0.6751479289800161
 50
317.1048855104586
 51
42.89511448954141
  0
ARC
  5
F1
  8
DATA
  6
CONTINUOUS
 62
     7
 10
-65.0
 20
-629.39970414204
 30
0.0
 40
0.2797041420059689
 50
9.572010111294457
 51
170.4279898887056
  0
ARC
  5
F2
  8
DATA
  6
CONTINUOUS
 62
     7
 10
-65.92109467453702
 20
-629.1546172251208
 30
0.0
 40
0.6751479289800464
 50
257.1048855104549
 51
342.895114489541
  0
ARC
  5
F3
  8
DATA
  6
CONTINUOUS
 62
     7
 10
-66.16939051561826
 20
-630.07485207102
 30
0.0
 40
0.2797041420059908
 50
69.57201011130005
 51
230.4279898887067
  0
ARC
  5
F4
  8
DATA
  6
CONTINUOUS
 62
     7
 10
-66.16939051561826
 20
-631.4251479289801
 30
0.0
 40
0.2797041420061273
 50
129.5720101112875
 51
290.4279898887081
  0
CIRCLE
  5
F5
  8
DATA
  6
CONTINUOUS
 62
     7
 10
-65.0
 20
-630.75
 30
0.0
 40
4.0
  0
ARC
  5
F6
  8
DATA
  6
CONTINUOUS
 62
     7
 10
-185.0
 20
-752.10029585796
 30
0.0
 40
0.2797041420059878
 50
189.5720101113174
 51
350.4279898886826
  0
ARC
  5
F7
  8
DATA
  6
CONTINUOUS
 62
     7
 10
-184.078905325463
 20
-752.3453827748792
 30
0.0
 40
0.6751479289800464
 50
77.10488551045492
 51
162.8951144895488
  0
ARC
  5
F8
  8
DATA
  6
CONTINUOUS
 62
     7
 10
-185.921094674537
 20
-752.3453827748792
 30
0.0
 40
0.6751479289799812
 50
17.10488551045119
 51
102.8951144895475
  0
ARC
  5
F9
  8
DATA
  6
CONTINUOUS
 62
     7
 10
-183.157810650926
 20
-750.75
 30
0.0
 40
0.6751479289799744
 50
137.1048855104553
 51
222.8951144895464
  0
ARC
  5
FA
  8
DATA
  6
CONTINUOUS
 62
     7
 10
-183.8306094843817
 20
-751.42514792898
 30
0.0
 40
0.2797041420059809
 50
249.5720101113054
 51
50.42798988870217
  0
ARC
  5
FB
  8
DATA
  6
CONTINUOUS
 62
     7
 10
-184.078905325463
 20
-749.1546172251208
 30
0.0
 40
0.6751479289800418
 50
197.1048855104597
 51
282.8951144895474
  0
ARC
  5
FC
  8
DATA
  6
CONTINUOUS
 62
     7
 10
-183.8306094843817
 20
-750.07485207102
 30
0.0
 40
0.2797041420060216
 50
309.5720101112978
 51
110.4279898887
  0
ARC
  5
FD
  8
DATA
  6
CONTINUOUS
 62
     7
 10
-186.842189349074
 20
-750.75
 30
0.0
 40
0.6751479289799744
 50
317.1048855104553
 51
42.89511448954466
  0
ARC
  5
FE
  8
DATA
  6
CONTINUOUS
 62
     7
 10
-185.0
 20
-749.39970414204
 30
0.0
 40
0.2797041420059689
 50
9.572010111294457
 51
170.4279898887056
  0
ARC
  5
FF
  8
DATA
  6
CONTINUOUS
 62
     7
 10
-185.921094674537
 20
-749.1546172251208
 30
0.0
 40
0.6751479289800464
 50
257.1048855104549
 51
342.8951144895403
  0
ARC
  5
100
  8
DATA
  6
CONTINUOUS
 62
     7
 10
-186.1693905156183
 20
-750.07485207102
 30
0.0
 40
0.2797041420059908
 50
69.57201011130005
 51
230.4279898887022
  0
ARC
  5
101
  8
DATA
  6
CONTINUOUS
 62
     7
 10
-186.1693905156183
 20
-751.4251479289801
 30
0.0
 40
0.2797041420061273
 50
129.5720101112875
 51
290.4279898887081
  0
CIRCLE
  5
102
  8
DATA
  6
CONTINUOUS
 62
     7
 10
-185.0
 20
-750.75
 30
0.0
 40
4.0
  0
ARC
  5
103
  8
DATA
  6
CONTINUOUS
 62
     7
 10
-65.0
 20
-752.10029585796
 30
0.0
 40
0.2797041420059878
 50
189.5720101113174
 51
350.4279898886826
  0
ARC
  5
104
  8
DATA
  6
CONTINUOUS
 62
     7
 10
-64.07890532546298
 20
-752.3453827748792
 30
0.0
 40
0.6751479289800464
 50
77.10488551045492
 51
162.8951144895488
  0
ARC
  5
105
  8
DATA
  6
CONTINUOUS
 62
     7
 10
-65.92109467453702
 20
-752.3453827748792
 30
0.0
 40
0.6751479289800355
 50
17.10488551044977
 51
102.8951144895451
  0
ARC
  5
106
  8
DATA
  6
CONTINUOUS
 62
     7
 10
-63.15781065092597
 20
-750.75
 30
0.0
 40
0.6751479289800161
 50
137.1048855104586
 51
222.8951144895447
  0
ARC
  5
107
  8
DATA
  6
CONTINUOUS
 62
     7
 10
-63.83060948438174
 20
-751.42514792898
 30
0.0
 40
0.2797041420059908
 50
249.5720101113
 51
50.42798988870666
  0
ARC
  5
108
  8
DATA
  6
CONTINUOUS
 62
     7
 10
-64.07890532546298
 20
-749.1546172251208
 30
0.0
 40
0.6751479289800689
 50
197.104885510459
 51
282.8951144895451
  0
ARC
  5
109
  8
DATA
  6
CONTINUOUS
 62
     7
 10
-63.83060948438174
 20
-750.07485207102
 30
0.0
 40
0.2797041420060035
 50
309.5720101112933
 51
110.4279898887
  0
ARC
  5
10A
  8
DATA
  6
CONTINUOUS
 62
     7
 10
-66.84218934907403
 20
-750.75
 30
0.0
 40
0.6751479289800161
 50
317.1048855104586
 51
42.89511448954141
  0
ARC
  5
10B
  8
DATA
  6
CONTINUOUS
 62
     7
 10
-65.0
 20
-749.39970414204
 30
0.0
 40
0.2797041420059689
 50
9.572010111294457
 51
170.4279898887056
  0
ARC
  5
10C
  8
DATA
  6
CONTINUOUS
 62
     7
 10
-65.92109467453702
 20
-749.1546172251208
 30
0.0
 40
0.6751479289800464
 50
257.1048855104549
 51
342.895114489541
  0
ARC
  5
10D
  8
DATA
  6
CONTINUOUS
 62
     7
 10
-66.16939051561826
 20
-750.07485207102
 30
0.0
 40
0.2797041420059908
 50
69.57201011130005
 51
230.4279898887067
  0
ARC
  5
10E
  8
DATA
  6
CONTINUOUS
 62
     7
 10
-66.16939051561826
 20
-751.4251479289801
 30
0.0
 40
0.2797041420061273
 50
129.5720101112875
 51
290.4279898887081
  0
CIRCLE
  5
10F
  8
DATA
  6
CONTINUOUS
 62
     7
 10
-65.0
 20
-750.75
 30
0.0
 40
4.0
  0
ARC
  5
110
  8
DATA
  6
CONTINUOUS
 62
     7
 10
-160.0
 20
-582.35029585796
 30
0.0
 40
0.2797041420059878
 50
189.5720101113174
 51
350.4279898886826
  0
ARC
  5
111
  8
DATA
  6
CONTINUOUS
 62
     7
 10
-159.078905325463
 20
-582.5953827748792
 30
0.0
 40
0.6751479289800464
 50
77.10488551045492
 51
162.8951144895488
  0
ARC
  5
112
  8
DATA
  6
CONTINUOUS
 62
     7
 10
-160.921094674537
 20
-582.5953827748792
 30
0.0
 40
0.6751479289799812
 50
17.10488551045119
 51
102.8951144895475
  0
ARC
  5
113
  8
DATA
  6
CONTINUOUS
 62
     7
 10
-158.157810650926
 20
-581.0
 30
0.0
 40
0.6751479289799744
 50
137.1048855104553
 51
222.8951144895464
  0
ARC
  5
114
  8
DATA
  6
CONTINUOUS
 62
     7
 10
-158.8306094843817
 20
-581.67514792898
 30
0.0
 40
0.2797041420059809
 50
249.5720101113054
 51
50.42798988870217
  0
ARC
  5
115
  8
DATA
  6
CONTINUOUS
 62
     7
 10
-159.078905325463
 20
-579.4046172251208
 30
0.0
 40
0.6751479289800418
 50
197.1048855104597
 51
282.8951144895474
  0
ARC
  5
116
  8
DATA
  6
CONTINUOUS
 62
     7
 10
-158.8306094843817
 20
-580.32485207102
 30
0.0
 40
0.2797041420060216
 50
309.5720101112978
 51
110.4279898887
  0
ARC
  5
117
  8
DATA
  6
CONTINUOUS
 62
     7
 10
-161.842189349074
 20
-581.0
 30
0.0
 40
0.6751479289799744
 50
317.1048855104553
 51
42.89511448954466
  0
ARC
  5
118
  8
DATA
  6
CONTINUOUS
 62
     7
 10
-160.0
 20
-579.64970414204
 30
0.0
 40
0.2797041420059689
 50
9.572010111294457
 51
170.4279898887056
  0
ARC
  5
119
  8
DATA
  6
CONTINUOUS
 62
     7
 10
-160.921094674537
 20
-579.4046172251208
 30
0.0
 40
0.6751479289800464
 50
257.1048855104549
 51
342.8951144895403
  0
ARC
  5
11A
  8
DATA
  6
CONTINUOUS
 62
     7
 10
-161.1693905156183
 20
-580.32485207102
 30
0.0
 40
0.2797041420059908
 50
69.57201011130005
 51
230.4279898887022
  0
ARC
  5
11B
  8
DATA
  6
CONTINUOUS
 62
     7
 10
-161.1693905156183
 20
-581.6751479289801
 30
0.0
 40
0.2797041420061273
 50
129.5720101112875
 51
290.4279898887081
  0
CIRCLE
  5
11C
  8
DATA
  6
CONTINUOUS
 62
     7
 10
-160.0
 20
-581.0
 30
0.0
 40
4.0
  0
ARC
  5
11D
  8
DATA
  6
CONTINUOUS
 62
     7
 10
-90.0
 20
-582.35029585796
 30
0.0
 40
0.2797041420059878
 50
189.5720101113174
 51
350.4279898886826
  0
ARC
  5
11E
  8
DATA
  6
CONTINUOUS
 62
     7
 10
-89.07890532546298
 20
-582.5953827748792
 30
0.0
 40
0.6751479289800464
 50
77.10488551045492
 51
162.8951144895488
  0
ARC
  5
11F
  8
DATA
  6
CONTINUOUS
 62
     7
 10
-90.92109467453702
 20
-582.5953827748792
 30
0.0
 40
0.6751479289800355
 50
17.10488551044977
 51
102.8951144895451
  0
ARC
  5
120
  8
DATA
  6
CONTINUOUS
 62
     7
 10
-88.15781065092597
 20
-581.0
 30
0.0
 40
0.6751479289800161
 50
137.1048855104586
 51
222.8951144895447
  0
ARC
  5
121
  8
DATA
  6
CONTINUOUS
 62
     7
 10
-88.83060948438174
 20
-581.67514792898
 30
0.0
 40
0.2797041420059908
 50
249.5720101113
 51
50.42798988870666
  0
ARC
  5
122
  8
DATA
  6
CONTINUOUS
 62
     7
 10
-89.07890532546298
 20
-579.4046172251208
 30
0.0
 40
0.6751479289800689
 50
197.104885510459
 51
282.8951144895451
  0
ARC
  5
123
  8
DATA
  6
CONTINUOUS
 62
     7
 10
-88.83060948438174
 20
-580.32485207102
 30
0.0
 40
0.2797041420060035
 50
309.5720101112933
 51
110.4279898887
  0
ARC
  5
124
  8
DATA
  6
CONTINUOUS
 62
     7
 10
-91.84218934907403
 20
-581.0
 30
0.0
 40
0.6751479289800161
 50
317.1048855104586
 51
42.89511448954141
  0
ARC
  5
125
  8
DATA
  6
CONTINUOUS
 62
     7
 10
-90.0
 20
-579.64970414204
 30
0.0
 40
0.2797041420059689
 50
9.572010111294457
 51
170.4279898887056
  0
ARC
  5
126
  8
DATA
  6
CONTINUOUS
 62
     7
 10
-90.92109467453702
 20
-579.4046172251208
 30
0.0
 40
0.6751479289800464
 50
257.1048855104549
 51
342.895114489541
  0
ARC
  5
127
  8
DATA
  6
CONTINUOUS
 62
     7
 10
-91.16939051561826
 20
-580.32485207102
 30
0.0
 40
0.2797041420059908
 50
69.57201011130005
 51
230.4279898887067
  0
ARC
  5
128
  8
DATA
  6
CONTINUOUS
 62
     7
 10
-91.16939051561826
 20
-581.6751479289801
 30
0.0
 40
0.2797041420061273
 50
129.5720101112875
 51
290.4279898887081
  0
CIRCLE
  5
129
  8
DATA
  6
CONTINUOUS
 62
     7
 10
-90.0
 20
-581.0
 30
0.0
 40
4.0
  0
ARC
  5
12A
  8
DATA
  6
CONTINUOUS
 62
     7
 10
-160.0
 20
-820.35029585796
 30
0.0
 40
0.2797041420059878
 50
189.5720101113174
 51
350.4279898886826
  0
ARC
  5
12B
  8
DATA
  6
CONTINUOUS
 62
     7
 10
-159.078905325463
 20
-820.5953827748792
 30
0.0
 40
0.6751479289800464
 50
77.10488551045492
 51
162.8951144895488
  0
ARC
  5
12C
  8
DATA
  6
CONTINUOUS
 62
     7
 10
-160.921094674537
 20
-820.5953827748792
 30
0.0
 40
0.6751479289799812
 50
17.10488551045119
 51
102.8951144895475
  0
ARC
  5
12D
  8
DATA
  6
CONTINUOUS
 62
     7
 10
-158.157810650926
 20
-819.0
 30
0.0
 40
0.6751479289799744
 50
137.1048855104553
 51
222.8951144895464
  0
ARC
  5
12E
  8
DATA
  6
CONTINUOUS
 62
     7
 10
-158.8306094843817
 20
-819.67514792898
 30
0.0
 40
0.2797041420059809
 50
249.5720101113054
 51
50.42798988870217
  0
ARC
  5
12F
  8
DATA
  6
CONTINUOUS
 62
     7
 10
-159.078905325463
 20
-817.4046172251208
 30
0.0
 40
0.6751479289800418
 50
197.1048855104597
 51
282.8951144895474
  0
ARC
  5
130
  8
DATA
  6
CONTINUOUS
 62
     7
 10
-158.8306094843817
 20
-818.32485207102
 30
0.0
 40
0.2797041420060216
 50
309.5720101112978
 51
110.4279898887
  0
ARC
  5
131
  8
DATA
  6
CONTINUOUS
 62
     7
 10
-161.842189349074
 20
-819.0
 30
0.0
 40
0.6751479289799744
 50
317.1048855104553
 51
42.89511448954466
  0
ARC
  5
132
  8
DATA
  6
CONTINUOUS
 62
     7
 10
-160.0
 20
-817.64970414204
 30
0.0
 40
0.2797041420059689
 50
9.572010111294457
 51
170.4279898887056
  0
ARC
  5
133
  8
DATA
  6
CONTINUOUS
 62
     7
 10
-160.921094674537
 20
-817.4046172251208
 30
0.0
 40
0.6751479289800464
 50
257.1048855104549
 51
342.8951144895403
  0
ARC
  5
134
  8
DATA
  6
CONTINUOUS
 62
     7
 10
-161.1693905156183
 20
-818.32485207102
 30
0.0
 40
0.2797041420059908
 50
69.57201011130005
 51
230.4279898887022
  0
ARC
  5
135
  8
DATA
  6
CONTINUOUS
 62
     7
 10
-161.1693905156183
 20
-819.6751479289801
 30
0.0
 40
0.2797041420061273
 50
129.5720101112875
 51
290.4279898887081
  0
CIRCLE
  5
136
  8
DATA
  6
CONTINUOUS
 62
     7
 10
-160.0
 20
-819.0
 30
0.0
 40
4.0
  0
ARC
  5
137
  8
DATA
  6
CONTINUOUS
 62
     7
 10
-90.0
 20
-820.35029585796
 30
0.0
 40
0.2797041420059878
 50
189.5720101113174
 51
350.4279898886826
  0
ARC
  5
138
  8
DATA
  6
CONTINUOUS
 62
     7
 10
-89.07890532546298
 20
-820.5953827748792
 30
0.0
 40
0.6751479289800464
 50
77.10488551045492
 51
162.8951144895488
  0
ARC
  5
139
  8
DATA
  6
CONTINUOUS
 62
     7
 10
-90.92109467453702
 20
-820.5953827748792
 30
0.0
 40
0.6751479289800355
 50
17.10488551044977
 51
102.8951144895451
  0
ARC
  5
13A
  8
DATA
  6
CONTINUOUS
 62
     7
 10
-88.15781065092597
 20
-819.0
 30
0.0
 40
0.6751479289800161
 50
137.1048855104586
 51
222.8951144895447
  0
ARC
  5
13B
  8
DATA
  6
CONTINUOUS
 62
     7
 10
-88.83060948438174
 20
-819.67514792898
 30
0.0
 40
0.2797041420059908
 50
249.5720101113
 51
50.42798988870666
  0
ARC
  5
13C
  8
DATA
  6
CONTINUOUS
 62
     7
 10
-89.07890532546298
 20
-817.4046172251208
 30
0.0
 40
0.6751479289800689
 50
197.104885510459
 51
282.8951144895451
  0
ARC
  5
13D
  8
DATA
  6
CONTINUOUS
 62
     7
 10
-88.83060948438174
 20
-818.32485207102
 30
0.0
 40
0.2797041420060035
 50
309.5720101112933
 51
110.4279898887
  0
ARC
  5
13E
  8
DATA
  6
CONTINUOUS
 62
     7
 10
-91.84218934907403
 20
-819.0
 30
0.0
 40
0.6751479289800161
 50
317.1048855104586
 51
42.89511448954141
  0
ARC
  5
13F
  8
DATA
  6
CONTINUOUS
 62
     7
 10
-90.0
 20
-817.64970414204
 30
0.0
 40
0.2797041420059689
 50
9.572010111294457
 51
170.4279898887056
  0
ARC
  5
140
  8
DATA
  6
CONTINUOUS
 62
     7
 10
-90.92109467453702
 20
-817.4046172251208
 30
0.0
 40
0.6751479289800464
 50
257.1048855104549
 51
342.895114489541
  0
ARC
  5
141
  8
DATA
  6
CONTINUOUS
 62
     7
 10
-91.16939051561826
 20
-818.32485207102
 30
0.0
 40
0.2797041420059908
 50
69.57201011130005
 51
230.4279898887067
  0
ARC
  5
142
  8
DATA
  6
CONTINUOUS
 62
     7
 10
-91.16939051561826
 20
-819.6751479289801
 30
0.0
 40
0.2797041420061273
 50
129.5720101112875
 51
290.4279898887081
  0
CIRCLE
  5
143
  8
DATA
  6
CONTINUOUS
 62
     7
 10
-90.0
 20
-819.0
 30
0.0
 40
4.0
  0
LINE
  5
144
  8
DATA
  6
CONTINUOUS
 62
     7
 10
-127.6499999999994
 20
-600.15
 30
0.0
 11
-142.3500000000006
 21
-600.15
 31
0.0
  0
LINE
  5
145
  8
DATA
  6
CONTINUOUS
 62
     7
 10
-142.3500000000006
 20
-598.35
 30
0.0
 11
-127.6499999999994
 21
-598.35
 31
0.0
  0
ARC
  5
146
  8
DATA
  6
CONTINUOUS
 62
     7
 10
-142.3500000000006
 20
-599.25
 30
0.0
 40
0.8999999999999773
 50
90.0
 51
270.0
  0
ARC
  5
147
  8
DATA
  6
CONTINUOUS
 62
     7
 10
-127.6499999999994
 20
-599.25
 30
0.0
 40
0.8999999999999773
 50
270.0
 51
90.0
  0
LINE
  5
148
  8
DATA
  6
CONTINUOUS
 62
     7
 10
-107.6499999999994
 20
-600.15
 30
0.0
 11
-122.3500000000006
 21
-600.15
 31
0.0
  0
LINE
  5
149
  8
DATA
  6
CONTINUOUS
 62
     7
 10
-122.3500000000006
 20
-598.35
 30
0.0
 11
-107.6499999999994
 21
-598.35
 31
0.0
  0
ARC
  5
14A
  8
DATA
  6
CONTINUOUS
 62
     7
 10
-122.3500000000006
 20
-599.25
 30
0.0
 40
0.8999999999999773
 50
90.0
 51
270.0
  0
ARC
  5
14B
  8
DATA
  6
CONTINUOUS
 62
     7
 10
-107.6499999999994
 20
-599.25
 30
0.0
 40
0.8999999999999773
 50
270.0
 51
90.0
  0
LINE
  5
14C
  8
DATA
  6
CONTINUOUS
 62
     7
 10
-147.6499999999994
 20
-600.15
 30
0.0
 11
-162.3500000000006
 21
-600.15
 31
0.0
  0
LINE
  5
14D
  8
DATA
  6
CONTINUOUS
 62
     7
 10
-162.3500000000006
 20
-598.35
 30
0.0
 11
-147.6499999999994
 21
-598.35
 31
0.0
  0
ARC
  5
14E
  8
DATA
  6
CONTINUOUS
 62
     7
 10
-162.3500000000006
 20
-599.25
 30
0.0
 40
0.8999999999999773
 50
90.0
 51
270.0
  0
ARC
  5
14F
  8
DATA
  6
CONTINUOUS
 62
     7
 10
-147.6499999999994
 20
-599.25
 30
0.0
 40
0.8999999999999773
 50
270.0
 51
90.0
  0
LINE
  5
150
  8
DATA
  6
CONTINUOUS
 62
     7
 10
-87.64999999999935
 20
-600.15
 30
0.0
 11
-102.3500000000006
 21
-600.15
 31
0.0
  0
LINE
  5
151
  8
DATA
  6
CONTINUOUS
 62
     7
 10
-102.3500000000006
 20
-598.35
 30
0.0
 11
-87.64999999999935
 21
-598.35
 31
0.0
  0
ARC
  5
152
  8
DATA
  6
CONTINUOUS
 62
     7
 10
-102.3500000000006
 20
-599.25
 30
0.0
 40
0.8999999999999773
 50
90.0
 51
270.0
  0
ARC
  5
153
  8
DATA
  6
CONTINUOUS
 62
     7
 10
-87.64999999999935
 20
-599.25
 30
0.0
 40
0.8999999999999773
 50
270.0
 51
90.0
  0
LINE
  5
154
  8
DATA
  6
CONTINUOUS
 62
     7
 10
-127.6499999999994
 20
-605.15
 30
0.0
 11
-142.3500000000006
 21
-605.15
 31
0.0
  0
LINE
  5
155
  8
DATA
  6
CONTINUOUS
 62
     7
 10
-142.3500000000006
 20
-603.35
 30
0.0
 11
-127.6499999999994
 21
-603.35
 31
0.0
  0
ARC
  5
156
  8
DATA
  6
CONTINUOUS
 62
     7
 10
-142.3500000000006
 20
-604.25
 30
0.0
 40
0.8999999999999773
 50
90.0
 51
270.0
  0
ARC
  5
157
  8
DATA
  6
CONTINUOUS
 62
     7
 10
-127.6499999999994
 20
-604.25
 30
0.0
 40
0.8999999999999773
 50
270.0
 51
90.0
  0
LINE
  5
158
  8
DATA
  6
CONTINUOUS
 62
     7
 10
-107.6499999999994
 20
-605.15
 30
0.0
 11
-122.3500000000006
 21
-605.15
 31
0.0
  0
LINE
  5
159
  8
DATA
  6
CONTINUOUS
 62
     7
 10
-122.3500000000006
 20
-603.35
 30
0.0
 11
-107.6499999999994
 21
-603.35
 31
0.0
  0
ARC
  5
15A
  8
DATA
  6
CONTINUOUS
 62
     7
 10
-122.3500000000006
 20
-604.25
 30
0.0
 40
0.8999999999999773
 50
90.0
 51
270.0
  0
ARC
  5
15B
  8
DATA
  6
CONTINUOUS
 62
     7
 10
-107.6499999999994
 20
-604.25
 30
0.0
 40
0.8999999999999773
 50
270.0
 51
90.0
  0
LINE
  5
15C
  8
DATA
  6
CONTINUOUS
 62
     7
 10
-147.6499999999994
 20
-605.15
 30
0.0
 11
-162.3500000000006
 21
-605.15
 31
0.0
  0
LINE
  5
15D
  8
DATA
  6
CONTINUOUS
 62
     7
 10
-162.3500000000006
 20
-603.35
 30
0.0
 11
-147.6499999999994
 21
-603.35
 31
0.0
  0
ARC
  5
15E
  8
DATA
  6
CONTINUOUS
 62
     7
 10
-162.3500000000006
 20
-604.25
 30
0.0
 40
0.8999999999999773
 50
90.0
 51
270.0
  0
ARC
  5
15F
  8
DATA
  6
CONTINUOUS
 62
     7
 10
-147.6499999999994
 20
-604.25
 30
0.0
 40
0.8999999999999773
 50
270.0
 51
90.0
  0
LINE
  5
160
  8
DATA
  6
CONTINUOUS
 62
     7
 10
-87.64999999999935
 20
-605.15
 30
0.0
 11
-102.3500000000006
 21
-605.15
 31
0.0
  0
LINE
  5
161
  8
DATA
  6
CONTINUOUS
 62
     7
 10
-102.3500000000006
 20
-603.35
 30
0.0
 11
-87.64999999999935
 21
-603.35
 31
0.0
  0
ARC
  5
162
  8
DATA
  6
CONTINUOUS
 62
     7
 10
-102.3500000000006
 20
-604.25
 30
0.0
 40
0.8999999999999773
 50
90.0
 51
270.0
  0
ARC
  5
163
  8
DATA
  6
CONTINUOUS
 62
     7
 10
-87.64999999999935
 20
-604.25
 30
0.0
 40
0.8999999999999773
 50
270.0
 51
90.0
  0
LINE
  5
164
  8
DATA
  6
CONTINUOUS
 62
     7
 10
-127.6499999999994
 20
-610.15
 30
0.0
 11
-142.3500000000006
 21
-610.15
 31
0.0
  0
LINE
  5
165
  8
DATA
  6
CONTINUOUS
 62
     7
 10
-142.3500000000006
 20
-608.35
 30
0.0
 11
-127.6499999999994
 21
-608.35
 31
0.0
  0
ARC
  5
166
  8
DATA
  6
CONTINUOUS
 62
     7
 10
-142.3500000000006
 20
-609.25
 30
0.0
 40
0.8999999999999773
 50
90.0
 51
270.0
  0
ARC
  5
167
  8
DATA
  6
CONTINUOUS
 62
     7
 10
-127.6499999999994
 20
-609.25
 30
0.0
 40
0.8999999999999773
 50
270.0
 51
90.0
  0
LINE
  5
168
  8
DATA
  6
CONTINUOUS
 62
     7
 10
-107.6499999999994
 20
-610.15
 30
0.0
 11
-122.3500000000006
 21
-610.15
 31
0.0
  0
LINE
  5
169
  8
DATA
  6
CONTINUOUS
 62
     7
 10
-122.3500000000006
 20
-608.35
 30
0.0
 11
-107.6499999999994
 21
-608.35
 31
0.0
  0
ARC
  5
16A
  8
DATA
  6
CONTINUOUS
 62
     7
 10
-122.3500000000006
 20
-609.25
 30
0.0
 40
0.8999999999999773
 50
90.0
 51
270.0
  0
ARC
  5
16B
  8
DATA
  6
CONTINUOUS
 62
     7
 10
-107.6499999999994
 20
-609.25
 30
0.0
 40
0.8999999999999773
 50
270.0
 51
90.0
  0
LINE
  5
16C
  8
DATA
  6
CONTINUOUS
 62
     7
 10
-147.6499999999994
 20
-610.15
 30
0.0
 11
-162.3500000000006
 21
-610.15
 31
0.0
  0
LINE
  5
16D
  8
DATA
  6
CONTINUOUS
 62
     7
 10
-162.3500000000006
 20
-608.35
 30
0.0
 11
-147.6499999999994
 21
-608.35
 31
0.0
  0
ARC
  5
16E
  8
DATA
  6
CONTINUOUS
 62
     7
 10
-162.3500000000006
 20
-609.25
 30
0.0
 40
0.8999999999999773
 50
90.0
 51
270.0
  0
ARC
  5
16F
  8
DATA
  6
CONTINUOUS
 62
     7
 10
-147.6499999999994
 20
-609.25
 30
0.0
 40
0.8999999999999773
 50
270.0
 51
90.0
  0
LINE
  5
170
  8
DATA
  6
CONTINUOUS
 62
     7
 10
-87.64999999999935
 20
-610.15
 30
0.0
 11
-102.3500000000006
 21
-610.15
 31
0.0
  0
LINE
  5
171
  8
DATA
  6
CONTINUOUS
 62
     7
 10
-102.3500000000006
 20
-608.35
 30
0.0
 11
-87.64999999999935
 21
-608.35
 31
0.0
  0
ARC
  5
172
  8
DATA
  6
CONTINUOUS
 62
     7
 10
-102.3500000000006
 20
-609.25
 30
0.0
 40
0.8999999999999773
 50
90.0
 51
270.0
  0
ARC
  5
173
  8
DATA
  6
CONTINUOUS
 62
     7
 10
-87.64999999999935
 20
-609.25
 30
0.0
 40
0.8999999999999773
 50
270.0
 51
90.0
  0
LINE
  5
174
  8
DATA
  6
CONTINUOUS
 62
     7
 10
-127.6499999999994
 20
-615.15
 30
0.0
 11
-142.3500000000006
 21
-615.15
 31
0.0
  0
LINE
  5
175
  8
DATA
  6
CONTINUOUS
 62
     7
 10
-142.3500000000006
 20
-613.35
 30
0.0
 11
-127.6499999999994
 21
-613.35
 31
0.0
  0
ARC
  5
176
  8
DATA
  6
CONTINUOUS
 62
     7
 10
-142.3500000000006
 20
-614.25
 30
0.0
 40
0.8999999999999773
 50
90.0
 51
270.0
  0
ARC
  5
177
  8
DATA
  6
CONTINUOUS
 62
     7
 10
-127.6499999999994
 20
-614.25
 30
0.0
 40
0.8999999999999773
 50
270.0
 51
90.0
  0
LINE
  5
178
  8
DATA
  6
CONTINUOUS
 62
     7
 10
-107.6499999999994
 20
-615.15
 30
0.0
 11
-122.3500000000006
 21
-615.15
 31
0.0
  0
LINE
  5
179
  8
DATA
  6
CONTINUOUS
 62
     7
 10
-122.3500000000006
 20
-613.35
 30
0.0
 11
-107.6499999999994
 21
-613.35
 31
0.0
  0
ARC
  5
17A
  8
DATA
  6
CONTINUOUS
 62
     7
 10
-122.3500000000006
 20
-614.25
 30
0.0
 40
0.8999999999999773
 50
90.0
 51
270.0
  0
ARC
  5
17B
  8
DATA
  6
CONTINUOUS
 62
     7
 10
-107.6499999999994
 20
-614.25
 30
0.0
 40
0.8999999999999773
 50
270.0
 51
90.0
  0
LINE
  5
17C
  8
DATA
  6
CONTINUOUS
 62
     7
 10
-147.6499999999994
 20
-615.15
 30
0.0
 11
-162.3500000000006
 21
-615.15
 31
0.0
  0
LINE
  5
17D
  8
DATA
  6
CONTINUOUS
 62
     7
 10
-162.3500000000006
 20
-613.35
 30
0.0
 11
-147.6499999999994
 21
-613.35
 31
0.0
  0
ARC
  5
17E
  8
DATA
  6
CONTINUOUS
 62
     7
 10
-162.3500000000006
 20
-614.25
 30
0.0
 40
0.8999999999999773
 50
90.0
 51
270.0
  0
ARC
  5
17F
  8
DATA
  6
CONTINUOUS
 62
     7
 10
-147.6499999999994
 20
-614.25
 30
0.0
 40
0.8999999999999773
 50
270.0
 51
90.0
  0
LINE
  5
180
  8
DATA
  6
CONTINUOUS
 62
     7
 10
-87.64999999999935
 20
-615.15
 30
0.0
 11
-102.3500000000006
 21
-615.15
 31
0.0
  0
LINE
  5
181
  8
DATA
  6
CONTINUOUS
 62
     7
 10
-102.3500000000006
 20
-613.35
 30
0.0
 11
-87.64999999999935
 21
-613.35
 31
0.0
  0
ARC
  5
182
  8
DATA
  6
CONTINUOUS
 62
     7
 10
-102.3500000000006
 20
-614.25
 30
0.0
 40
0.8999999999999773
 50
90.0
 51
270.0
  0
ARC
  5
183
  8
DATA
  6
CONTINUOUS
 62
     7
 10
-87.64999999999935
 20
-614.25
 30
0.0
 40
0.8999999999999773
 50
270.0
 51
90.0
  0
LINE
  5
184
  8
DATA
  6
CONTINUOUS
 62
     7
 10
-127.6499999999994
 20
-620.15
 30
0.0
 11
-142.3500000000006
 21
-620.15
 31
0.0
  0
LINE
  5
185
  8
DATA
  6
CONTINUOUS
 62
     7
 10
-142.3500000000006
 20
-618.35
 30
0.0
 11
-127.6499999999994
 21
-618.35
 31
0.0
  0
ARC
  5
186
  8
DATA
  6
CONTINUOUS
 62
     7
 10
-142.3500000000006
 20
-619.25
 30
0.0
 40
0.8999999999999773
 50
90.0
 51
270.0
  0
ARC
  5
187
  8
DATA
  6
CONTINUOUS
 62
     7
 10
-127.6499999999994
 20
-619.25
 30
0.0
 40
0.8999999999999773
 50
270.0
 51
90.0
  0
LINE
  5
188
  8
DATA
  6
CONTINUOUS
 62
     7
 10
-107.6499999999994
 20
-620.15
 30
0.0
 11
-122.3500000000006
 21
-620.15
 31
0.0
  0
LINE
  5
189
  8
DATA
  6
CONTINUOUS
 62
     7
 10
-122.3500000000006
 20
-618.35
 30
0.0
 11
-107.6499999999994
 21
-618.35
 31
0.0
  0
ARC
  5
18A
  8
DATA
  6
CONTINUOUS
 62
     7
 10
-122.3500000000006
 20
-619.25
 30
0.0
 40
0.8999999999999773
 50
90.0
 51
270.0
  0
ARC
  5
18B
  8
DATA
  6
CONTINUOUS
 62
     7
 10
-107.6499999999994
 20
-619.25
 30
0.0
 40
0.8999999999999773
 50
270.0
 51
90.0
  0
LINE
  5
18C
  8
DATA
  6
CONTINUOUS
 62
     7
 10
-147.6499999999994
 20
-620.15
 30
0.0
 11
-162.3500000000006
 21
-620.15
 31
0.0
  0
LINE
  5
18D
  8
DATA
  6
CONTINUOUS
 62
     7
 10
-162.3500000000006
 20
-618.35
 30
0.0
 11
-147.6499999999994
 21
-618.35
 31
0.0
  0
ARC
  5
18E
  8
DATA
  6
CONTINUOUS
 62
     7
 10
-162.3500000000006
 20
-619.25
 30
0.0
 40
0.8999999999999773
 50
90.0
 51
270.0
  0
ARC
  5
18F
  8
DATA
  6
CONTINUOUS
 62
     7
 10
-147.6499999999994
 20
-619.25
 30
0.0
 40
0.8999999999999773
 50
270.0
 51
90.0
  0
LINE
  5
190
  8
DATA
  6
CONTINUOUS
 62
     7
 10
-87.64999999999935
 20
-620.15
 30
0.0
 11
-102.3500000000006
 21
-620.15
 31
0.0
  0
LINE
  5
191
  8
DATA
  6
CONTINUOUS
 62
     7
 10
-102.3500000000006
 20
-618.35
 30
0.0
 11
-87.64999999999935
 21
-618.35
 31
0.0
  0
ARC
  5
192
  8
DATA
  6
CONTINUOUS
 62
     7
 10
-102.3500000000006
 20
-619.25
 30
0.0
 40
0.8999999999999773
 50
90.0
 51
270.0
  0
ARC
  5
193
  8
DATA
  6
CONTINUOUS
 62
     7
 10
-87.64999999999935
 20
-619.25
 30
0.0
 40
0.8999999999999773
 50
270.0
 51
90.0
  0
CIRCLE
  5
194
  8
DATA
  6
CONTINUOUS
 62
     7
 10
-171.5
 20
-595.0
 30
0.0
 40
3.5
  0
LINE
  5
195
  8
DATA
  6
CONTINUOUS
 62
     7
 10
-169.5
 20
-595.0
 30
0.0
 11
-173.5
 21
-595.0
 31
0.0
  0
LINE
  5
196
  8
DATA
  6
CONTINUOUS
 62
     7
 10
-171.5
 20
-593.0
 30
0.0
 11
-171.5
 21
-597.0
 31
0.0
  0
CIRCLE
  5
197
  8
DATA
  6
CONTINUOUS
 62
     7
 10
-78.5
 20
-595.0
 30
0.0
 40
3.5
  0
LINE
  5
198
  8
DATA
  6
CONTINUOUS
 62
     7
 10
-76.5
 20
-595.0
 30
0.0
 11
-80.5
 21
-595.0
 31
0.0
  0
LINE
  5
199
  8
DATA
  6
CONTINUOUS
 62
     7
 10
-78.5
 20
-593.0
 30
0.0
 11
-78.5
 21
-597.0
 31
0.0
  0
ARC
  5
19A
  8
DATA
  6
CONTINUOUS
 62
     7
 10
-76.5
 20
-807.0
 30
0.0
 40
3.0
 50
270.0
 51
0.0
  0
ARC
  5
19B
  8
DATA
  6
CONTINUOUS
 62
     7
 10
-173.5
 20
-807.0
 30
0.0
 40
3.0
 50
180.0
 51
270.0
  0
ARC
  5
19C
  8
DATA
  6
CONTINUOUS
 62
     7
 10
-173.5
 20
-593.0
 30
0.0
 40
3.0
 50
90.0
 51
180.0
  0
ARC
  5
19D
  8
DATA
  6
CONTINUOUS
 62
     7
 10
-76.5
 20
-593.0
 30
0.0
 40
3.0
 50
0.0
 51
90.0
  0
CIRCLE
  5
19E
  8
DATA
  6
CONTINUOUS
 62
     7
 10
-171.5
 20
-689.0
 30
0.0
 40
3.5
  0
LINE
  5
19F
  8
DATA
  6
CONTINUOUS
 62
     7
 10
-169.5
 20
-689.0
 30
0.0
 11
-173.5
 21
-689.0
 31
0.0
  0
LINE
  5
1A0
  8
DATA
  6
CONTINUOUS
 62
     7
 10
-171.5
 20
-687.0
 30
0.0
 11
-171.5
 21
-691.0
 31
0.0
  0
CIRCLE
  5
1A1
  8
DATA
  6
CONTINUOUS
 62
     7
 10
-78.5
 20
-689.0
 30
0.0
 40
3.5
  0
LINE
  5
1A2
  8
DATA
  6
CONTINUOUS
 62
     7
 10
-76.5
 20
-689.0
 30
0.0
 11
-80.5
 21
-689.0
 31
0.0
  0
LINE
  5
1A3
  8
DATA
  6
CONTINUOUS
 62
     7
 10
-78.5
 20
-687.0
 30
0.0
 11
-78.5
 21
-691.0
 31
0.0
  0
POLYLINE
  5
1A4
  8
DATA
  6
CONTINUOUS
 62
     7
 66
     1
 10
0.0
 20
0.0
 30
0.0
 70
     1
  0
VERTEX
  5
76A
  8
DATA
  6
CONTINUOUS
 62
     7
 10
-157.5
 20
-626.25
 30
0.0
  0
VERTEX
  5
76B
  8
DATA
  6
CONTINUOUS
 62
     7
 10
-92.5
 20
-626.25
 30
0.0
  0
VERTEX
  5
76C
  8
DATA
  6
CONTINUOUS
 62
     7
 10
-92.5
 20
-642.25
 30
0.0
  0
VERTEX
  5
76D
  8
DATA
  6
CONTINUOUS
 62
     7
 10
-157.5
 20
-642.25
 30
0.0
  0
SEQEND
  5
8D6
  8
DATA
  6
CONTINUOUS
 62
     7
  0
TEXT
  5
1AB
  8
DATA
 62
     7
 10
-92.16937494321724
 20
-623.690644253144
 30
0.0
 40
2.30859375
  1
FRONT PANEL
 41
0.7
 11
-92.16937494321724
 21
-622.536347378144
 31
0.0
 73
     2
  0
TEXT
  5
1AC
  8
DATA
 62
     7
 10
-92.16937494321724
 20
-626.690644253144
 30
0.0
 40
2.30859375
  1
INDICATORS:
 41
0.7
 11
-92.16937494321724
 21
-625.536347378144
 31
0.0
 73
     2
  0
TEXT
  5
1AD
  8
DATA
 62
     7
 10
-91.17342304752098
 20
-630.404296875
 30
0.0
 40
2.30859375
  1
LOCATE
 41
0.7
 72
     2
 11
-82.01600117252099
 21
-629.25
 31
0.0
 73
     2
  0
TEXT
  5
1AE
  8
DATA
 62
     7
 10
-90.09607929752099
 20
-634.404296875
 30
0.0
 40
2.30859375
  1
POWER
 41
0.7
 72
     2
 11
-82.01600117252099
 21
-633.25
 31
0.0
 73
     2
  0
TEXT
  5
1AF
  8
DATA
 62
     7
 10
-88.48006367252098
 20
-638.404296875
 30
0.0
 40
2.30859375
  1
LIMIT
 41
0.7
 72
     2
 11
-82.01600117252099
 21
-637.25
 31
0.0
 73
     2
  0
TEXT
  5
1B0
  8
DATA
 62
     7
 10
-89.55740742252098
 20
-642.404296875
 30
0.0
 40
2.30859375
  1
ERROR
 41
0.7
 72
     2
 11
-82.01600117252099
 21
-641.25
 31
0.0
 73
     2
  0
TEXT
  5
1B1
  8
DATA
 62
     7
 10
-101.300454297521
 20
-647.904296875
 30
0.0
 40
2.30859375
  1
USER SETTINGS
 41
0.7
 72
     2
 11
-82.01600117252099
 21
-646.75
 31
0.0
 73
     2
  0
CIRCLE
  5
1B2
  8
DATA
  6
CONTINUOUS
 62
     7
 10
-125.0
 20
-670.25
 30
0.0
 40
19.0
  0
CIRCLE
  5
1B3
  8
DATA
  6
CONTINUOUS
 62
     7
 10
-125.0
 20
-670.25
 30
0.0
 40
9.5
  0
CIRCLE
  5
1B4
  8
DATA
  6
CONTINUOUS
 62
     7
 10
-125.0
 20
-670.25
 30
0.0
 40
5.0
  0
POLYLINE
  5
1B5
  8
DATA
  6
CONTINUOUS
 62
     7
 66
     1
 10
0.0
 20
0.0
 30
0.0
 70
     1
  0
VERTEX
  5
76E
  8
DATA
  6
CONTINUOUS
 62
     7
 10
-142.323654576675
 20
-667.7593189469447
 30
0.0
  0
VERTEX
  5
76F
  8
DATA
  6
CONTINUOUS
 62
     7
 10
-142.2454373441549
 20
-667.2654747766471
 30
0.0
  0
VERTEX
  5
770
  8
DATA
  6
CONTINUOUS
 62
     7
 10
-137.3069956411792
 20
-668.0476471018483
 30
0.0
  0
VERTEX
  5
771
  8
DATA
  6
CONTINUOUS
 62
     7
 10
-137.3852128736993
 20
-668.5414912721459
 30
0.0
  0
SEQEND
  5
8D7
  8
DATA
  6
CONTINUOUS
 62
     7
  0
POLYLINE
  5
1BC
  8
DATA
  6
CONTINUOUS
 62
     7
 66
     1
 10
0.0
 20
0.0
 30
0.0
 70
     1
  0
VERTEX
  5
772
  8
DATA
  6
CONTINUOUS
 62
     7
 10
-141.7207432837589
 20
-665.0799667275122
 30
0.0
  0
VERTEX
  5
773
  8
DATA
  6
CONTINUOUS
 62
     7
 10
-141.5662347865715
 20
-664.6044384693646
 30
0.0
  0
VERTEX
  5
774
  8
DATA
  6
CONTINUOUS
 62
     7
 10
-136.8109522050957
 20
-666.1495234412394
 30
0.0
  0
VERTEX
  5
775
  8
DATA
  6
CONTINUOUS
 62
     7
 10
-136.9654607022832
 20
-666.625051699387
 30
0.0
  0
SEQEND
  5
8D8
  8
DATA
  6
CONTINUOUS
 62
     7
  0
POLYLINE
  5
1C3
  8
DATA
  6
CONTINUOUS
 62
     7
 66
     1
 10
0.0
 20
0.0
 30
0.0
 70
     1
  0
VERTEX
  5
776
  8
DATA
  6
CONTINUOUS
 62
     7
 10
-133.1675853764892
 20
-654.7708834516385
 30
0.0
  0
VERTEX
  5
777
  8
DATA
  6
CONTINUOUS
 62
     7
 10
-132.722082114395
 20
-654.5438882017687
 30
0.0
  0
VERTEX
  5
778
  8
DATA
  6
CONTINUOUS
 62
     7
 10
-130.4521296156973
 20
-658.9989208227105
 30
0.0
  0
VERTEX
  5
779
  8
DATA
  6
CONTINUOUS
 62
     7
 10
-130.8976328777914
 20
-659.2259160725803
 30
0.0
  0
SEQEND
  5
8D9
  8
DATA
  6
CONTINUOUS
 62
     7
  0
POLYLINE
  5
1CA
  8
DATA
  6
CONTINUOUS
 62
     7
 66
     1
 10
0.0
 20
0.0
 30
0.0
 70
     1
  0
VERTEX
  5
77A
  8
DATA
  6
CONTINUOUS
 62
     7
 10
-140.7061117982313
 20
-662.5279178856051
 30
0.0
  0
VERTEX
  5
77B
  8
DATA
  6
CONTINUOUS
 62
     7
 10
-140.4791165483616
 20
-662.0824146235109
 30
0.0
  0
VERTEX
  5
77C
  8
DATA
  6
CONTINUOUS
 62
     7
 10
-136.0240839274197
 20
-664.3523671222085
 30
0.0
  0
VERTEX
  5
77D
  8
DATA
  6
CONTINUOUS
 62
     7
 10
-136.2510791772895
 20
-664.7978703843028
 30
0.0
  0
SEQEND
  5
8DA
  8
DATA
  6
CONTINUOUS
 62
     7
  0
POLYLINE
  5
1D1
  8
DATA
  6
CONTINUOUS
 62
     7
 66
     1
 10
0.0
 20
0.0
 30
0.0
 70
     1
  0
VERTEX
  5
77E
  8
DATA
  6
CONTINUOUS
 62
     7
 10
-139.3047437146347
 20
-660.1660123334755
 30
0.0
  0
VERTEX
  5
77F
  8
DATA
  6
CONTINUOUS
 62
     7
 10
-139.0108510884884
 20
-659.7615038362881
 30
0.0
  0
VERTEX
  5
780
  8
DATA
  6
CONTINUOUS
 62
     7
 10
-134.9657661166137
 20
-662.7004300977503
 30
0.0
  0
VERTEX
  5
781
  8
DATA
  6
CONTINUOUS
 62
     7
 10
-135.2596587427599
 20
-663.1049385949378
 30
0.0
  0
SEQEND
  5
8DB
  8
DATA
  6
CONTINUOUS
 62
     7
  0
POLYLINE
  5
1D8
  8
DATA
  6
CONTINUOUS
 62
     7
 66
     1
 10
0.0
 20
0.0
 30
0.0
 70
     1
  0
VERTEX
  5
782
  8
DATA
  6
CONTINUOUS
 62
     7
 10
-137.5511453661595
 20
-658.0524080246407
 30
0.0
  0
VERTEX
  5
783
  8
DATA
  6
CONTINUOUS
 62
     7
 10
-137.1975919755766
 20
-657.698854634037
 30
0.0
  0
VERTEX
  5
784
  8
DATA
  6
CONTINUOUS
 62
     7
 10
-133.6620580695404
 20
-661.2343885398664
 30
0.0
  0
VERTEX
  5
785
  8
DATA
  6
CONTINUOUS
 62
     7
 10
-134.0156114601234
 20
-661.5879419304699
 30
0.0
  0
SEQEND
  5
8DC
  8
DATA
  6
CONTINUOUS
 62
     7
  0
POLYLINE
  5
1DF
  8
DATA
  6
CONTINUOUS
 62
     7
 66
     1
 10
0.0
 20
0.0
 30
0.0
 70
     1
  0
VERTEX
  5
786
  8
DATA
  6
CONTINUOUS
 62
     7
 10
-135.488496163712
 20
-656.2391489115115
 30
0.0
  0
VERTEX
  5
787
  8
DATA
  6
CONTINUOUS
 62
     7
 10
-135.0839876665246
 20
-655.9452562853653
 30
0.0
  0
VERTEX
  5
788
  8
DATA
  6
CONTINUOUS
 62
     7
 10
-132.1450614050622
 20
-659.9903412572401
 30
0.0
  0
VERTEX
  5
789
  8
DATA
  6
CONTINUOUS
 62
     7
 10
-132.5495699022497
 20
-660.2842338833863
 30
0.0
  0
SEQEND
  5
8DD
  8
DATA
  6
CONTINUOUS
 62
     7
  0
POLYLINE
  5
1E6
  8
DATA
  6
CONTINUOUS
 62
     7
 66
     1
 10
0.0
 20
0.0
 30
0.0
 70
     1
  0
VERTEX
  5
78A
  8
DATA
  6
CONTINUOUS
 62
     7
 10
-125.25
 20
-652.75
 30
0.0
  0
VERTEX
  5
78B
  8
DATA
  6
CONTINUOUS
 62
     7
 10
-124.75
 20
-652.75
 30
0.0
  0
VERTEX
  5
78C
  8
DATA
  6
CONTINUOUS
 62
     7
 10
-124.75
 20
-657.75
 30
0.0
  0
VERTEX
  5
78D
  8
DATA
  6
CONTINUOUS
 62
     7
 10
-125.25
 20
-657.75
 30
0.0
  0
SEQEND
  5
8DE
  8
DATA
  6
CONTINUOUS
 62
     7
  0
POLYLINE
  5
1ED
  8
DATA
  6
CONTINUOUS
 62
     7
 66
     1
 10
0.0
 20
0.0
 30
0.0
 70
     1
  0
VERTEX
  5
78E
  8
DATA
  6
CONTINUOUS
 62
     7
 10
-130.6455615306354
 20
-653.6837652134284
 30
0.0
  0
VERTEX
  5
78F
  8
DATA
  6
CONTINUOUS
 62
     7
 10
-130.1700332724878
 20
-653.529256716241
 30
0.0
  0
VERTEX
  5
790
  8
DATA
  6
CONTINUOUS
 62
     7
 10
-128.6249483006131
 20
-658.2845392977167
 30
0.0
  0
VERTEX
  5
791
  8
DATA
  6
CONTINUOUS
 62
     7
 10
-129.1004765587606
 20
-658.4390477949042
 30
0.0
  0
SEQEND
  5
8DF
  8
DATA
  6
CONTINUOUS
 62
     7
  0
POLYLINE
  5
1F4
  8
DATA
  6
CONTINUOUS
 62
     7
 66
     1
 10
0.0
 20
0.0
 30
0.0
 70
     1
  0
VERTEX
  5
792
  8
DATA
  6
CONTINUOUS
 62
     7
 10
-127.9845252233528
 20
-653.0045626558451
 30
0.0
  0
VERTEX
  5
793
  8
DATA
  6
CONTINUOUS
 62
     7
 10
-127.4906810530552
 20
-652.9263454233251
 30
0.0
  0
VERTEX
  5
794
  8
DATA
  6
CONTINUOUS
 62
     7
 10
-126.7085087278541
 20
-657.8647871263007
 30
0.0
  0
VERTEX
  5
795
  8
DATA
  6
CONTINUOUS
 62
     7
 10
-127.2023528981516
 20
-657.9430043588209
 30
0.0
  0
SEQEND
  5
8E0
  8
DATA
  6
CONTINUOUS
 62
     7
  0
POLYLINE
  5
1FB
  8
DATA
  6
CONTINUOUS
 62
     7
 66
     1
 10
0.0
 20
0.0
 30
0.0
 70
     1
  0
VERTEX
  5
796
  8
DATA
  6
CONTINUOUS
 62
     7
 10
-142.5
 20
-670.5
 30
0.0
  0
VERTEX
  5
797
  8
DATA
  6
CONTINUOUS
 62
     7
 10
-142.5
 20
-670.0
 30
0.0
  0
VERTEX
  5
798
  8
DATA
  6
CONTINUOUS
 62
     7
 10
-137.5
 20
-670.0
 30
0.0
  0
VERTEX
  5
799
  8
DATA
  6
CONTINUOUS
 62
     7
 10
-137.5
 20
-670.5
 30
0.0
  0
SEQEND
  5
8E1
  8
DATA
  6
CONTINUOUS
 62
     7
  0
POLYLINE
  5
202
  8
DATA
  6
CONTINUOUS
 62
     7
 66
     1
 10
0.0
 20
0.0
 30
0.0
 70
     1
  0
VERTEX
  5
79A
  8
DATA
  6
CONTINUOUS
 62
     7
 10
-112.6147871263007
 20
-668.5414912721459
 30
0.0
  0
VERTEX
  5
79B
  8
DATA
  6
CONTINUOUS
 62
     7
 10
-112.6930043588208
 20
-668.0476471018483
 30
0.0
  0
VERTEX
  5
79C
  8
DATA
  6
CONTINUOUS
 62
     7
 10
-107.7545626558451
 20
-667.2654747766471
 30
0.0
  0
VERTEX
  5
79D
  8
DATA
  6
CONTINUOUS
 62
     7
 10
-107.676345423325
 20
-667.7593189469447
 30
0.0
  0
SEQEND
  5
8E2
  8
DATA
  6
CONTINUOUS
 62
     7
  0
POLYLINE
  5
209
  8
DATA
  6
CONTINUOUS
 62
     7
 66
     1
 10
0.0
 20
0.0
 30
0.0
 70
     1
  0
VERTEX
  5
79E
  8
DATA
  6
CONTINUOUS
 62
     7
 10
-113.0345392977168
 20
-666.625051699387
 30
0.0
  0
VERTEX
  5
79F
  8
DATA
  6
CONTINUOUS
 62
     7
 10
-113.1890477949043
 20
-666.1495234412394
 30
0.0
  0
VERTEX
  5
7A0
  8
DATA
  6
CONTINUOUS
 62
     7
 10
-108.4337652134285
 20
-664.6044384693646
 30
0.0
  0
VERTEX
  5
7A1
  8
DATA
  6
CONTINUOUS
 62
     7
 10
-108.279256716241
 20
-665.0799667275122
 30
0.0
  0
SEQEND
  5
8E3
  8
DATA
  6
CONTINUOUS
 62
     7
  0
POLYLINE
  5
210
  8
DATA
  6
CONTINUOUS
 62
     7
 66
     1
 10
0.0
 20
0.0
 30
0.0
 70
     1
  0
VERTEX
  5
7A2
  8
DATA
  6
CONTINUOUS
 62
     7
 10
-119.1023671222086
 20
-659.2259160725803
 30
0.0
  0
VERTEX
  5
7A3
  8
DATA
  6
CONTINUOUS
 62
     7
 10
-119.5478703843027
 20
-658.9989208227105
 30
0.0
  0
VERTEX
  5
7A4
  8
DATA
  6
CONTINUOUS
 62
     7
 10
-117.277917885605
 20
-654.5438882017687
 30
0.0
  0
VERTEX
  5
7A5
  8
DATA
  6
CONTINUOUS
 62
     7
 10
-116.8324146235108
 20
-654.7708834516385
 30
0.0
  0
SEQEND
  5
8E4
  8
DATA
  6
CONTINUOUS
 62
     7
  0
POLYLINE
  5
217
  8
DATA
  6
CONTINUOUS
 62
     7
 66
     1
 10
0.0
 20
0.0
 30
0.0
 70
     1
  0
VERTEX
  5
7A6
  8
DATA
  6
CONTINUOUS
 62
     7
 10
-113.7489208227105
 20
-664.7978703843028
 30
0.0
  0
VERTEX
  5
7A7
  8
DATA
  6
CONTINUOUS
 62
     7
 10
-113.9759160725803
 20
-664.3523671222085
 30
0.0
  0
VERTEX
  5
7A8
  8
DATA
  6
CONTINUOUS
 62
     7
 10
-109.5208834516384
 20
-662.0824146235109
 30
0.0
  0
VERTEX
  5
7A9
  8
DATA
  6
CONTINUOUS
 62
     7
 10
-109.2938882017687
 20
-662.5279178856051
 30
0.0
  0
SEQEND
  5
8E5
  8
DATA
  6
CONTINUOUS
 62
     7
  0
POLYLINE
  5
21E
  8
DATA
  6
CONTINUOUS
 62
     7
 66
     1
 10
0.0
 20
0.0
 30
0.0
 70
     1
  0
VERTEX
  5
7AA
  8
DATA
  6
CONTINUOUS
 62
     7
 10
-114.7403412572401
 20
-663.1049385949378
 30
0.0
  0
VERTEX
  5
7AB
  8
DATA
  6
CONTINUOUS
 62
     7
 10
-115.0342338833863
 20
-662.7004300977503
 30
0.0
  0
VERTEX
  5
7AC
  8
DATA
  6
CONTINUOUS
 62
     7
 10
-110.9891489115116
 20
-659.7615038362881
 30
0.0
  0
VERTEX
  5
7AD
  8
DATA
  6
CONTINUOUS
 62
     7
 10
-110.6952562853653
 20
-660.1660123334755
 30
0.0
  0
SEQEND
  5
8E6
  8
DATA
  6
CONTINUOUS
 62
     7
  0
POLYLINE
  5
225
  8
DATA
  6
CONTINUOUS
 62
     7
 66
     1
 10
0.0
 20
0.0
 30
0.0
 70
     1
  0
VERTEX
  5
7AE
  8
DATA
  6
CONTINUOUS
 62
     7
 10
-115.9843885398766
 20
-661.5879419304699
 30
0.0
  0
VERTEX
  5
7AF
  8
DATA
  6
CONTINUOUS
 62
     7
 10
-116.3379419304595
 20
-661.2343885398664
 30
0.0
  0
VERTEX
  5
7B0
  8
DATA
  6
CONTINUOUS
 62
     7
 10
-112.8024080244234
 20
-657.698854634037
 30
0.0
  0
VERTEX
  5
7B1
  8
DATA
  6
CONTINUOUS
 62
     7
 10
-112.4488546338404
 20
-658.0524080246407
 30
0.0
  0
SEQEND
  5
8E7
  8
DATA
  6
CONTINUOUS
 62
     7
  0
POLYLINE
  5
22C
  8
DATA
  6
CONTINUOUS
 62
     7
 66
     1
 10
0.0
 20
0.0
 30
0.0
 70
     1
  0
VERTEX
  5
7B2
  8
DATA
  6
CONTINUOUS
 62
     7
 10
-117.4504300977503
 20
-660.2842338833863
 30
0.0
  0
VERTEX
  5
7B3
  8
DATA
  6
CONTINUOUS
 62
     7
 10
-117.8549385949378
 20
-659.9903412572401
 30
0.0
  0
VERTEX
  5
7B4
  8
DATA
  6
CONTINUOUS
 62
     7
 10
-114.9160123334754
 20
-655.9452562853653
 30
0.0
  0
VERTEX
  5
7B5
  8
DATA
  6
CONTINUOUS
 62
     7
 10
-114.5115038362879
 20
-656.2391489115115
 30
0.0
  0
SEQEND
  5
8E8
  8
DATA
  6
CONTINUOUS
 62
     7
  0
POLYLINE
  5
233
  8
DATA
  6
CONTINUOUS
 62
     7
 66
     1
 10
0.0
 20
0.0
 30
0.0
 70
     1
  0
VERTEX
  5
7B6
  8
DATA
  6
CONTINUOUS
 62
     7
 10
-120.8995234412394
 20
-658.4390477949042
 30
0.0
  0
VERTEX
  5
7B7
  8
DATA
  6
CONTINUOUS
 62
     7
 10
-121.3750516993869
 20
-658.2845392977167
 30
0.0
  0
VERTEX
  5
7B8
  8
DATA
  6
CONTINUOUS
 62
     7
 10
-119.8299667275122
 20
-653.529256716241
 30
0.0
  0
VERTEX
  5
7B9
  8
DATA
  6
CONTINUOUS
 62
     7
 10
-119.3544384693646
 20
-653.6837652134284
 30
0.0
  0
SEQEND
  5
8E9
  8
DATA
  6
CONTINUOUS
 62
     7
  0
POLYLINE
  5
23A
  8
DATA
  6
CONTINUOUS
 62
     7
 66
     1
 10
0.0
 20
0.0
 30
0.0
 70
     1
  0
VERTEX
  5
7BA
  8
DATA
  6
CONTINUOUS
 62
     7
 10
-122.7976471018484
 20
-657.9430043588209
 30
0.0
  0
VERTEX
  5
7BB
  8
DATA
  6
CONTINUOUS
 62
     7
 10
-123.2914912721459
 20
-657.8647871263007
 30
0.0
  0
VERTEX
  5
7BC
  8
DATA
  6
CONTINUOUS
 62
     7
 10
-122.5093189469448
 20
-652.9263454233251
 30
0.0
  0
VERTEX
  5
7BD
  8
DATA
  6
CONTINUOUS
 62
     7
 10
-122.0154747766472
 20
-653.0045626558451
 30
0.0
  0
SEQEND
  5
8EA
  8
DATA
  6
CONTINUOUS
 62
     7
  0
POLYLINE
  5
241
  8
DATA
  6
CONTINUOUS
 62
     7
 66
     1
 10
0.0
 20
0.0
 30
0.0
 70
     1
  0
VERTEX
  5
7BE
  8
DATA
  6
CONTINUOUS
 62
     7
 10
-112.5
 20
-670.5
 30
0.0
  0
VERTEX
  5
7BF
  8
DATA
  6
CONTINUOUS
 62
     7
 10
-112.5
 20
-670.0
 30
0.0
  0
VERTEX
  5
7C0
  8
DATA
  6
CONTINUOUS
 62
     7
 10
-107.5
 20
-670.0
 30
0.0
  0
VERTEX
  5
7C1
  8
DATA
  6
CONTINUOUS
 62
     7
 10
-107.5
 20
-670.5
 30
0.0
  0
SEQEND
  5
8EB
  8
DATA
  6
CONTINUOUS
 62
     7
  0
POLYLINE
  5
248
  8
DATA
  6
CONTINUOUS
 62
     7
 66
     1
 10
0.0
 20
0.0
 30
0.0
 70
     1
  0
VERTEX
  5
7C2
  8
DATA
  6
CONTINUOUS
 62
     7
 10
-137.3852128736993
 20
-671.9585087278541
 30
0.0
  0
VERTEX
  5
7C3
  8
DATA
  6
CONTINUOUS
 62
     7
 10
-137.3069956411792
 20
-672.4523528981517
 30
0.0
  0
VERTEX
  5
7C4
  8
DATA
  6
CONTINUOUS
 62
     7
 10
-142.2454373441549
 20
-673.2345252233529
 30
0.0
  0
VERTEX
  5
7C5
  8
DATA
  6
CONTINUOUS
 62
     7
 10
-142.323654576675
 20
-672.7406810530553
 30
0.0
  0
SEQEND
  5
8EC
  8
DATA
  6
CONTINUOUS
 62
     7
  0
POLYLINE
  5
24F
  8
DATA
  6
CONTINUOUS
 62
     7
 66
     1
 10
0.0
 20
0.0
 30
0.0
 70
     1
  0
VERTEX
  5
7C6
  8
DATA
  6
CONTINUOUS
 62
     7
 10
-136.9654607022832
 20
-673.874948300613
 30
0.0
  0
VERTEX
  5
7C7
  8
DATA
  6
CONTINUOUS
 62
     7
 10
-136.8109522050957
 20
-674.3504765587606
 30
0.0
  0
VERTEX
  5
7C8
  8
DATA
  6
CONTINUOUS
 62
     7
 10
-141.5662347865715
 20
-675.8955615306354
 30
0.0
  0
VERTEX
  5
7C9
  8
DATA
  6
CONTINUOUS
 62
     7
 10
-141.7207432837589
 20
-675.4200332724878
 30
0.0
  0
SEQEND
  5
8ED
  8
DATA
  6
CONTINUOUS
 62
     7
  0
POLYLINE
  5
256
  8
DATA
  6
CONTINUOUS
 62
     7
 66
     1
 10
0.0
 20
0.0
 30
0.0
 70
     1
  0
VERTEX
  5
7CA
  8
DATA
  6
CONTINUOUS
 62
     7
 10
-130.8976328777914
 20
-681.2740839274197
 30
0.0
  0
VERTEX
  5
7CB
  8
DATA
  6
CONTINUOUS
 62
     7
 10
-130.4521296156973
 20
-681.5010791772895
 30
0.0
  0
VERTEX
  5
7CC
  8
DATA
  6
CONTINUOUS
 62
     7
 10
-132.722082114395
 20
-685.9561117982313
 30
0.0
  0
VERTEX
  5
7CD
  8
DATA
  6
CONTINUOUS
 62
     7
 10
-133.1675853764892
 20
-685.7291165483615
 30
0.0
  0
SEQEND
  5
8EE
  8
DATA
  6
CONTINUOUS
 62
     7
  0
POLYLINE
  5
25D
  8
DATA
  6
CONTINUOUS
 62
     7
 66
     1
 10
0.0
 20
0.0
 30
0.0
 70
     1
  0
VERTEX
  5
7CE
  8
DATA
  6
CONTINUOUS
 62
     7
 10
-136.2510791772895
 20
-675.7021296156972
 30
0.0
  0
VERTEX
  5
7CF
  8
DATA
  6
CONTINUOUS
 62
     7
 10
-136.0240839274197
 20
-676.1476328777915
 30
0.0
  0
VERTEX
  5
7D0
  8
DATA
  6
CONTINUOUS
 62
     7
 10
-140.4791165483616
 20
-678.4175853764891
 30
0.0
  0
VERTEX
  5
7D1
  8
DATA
  6
CONTINUOUS
 62
     7
 10
-140.7061117982313
 20
-677.9720821143949
 30
0.0
  0
SEQEND
  5
8EF
  8
DATA
  6
CONTINUOUS
 62
     7
  0
POLYLINE
  5
264
  8
DATA
  6
CONTINUOUS
 62
     7
 66
     1
 10
0.0
 20
0.0
 30
0.0
 70
     1
  0
VERTEX
  5
7D2
  8
DATA
  6
CONTINUOUS
 62
     7
 10
-135.2596587427599
 20
-677.3950614050622
 30
0.0
  0
VERTEX
  5
7D3
  8
DATA
  6
CONTINUOUS
 62
     7
 10
-134.9657661166137
 20
-677.7995699022497
 30
0.0
  0
VERTEX
  5
7D4
  8
DATA
  6
CONTINUOUS
 62
     7
 10
-139.0108510884884
 20
-680.7384961637119
 30
0.0
  0
VERTEX
  5
7D5
  8
DATA
  6
CONTINUOUS
 62
     7
 10
-139.3047437146347
 20
-680.3339876665245
 30
0.0
  0
SEQEND
  5
8F0
  8
DATA
  6
CONTINUOUS
 62
     7
  0
POLYLINE
  5
26B
  8
DATA
  6
CONTINUOUS
 62
     7
 66
     1
 10
0.0
 20
0.0
 30
0.0
 70
     1
  0
VERTEX
  5
7D6
  8
DATA
  6
CONTINUOUS
 62
     7
 10
-134.0156114601234
 20
-678.9120580695301
 30
0.0
  0
VERTEX
  5
7D7
  8
DATA
  6
CONTINUOUS
 62
     7
 10
-133.6620580695404
 20
-679.2656114601336
 30
0.0
  0
VERTEX
  5
7D8
  8
DATA
  6
CONTINUOUS
 62
     7
 10
-137.1975919755766
 20
-682.801145365963
 30
0.0
  0
VERTEX
  5
7D9
  8
DATA
  6
CONTINUOUS
 62
     7
 10
-137.5511453661595
 20
-682.4475919753593
 30
0.0
  0
SEQEND
  5
8F1
  8
DATA
  6
CONTINUOUS
 62
     7
  0
POLYLINE
  5
272
  8
DATA
  6
CONTINUOUS
 62
     7
 66
     1
 10
0.0
 20
0.0
 30
0.0
 70
     1
  0
VERTEX
  5
7DA
  8
DATA
  6
CONTINUOUS
 62
     7
 10
-132.5495699022497
 20
-680.2157661166137
 30
0.0
  0
VERTEX
  5
7DB
  8
DATA
  6
CONTINUOUS
 62
     7
 10
-132.1450614050622
 20
-680.5096587427599
 30
0.0
  0
VERTEX
  5
7DC
  8
DATA
  6
CONTINUOUS
 62
     7
 10
-135.0839876665246
 20
-684.5547437146347
 30
0.0
  0
VERTEX
  5
7DD
  8
DATA
  6
CONTINUOUS
 62
     7
 10
-135.488496163712
 20
-684.2608510884885
 30
0.0
  0
SEQEND
  5
8F2
  8
DATA
  6
CONTINUOUS
 62
     7
  0
POLYLINE
  5
279
  8
DATA
  6
CONTINUOUS
 62
     7
 66
     1
 10
0.0
 20
0.0
 30
0.0
 70
     1
  0
VERTEX
  5
7DE
  8
DATA
  6
CONTINUOUS
 62
     7
 10
-125.25
 20
-682.75
 30
0.0
  0
VERTEX
  5
7DF
  8
DATA
  6
CONTINUOUS
 62
     7
 10
-124.75
 20
-682.75
 30
0.0
  0
VERTEX
  5
7E0
  8
DATA
  6
CONTINUOUS
 62
     7
 10
-124.75
 20
-687.75
 30
0.0
  0
VERTEX
  5
7E1
  8
DATA
  6
CONTINUOUS
 62
     7
 10
-125.25
 20
-687.75
 30
0.0
  0
SEQEND
  5
8F3
  8
DATA
  6
CONTINUOUS
 62
     7
  0
POLYLINE
  5
280
  8
DATA
  6
CONTINUOUS
 62
     7
 66
     1
 10
0.0
 20
0.0
 30
0.0
 70
     1
  0
VERTEX
  5
7E2
  8
DATA
  6
CONTINUOUS
 62
     7
 10
-129.1004765587606
 20
-682.0609522050958
 30
0.0
  0
VERTEX
  5
7E3
  8
DATA
  6
CONTINUOUS
 62
     7
 10
-128.6249483006131
 20
-682.2154607022833
 30
0.0
  0
VERTEX
  5
7E4
  8
DATA
  6
CONTINUOUS
 62
     7
 10
-130.1700332724878
 20
-686.970743283759
 30
0.0
  0
VERTEX
  5
7E5
  8
DATA
  6
CONTINUOUS
 62
     7
 10
-130.6455615306354
 20
-686.8162347865716
 30
0.0
  0
SEQEND
  5
8F4
  8
DATA
  6
CONTINUOUS
 62
     7
  0
POLYLINE
  5
287
  8
DATA
  6
CONTINUOUS
 62
     7
 66
     1
 10
0.0
 20
0.0
 30
0.0
 70
     1
  0
VERTEX
  5
7E6
  8
DATA
  6
CONTINUOUS
 62
     7
 10
-127.2023528981516
 20
-682.5569956411791
 30
0.0
  0
VERTEX
  5
7E7
  8
DATA
  6
CONTINUOUS
 62
     7
 10
-126.7085087278541
 20
-682.6352128736993
 30
0.0
  0
VERTEX
  5
7E8
  8
DATA
  6
CONTINUOUS
 62
     7
 10
-127.4906810530552
 20
-687.5736545766749
 30
0.0
  0
VERTEX
  5
7E9
  8
DATA
  6
CONTINUOUS
 62
     7
 10
-127.9845252233528
 20
-687.4954373441549
 30
0.0
  0
SEQEND
  5
8F5
  8
DATA
  6
CONTINUOUS
 62
     7
  0
POLYLINE
  5
28E
  8
DATA
  6
CONTINUOUS
 62
     7
 66
     1
 10
0.0
 20
0.0
 30
0.0
 70
     1
  0
VERTEX
  5
7EA
  8
DATA
  6
CONTINUOUS
 62
     7
 10
-107.676345423325
 20
-672.7406810530553
 30
0.0
  0
VERTEX
  5
7EB
  8
DATA
  6
CONTINUOUS
 62
     7
 10
-107.7545626558451
 20
-673.2345252233529
 30
0.0
  0
VERTEX
  5
7EC
  8
DATA
  6
CONTINUOUS
 62
     7
 10
-112.6930043588208
 20
-672.4523528981517
 30
0.0
  0
VERTEX
  5
7ED
  8
DATA
  6
CONTINUOUS
 62
     7
 10
-112.6147871263007
 20
-671.9585087278541
 30
0.0
  0
SEQEND
  5
8F6
  8
DATA
  6
CONTINUOUS
 62
     7
  0
POLYLINE
  5
295
  8
DATA
  6
CONTINUOUS
 62
     7
 66
     1
 10
0.0
 20
0.0
 30
0.0
 70
     1
  0
VERTEX
  5
7EE
  8
DATA
  6
CONTINUOUS
 62
     7
 10
-108.279256716241
 20
-675.4200332724878
 30
0.0
  0
VERTEX
  5
7EF
  8
DATA
  6
CONTINUOUS
 62
     7
 10
-108.4337652134285
 20
-675.8955615306354
 30
0.0
  0
VERTEX
  5
7F0
  8
DATA
  6
CONTINUOUS
 62
     7
 10
-113.1890477949043
 20
-674.3504765587606
 30
0.0
  0
VERTEX
  5
7F1
  8
DATA
  6
CONTINUOUS
 62
     7
 10
-113.0345392977168
 20
-673.874948300613
 30
0.0
  0
SEQEND
  5
8F7
  8
DATA
  6
CONTINUOUS
 62
     7
  0
POLYLINE
  5
29C
  8
DATA
  6
CONTINUOUS
 62
     7
 66
     1
 10
0.0
 20
0.0
 30
0.0
 70
     1
  0
VERTEX
  5
7F2
  8
DATA
  6
CONTINUOUS
 62
     7
 10
-116.8324146235108
 20
-685.7291165483615
 30
0.0
  0
VERTEX
  5
7F3
  8
DATA
  6
CONTINUOUS
 62
     7
 10
-117.277917885605
 20
-685.9561117982313
 30
0.0
  0
VERTEX
  5
7F4
  8
DATA
  6
CONTINUOUS
 62
     7
 10
-119.5478703843027
 20
-681.5010791772895
 30
0.0
  0
VERTEX
  5
7F5
  8
DATA
  6
CONTINUOUS
 62
     7
 10
-119.1023671222086
 20
-681.2740839274197
 30
0.0
  0
SEQEND
  5
8F8
  8
DATA
  6
CONTINUOUS
 62
     7
  0
POLYLINE
  5
2A3
  8
DATA
  6
CONTINUOUS
 62
     7
 66
     1
 10
0.0
 20
0.0
 30
0.0
 70
     1
  0
VERTEX
  5
7F6
  8
DATA
  6
CONTINUOUS
 62
     7
 10
-109.2938882017687
 20
-677.9720821143949
 30
0.0
  0
VERTEX
  5
7F7
  8
DATA
  6
CONTINUOUS
 62
     7
 10
-109.5208834516384
 20
-678.4175853764891
 30
0.0
  0
VERTEX
  5
7F8
  8
DATA
  6
CONTINUOUS
 62
     7
 10
-113.9759160725803
 20
-676.1476328777915
 30
0.0
  0
VERTEX
  5
7F9
  8
DATA
  6
CONTINUOUS
 62
     7
 10
-113.7489208227105
 20
-675.7021296156972
 30
0.0
  0
SEQEND
  5
8F9
  8
DATA
  6
CONTINUOUS
 62
     7
  0
POLYLINE
  5
2AA
  8
DATA
  6
CONTINUOUS
 62
     7
 66
     1
 10
0.0
 20
0.0
 30
0.0
 70
     1
  0
VERTEX
  5
7FA
  8
DATA
  6
CONTINUOUS
 62
     7
 10
-110.6952562853653
 20
-680.3339876665245
 30
0.0
  0
VERTEX
  5
7FB
  8
DATA
  6
CONTINUOUS
 62
     7
 10
-110.9891489115116
 20
-680.7384961637119
 30
0.0
  0
VERTEX
  5
7FC
  8
DATA
  6
CONTINUOUS
 62
     7
 10
-115.0342338833863
 20
-677.7995699022497
 30
0.0
  0
VERTEX
  5
7FD
  8
DATA
  6
CONTINUOUS
 62
     7
 10
-114.7403412572401
 20
-677.3950614050622
 30
0.0
  0
SEQEND
  5
8FA
  8
DATA
  6
CONTINUOUS
 62
     7
  0
POLYLINE
  5
2B1
  8
DATA
  6
CONTINUOUS
 62
     7
 66
     1
 10
0.0
 20
0.0
 30
0.0
 70
     1
  0
VERTEX
  5
7FE
  8
DATA
  6
CONTINUOUS
 62
     7
 10
-112.4488546338404
 20
-682.4475919753593
 30
0.0
  0
VERTEX
  5
7FF
  8
DATA
  6
CONTINUOUS
 62
     7
 10
-112.8024080244234
 20
-682.801145365963
 30
0.0
  0
VERTEX
  5
800
  8
DATA
  6
CONTINUOUS
 62
     7
 10
-116.3379419304595
 20
-679.2656114601336
 30
0.0
  0
VERTEX
  5
801
  8
DATA
  6
CONTINUOUS
 62
     7
 10
-115.9843885398766
 20
-678.9120580695301
 30
0.0
  0
SEQEND
  5
8FB
  8
DATA
  6
CONTINUOUS
 62
     7
  0
POLYLINE
  5
2B8
  8
DATA
  6
CONTINUOUS
 62
     7
 66
     1
 10
0.0
 20
0.0
 30
0.0
 70
     1
  0
VERTEX
  5
802
  8
DATA
  6
CONTINUOUS
 62
     7
 10
-114.5115038362879
 20
-684.2608510884885
 30
0.0
  0
VERTEX
  5
803
  8
DATA
  6
CONTINUOUS
 62
     7
 10
-114.9160123334754
 20
-684.5547437146347
 30
0.0
  0
VERTEX
  5
804
  8
DATA
  6
CONTINUOUS
 62
     7
 10
-117.8549385949378
 20
-680.5096587427599
 30
0.0
  0
VERTEX
  5
805
  8
DATA
  6
CONTINUOUS
 62
     7
 10
-117.4504300977503
 20
-680.2157661166137
 30
0.0
  0
SEQEND
  5
8FC
  8
DATA
  6
CONTINUOUS
 62
     7
  0
POLYLINE
  5
2BF
  8
DATA
  6
CONTINUOUS
 62
     7
 66
     1
 10
0.0
 20
0.0
 30
0.0
 70
     1
  0
VERTEX
  5
806
  8
DATA
  6
CONTINUOUS
 62
     7
 10
-119.3544384693646
 20
-686.8162347865716
 30
0.0
  0
VERTEX
  5
807
  8
DATA
  6
CONTINUOUS
 62
     7
 10
-119.8299667275122
 20
-686.970743283759
 30
0.0
  0
VERTEX
  5
808
  8
DATA
  6
CONTINUOUS
 62
     7
 10
-121.3750516993869
 20
-682.2154607022833
 30
0.0
  0
VERTEX
  5
809
  8
DATA
  6
CONTINUOUS
 62
     7
 10
-120.8995234412394
 20
-682.0609522050958
 30
0.0
  0
SEQEND
  5
8FD
  8
DATA
  6
CONTINUOUS
 62
     7
  0
POLYLINE
  5
2C6
  8
DATA
  6
CONTINUOUS
 62
     7
 66
     1
 10
0.0
 20
0.0
 30
0.0
 70
     1
  0
VERTEX
  5
80A
  8
DATA
  6
CONTINUOUS
 62
     7
 10
-122.0154747766472
 20
-687.4954373441549
 30
0.0
  0
VERTEX
  5
80B
  8
DATA
  6
CONTINUOUS
 62
     7
 10
-122.5093189469448
 20
-687.5736545766749
 30
0.0
  0
VERTEX
  5
80C
  8
DATA
  6
CONTINUOUS
 62
     7
 10
-123.2914912721459
 20
-682.6352128736993
 30
0.0
  0
VERTEX
  5
80D
  8
DATA
  6
CONTINUOUS
 62
     7
 10
-122.7976471018484
 20
-682.5569956411791
 30
0.0
  0
SEQEND
  5
8FE
  8
DATA
  6
CONTINUOUS
 62
     7
  0
CIRCLE
  5
2CD
  8
DATA
  6
CONTINUOUS
 62
     7
 10
-78.5
 20
-629.25
 30
0.0
 40
1.25
  0
CIRCLE
  5
2CE
  8
DATA
  6
CONTINUOUS
 62
     7
 10
-78.5
 20
-633.25
 30
0.0
 40
1.25
  0
CIRCLE
  5
2CF
  8
DATA
  6
CONTINUOUS
 62
     7
 10
-78.5
 20
-641.25
 30
0.0
 40
1.25
  0
CIRCLE
  5
2D0
  8
DATA
  6
CONTINUOUS
 62
     7
 10
-78.5
 20
-646.75
 30
0.0
 40
1.25
  0
LINE
  5
2D1
  8
DATA
  6
CONTINUOUS
 62
     7
 10
-76.5
 20
-629.25
 30
0.0
 11
-77.25
 21
-629.25
 31
0.0
  0
LINE
  5
2D2
  8
DATA
  6
CONTINUOUS
 62
     7
 10
-79.75
 20
-629.25
 30
0.0
 11
-80.5
 21
-629.25
 31
0.0
  0
LINE
  5
2D3
  8
DATA
  6
CONTINUOUS
 62
     7
 10
-77.5
 20
-627.5179491924312
 30
0.0
 11
-77.87500000000949
 21
-628.1674682452859
 31
0.0
  0
LINE
  5
2D4
  8
DATA
  6
CONTINUOUS
 62
     7
 10
-79.12500000000006
 20
-630.3325317547306
 30
0.0
 11
-79.5
 21
-630.9820508075688
 31
0.0
  0
LINE
  5
2D5
  8
DATA
  6
CONTINUOUS
 62
     7
 10
-79.5
 20
-627.5179491924312
 30
0.0
 11
-79.12500000000949
 21
-628.1674682452531
 31
0.0
  0
LINE
  5
2D6
  8
DATA
  6
CONTINUOUS
 62
     7
 10
-77.87500000000955
 20
-630.332531754714
 30
0.0
 11
-77.5
 21
-630.9820508075688
 31
0.0
  0
CIRCLE
  5
2D7
  8
DATA
  6
CONTINUOUS
 62
     7
 10
-78.5
 20
-637.25
 30
0.0
 40
1.25
  0
LINE
  5
2D8
  8
DATA
  6
CONTINUOUS
 62
     7
 10
-76.5
 20
-637.25
 30
0.0
 11
-77.25
 21
-637.25
 31
0.0
  0
LINE
  5
2D9
  8
DATA
  6
CONTINUOUS
 62
     7
 10
-79.75
 20
-637.25
 30
0.0
 11
-80.5
 21
-637.25
 31
0.0
  0
LINE
  5
2DA
  8
DATA
  6
CONTINUOUS
 62
     7
 10
-77.5
 20
-635.5179491924312
 30
0.0
 11
-77.87500000000949
 21
-636.1674682452859
 31
0.0
  0
LINE
  5
2DB
  8
DATA
  6
CONTINUOUS
 62
     7
 10
-79.12500000000006
 20
-638.3325317547306
 30
0.0
 11
-79.5
 21
-638.9820508075688
 31
0.0
  0
LINE
  5
2DC
  8
DATA
  6
CONTINUOUS
 62
     7
 10
-79.5
 20
-635.5179491924312
 30
0.0
 11
-79.12500000000949
 21
-636.1674682452531
 31
0.0
  0
LINE
  5
2DD
  8
DATA
  6
CONTINUOUS
 62
     7
 10
-77.87500000000955
 20
-638.332531754714
 30
0.0
 11
-77.5
 21
-638.9820508075688
 31
0.0
  0
TEXT
  5
2DE
  8
DATA
 62
     7
 10
-170.270703125
 20
-660.4635897931972
 30
0.0
 40
2.30859375
  1
ENTER
 41
0.7
 72
     1
 11
-166.5
 21
-659.3092929181972
 31
0.0
 73
     2
  0
TEXT
  5
2DF
  8
DATA
 62
     7
 10
-158.0284965669516
 20
-652.404296875
 30
0.0
 40
2.30859375
  1
SELECT
 41
0.7
 11
-158.0284965669516
 21
-651.25
 31
0.0
 73
     2
  0
CIRCLE
  5
2E0
  8
DATA
  6
CONTINUOUS
 62
     7
 10
-166.5
 20
-651.25
 30
0.0
 40
4.5
  0
ARC
  5
2E1
  8
DATA
  6
CONTINUOUS
 62
     7
 10
-166.5000000000001
 20
-651.2500000000017
 30
0.0
 40
2.249999999998325
 50
277.6622556607728
 51
262.3377443392279
  0
ARC
  5
2E2
  8
DATA
  6
CONTINUOUS
 62
     7
 10
-166.4999999999999
 20
-651.25
 30
0.0
 40
1.250000000000048
 50
283.8865403626223
 51
256.1134596373639
  0
LINE
  5
2E3
  8
DATA
  6
CONTINUOUS
 62
     7
 10
-166.8
 20
-652.4634661099512
 30
0.0
 11
-166.8
 21
-657.3498668473607
 31
0.0
  0
LINE
  5
2E4
  8
DATA
  6
CONTINUOUS
 62
     7
 10
-166.2
 20
-652.4634661099512
 30
0.0
 11
-166.2
 21
-657.3498668473607
 31
0.0
  0
LINE
  5
2E5
  8
DATA
  6
CONTINUOUS
 62
     7
 10
-166.8
 20
-657.3498668473607
 30
0.0
 11
-166.2
 21
-657.3498668473607
 31
0.0
  0
LINE
  5
2E6
  8
DATA
  6
CONTINUOUS
 62
     7
 10
-166.5000000000001
 20
-649.0000000000034
 30
0.0
 11
-166.5000000000001
 21
-646.7501836681918
 31
0.0
  0
LINE
  5
2E7
  8
DATA
  6
CONTINUOUS
 62
     7
 10
-166.6765329653875
 20
-649.0069359991038
 30
0.0
 11
-166.8530515203351
 21
-646.764055100205
 31
0.0
  0
LINE
  5
2E8
  8
DATA
  6
CONTINUOUS
 62
     7
 10
-166.8519775463401
 20
-649.0277012336642
 30
0.0
 11
-167.2039263606458
 21
-646.8055838742534
 31
0.0
  0
LINE
  5
2E9
  8
DATA
  6
CONTINUOUS
 62
     7
 10
-167.0252520686751
 20
-649.0621676791084
 30
0.0
 11
-167.5504612608638
 21
-646.8745139516354
 31
0.0
  0
LINE
  5
2EA
  8
DATA
  6
CONTINUOUS
 62
     7
 10
-167.1952882373427
 20
-649.110122838339
 30
0.0
 11
-167.8905197180948
 21
-646.9704203555024
 31
0.0
  0
LINE
  5
2EB
  8
DATA
  6
CONTINUOUS
 62
     7
 10
-167.3610377228203
 20
-649.1712710518525
 30
0.0
 11
-168.222005158869
 21
-647.0927117909823
 31
0.0
  0
LINE
  5
2EC
  8
DATA
  6
CONTINUOUS
 62
     7
 10
-167.5214786244126
 20
-649.245235320579
 30
0.0
 11
-168.5428738652139
 21
-647.2406342907093
 31
0.0
  0
LINE
  5
2ED
  8
DATA
  6
CONTINUOUS
 62
     7
 10
-167.6756217706093
 20
-649.331559630206
 30
0.0
 11
-168.8511475748553
 21
-647.4132758632836
 31
0.0
  0
LINE
  5
2EE
  8
DATA
  6
CONTINUOUS
 62
     7
 10
-167.8225168176563
 20
-649.4297117626589
 30
0.0
 11
-169.1449256778619
 21
-647.6095721160011
 31
0.0
  0
LINE
  5
2EF
  8
DATA
  6
CONTINUOUS
 62
     7
 10
-167.9612581087409
 20
-649.5390865774024
 30
0.0
 11
-169.4223969345373
 21
-647.8283128171884
 31
0.0
  0
LINE
  5
2F0
  8
DATA
  6
CONTINUOUS
 62
     7
 10
-168.0909902576676
 20
-649.6590097423325
 30
0.0
 11
-169.6818506423158
 21
-648.0681493576844
 31
0.0
  0
LINE
  5
2F1
  8
DATA
  6
CONTINUOUS
 62
     7
 10
-168.2109134225978
 20
-649.7887418912592
 30
0.0
 11
-169.9216871828116
 21
-648.3276030654627
 31
0.0
  0
LINE
  5
2F2
  8
DATA
  6
CONTINUOUS
 62
     7
 10
-168.3202882373412
 20
-649.9274831823438
 30
0.0
 11
-170.140427883999
 21
-648.6050743221383
 31
0.0
  0
LINE
  5
2F3
  8
DATA
  6
CONTINUOUS
 62
     7
 10
-168.4184403697941
 20
-650.0743782293907
 30
0.0
 11
-170.3367241367165
 21
-648.8988524251447
 31
0.0
  0
LINE
  5
2F4
  8
DATA
  6
CONTINUOUS
 62
     7
 10
-168.5047646794211
 20
-650.2285213755875
 30
0.0
 11
-170.5093657092908
 21
-649.2071261347862
 31
0.0
  0
LINE
  5
2F5
  8
DATA
  6
CONTINUOUS
 62
     7
 10
-168.5787289481476
 20
-650.3889622771799
 30
0.0
 11
-170.6572882090179
 21
-649.5279948411311
 31
0.0
  0
LINE
  5
2F6
  8
DATA
  6
CONTINUOUS
 62
     7
 10
-168.6398771616612
 20
-650.5547117626575
 30
0.0
 11
-170.7795796444978
 21
-649.8594802819053
 31
0.0
  0
LINE
  5
2F7
  8
DATA
  6
CONTINUOUS
 62
     7
 10
-168.6878323208918
 20
-650.724747931325
 30
0.0
 11
-170.8754860483648
 21
-650.1995387391363
 31
0.0
  0
LINE
  5
2F8
  8
DATA
  6
CONTINUOUS
 62
     7
 10
-168.7222987663361
 20
-650.8980224536601
 30
0.0
 11
-170.9444161257468
 21
-650.5460736393543
 31
0.0
  0
LINE
  5
2F9
  8
DATA
  6
CONTINUOUS
 62
     7
 10
-168.7430640008965
 20
-651.0734670346128
 30
0.0
 11
-170.9859448997954
 21
-650.896948479665
 31
0.0
  0
LINE
  5
2FA
  8
DATA
  6
CONTINUOUS
 62
     7
 10
-168.7499999999969
 20
-651.2500000000001
 30
0.0
 11
-170.9998163318085
 21
-651.2500000000001
 31
0.0
  0
LINE
  5
2FB
  8
DATA
  6
CONTINUOUS
 62
     7
 10
-166.3234670346125
 20
-649.0069359991038
 30
0.0
 11
-166.1469484796649
 21
-646.764055100205
 31
0.0
  0
LINE
  5
2FC
  8
DATA
  6
CONTINUOUS
 62
     7
 10
-166.1480224536599
 20
-649.0277012336642
 30
0.0
 11
-165.7960736393542
 21
-646.8055838742534
 31
0.0
  0
LINE
  5
2FD
  8
DATA
  6
CONTINUOUS
 62
     7
 10
-165.9747479313249
 20
-649.0621676791084
 30
0.0
 11
-165.4495387391362
 21
-646.8745139516354
 31
0.0
  0
LINE
  5
2FE
  8
DATA
  6
CONTINUOUS
 62
     7
 10
-165.8047117626573
 20
-649.110122838339
 30
0.0
 11
-165.1094802819052
 21
-646.9704203555024
 31
0.0
  0
LINE
  5
2FF
  8
DATA
  6
CONTINUOUS
 62
     7
 10
-165.6389622771797
 20
-649.1712710518525
 30
0.0
 11
-164.777994841131
 21
-647.0927117909823
 31
0.0
  0
LINE
  5
300
  8
DATA
  6
CONTINUOUS
 62
     7
 10
-165.4785213755874
 20
-649.245235320579
 30
0.0
 11
-164.4571261347861
 21
-647.2406342907093
 31
0.0
  0
LINE
  5
301
  8
DATA
  6
CONTINUOUS
 62
     7
 10
-165.3243782293907
 20
-649.331559630206
 30
0.0
 11
-164.1488524251447
 21
-647.4132758632836
 31
0.0
  0
LINE
  5
302
  8
DATA
  6
CONTINUOUS
 62
     7
 10
-165.1774831823437
 20
-649.4297117626589
 30
0.0
 11
-163.8550743221381
 21
-647.6095721160011
 31
0.0
  0
LINE
  5
303
  8
DATA
  6
CONTINUOUS
 62
     7
 10
-165.0387418912591
 20
-649.5390865774024
 30
0.0
 11
-163.5776030654627
 21
-647.8283128171884
 31
0.0
  0
LINE
  5
304
  8
DATA
  6
CONTINUOUS
 62
     7
 10
-164.9090097423324
 20
-649.6590097423325
 30
0.0
 11
-163.3181493576842
 21
-648.0681493576844
 31
0.0
  0
LINE
  5
305
  8
DATA
  6
CONTINUOUS
 62
     7
 10
-164.7890865774022
 20
-649.7887418912592
 30
0.0
 11
-163.0783128171884
 21
-648.3276030654627
 31
0.0
  0
LINE
  5
306
  8
DATA
  6
CONTINUOUS
 62
     7
 10
-164.6797117626588
 20
-649.9274831823438
 30
0.0
 11
-162.859572116001
 21
-648.6050743221383
 31
0.0
  0
LINE
  5
307
  8
DATA
  6
CONTINUOUS
 62
     7
 10
-164.5815596302059
 20
-650.0743782293907
 30
0.0
 11
-162.6632758632835
 21
-648.8988524251447
 31
0.0
  0
LINE
  5
308
  8
DATA
  6
CONTINUOUS
 62
     7
 10
-164.4952353205789
 20
-650.2285213755875
 30
0.0
 11
-162.4906342907092
 21
-649.2071261347862
 31
0.0
  0
LINE
  5
309
  8
DATA
  6
CONTINUOUS
 62
     7
 10
-164.4212710518524
 20
-650.3889622771799
 30
0.0
 11
-162.3427117909821
 21
-649.5279948411311
 31
0.0
  0
LINE
  5
30A
  8
DATA
  6
CONTINUOUS
 62
     7
 10
-164.3601228383388
 20
-650.5547117626575
 30
0.0
 11
-162.2204203555022
 21
-649.8594802819053
 31
0.0
  0
LINE
  5
30B
  8
DATA
  6
CONTINUOUS
 62
     7
 10
-164.3121676791082
 20
-650.724747931325
 30
0.0
 11
-162.1245139516352
 21
-650.1995387391363
 31
0.0
  0
LINE
  5
30C
  8
DATA
  6
CONTINUOUS
 62
     7
 10
-164.2777012336639
 20
-650.8980224536601
 30
0.0
 11
-162.0555838742532
 21
-650.5460736393543
 31
0.0
  0
LINE
  5
30D
  8
DATA
  6
CONTINUOUS
 62
     7
 10
-164.2569359991035
 20
-651.0734670346128
 30
0.0
 11
-162.0140551002046
 21
-650.896948479665
 31
0.0
  0
LINE
  5
30E
  8
DATA
  6
CONTINUOUS
 62
     7
 10
-164.2500000000031
 20
-651.2500000000001
 30
0.0
 11
-162.0001836681915
 21
-651.2500000000001
 31
0.0
  0
LINE
  5
30F
  8
DATA
  6
CONTINUOUS
 62
     7
 10
-166.8
 20
-655.0605584481192
 30
0.0
 11
-166.8530515203351
 21
-655.7346419270623
 31
0.0
  0
LINE
  5
310
  8
DATA
  6
CONTINUOUS
 62
     7
 10
-166.8519775463401
 20
-653.4709957936032
 30
0.0
 11
-167.2039263606458
 21
-655.6931131530139
 31
0.0
  0
LINE
  5
311
  8
DATA
  6
CONTINUOUS
 62
     7
 10
-167.0252520686751
 20
-653.436529348159
 30
0.0
 11
-167.5504612608638
 21
-655.6241830756319
 31
0.0
  0
LINE
  5
312
  8
DATA
  6
CONTINUOUS
 62
     7
 10
-167.1952882373427
 20
-653.3885741889284
 30
0.0
 11
-167.8905197180948
 21
-655.528276671765
 31
0.0
  0
LINE
  5
313
  8
DATA
  6
CONTINUOUS
 62
     7
 10
-167.3610377228203
 20
-653.3274259754148
 30
0.0
 11
-168.222005158869
 21
-655.405985236285
 31
0.0
  0
LINE
  5
314
  8
DATA
  6
CONTINUOUS
 62
     7
 10
-167.5214786244126
 20
-653.2534617066883
 30
0.0
 11
-168.5428738652139
 21
-655.258062736558
 31
0.0
  0
LINE
  5
315
  8
DATA
  6
CONTINUOUS
 62
     7
 10
-167.6756217706093
 20
-653.1671373970613
 30
0.0
 11
-168.8511475748553
 21
-655.0854211639837
 31
0.0
  0
LINE
  5
316
  8
DATA
  6
CONTINUOUS
 62
     7
 10
-167.8225168176563
 20
-653.0689852646084
 30
0.0
 11
-169.1449256778619
 21
-654.8891249112662
 31
0.0
  0
LINE
  5
317
  8
DATA
  6
CONTINUOUS
 62
     7
 10
-167.9612581087409
 20
-652.959610449865
 30
0.0
 11
-169.4223969345373
 21
-654.670384210079
 31
0.0
  0
LINE
  5
318
  8
DATA
  6
CONTINUOUS
 62
     7
 10
-168.0909902576676
 20
-652.8396872849348
 30
0.0
 11
-169.6818506423158
 21
-654.4305476695829
 31
0.0
  0
LINE
  5
319
  8
DATA
  6
CONTINUOUS
 62
     7
 10
-168.2109134225978
 20
-652.7099551360081
 30
0.0
 11
-169.9216871828116
 21
-654.1710939618047
 31
0.0
  0
LINE
  5
31A
  8
DATA
  6
CONTINUOUS
 62
     7
 10
-168.3202882373412
 20
-652.5712138449235
 30
0.0
 11
-170.140427883999
 21
-653.893622705129
 31
0.0
  0
LINE
  5
31B
  8
DATA
  6
CONTINUOUS
 62
     7
 10
-168.4184403697941
 20
-652.4243187978766
 30
0.0
 11
-170.3367241367165
 21
-653.5998446021226
 31
0.0
  0
LINE
  5
31C
  8
DATA
  6
CONTINUOUS
 62
     7
 10
-168.5047646794211
 20
-652.2701756516798
 30
0.0
 11
-170.5093657092908
 21
-653.2915708924811
 31
0.0
  0
LINE
  5
31D
  8
DATA
  6
CONTINUOUS
 62
     7
 10
-168.5787289481476
 20
-652.1097347500875
 30
0.0
 11
-170.6572882090179
 21
-652.9707021861362
 31
0.0
  0
LINE
  5
31E
  8
DATA
  6
CONTINUOUS
 62
     7
 10
-168.6398771616612
 20
-651.9439852646099
 30
0.0
 11
-170.7795796444978
 21
-652.639216745362
 31
0.0
  0
LINE
  5
31F
  8
DATA
  6
CONTINUOUS
 62
     7
 10
-168.6878323208918
 20
-651.7739490959423
 30
0.0
 11
-170.8754860483648
 21
-652.299158288131
 31
0.0
  0
LINE
  5
320
  8
DATA
  6
CONTINUOUS
 62
     7
 10
-168.7222987663361
 20
-651.6006745736072
 30
0.0
 11
-170.9444161257468
 21
-651.952623387913
 31
0.0
  0
LINE
  5
321
  8
DATA
  6
CONTINUOUS
 62
     7
 10
-168.7430640008965
 20
-651.4252299926545
 30
0.0
 11
-170.9859448997954
 21
-651.6017485476024
 31
0.0
  0
LINE
  5
322
  8
DATA
  6
CONTINUOUS
 62
     7
 10
-166.2
 20
-655.0605584481189
 30
0.0
 11
-166.1469484796649
 21
-655.7346419270623
 31
0.0
  0
LINE
  5
323
  8
DATA
  6
CONTINUOUS
 62
     7
 10
-166.1480224536599
 20
-653.4709957936032
 30
0.0
 11
-165.7960736393542
 21
-655.6931131530139
 31
0.0
  0
LINE
  5
324
  8
DATA
  6
CONTINUOUS
 62
     7
 10
-165.9747479313249
 20
-653.436529348159
 30
0.0
 11
-165.4495387391362
 21
-655.6241830756319
 31
0.0
  0
LINE
  5
325
  8
DATA
  6
CONTINUOUS
 62
     7
 10
-165.8047117626573
 20
-653.3885741889284
 30
0.0
 11
-165.1094802819052
 21
-655.528276671765
 31
0.0
  0
LINE
  5
326
  8
DATA
  6
CONTINUOUS
 62
     7
 10
-165.6389622771797
 20
-653.3274259754148
 30
0.0
 11
-164.777994841131
 21
-655.405985236285
 31
0.0
  0
LINE
  5
327
  8
DATA
  6
CONTINUOUS
 62
     7
 10
-165.4785213755874
 20
-653.2534617066883
 30
0.0
 11
-164.4571261347861
 21
-655.258062736558
 31
0.0
  0
LINE
  5
328
  8
DATA
  6
CONTINUOUS
 62
     7
 10
-165.3243782293907
 20
-653.1671373970613
 30
0.0
 11
-164.1488524251447
 21
-655.0854211639837
 31
0.0
  0
LINE
  5
329
  8
DATA
  6
CONTINUOUS
 62
     7
 10
-165.1774831823437
 20
-653.0689852646084
 30
0.0
 11
-163.8550743221381
 21
-654.8891249112662
 31
0.0
  0
LINE
  5
32A
  8
DATA
  6
CONTINUOUS
 62
     7
 10
-165.0387418912591
 20
-652.959610449865
 30
0.0
 11
-163.5776030654627
 21
-654.670384210079
 31
0.0
  0
LINE
  5
32B
  8
DATA
  6
CONTINUOUS
 62
     7
 10
-164.9090097423324
 20
-652.8396872849348
 30
0.0
 11
-163.3181493576842
 21
-654.4305476695829
 31
0.0
  0
LINE
  5
32C
  8
DATA
  6
CONTINUOUS
 62
     7
 10
-164.7890865774022
 20
-652.7099551360081
 30
0.0
 11
-163.0783128171884
 21
-654.1710939618047
 31
0.0
  0
LINE
  5
32D
  8
DATA
  6
CONTINUOUS
 62
     7
 10
-164.6797117626588
 20
-652.5712138449235
 30
0.0
 11
-162.859572116001
 21
-653.893622705129
 31
0.0
  0
LINE
  5
32E
  8
DATA
  6
CONTINUOUS
 62
     7
 10
-164.5815596302059
 20
-652.4243187978766
 30
0.0
 11
-162.6632758632835
 21
-653.5998446021226
 31
0.0
  0
LINE
  5
32F
  8
DATA
  6
CONTINUOUS
 62
     7
 10
-164.4952353205789
 20
-652.2701756516798
 30
0.0
 11
-162.4906342907092
 21
-653.2915708924811
 31
0.0
  0
LINE
  5
330
  8
DATA
  6
CONTINUOUS
 62
     7
 10
-164.4212710518524
 20
-652.1097347500875
 30
0.0
 11
-162.3427117909821
 21
-652.9707021861362
 31
0.0
  0
LINE
  5
331
  8
DATA
  6
CONTINUOUS
 62
     7
 10
-164.3601228383388
 20
-651.9439852646099
 30
0.0
 11
-162.2204203555022
 21
-652.639216745362
 31
0.0
  0
LINE
  5
332
  8
DATA
  6
CONTINUOUS
 62
     7
 10
-164.3121676791082
 20
-651.7739490959423
 30
0.0
 11
-162.1245139516352
 21
-652.299158288131
 31
0.0
  0
LINE
  5
333
  8
DATA
  6
CONTINUOUS
 62
     7
 10
-164.2777012336639
 20
-651.6006745736072
 30
0.0
 11
-162.0555838742532
 21
-651.952623387913
 31
0.0
  0
LINE
  5
334
  8
DATA
  6
CONTINUOUS
 62
     7
 10
-164.2569359991035
 20
-651.4252299926545
 30
0.0
 11
-162.0140551002046
 21
-651.6017485476024
 31
0.0
  0
ARC
  5
335
  8
DATA
  6
CONTINUOUS
 62
     7
 10
-166.4999999999999
 20
-651.25
 30
0.0
 40
4.96454675623304
 50
336.287554623658
 51
23.71244537633947
  0
ARC
  5
336
  8
DATA
  6
CONTINUOUS
 62
     7
 10
-166.5
 20
-651.25
 30
0.0
 40
6.106705216426152
 50
334.0937480755783
 51
356.3932064170182
  0
ARC
  5
337
  8
DATA
  6
CONTINUOUS
 62
     7
 10
-166.5
 20
-651.25
 30
0.0
 40
6.106705216426126
 50
3.60679358298283
 51
25.90625192442301
  0
ARC
  5
338
  8
DATA
  6
CONTINUOUS
 62
     7
 10
-166.7801226138021
 20
-647.6670016607447
 30
0.0
 40
4.811851039664944
 50
337.2368049537653
 51
355.4426539094758
  0
ARC
  5
339
  8
DATA
  6
CONTINUOUS
 62
     7
 10
-160.7508552344718
 20
-643.3980423983114
 30
0.0
 40
4.811851039664869
 50
255.1573460905225
 51
273.3419259033579
  0
LINE
  5
33A
  8
DATA
  6
CONTINUOUS
 62
     7
 10
-160.4703505763077
 20
-648.2017105347122
 30
0.0
 11
-161.0069569114305
 21
-648.5819808420019
 31
0.0
  0
LINE
  5
33B
  8
DATA
  6
CONTINUOUS
 62
     7
 10
-161.9545837953072
 20
-649.2535240995843
 30
0.0
 11
-162.3430575627953
 21
-649.5288190956877
 31
0.0
  0
ARC
  5
33C
  8
DATA
  6
CONTINUOUS
 62
     7
 10
-166.7801226138021
 20
-654.8329983392553
 30
0.0
 40
4.811851039664908
 50
4.557346090524233
 51
22.7631950462347
  0
ARC
  5
33D
  8
DATA
  6
CONTINUOUS
 62
     7
 10
-160.7508552344718
 20
-659.1019576016886
 30
0.0
 40
4.811851039664896
 50
86.65807409664208
 51
104.8426539094775
  0
LINE
  5
33E
  8
DATA
  6
CONTINUOUS
 62
     7
 10
-160.4703505763077
 20
-654.2982894652878
 30
0.0
 11
-161.0069569114305
 21
-653.9180191579981
 31
0.0
  0
LINE
  5
33F
  8
DATA
  6
CONTINUOUS
 62
     7
 10
-161.9545837953072
 20
-653.2464759004157
 30
0.0
 11
-162.3430575627953
 21
-652.9711809043123
 31
0.0
  0
LINE
  5
340
  8
DATA
  6
CONTINUOUS
 62
     7
 10
-158.4496371318851
 20
-650.8658341639152
 30
0.0
 11
-158.4496371318851
 21
-651.6341658360848
 31
0.0
  0
LINE
  5
341
  8
DATA
  6
CONTINUOUS
 62
     7
 10
-158.4496371318851
 20
-650.8658341639152
 30
0.0
 11
-160.4053904792258
 21
-650.8658341639152
 31
0.0
  0
LINE
  5
342
  8
DATA
  6
CONTINUOUS
 62
     7
 10
-158.4496371318851
 20
-651.6341658360848
 30
0.0
 11
-160.4053904792258
 21
-651.6341658360848
 31
0.0
  0
TEXT
  5
343
  8
DATA
 62
     7
 10
-154.962695312499
 20
-678.8991908599594
 30
0.0
 40
2.30859375
  1
BACK
 41
0.7
 72
     1
 11
-151.999999999999
 21
-677.7448939849594
 31
0.0
 73
     2
  0
TEXT
  5
344
  8
DATA
 62
     7
 10
-100.962695312501
 20
-678.8991908599594
 30
0.0
 40
2.30859375
  1
MENU
 41
0.7
 72
     1
 11
-98.00000000000102
 21
-677.7448939849594
 31
0.0
 73
     2
  0
ARC
  5
345
  8
DATA
  6
CONTINUOUS
 62
     7
 10
-98.00000000000102
 20
-670.25
 30
0.0
 40
4.500000000000036
 50
236.2510114041126
 51
123.7489885958874
  0
LINE
  5
346
  8
DATA
  6
CONTINUOUS
 62
     7
 10
-100.500000000001
 20
-673.991657386774
 30
0.0
 11
-100.500000000001
 21
-666.508342613226
 31
0.0
  0
ARC
  5
347
  8
DATA
  6
CONTINUOUS
 62
     7
 10
-151.999999999999
 20
-670.25
 30
0.0
 40
4.500000000000036
 50
56.25101140411259
 51
303.7489885958874
  0
LINE
  5
348
  8
DATA
  6
CONTINUOUS
 62
     7
 10
-149.499999999999
 20
-673.991657386774
 30
0.0
 11
-149.499999999999
 21
-666.508342613226
 31
0.0
  0
POLYLINE
  5
349
  8
DATA
  6
CONTINUOUS
 62
     7
 66
     1
 10
0.0
 20
0.0
 30
0.0
 70
     1
  0
VERTEX
  5
80E
  8
DATA
  6
CONTINUOUS
 62
     7
 10
-172.5
 20
-693.25
 30
0.0
  0
VERTEX
  5
80F
  8
DATA
  6
CONTINUOUS
 62
     7
 10
-151.5
 20
-693.25
 30
0.0
  0
VERTEX
  5
810
  8
DATA
  6
CONTINUOUS
 62
     7
 10
-151.5
 20
-714.25
 30
0.0
  0
VERTEX
  5
811
  8
DATA
  6
CONTINUOUS
 62
     7
 10
-172.5
 20
-714.25
 30
0.0
  0
SEQEND
  5
8FF
  8
DATA
  6
CONTINUOUS
 62
     7
  0
LINE
  5
350
  8
DATA
  6
CONTINUOUS
 62
     7
 10
-176.5
 20
-807.0
 30
0.0
 11
-176.5
 21
-593.0
 31
0.0
  0
LINE
  5
351
  8
DATA
  6
CONTINUOUS
 62
     7
 10
-73.5
 20
-593.0
 30
0.0
 11
-73.5
 21
-807.0
 31
0.0
  0
LINE
  5
352
  8
DATA
  6
CONTINUOUS
 62
     7
 10
-176.5
 20
-718.25
 30
0.0
 11
-73.5
 21
-718.25
 31
0.0
  0
LINE
  5
353
  8
DATA
  6
CONTINUOUS
 62
     7
 10
-176.5
 20
-730.25
 30
0.0
 11
-73.5
 21
-730.25
 31
0.0
  0
ARC
  5
354
  8
DATA
  6
CONTINUOUS
 62
     7
 10
-161.6652349136135
 20
-704.253747316625
 30
0.0
 40
0.2231481803729382
 50
307.641902497567
 51
354.2670192893825
  0
LINE
  5
355
  8
DATA
  6
CONTINUOUS
 62
     7
 10
-167.3970668681147
 20
-700.7372931482691
 30
0.0
 11
-166.3509448681147
 21
-698.2446771482691
 31
0.0
  0
LINE
  5
356
  8
DATA
  6
CONTINUOUS
 62
     7
 10
-167.3970668681147
 20
-700.7372931482691
 30
0.0
 11
-168.4302808681147
 21
-698.2446771482691
 31
0.0
  0
LINE
  5
357
  8
DATA
  6
CONTINUOUS
 62
     7
 10
-159.4671868681147
 20
-705.2446771482691
 30
0.0
 11
-159.4671868681147
 21
-698.2446771482691
 31
0.0
  0
LINE
  5
358
  8
DATA
  6
CONTINUOUS
 62
     7
 10
-158.1240128681147
 20
-698.2446771482691
 30
0.0
 11
-158.1240128681147
 21
-704.1727251482691
 31
0.0
  0
LINE
  5
359
  8
DATA
  6
CONTINUOUS
 62
     7
 10
-165.8601678681147
 20
-698.2446771482691
 30
0.0
 11
-165.8601678681147
 21
-704.1727251482691
 31
0.0
  0
LINE
  5
35A
  8
DATA
  6
CONTINUOUS
 62
     7
 10
-164.5686538681147
 20
-698.2446771482691
 30
0.0
 11
-164.5686538681147
 21
-704.1727251482691
 31
0.0
  0
LINE
  5
35B
  8
DATA
  6
CONTINUOUS
 62
     7
 10
-163.8970668681147
 20
-698.2446771482691
 30
0.0
 11
-163.8970668681147
 21
-705.2446771482691
 31
0.0
  0
LINE
  5
35C
  8
DATA
  6
CONTINUOUS
 62
     7
 10
-162.7217878681147
 20
-698.9033421482691
 30
0.0
 11
-162.7217878681147
 21
-701.1505801482691
 31
0.0
  0
LINE
  5
35D
  8
DATA
  6
CONTINUOUS
 62
     7
 10
-160.2027818681147
 20
-701.0205481482691
 30
0.0
 11
-160.2027818681147
 21
-699.3812111482691
 31
0.0
  0
LINE
  5
35E
  8
DATA
  6
CONTINUOUS
 62
     7
 10
-161.4432028681147
 20
-699.2133091482691
 30
0.0
 11
-161.4432028681147
 21
-700.8406201482692
 31
0.0
  0
ARC
  5
35F
  8
DATA
  6
CONTINUOUS
 62
     7
 10
-166.1193358681147
 20
-703.4472171482691
 30
0.0
 40
1.805197397617407
 50
264.6908562215351
 51
323.9911991542423
  0
LINE
  5
360
  8
DATA
  6
CONTINUOUS
 62
     7
 10
-166.8417148681147
 20
-703.0490991482691
 30
0.0
 11
-166.8417148681147
 21
-704.1727111482692
 31
0.0
  0
LINE
  5
361
  8
DATA
  6
CONTINUOUS
 62
     7
 10
-166.8417148681147
 20
-703.0490991482691
 30
0.0
 11
-168.0040788681147
 21
-703.0490991482691
 31
0.0
  0
LINE
  5
362
  8
DATA
  6
CONTINUOUS
 62
     7
 10
-168.0040788681147
 20
-703.0490991482691
 30
0.0
 11
-168.0040788681147
 21
-704.1727111482692
 31
0.0
  0
ARC
  5
363
  8
DATA
  6
CONTINUOUS
 62
     7
 10
-166.3484808681147
 20
-704.1878591482691
 30
0.0
 40
0.4885501783696799
 50
269.7118487927517
 51
1.775987005692741
  0
ARC
  5
364
  8
DATA
  6
CONTINUOUS
 62
     7
 10
-166.3534018681147
 20
-704.1878591482691
 30
0.0
 40
0.4885476802217032
 50
178.2240129943037
 51
270.2881512072497
  0
ARC
  5
365
  8
DATA
  6
CONTINUOUS
 62
     7
 10
-166.4533968681147
 20
-703.4472171482691
 30
0.0
 40
1.805194465862608
 50
216.0088008457573
 51
275.3091437784647
  0
ARC
  5
366
  8
DATA
  6
CONTINUOUS
 62
     7
 10
-167.1882708681147
 20
-704.1331401482691
 30
0.0
 40
0.8167601457233559
 50
182.7769954499953
 51
207.3596066671448
  0
CIRCLE
  5
367
  8
DATA
  6
CONTINUOUS
 62
     7
 10
-167.3260308681147
 20
-701.7059321482691
 30
0.0
 40
0.6651259999999866
  0
LINE
  5
368
  8
DATA
  6
CONTINUOUS
 62
     7
 10
-155.9671868681147
 20
-705.244670148269
 30
0.0
 11
-159.4671868681147
 21
-705.244670148269
 31
0.0
  0
LINE
  5
369
  8
DATA
  6
CONTINUOUS
 62
     7
 10
-155.9671868681147
 20
-705.244670148269
 30
0.0
 11
-155.9671868681147
 21
-703.0490921482691
 31
0.0
  0
LINE
  5
36A
  8
DATA
  6
CONTINUOUS
 62
     7
 10
-155.9671868681147
 20
-703.0490991482691
 30
0.0
 11
-157.1424588681147
 21
-703.0490991482691
 31
0.0
  0
LINE
  5
36B
  8
DATA
  6
CONTINUOUS
 62
     7
 10
-157.1424588681147
 20
-703.0490991482691
 30
0.0
 11
-157.1424588681147
 21
-704.1727111482692
 31
0.0
  0
LINE
  5
36C
  8
DATA
  6
CONTINUOUS
 62
     7
 10
-163.8970668681147
 20
-705.244670148269
 30
0.0
 11
-161.4432028681147
 21
-705.2446631482691
 31
0.0
  0
LINE
  5
36D
  8
DATA
  6
CONTINUOUS
 62
     7
 10
-162.7217948681147
 20
-704.585998148269
 30
0.0
 11
-162.0889528681147
 21
-704.585998148269
 31
0.0
  0
LINE
  5
36E
  8
DATA
  6
CONTINUOUS
 62
     7
 10
-162.7217878681147
 20
-704.585998148269
 30
0.0
 11
-162.7217878681147
 21
-701.8221601482692
 31
0.0
  0
LINE
  5
36F
  8
DATA
  6
CONTINUOUS
 62
     7
 10
-162.7217948681147
 20
-701.8221601482692
 30
0.0
 11
-162.0889528681147
 21
-701.8221601482692
 31
0.0
  0
LINE
  5
370
  8
DATA
  6
CONTINUOUS
 62
     7
 10
-161.4432028681147
 20
-704.2760381482691
 30
0.0
 11
-161.4432028681147
 21
-702.1321201482691
 31
0.0
  0
ARC
  5
371
  8
DATA
  6
CONTINUOUS
 62
     7
 10
-165.3844618681147
 20
-704.1331401482691
 30
0.0
 40
0.8167589835054755
 50
332.6403933328579
 51
357.2230045500102
  0
ARC
  5
372
  8
DATA
  6
CONTINUOUS
 62
     7
 10
-157.6307788681147
 20
-704.1878591482691
 30
0.0
 40
0.4885501783696799
 50
269.7118487927517
 51
1.775987005692741
  0
ARC
  5
373
  8
DATA
  6
CONTINUOUS
 62
     7
 10
-157.6356928681147
 20
-704.1878591482691
 30
0.0
 40
0.4885476802216748
 50
178.2240129943036
 51
270.2881512072497
  0
LINE
  5
374
  8
DATA
  6
CONTINUOUS
 62
     7
 10
-160.2033488681147
 20
-704.1210511482691
 30
0.0
 11
-160.2033488681147
 21
-702.2612771482691
 31
0.0
  0
LINE
  5
375
  8
DATA
  6
CONTINUOUS
 62
     7
 10
-162.7217948681147
 20
-701.1505801482691
 30
0.0
 11
-162.0889528681147
 21
-701.1505801482691
 31
0.0
  0
ARC
  5
376
  8
DATA
  6
CONTINUOUS
 62
     7
 10
-161.5321868681147
 20
-703.9158111482691
 30
0.0
 40
1.331827988202663
 50
273.8309816091142
 51
351.1351473098021
  0
LINE
  5
377
  8
DATA
  6
CONTINUOUS
 62
     7
 10
-165.8601678681147
 20
-698.2446771482691
 30
0.0
 11
-164.5686538681147
 21
-698.2446771482691
 31
0.0
  0
LINE
  5
378
  8
DATA
  6
CONTINUOUS
 62
     7
 10
-168.4302808681147
 20
-698.2446771482691
 30
0.0
 11
-166.3509448681147
 21
-698.2446771482691
 31
0.0
  0
LINE
  5
379
  8
DATA
  6
CONTINUOUS
 62
     7
 10
-159.4671868681147
 20
-698.2446771482691
 30
0.0
 11
-158.1240128681147
 21
-698.2446771482691
 31
0.0
  0
LINE
  5
37A
  8
DATA
  6
CONTINUOUS
 62
     7
 10
-163.8970668681147
 20
-698.2446771482691
 30
0.0
 11
-161.429713778412
 21
-698.2446828138874
 31
0.0
  0
LINE
  5
37B
  8
DATA
  6
CONTINUOUS
 62
     7
 10
-162.7217948681147
 20
-698.9033491482692
 30
0.0
 11
-162.0889528681147
 21
-698.9033491482692
 31
0.0
  0
ARC
  5
37C
  8
DATA
  6
CONTINUOUS
 62
     7
 10
-161.5189078681147
 20
-699.5714991482691
 30
0.0
 40
1.329810953038061
 50
8.226923859016232
 51
86.15412669215348
  0
ARC
  5
37D
  8
DATA
  6
CONTINUOUS
 62
     7
 10
-162.0814800442924
 20
-703.3584165758582
 30
0.0
 40
1.22760431736717
 50
269.6512199376181
 51
282.8264828068747
  0
ARC
  5
37E
  8
DATA
  6
CONTINUOUS
 62
     7
 10
-161.943600648888
 20
-703.877423366128
 30
0.0
 40
0.6912065325853249
 50
281.2331036226596
 51
306.86200889406
  0
ARC
  5
37F
  8
DATA
  6
CONTINUOUS
 62
     7
 10
-161.6652349136135
 20
-702.1544109799131
 30
0.0
 40
0.2231481803728945
 50
5.73298071058842
 51
52.35809750241511
  0
ARC
  5
380
  8
DATA
  6
CONTINUOUS
 62
     7
 10
-162.0814800442924
 20
-703.04974172068
 30
0.0
 40
1.227604317367258
 50
77.17351719312654
 51
90.34878006238185
  0
ARC
  5
381
  8
DATA
  6
CONTINUOUS
 62
     7
 10
-161.943600648888
 20
-702.5307349304101
 30
0.0
 40
0.6912065325852915
 50
53.1379911059401
 51
78.76689637733858
  0
ARC
  5
382
  8
DATA
  6
CONTINUOUS
 62
     7
 10
-160.8807248681147
 20
-702.3070641482691
 30
0.0
 40
0.6789217147396411
 50
3.867006359823471
 51
88.36163456789582
  0
ARC
  5
383
  8
DATA
  6
CONTINUOUS
 62
     7
 10
-160.8813478681147
 20
-700.9491201482691
 30
0.0
 40
0.6795963579633232
 50
271.6892821046493
 51
356.0782829826533
  0
ARC
  5
384
  8
DATA
  6
CONTINUOUS
 62
     7
 10
-161.6652349136135
 20
-700.8183293166251
 30
0.0
 40
0.2231481803728482
 50
307.6419024975849
 51
354.2670192893826
  0
ARC
  5
385
  8
DATA
  6
CONTINUOUS
 62
     7
 10
-162.0814800442924
 20
-699.9229985758582
 30
0.0
 40
1.227604317367284
 50
269.6512199376182
 51
282.8264828068735
  0
ARC
  5
386
  8
DATA
  6
CONTINUOUS
 62
     7
 10
-161.943600648888
 20
-700.4420053661281
 30
0.0
 40
0.6912065325852135
 50
281.2331036226614
 51
306.8620088940618
  0
ARC
  5
387
  8
DATA
  6
CONTINUOUS
 62
     7
 10
-161.6652349136135
 20
-699.2355999799131
 30
0.0
 40
0.2231481803728945
 50
5.73298071058842
 51
52.35809750241511
  0
ARC
  5
388
  8
DATA
  6
CONTINUOUS
 62
     7
 10
-162.0814800442924
 20
-700.13093072068
 30
0.0
 40
1.227604317367258
 50
77.17351719312654
 51
90.34878006238185
  0
ARC
  5
389
  8
DATA
  6
CONTINUOUS
 62
     7
 10
-161.943600648888
 20
-699.6119239304101
 30
0.0
 40
0.6912065325852006
 50
53.13799110593444
 51
78.76689637733858
  0
LINE
  5
38A
  8
DATA
  6
CONTINUOUS
 62
     7
 10
-151.5
 20
-710.25
 30
0.0
 11
-172.5
 21
-710.25
 31
0.0
  0
TEXT
  5
38B
  8
DATA
 62
     7
 10
-171.157421875
 20
-713.404296875
 30
0.0
 40
2.30859375
  1
PROFESSIONAL
 41
0.7
 72
     1
 11
-162.0
 21
-712.25
 31
0.0
 73
     2
  0
TEXT
  5
38C
  8
DATA
 62
     7
 10
-165.5400390625
 20
-734.5496754772803
 30
0.0
 40
2.30859375
  1
HiQnet
 41
0.7
 72
     1
 11
-161.5
 21
-733.3953786022803
 31
0.0
 73
     2
  0
TEXT
  5
38D
  8
DATA
 62
     7
 10
-90.0013671875
 20
-734.5496754772803
 30
0.0
 40
2.30859375
  1
INPUT
 41
0.7
 72
     1
 11
-86.5
 21
-733.3953786022803
 31
0.0
 73
     2
  0
TEXT
  5
38E
  8
DATA
 62
     7
 10
-91.0787109375
 20
-737.5496754772803
 30
0.0
 40
2.30859375
  1
ANALOG
 41
0.7
 72
     1
 11
-86.5
 21
-736.3953786022803
 31
0.0
 73
     2
  0
TEXT
  5
38F
  8
DATA
 62
     7
 10
-141.88671875
 20
-734.5496754772803
 30
0.0
 40
2.30859375
  1
THROUGH
 41
0.7
 72
     1
 11
-136.5
 21
-733.3953786022803
 31
0.0
 73
     2
  0
TEXT
  5
390
  8
DATA
 62
     7
 10
-128.848046875
 20
-737.5496754772803
 30
0.0
 40
2.30859375
  1
DIGITAL
 41
0.7
 72
     1
 11
-124.0
 21
-736.3953786022803
 31
0.0
 73
     2
  0
TEXT
  5
391
  8
DATA
 62
     7
 10
-115.0013671875
 20
-734.5496754772803
 30
0.0
 40
2.30859375
  1
INPUT
 41
0.7
 72
     1
 11
-111.5
 21
-733.3953786022803
 31
0.0
 73
     2
  0
LINE
  5
392
  8
DATA
  6
CONTINUOUS
 62
     7
 10
-136.5
 20
-734.9953786022804
 30
0.0
 11
-136.5
 21
-736.3953786022803
 31
0.0
  0
LINE
  5
393
  8
DATA
  6
CONTINUOUS
 62
     7
 10
-111.5
 20
-736.3953786022803
 30
0.0
 11
-118.5
 21
-736.3953786022803
 31
0.0
  0
LINE
  5
394
  8
DATA
  6
CONTINUOUS
 62
     7
 10
-129.5
 20
-736.3953786022803
 30
0.0
 11
-136.5
 21
-736.3953786022803
 31
0.0
  0
LINE
  5
395
  8
DATA
  6
CONTINUOUS
 62
     7
 10
-111.5
 20
-734.9953786022804
 30
0.0
 11
-111.5
 21
-736.3953786022803
 31
0.0
  0
LINE
  5
396
  8
DATA
  6
CONTINUOUS
 62
     7
 10
-156.5
 20
-725.25
 30
0.0
 11
-156.5
 21
-723.25
 31
0.0
  0
LINE
  5
397
  8
DATA
  6
CONTINUOUS
 62
     7
 10
-166.5
 20
-727.5
 30
0.0
 11
-166.5
 21
-721.0
 31
0.0
  0
LINE
  5
398
  8
DATA
  6
CONTINUOUS
 62
     7
 10
-159.0
 20
-727.5
 30
0.0
 11
-159.0
 21
-725.875
 31
0.0
  0
LINE
  5
399
  8
DATA
  6
CONTINUOUS
 62
     7
 10
-159.0
 20
-722.625
 30
0.0
 11
-159.0
 21
-721.0
 31
0.0
  0
LINE
  5
39A
  8
DATA
  6
CONTINUOUS
 62
     7
 10
-157.0
 20
-725.875
 30
0.0
 11
-157.0
 21
-725.25
 31
0.0
  0
LINE
  5
39B
  8
DATA
  6
CONTINUOUS
 62
     7
 10
-157.0
 20
-723.25
 30
0.0
 11
-157.0
 21
-722.625
 31
0.0
  0
LINE
  5
39C
  8
DATA
  6
CONTINUOUS
 62
     7
 10
-157.0
 20
-722.625
 30
0.0
 11
-159.0
 21
-722.625
 31
0.0
  0
LINE
  5
39D
  8
DATA
  6
CONTINUOUS
 62
     7
 10
-157.0
 20
-725.875
 30
0.0
 11
-159.0
 21
-725.875
 31
0.0
  0
LINE
  5
39E
  8
DATA
  6
CONTINUOUS
 62
     7
 10
-156.5
 20
-723.25
 30
0.0
 11
-157.0
 21
-723.25
 31
0.0
  0
LINE
  5
39F
  8
DATA
  6
CONTINUOUS
 62
     7
 10
-156.5
 20
-725.25
 30
0.0
 11
-157.0
 21
-725.25
 31
0.0
  0
LINE
  5
3A0
  8
DATA
  6
CONTINUOUS
 62
     7
 10
-166.5
 20
-721.0
 30
0.0
 11
-159.0
 21
-721.0
 31
0.0
  0
LINE
  5
3A1
  8
DATA
  6
CONTINUOUS
 62
     7
 10
-166.5
 20
-727.5
 30
0.0
 11
-159.0
 21
-727.5
 31
0.0
  0
ARC
  5
3A2
  8
DATA
  6
CONTINUOUS
 62
     7
 10
-145.3930281558764
 20
-724.2689520059087
 30
0.0
 40
2.107057078120651
 50
132.0187457505251
 51
179.4846439590365
  0
ARC
  5
3A3
  8
DATA
  6
CONTINUOUS
 62
     7
 10
-141.1326905344746
 20
-728.8850848857116
 30
0.0
 40
8.38859662326683
 50
103.8253077765934
 51
132.5323631733706
  0
ARC
  5
3A4
  8
DATA
  6
CONTINUOUS
 62
     7
 10
-136.7261137442994
 20
-743.3699731116283
 30
0.0
 40
23.52105998030439
 50
89.44919307202491
 51
105.8172556319173
  0
ARC
  5
3A5
  8
DATA
  6
CONTINUOUS
 62
     7
 10
-145.3930281558764
 20
-724.2310479940913
 30
0.0
 40
2.107057078120517
 50
180.5153560409635
 51
227.9812542494749
  0
ARC
  5
3A6
  8
DATA
  6
CONTINUOUS
 62
     7
 10
-141.1326905344746
 20
-719.6149151142884
 30
0.0
 40
8.38859662326683
 50
227.4676368266294
 51
256.1746922234066
  0
ARC
  5
3A7
  8
DATA
  6
CONTINUOUS
 62
     7
 10
-136.7261137442994
 20
-705.1300268883717
 30
0.0
 40
23.52105998030445
 50
254.1827443680827
 51
270.5508069279751
  0
ARC
  5
3A8
  8
DATA
  6
CONTINUOUS
 62
     7
 10
-127.6069718441236
 20
-724.2689520059087
 30
0.0
 40
2.107057078120517
 50
0.5153560409635293
 51
47.98125424947494
  0
ARC
  5
3A9
  8
DATA
  6
CONTINUOUS
 62
     7
 10
-131.8673094655254
 20
-728.8850848857116
 30
0.0
 40
8.38859662326683
 50
47.46763682662944
 51
76.17469222340664
  0
ARC
  5
3AA
  8
DATA
  6
CONTINUOUS
 62
     7
 10
-136.2738862557006
 20
-743.3699731116283
 30
0.0
 40
23.52105998030445
 50
74.18274436808267
 51
90.55080692797509
  0
ARC
  5
3AB
  8
DATA
  6
CONTINUOUS
 62
     7
 10
-127.6069718441236
 20
-724.2310479940913
 30
0.0
 40
2.107057078120651
 50
312.0187457505251
 51
359.4846439590365
  0
ARC
  5
3AC
  8
DATA
  6
CONTINUOUS
 62
     7
 10
-131.8673094655254
 20
-719.6149151142884
 30
0.0
 40
8.38859662326683
 50
283.8253077765933
 51
312.5323631733705
  0
ARC
  5
3AD
  8
DATA
  6
CONTINUOUS
 62
     7
 10
-136.2738862557006
 20
-705.1300268883717
 30
0.0
 40
23.52105998030439
 50
269.4491930720249
 51
285.8172556319174
  0
ARC
  5
3AE
  8
DATA
  6
CONTINUOUS
 62
     7
 10
-120.3930281558764
 20
-724.2689520059087
 30
0.0
 40
2.107057078120651
 50
132.0187457505251
 51
179.4846439590365
  0
ARC
  5
3AF
  8
DATA
  6
CONTINUOUS
 62
     7
 10
-116.1326905344746
 20
-728.8850848857116
 30
0.0
 40
8.38859662326683
 50
103.8253077765934
 51
132.5323631733704
  0
ARC
  5
3B0
  8
DATA
  6
CONTINUOUS
 62
     7
 10
-111.7261137442994
 20
-743.3699731116283
 30
0.0
 40
23.52105998030439
 50
89.44919307202498
 51
105.8172556319175
  0
ARC
  5
3B1
  8
DATA
  6
CONTINUOUS
 62
     7
 10
-120.3930281558764
 20
-724.2310479940913
 30
0.0
 40
2.107057078120517
 50
180.5153560409635
 51
227.9812542494749
  0
ARC
  5
3B2
  8
DATA
  6
CONTINUOUS
 62
     7
 10
-116.1326905344746
 20
-719.6149151142884
 30
0.0
 40
8.388596623266812
 50
227.4676368266296
 51
256.1746922234066
  0
ARC
  5
3B3
  8
DATA
  6
CONTINUOUS
 62
     7
 10
-111.7261137442994
 20
-705.1300268883717
 30
0.0
 40
23.52105998030447
 50
254.1827443680825
 51
270.550806927975
  0
ARC
  5
3B4
  8
DATA
  6
CONTINUOUS
 62
     7
 10
-102.6069718441237
 20
-724.2689520059087
 30
0.0
 40
2.107057078120546
 50
0.5153560409635224
 51
47.98125424947435
  0
ARC
  5
3B5
  8
DATA
  6
CONTINUOUS
 62
     7
 10
-106.8673094655254
 20
-728.8850848857116
 30
0.0
 40
8.388596623266812
 50
47.46763682662959
 51
76.17469222340664
  0
ARC
  5
3B6
  8
DATA
  6
CONTINUOUS
 62
     7
 10
-111.2738862557006
 20
-743.3699731116283
 30
0.0
 40
23.52105998030447
 50
74.18274436808254
 51
90.55080692797503
  0
ARC
  5
3B7
  8
DATA
  6
CONTINUOUS
 62
     7
 10
-102.6069718441237
 20
-724.2310479940913
 30
0.0
 40
2.107057078120669
 50
312.0187457505257
 51
359.4846439590364
  0
ARC
  5
3B8
  8
DATA
  6
CONTINUOUS
 62
     7
 10
-106.8673094655254
 20
-719.6149151142884
 30
0.0
 40
8.38859662326683
 50
283.8253077765933
 51
312.5323631733704
  0
ARC
  5
3B9
  8
DATA
  6
CONTINUOUS
 62
     7
 10
-111.2738862557006
 20
-705.1300268883717
 30
0.0
 40
23.52105998030439
 50
269.449193072025
 51
285.8172556319175
  0
ARC
  5
3BA
  8
DATA
  6
CONTINUOUS
 62
     7
 10
-95.39302815587632
 20
-724.2689520059087
 30
0.0
 40
2.107057078120669
 50
132.0187457505257
 51
179.4846439590365
  0
ARC
  5
3BB
  8
DATA
  6
CONTINUOUS
 62
     7
 10
-91.13269053447459
 20
-728.8850848857116
 30
0.0
 40
8.38859662326683
 50
103.8253077765934
 51
132.5323631733704
  0
ARC
  5
3BC
  8
DATA
  6
CONTINUOUS
 62
     7
 10
-86.72611374429937
 20
-743.3699731116283
 30
0.0
 40
23.52105998030439
 50
89.44919307202498
 51
105.8172556319175
  0
ARC
  5
3BD
  8
DATA
  6
CONTINUOUS
 62
     7
 10
-95.39302815587632
 20
-724.2310479940913
 30
0.0
 40
2.107057078120546
 50
180.5153560409635
 51
227.9812542494743
  0
ARC
  5
3BE
  8
DATA
  6
CONTINUOUS
 62
     7
 10
-91.13269053447459
 20
-719.6149151142884
 30
0.0
 40
8.388596623266812
 50
227.4676368266296
 51
256.1746922234066
  0
ARC
  5
3BF
  8
DATA
  6
CONTINUOUS
 62
     7
 10
-86.72611374429937
 20
-705.1300268883717
 30
0.0
 40
23.52105998030447
 50
254.1827443680825
 51
270.550806927975
  0
ARC
  5
3C0
  8
DATA
  6
CONTINUOUS
 62
     7
 10
-77.60697184412368
 20
-724.2689520059087
 30
0.0
 40
2.107057078120546
 50
0.5153560409635224
 51
47.98125424947435
  0
ARC
  5
3C1
  8
DATA
  6
CONTINUOUS
 62
     7
 10
-81.86730946552541
 20
-728.8850848857116
 30
0.0
 40
8.388596623266812
 50
47.46763682662959
 51
76.17469222340664
  0
ARC
  5
3C2
  8
DATA
  6
CONTINUOUS
 62
     7
 10
-86.27388625570063
 20
-743.3699731116283
 30
0.0
 40
23.52105998030447
 50
74.18274436808254
 51
90.55080692797503
  0
ARC
  5
3C3
  8
DATA
  6
CONTINUOUS
 62
     7
 10
-77.60697184412368
 20
-724.2310479940913
 30
0.0
 40
2.107057078120669
 50
312.0187457505257
 51
359.4846439590364
  0
ARC
  5
3C4
  8
DATA
  6
CONTINUOUS
 62
     7
 10
-81.86730946552541
 20
-719.6149151142884
 30
0.0
 40
8.38859662326683
 50
283.8253077765933
 51
312.5323631733704
  0
ARC
  5
3C5
  8
DATA
  6
CONTINUOUS
 62
     7
 10
-86.27388625570063
 20
-705.1300268883717
 30
0.0
 40
23.52105998030439
 50
269.449193072025
 51
285.8172556319175
  0
CIRCLE
  5
3C6
  8
DATA
  6
CONTINUOUS
 62
     7
 10
-171.5
 20
-805.0
 30
0.0
 40
3.5
  0
LINE
  5
3C7
  8
DATA
  6
CONTINUOUS
 62
     7
 10
-169.5
 20
-805.0
 30
0.0
 11
-173.5
 21
-805.0
 31
0.0
  0
LINE
  5
3C8
  8
DATA
  6
CONTINUOUS
 62
     7
 10
-171.5
 20
-807.0
 30
0.0
 11
-171.5
 21
-803.0
 31
0.0
  0
CIRCLE
  5
3C9
  8
DATA
  6
CONTINUOUS
 62
     7
 10
-78.5
 20
-805.0
 30
0.0
 40
3.5
  0
LINE
  5
3CA
  8
DATA
  6
CONTINUOUS
 62
     7
 10
-76.5
 20
-805.0
 30
0.0
 11
-80.5
 21
-805.0
 31
0.0
  0
LINE
  5
3CB
  8
DATA
  6
CONTINUOUS
 62
     7
 10
-78.5
 20
-807.0
 30
0.0
 11
-78.5
 21
-803.0
 31
0.0
  0
CIRCLE
  5
3CC
  8
DATA
  6
CONTINUOUS
 62
     7
 10
-171.5
 20
-746.0
 30
0.0
 40
3.5
  0
LINE
  5
3CD
  8
DATA
  6
CONTINUOUS
 62
     7
 10
-169.5
 20
-746.0
 30
0.0
 11
-173.5
 21
-746.0
 31
0.0
  0
LINE
  5
3CE
  8
DATA
  6
CONTINUOUS
 62
     7
 10
-171.5
 20
-744.0
 30
0.0
 11
-171.5
 21
-748.0
 31
0.0
  0
CIRCLE
  5
3CF
  8
DATA
  6
CONTINUOUS
 62
     7
 10
-78.5
 20
-746.0
 30
0.0
 40
3.5
  0
LINE
  5
3D0
  8
DATA
  6
CONTINUOUS
 62
     7
 10
-76.5
 20
-746.0
 30
0.0
 11
-80.5
 21
-746.0
 31
0.0
  0
LINE
  5
3D1
  8
DATA
  6
CONTINUOUS
 62
     7
 10
-78.5
 20
-744.0
 30
0.0
 11
-78.5
 21
-748.0
 31
0.0
  0
LINE
  5
3D2
  8
DATA
  6
CONTINUOUS
 62
     7
 10
-171.4000000000002
 20
-796.0499999999997
 30
0.0
 11
-171.4000000000002
 21
-755.4000000000001
 31
0.0
  0
LINE
  5
3D3
  8
DATA
  6
CONTINUOUS
 62
     7
 10
-143.9499999999999
 20
-797.5499999999997
 30
0.0
 11
-169.9000000000002
 21
-797.5499999999997
 31
0.0
  0
LINE
  5
3D4
  8
DATA
  6
CONTINUOUS
 62
     7
 10
-142.4499999999999
 20
-755.4000000000001
 30
0.0
 11
-142.4499999999999
 21
-796.0499999999997
 31
0.0
  0
LINE
  5
3D5
  8
DATA
  6
CONTINUOUS
 62
     7
 10
-169.9000000000002
 20
-753.9000000000001
 30
0.0
 11
-143.9499999999999
 21
-753.9000000000001
 31
0.0
  0
ARC
  5
3D6
  8
DATA
  6
CONTINUOUS
 62
     7
 10
-169.9000000000002
 20
-755.4000000000001
 30
0.0
 40
1.5
 50
90.0
 51
180.0
  0
ARC
  5
3D7
  8
DATA
  6
CONTINUOUS
 62
     7
 10
-143.9499999999999
 20
-755.4000000000001
 30
0.0
 40
1.5
 50
0.0
 51
90.0
  0
ARC
  5
3D8
  8
DATA
  6
CONTINUOUS
 62
     7
 10
-169.9000000000002
 20
-796.0499999999997
 30
0.0
 40
1.5
 50
180.0
 51
270.0
  0
ARC
  5
3D9
  8
DATA
  6
CONTINUOUS
 62
     7
 10
-143.9499999999999
 20
-796.0499999999997
 30
0.0
 40
1.5
 50
270.0
 51
0.0
  0
LINE
  5
3DA
  8
DATA
  6
CONTINUOUS
 62
     7
 10
-147.7749999999988
 20
-779.0250000000001
 30
0.0
 11
-166.0750000000013
 21
-779.0250000000001
 31
0.0
  0
LINE
  5
3DB
  8
DATA
  6
CONTINUOUS
 62
     7
 10
-150.2499999999997
 20
-795.4499999999998
 30
0.0
 11
-163.6000000000005
 21
-795.4499999999998
 31
0.0
  0
LINE
  5
3DC
  8
DATA
  6
CONTINUOUS
 62
     7
 10
-163.6000000000005
 20
-795.4499999999998
 30
0.0
 11
-169.0750000000013
 21
-789.9749999999999
 31
0.0
  0
LINE
  5
3DD
  8
DATA
  6
CONTINUOUS
 62
     7
 10
-169.0750000000013
 20
-789.9749999999999
 30
0.0
 11
-169.0750000000013
 21
-782.0250000000001
 31
0.0
  0
ARC
  5
3DE
  8
DATA
  6
CONTINUOUS
 62
     7
 10
-166.0750000000013
 20
-782.0250000000001
 30
0.0
 40
3.0
 50
90.0
 51
180.0
  0
POLYLINE
  5
3DF
  8
DATA
  6
CONTINUOUS
 62
     7
 66
     1
 10
0.0
 20
0.0
 30
0.0
 70
     1
  0
VERTEX
  5
812
  8
DATA
  6
CONTINUOUS
 62
     7
 10
-164.8750000000003
 20
-782.8499999999999
 30
0.0
  0
VERTEX
  5
813
  8
DATA
  6
CONTINUOUS
 62
     7
 10
-162.5500000000001
 20
-782.8499999999999
 30
0.0
  0
VERTEX
  5
814
  8
DATA
  6
CONTINUOUS
 62
     7
 10
-162.5500000000001
 20
-787.6500000000001
 30
0.0
  0
VERTEX
  5
815
  8
DATA
  6
CONTINUOUS
 62
     7
 10
-164.8750000000003
 20
-787.6500000000001
 30
0.0
  0
SEQEND
  5
900
  8
DATA
  6
CONTINUOUS
 62
     7
  0
POLYLINE
  5
3E6
  8
DATA
  6
CONTINUOUS
 62
     7
 66
     1
 10
0.0
 20
0.0
 30
0.0
 70
     1
  0
VERTEX
  5
816
  8
DATA
  6
CONTINUOUS
 62
     7
 10
-158.1250000000003
 20
-786.9749999999999
 30
0.0
  0
VERTEX
  5
817
  8
DATA
  6
CONTINUOUS
 62
     7
 10
-155.4836225184571
 20
-786.9749999999999
 30
0.0
  0
VERTEX
  5
818
  8
DATA
  6
CONTINUOUS
 62
     7
 10
-155.4836225184571
 20
-791.5499999999997
 30
0.0
  0
VERTEX
  5
819
  8
DATA
  6
CONTINUOUS
 62
     7
 10
-158.1250000000003
 20
-791.5499999999997
 30
0.0
  0
SEQEND
  5
901
  8
DATA
  6
CONTINUOUS
 62
     7
  0
LINE
  5
3ED
  8
DATA
  6
CONTINUOUS
 62
     7
 10
-150.2499999999997
 20
-795.4499999999998
 30
0.0
 11
-144.7749999999988
 21
-789.9749999999999
 31
0.0
  0
LINE
  5
3EE
  8
DATA
  6
CONTINUOUS
 62
     7
 10
-144.7749999999988
 20
-789.9749999999999
 30
0.0
 11
-144.7749999999988
 21
-782.0250000000001
 31
0.0
  0
ARC
  5
3EF
  8
DATA
  6
CONTINUOUS
 62
     7
 10
-147.7749999999988
 20
-782.0250000000001
 30
0.0
 40
3.0
 50
0.0
 51
90.0
  0
POLYLINE
  5
3F0
  8
DATA
  6
CONTINUOUS
 62
     7
 66
     1
 10
0.0
 20
0.0
 30
0.0
 70
     1
  0
VERTEX
  5
81A
  8
DATA
  6
CONTINUOUS
 62
     7
 10
-151.3000000000001
 20
-782.8499999999999
 30
0.0
  0
VERTEX
  5
81B
  8
DATA
  6
CONTINUOUS
 62
     7
 10
-148.9749999999998
 20
-782.8499999999999
 30
0.0
  0
VERTEX
  5
81C
  8
DATA
  6
CONTINUOUS
 62
     7
 10
-148.9749999999998
 20
-787.6500000000001
 30
0.0
  0
VERTEX
  5
81D
  8
DATA
  6
CONTINUOUS
 62
     7
 10
-151.3000000000001
 20
-787.6500000000001
 30
0.0
  0
SEQEND
  5
902
  8
DATA
  6
CONTINUOUS
 62
     7
  0
LINE
  5
3F7
  8
DATA
  6
CONTINUOUS
 62
     7
 10
-169.3750000000003
 20
-776.3249999999998
 30
0.0
 11
-169.3750000000003
 21
-757.4999999999995
 31
0.0
  0
LINE
  5
3F8
  8
DATA
  6
CONTINUOUS
 62
     7
 10
-146.8750000000003
 20
-777.8249999999998
 30
0.0
 11
-167.8750000000003
 21
-777.8249999999998
 31
0.0
  0
LINE
  5
3F9
  8
DATA
  6
CONTINUOUS
 62
     7
 10
-145.3750000000003
 20
-757.4999999999995
 30
0.0
 11
-145.3750000000003
 21
-776.3249999999998
 31
0.0
  0
LINE
  5
3FA
  8
DATA
  6
CONTINUOUS
 62
     7
 10
-167.8750000000003
 20
-755.9999999999995
 30
0.0
 11
-146.8750000000003
 21
-755.9999999999995
 31
0.0
  0
POLYLINE
  5
3FB
  8
DATA
  6
CONTINUOUS
 62
     7
 66
     1
 10
0.0
 20
0.0
 30
0.0
 70
     1
  0
VERTEX
  5
81E
  8
DATA
  6
CONTINUOUS
 62
     7
 10
-166.9750000000005
 20
-758.3249999999998
 30
0.0
  0
VERTEX
  5
81F
  8
DATA
  6
CONTINUOUS
 62
     7
 10
-147.0999999999998
 20
-758.3249999999998
 30
0.0
  0
VERTEX
  5
820
  8
DATA
  6
CONTINUOUS
 62
     7
 10
-147.0999999999998
 20
-774.8249999999998
 30
0.0
  0
VERTEX
  5
821
  8
DATA
  6
CONTINUOUS
 62
     7
 10
-166.9750000000005
 20
-774.8249999999998
 30
0.0
  0
SEQEND
  5
903
  8
DATA
  6
CONTINUOUS
 62
     7
  0
LINE
  5
402
  8
DATA
  6
CONTINUOUS
 62
     7
 10
-166.9750000000005
 20
-760.4999999999995
 30
0.0
 11
-147.0999999999998
 21
-760.4999999999995
 31
0.0
  0
ARC
  5
403
  8
DATA
  6
CONTINUOUS
 62
     7
 10
-167.8750000000003
 20
-757.4999999999995
 30
0.0
 40
1.5
 50
90.0
 51
180.0
  0
ARC
  5
404
  8
DATA
  6
CONTINUOUS
 62
     7
 10
-167.8750000000003
 20
-776.3249999999998
 30
0.0
 40
1.5
 50
180.0
 51
270.0
  0
ARC
  5
405
  8
DATA
  6
CONTINUOUS
 62
     7
 10
-146.8750000000003
 20
-776.3249999999998
 30
0.0
 40
1.5
 50
270.0
 51
0.0
  0
ARC
  5
406
  8
DATA
  6
CONTINUOUS
 62
     7
 10
-146.8750000000003
 20
-757.4999999999995
 30
0.0
 40
1.5
 50
0.0
 51
90.0
  0
TEXT
  5
407
  8
DATA
 62
     7
 10
-167.9004394531251
 20
-750.6119140625001
 30
0.0
 40
1.923828125
  1
POWER AC～100-240V
 41
0.7
 72
     1
 11
-156.9250000000001
 21
-749.6500000000001
 31
0.0
 73
     2
  0
TEXT
  5
408
  8
DATA
 62
     7
 10
-169.8082356770834
 20
-753.1119140625001
 30
0.0
 40
1.923828125
  1
50/60Kz 500 Watts MAX
 41
0.7
 72
     1
 11
-156.9250000000001
 21
-752.1500000000001
 31
0.0
 73
     2
  0
LINE
  5
409
  8
DATA
  6
CONTINUOUS
 62
     7
 10
-120.6820265028977
 20
-793.7530231900355
 30
0.0
 11
-135.382026502899
 21
-793.7530231900355
 31
0.0
  0
LINE
  5
40A
  8
DATA
  6
CONTINUOUS
 62
     7
 10
-135.382026502899
 20
-795.5530231900354
 30
0.0
 11
-120.6820265028977
 21
-795.5530231900354
 31
0.0
  0
ARC
  5
40B
  8
DATA
  6
CONTINUOUS
 62
     7
 10
-135.382026502899
 20
-794.6530231900355
 30
0.0
 40
0.8999999999999773
 50
90.0
 51
270.0
  0
ARC
  5
40C
  8
DATA
  6
CONTINUOUS
 62
     7
 10
-120.6820265028977
 20
-794.6530231900355
 30
0.0
 40
0.8999999999999773
 50
270.0
 51
90.0
  0
LINE
  5
40D
  8
DATA
  6
CONTINUOUS
 62
     7
 10
-100.682026502897
 20
-793.7530231900355
 30
0.0
 11
-115.3820265028987
 21
-793.7530231900355
 31
0.0
  0
LINE
  5
40E
  8
DATA
  6
CONTINUOUS
 62
     7
 10
-115.3820265028987
 20
-795.5530231900354
 30
0.0
 11
-100.682026502897
 21
-795.5530231900354
 31
0.0
  0
ARC
  5
40F
  8
DATA
  6
CONTINUOUS
 62
     7
 10
-115.3820265028987
 20
-794.6530231900355
 30
0.0
 40
0.8999999999999773
 50
90.0
 51
270.0
  0
ARC
  5
410
  8
DATA
  6
CONTINUOUS
 62
     7
 10
-100.682026502897
 20
-794.6530231900355
 30
0.0
 40
0.8999999999999773
 50
270.0
 51
90.0
  0
LINE
  5
411
  8
DATA
  6
CONTINUOUS
 62
     7
 10
-80.68202650289703
 20
-793.7530231900355
 30
0.0
 11
-95.38202650289833
 21
-793.7530231900355
 31
0.0
  0
LINE
  5
412
  8
DATA
  6
CONTINUOUS
 62
     7
 10
-95.38202650289833
 20
-795.5530231900354
 30
0.0
 11
-80.68202650289703
 21
-795.5530231900354
 31
0.0
  0
ARC
  5
413
  8
DATA
  6
CONTINUOUS
 62
     7
 10
-95.38202650289833
 20
-794.6530231900355
 30
0.0
 40
0.8999999999999773
 50
90.0
 51
270.0
  0
ARC
  5
414
  8
DATA
  6
CONTINUOUS
 62
     7
 10
-80.68202650289703
 20
-794.6530231900355
 30
0.0
 40
0.8999999999999773
 50
270.0
 51
90.0
  0
LINE
  5
415
  8
DATA
  6
CONTINUOUS
 62
     7
 10
-120.6820265028977
 20
-788.7530231900355
 30
0.0
 11
-135.382026502899
 21
-788.7530231900355
 31
0.0
  0
LINE
  5
416
  8
DATA
  6
CONTINUOUS
 62
     7
 10
-135.382026502899
 20
-790.5530231900354
 30
0.0
 11
-120.6820265028977
 21
-790.5530231900354
 31
0.0
  0
ARC
  5
417
  8
DATA
  6
CONTINUOUS
 62
     7
 10
-135.382026502899
 20
-789.6530231900355
 30
0.0
 40
0.8999999999999773
 50
90.0
 51
270.0
  0
ARC
  5
418
  8
DATA
  6
CONTINUOUS
 62
     7
 10
-120.6820265028977
 20
-789.6530231900355
 30
0.0
 40
0.8999999999999773
 50
270.0
 51
90.0
  0
LINE
  5
419
  8
DATA
  6
CONTINUOUS
 62
     7
 10
-100.682026502897
 20
-788.7530231900355
 30
0.0
 11
-115.3820265028987
 21
-788.7530231900355
 31
0.0
  0
LINE
  5
41A
  8
DATA
  6
CONTINUOUS
 62
     7
 10
-115.3820265028987
 20
-790.5530231900354
 30
0.0
 11
-100.682026502897
 21
-790.5530231900354
 31
0.0
  0
ARC
  5
41B
  8
DATA
  6
CONTINUOUS
 62
     7
 10
-115.3820265028987
 20
-789.6530231900355
 30
0.0
 40
0.8999999999999773
 50
90.0
 51
270.0
  0
ARC
  5
41C
  8
DATA
  6
CONTINUOUS
 62
     7
 10
-100.682026502897
 20
-789.6530231900355
 30
0.0
 40
0.8999999999999773
 50
270.0
 51
90.0
  0
LINE
  5
41D
  8
DATA
  6
CONTINUOUS
 62
     7
 10
-80.68202650289703
 20
-788.7530231900355
 30
0.0
 11
-95.38202650289833
 21
-788.7530231900355
 31
0.0
  0
LINE
  5
41E
  8
DATA
  6
CONTINUOUS
 62
     7
 10
-95.38202650289833
 20
-790.5530231900354
 30
0.0
 11
-80.68202650289703
 21
-790.5530231900354
 31
0.0
  0
ARC
  5
41F
  8
DATA
  6
CONTINUOUS
 62
     7
 10
-95.38202650289833
 20
-789.6530231900355
 30
0.0
 40
0.8999999999999773
 50
90.0
 51
270.0
  0
ARC
  5
420
  8
DATA
  6
CONTINUOUS
 62
     7
 10
-80.68202650289703
 20
-789.6530231900355
 30
0.0
 40
0.8999999999999773
 50
270.0
 51
90.0
  0
LINE
  5
421
  8
DATA
  6
CONTINUOUS
 62
     7
 10
-120.6820265028977
 20
-783.7530231900355
 30
0.0
 11
-135.382026502899
 21
-783.7530231900355
 31
0.0
  0
LINE
  5
422
  8
DATA
  6
CONTINUOUS
 62
     7
 10
-135.382026502899
 20
-785.5530231900354
 30
0.0
 11
-120.6820265028977
 21
-785.5530231900354
 31
0.0
  0
ARC
  5
423
  8
DATA
  6
CONTINUOUS
 62
     7
 10
-135.382026502899
 20
-784.6530231900355
 30
0.0
 40
0.8999999999999773
 50
90.0
 51
270.0
  0
ARC
  5
424
  8
DATA
  6
CONTINUOUS
 62
     7
 10
-120.6820265028977
 20
-784.6530231900355
 30
0.0
 40
0.8999999999999773
 50
270.0
 51
90.0
  0
LINE
  5
425
  8
DATA
  6
CONTINUOUS
 62
     7
 10
-100.682026502897
 20
-783.7530231900355
 30
0.0
 11
-115.3820265028987
 21
-783.7530231900355
 31
0.0
  0
LINE
  5
426
  8
DATA
  6
CONTINUOUS
 62
     7
 10
-115.3820265028987
 20
-785.5530231900354
 30
0.0
 11
-100.682026502897
 21
-785.5530231900354
 31
0.0
  0
ARC
  5
427
  8
DATA
  6
CONTINUOUS
 62
     7
 10
-115.3820265028987
 20
-784.6530231900355
 30
0.0
 40
0.8999999999999773
 50
90.0
 51
270.0
  0
ARC
  5
428
  8
DATA
  6
CONTINUOUS
 62
     7
 10
-100.682026502897
 20
-784.6530231900355
 30
0.0
 40
0.8999999999999773
 50
270.0
 51
90.0
  0
LINE
  5
429
  8
DATA
  6
CONTINUOUS
 62
     7
 10
-80.68202650289703
 20
-783.7530231900355
 30
0.0
 11
-95.38202650289833
 21
-783.7530231900355
 31
0.0
  0
LINE
  5
42A
  8
DATA
  6
CONTINUOUS
 62
     7
 10
-95.38202650289833
 20
-785.5530231900354
 30
0.0
 11
-80.68202650289703
 21
-785.5530231900354
 31
0.0
  0
ARC
  5
42B
  8
DATA
  6
CONTINUOUS
 62
     7
 10
-95.38202650289833
 20
-784.6530231900355
 30
0.0
 40
0.8999999999999773
 50
90.0
 51
270.0
  0
ARC
  5
42C
  8
DATA
  6
CONTINUOUS
 62
     7
 10
-80.68202650289703
 20
-784.6530231900355
 30
0.0
 40
0.8999999999999773
 50
270.0
 51
90.0
  0
LINE
  5
42D
  8
DATA
  6
CONTINUOUS
 62
     7
 10
-120.6820265028977
 20
-778.7530231900355
 30
0.0
 11
-135.382026502899
 21
-778.7530231900355
 31
0.0
  0
LINE
  5
42E
  8
DATA
  6
CONTINUOUS
 62
     7
 10
-135.382026502899
 20
-780.5530231900354
 30
0.0
 11
-120.6820265028977
 21
-780.5530231900354
 31
0.0
  0
ARC
  5
42F
  8
DATA
  6
CONTINUOUS
 62
     7
 10
-135.382026502899
 20
-779.6530231900355
 30
0.0
 40
0.8999999999999773
 50
90.0
 51
270.0
  0
ARC
  5
430
  8
DATA
  6
CONTINUOUS
 62
     7
 10
-120.6820265028977
 20
-779.6530231900355
 30
0.0
 40
0.8999999999999773
 50
270.0
 51
90.0
  0
LINE
  5
431
  8
DATA
  6
CONTINUOUS
 62
     7
 10
-100.682026502897
 20
-778.7530231900355
 30
0.0
 11
-115.3820265028987
 21
-778.7530231900355
 31
0.0
  0
LINE
  5
432
  8
DATA
  6
CONTINUOUS
 62
     7
 10
-115.3820265028987
 20
-780.5530231900354
 30
0.0
 11
-100.682026502897
 21
-780.5530231900354
 31
0.0
  0
ARC
  5
433
  8
DATA
  6
CONTINUOUS
 62
     7
 10
-115.3820265028987
 20
-779.6530231900355
 30
0.0
 40
0.8999999999999773
 50
90.0
 51
270.0
  0
ARC
  5
434
  8
DATA
  6
CONTINUOUS
 62
     7
 10
-100.682026502897
 20
-779.6530231900355
 30
0.0
 40
0.8999999999999773
 50
270.0
 51
90.0
  0
LINE
  5
435
  8
DATA
  6
CONTINUOUS
 62
     7
 10
-80.68202650289703
 20
-778.7530231900355
 30
0.0
 11
-95.38202650289833
 21
-778.7530231900355
 31
0.0
  0
LINE
  5
436
  8
DATA
  6
CONTINUOUS
 62
     7
 10
-95.38202650289833
 20
-780.5530231900354
 30
0.0
 11
-80.68202650289703
 21
-780.5530231900354
 31
0.0
  0
ARC
  5
437
  8
DATA
  6
CONTINUOUS
 62
     7
 10
-95.38202650289833
 20
-779.6530231900355
 30
0.0
 40
0.8999999999999773
 50
90.0
 51
270.0
  0
ARC
  5
438
  8
DATA
  6
CONTINUOUS
 62
     7
 10
-80.68202650289703
 20
-779.6530231900355
 30
0.0
 40
0.8999999999999773
 50
270.0
 51
90.0
  0
LINE
  5
439
  8
DATA
  6
CONTINUOUS
 62
     7
 10
-120.6820265028977
 20
-773.7530231900355
 30
0.0
 11
-135.382026502899
 21
-773.7530231900355
 31
0.0
  0
LINE
  5
43A
  8
DATA
  6
CONTINUOUS
 62
     7
 10
-135.382026502899
 20
-775.5530231900354
 30
0.0
 11
-120.6820265028977
 21
-775.5530231900354
 31
0.0
  0
ARC
  5
43B
  8
DATA
  6
CONTINUOUS
 62
     7
 10
-135.382026502899
 20
-774.6530231900355
 30
0.0
 40
0.8999999999999773
 50
90.0
 51
270.0
  0
ARC
  5
43C
  8
DATA
  6
CONTINUOUS
 62
     7
 10
-120.6820265028977
 20
-774.6530231900355
 30
0.0
 40
0.8999999999999773
 50
270.0
 51
90.0
  0
LINE
  5
43D
  8
DATA
  6
CONTINUOUS
 62
     7
 10
-100.682026502897
 20
-773.7530231900355
 30
0.0
 11
-115.3820265028987
 21
-773.7530231900355
 31
0.0
  0
LINE
  5
43E
  8
DATA
  6
CONTINUOUS
 62
     7
 10
-115.3820265028987
 20
-775.5530231900354
 30
0.0
 11
-100.682026502897
 21
-775.5530231900354
 31
0.0
  0
ARC
  5
43F
  8
DATA
  6
CONTINUOUS
 62
     7
 10
-115.3820265028987
 20
-774.6530231900355
 30
0.0
 40
0.8999999999999773
 50
90.0
 51
270.0
  0
ARC
  5
440
  8
DATA
  6
CONTINUOUS
 62
     7
 10
-100.682026502897
 20
-774.6530231900355
 30
0.0
 40
0.8999999999999773
 50
270.0
 51
90.0
  0
LINE
  5
441
  8
DATA
  6
CONTINUOUS
 62
     7
 10
-80.68202650289703
 20
-773.7530231900355
 30
0.0
 11
-95.38202650289833
 21
-773.7530231900355
 31
0.0
  0
LINE
  5
442
  8
DATA
  6
CONTINUOUS
 62
     7
 10
-95.38202650289833
 20
-775.5530231900354
 30
0.0
 11
-80.68202650289703
 21
-775.5530231900354
 31
0.0
  0
ARC
  5
443
  8
DATA
  6
CONTINUOUS
 62
     7
 10
-95.38202650289833
 20
-774.6530231900355
 30
0.0
 40
0.8999999999999773
 50
90.0
 51
270.0
  0
ARC
  5
444
  8
DATA
  6
CONTINUOUS
 62
     7
 10
-80.68202650289703
 20
-774.6530231900355
 30
0.0
 40
0.8999999999999773
 50
270.0
 51
90.0
  0
LINE
  5
445
  8
DATA
  6
CONTINUOUS
 62
     7
 10
-227.0
 20
-565.75
 30
0.0
 11
-227.0
 21
-834.25
 31
0.0
  0
TEXT
  5
446
  8
DATA
 62
     7
 10
486.9520869502315
 20
-788.5736762152778
 30
0.0
 40
27.14735243055556
  1
背面パネル拡大図
 41
0.7
 72
     1
 11
575.0
 21
-775.0
 31
0.0
 73
     2
  0
CIRCLE
  5
447
  8
DATA
  6
CONTINUOUS
 62
     7
 10
296.688722757805
 20
-390.75
 30
0.0
 40
21.0
  0
LINE
  5
448
  8
DATA
  6
CONTINUOUS
 62
     7
 10
308.688722757805
 20
-390.75
 30
0.0
 11
284.688722757805
 21
-390.75
 31
0.0
  0
LINE
  5
449
  8
DATA
  6
CONTINUOUS
 62
     7
 10
296.688722757805
 20
-378.75
 30
0.0
 11
296.688722757805
 21
-402.75
 31
0.0
  0
CIRCLE
  5
44A
  8
DATA
  6
CONTINUOUS
 62
     7
 10
854.688722757805
 20
-390.75
 30
0.0
 40
21.0
  0
LINE
  5
44B
  8
DATA
  6
CONTINUOUS
 62
     7
 10
866.688722757805
 20
-390.75
 30
0.0
 11
842.688722757805
 21
-390.75
 31
0.0
  0
LINE
  5
44C
  8
DATA
  6
CONTINUOUS
 62
     7
 10
854.688722757805
 20
-378.75
 30
0.0
 11
854.688722757805
 21
-402.75
 31
0.0
  0
POLYLINE
  5
44D
  8
DATA
  6
CONTINUOUS
 62
     7
 66
     1
 10
0.0
 20
0.0
 30
0.0
 70
     1
  0
VERTEX
  5
822
  8
DATA
  6
CONTINUOUS
 62
     7
 10
380.688722757805
 20
-14.25
 30
0.0
  0
VERTEX
  5
823
  8
DATA
  6
CONTINUOUS
 62
     7
 10
770.688722757805
 20
-14.25
 30
0.0
  0
VERTEX
  5
824
  8
DATA
  6
CONTINUOUS
 62
     7
 10
770.688722757805
 20
-110.25
 30
0.0
  0
VERTEX
  5
825
  8
DATA
  6
CONTINUOUS
 62
     7
 10
380.688722757805
 20
-110.25
 30
0.0
  0
SEQEND
  5
904
  8
DATA
  6
CONTINUOUS
 62
     7
  0
TEXT
  5
454
  8
DATA
 62
     7
 10
772.6724730985015
 20
1.106134481135654
 30
0.0
 40
13.8515625
  1
FRONT PANEL
 41
0.7
 11
772.6724730985015
 21
8.031915731135655
 31
0.0
 73
     2
  0
TEXT
  5
455
  8
DATA
 62
     7
 10
772.6724730985015
 20
-16.89386551886435
 30
0.0
 40
13.8515625
  1
INDICATORS:
 41
0.7
 11
772.6724730985015
 21
-9.968084268864345
 31
0.0
 73
     2
  0
TEXT
  5
456
  8
DATA
 62
     7
 10
778.6481844726784
 20
-39.17578125
 30
0.0
 40
13.8515625
  1
LOCATE
 41
0.7
 72
     2
 11
833.5927157226783
 21
-32.25
 31
0.0
 73
     2
  0
TEXT
  5
457
  8
DATA
 62
     7
 10
785.1122469726783
 20
-63.17578125
 30
0.0
 40
13.8515625
  1
POWER
 41
0.7
 72
     2
 11
833.5927157226783
 21
-56.25
 31
0.0
 73
     2
  0
TEXT
  5
458
  8
DATA
 62
     7
 10
794.8083407226784
 20
-87.17578125
 30
0.0
 40
13.8515625
  1
LIMIT
 41
0.7
 72
     2
 11
833.5927157226783
 21
-80.25
 31
0.0
 73
     2
  0
TEXT
  5
459
  8
DATA
 62
     7
 10
788.3442782226783
 20
-111.17578125
 30
0.0
 40
13.8515625
  1
ERROR
 41
0.7
 72
     2
 11
833.5927157226783
 21
-104.25
 31
0.0
 73
     2
  0
TEXT
  5
45A
  8
DATA
 62
     7
 10
717.8859969726783
 20
-144.17578125
 30
0.0
 40
13.8515625
  1
USER SETTINGS
 41
0.7
 72
     2
 11
833.5927157226783
 21
-137.25
 31
0.0
 73
     2
  0
CIRCLE
  5
45B
  8
DATA
  6
CONTINUOUS
 62
     7
 10
575.688722757805
 20
-278.25
 30
0.0
 40
114.0
  0
CIRCLE
  5
45C
  8
DATA
  6
CONTINUOUS
 62
     7
 10
575.688722757805
 20
-278.25
 30
0.0
 40
57.0
  0
CIRCLE
  5
45D
  8
DATA
  6
CONTINUOUS
 62
     7
 10
575.688722757805
 20
-278.25
 30
0.0
 40
30.0
  0
POLYLINE
  5
45E
  8
DATA
  6
CONTINUOUS
 62
     7
 66
     1
 10
0.0
 20
0.0
 30
0.0
 70
     1
  0
VERTEX
  5
826
  8
DATA
  6
CONTINUOUS
 62
     7
 10
471.7467952977554
 20
-263.3059136816685
 30
0.0
  0
VERTEX
  5
827
  8
DATA
  6
CONTINUOUS
 62
     7
 10
472.2160986928757
 20
-260.3428486598831
 30
0.0
  0
VERTEX
  5
828
  8
DATA
  6
CONTINUOUS
 62
     7
 10
501.8467489107302
 20
-265.03588261109
 30
0.0
  0
VERTEX
  5
829
  8
DATA
  6
CONTINUOUS
 62
     7
 10
501.3774455156099
 20
-267.9989476328753
 30
0.0
  0
SEQEND
  5
905
  8
DATA
  6
CONTINUOUS
 62
     7
  0
POLYLINE
  5
465
  8
DATA
  6
CONTINUOUS
 62
     7
 66
     1
 10
0.0
 20
0.0
 30
0.0
 70
     1
  0
VERTEX
  5
82A
  8
DATA
  6
CONTINUOUS
 62
     7
 10
475.3642630552508
 20
-247.2298003650733
 30
0.0
  0
VERTEX
  5
82B
  8
DATA
  6
CONTINUOUS
 62
     7
 10
476.2913140383766
 20
-244.3766308161879
 30
0.0
  0
VERTEX
  5
82C
  8
DATA
  6
CONTINUOUS
 62
     7
 10
504.8230095272311
 20
-253.6471406474365
 30
0.0
  0
VERTEX
  5
82D
  8
DATA
  6
CONTINUOUS
 62
     7
 10
503.8959585441066
 20
-256.5003101963218
 30
0.0
  0
SEQEND
  5
906
  8
DATA
  6
CONTINUOUS
 62
     7
  0
POLYLINE
  5
46C
  8
DATA
  6
CONTINUOUS
 62
     7
 66
     1
 10
0.0
 20
0.0
 30
0.0
 70
     1
  0
VERTEX
  5
82E
  8
DATA
  6
CONTINUOUS
 62
     7
 10
526.6832104988703
 20
-185.375300709831
 30
0.0
  0
VERTEX
  5
82F
  8
DATA
  6
CONTINUOUS
 62
     7
 10
529.3562300714343
 20
-184.0133292106123
 30
0.0
  0
VERTEX
  5
830
  8
DATA
  6
CONTINUOUS
 62
     7
 10
542.9759450636216
 20
-210.7435249362633
 30
0.0
  0
VERTEX
  5
831
  8
DATA
  6
CONTINUOUS
 62
     7
 10
540.3029254910562
 20
-212.105496435482
 30
0.0
  0
SEQEND
  5
907
  8
DATA
  6
CONTINUOUS
 62
     7
  0
POLYLINE
  5
473
  8
DATA
  6
CONTINUOUS
 62
     7
 66
     1
 10
0.0
 20
0.0
 30
0.0
 70
     1
  0
VERTEX
  5
832
  8
DATA
  6
CONTINUOUS
 62
     7
 10
481.4520519684165
 20
-231.9175073136304
 30
0.0
  0
VERTEX
  5
833
  8
DATA
  6
CONTINUOUS
 62
     7
 10
482.8140234676353
 20
-229.2444877410653
 30
0.0
  0
VERTEX
  5
834
  8
DATA
  6
CONTINUOUS
 62
     7
 10
509.5442191932866
 20
-242.8642027332515
 30
0.0
  0
VERTEX
  5
835
  8
DATA
  6
CONTINUOUS
 62
     7
 10
508.1822476940679
 20
-245.5372223058166
 30
0.0
  0
SEQEND
  5
908
  8
DATA
  6
CONTINUOUS
 62
     7
  0
POLYLINE
  5
47A
  8
DATA
  6
CONTINUOUS
 62
     7
 66
     1
 10
0.0
 20
0.0
 30
0.0
 70
     1
  0
VERTEX
  5
836
  8
DATA
  6
CONTINUOUS
 62
     7
 10
489.8602604699968
 20
-217.7460740008528
 30
0.0
  0
VERTEX
  5
837
  8
DATA
  6
CONTINUOUS
 62
     7
 10
491.6236162268747
 20
-215.319023017728
 30
0.0
  0
VERTEX
  5
838
  8
DATA
  6
CONTINUOUS
 62
     7
 10
515.8941260581232
 20
-232.9525805865022
 30
0.0
  0
VERTEX
  5
839
  8
DATA
  6
CONTINUOUS
 62
     7
 10
514.1307703012453
 20
-235.379631569627
 30
0.0
  0
SEQEND
  5
909
  8
DATA
  6
CONTINUOUS
 62
     7
  0
POLYLINE
  5
481
  8
DATA
  6
CONTINUOUS
 62
     7
 66
     1
 10
0.0
 20
0.0
 30
0.0
 70
     1
  0
VERTEX
  5
83A
  8
DATA
  6
CONTINUOUS
 62
     7
 10
500.3818505608479
 20
-205.064448147844
 30
0.0
  0
VERTEX
  5
83B
  8
DATA
  6
CONTINUOUS
 62
     7
 10
502.5031709043451
 20
-202.9431278042223
 30
0.0
  0
VERTEX
  5
83C
  8
DATA
  6
CONTINUOUS
 62
     7
 10
523.7163743405617
 20
-224.1563312391982
 30
0.0
  0
VERTEX
  5
83D
  8
DATA
  6
CONTINUOUS
 62
     7
 10
521.5950539970645
 20
-226.2776515828199
 30
0.0
  0
SEQEND
  5
90A
  8
DATA
  6
CONTINUOUS
 62
     7
  0
POLYLINE
  5
488
  8
DATA
  6
CONTINUOUS
 62
     7
 66
     1
 10
0.0
 20
0.0
 30
0.0
 70
     1
  0
VERTEX
  5
83E
  8
DATA
  6
CONTINUOUS
 62
     7
 10
512.7577457755333
 20
-194.184893469069
 30
0.0
  0
VERTEX
  5
83F
  8
DATA
  6
CONTINUOUS
 62
     7
 10
515.1847967586577
 20
-192.4215377121915
 30
0.0
  0
VERTEX
  5
840
  8
DATA
  6
CONTINUOUS
 62
     7
 10
532.8183543274313
 20
-216.69204754344
 30
0.0
  0
VERTEX
  5
841
  8
DATA
  6
CONTINUOUS
 62
     7
 10
530.3913033443068
 20
-218.4554033003176
 30
0.0
  0
SEQEND
  5
90B
  8
DATA
  6
CONTINUOUS
 62
     7
  0
POLYLINE
  5
48F
  8
DATA
  6
CONTINUOUS
 62
     7
 66
     1
 10
0.0
 20
0.0
 30
0.0
 70
     1
  0
VERTEX
  5
842
  8
DATA
  6
CONTINUOUS
 62
     7
 10
574.188722757805
 20
-173.25
 30
0.0
  0
VERTEX
  5
843
  8
DATA
  6
CONTINUOUS
 62
     7
 10
577.188722757805
 20
-173.25
 30
0.0
  0
VERTEX
  5
844
  8
DATA
  6
CONTINUOUS
 62
     7
 10
577.188722757805
 20
-203.25
 30
0.0
  0
VERTEX
  5
845
  8
DATA
  6
CONTINUOUS
 62
     7
 10
574.188722757805
 20
-203.25
 30
0.0
  0
SEQEND
  5
90C
  8
DATA
  6
CONTINUOUS
 62
     7
  0
POLYLINE
  5
496
  8
DATA
  6
CONTINUOUS
 62
     7
 66
     1
 10
0.0
 20
0.0
 30
0.0
 70
     1
  0
VERTEX
  5
846
  8
DATA
  6
CONTINUOUS
 62
     7
 10
541.8153535739925
 20
-178.8525912805707
 30
0.0
  0
VERTEX
  5
847
  8
DATA
  6
CONTINUOUS
 62
     7
 10
544.6685231228789
 20
-177.9255402974459
 30
0.0
  0
VERTEX
  5
848
  8
DATA
  6
CONTINUOUS
 62
     7
 10
553.9390329541261
 20
-206.4572357863007
 30
0.0
  0
VERTEX
  5
849
  8
DATA
  6
CONTINUOUS
 62
     7
 10
551.0858634052411
 20
-207.3842867694254
 30
0.0
  0
SEQEND
  5
90D
  8
DATA
  6
CONTINUOUS
 62
     7
  0
POLYLINE
  5
49D
  8
DATA
  6
CONTINUOUS
 62
     7
 66
     1
 10
0.0
 20
0.0
 30
0.0
 70
     1
  0
VERTEX
  5
84A
  8
DATA
  6
CONTINUOUS
 62
     7
 10
557.7815714176877
 20
-174.7773759350707
 30
0.0
  0
VERTEX
  5
84B
  8
DATA
  6
CONTINUOUS
 62
     7
 10
560.7446364394741
 20
-174.3080725399501
 30
0.0
  0
VERTEX
  5
84C
  8
DATA
  6
CONTINUOUS
 62
     7
 10
565.437670390681
 20
-203.9387227578043
 30
0.0
  0
VERTEX
  5
84D
  8
DATA
  6
CONTINUOUS
 62
     7
 10
562.4746053688946
 20
-204.4080261529249
 30
0.0
  0
SEQEND
  5
90E
  8
DATA
  6
CONTINUOUS
 62
     7
  0
POLYLINE
  5
4A4
  8
DATA
  6
CONTINUOUS
 62
     7
 66
     1
 10
0.0
 20
0.0
 30
0.0
 70
     1
  0
VERTEX
  5
84E
  8
DATA
  6
CONTINUOUS
 62
     7
 10
470.688722757805
 20
-279.75
 30
0.0
  0
VERTEX
  5
84F
  8
DATA
  6
CONTINUOUS
 62
     7
 10
470.688722757805
 20
-276.75
 30
0.0
  0
VERTEX
  5
850
  8
DATA
  6
CONTINUOUS
 62
     7
 10
500.688722757805
 20
-276.75
 30
0.0
  0
VERTEX
  5
851
  8
DATA
  6
CONTINUOUS
 62
     7
 10
500.688722757805
 20
-279.75
 30
0.0
  0
SEQEND
  5
90F
  8
DATA
  6
CONTINUOUS
 62
     7
  0
POLYLINE
  5
4AB
  8
DATA
  6
CONTINUOUS
 62
     7
 66
     1
 10
0.0
 20
0.0
 30
0.0
 70
     1
  0
VERTEX
  5
852
  8
DATA
  6
CONTINUOUS
 62
     7
 10
650.0000000000014
 20
-267.9989476328753
 30
0.0
  0
VERTEX
  5
853
  8
DATA
  6
CONTINUOUS
 62
     7
 10
649.5306966048797
 20
-265.03588261109
 30
0.0
  0
VERTEX
  5
854
  8
DATA
  6
CONTINUOUS
 62
     7
 10
679.1613468227342
 20
-260.3428486598831
 30
0.0
  0
VERTEX
  5
855
  8
DATA
  6
CONTINUOUS
 62
     7
 10
679.6306502178545
 20
-263.3059136816685
 30
0.0
  0
SEQEND
  5
910
  8
DATA
  6
CONTINUOUS
 62
     7
  0
POLYLINE
  5
4B2
  8
DATA
  6
CONTINUOUS
 62
     7
 66
     1
 10
0.0
 20
0.0
 30
0.0
 70
     1
  0
VERTEX
  5
856
  8
DATA
  6
CONTINUOUS
 62
     7
 10
647.4814869715033
 20
-256.5003101963218
 30
0.0
  0
VERTEX
  5
857
  8
DATA
  6
CONTINUOUS
 62
     7
 10
646.5544359883788
 20
-253.6471406474365
 30
0.0
  0
VERTEX
  5
858
  8
DATA
  6
CONTINUOUS
 62
     7
 10
675.0861314772333
 20
-244.3766308161879
 30
0.0
  0
VERTEX
  5
859
  8
DATA
  6
CONTINUOUS
 62
     7
 10
676.0131824603591
 20
-247.2298003650733
 30
0.0
  0
SEQEND
  5
911
  8
DATA
  6
CONTINUOUS
 62
     7
  0
POLYLINE
  5
4B9
  8
DATA
  6
CONTINUOUS
 62
     7
 66
     1
 10
0.0
 20
0.0
 30
0.0
 70
     1
  0
VERTEX
  5
85A
  8
DATA
  6
CONTINUOUS
 62
     7
 10
611.0745200245537
 20
-212.105496435482
 30
0.0
  0
VERTEX
  5
85B
  8
DATA
  6
CONTINUOUS
 62
     7
 10
608.4015004519883
 20
-210.7435249362633
 30
0.0
  0
VERTEX
  5
85C
  8
DATA
  6
CONTINUOUS
 62
     7
 10
622.0212154441756
 20
-184.0133292106123
 30
0.0
  0
VERTEX
  5
85D
  8
DATA
  6
CONTINUOUS
 62
     7
 10
624.6942350167396
 20
-185.375300709831
 30
0.0
  0
SEQEND
  5
912
  8
DATA
  6
CONTINUOUS
 62
     7
  0
POLYLINE
  5
4C0
  8
DATA
  6
CONTINUOUS
 62
     7
 66
     1
 10
0.0
 20
0.0
 30
0.0
 70
     1
  0
VERTEX
  5
85E
  8
DATA
  6
CONTINUOUS
 62
     7
 10
643.195197821542
 20
-245.5372223058166
 30
0.0
  0
VERTEX
  5
85F
  8
DATA
  6
CONTINUOUS
 62
     7
 10
641.8332263223233
 20
-242.8642027332515
 30
0.0
  0
VERTEX
  5
860
  8
DATA
  6
CONTINUOUS
 62
     7
 10
668.5634220479747
 20
-229.2444877410653
 30
0.0
  0
VERTEX
  5
861
  8
DATA
  6
CONTINUOUS
 62
     7
 10
669.9253935471934
 20
-231.9175073136304
 30
0.0
  0
SEQEND
  5
913
  8
DATA
  6
CONTINUOUS
 62
     7
  0
POLYLINE
  5
4C7
  8
DATA
  6
CONTINUOUS
 62
     7
 66
     1
 10
0.0
 20
0.0
 30
0.0
 70
     1
  0
VERTEX
  5
862
  8
DATA
  6
CONTINUOUS
 62
     7
 10
637.2466752143646
 20
-235.379631569627
 30
0.0
  0
VERTEX
  5
863
  8
DATA
  6
CONTINUOUS
 62
     7
 10
635.4833194574867
 20
-232.9525805865022
 30
0.0
  0
VERTEX
  5
864
  8
DATA
  6
CONTINUOUS
 62
     7
 10
659.7538292887352
 20
-215.319023017728
 30
0.0
  0
VERTEX
  5
865
  8
DATA
  6
CONTINUOUS
 62
     7
 10
661.5171850456131
 20
-217.7460740008528
 30
0.0
  0
SEQEND
  5
914
  8
DATA
  6
CONTINUOUS
 62
     7
  0
POLYLINE
  5
4CE
  8
DATA
  6
CONTINUOUS
 62
     7
 66
     1
 10
0.0
 20
0.0
 30
0.0
 70
     1
  0
VERTEX
  5
866
  8
DATA
  6
CONTINUOUS
 62
     7
 10
629.7823915185454
 20
-226.2776515828199
 30
0.0
  0
VERTEX
  5
867
  8
DATA
  6
CONTINUOUS
 62
     7
 10
627.6610711750482
 20
-224.1563312391982
 30
0.0
  0
VERTEX
  5
868
  8
DATA
  6
CONTINUOUS
 62
     7
 10
648.8742746112648
 20
-202.9431278042223
 30
0.0
  0
VERTEX
  5
869
  8
DATA
  6
CONTINUOUS
 62
     7
 10
650.995594954762
 20
-205.064448147844
 30
0.0
  0
SEQEND
  5
915
  8
DATA
  6
CONTINUOUS
 62
     7
  0
POLYLINE
  5
4D5
  8
DATA
  6
CONTINUOUS
 62
     7
 66
     1
 10
0.0
 20
0.0
 30
0.0
 70
     1
  0
VERTEX
  5
86A
  8
DATA
  6
CONTINUOUS
 62
     7
 10
620.9861421713031
 20
-218.4554033003176
 30
0.0
  0
VERTEX
  5
86B
  8
DATA
  6
CONTINUOUS
 62
     7
 10
618.5590911881786
 20
-216.69204754344
 30
0.0
  0
VERTEX
  5
86C
  8
DATA
  6
CONTINUOUS
 62
     7
 10
636.1926487569522
 20
-192.4215377121915
 30
0.0
  0
VERTEX
  5
86D
  8
DATA
  6
CONTINUOUS
 62
     7
 10
638.619699740078
 20
-194.184893469069
 30
0.0
  0
SEQEND
  5
916
  8
DATA
  6
CONTINUOUS
 62
     7
  0
POLYLINE
  5
4DC
  8
DATA
  6
CONTINUOUS
 62
     7
 66
     1
 10
0.0
 20
0.0
 30
0.0
 70
     1
  0
VERTEX
  5
86E
  8
DATA
  6
CONTINUOUS
 62
     7
 10
600.2915821103688
 20
-207.3842867694254
 30
0.0
  0
VERTEX
  5
86F
  8
DATA
  6
CONTINUOUS
 62
     7
 10
597.4384125614838
 20
-206.4572357863007
 30
0.0
  0
VERTEX
  5
870
  8
DATA
  6
CONTINUOUS
 62
     7
 10
606.708922392731
 20
-177.9255402974459
 30
0.0
  0
VERTEX
  5
871
  8
DATA
  6
CONTINUOUS
 62
     7
 10
609.5620919416174
 20
-178.8525912805707
 30
0.0
  0
SEQEND
  5
917
  8
DATA
  6
CONTINUOUS
 62
     7
  0
POLYLINE
  5
4E3
  8
DATA
  6
CONTINUOUS
 62
     7
 66
     1
 10
0.0
 20
0.0
 30
0.0
 70
     1
  0
VERTEX
  5
872
  8
DATA
  6
CONTINUOUS
 62
     7
 10
588.9028401467153
 20
-204.4080261529249
 30
0.0
  0
VERTEX
  5
873
  8
DATA
  6
CONTINUOUS
 62
     7
 10
585.9397751249289
 20
-203.9387227578043
 30
0.0
  0
VERTEX
  5
874
  8
DATA
  6
CONTINUOUS
 62
     7
 10
590.6328090761358
 20
-174.3080725399501
 30
0.0
  0
VERTEX
  5
875
  8
DATA
  6
CONTINUOUS
 62
     7
 10
593.5958740979222
 20
-174.7773759350707
 30
0.0
  0
SEQEND
  5
918
  8
DATA
  6
CONTINUOUS
 62
     7
  0
POLYLINE
  5
4EA
  8
DATA
  6
CONTINUOUS
 62
     7
 66
     1
 10
0.0
 20
0.0
 30
0.0
 70
     1
  0
VERTEX
  5
876
  8
DATA
  6
CONTINUOUS
 62
     7
 10
650.688722757805
 20
-279.75
 30
0.0
  0
VERTEX
  5
877
  8
DATA
  6
CONTINUOUS
 62
     7
 10
650.688722757805
 20
-276.75
 30
0.0
  0
VERTEX
  5
878
  8
DATA
  6
CONTINUOUS
 62
     7
 10
680.688722757805
 20
-276.75
 30
0.0
  0
VERTEX
  5
879
  8
DATA
  6
CONTINUOUS
 62
     7
 10
680.688722757805
 20
-279.75
 30
0.0
  0
SEQEND
  5
919
  8
DATA
  6
CONTINUOUS
 62
     7
  0
POLYLINE
  5
4F1
  8
DATA
  6
CONTINUOUS
 62
     7
 66
     1
 10
0.0
 20
0.0
 30
0.0
 70
     1
  0
VERTEX
  5
87A
  8
DATA
  6
CONTINUOUS
 62
     7
 10
501.3774455156099
 20
-288.5010523671247
 30
0.0
  0
VERTEX
  5
87B
  8
DATA
  6
CONTINUOUS
 62
     7
 10
501.8467489107302
 20
-291.46411738891
 30
0.0
  0
VERTEX
  5
87C
  8
DATA
  6
CONTINUOUS
 62
     7
 10
472.2160986928757
 20
-296.1571513401169
 30
0.0
  0
VERTEX
  5
87D
  8
DATA
  6
CONTINUOUS
 62
     7
 10
471.7467952977554
 20
-293.1940863183315
 30
0.0
  0
SEQEND
  5
91A
  8
DATA
  6
CONTINUOUS
 62
     7
  0
POLYLINE
  5
4F8
  8
DATA
  6
CONTINUOUS
 62
     7
 66
     1
 10
0.0
 20
0.0
 30
0.0
 70
     1
  0
VERTEX
  5
87E
  8
DATA
  6
CONTINUOUS
 62
     7
 10
503.8959585441066
 20
-299.9996898036782
 30
0.0
  0
VERTEX
  5
87F
  8
DATA
  6
CONTINUOUS
 62
     7
 10
504.8230095272311
 20
-302.8528593525635
 30
0.0
  0
VERTEX
  5
880
  8
DATA
  6
CONTINUOUS
 62
     7
 10
476.2913140383766
 20
-312.1233691838121
 30
0.0
  0
VERTEX
  5
881
  8
DATA
  6
CONTINUOUS
 62
     7
 10
475.3642630552508
 20
-309.2701996349267
 30
0.0
  0
SEQEND
  5
91B
  8
DATA
  6
CONTINUOUS
 62
     7
  0
POLYLINE
  5
4FF
  8
DATA
  6
CONTINUOUS
 62
     7
 66
     1
 10
0.0
 20
0.0
 30
0.0
 70
     1
  0
VERTEX
  5
882
  8
DATA
  6
CONTINUOUS
 62
     7
 10
540.3029254910562
 20
-344.394503564518
 30
0.0
  0
VERTEX
  5
883
  8
DATA
  6
CONTINUOUS
 62
     7
 10
542.9759450636216
 20
-345.7564750637367
 30
0.0
  0
VERTEX
  5
884
  8
DATA
  6
CONTINUOUS
 62
     7
 10
529.3562300714343
 20
-372.4866707893877
 30
0.0
  0
VERTEX
  5
885
  8
DATA
  6
CONTINUOUS
 62
     7
 10
526.6832104988703
 20
-371.124699290169
 30
0.0
  0
SEQEND
  5
91C
  8
DATA
  6
CONTINUOUS
 62
     7
  0
POLYLINE
  5
506
  8
DATA
  6
CONTINUOUS
 62
     7
 66
     1
 10
0.0
 20
0.0
 30
0.0
 70
     1
  0
VERTEX
  5
886
  8
DATA
  6
CONTINUOUS
 62
     7
 10
508.1822476940679
 20
-310.9627776941834
 30
0.0
  0
VERTEX
  5
887
  8
DATA
  6
CONTINUOUS
 62
     7
 10
509.5442191932866
 20
-313.6357972667485
 30
0.0
  0
VERTEX
  5
888
  8
DATA
  6
CONTINUOUS
 62
     7
 10
482.8140234676353
 20
-327.2555122589347
 30
0.0
  0
VERTEX
  5
889
  8
DATA
  6
CONTINUOUS
 62
     7
 10
481.4520519684165
 20
-324.5824926863696
 30
0.0
  0
SEQEND
  5
91D
  8
DATA
  6
CONTINUOUS
 62
     7
  0
POLYLINE
  5
50D
  8
DATA
  6
CONTINUOUS
 62
     7
 66
     1
 10
0.0
 20
0.0
 30
0.0
 70
     1
  0
VERTEX
  5
88A
  8
DATA
  6
CONTINUOUS
 62
     7
 10
514.1307703012453
 20
-321.120368430373
 30
0.0
  0
VERTEX
  5
88B
  8
DATA
  6
CONTINUOUS
 62
     7
 10
515.8941260581232
 20
-323.5474194134978
 30
0.0
  0
VERTEX
  5
88C
  8
DATA
  6
CONTINUOUS
 62
     7
 10
491.6236162268747
 20
-341.180976982272
 30
0.0
  0
VERTEX
  5
88D
  8
DATA
  6
CONTINUOUS
 62
     7
 10
489.8602604699968
 20
-338.7539259991472
 30
0.0
  0
SEQEND
  5
91E
  8
DATA
  6
CONTINUOUS
 62
     7
  0
POLYLINE
  5
514
  8
DATA
  6
CONTINUOUS
 62
     7
 66
     1
 10
0.0
 20
0.0
 30
0.0
 70
     1
  0
VERTEX
  5
88E
  8
DATA
  6
CONTINUOUS
 62
     7
 10
521.5950539970645
 20
-330.2223484171801
 30
0.0
  0
VERTEX
  5
88F
  8
DATA
  6
CONTINUOUS
 62
     7
 10
523.7163743405617
 20
-332.3436687608018
 30
0.0
  0
VERTEX
  5
890
  8
DATA
  6
CONTINUOUS
 62
     7
 10
502.5031709043451
 20
-353.5568721957777
 30
0.0
  0
VERTEX
  5
891
  8
DATA
  6
CONTINUOUS
 62
     7
 10
500.3818505608479
 20
-351.435551852156
 30
0.0
  0
SEQEND
  5
91F
  8
DATA
  6
CONTINUOUS
 62
     7
  0
POLYLINE
  5
51B
  8
DATA
  6
CONTINUOUS
 62
     7
 66
     1
 10
0.0
 20
0.0
 30
0.0
 70
     1
  0
VERTEX
  5
892
  8
DATA
  6
CONTINUOUS
 62
     7
 10
530.3913033443068
 20
-338.0445966996824
 30
0.0
  0
VERTEX
  5
893
  8
DATA
  6
CONTINUOUS
 62
     7
 10
532.8183543274313
 20
-339.80795245656
 30
0.0
  0
VERTEX
  5
894
  8
DATA
  6
CONTINUOUS
 62
     7
 10
515.1847967586577
 20
-364.0784622878085
 30
0.0
  0
VERTEX
  5
895
  8
DATA
  6
CONTINUOUS
 62
     7
 10
512.7577457755333
 20
-362.315106530931
 30
0.0
  0
SEQEND
  5
920
  8
DATA
  6
CONTINUOUS
 62
     7
  0
POLYLINE
  5
522
  8
DATA
  6
CONTINUOUS
 62
     7
 66
     1
 10
0.0
 20
0.0
 30
0.0
 70
     1
  0
VERTEX
  5
896
  8
DATA
  6
CONTINUOUS
 62
     7
 10
574.188722757805
 20
-353.25
 30
0.0
  0
VERTEX
  5
897
  8
DATA
  6
CONTINUOUS
 62
     7
 10
577.188722757805
 20
-353.25
 30
0.0
  0
VERTEX
  5
898
  8
DATA
  6
CONTINUOUS
 62
     7
 10
577.188722757805
 20
-383.25
 30
0.0
  0
VERTEX
  5
899
  8
DATA
  6
CONTINUOUS
 62
     7
 10
574.188722757805
 20
-383.25
 30
0.0
  0
SEQEND
  5
921
  8
DATA
  6
CONTINUOUS
 62
     7
  0
POLYLINE
  5
529
  8
DATA
  6
CONTINUOUS
 62
     7
 66
     1
 10
0.0
 20
0.0
 30
0.0
 70
     1
  0
VERTEX
  5
89A
  8
DATA
  6
CONTINUOUS
 62
     7
 10
551.0858634052411
 20
-349.1157132305746
 30
0.0
  0
VERTEX
  5
89B
  8
DATA
  6
CONTINUOUS
 62
     7
 10
553.9390329541261
 20
-350.0427642136993
 30
0.0
  0
VERTEX
  5
89C
  8
DATA
  6
CONTINUOUS
 62
     7
 10
544.6685231228789
 20
-378.5744597025541
 30
0.0
  0
VERTEX
  5
89D
  8
DATA
  6
CONTINUOUS
 62
     7
 10
541.8153535739925
 20
-377.6474087194293
 30
0.0
  0
SEQEND
  5
922
  8
DATA
  6
CONTINUOUS
 62
     7
  0
POLYLINE
  5
530
  8
DATA
  6
CONTINUOUS
 62
     7
 66
     1
 10
0.0
 20
0.0
 30
0.0
 70
     1
  0
VERTEX
  5
89E
  8
DATA
  6
CONTINUOUS
 62
     7
 10
562.4746053688946
 20
-352.0919738470751
 30
0.0
  0
VERTEX
  5
89F
  8
DATA
  6
CONTINUOUS
 62
     7
 10
565.437670390681
 20
-352.5612772421957
 30
0.0
  0
VERTEX
  5
8A0
  8
DATA
  6
CONTINUOUS
 62
     7
 10
560.7446364394741
 20
-382.1919274600499
 30
0.0
  0
VERTEX
  5
8A1
  8
DATA
  6
CONTINUOUS
 62
     7
 10
557.7815714176877
 20
-381.7226240649293
 30
0.0
  0
SEQEND
  5
923
  8
DATA
  6
CONTINUOUS
 62
     7
  0
POLYLINE
  5
537
  8
DATA
  6
CONTINUOUS
 62
     7
 66
     1
 10
0.0
 20
0.0
 30
0.0
 70
     1
  0
VERTEX
  5
8A2
  8
DATA
  6
CONTINUOUS
 62
     7
 10
679.6306502178545
 20
-293.1940863183315
 30
0.0
  0
VERTEX
  5
8A3
  8
DATA
  6
CONTINUOUS
 62
     7
 10
679.1613468227342
 20
-296.1571513401169
 30
0.0
  0
VERTEX
  5
8A4
  8
DATA
  6
CONTINUOUS
 62
     7
 10
649.5306966048797
 20
-291.46411738891
 30
0.0
  0
VERTEX
  5
8A5
  8
DATA
  6
CONTINUOUS
 62
     7
 10
650.0000000000014
 20
-288.5010523671247
 30
0.0
  0
SEQEND
  5
924
  8
DATA
  6
CONTINUOUS
 62
     7
  0
POLYLINE
  5
53E
  8
DATA
  6
CONTINUOUS
 62
     7
 66
     1
 10
0.0
 20
0.0
 30
0.0
 70
     1
  0
VERTEX
  5
8A6
  8
DATA
  6
CONTINUOUS
 62
     7
 10
676.0131824603591
 20
-309.2701996349267
 30
0.0
  0
VERTEX
  5
8A7
  8
DATA
  6
CONTINUOUS
 62
     7
 10
675.0861314772333
 20
-312.1233691838121
 30
0.0
  0
VERTEX
  5
8A8
  8
DATA
  6
CONTINUOUS
 62
     7
 10
646.5544359883788
 20
-302.8528593525635
 30
0.0
  0
VERTEX
  5
8A9
  8
DATA
  6
CONTINUOUS
 62
     7
 10
647.4814869715033
 20
-299.9996898036782
 30
0.0
  0
SEQEND
  5
925
  8
DATA
  6
CONTINUOUS
 62
     7
  0
POLYLINE
  5
545
  8
DATA
  6
CONTINUOUS
 62
     7
 66
     1
 10
0.0
 20
0.0
 30
0.0
 70
     1
  0
VERTEX
  5
8AA
  8
DATA
  6
CONTINUOUS
 62
     7
 10
624.6942350167396
 20
-371.124699290169
 30
0.0
  0
VERTEX
  5
8AB
  8
DATA
  6
CONTINUOUS
 62
     7
 10
622.0212154441756
 20
-372.4866707893877
 30
0.0
  0
VERTEX
  5
8AC
  8
DATA
  6
CONTINUOUS
 62
     7
 10
608.4015004519883
 20
-345.7564750637367
 30
0.0
  0
VERTEX
  5
8AD
  8
DATA
  6
CONTINUOUS
 62
     7
 10
611.0745200245537
 20
-344.394503564518
 30
0.0
  0
SEQEND
  5
926
  8
DATA
  6
CONTINUOUS
 62
     7
  0
POLYLINE
  5
54C
  8
DATA
  6
CONTINUOUS
 62
     7
 66
     1
 10
0.0
 20
0.0
 30
0.0
 70
     1
  0
VERTEX
  5
8AE
  8
DATA
  6
CONTINUOUS
 62
     7
 10
669.9253935471934
 20
-324.5824926863696
 30
0.0
  0
VERTEX
  5
8AF
  8
DATA
  6
CONTINUOUS
 62
     7
 10
668.5634220479747
 20
-327.2555122589347
 30
0.0
  0
VERTEX
  5
8B0
  8
DATA
  6
CONTINUOUS
 62
     7
 10
641.8332263223233
 20
-313.6357972667485
 30
0.0
  0
VERTEX
  5
8B1
  8
DATA
  6
CONTINUOUS
 62
     7
 10
643.195197821542
 20
-310.9627776941834
 30
0.0
  0
SEQEND
  5
927
  8
DATA
  6
CONTINUOUS
 62
     7
  0
POLYLINE
  5
553
  8
DATA
  6
CONTINUOUS
 62
     7
 66
     1
 10
0.0
 20
0.0
 30
0.0
 70
     1
  0
VERTEX
  5
8B2
  8
DATA
  6
CONTINUOUS
 62
     7
 10
661.5171850456131
 20
-338.7539259991472
 30
0.0
  0
VERTEX
  5
8B3
  8
DATA
  6
CONTINUOUS
 62
     7
 10
659.7538292887352
 20
-341.180976982272
 30
0.0
  0
VERTEX
  5
8B4
  8
DATA
  6
CONTINUOUS
 62
     7
 10
635.4833194574867
 20
-323.5474194134978
 30
0.0
  0
VERTEX
  5
8B5
  8
DATA
  6
CONTINUOUS
 62
     7
 10
637.2466752143646
 20
-321.120368430373
 30
0.0
  0
SEQEND
  5
928
  8
DATA
  6
CONTINUOUS
 62
     7
  0
POLYLINE
  5
55A
  8
DATA
  6
CONTINUOUS
 62
     7
 66
     1
 10
0.0
 20
0.0
 30
0.0
 70
     1
  0
VERTEX
  5
8B6
  8
DATA
  6
CONTINUOUS
 62
     7
 10
650.995594954762
 20
-351.435551852156
 30
0.0
  0
VERTEX
  5
8B7
  8
DATA
  6
CONTINUOUS
 62
     7
 10
648.8742746112648
 20
-353.5568721957777
 30
0.0
  0
VERTEX
  5
8B8
  8
DATA
  6
CONTINUOUS
 62
     7
 10
627.6610711750482
 20
-332.3436687608018
 30
0.0
  0
VERTEX
  5
8B9
  8
DATA
  6
CONTINUOUS
 62
     7
 10
629.7823915185454
 20
-330.2223484171801
 30
0.0
  0
SEQEND
  5
929
  8
DATA
  6
CONTINUOUS
 62
     7
  0
POLYLINE
  5
561
  8
DATA
  6
CONTINUOUS
 62
     7
 66
     1
 10
0.0
 20
0.0
 30
0.0
 70
     1
  0
VERTEX
  5
8BA
  8
DATA
  6
CONTINUOUS
 62
     7
 10
638.619699740078
 20
-362.315106530931
 30
0.0
  0
VERTEX
  5
8BB
  8
DATA
  6
CONTINUOUS
 62
     7
 10
636.1926487569522
 20
-364.0784622878085
 30
0.0
  0
VERTEX
  5
8BC
  8
DATA
  6
CONTINUOUS
 62
     7
 10
618.5590911881786
 20
-339.80795245656
 30
0.0
  0
VERTEX
  5
8BD
  8
DATA
  6
CONTINUOUS
 62
     7
 10
620.9861421713031
 20
-338.0445966996824
 30
0.0
  0
SEQEND
  5
92A
  8
DATA
  6
CONTINUOUS
 62
     7
  0
POLYLINE
  5
568
  8
DATA
  6
CONTINUOUS
 62
     7
 66
     1
 10
0.0
 20
0.0
 30
0.0
 70
     1
  0
VERTEX
  5
8BE
  8
DATA
  6
CONTINUOUS
 62
     7
 10
609.5620919416174
 20
-377.6474087194293
 30
0.0
  0
VERTEX
  5
8BF
  8
DATA
  6
CONTINUOUS
 62
     7
 10
606.708922392731
 20
-378.5744597025541
 30
0.0
  0
VERTEX
  5
8C0
  8
DATA
  6
CONTINUOUS
 62
     7
 10
597.4384125614838
 20
-350.0427642136993
 30
0.0
  0
VERTEX
  5
8C1
  8
DATA
  6
CONTINUOUS
 62
     7
 10
600.2915821103688
 20
-349.1157132305746
 30
0.0
  0
SEQEND
  5
92B
  8
DATA
  6
CONTINUOUS
 62
     7
  0
POLYLINE
  5
56F
  8
DATA
  6
CONTINUOUS
 62
     7
 66
     1
 10
0.0
 20
0.0
 30
0.0
 70
     1
  0
VERTEX
  5
8C2
  8
DATA
  6
CONTINUOUS
 62
     7
 10
593.5958740979222
 20
-381.7226240649293
 30
0.0
  0
VERTEX
  5
8C3
  8
DATA
  6
CONTINUOUS
 62
     7
 10
590.6328090761358
 20
-382.1919274600499
 30
0.0
  0
VERTEX
  5
8C4
  8
DATA
  6
CONTINUOUS
 62
     7
 10
585.9397751249289
 20
-352.5612772421957
 30
0.0
  0
VERTEX
  5
8C5
  8
DATA
  6
CONTINUOUS
 62
     7
 10
588.9028401467153
 20
-352.0919738470751
 30
0.0
  0
SEQEND
  5
92C
  8
DATA
  6
CONTINUOUS
 62
     7
  0
CIRCLE
  5
576
  8
DATA
  6
CONTINUOUS
 62
     7
 10
854.688722757805
 20
-32.25
 30
0.0
 40
7.5
  0
CIRCLE
  5
577
  8
DATA
  6
CONTINUOUS
 62
     7
 10
854.688722757805
 20
-56.25
 30
0.0
 40
7.5
  0
CIRCLE
  5
578
  8
DATA
  6
CONTINUOUS
 62
     7
 10
854.688722757805
 20
-104.25
 30
0.0
 40
7.5
  0
CIRCLE
  5
579
  8
DATA
  6
CONTINUOUS
 62
     7
 10
854.688722757805
 20
-137.25
 30
0.0
 40
7.5
  0
LINE
  5
57A
  8
DATA
  6
CONTINUOUS
 62
     7
 10
866.688722757805
 20
-32.25
 30
0.0
 11
862.188722757805
 21
-32.25
 31
0.0
  0
LINE
  5
57B
  8
DATA
  6
CONTINUOUS
 62
     7
 10
847.188722757805
 20
-32.25
 30
0.0
 11
842.688722757805
 21
-32.25
 31
0.0
  0
LINE
  5
57C
  8
DATA
  6
CONTINUOUS
 62
     7
 10
860.688722757805
 20
-21.85769515458662
 30
0.0
 11
858.4387227577477
 21
-25.75480947171559
 31
0.0
  0
LINE
  5
57D
  8
DATA
  6
CONTINUOUS
 62
     7
 10
850.938722757805
 20
-38.74519052838332
 30
0.0
 11
848.688722757805
 21
-42.64230484541304
 31
0.0
  0
LINE
  5
57E
  8
DATA
  6
CONTINUOUS
 62
     7
 10
848.688722757805
 20
-21.85769515458662
 30
0.0
 11
850.9387227577477
 21
-25.75480947151812
 31
0.0
  0
LINE
  5
57F
  8
DATA
  6
CONTINUOUS
 62
     7
 10
858.4387227577477
 20
-38.74519052828373
 30
0.0
 11
860.688722757805
 21
-42.64230484541304
 31
0.0
  0
CIRCLE
  5
580
  8
DATA
  6
CONTINUOUS
 62
     7
 10
854.688722757805
 20
-80.25
 30
0.0
 40
7.5
  0
LINE
  5
581
  8
DATA
  6
CONTINUOUS
 62
     7
 10
866.688722757805
 20
-80.25
 30
0.0
 11
862.188722757805
 21
-80.25
 31
0.0
  0
LINE
  5
582
  8
DATA
  6
CONTINUOUS
 62
     7
 10
847.188722757805
 20
-80.25
 30
0.0
 11
842.688722757805
 21
-80.25
 31
0.0
  0
LINE
  5
583
  8
DATA
  6
CONTINUOUS
 62
     7
 10
860.688722757805
 20
-69.85769515458662
 30
0.0
 11
858.4387227577477
 21
-73.75480947171559
 31
0.0
  0
LINE
  5
584
  8
DATA
  6
CONTINUOUS
 62
     7
 10
850.938722757805
 20
-86.74519052838332
 30
0.0
 11
848.688722757805
 21
-90.64230484541304
 31
0.0
  0
LINE
  5
585
  8
DATA
  6
CONTINUOUS
 62
     7
 10
848.688722757805
 20
-69.85769515458662
 30
0.0
 11
850.9387227577477
 21
-73.75480947151812
 31
0.0
  0
LINE
  5
586
  8
DATA
  6
CONTINUOUS
 62
     7
 10
858.4387227577477
 20
-86.74519052828373
 30
0.0
 11
860.688722757805
 21
-90.64230484541304
 31
0.0
  0
TEXT
  5
587
  8
DATA
 62
     7
 10
304.0645040078049
 20
-219.5315387591834
 30
0.0
 40
13.8515625
  1
ENTER
 41
0.7
 72
     1
 11
326.688722757805
 21
-212.6057575091834
 31
0.0
 73
     2
  0
TEXT
  5
588
  8
DATA
 62
     7
 10
377.5177433560953
 20
-171.17578125
 30
0.0
 40
13.8515625
  1
SELECT
 41
0.7
 11
377.5177433560953
 21
-164.25
 31
0.0
 73
     2
  0
CIRCLE
  5
589
  8
DATA
  6
CONTINUOUS
 62
     7
 10
326.688722757805
 20
-164.25
 30
0.0
 40
27.0
  0
ARC
  5
58A
  8
DATA
  6
CONTINUOUS
 62
     7
 10
326.688722757805
 20
-164.2500000000102
 30
0.0
 40
13.49999999998988
 50
277.6622556607708
 51
262.3377443392235
  0
ARC
  5
58B
  8
DATA
  6
CONTINUOUS
 62
     7
 10
326.688722757805
 20
-164.2500000000003
 30
0.0
 40
7.499999999999748
 50
283.8865403626273
 51
256.1134596373718
  0
LINE
  5
58C
  8
DATA
  6
CONTINUOUS
 62
     7
 10
324.8887227578052
 20
-171.5307966597071
 30
0.0
 11
324.8887227578052
 21
-200.849201084164
 31
0.0
  0
LINE
  5
58D
  8
DATA
  6
CONTINUOUS
 62
     7
 10
328.4887227578047
 20
-171.5307966597071
 30
0.0
 11
328.4887227578047
 21
-200.849201084164
 31
0.0
  0
LINE
  5
58E
  8
DATA
  6
CONTINUOUS
 62
     7
 10
324.8887227578052
 20
-200.849201084164
 30
0.0
 11
328.4887227578047
 21
-200.849201084164
 31
0.0
  0
LINE
  5
58F
  8
DATA
  6
CONTINUOUS
 62
     7
 10
326.688722757805
 20
-150.7500000000201
 30
0.0
 11
326.688722757805
 21
-137.2511020091509
 31
0.0
  0
LINE
  5
590
  8
DATA
  6
CONTINUOUS
 62
     7
 10
325.6295249654804
 20
-150.7916159946228
 30
0.0
 11
324.570413635794
 21
-137.3343306012299
 31
0.0
  0
LINE
  5
591
  8
DATA
  6
CONTINUOUS
 62
     7
 10
324.5768574797644
 20
-150.9162074019854
 30
0.0
 11
322.4651645939307
 21
-137.5835032455207
 31
0.0
  0
LINE
  5
592
  8
DATA
  6
CONTINUOUS
 62
     7
 10
323.5372103457539
 20
-151.1230060746506
 30
0.0
 11
320.3859551926221
 21
-137.9970837098126
 31
0.0
  0
LINE
  5
593
  8
DATA
  6
CONTINUOUS
 62
     7
 10
322.5169933337484
 20
-151.4107370300337
 30
0.0
 11
318.3456044492364
 21
-138.5725221330142
 31
0.0
  0
LINE
  5
594
  8
DATA
  6
CONTINUOUS
 62
     7
 10
321.5224964208828
 20
-151.7776263111153
 30
0.0
 11
316.3566918045908
 21
-139.3062707458936
 31
0.0
  0
LINE
  5
595
  8
DATA
  6
CONTINUOUS
 62
     7
 10
320.5598510113296
 20
-152.2214119234741
 30
0.0
 11
314.4314795665209
 21
-140.1938057442561
 31
0.0
  0
LINE
  5
596
  8
DATA
  6
CONTINUOUS
 62
     7
 10
319.6349921341493
 20
-152.7393577812361
 30
0.0
 11
312.5818373086731
 21
-141.2296551797017
 31
0.0
  0
LINE
  5
597
  8
DATA
  6
CONTINUOUS
 62
     7
 10
318.7536218518667
 20
-153.3282705759536
 30
0.0
 11
310.8191686906334
 21
-142.4074326960067
 31
0.0
  0
LINE
  5
598
  8
DATA
  6
CONTINUOUS
 62
     7
 10
317.92117410536
 20
-153.9845194644142
 30
0.0
 11
309.1543411505809
 21
-143.7198769031305
 31
0.0
  0
LINE
  5
599
  8
DATA
  6
CONTINUOUS
 62
     7
 10
317.1427812117986
 20
-154.7040584539953
 30
0.0
 11
307.5976189039102
 21
-145.1588961461063
 31
0.0
  0
LINE
  5
59A
  8
DATA
  6
CONTINUOUS
 62
     7
 10
316.4232422222185
 20
-155.4824513475554
 30
0.0
 11
306.1585996609351
 21
-146.7156183927763
 31
0.0
  0
LINE
  5
59B
  8
DATA
  6
CONTINUOUS
 62
     7
 10
315.7669933337579
 20
-156.3148990940631
 30
0.0
 11
304.8461554538103
 21
-148.3804459328295
 31
0.0
  0
LINE
  5
59C
  8
DATA
  6
CONTINUOUS
 62
     7
 10
315.1780805390404
 20
-157.1962693763447
 30
0.0
 11
303.6683779375066
 21
-150.1431145508685
 31
0.0
  0
LINE
  5
59D
  8
DATA
  6
CONTINUOUS
 62
     7
 10
314.660134681279
 20
-158.1211282535253
 30
0.0
 11
302.6325285020607
 21
-151.9927568087173
 31
0.0
  0
LINE
  5
59E
  8
DATA
  6
CONTINUOUS
 62
     7
 10
314.2163490689186
 20
-159.0837736630796
 30
0.0
 11
301.7449935036975
 21
-153.9179690467865
 31
0.0
  0
LINE
  5
59F
  8
DATA
  6
CONTINUOUS
 62
     7
 10
313.849459787838
 20
-160.0782705759444
 30
0.0
 11
301.0112448908185
 21
-155.9068816914321
 31
0.0
  0
LINE
  5
5A0
  8
DATA
  6
CONTINUOUS
 62
     7
 10
313.5617288324538
 20
-161.09848758795
 30
0.0
 11
300.4358064676162
 21
-157.9472324348178
 31
0.0
  0
LINE
  5
5A1
  8
DATA
  6
CONTINUOUS
 62
     7
 10
313.3549301597886
 20
-162.1381347219608
 30
0.0
 11
300.0222260033242
 21
-160.0264418361261
 31
0.0
  0
LINE
  5
5A2
  8
DATA
  6
CONTINUOUS
 62
     7
 10
313.2303387524257
 20
-163.1908022076768
 30
0.0
 11
299.7730533590325
 21
-162.1316908779897
 31
0.0
  0
LINE
  5
5A3
  8
DATA
  6
CONTINUOUS
 62
     7
 10
313.1887227578241
 20
-164.2500000000007
 30
0.0
 11
299.6898247669542
 21
-164.2500000000007
 31
0.0
  0
LINE
  5
5A4
  8
DATA
  6
CONTINUOUS
 62
     7
 10
327.7479205501295
 20
-150.7916159946228
 30
0.0
 11
328.8070318798159
 21
-137.3343306012299
 31
0.0
  0
LINE
  5
5A5
  8
DATA
  6
CONTINUOUS
 62
     7
 10
328.8005880358455
 20
-150.9162074019854
 30
0.0
 11
330.9122809216792
 21
-137.5835032455207
 31
0.0
  0
LINE
  5
5A6
  8
DATA
  6
CONTINUOUS
 62
     7
 10
329.840235169856
 20
-151.1230060746506
 30
0.0
 11
332.9914903229878
 21
-137.9970837098126
 31
0.0
  0
LINE
  5
5A7
  8
DATA
  6
CONTINUOUS
 62
     7
 10
330.8604521818615
 20
-151.4107370300337
 30
0.0
 11
335.0318410663735
 21
-138.5725221330142
 31
0.0
  0
LINE
  5
5A8
  8
DATA
  6
CONTINUOUS
 62
     7
 10
331.8549490947271
 20
-151.7776263111153
 30
0.0
 11
337.0207537110191
 21
-139.3062707458936
 31
0.0
  0
LINE
  5
5A9
  8
DATA
  6
CONTINUOUS
 62
     7
 10
332.8175945042804
 20
-152.2214119234741
 30
0.0
 11
338.945965949089
 21
-140.1938057442561
 31
0.0
  0
LINE
  5
5AA
  8
DATA
  6
CONTINUOUS
 62
     7
 10
333.7424533814606
 20
-152.7393577812361
 30
0.0
 11
340.7956082069368
 21
-141.2296551797017
 31
0.0
  0
LINE
  5
5AB
  8
DATA
  6
CONTINUOUS
 62
     7
 10
334.6238236637432
 20
-153.3282705759536
 30
0.0
 11
342.5582768249765
 21
-142.4074326960067
 31
0.0
  0
LINE
  5
5AC
  8
DATA
  6
CONTINUOUS
 62
     7
 10
335.4562714102499
 20
-153.9845194644142
 30
0.0
 11
344.223104365029
 21
-143.7198769031305
 31
0.0
  0
LINE
  5
5AD
  8
DATA
  6
CONTINUOUS
 62
     7
 10
336.2346643038113
 20
-154.7040584539953
 30
0.0
 11
345.7798266116997
 21
-145.1588961461063
 31
0.0
  0
LINE
  5
5AE
  8
DATA
  6
CONTINUOUS
 62
     7
 10
336.9542032933914
 20
-155.4824513475554
 30
0.0
 11
347.2188458546748
 21
-146.7156183927763
 31
0.0
  0
LINE
  5
5AF
  8
DATA
  6
CONTINUOUS
 62
     7
 10
337.610452181852
 20
-156.3148990940631
 30
0.0
 11
348.5312900617996
 21
-148.3804459328295
 31
0.0
  0
LINE
  5
5B0
  8
DATA
  6
CONTINUOUS
 62
     7
 10
338.1993649765695
 20
-157.1962693763447
 30
0.0
 11
349.7090675781033
 21
-150.1431145508685
 31
0.0
  0
LINE
  5
5B1
  8
DATA
  6
CONTINUOUS
 62
     7
 10
338.7173108343309
 20
-158.1211282535253
 30
0.0
 11
350.7449170135492
 21
-151.9927568087173
 31
0.0
  0
LINE
  5
5B2
  8
DATA
  6
CONTINUOUS
 62
     7
 10
339.1610964466913
 20
-159.0837736630796
 30
0.0
 11
351.6324520119124
 21
-153.9179690467865
 31
0.0
  0
LINE
  5
5B3
  8
DATA
  6
CONTINUOUS
 62
     7
 10
339.5279857277719
 20
-160.0782705759444
 30
0.0
 11
352.3662006247914
 21
-155.9068816914321
 31
0.0
  0
LINE
  5
5B4
  8
DATA
  6
CONTINUOUS
 62
     7
 10
339.8157166831561
 20
-161.09848758795
 30
0.0
 11
352.9416390479937
 21
-157.9472324348178
 31
0.0
  0
LINE
  5
5B5
  8
DATA
  6
CONTINUOUS
 62
     7
 10
340.0225153558213
 20
-162.1381347219608
 30
0.0
 11
353.3552195122857
 21
-160.0264418361261
 31
0.0
  0
LINE
  5
5B6
  8
DATA
  6
CONTINUOUS
 62
     7
 10
340.1471067631842
 20
-163.1908022076768
 30
0.0
 11
353.6043921565774
 21
-162.1316908779897
 31
0.0
  0
LINE
  5
5B7
  8
DATA
  6
CONTINUOUS
 62
     7
 10
340.1887227577859
 20
-164.2500000000007
 30
0.0
 11
353.6876207486557
 21
-164.2500000000007
 31
0.0
  0
LINE
  5
5B8
  8
DATA
  6
CONTINUOUS
 62
     7
 10
324.8887227578052
 20
-187.1133506887152
 30
0.0
 11
324.570413635794
 21
-191.157851562374
 31
0.0
  0
LINE
  5
5B9
  8
DATA
  6
CONTINUOUS
 62
     7
 10
324.5768574797644
 20
-177.5759747616186
 30
0.0
 11
322.4651645939307
 21
-190.9086789180833
 31
0.0
  0
LINE
  5
5BA
  8
DATA
  6
CONTINUOUS
 62
     7
 10
323.5372103457539
 20
-177.3691760889534
 30
0.0
 11
320.3859551926221
 21
-190.4950984537913
 31
0.0
  0
LINE
  5
5BB
  8
DATA
  6
CONTINUOUS
 62
     7
 10
322.5169933337484
 20
-177.0814451335702
 30
0.0
 11
318.3456044492364
 21
-189.9196600305897
 31
0.0
  0
LINE
  5
5BC
  8
DATA
  6
CONTINUOUS
 62
     7
 10
321.5224964208828
 20
-176.7145558524886
 30
0.0
 11
316.3566918045908
 21
-189.1859114177104
 31
0.0
  0
LINE
  5
5BD
  8
DATA
  6
CONTINUOUS
 62
     7
 10
320.5598510113296
 20
-176.2707702401299
 30
0.0
 11
314.4314795665209
 21
-188.2983764193478
 31
0.0
  0
LINE
  5
5BE
  8
DATA
  6
CONTINUOUS
 62
     7
 10
319.6349921341493
 20
-175.7528243823679
 30
0.0
 11
312.5818373086731
 21
-187.2625269839023
 31
0.0
  0
LINE
  5
5BF
  8
DATA
  6
CONTINUOUS
 62
     7
 10
318.7536218518667
 20
-175.1639115876503
 30
0.0
 11
310.8191686906334
 21
-186.0847494675972
 31
0.0
  0
LINE
  5
5C0
  8
DATA
  6
CONTINUOUS
 62
     7
 10
317.92117410536
 20
-174.5076626991897
 30
0.0
 11
309.1543411505809
 21
-184.7723052604734
 31
0.0
  0
LINE
  5
5C1
  8
DATA
  6
CONTINUOUS
 62
     7
 10
317.1427812117986
 20
-173.7881237096086
 30
0.0
 11
307.5976189039102
 21
-183.3332860174977
 31
0.0
  0
LINE
  5
5C2
  8
DATA
  6
CONTINUOUS
 62
     7
 10
316.4232422222185
 20
-173.0097308160485
 30
0.0
 11
306.1585996609351
 21
-181.7765637708277
 31
0.0
  0
LINE
  5
5C3
  8
DATA
  6
CONTINUOUS
 62
     7
 10
315.7669933337579
 20
-172.1772830695409
 30
0.0
 11
304.8461554538103
 21
-180.1117362307745
 31
0.0
  0
LINE
  5
5C4
  8
DATA
  6
CONTINUOUS
 62
     7
 10
315.1780805390404
 20
-171.2959127872592
 30
0.0
 11
303.6683779375066
 21
-178.3490676127354
 31
0.0
  0
LINE
  5
5C5
  8
DATA
  6
CONTINUOUS
 62
     7
 10
314.660134681279
 20
-170.3710539100787
 30
0.0
 11
302.6325285020607
 21
-176.4994253548866
 31
0.0
  0
LINE
  5
5C6
  8
DATA
  6
CONTINUOUS
 62
     7
 10
314.2163490689186
 20
-169.4084085005244
 30
0.0
 11
301.7449935036975
 21
-174.5742131168174
 31
0.0
  0
LINE
  5
5C7
  8
DATA
  6
CONTINUOUS
 62
     7
 10
313.849459787838
 20
-168.4139115876595
 30
0.0
 11
301.0112448908185
 21
-172.5853004721719
 31
0.0
  0
LINE
  5
5C8
  8
DATA
  6
CONTINUOUS
 62
     7
 10
313.5617288324538
 20
-167.393694575654
 30
0.0
 11
300.4358064676162
 21
-170.5449497287862
 31
0.0
  0
LINE
  5
5C9
  8
DATA
  6
CONTINUOUS
 62
     7
 10
313.3549301597886
 20
-166.3540474416432
 30
0.0
 11
300.0222260033242
 21
-168.4657403274779
 31
0.0
  0
LINE
  5
5CA
  8
DATA
  6
CONTINUOUS
 62
     7
 10
313.2303387524257
 20
-165.3013799559271
 30
0.0
 11
299.7730533590325
 21
-166.3604912856142
 31
0.0
  0
LINE
  5
5CB
  8
DATA
  6
CONTINUOUS
 62
     7
 10
328.4887227578047
 20
-187.1133506887131
 30
0.0
 11
328.8070318798159
 21
-191.157851562374
 31
0.0
  0
LINE
  5
5CC
  8
DATA
  6
CONTINUOUS
 62
     7
 10
328.8005880358455
 20
-177.5759747616186
 30
0.0
 11
330.9122809216792
 21
-190.9086789180833
 31
0.0
  0
LINE
  5
5CD
  8
DATA
  6
CONTINUOUS
 62
     7
 10
329.840235169856
 20
-177.3691760889534
 30
0.0
 11
332.9914903229878
 21
-190.4950984537913
 31
0.0
  0
LINE
  5
5CE
  8
DATA
  6
CONTINUOUS
 62
     7
 10
330.8604521818615
 20
-177.0814451335702
 30
0.0
 11
335.0318410663735
 21
-189.9196600305897
 31
0.0
  0
LINE
  5
5CF
  8
DATA
  6
CONTINUOUS
 62
     7
 10
331.8549490947271
 20
-176.7145558524886
 30
0.0
 11
337.0207537110191
 21
-189.1859114177104
 31
0.0
  0
LINE
  5
5D0
  8
DATA
  6
CONTINUOUS
 62
     7
 10
332.8175945042804
 20
-176.2707702401299
 30
0.0
 11
338.945965949089
 21
-188.2983764193478
 31
0.0
  0
LINE
  5
5D1
  8
DATA
  6
CONTINUOUS
 62
     7
 10
333.7424533814606
 20
-175.7528243823679
 30
0.0
 11
340.7956082069368
 21
-187.2625269839023
 31
0.0
  0
LINE
  5
5D2
  8
DATA
  6
CONTINUOUS
 62
     7
 10
334.6238236637432
 20
-175.1639115876503
 30
0.0
 11
342.5582768249765
 21
-186.0847494675972
 31
0.0
  0
LINE
  5
5D3
  8
DATA
  6
CONTINUOUS
 62
     7
 10
335.4562714102499
 20
-174.5076626991897
 30
0.0
 11
344.223104365029
 21
-184.7723052604734
 31
0.0
  0
LINE
  5
5D4
  8
DATA
  6
CONTINUOUS
 62
     7
 10
336.2346643038113
 20
-173.7881237096086
 30
0.0
 11
345.7798266116997
 21
-183.3332860174977
 31
0.0
  0
LINE
  5
5D5
  8
DATA
  6
CONTINUOUS
 62
     7
 10
336.9542032933914
 20
-173.0097308160485
 30
0.0
 11
347.2188458546748
 21
-181.7765637708277
 31
0.0
  0
LINE
  5
5D6
  8
DATA
  6
CONTINUOUS
 62
     7
 10
337.610452181852
 20
-172.1772830695409
 30
0.0
 11
348.5312900617996
 21
-180.1117362307745
 31
0.0
  0
LINE
  5
5D7
  8
DATA
  6
CONTINUOUS
 62
     7
 10
338.1993649765695
 20
-171.2959127872592
 30
0.0
 11
349.7090675781033
 21
-178.3490676127354
 31
0.0
  0
LINE
  5
5D8
  8
DATA
  6
CONTINUOUS
 62
     7
 10
338.7173108343309
 20
-170.3710539100787
 30
0.0
 11
350.7449170135492
 21
-176.4994253548866
 31
0.0
  0
LINE
  5
5D9
  8
DATA
  6
CONTINUOUS
 62
     7
 10
339.1610964466913
 20
-169.4084085005244
 30
0.0
 11
351.6324520119124
 21
-174.5742131168174
 31
0.0
  0
LINE
  5
5DA
  8
DATA
  6
CONTINUOUS
 62
     7
 10
339.5279857277719
 20
-168.4139115876595
 30
0.0
 11
352.3662006247914
 21
-172.5853004721719
 31
0.0
  0
LINE
  5
5DB
  8
DATA
  6
CONTINUOUS
 62
     7
 10
339.8157166831561
 20
-167.393694575654
 30
0.0
 11
352.9416390479937
 21
-170.5449497287862
 31
0.0
  0
LINE
  5
5DC
  8
DATA
  6
CONTINUOUS
 62
     7
 10
340.0225153558213
 20
-166.3540474416432
 30
0.0
 11
353.3552195122857
 21
-168.4657403274779
 31
0.0
  0
LINE
  5
5DD
  8
DATA
  6
CONTINUOUS
 62
     7
 10
340.1471067631842
 20
-165.3013799559271
 30
0.0
 11
353.6043921565774
 21
-166.3604912856142
 31
0.0
  0
ARC
  5
5DE
  8
DATA
  6
CONTINUOUS
 62
     7
 10
326.688722757805
 20
-164.2500000000003
 30
0.0
 40
29.78728053739766
 50
336.2875546236589
 51
23.71244537633942
  0
ARC
  5
5DF
  8
DATA
  6
CONTINUOUS
 62
     7
 10
326.688722757805
 20
-164.25
 30
0.0
 40
36.64023129855646
 50
334.0937480755785
 51
356.3932064170182
  0
ARC
  5
5E0
  8
DATA
  6
CONTINUOUS
 62
     7
 10
326.688722757805
 20
-164.25
 30
0.0
 40
36.64023129855659
 50
3.606793582982846
 51
25.90625192442294
  0
ARC
  5
5E1
  8
DATA
  6
CONTINUOUS
 62
     7
 10
325.0079870749919
 20
-142.7520099644688
 30
0.0
 40
28.87110623798909
 50
337.2368049537663
 51
355.4426539094763
  0
ARC
  5
5E2
  8
DATA
  6
CONTINUOUS
 62
     7
 10
361.183591350974
 20
-117.1382543898682
 30
0.0
 40
28.87110623798946
 50
255.1573460905234
 51
273.3419259033572
  0
LINE
  5
5E3
  8
DATA
  6
CONTINUOUS
 62
     7
 10
362.8666192999585
 20
-145.9602632082733
 30
0.0
 11
359.6469812892219
 21
-148.2418850520116
 31
0.0
  0
LINE
  5
5E4
  8
DATA
  6
CONTINUOUS
 62
     7
 10
353.9612199859621
 20
-152.2711445975058
 30
0.0
 11
351.6303773810328
 21
-153.9229145741263
 31
0.0
  0
ARC
  5
5E5
  8
DATA
  6
CONTINUOUS
 62
     7
 10
325.0079870749919
 20
-185.7479900355312
 30
0.0
 40
28.87110623798925
 50
4.557346090523586
 51
22.76319504623374
  0
ARC
  5
5E6
  8
DATA
  6
CONTINUOUS
 62
     7
 10
361.183591350974
 20
-211.3617456101318
 30
0.0
 40
28.87110623798969
 50
86.65807409664279
 51
104.8426539094766
  0
LINE
  5
5E7
  8
DATA
  6
CONTINUOUS
 62
     7
 10
362.8666192999585
 20
-182.5397367917267
 30
0.0
 11
359.6469812892219
 21
-180.2581149479884
 31
0.0
  0
LINE
  5
5E8
  8
DATA
  6
CONTINUOUS
 62
     7
 10
353.9612199859621
 20
-176.2288554024942
 30
0.0
 11
351.6303773810328
 21
-174.5770854258737
 31
0.0
  0
LINE
  5
5E9
  8
DATA
  6
CONTINUOUS
 62
     7
 10
374.9908999664945
 20
-161.9450049834913
 30
0.0
 11
374.9908999664945
 21
-166.5549950165083
 31
0.0
  0
LINE
  5
5EA
  8
DATA
  6
CONTINUOUS
 62
     7
 10
374.9908999664945
 20
-161.9450049834913
 30
0.0
 11
363.2563798824499
 21
-161.9450049834913
 31
0.0
  0
LINE
  5
5EB
  8
DATA
  6
CONTINUOUS
 62
     7
 10
374.9908999664945
 20
-166.5549950165083
 30
0.0
 11
363.2563798824499
 21
-166.5549950165083
 31
0.0
  0
TEXT
  5
5EC
  8
DATA
 62
     7
 10
395.9125508828104
 20
-330.1451451597563
 30
0.0
 40
13.8515625
  1
BACK
 41
0.7
 72
     1
 11
413.6887227578104
 21
-323.2193639097563
 31
0.0
 73
     2
  0
TEXT
  5
5ED
  8
DATA
 62
     7
 10
719.9125508827995
 20
-330.1451451597563
 30
0.0
 40
13.8515625
  1
MENU
 41
0.7
 72
     1
 11
737.6887227577995
 21
-323.2193639097563
 31
0.0
 73
     2
  0
ARC
  5
5EE
  8
DATA
  6
CONTINUOUS
 62
     7
 10
737.6887227577995
 20
-278.25
 30
0.0
 40
27.00000000000012
 50
236.2510114041116
 51
123.7489885958884
  0
LINE
  5
5EF
  8
DATA
  6
CONTINUOUS
 62
     7
 10
722.6887227577995
 20
-300.6999443206438
 30
0.0
 11
722.6887227577995
 21
-255.8000556793562
 31
0.0
  0
ARC
  5
5F0
  8
DATA
  6
CONTINUOUS
 62
     7
 10
413.6887227578104
 20
-278.25
 30
0.0
 40
27.00000000000012
 50
56.25101140411158
 51
303.7489885958884
  0
LINE
  5
5F1
  8
DATA
  6
CONTINUOUS
 62
     7
 10
428.6887227578104
 20
-300.6999443206438
 30
0.0
 11
428.6887227578104
 21
-255.8000556793562
 31
0.0
  0
POLYLINE
  5
5F2
  8
DATA
  6
CONTINUOUS
 62
     7
 66
     1
 10
0.0
 20
0.0
 30
0.0
 70
     1
  0
VERTEX
  5
8C6
  8
DATA
  6
CONTINUOUS
 62
     7
 10
290.688722757805
 20
-416.25
 30
0.0
  0
VERTEX
  5
8C7
  8
DATA
  6
CONTINUOUS
 62
     7
 10
416.688722757805
 20
-416.25
 30
0.0
  0
VERTEX
  5
8C8
  8
DATA
  6
CONTINUOUS
 62
     7
 10
416.688722757805
 20
-542.25
 30
0.0
  0
VERTEX
  5
8C9
  8
DATA
  6
CONTINUOUS
 62
     7
 10
290.688722757805
 20
-542.25
 30
0.0
  0
SEQEND
  5
92D
  8
DATA
  6
CONTINUOUS
 62
     7
  0
LINE
  5
5F9
  8
DATA
  6
CONTINUOUS
 62
     7
 10
266.688722757805
 20
-735.6169858102987
 30
0.0
 11
266.688722757805
 21
14.38301418970116
 31
0.0
  0
LINE
  5
5FA
  8
DATA
  6
CONTINUOUS
 62
     7
 10
884.688722757805
 20
35.31463030298653
 30
0.0
 11
884.688722757805
 21
-714.6853696970135
 31
0.0
  0
LINE
  5
5FB
  8
DATA
  6
CONTINUOUS
 62
     7
 10
266.688722757805
 20
-566.25
 30
0.0
 11
884.688722757805
 21
-566.25
 31
0.0
  0
LINE
  5
5FC
  8
DATA
  6
CONTINUOUS
 62
     7
 10
266.688722757805
 20
-638.25
 30
0.0
 11
884.688722757805
 21
-638.25
 31
0.0
  0
ARC
  5
5FD
  8
DATA
  6
CONTINUOUS
 62
     7
 10
355.6973132761245
 20
-482.2724838997499
 30
0.0
 40
1.338889082237734
 50
307.6419024975729
 51
354.2670192893838
  0
LINE
  5
5FE
  8
DATA
  6
CONTINUOUS
 62
     7
 10
321.3063215491165
 20
-461.1737588896145
 30
0.0
 11
327.5830535491164
 21
-446.2180628896145
 31
0.0
  0
LINE
  5
5FF
  8
DATA
  6
CONTINUOUS
 62
     7
 10
321.3063215491165
 20
-461.1737588896145
 30
0.0
 11
315.1070375491163
 21
-446.2180628896145
 31
0.0
  0
LINE
  5
600
  8
DATA
  6
CONTINUOUS
 62
     7
 10
368.885601549116
 20
-488.2180628896145
 30
0.0
 11
368.885601549116
 21
-446.2180628896145
 31
0.0
  0
LINE
  5
601
  8
DATA
  6
CONTINUOUS
 62
     7
 10
376.9446455491166
 20
-446.2180628896145
 30
0.0
 11
376.9446455491166
 21
-481.7863508896145
 31
0.0
  0
LINE
  5
602
  8
DATA
  6
CONTINUOUS
 62
     7
 10
330.5277155491162
 20
-446.2180628896145
 30
0.0
 11
330.5277155491162
 21
-481.7863508896145
 31
0.0
  0
LINE
  5
603
  8
DATA
  6
CONTINUOUS
 62
     7
 10
338.2767995491163
 20
-446.2180628896145
 30
0.0
 11
338.2767995491163
 21
-481.7863508896145
 31
0.0
  0
LINE
  5
604
  8
DATA
  6
CONTINUOUS
 62
     7
 10
342.3063215491165
 20
-446.2180628896145
 30
0.0
 11
342.3063215491165
 21
-488.2180628896145
 31
0.0
  0
LINE
  5
605
  8
DATA
  6
CONTINUOUS
 62
     7
 10
349.3579955491168
 20
-450.1700528896148
 30
0.0
 11
349.3579955491168
 21
-463.6534808896147
 31
0.0
  0
LINE
  5
606
  8
DATA
  6
CONTINUOUS
 62
     7
 10
364.4720315491168
 20
-462.8732888896145
 30
0.0
 11
364.4720315491168
 21
-453.0372668896144
 31
0.0
  0
LINE
  5
607
  8
DATA
  6
CONTINUOUS
 62
     7
 10
357.0295055491169
 20
-452.0298548896146
 30
0.0
 11
357.0295055491169
 21
-461.7937208896147
 31
0.0
  0
ARC
  5
608
  8
DATA
  6
CONTINUOUS
 62
     7
 10
328.9727075491173
 20
-477.4333028896145
 30
0.0
 40
10.83118438570515
 50
264.6908562215336
 51
323.9911991542417
  0
LINE
  5
609
  8
DATA
  6
CONTINUOUS
 62
     7
 10
324.6384335491171
 20
-475.0445948896145
 30
0.0
 11
324.6384335491171
 21
-481.7862668896147
 31
0.0
  0
LINE
  5
60A
  8
DATA
  6
CONTINUOUS
 62
     7
 10
324.6384335491171
 20
-475.0445948896145
 30
0.0
 11
317.6642495491169
 21
-475.0445948896145
 31
0.0
  0
LINE
  5
60B
  8
DATA
  6
CONTINUOUS
 62
     7
 10
317.6642495491169
 20
-475.0445948896145
 30
0.0
 11
317.6642495491169
 21
-481.7862668896147
 31
0.0
  0
ARC
  5
60C
  8
DATA
  6
CONTINUOUS
 62
     7
 10
327.5978375491172
 20
-481.8771548896148
 30
0.0
 40
2.93130107021774
 50
269.7118487927449
 51
1.775987005692855
  0
ARC
  5
60D
  8
DATA
  6
CONTINUOUS
 62
     7
 10
327.5683115491161
 20
-481.8771548896148
 30
0.0
 40
2.931286081329186
 50
178.2240129943097
 51
270.2881512072631
  0
ARC
  5
60E
  8
DATA
  6
CONTINUOUS
 62
     7
 10
326.9683415491172
 20
-477.4333028896145
 30
0.0
 40
10.83116679517579
 50
216.0088008457567
 51
275.3091437784647
  0
ARC
  5
60F
  8
DATA
  6
CONTINUOUS
 62
     7
 10
322.5590975491173
 20
-481.5488408896146
 30
0.0
 40
4.900560874341156
 50
182.7769954499947
 51
207.3596066671467
  0
CIRCLE
  5
610
  8
DATA
  6
CONTINUOUS
 62
     7
 10
321.7325375491168
 20
-466.9855928896145
 30
0.0
 40
3.990755999999237
  0
LINE
  5
611
  8
DATA
  6
CONTINUOUS
 62
     7
 10
389.885601549116
 20
-488.2180208896146
 30
0.0
 11
368.885601549116
 21
-488.2180208896146
 31
0.0
  0
LINE
  5
612
  8
DATA
  6
CONTINUOUS
 62
     7
 10
389.885601549116
 20
-488.2180208896146
 30
0.0
 11
389.885601549116
 21
-475.0445528896146
 31
0.0
  0
LINE
  5
613
  8
DATA
  6
CONTINUOUS
 62
     7
 10
389.885601549116
 20
-475.0445948896145
 30
0.0
 11
382.8339695491163
 21
-475.0445948896145
 31
0.0
  0
LINE
  5
614
  8
DATA
  6
CONTINUOUS
 62
     7
 10
382.8339695491163
 20
-475.0445948896145
 30
0.0
 11
382.8339695491163
 21
-481.7862668896147
 31
0.0
  0
LINE
  5
615
  8
DATA
  6
CONTINUOUS
 62
     7
 10
342.3063215491165
 20
-488.2180208896146
 30
0.0
 11
357.0295055491169
 21
-488.2179788896144
 31
0.0
  0
LINE
  5
616
  8
DATA
  6
CONTINUOUS
 62
     7
 10
349.3579535491162
 20
-484.2659888896145
 30
0.0
 11
353.1550055491175
 21
-484.2659888896145
 31
0.0
  0
LINE
  5
617
  8
DATA
  6
CONTINUOUS
 62
     7
 10
349.3579955491168
 20
-484.2659888896145
 30
0.0
 11
349.3579955491168
 21
-467.6829608896147
 31
0.0
  0
LINE
  5
618
  8
DATA
  6
CONTINUOUS
 62
     7
 10
349.3579535491162
 20
-467.6829608896147
 30
0.0
 11
353.1550055491175
 21
-467.6829608896147
 31
0.0
  0
LINE
  5
619
  8
DATA
  6
CONTINUOUS
 62
     7
 10
357.0295055491169
 20
-482.4062288896146
 30
0.0
 11
357.0295055491169
 21
-469.5427208896147
 31
0.0
  0
ARC
  5
61A
  8
DATA
  6
CONTINUOUS
 62
     7
 10
333.3819515491173
 20
-481.5488408896146
 30
0.0
 40
4.900553901032258
 50
332.6403933328453
 51
357.2230045500057
  0
ARC
  5
61B
  8
DATA
  6
CONTINUOUS
 62
     7
 10
379.9040495491167
 20
-481.8771548896148
 30
0.0
 40
2.93130107021774
 50
269.7118487927449
 51
1.775987005692855
  0
ARC
  5
61C
  8
DATA
  6
CONTINUOUS
 62
     7
 10
379.8745655491161
 20
-481.8771548896148
 30
0.0
 40
2.931286081329186
 50
178.2240129943097
 51
270.2881512072631
  0
LINE
  5
61D
  8
DATA
  6
CONTINUOUS
 62
     7
 10
364.4686295491165
 20
-481.4763068896145
 30
0.0
 11
364.4686295491165
 21
-470.3176628896144
 31
0.0
  0
LINE
  5
61E
  8
DATA
  6
CONTINUOUS
 62
     7
 10
349.3579535491162
 20
-463.6534808896147
 30
0.0
 11
353.1550055491175
 21
-463.6534808896147
 31
0.0
  0
ARC
  5
61F
  8
DATA
  6
CONTINUOUS
 62
     7
 10
356.4956015491171
 20
-480.2448668896145
 30
0.0
 40
7.990967929215978
 50
273.8309816091142
 51
351.1351473098016
  0
LINE
  5
620
  8
DATA
  6
CONTINUOUS
 62
     7
 10
330.5277155491162
 20
-446.2180628896145
 30
0.0
 11
338.2767995491163
 21
-446.2180628896145
 31
0.0
  0
LINE
  5
621
  8
DATA
  6
CONTINUOUS
 62
     7
 10
315.1070375491163
 20
-446.2180628896145
 30
0.0
 11
327.5830535491164
 21
-446.2180628896145
 31
0.0
  0
LINE
  5
622
  8
DATA
  6
CONTINUOUS
 62
     7
 10
368.885601549116
 20
-446.2180628896145
 30
0.0
 11
376.9446455491166
 21
-446.2180628896145
 31
0.0
  0
LINE
  5
623
  8
DATA
  6
CONTINUOUS
 62
     7
 10
342.3063215491165
 20
-446.2180628896145
 30
0.0
 11
357.1104400873332
 21
-446.2180968833243
 31
0.0
  0
LINE
  5
624
  8
DATA
  6
CONTINUOUS
 62
     7
 10
349.3579535491162
 20
-450.1700948896147
 30
0.0
 11
353.1550055491175
 21
-450.1700948896147
 31
0.0
  0
ARC
  5
625
  8
DATA
  6
CONTINUOUS
 62
     7
 10
356.5752755491171
 20
-454.1789948896145
 30
0.0
 40
7.978865718228028
 50
8.226923859016582
 51
86.15412669215198
  0
ARC
  5
626
  8
DATA
  6
CONTINUOUS
 62
     7
 10
353.1998424920503
 20
-476.9004994551492
 30
0.0
 40
7.36562590420336
 50
269.6512199376235
 51
282.8264828068779
  0
ARC
  5
627
  8
DATA
  6
CONTINUOUS
 62
     7
 10
354.0271188644761
 20
-480.0145401967682
 30
0.0
 40
4.147239195512182
 50
281.2331036226757
 51
306.8620088940731
  0
ARC
  5
628
  8
DATA
  6
CONTINUOUS
 62
     7
 10
355.6973132761245
 20
-469.676465879479
 30
0.0
 40
1.338889082237401
 50
5.732980710602942
 51
52.35809750241678
  0
ARC
  5
629
  8
DATA
  6
CONTINUOUS
 62
     7
 10
353.1998424920503
 20
-475.0484503240797
 30
0.0
 40
7.36562590420333
 50
77.17351719312207
 51
90.34878006237653
  0
ARC
  5
62A
  8
DATA
  6
CONTINUOUS
 62
     7
 10
354.0271188644761
 20
-471.9344095824604
 30
0.0
 40
4.147239195512192
 50
53.13799110592407
 51
78.76689637732271
  0
ARC
  5
62B
  8
DATA
  6
CONTINUOUS
 62
     7
 10
360.4043735491173
 20
-470.5923848896146
 30
0.0
 40
4.073530288436996
 50
3.86700635982428
 51
88.36163456789787
  0
ARC
  5
62C
  8
DATA
  6
CONTINUOUS
 62
     7
 10
360.4006355491165
 20
-462.4447208896147
 30
0.0
 40
4.077578147779959
 50
271.6892821046588
 51
356.078282982658
  0
ARC
  5
62D
  8
DATA
  6
CONTINUOUS
 62
     7
 10
355.6973132761245
 20
-461.6599758997501
 30
0.0
 40
1.338889082237464
 50
307.6419024975817
 51
354.2670192893825
  0
ARC
  5
62E
  8
DATA
  6
CONTINUOUS
 62
     7
 10
353.1998424920503
 20
-456.2879914551494
 30
0.0
 40
7.36562590420336
 50
269.6512199376235
 51
282.8264828068779
  0
ARC
  5
62F
  8
DATA
  6
CONTINUOUS
 62
     7
 10
354.0271188644761
 20
-459.4020321967683
 30
0.0
 40
4.147239195511848
 50
281.2331036226767
 51
306.8620088940735
  0
ARC
  5
630
  8
DATA
  6
CONTINUOUS
 62
     7
 10
355.6973132761245
 20
-452.163599879479
 30
0.0
 40
1.338889082237401
 50
5.732980710602942
 51
52.35809750241678
  0
ARC
  5
631
  8
DATA
  6
CONTINUOUS
 62
     7
 10
353.1998424920503
 20
-457.53558432408
 30
0.0
 40
7.365625904203662
 50
77.17351719312263
 51
90.34878006237652
  0
ARC
  5
632
  8
DATA
  6
CONTINUOUS
 62
     7
 10
354.0271188644761
 20
-454.4215435824607
 30
0.0
 40
4.147239195512192
 50
53.13799110592407
 51
78.76689637732346
  0
LINE
  5
633
  8
DATA
  6
CONTINUOUS
 62
     7
 10
416.688722757805
 20
-518.25
 30
0.0
 11
290.688722757805
 21
-518.25
 31
0.0
  0
TEXT
  5
634
  8
DATA
 62
     7
 10
298.7441915078049
 20
-537.17578125
 30
0.0
 40
13.8515625
  1
PROFESSIONAL
 41
0.7
 72
     1
 11
353.688722757805
 21
-530.25
 31
0.0
 73
     2
  0
TEXT
  5
635
  8
DATA
 62
     7
 10
332.448488382805
 20
-664.0480528636821
 30
0.0
 40
13.8515625
  1
HiQnet
 41
0.7
 72
     1
 11
356.688722757805
 21
-657.1222716136821
 31
0.0
 73
     2
  0
TEXT
  5
636
  8
DATA
 62
     7
 10
785.6805196328049
 20
-664.0480528636821
 30
0.0
 40
13.8515625
  1
INPUT
 41
0.7
 72
     1
 11
806.688722757805
 21
-657.1222716136821
 31
0.0
 73
     2
  0
TEXT
  5
637
  8
DATA
 62
     7
 10
779.216457132805
 20
-682.0480528636821
 30
0.0
 40
13.8515625
  1
ANALOG
 41
0.7
 72
     1
 11
806.688722757805
 21
-675.1222716136821
 31
0.0
 73
     2
  0
TEXT
  5
638
  8
DATA
 62
     7
 10
474.368410257805
 20
-664.0480528636821
 30
0.0
 40
13.8515625
  1
THROUGH
 41
0.7
 72
     1
 11
506.688722757805
 21
-657.1222716136821
 31
0.0
 73
     2
  0
TEXT
  5
639
  8
DATA
 62
     7
 10
552.6004415078049
 20
-682.0480528636821
 30
0.0
 40
13.8515625
  1
DIGITAL
 41
0.7
 72
     1
 11
581.688722757805
 21
-675.1222716136821
 31
0.0
 73
     2
  0
TEXT
  5
63A
  8
DATA
 62
     7
 10
635.6805196328049
 20
-664.0480528636821
 30
0.0
 40
13.8515625
  1
INPUT
 41
0.7
 72
     1
 11
656.688722757805
 21
-657.1222716136821
 31
0.0
 73
     2
  0
LINE
  5
63B
  8
DATA
  6
CONTINUOUS
 62
     7
 10
506.688722757805
 20
-666.7222716136822
 30
0.0
 11
506.688722757805
 21
-675.1222716136821
 31
0.0
  0
LINE
  5
63C
  8
DATA
  6
CONTINUOUS
 62
     7
 10
656.688722757805
 20
-675.1222716136821
 30
0.0
 11
614.688722757805
 21
-675.1222716136821
 31
0.0
  0
LINE
  5
63D
  8
DATA
  6
CONTINUOUS
 62
     7
 10
548.688722757805
 20
-675.1222716136821
 30
0.0
 11
506.688722757805
 21
-675.1222716136821
 31
0.0
  0
LINE
  5
63E
  8
DATA
  6
CONTINUOUS
 62
     7
 10
656.688722757805
 20
-666.7222716136822
 30
0.0
 11
656.688722757805
 21
-675.1222716136821
 31
0.0
  0
LINE
  5
63F
  8
DATA
  6
CONTINUOUS
 62
     7
 10
386.688722757805
 20
-608.25
 30
0.0
 11
386.688722757805
 21
-596.25
 31
0.0
  0
LINE
  5
640
  8
DATA
  6
CONTINUOUS
 62
     7
 10
326.688722757805
 20
-621.75
 30
0.0
 11
326.688722757805
 21
-582.75
 31
0.0
  0
LINE
  5
641
  8
DATA
  6
CONTINUOUS
 62
     7
 10
371.688722757805
 20
-621.75
 30
0.0
 11
371.688722757805
 21
-612.0
 31
0.0
  0
LINE
  5
642
  8
DATA
  6
CONTINUOUS
 62
     7
 10
371.688722757805
 20
-592.5
 30
0.0
 11
371.688722757805
 21
-582.75
 31
0.0
  0
LINE
  5
643
  8
DATA
  6
CONTINUOUS
 62
     7
 10
383.688722757805
 20
-612.0
 30
0.0
 11
383.688722757805
 21
-608.25
 31
0.0
  0
LINE
  5
644
  8
DATA
  6
CONTINUOUS
 62
     7
 10
383.688722757805
 20
-596.25
 30
0.0
 11
383.688722757805
 21
-592.5
 31
0.0
  0
LINE
  5
645
  8
DATA
  6
CONTINUOUS
 62
     7
 10
383.688722757805
 20
-592.5
 30
0.0
 11
371.688722757805
 21
-592.5
 31
0.0
  0
LINE
  5
646
  8
DATA
  6
CONTINUOUS
 62
     7
 10
383.688722757805
 20
-612.0
 30
0.0
 11
371.688722757805
 21
-612.0
 31
0.0
  0
LINE
  5
647
  8
DATA
  6
CONTINUOUS
 62
     7
 10
386.688722757805
 20
-596.25
 30
0.0
 11
383.688722757805
 21
-596.25
 31
0.0
  0
LINE
  5
648
  8
DATA
  6
CONTINUOUS
 62
     7
 10
386.688722757805
 20
-608.25
 30
0.0
 11
383.688722757805
 21
-608.25
 31
0.0
  0
LINE
  5
649
  8
DATA
  6
CONTINUOUS
 62
     7
 10
326.688722757805
 20
-582.75
 30
0.0
 11
371.688722757805
 21
-582.75
 31
0.0
  0
LINE
  5
64A
  8
DATA
  6
CONTINUOUS
 62
     7
 10
326.688722757805
 20
-621.75
 30
0.0
 11
371.688722757805
 21
-621.75
 31
0.0
  0
ARC
  5
64B
  8
DATA
  6
CONTINUOUS
 62
     7
 10
453.3305538225463
 20
-602.363712035452
 30
0.0
 40
12.64234246872353
 50
132.0187457505255
 51
179.4846439590365
  0
ARC
  5
64C
  8
DATA
  6
CONTINUOUS
 62
     7
 10
478.8925795509581
 20
-630.0605093142699
 30
0.0
 40
50.33157973960081
 50
103.8253077765942
 51
132.5323631733715
  0
ARC
  5
64D
  8
DATA
  6
CONTINUOUS
 62
     7
 10
505.3320402920081
 20
-716.9698386697696
 30
0.0
 40
141.1263598818263
 50
89.4491930720247
 51
105.8172556319172
  0
ARC
  5
64E
  8
DATA
  6
CONTINUOUS
 62
     7
 10
453.3305538225463
 20
-602.136287964548
 30
0.0
 40
12.64234246872259
 50
180.5153560409635
 51
227.9812542494747
  0
ARC
  5
64F
  8
DATA
  6
CONTINUOUS
 62
     7
 10
478.8925795509581
 20
-574.4394906857301
 30
0.0
 40
50.33157973960131
 50
227.4676368266285
 51
256.1746922234058
  0
ARC
  5
650
  8
DATA
  6
CONTINUOUS
 62
     7
 10
505.3320402920081
 20
-487.5301613302304
 30
0.0
 40
141.1263598818263
 50
254.1827443680828
 51
270.5508069279753
  0
ARC
  5
651
  8
DATA
  6
CONTINUOUS
 62
     7
 10
560.0468916930636
 20
-602.363712035452
 30
0.0
 40
12.64234246872259
 50
0.5153560409635503
 51
47.9812542494747
  0
ARC
  5
652
  8
DATA
  6
CONTINUOUS
 62
     7
 10
534.4848659646518
 20
-630.0605093142699
 30
0.0
 40
50.33157973960131
 50
47.46763682662846
 51
76.17469222340578
  0
ARC
  5
653
  8
DATA
  6
CONTINUOUS
 62
     7
 10
508.0454052236018
 20
-716.9698386697696
 30
0.0
 40
141.1263598818263
 50
74.18274436808277
 51
90.55080692797529
  0
ARC
  5
654
  8
DATA
  6
CONTINUOUS
 62
     7
 10
560.0468916930636
 20
-602.136287964548
 30
0.0
 40
12.64234246872353
 50
312.0187457505256
 51
359.4846439590365
  0
ARC
  5
655
  8
DATA
  6
CONTINUOUS
 62
     7
 10
534.4848659646518
 20
-574.4394906857301
 30
0.0
 40
50.33157973960081
 50
283.8253077765942
 51
312.5323631733715
  0
ARC
  5
656
  8
DATA
  6
CONTINUOUS
 62
     7
 10
508.0454052236018
 20
-487.5301613302304
 30
0.0
 40
141.1263598818263
 50
269.4491930720247
 51
285.8172556319173
  0
ARC
  5
657
  8
DATA
  6
CONTINUOUS
 62
     7
 10
603.3305538225463
 20
-602.363712035452
 30
0.0
 40
12.64234246872353
 50
132.0187457505255
 51
179.4846439590365
  0
ARC
  5
658
  8
DATA
  6
CONTINUOUS
 62
     7
 10
628.8925795509581
 20
-630.0605093142699
 30
0.0
 40
50.33157973960081
 50
103.8253077765942
 51
132.5323631733715
  0
ARC
  5
659
  8
DATA
  6
CONTINUOUS
 62
     7
 10
655.3320402920094
 20
-716.9698386697696
 30
0.0
 40
141.1263598818263
 50
89.44919307202528
 51
105.8172556319178
  0
ARC
  5
65A
  8
DATA
  6
CONTINUOUS
 62
     7
 10
603.3305538225463
 20
-602.136287964548
 30
0.0
 40
12.64234246872259
 50
180.5153560409635
 51
227.9812542494747
  0
ARC
  5
65B
  8
DATA
  6
CONTINUOUS
 62
     7
 10
628.8925795509581
 20
-574.4394906857301
 30
0.0
 40
50.33157973960131
 50
227.4676368266285
 51
256.1746922234058
  0
ARC
  5
65C
  8
DATA
  6
CONTINUOUS
 62
     7
 10
655.3320402920094
 20
-487.5301613302304
 30
0.0
 40
141.1263598818267
 50
254.1827443680822
 51
270.5508069279747
  0
ARC
  5
65D
  8
DATA
  6
CONTINUOUS
 62
     7
 10
710.0468916930636
 20
-602.363712035452
 30
0.0
 40
12.64234246872259
 50
0.5153560409635503
 51
47.9812542494747
  0
ARC
  5
65E
  8
DATA
  6
CONTINUOUS
 62
     7
 10
684.4848659646518
 20
-630.0605093142699
 30
0.0
 40
50.33157973960131
 50
47.46763682662846
 51
76.17469222340578
  0
ARC
  5
65F
  8
DATA
  6
CONTINUOUS
 62
     7
 10
658.0454052236005
 20
-716.9698386697696
 30
0.0
 40
141.1263598818267
 50
74.18274436808224
 51
90.55080692797475
  0
ARC
  5
660
  8
DATA
  6
CONTINUOUS
 62
     7
 10
710.0468916930636
 20
-602.136287964548
 30
0.0
 40
12.64234246872353
 50
312.0187457505256
 51
359.4846439590365
  0
ARC
  5
661
  8
DATA
  6
CONTINUOUS
 62
     7
 10
684.4848659646518
 20
-574.4394906857301
 30
0.0
 40
50.33157973960081
 50
283.8253077765942
 51
312.5323631733715
  0
ARC
  5
662
  8
DATA
  6
CONTINUOUS
 62
     7
 10
658.0454052236005
 20
-487.5301613302304
 30
0.0
 40
141.1263598818263
 50
269.4491930720253
 51
285.8172556319178
  0
ARC
  5
663
  8
DATA
  6
CONTINUOUS
 62
     7
 10
753.3305538225463
 20
-602.363712035452
 30
0.0
 40
12.64234246872353
 50
132.0187457505255
 51
179.4846439590365
  0
ARC
  5
664
  8
DATA
  6
CONTINUOUS
 62
     7
 10
778.8925795509581
 20
-630.0605093142699
 30
0.0
 40
50.33157973960081
 50
103.8253077765942
 51
132.5323631733715
  0
ARC
  5
665
  8
DATA
  6
CONTINUOUS
 62
     7
 10
805.3320402920094
 20
-716.9698386697696
 30
0.0
 40
141.1263598818263
 50
89.44919307202528
 51
105.8172556319178
  0
ARC
  5
666
  8
DATA
  6
CONTINUOUS
 62
     7
 10
753.3305538225463
 20
-602.136287964548
 30
0.0
 40
12.64234246872259
 50
180.5153560409635
 51
227.9812542494747
  0
ARC
  5
667
  8
DATA
  6
CONTINUOUS
 62
     7
 10
778.8925795509581
 20
-574.4394906857301
 30
0.0
 40
50.33157973960131
 50
227.4676368266285
 51
256.1746922234058
  0
ARC
  5
668
  8
DATA
  6
CONTINUOUS
 62
     7
 10
805.3320402920094
 20
-487.5301613302304
 30
0.0
 40
141.1263598818267
 50
254.1827443680822
 51
270.5508069279747
  0
ARC
  5
669
  8
DATA
  6
CONTINUOUS
 62
     7
 10
860.0468916930636
 20
-602.363712035452
 30
0.0
 40
12.64234246872259
 50
0.5153560409635503
 51
47.9812542494747
  0
ARC
  5
66A
  8
DATA
  6
CONTINUOUS
 62
     7
 10
834.4848659646518
 20
-630.0605093142699
 30
0.0
 40
50.33157973960131
 50
47.46763682662846
 51
76.17469222340578
  0
ARC
  5
66B
  8
DATA
  6
CONTINUOUS
 62
     7
 10
808.0454052236005
 20
-716.9698386697696
 30
0.0
 40
141.1263598818267
 50
74.18274436808224
 51
90.55080692797475
  0
ARC
  5
66C
  8
DATA
  6
CONTINUOUS
 62
     7
 10
860.0468916930636
 20
-602.136287964548
 30
0.0
 40
12.64234246872353
 50
312.0187457505256
 51
359.4846439590365
  0
ARC
  5
66D
  8
DATA
  6
CONTINUOUS
 62
     7
 10
834.4848659646518
 20
-574.4394906857301
 30
0.0
 40
50.33157973960081
 50
283.8253077765942
 51
312.5323631733715
  0
ARC
  5
66E
  8
DATA
  6
CONTINUOUS
 62
     7
 10
808.0454052236005
 20
-487.5301613302304
 30
0.0
 40
141.1263598818263
 50
269.4491930720253
 51
285.8172556319178
  0
ARC
  5
66F
  8
DATA
  6
CONTINUOUS
 62
     7
 10
400.0
 20
-125.0
 30
0.0
 40
625.0
 50
257.6843036057052
 51
286.260204708312
  0
ARC
  5
670
  8
DATA
  6
CONTINUOUS
 62
     7
 10
750.0
 20
-1325.0
 30
0.0
 40
624.9999999999999
 50
77.5550223584547
 51
106.260204708312
  0
ARC
  5
671
  8
DATA
  6
CONTINUOUS
 62
     7
 10
400.0
 20
625.0
 30
0.0
 40
625.0
 50
257.6843036057052
 51
286.260204708312
  0
ARC
  5
672
  8
DATA
  6
CONTINUOUS
 62
     7
 10
750.0
 20
-575.0
 30
0.0
 40
624.9999999999999
 50
77.5550223584547
 51
106.260204708312
  0
POLYLINE
  5
673
  8
DATA
  6
CONTINUOUS
 62
     7
 66
     1
 10
0.0
 20
0.0
 30
0.0
 70
     1
  0
VERTEX
  5
8CA
  8
DATA
  6
CONTINUOUS
 62
     7
 10
-675.75
 20
-227.0
 30
0.0
  0
VERTEX
  5
8CB
  8
DATA
  6
CONTINUOUS
 62
     7
 10
-524.25
 20
-227.0
 30
0.0
  0
VERTEX
  5
8CC
  8
DATA
  6
CONTINUOUS
 62
     7
 10
-524.25
 20
-458.0
 30
0.0
  0
VERTEX
  5
8CD
  8
DATA
  6
CONTINUOUS
 62
     7
 10
-675.75
 20
-458.0
 30
0.0
  0
SEQEND
  5
92E
  8
DATA
  6
CONTINUOUS
 62
     7
  0
LINE
  5
67A
  8
DATA
  6
CONTINUOUS
 62
     7
 10
-673.5
 20
-497.0
 30
0.0
 11
-675.75
 21
-458.0
 31
0.0
  0
ARC
  5
67B
  8
DATA
  6
CONTINUOUS
 62
     7
 10
-600.0
 20
401.875
 30
0.0
 40
901.875
 50
265.3253882817524
 51
274.6746117182477
  0
LINE
  5
67C
  8
DATA
  6
CONTINUOUS
 62
     7
 10
-526.5
 20
-497.0
 30
0.0
 11
-524.25
 21
-458.0
 31
0.0
  0
LINE
  5
67D
  8
DATA
  6
CONTINUOUS
 62
     7
 10
-227.0
 20
-565.75
 30
0.0
 11
-458.0
 21
-565.75
 31
0.0
  0
LINE
  5
67E
  8
DATA
  6
CONTINUOUS
 62
     7
 10
-227.0
 20
-834.25
 30
0.0
 11
-458.0
 21
-834.25
 31
0.0
  0
LINE
  5
67F
  8
DATA
  6
CONTINUOUS
 62
     7
 10
-458.0
 20
-565.75
 30
0.0
 11
-458.0
 21
-834.25
 31
0.0
  0
LINE
  5
680
  8
DATA
  6
CONTINUOUS
 62
     7
 10
-500.0
 20
-567.25
 30
0.0
 11
-500.0
 21
-832.75
 31
0.0
  0
LINE
  5
681
  8
DATA
  6
CONTINUOUS
 62
     7
 10
-458.0
 20
-565.75
 30
0.0
 11
-500.0
 21
-567.25
 31
0.0
  0
LINE
  5
682
  8
DATA
  6
CONTINUOUS
 62
     7
 10
-458.0
 20
-834.25
 30
0.0
 11
-500.0
 21
-832.75
 31
0.0
  0
LINE
  5
683
  8
DATA
  6
CONTINUOUS
 62
     7
 10
-673.5
 20
-826.75
 30
0.0
 11
-673.5
 21
-573.25
 31
0.0
  0
ARC
  5
684
  8
DATA
  6
CONTINUOUS
 62
     7
 10
-667.5
 20
-826.75
 30
0.0
 40
6.0
 50
180.0
 51
270.0
  0
LINE
  5
685
  8
DATA
  6
CONTINUOUS
 62
     7
 10
-532.5
 20
-832.75
 30
0.0
 11
-667.5
 21
-832.75
 31
0.0
  0
ARC
  5
686
  8
DATA
  6
CONTINUOUS
 62
     7
 10
-532.5
 20
-826.75
 30
0.0
 40
6.0
 50
270.0
 51
0.0
  0
LINE
  5
687
  8
DATA
  6
CONTINUOUS
 62
     7
 10
-526.5
 20
-573.25
 30
0.0
 11
-526.5
 21
-826.75
 31
0.0
  0
ARC
  5
688
  8
DATA
  6
CONTINUOUS
 62
     7
 10
-532.5
 20
-573.25
 30
0.0
 40
6.0
 50
0.0
 51
90.0
  0
LINE
  5
689
  8
DATA
  6
CONTINUOUS
 62
     7
 10
-667.5
 20
-567.25
 30
0.0
 11
-532.5
 21
-567.25
 31
0.0
  0
ARC
  5
68A
  8
DATA
  6
CONTINUOUS
 62
     7
 10
-667.5
 20
-573.25
 30
0.0
 40
6.0
 50
90.0
 51
180.0
  0
LINE
  5
68B
  8
DATA
  6
CONTINUOUS
 62
     7
 10
-675.75
 20
-828.25
 30
0.0
 11
-675.75
 21
-571.75
 31
0.0
  0
ARC
  5
68C
  8
DATA
  6
CONTINUOUS
 62
     7
 10
-669.75
 20
-828.25
 30
0.0
 40
6.0
 50
180.0
 51
270.0
  0
LINE
  5
68D
  8
DATA
  6
CONTINUOUS
 62
     7
 10
-530.25
 20
-834.25
 30
0.0
 11
-669.75
 21
-834.25
 31
0.0
  0
ARC
  5
68E
  8
DATA
  6
CONTINUOUS
 62
     7
 10
-530.25
 20
-828.25
 30
0.0
 40
6.0
 50
270.0
 51
0.0
  0
LINE
  5
68F
  8
DATA
  6
CONTINUOUS
 62
     7
 10
-524.25
 20
-571.75
 30
0.0
 11
-524.25
 21
-828.25
 31
0.0
  0
ARC
  5
690
  8
DATA
  6
CONTINUOUS
 62
     7
 10
-530.25
 20
-571.75
 30
0.0
 40
6.0
 50
0.0
 51
90.0
  0
LINE
  5
691
  8
DATA
  6
CONTINUOUS
 62
     7
 10
-669.75
 20
-565.75
 30
0.0
 11
-530.25
 21
-565.75
 31
0.0
  0
ARC
  5
692
  8
DATA
  6
CONTINUOUS
 62
     7
 10
-669.75
 20
-571.75
 30
0.0
 40
6.0
 50
90.0
 51
180.0
  0
LINE
  5
693
  8
DATA
  6
CONTINUOUS
 62
     7
 10
-610.0000000002
 20
-647.75
 30
0.0
 11
-662.2142857142858
 21
-647.75
 31
0.0
  0
LINE
  5
694
  8
DATA
  6
CONTINUOUS
 62
     7
 10
-533.0
 20
-569.75
 30
0.0
 11
-533.0
 21
-783.75
 31
0.0
  0
LINE
  5
695
  8
DATA
  6
CONTINUOUS
 62
     7
 10
-667.0
 20
-569.75
 30
0.0
 11
-533.0
 21
-569.75
 31
0.0
  0
LINE
  5
696
  8
DATA
  6
CONTINUOUS
 62
     7
 10
-667.0
 20
-783.75
 30
0.0
 11
-667.0
 21
-569.75
 31
0.0
  0
LINE
  5
697
  8
DATA
  6
CONTINUOUS
 62
     7
 10
-537.7857142857143
 20
-647.75
 30
0.0
 11
-589.9999999998
 21
-647.75
 31
0.0
  0
POLYLINE
  5
698
  8
DATA
  6
CONTINUOUS
 62
     7
 66
     1
 10
0.0
 20
0.0
 30
0.0
 70
     1
  0
VERTEX
  5
8CE
  8
DATA
  6
CONTINUOUS
 62
     7
 10
-610.0000000002
 20
-637.7499999998
 30
0.0
  0
VERTEX
  5
8CF
  8
DATA
  6
CONTINUOUS
 62
     7
 10
-589.9999999998
 20
-637.7499999998
 30
0.0
  0
VERTEX
  5
8D0
  8
DATA
  6
CONTINUOUS
 62
     7
 10
-589.9999999998
 20
-657.7500000002
 30
0.0
  0
VERTEX
  5
8D1
  8
DATA
  6
CONTINUOUS
 62
     7
 10
-610.0000000002
 20
-657.7500000002
 30
0.0
  0
SEQEND
  5
92F
  8
DATA
  6
CONTINUOUS
 62
     7
  0
ARC
  5
69F
  8
DATA
  6
CONTINUOUS
 62
     7
 10
-599.6811761081968
 20
-648.2297593491762
 30
0.0
 40
0.2125220765498129
 50
307.6419024975339
 51
354.2670192893895
  0
LINE
  5
6A0
  8
DATA
  6
CONTINUOUS
 62
     7
 10
-605.1400636840216
 20
-644.8807553792466
 30
0.0
 11
-604.143757017335
 21
-642.5068353791991
 31
0.0
  0
LINE
  5
6A1
  8
DATA
  6
CONTINUOUS
 62
     7
 10
-605.1400636840216
 20
-644.8807553792466
 30
0.0
 11
-606.1240770173747
 21
-642.5068353791991
 31
0.0
  0
LINE
  5
6A2
  8
DATA
  6
CONTINUOUS
 62
     7
 10
-597.5877970172039
 20
-649.173502045999
 30
0.0
 11
-597.5877970172039
 21
-642.5068353791991
 31
0.0
  0
LINE
  5
6A3
  8
DATA
  6
CONTINUOUS
 62
     7
 10
-596.308583683845
 20
-642.5068353791991
 30
0.0
 11
-596.308583683845
 21
-648.152595379312
 31
0.0
  0
LINE
  5
6A4
  8
DATA
  6
CONTINUOUS
 62
     7
 10
-603.6763503506589
 20
-642.5068353791991
 30
0.0
 11
-603.6763503506589
 21
-648.152595379312
 31
0.0
  0
LINE
  5
6A5
  8
DATA
  6
CONTINUOUS
 62
     7
 10
-602.446337017301
 20
-642.5068353791991
 30
0.0
 11
-602.446337017301
 21
-648.152595379312
 31
0.0
  0
LINE
  5
6A6
  8
DATA
  6
CONTINUOUS
 62
     7
 10
-601.8067303506216
 20
-642.5068353791991
 30
0.0
 11
-601.8067303506216
 21
-649.173502045999
 31
0.0
  0
LINE
  5
6A7
  8
DATA
  6
CONTINUOUS
 62
     7
 10
-600.6874170172658
 20
-643.1341353792116
 30
0.0
 11
-600.6874170172658
 21
-645.2743620459211
 31
0.0
  0
LINE
  5
6A8
  8
DATA
  6
CONTINUOUS
 62
     7
 10
-598.2883636838845
 20
-645.1505220459186
 30
0.0
 11
-598.2883636838845
 21
-643.5892487125541
 31
0.0
  0
LINE
  5
6A9
  8
DATA
  6
CONTINUOUS
 62
     7
 10
-599.4697170172415
 20
-643.4293420458841
 30
0.0
 11
-599.4697170172415
 21
-644.9791620459152
 31
0.0
  0
ARC
  5
6AA
  8
DATA
  6
CONTINUOUS
 62
     7
 10
-603.9231770173305
 20
-647.4616353792982
 30
0.0
 40
1.71923561681283
 50
264.6908562215344
 51
323.9911991542426
  0
LINE
  5
6AB
  8
DATA
  6
CONTINUOUS
 62
     7
 10
-604.6111570173442
 20
-647.0824753792905
 30
0.0
 11
-604.6111570173442
 21
-648.1525820459786
 31
0.0
  0
LINE
  5
6AC
  8
DATA
  6
CONTINUOUS
 62
     7
 10
-604.6111570173442
 20
-647.0824753792905
 30
0.0
 11
-605.7181703506998
 21
-647.0824753792905
 31
0.0
  0
LINE
  5
6AD
  8
DATA
  6
CONTINUOUS
 62
     7
 10
-605.7181703506998
 20
-647.0824753792905
 30
0.0
 11
-605.7181703506998
 21
-648.1525820459786
 31
0.0
  0
ARC
  5
6AE
  8
DATA
  6
CONTINUOUS
 62
     7
 10
-604.1414103506683
 20
-648.1670087126456
 30
0.0
 40
0.4652858841708843
 50
269.7118487927561
 51
1.775987005688421
  0
ARC
  5
6AF
  8
DATA
  6
CONTINUOUS
 62
     7
 10
-604.146097017335
 20
-648.1670087126456
 30
0.0
 40
0.4652835049822548
 50
178.2240129942961
 51
270.2881512072467
  0
ARC
  5
6B0
  8
DATA
  6
CONTINUOUS
 62
     7
 10
-604.2413303506703
 20
-647.4616353792982
 30
0.0
 40
1.719232824665371
 50
216.0088008457614
 51
275.3091437784668
  0
ARC
  5
6B1
  8
DATA
  6
CONTINUOUS
 62
     7
 10
-604.9412103506843
 20
-648.1148953793113
 30
0.0
 40
0.7778668054663176
 50
182.776995449989
 51
207.3596066671407
  0
CIRCLE
  5
6B2
  8
DATA
  6
CONTINUOUS
 62
     7
 10
-605.0724103506868
 20
-645.8032687125983
 30
0.0
 40
0.6334533333459831
  0
LINE
  5
6B3
  8
DATA
  6
CONTINUOUS
 62
     7
 10
-594.2544636838038
 20
-649.1734953793323
 30
0.0
 11
-597.5877970172039
 21
-649.1734953793323
 31
0.0
  0
LINE
  5
6B4
  8
DATA
  6
CONTINUOUS
 62
     7
 10
-594.2544636838038
 20
-649.1734953793323
 30
0.0
 11
-594.2544636838038
 21
-647.0824687126238
 31
0.0
  0
LINE
  5
6B5
  8
DATA
  6
CONTINUOUS
 62
     7
 10
-594.2544636838038
 20
-647.0824753792905
 30
0.0
 11
-595.3737703504929
 21
-647.0824753792905
 31
0.0
  0
LINE
  5
6B6
  8
DATA
  6
CONTINUOUS
 62
     7
 10
-595.3737703504929
 20
-647.0824753792905
 30
0.0
 11
-595.3737703504929
 21
-648.1525820459786
 31
0.0
  0
LINE
  5
6B7
  8
DATA
  6
CONTINUOUS
 62
     7
 10
-601.8067303506216
 20
-649.1734953793323
 30
0.0
 11
-599.4697170172415
 21
-649.1734887126656
 31
0.0
  0
LINE
  5
6B8
  8
DATA
  6
CONTINUOUS
 62
     7
 10
-600.6874236839325
 20
-648.5461887126531
 30
0.0
 11
-600.0847170172538
 21
-648.5461887126531
 31
0.0
  0
LINE
  5
6B9
  8
DATA
  6
CONTINUOUS
 62
     7
 10
-600.6874170172658
 20
-648.5461887126531
 30
0.0
 11
-600.6874170172658
 21
-645.9139620459339
 31
0.0
  0
LINE
  5
6BA
  8
DATA
  6
CONTINUOUS
 62
     7
 10
-600.6874236839325
 20
-645.9139620459339
 30
0.0
 11
-600.0847170172538
 21
-645.9139620459339
 31
0.0
  0
LINE
  5
6BB
  8
DATA
  6
CONTINUOUS
 62
     7
 10
-599.4697170172415
 20
-648.2509887126472
 30
0.0
 11
-599.4697170172415
 21
-646.2091620459398
 31
0.0
  0
ARC
  5
6BC
  8
DATA
  6
CONTINUOUS
 62
     7
 10
-603.2232970173166
 20
-648.1148953793113
 30
0.0
 40
0.7778656985922099
 50
332.6403933328581
 51
357.2230045500106
  0
ARC
  5
6BD
  8
DATA
  6
CONTINUOUS
 62
     7
 10
-595.8388370171689
 20
-648.1670087126456
 30
0.0
 40
0.4652858841708848
 50
269.711848792742
 51
1.775987005688421
  0
ARC
  5
6BE
  8
DATA
  6
CONTINUOUS
 62
     7
 10
-595.843517017169
 20
-648.1670087126456
 30
0.0
 40
0.4652835049822548
 50
178.2240129942961
 51
270.2881512072606
  0
LINE
  5
6BF
  8
DATA
  6
CONTINUOUS
 62
     7
 10
-598.2889036838845
 20
-648.1033820459776
 30
0.0
 11
-598.2889036838845
 21
-646.3321687126089
 31
0.0
  0
LINE
  5
6C0
  8
DATA
  6
CONTINUOUS
 62
     7
 10
-600.6874236839325
 20
-645.2743620459211
 30
0.0
 11
-600.0847170172538
 21
-645.2743620459211
 31
0.0
  0
ARC
  5
6C1
  8
DATA
  6
CONTINUOUS
 62
     7
 10
-599.5544636839098
 20
-647.907915379307
 30
0.0
 40
1.268407607837389
 50
273.8309816091153
 51
351.1351473098009
  0
LINE
  5
6C2
  8
DATA
  6
CONTINUOUS
 62
     7
 10
-603.6763503506589
 20
-642.5068353791991
 30
0.0
 11
-602.446337017301
 21
-642.5068353791991
 31
0.0
  0
LINE
  5
6C3
  8
DATA
  6
CONTINUOUS
 62
     7
 10
-606.1240770173747
 20
-642.5068353791991
 30
0.0
 11
-604.143757017335
 21
-642.5068353791991
 31
0.0
  0
LINE
  5
6C4
  8
DATA
  6
CONTINUOUS
 62
     7
 10
-597.5877970172039
 20
-642.5068353791991
 30
0.0
 11
-596.308583683845
 21
-642.5068353791991
 31
0.0
  0
LINE
  5
6C5
  8
DATA
  6
CONTINUOUS
 62
     7
 10
-601.8067303506216
 20
-642.5068353791991
 30
0.0
 11
-599.4568702651435
 21
-642.5068407750259
 31
0.0
  0
LINE
  5
6C6
  8
DATA
  6
CONTINUOUS
 62
     7
 10
-600.6874236839325
 20
-643.1341420458783
 30
0.0
 11
-600.0847170172538
 21
-643.1341420458783
 31
0.0
  0
ARC
  5
6C7
  8
DATA
  6
CONTINUOUS
 62
     7
 10
-599.5418170172429
 20
-643.7704753792243
 30
0.0
 40
1.26648662196631
 50
8.226923859013084
 51
86.15412669215512
  0
ARC
  5
6C8
  8
DATA
  6
CONTINUOUS
 62
     7
 10
-600.0776000421848
 20
-647.3770634055718
 30
0.0
 40
1.169146968944529
 50
269.651219937619
 51
282.826482806875
  0
ARC
  5
6C9
  8
DATA
  6
CONTINUOUS
 62
     7
 10
-599.9462863322733
 20
-647.871355586791
 30
0.0
 40
0.6582919358088114
 50
281.2331036226647
 51
306.862008894065
  0
ARC
  5
6CA
  8
DATA
  6
CONTINUOUS
 62
     7
 10
-599.6811761081968
 20
-646.2303914094107
 30
0.0
 40
0.2125220765498274
 50
5.732980710579988
 51
52.35809750244188
  0
ARC
  5
6CB
  8
DATA
  6
CONTINUOUS
 62
     7
 10
-600.0776000421848
 20
-647.0830873530152
 30
0.0
 40
1.169146968944602
 50
77.17351719312617
 51
90.348780062381
  0
ARC
  5
6CC
  8
DATA
  6
CONTINUOUS
 62
     7
 10
-599.9462863322733
 20
-646.5887951717959
 30
0.0
 40
0.6582919358086992
 50
53.13799110594296
 51
78.76689637733332
  0
ARC
  5
6CD
  8
DATA
  6
CONTINUOUS
 62
     7
 10
-598.9340236838975
 20
-646.3757753792764
 30
0.0
 40
0.6465921092888472
 50
3.867006359820619
 51
88.36163456789289
  0
ARC
  5
6CE
  8
DATA
  6
CONTINUOUS
 62
     7
 10
-598.9346170172308
 20
-645.0824953792505
 30
0.0
 40
0.647234626644745
 50
271.6892821046473
 51
356.0782829826525
  0
ARC
  5
6CF
  8
DATA
  6
CONTINUOUS
 62
     7
 10
-599.6811761081968
 20
-644.9579326824443
 30
0.0
 40
0.2125220765497229
 50
307.6419024975526
 51
354.2670192893864
  0
ARC
  5
6D0
  8
DATA
  6
CONTINUOUS
 62
     7
 10
-600.0776000421848
 20
-644.1052367388396
 30
0.0
 40
1.169146968944643
 50
269.6512199376191
 51
282.8264828068738
  0
ARC
  5
6D1
  8
DATA
  6
CONTINUOUS
 62
     7
 10
-599.9462863322733
 20
-644.599528920059
 30
0.0
 40
0.6582919358085884
 50
281.2331036226686
 51
306.8620088940709
  0
ARC
  5
6D2
  8
DATA
  6
CONTINUOUS
 62
     7
 10
-599.6811761081968
 20
-643.450571409355
 30
0.0
 40
0.2125220765498274
 50
5.732980710579988
 51
52.35809750242316
  0
ARC
  5
6D3
  8
DATA
  6
CONTINUOUS
 62
     7
 10
-600.0776000421848
 20
-644.3032673529597
 30
0.0
 40
1.169146968944602
 50
77.17351719312617
 51
90.34878006238095
  0
ARC
  5
6D4
  8
DATA
  6
CONTINUOUS
 62
     7
 10
-599.9462863322733
 20
-643.8089751717403
 30
0.0
 40
0.6582919358086081
 50
53.13799110593702
 51
78.7668963773314
  0
LINE
  5
6D5
  8
DATA
  6
CONTINUOUS
 62
     7
 10
-589.9999999998
 20
-653.9404761906
 30
0.0
 11
-610.0000000002
 21
-653.9404761906
 31
0.0
  0
TEXT
  5
6D6
  8
DATA
 62
     7
 10
-608.7213541668411
 20
-656.9445684525648
 30
0.0
 40
2.198660714329688
  1
PROFESSIONAL
 41
0.7
 72
     1
 11
-600.0
 21
-655.8452380954
 31
0.0
 73
     2
  0
CIRCLE
  5
6D7
  8
DATA
  6
CONTINUOUS
 62
     7
 10
-600.0
 20
-608.75
 30
0.0
 40
7.5
  0
LINE
  5
6D8
  8
DATA
  6
CONTINUOUS
 62
     7
 10
-667.0
 20
-569.75
 30
0.0
 11
-606.4818478138228
 21
-604.9769841083718
 31
0.0
  0
LINE
  5
6D9
  8
DATA
  6
CONTINUOUS
 62
     7
 10
-532.8625046262034
 20
-569.9881489732213
 30
0.0
 11
-593.5048094716135
 21
-604.9999999999982
 31
0.0
  0
LINE
  5
6DA
  8
DATA
  6
CONTINUOUS
 62
     7
 10
-667.0
 20
-650.75
 30
0.0
 11
-606.3546531631497
 21
-612.7335139231684
 31
0.0
  0
LINE
  5
6DB
  8
DATA
  6
CONTINUOUS
 62
     7
 10
-533.0
 20
-650.75
 30
0.0
 11
-593.6453468368504
 21
-612.7335139231684
 31
0.0
  0
LINE
  5
6DC
  8
DATA
  6
CONTINUOUS
 62
     7
 10
-667.0
 20
-817.75
 30
0.0
 11
-667.0
 21
-787.75
 31
0.0
  0
LINE
  5
6DD
  8
DATA
  6
CONTINUOUS
 62
     7
 10
-538.0
 20
-822.75
 30
0.0
 11
-662.0
 21
-822.75
 31
0.0
  0
LINE
  5
6DE
  8
DATA
  6
CONTINUOUS
 62
     7
 10
-533.0
 20
-787.75
 30
0.0
 11
-533.0
 21
-817.75
 31
0.0
  0
ARC
  5
6DF
  8
DATA
  6
CONTINUOUS
 62
     7
 10
-600.0
 20
-511.1875
 30
0.0
 40
284.5625
 50
256.3818996407732
 51
283.6181003592268
  0
ARC
  5
6E0
  8
DATA
  6
CONTINUOUS
 62
     7
 10
-600.0
 20
-507.1875
 30
0.0
 40
284.5625
 50
256.3818996407732
 51
283.6181003592268
  0
ARC
  5
6E1
  8
DATA
  6
CONTINUOUS
 62
     7
 10
-662.0
 20
-817.75
 30
0.0
 40
5.0
 50
180.0
 51
270.0
  0
ARC
  5
6E2
  8
DATA
  6
CONTINUOUS
 62
     7
 10
-538.0
 20
-817.75
 30
0.0
 40
5.0
 50
270.0
 51
0.0
  0
ARC
  5
6E3
  8
DATA
  6
CONTINUOUS
 62
     7
 10
-541.25
 20
-658.75
 30
0.0
 40
5.0
 50
0.0
 51
180.0
  0
ARC
  5
6E4
  8
DATA
  6
CONTINUOUS
 62
     7
 10
-541.25
 20
-668.75
 30
0.0
 40
5.0
 50
180.0
 51
0.0
  0
LINE
  5
6E5
  8
DATA
  6
CONTINUOUS
 62
     7
 10
-546.25
 20
-668.75
 30
0.0
 11
-546.25
 21
-658.75
 31
0.0
  0
LINE
  5
6E6
  8
DATA
  6
CONTINUOUS
 62
     7
 10
-536.25
 20
-658.75
 30
0.0
 11
-536.25
 21
-668.75
 31
0.0
  0
CIRCLE
  5
6E7
  8
DATA
  6
CONTINUOUS
 62
     7
 10
-541.25
 20
-658.75
 30
0.0
 40
1.5
  0
CIRCLE
  5
6E8
  8
DATA
  6
CONTINUOUS
 62
     7
 10
-541.25
 20
-668.75
 30
0.0
 40
1.5
  0
TEXT
  5
6E9
  8
DATA
 62
     7
 10
-543.4944661458783
 20
-665.6738281250384
 30
0.0
 40
3.847656250076954
  1
7P
 41
0.7
 72
     1
 11
-541.25
 21
-663.75
 31
0.0
 73
     2
  0
TEXT
  5
6EA
  8
DATA
 62
     7
 10
400.0
 20
-1119.809315
 30
0.0
 40
17.64577907986111
  1
パワード2-Wayフルレンジ・スタジオモニター
 41
0.7
 11
400.0
 21
-1102.163535920139
 31
0.0
 73
     3
  0
ENDSEC
  0
EOF
