  0
SECTION
  2
HEADER
  9
$ACADVER
  1
AC1009
  9
$INSBASE
 10
0.0
 20
0.0
 30
0.0
  9
$EXTMIN
 10
149.94507516960761
 20
37.573251660882313
 30
-0.0015258207003583
  9
$EXTMAX
 10
2850.086981733431
 20
4050.1236056211901
 30
0.0000000349246037
  9
$LIMMIN
 10
0.0
 20
0.0
  9
$LIMMAX
 10
0.0
 20
0.0
  9
$ORTHOMODE
 70
     0
  9
$REGENMODE
 70
     1
  9
$FILLMODE
 70
     1
  9
$QTEXTMODE
 70
     0
  9
$MIRRTEXT
 70
     1
  9
$DRAGMODE
 70
     2
  9
$LTSCALE
 40
76.200000000000003
  9
$OSMODE
 70
   231
  9
$ATTMODE
 70
     1
  9
$TEXTSIZE
 40
0.0
  9
$TRACEWID
 40
1.0
  9
$TEXTSTYLE
  7
STANDARD
  9
$CLAYER
  8
DATA
  9
$CELTYPE
  6
BYLAYER
  9
$CECOLOR
 62
   256
  9
$DIMSCALE
 40
1.0
  9
$DIMASZ
 40
0.18
  9
$DIMEXO
 40
0.0625
  9
$DIMDLI
 40
0.38
  9
$DIMRND
 40
0.0
  9
$DIMDLE
 40
0.0
  9
$DIMEXE
 40
0.18
  9
$DIMTP
 40
0.0
  9
$DIMTM
 40
0.0
  9
$DIMTXT
 40
0.18
  9
$DIMCEN
 40
0.09
  9
$DIMTSZ
 40
0.0
  9
$DIMTOL
 70
     0
  9
$DIMLIM
 70
     0
  9
$DIMTIH
 70
     1
  9
$DIMTOH
 70
     1
  9
$DIMSE1
 70
     0
  9
$DIMSE2
 70
     0
  9
$DIMTAD
 70
     0
  9
$DIMZIN
 70
     0
  9
$DIMBLK
  1

  9
$DIMASO
 70
     1
  9
$DIMSHO
 70
     1
  9
$DIMPOST
  1

  9
$DIMAPOST
  1

  9
$DIMALT
 70
     0
  9
$DIMALTD
 70
     2
  9
$DIMALTF
 40
25.399999999999999
  9
$DIMLFAC
 40
1.0
  9
$DIMTOFL
 70
     0
  9
$DIMTVP
 40
0.0
  9
$DIMTIX
 70
     0
  9
$DIMSOXD
 70
     0
  9
$DIMSAH
 70
     0
  9
$DIMBLK1
  1

  9
$DIMBLK2
  1

  9
$DIMSTYLE
  2
STANDARD
  9
$DIMCLRD
 70
     0
  9
$DIMCLRE
 70
     0
  9
$DIMCLRT
 70
     0
  9
$DIMTFAC
 40
1.0
  9
$DIMGAP
 40
0.09
  9
$LUNITS
 70
     2
  9
$LUPREC
 70
     4
  9
$SKETCHINC
 40
0.1
  9
$FILLETRAD
 40
0.0
  9
$AUNITS
 70
     0
  9
$AUPREC
 70
     0
  9
$MENU
  1
acad
  9
$ELEVATION
 40
0.0
  9
$PELEVATION
 40
0.0
  9
$THICKNESS
 40
0.0
  9
$LIMCHECK
 70
     0
  9
$BLIPMODE
 70
     0
  9
$CHAMFERA
 40
0.0
  9
$CHAMFERB
 40
0.0
  9
$SKPOLY
 70
     0
  9
$TDCREATE
 40
2455044.7806250001
  9
$TDUPDATE
 40
2455044.7813262041
  9
$TDINDWG
 40
0.000299537
  9
$TDUSRTIMER
 40
0.0002993634
  9
$USRTIMER
 70
     1
  9
$ANGBASE
 50
0.0
  9
$ANGDIR
 70
     0
  9
$PDMODE
 70
     1
  9
$PDSIZE
 40
-2.0
  9
$PLINEWID
 40
0.0
  9
$COORDS
 70
     0
  9
$SPLFRAME
 70
     0
  9
$SPLINETYPE
 70
     6
  9
$SPLINESEGS
 70
     8
  9
$ATTDIA
 70
     0
  9
$ATTREQ
 70
     1
  9
$HANDLING
 70
     1
  9
$HANDSEED
  5
4E9
  9
$SURFTAB1
 70
     6
  9
$SURFTAB2
 70
     6
  9
$SURFTYPE
 70
     6
  9
$SURFU
 70
     6
  9
$SURFV
 70
     6
  9
$UCSNAME
  2

  9
$UCSORG
 10
0.0
 20
0.0
 30
0.0
  9
$UCSXDIR
 10
1.0
 20
0.0
 30
0.0
  9
$UCSYDIR
 10
0.0
 20
1.0
 30
0.0
  9
$PUCSNAME
  2

  9
$PUCSORG
 10
0.0
 20
0.0
 30
0.0
  9
$PUCSXDIR
 10
1.0
 20
0.0
 30
0.0
  9
$PUCSYDIR
 10
0.0
 20
1.0
 30
0.0
  9
$USERI1
 70
     0
  9
$USERI2
 70
     0
  9
$USERI3
 70
     0
  9
$USERI4
 70
     0
  9
$USERI5
 70
     0
  9
$USERR1
 40
0.0
  9
$USERR2
 40
0.0
  9
$USERR3
 40
0.0
  9
$USERR4
 40
0.0
  9
$USERR5
 40
0.0
  9
$WORLDVIEW
 70
     1
  9
$SHADEDGE
 70
     3
  9
$SHADEDIF
 70
    70
  9
$TILEMODE
 70
     1
  9
$MAXACTVP
 70
    64
  9
$PLIMCHECK
 70
     0
  9
$PEXTMIN
 10
1.0000000000000000E+020
 20
1.0000000000000000E+020
 30
1.0000000000000000E+020
  9
$PEXTMAX
 10
-1.0000000000000000E+020
 20
-1.0000000000000000E+020
 30
-1.0000000000000000E+020
  9
$PLIMMIN
 10
0.0
 20
0.0
  9
$PLIMMAX
 10
12.0
 20
9.0
  9
$UNITMODE
 70
     0
  9
$VISRETAIN
 70
     0
  9
$PLINEGEN
 70
     1
  9
$PSLTSCALE
 70
     0
  0
ENDSEC
  0
SECTION
  2
TABLES
  0
TABLE
  2
VPORT
 70
     1
  0
VPORT
  2
*ACTIVE
 70
     0
 10
0.0
 20
0.0
 11
1.0
 21
1.0
 12
1500.0160284515191
 22
2043.848428641036
 13
0.0
 23
0.0
 14
1.0
 24
1.0
 15
0.0
 25
0.0
 16
0.0
 26
0.0
 36
1.0
 17
0.0
 27
0.0
 37
0.0
 40
4042.1268921958881
 41
1.964329643296433
 42
50.0
 43
0.0
 44
0.0
 50
0.0
 51
0.0
 71
     0
 72
  2000
 73
     1
 74
     1
 75
     0
 76
     0
 77
     0
 78
     0
  0
ENDTAB
  0
TABLE
  2
LTYPE
 70
    12
  0
LTYPE
  2
CONTINUOUS
 70
     0
  3
Solid line
 72
    65
 73
     0
 40
0.0
  0
LTYPE
  2
STYLE_11
 70
     0
  3

 72
    65
 73
     2
 40
0.1875
 49
0.125
 49
-0.0625
  0
ENDTAB
  0
TABLE
  2
LAYER
 70
     5
  0
LAYER
  2
0
 70
     0
 62
     7
  6
CONTINUOUS
  0
LAYER
  2
DATA
 70
     0
 62
     7
  6
CONTINUOUS
  0
LAYER
  2
HIBINO-BASE
 70
     0
 62
     7
  6
CONTINUOUS
  0
LAYER
  2
SPEC
 70
     0
 62
     7
  6
CONTINUOUS
  0
LAYER
  2
DIMNSIONS
 70
     0
 62
     7
  6
CONTINUOUS
  0
ENDTAB
  0
TABLE
  2
STYLE
 70
     3
  0
STYLE
  2
STANDARD
 70
     0
 40
0.0
 41
1.0
 50
0.0
 71
     0
 42
0.0
  3
txt
  4
BIGFONT.SHX
  0
ENDTAB
  0
TABLE
  2
VIEW
 70
     0
  0
ENDTAB
  0
TABLE
  2
UCS
 70
     0
  0
ENDTAB
  0
TABLE
  2
APPID
 70
     3
  0
APPID
  2
ACAD
 70
     0
  0
APPID
  2
ACADANNOTATIVE
 70
     0
  0
APPID
  2
ACAD_MLEADERVER
 70
     0
  0
ENDTAB
  0
TABLE
  2
DIMSTYLE
 70
     2
  0
DIMSTYLE
  2
STANDARD
 70
     0
  3

  4

  5

  6

  7

 40
1.0
 41
0.18
 42
0.0625
 43
0.38
 44
0.18
 45
0.0
 46
0.0
 47
0.0
 48
0.0
140
0.18
141
0.09
142
0.0
143
25.399999999999999
144
1.0
145
0.0
146
1.0
147
0.09
 71
     0
 72
     0
 73
     1
 74
     1
 75
     0
 76
     0
 77
     0
 78
     0
170
     0
171
     2
172
     0
173
     0
174
     0
175
     0
176
     0
177
     0
178
     0
  0
ENDTAB
  0
ENDSEC
  0
SECTION
  2
BLOCKS
  0
BLOCK
  8
0
  2
$MODEL_SPACE
 70
     0
 10
0.0
 20
0.0
 30
0.0
  3
$MODEL_SPACE
  1

  0
ENDBLK
  5
484
  8
0
  0
BLOCK
 67
     1
  8
0
  2
$PAPER_SPACE
 70
     0
 10
0.0
 20
0.0
 30
0.0
  3
$PAPER_SPACE
  1

  0
ENDBLK
  5
480
 67
     1
  8
0
  0
ENDSEC
  0
SECTION
  2
ENTITIES
  0
LINE
  5
2D
  8
HIBINO-BASE
  6
CONTINUOUS
 62
     7
 10
150.0
 20
4050.0
 30
0.0
 11
2850.0
 21
4050.0
 31
0.0
  0
LINE
  5
2E
  8
HIBINO-BASE
  6
CONTINUOUS
 62
     7
 10
2850.0
 20
150.0
 30
0.0
 11
150.0
 21
150.0
 31
0.0
  0
LINE
  5
2F
  8
HIBINO-BASE
  6
CONTINUOUS
 62
     7
 10
150.0
 20
150.0
 30
0.0
 11
150.0
 21
4050.0
 31
0.0
  0
TEXT
  5
30
  8
HIBINO-BASE
 62
     7
 10
280.0
 20
55.433224302451592
 30
0.0
 40
52.937337239583343
  1
Hibino Corporation
 41
0.7
 11
280.0
 21
108.37056154203491
 31
0.0
 73
     3
  0
LINE
  5
31
  8
HIBINO-BASE
  6
CONTINUOUS
 62
     7
 10
2850.0
 20
4050.0
 30
0.0
 11
2850.0
 21
150.0
 31
0.0
  0
LINE
  5
32
  8
HIBINO-BASE
  6
CONTINUOUS
 62
     7
 10
1500.0
 20
487.50000000000011
 30
0.0
 11
2850.0
 21
487.50000000000011
 31
0.0
  0
LINE
  5
33
  8
HIBINO-BASE
  6
CONTINUOUS
 62
     7
 10
1500.0
 20
150.0
 30
0.0
 11
1500.0
 21
487.50000000000011
 31
0.0
  0
TEXT
  5
34
  8
HIBINO-BASE
 62
     7
 10
1518.25
 20
449.63483426625919
 30
0.0
 40
24.4326171875
  1
NOTE
 41
0.7
 11
1518.25
 21
474.0674514537593
 31
0.0
 73
     3
  0
LINE
  5
35
  8
HIBINO-BASE
  6
CONTINUOUS
 62
     7
 10
2025.0
 20
150.0
 30
0.0
 11
2025.0
 21
487.50000000000011
 31
0.0
  0
TEXT
  5
36
  8
HIBINO-BASE
 62
     7
 10
2041.3125
 20
449.80381117499041
 30
0.0
 40
24.4326171875
  1
TITLE
 41
0.7
 11
2041.3125
 21
474.23642836249041
 31
0.0
 73
     3
  0
TEXT
  5
37
  8
HIBINO-BASE
 62
     7
 10
2344.229166666667
 20
57.0092116283951
 30
0.0
 40
52.937337239583343
  1
ヒビノ株式会社
 41
0.7
 11
2344.229166666667
 21
109.94654886797839
 31
0.0
 73
     3
  0
LINE
  5
38
  8
HIBINO-BASE
  6
CONTINUOUS
 62
     7
 10
1500.0
 20
300.00000000000028
 30
0.0
 11
2850.0
 21
300.00000000000028
 31
0.0
  0
TEXT
  5
39
  8
HIBINO-BASE
 62
     7
 10
2223.8105737370188
 20
263.56335453377551
 30
0.0
 40
24.4326171875
  1
DRAWN
 41
0.7
 11
2223.8105737370188
 21
287.99597172127551
 31
0.0
 73
     3
  0
TEXT
  5
3A
  8
HIBINO-BASE
 62
     7
 10
1848.973091990209
 20
263.02985948583893
 30
0.0
 40
24.4326171875
  1
DATE
 41
0.7
 11
1848.973091990209
 21
287.46247667333881
 31
0.0
 73
     3
  0
TEXT
  5
3B
  8
HIBINO-BASE
 62
     7
 10
1699.6506149426341
 20
263.3811868219388
 30
0.0
 40
24.4326171875
  1
SCALE
 41
0.7
 11
1699.6506149426341
 21
287.8138040094388
 31
0.0
 73
     3
  0
TEXT
  5
3C
  8
HIBINO-BASE
 62
     7
 10
2041.379521263596
 20
263.12264653760212
 30
0.0
 40
24.4326171875
  1
DESIGN
 41
0.7
 11
2041.379521263596
 21
287.55526372510212
 31
0.0
 73
     3
  0
TEXT
  5
3D
  8
HIBINO-BASE
 62
     7
 10
2595.1911934298441
 20
263.85754493266148
 30
0.0
 40
24.4326171875
  1
DRAWING NO.
 41
0.7
 11
2595.1911934298441
 21
288.29016212016148
 31
0.0
 73
     3
  0
TEXT
  5
3E
  8
HIBINO-BASE
 62
     7
 10
2413.5538318165868
 20
263.18461640514079
 30
0.0
 40
24.4326171875
  1
CHECK
 41
0.7
 11
2413.5538318165868
 21
287.61723359264079
 31
0.0
 73
     3
  0
LINE
  5
3F
  8
HIBINO-BASE
  6
CONTINUOUS
 62
     7
 10
1715.625
 20
168.75
 30
0.0
 11
1771.8749999999991
 21
225.00000000000031
 31
0.0
  0
LINE
  5
40
  8
HIBINO-BASE
  6
CONTINUOUS
 62
     7
 10
1687.5
 20
150.0
 30
0.0
 11
1687.5
 21
300.00000000000028
 31
0.0
  0
LINE
  5
41
  8
HIBINO-BASE
  6
CONTINUOUS
 62
     7
 10
1837.5
 20
150.0
 30
0.0
 11
1837.5
 21
300.00000000000028
 31
0.0
  0
LINE
  5
42
  8
HIBINO-BASE
  6
CONTINUOUS
 62
     7
 10
2212.5
 20
300.00000000000028
 30
0.0
 11
2212.5
 21
150.0
 31
0.0
  0
LINE
  5
43
  8
HIBINO-BASE
  6
CONTINUOUS
 62
     7
 10
2587.5
 20
300.00000000000028
 30
0.0
 11
2587.5
 21
150.0
 31
0.0
  0
LINE
  5
44
  8
HIBINO-BASE
  6
CONTINUOUS
 62
     7
 10
2400.0
 20
150.0
 30
0.0
 11
2400.0
 21
300.00000000000028
 31
0.0
  0
TEXT
  5
45
  8
HIBINO-BASE
 62
     7
 10
1853.414718145224
 20
189.2610209541499
 30
0.0
 40
24.4326171875
  1
'09.03.
 41
0.7
 11
1853.414718145224
 21
213.6936381416499
 31
0.0
 73
     3
  0
TEXT
  5
46
  8
HIBINO-BASE
 62
     7
 10
2236.7700256048402
 20
189.9582789002591
 30
0.0
 40
24.4326171875
  1
N.Sasaki
 41
0.7
 11
2236.7700256048402
 21
214.3908960877591
 31
0.0
 73
     3
  0
TEXT
  5
47
  8
HIBINO-BASE
 62
     7
 10
1559.9416746797731
 20
176.18666025618199
 30
0.0
 40
48.865234375000007
  1
A4
 41
0.7
 11
1559.9416746797731
 21
225.05189463118199
 31
0.0
 73
     3
  0
TEXT
  5
48
  8
HIBINO-BASE
 62
     7
 10
1512.374309437552
 20
263.58200297177632
 30
0.0
 40
24.4326171875
  1
PAPER SIZE
 41
0.7
 11
1512.374309437552
 21
288.01462015927632
 31
0.0
 73
     3
  0
TEXT
  5
49
  8
HIBINO-BASE
 62
     7
 10
1753.0
 20
168.69499999999991
 30
0.0
 40
24.4326171875
  1
15
 41
0.7
 11
1753.0
 21
193.12761718749999
 31
0.0
 73
     3
  0
TEXT
  5
4A
  8
HIBINO-BASE
 62
     7
 10
1713.1329988778971
 20
204.96478451951589
 30
0.0
 40
24.4326171875
  1
1
 41
0.7
 11
1713.1329988778971
 21
229.39740170701589
 31
0.0
 73
     3
  0
TEXT
  5
4B
  8
SPEC
 62
     7
 10
272.375
 20
3916.6962613092351
 30
0.0
 40
36.64892578125
  1
仕様
 41
0.7
 11
272.375
 21
3953.3451870904851
 31
0.0
 73
     3
  0
LINE
  5
4C
  8
SPEC
  6
CONTINUOUS
 62
     7
 10
262.47250882577708
 20
3900.0000000020809
 30
0.0
 11
2474.972508825786
 21
3900.0000000020809
 31
0.0
  0
LINE
  5
4D
  8
SPEC
  6
CONTINUOUS
 62
     7
 10
262.47250882577708
 20
3618.7500000020809
 30
0.0
 11
2474.972508825786
 21
3618.7500000020809
 31
0.0
  0
LINE
  5
4E
  8
SPEC
  6
CONTINUOUS
 62
     7
 10
262.47250882577708
 20
3675.0000000020809
 30
0.0
 11
2474.972508825786
 21
3675.0000000020809
 31
0.0
  0
LINE
  5
4F
  8
SPEC
  6
CONTINUOUS
 62
     7
 10
262.47250882577708
 20
3731.2500000020809
 30
0.0
 11
2474.972508825786
 21
3731.2500000020809
 31
0.0
  0
LINE
  5
50
  8
SPEC
  6
CONTINUOUS
 62
     7
 10
262.47250882577708
 20
3562.5000000020809
 30
0.0
 11
2474.972508825786
 21
3562.5000000020809
 31
0.0
  0
LINE
  5
51
  8
SPEC
  6
CONTINUOUS
 62
     7
 10
262.47250882577708
 20
3450.0000000020809
 30
0.0
 11
2474.972508825786
 21
3450.0000000020809
 31
0.0
  0
LINE
  5
52
  8
SPEC
  6
CONTINUOUS
 62
     7
 10
262.47250882577708
 20
3506.2500000020809
 30
0.0
 11
2474.972508825786
 21
3506.2500000020809
 31
0.0
  0
LINE
  5
53
  8
SPEC
  6
CONTINUOUS
 62
     7
 10
262.47250882577708
 20
3393.7500000020809
 30
0.0
 11
2474.972508825786
 21
3393.7500000020809
 31
0.0
  0
LINE
  5
54
  8
SPEC
  6
CONTINUOUS
 62
     7
 10
262.47250882577708
 20
3787.5000000020809
 30
0.0
 11
2474.972508825786
 21
3787.5000000020809
 31
0.0
  0
LINE
  5
55
  8
SPEC
  6
CONTINUOUS
 62
     7
 10
262.47250882577708
 20
3843.7500000020809
 30
0.0
 11
2474.972508825786
 21
3843.7500000020809
 31
0.0
  0
LINE
  5
56
  8
SPEC
  6
CONTINUOUS
 62
     7
 10
262.47250882577708
 20
3225.0000000020809
 30
0.0
 11
2474.972508825786
 21
3225.0000000020809
 31
0.0
  0
LINE
  5
57
  8
SPEC
  6
CONTINUOUS
 62
     7
 10
262.47250882577708
 20
3168.7500000020818
 30
0.0
 11
2474.972508825786
 21
3168.7500000020818
 31
0.0
  0
LINE
  5
58
  8
SPEC
  6
CONTINUOUS
 62
     7
 10
262.47250882577708
 20
3112.5000000020818
 30
0.0
 11
2474.972508825786
 21
3112.5000000020818
 31
0.0
  0
LINE
  5
59
  8
SPEC
  6
CONTINUOUS
 62
     7
 10
262.47250882577708
 20
3056.2500000020818
 30
0.0
 11
2474.972508825786
 21
3056.2500000020818
 31
0.0
  0
LINE
  5
5A
  8
SPEC
  6
CONTINUOUS
 62
     7
 10
262.47250882577708
 20
3900.0000000020809
 30
0.0
 11
262.47250882577708
 21
3000.0000000020818
 31
0.0
  0
LINE
  5
5B
  8
SPEC
  6
CONTINUOUS
 62
     7
 10
2474.972508825786
 20
3000.0000000020818
 30
0.0
 11
2474.972508825786
 21
3900.0000000020809
 31
0.0
  0
LINE
  5
5C
  8
SPEC
  6
CONTINUOUS
 62
     7
 10
749.97250882578567
 20
3900.0000000020809
 30
0.0
 11
749.97250882578567
 21
3000.0000000020818
 31
0.0
  0
LINE
  5
5D
  8
SPEC
  6
CONTINUOUS
 62
     7
 10
262.47250882577708
 20
3281.2500000020809
 30
0.0
 11
2474.972508825786
 21
3281.2500000020809
 31
0.0
  0
LINE
  5
5E
  8
SPEC
  6
CONTINUOUS
 62
     7
 10
262.47250882577708
 20
3337.5000000020809
 30
0.0
 11
2474.972508825786
 21
3337.5000000020809
 31
0.0
  0
TEXT
  5
5F
  8
SPEC
 62
     7
 10
275.97250882577708
 20
3855.5688333354128
 30
0.0
 40
28.504720052083329
  1
形式
 41
0.7
 11
275.97250882577708
 21
3884.0735533874972
 31
0.0
 73
     3
  0
TEXT
  5
60
  8
SPEC
 62
     7
 10
275.97250882577708
 20
3799.3188333354128
 30
0.0
 40
28.504720052083329
  1
周波数レンジ(-10dB)
 41
0.7
 11
275.97250882577708
 21
3827.8235533874972
 31
0.0
 73
     3
  0
TEXT
  5
61
  8
SPEC
 62
     7
 10
275.97250882577708
 20
3743.0688333354142
 30
0.0
 40
28.504720052083329
  1
公称カバレージ(-6dB)
 41
0.7
 11
275.97250882577708
 21
3771.5735533874972
 31
0.0
 73
     3
  0
TEXT
  5
62
  8
SPEC
 62
     7
 10
275.97250882577708
 20
3630.5688333354128
 30
0.0
 40
28.504720052083329
  1
高域ユニット
 41
0.7
 11
275.97250882577708
 21
3659.0735533874972
 31
0.0
 73
     3
  0
TEXT
  5
63
  8
SPEC
 62
     7
 10
275.97250882577708
 20
3574.3188333354128
 30
0.0
 40
28.504720052083329
  1
音圧レベル(1W/1m)
 41
0.7
 11
275.97250882577708
 21
3602.8235533874972
 31
0.0
 73
     3
  0
TEXT
  5
64
  8
SPEC
 62
     7
 10
275.97250882577708
 20
3686.8188333354142
 30
0.0
 40
28.504720052083329
  1
低域ユニット
 41
0.7
 11
275.97250882577708
 21
3715.3235533874972
 31
0.0
 73
     3
  0
TEXT
  5
65
  8
SPEC
 62
     7
 10
763.47250882577714
 20
3855.5688333354128
 30
0.0
 40
28.504720052083329
  1
2ウェイ・サラウンド・システム(Compact Cinema Surround Speaker)
 41
0.7
 11
763.47250882577714
 21
3884.0735533874972
 31
0.0
 73
     3
  0
TEXT
  5
66
  8
SPEC
 62
     7
 10
763.47250882577714
 20
3630.5688333354128
 30
0.0
 40
28.504720052083329
  1
25mm
 41
0.7
 11
763.47250882577714
 21
3659.0735533874972
 31
0.0
 73
     3
  0
TEXT
  5
67
  8
SPEC
 62
     7
 10
763.47250882577714
 20
3686.8188333354142
 30
0.0
 40
28.504720052083329
  1
200mm
 41
0.7
 11
763.47250882577714
 21
3715.3235533874972
 31
0.0
 73
     3
  0
TEXT
  5
68
  8
SPEC
 62
     7
 10
763.47250882577714
 20
3743.0688333354142
 30
0.0
 40
28.504720052083329
  1
100゜\U+00D790゜(400Hz～12kHz)
 41
0.7
 11
763.47250882577714
 21
3771.5735533874972
 31
0.0
 73
     3
  0
TEXT
  5
69
  8
SPEC
 62
     7
 10
763.47250882577714
 20
3574.3188333354128
 30
0.0
 40
28.504720052083329
  1
94dB SPL(半空間における数値/壁取付け)
 41
0.7
 11
763.47250882577714
 21
3602.8235533874972
 31
0.0
 73
     3
  0
TEXT
  5
6A
  8
SPEC
 62
     7
 10
763.47250882577714
 20
3799.3188333354128
 30
0.0
 40
28.504720052083329
  1
50Hz～20kHz
 41
0.7
 11
763.47250882577714
 21
3827.8235533874972
 31
0.0
 73
     3
  0
TEXT
  5
6B
  8
SPEC
 62
     7
 10
763.47250882577714
 20
3124.3188333354142
 30
0.0
 40
28.504720052083329
  1
バインディング・ポスト(ダブルバナナプラグ対応), 圧着端子(スタ ッド径8)
 41
0.7
 11
763.47250882577714
 21
3152.8235533874972
 31
0.0
 73
     3
  0
TEXT
  5
6C
  8
SPEC
 62
     7
 10
763.47250882577714
 20
3180.5688333354142
 30
0.0
 40
28.504720052083329
  1
SPユニットは前面側で交換（グリルは裏側よりネジ13ヶ所取付け）
 41
0.7
 11
763.47250882577714
 21
3209.0735533874972
 31
0.0
 73
     3
  0
TEXT
  5
6D
  8
SPEC
 62
     7
 10
275.97250882577708
 20
3180.5688333354142
 30
0.0
 40
28.504720052083329
  1
メンテナンス
 41
0.7
 11
275.97250882577708
 21
3209.0735533874972
 31
0.0
 73
     3
  0
TEXT
  5
6E
  8
SPEC
 62
     7
 10
275.97250882577708
 20
3124.3188333354142
 30
0.0
 40
28.504720052083329
  1
コネクター
 41
0.7
 11
275.97250882577708
 21
3152.8235533874972
 31
0.0
 73
     3
  0
TEXT
  5
6F
  8
SPEC
 62
     7
 10
275.97250882577708
 20
3068.0688333354142
 30
0.0
 40
28.504720052083329
  1
寸法
 41
0.7
 11
275.97250882577708
 21
3096.5735533874981
 31
0.0
 73
     3
  0
TEXT
  5
70
  8
SPEC
 62
     7
 10
275.97250882577708
 20
3011.8188333354142
 30
0.0
 40
28.504720052083329
  1
重量
 41
0.7
 11
275.97250882577708
 21
3040.3235533874981
 31
0.0
 73
     3
  0
TEXT
  5
71
  8
SPEC
 62
     7
 10
275.97250882577708
 20
3518.0688333354128
 30
0.0
 40
28.504720052083329
  1
公称インピーダンス
 41
0.7
 11
275.97250882577708
 21
3546.5735533874972
 31
0.0
 73
     3
  0
TEXT
  5
72
  8
SPEC
 62
     7
 10
275.97250882577708
 20
3461.8188333354142
 30
0.0
 40
28.504720052083329
  1
許容入力
 41
0.7
 11
275.97250882577708
 21
3490.3235533874972
 31
0.0
 73
     3
  0
TEXT
  5
73
  8
SPEC
 62
     7
 10
275.97250882577708
 20
3405.5688333354142
 30
0.0
 40
28.504720052083329
  1
クロスオーバー
 41
0.7
 11
275.97250882577708
 21
3434.0735533874972
 31
0.0
 73
     3
  0
TEXT
  5
74
  8
SPEC
 62
     7
 10
275.97250882577708
 20
3236.8188333354128
 30
0.0
 40
28.504720052083329
  1
極性
 41
0.7
 11
275.97250882577708
 21
3265.3235533874972
 31
0.0
 73
     3
  0
TEXT
  5
75
  8
SPEC
 62
     7
 10
275.97250882577708
 20
3349.3188333354128
 30
0.0
 40
28.504720052083329
  1
高域特性
 41
0.7
 11
275.97250882577708
 21
3377.8235533874972
 31
0.0
 73
     3
  0
TEXT
  5
76
  8
SPEC
 62
     7
 10
275.97250882577708
 20
3293.0688333354128
 30
0.0
 40
28.504720052083329
  1
外装色
 41
0.7
 11
275.97250882577708
 21
3321.5735533874972
 31
0.0
 73
     3
  0
TEXT
  5
77
  8
SPEC
 62
     7
 10
763.47250882577714
 20
3349.3188333354128
 30
0.0
 40
28.504720052083329
  1
ISO2969 Cureve X surround contour
 41
0.7
 11
763.47250882577714
 21
3377.8235533874972
 31
0.0
 73
     3
  0
TEXT
  5
78
  8
SPEC
 62
     7
 10
763.47250882577714
 20
3461.8188333354142
 30
0.0
 40
28.504720052083329
  1
150W(Pink noise),600W(Peak)
 41
0.7
 11
763.47250882577714
 21
3490.3235533874972
 31
0.0
 73
     3
  0
TEXT
  5
79
  8
SPEC
 62
     7
 10
763.47250882577714
 20
3405.5688333354142
 30
0.0
 40
28.504720052083329
  1
(ネットワーク):3kHz
 41
0.7
 11
763.47250882577714
 21
3434.0735533874972
 31
0.0
 73
     3
  0
TEXT
  5
7A
  8
SPEC
 62
     7
 10
763.47250882577714
 20
3236.8188333354128
 30
0.0
 40
28.504720052083329
  1
正相(低域),逆相(高域)
 41
0.7
 11
763.47250882577714
 21
3265.3235533874972
 31
0.0
 73
     3
  0
TEXT
  5
7B
  8
SPEC
 62
     7
 10
763.47250882577714
 20
3518.0688333354128
 30
0.0
 40
28.504720052083329
  1
8\U+03A9
 41
0.7
 11
763.47250882577714
 21
3546.5735533874972
 31
0.0
 73
     3
  0
TEXT
  5
7C
  8
SPEC
 62
     7
 10
763.47250882577714
 20
3293.0688333354128
 30
0.0
 40
28.504720052083329
  1
黒
 41
0.7
 11
763.47250882577714
 21
3321.5735533874972
 31
0.0
 73
     3
  0
TEXT
  5
7D
  8
SPEC
 62
     7
 10
763.47250882577714
 20
3011.8188333354142
 30
0.0
 40
28.504720052083329
  1
約5.0kg
 41
0.7
 11
763.47250882577714
 21
3040.3235533874981
 31
0.0
 73
     3
  0
TEXT
  5
7E
  8
SPEC
 62
     7
 10
763.47250882577714
 20
3068.0688333354142
 30
0.0
 40
28.504720052083329
  1
343(W)\U+00D7401(H)\U+00D7240(D)mm(突起は含まず) 
 41
0.7
 11
763.47250882577714
 21
3096.5735533874981
 31
0.0
 73
     3
  0
LINE
  5
7F
  8
SPEC
  6
CONTINUOUS
 62
     7
 10
262.47250882577708
 20
3000.0000000020818
 30
0.0
 11
2474.972508825786
 21
3000.0000000020818
 31
0.0
  0
TEXT
  5
80
  8
DIMNSIONS
 62
     7
 10
1211.8918659172459
 20
328.83124330744522
 30
0.0
 40
36.64892578125
  1
(単位：mm)
 41
0.7
 11
1211.8918659172459
 21
365.48016908869522
 31
0.0
 73
     3
  0
LINE
  5
81
  8
DIMNSIONS
  6
CONTINUOUS
 62
     7
 10
1664.9092404097401
 20
1480.071250309755
 30
0.0
 11
1664.9092404097401
 21
1604.9999999998281
 31
0.0
  0
LINE
  5
82
  8
DIMNSIONS
  6
CONTINUOUS
 62
     7
 10
1734.9092404097401
 20
1480.071250309755
 30
0.0
 11
1734.9092404097401
 21
1604.9999999998281
 31
0.0
  0
LINE
  5
83
  8
DIMNSIONS
  6
CONTINUOUS
 62
     7
 10
1734.9092404097401
 20
1574.9999999998281
 30
0.0
 11
1664.9092404097401
 21
1574.9999999998281
 31
0.0
  0
LINE
  5
84
  8
DIMNSIONS
  6
CONTINUOUS
 62
     7
 10
1664.9092404097401
 20
1574.9999999998281
 30
0.0
 11
1589.9092404097401
 21
1574.9999999998281
 31
0.0
  0
LINE
  5
85
  8
DIMNSIONS
  6
CONTINUOUS
 62
     7
 10
1664.9092404097401
 20
1574.9999999998281
 30
0.0
 11
1627.399902030834
 21
1564.9494030725739
 31
0.0
  0
LINE
  5
86
  8
DIMNSIONS
  6
CONTINUOUS
 62
     7
 10
1664.9092404097401
 20
1574.9999999998281
 30
0.0
 11
1627.399902030834
 21
1585.0505969270821
 31
0.0
  0
LINE
  5
87
  8
DIMNSIONS
  6
CONTINUOUS
 62
     7
 10
1734.9092404097401
 20
1574.9999999998281
 30
0.0
 11
1809.9092404097401
 21
1574.9999999998281
 31
0.0
  0
LINE
  5
88
  8
DIMNSIONS
  6
CONTINUOUS
 62
     7
 10
1734.9092404097401
 20
1574.9999999998281
 30
0.0
 11
1772.418578788647
 21
1585.0505969270821
 31
0.0
  0
LINE
  5
89
  8
DIMNSIONS
  6
CONTINUOUS
 62
     7
 10
1734.9092404097401
 20
1574.9999999998281
 30
0.0
 11
1772.418578788647
 21
1564.9494030725739
 31
0.0
  0
TEXT
  5
8A
  8
DIMNSIONS
 62
     7
 10
1673.450907076407
 20
1589.908333333161
 30
0.0
 40
40.721028645833343
  1
70
 41
0.7
 11
1673.450907076407
 21
1630.6293619789949
 31
0.0
 73
     3
  0
LINE
  5
8B
  8
DIMNSIONS
  6
CONTINUOUS
 62
     7
 10
528.4999999999992
 20
1100.0
 30
0.0
 11
528.4999999999992
 21
970.00000000000023
 31
0.0
  0
LINE
  5
8C
  8
DIMNSIONS
  6
CONTINUOUS
 62
     7
 10
871.4999999999992
 20
1100.0
 30
0.0
 11
871.4999999999992
 21
970.00000000000023
 31
0.0
  0
LINE
  5
8D
  8
DIMNSIONS
  6
CONTINUOUS
 62
     7
 10
528.4999999999992
 20
1000.0
 30
0.0
 11
871.4999999999992
 21
1000.0
 31
0.0
  0
LINE
  5
8E
  8
DIMNSIONS
  6
CONTINUOUS
 62
     7
 10
528.4999999999992
 20
1000.0
 30
0.0
 11
566.00933837890523
 21
1010.050596927254
 31
0.0
  0
LINE
  5
8F
  8
DIMNSIONS
  6
CONTINUOUS
 62
     7
 10
528.4999999999992
 20
1000.0
 30
0.0
 11
566.00933837890523
 21
989.94940307274692
 31
0.0
  0
LINE
  5
90
  8
DIMNSIONS
  6
CONTINUOUS
 62
     7
 10
871.4999999999992
 20
1000.0
 30
0.0
 11
833.99066162109261
 21
989.94940307274669
 31
0.0
  0
LINE
  5
91
  8
DIMNSIONS
  6
CONTINUOUS
 62
     7
 10
871.4999999999992
 20
1000.0
 30
0.0
 11
833.99066162109261
 21
1010.050596927254
 31
0.0
  0
TEXT
  5
92
  8
DIMNSIONS
 62
     7
 10
660.3124999999992
 20
1014.908333333334
 30
0.0
 40
40.721028645833343
  1
343
 41
0.7
 11
660.3124999999992
 21
1055.629361979167
 31
0.0
 73
     3
  0
LINE
  5
93
  8
DIMNSIONS
  6
CONTINUOUS
 62
     7
 10
522.50000000015041
 20
1800.000000000005
 30
0.0
 11
370.0
 21
1800.000000000005
 31
0.0
  0
LINE
  5
94
  8
DIMNSIONS
  6
CONTINUOUS
 62
     7
 10
544.65693316058469
 20
2040.0382560861981
 30
0.0
 11
370.0
 21
2040.0382560861981
 31
0.0
  0
LINE
  5
95
  8
DIMNSIONS
  6
CONTINUOUS
 62
     7
 10
400.0
 20
1800.000000000005
 30
0.0
 11
400.0
 21
2040.0382560861981
 31
0.0
  0
LINE
  5
96
  8
DIMNSIONS
  6
CONTINUOUS
 62
     7
 10
400.0
 20
1800.000000000005
 30
0.0
 11
389.94940307274629
 21
1837.5093383789119
 31
0.0
  0
LINE
  5
97
  8
DIMNSIONS
  6
CONTINUOUS
 62
     7
 10
400.0
 20
1800.000000000005
 30
0.0
 11
410.05059692725359
 21
1837.5093383789119
 31
0.0
  0
LINE
  5
98
  8
DIMNSIONS
  6
CONTINUOUS
 62
     7
 10
400.0
 20
2040.0382560861981
 30
0.0
 11
410.05059692725359
 21
2002.5289177072921
 31
0.0
  0
LINE
  5
99
  8
DIMNSIONS
  6
CONTINUOUS
 62
     7
 10
400.0
 20
2040.0382560861981
 30
0.0
 11
389.94940307274629
 21
2002.5289177072921
 31
0.0
  0
TEXT
  5
9A
  8
DIMNSIONS
 62
     7
 10
385.09166666666681
 20
1880.3316280431011
 30
0.0
 40
40.721028645833343
  1
240
 50
90.0
 41
0.7
 11
344.37063802083338
 21
1880.3316280431011
 31
0.0
 73
     3
  0
LINE
  5
9B
  8
DIMNSIONS
  6
CONTINUOUS
 62
     7
 10
528.5000000000008
 20
1100.0
 30
0.0
 11
370.0
 21
1100.0
 31
0.0
  0
LINE
  5
9C
  8
DIMNSIONS
  6
CONTINUOUS
 62
     7
 10
528.5000000000008
 20
1500.6539514672811
 30
0.0
 11
370.0
 21
1500.6539514672811
 31
0.0
  0
LINE
  5
9D
  8
DIMNSIONS
  6
CONTINUOUS
 62
     7
 10
400.0
 20
1100.0
 30
0.0
 11
400.0
 21
1500.6539514672811
 31
0.0
  0
LINE
  5
9E
  8
DIMNSIONS
  6
CONTINUOUS
 62
     7
 10
400.0
 20
1100.0
 30
0.0
 11
389.94940307274629
 21
1137.509338378906
 31
0.0
  0
LINE
  5
9F
  8
DIMNSIONS
  6
CONTINUOUS
 62
     7
 10
400.0
 20
1100.0
 30
0.0
 11
410.05059692725359
 21
1137.509338378906
 31
0.0
  0
LINE
  5
A0
  8
DIMNSIONS
  6
CONTINUOUS
 62
     7
 10
400.0
 20
1500.6539514672811
 30
0.0
 11
410.05059692725359
 21
1463.1446130883739
 31
0.0
  0
LINE
  5
A1
  8
DIMNSIONS
  6
CONTINUOUS
 62
     7
 10
400.0
 20
1500.6539514672811
 30
0.0
 11
389.94940307274629
 21
1463.1446130883739
 31
0.0
  0
TEXT
  5
A2
  8
DIMNSIONS
 62
     7
 10
385.09166666666681
 20
1260.63947573364
 30
0.0
 40
40.721028645833343
  1
401
 50
90.0
 41
0.7
 11
344.37063802083338
 21
1260.63947573364
 31
0.0
 73
     3
  0
LINE
  5
A3
  8
DIMNSIONS
  6
CONTINUOUS
 62
     7
 10
1037.717215097015
 20
1428.956432152537
 30
0.0
 11
1037.717215097015
 21
970.0
 31
0.0
  0
LINE
  5
A4
  8
DIMNSIONS
  6
CONTINUOUS
 62
     7
 10
1277.755471183214
 20
1153.4007172073091
 30
0.0
 11
1277.755471183214
 21
970.0
 31
0.0
  0
LINE
  5
A5
  8
DIMNSIONS
  6
CONTINUOUS
 62
     7
 10
1037.717215097015
 20
1000.0
 30
0.0
 11
1277.755471183214
 21
1000.0
 31
0.0
  0
LINE
  5
A6
  8
DIMNSIONS
  6
CONTINUOUS
 62
     7
 10
1037.717215097015
 20
1000.0
 30
0.0
 11
1075.226553475921
 21
1010.050596927253
 31
0.0
  0
LINE
  5
A7
  8
DIMNSIONS
  6
CONTINUOUS
 62
     7
 10
1037.717215097015
 20
1000.0
 30
0.0
 11
1075.226553475921
 21
989.94940307274646
 31
0.0
  0
LINE
  5
A8
  8
DIMNSIONS
  6
CONTINUOUS
 62
     7
 10
1277.755471183214
 20
1000.0
 30
0.0
 11
1240.2461328043071
 21
989.94940307274624
 31
0.0
  0
LINE
  5
A9
  8
DIMNSIONS
  6
CONTINUOUS
 62
     7
 10
1277.755471183214
 20
1000.0
 30
0.0
 11
1240.2461328043071
 21
1010.050596927253
 31
0.0
  0
TEXT
  5
AA
  8
DIMNSIONS
 62
     7
 10
1118.0488431401141
 20
1014.908333333333
 30
0.0
 40
40.721028645833343
  1
240
 41
0.7
 11
1118.0488431401141
 21
1055.629361979167
 31
0.0
 73
     3
  0
LINE
  5
AB
  8
DIMNSIONS
  6
CONTINUOUS
 62
     7
 10
1037.717215097015
 20
1411.1142163431909
 30
0.0
 11
1037.717215097015
 21
1144.730289749202
 31
0.0
  0
ARC
  5
AC
  8
DIMNSIONS
  6
CONTINUOUS
 62
     7
 10
1037.717215097015
 20
1454.5482576348279
 30
0.0
 40
279.81796788562639
 50
270.0
 51
290.00000000000011
  0
LINE
  5
AD
  8
DIMNSIONS
  6
CONTINUOUS
 62
     7
 10
1133.420596578354
 20
1191.6053780493969
 30
0.0
 11
1101.6108546947021
 21
1169.331956993959
 31
0.0
  0
LINE
  5
AE
  8
DIMNSIONS
  6
CONTINUOUS
 62
     7
 10
1133.420596578354
 20
1191.6053780493969
 30
0.0
 11
1094.7358414915659
 21
1188.220900528026
 31
0.0
  0
LINE
  5
AF
  8
DIMNSIONS
  6
CONTINUOUS
 62
     7
 10
1037.7172150970141
 20
1174.730289749202
 30
0.0
 11
1075.396247724517
 21
1184.1247277032801
 31
0.0
  0
LINE
  5
B0
  8
DIMNSIONS
  6
CONTINUOUS
 62
     7
 10
1037.7172150970141
 20
1174.730289749202
 30
0.0
 11
1075.0454335194929
 21
1164.026595357959
 31
0.0
  0
TEXT
  5
B1
  8
DIMNSIONS
 62
     7
 10
1049.8505030718709
 20
1105.4018538904991
 30
0.0
 40
40.721028645833343
  1
20\U+00B0
 50
10.70234932852096
 41
0.7
 11
1042.2883268406169
 21
1145.414547684122
 31
0.0
 73
     3
  0
LINE
  5
B2
  8
DIMNSIONS
  6
CONTINUOUS
 62
     7
 10
1259.089490171174
 20
1460.331854609525
 30
0.0
 11
1392.317095918675
 21
1508.8227374841681
 31
0.0
  0
LINE
  5
B3
  8
DIMNSIONS
  6
CONTINUOUS
 62
     7
 10
1302.5260483735351
 20
1340.9908917697139
 30
0.0
 11
1435.753654121035
 21
1389.4817746443571
 31
0.0
  0
LINE
  5
B4
  8
DIMNSIONS
  6
CONTINUOUS
 62
     7
 10
1364.126317295098
 20
1498.5621331843979
 30
0.0
 11
1407.562875497458
 21
1379.221170344588
 31
0.0
  0
LINE
  5
B5
  8
DIMNSIONS
  6
CONTINUOUS
 62
     7
 10
1364.126317295098
 20
1498.5621331843979
 30
0.0
 11
1386.3997383505359
 21
1466.752391300746
 31
0.0
  0
LINE
  5
B6
  8
DIMNSIONS
  6
CONTINUOUS
 62
     7
 10
1364.126317295098
 20
1498.5621331843979
 30
0.0
 11
1367.5107948164689
 21
1459.8773780976101
 31
0.0
  0
LINE
  5
B7
  8
DIMNSIONS
  6
CONTINUOUS
 62
     7
 10
1407.562875497458
 20
1379.221170344588
 30
0.0
 11
1385.289454442019
 21
1411.030912228239
 31
0.0
  0
LINE
  5
B8
  8
DIMNSIONS
  6
CONTINUOUS
 62
     7
 10
1407.562875497458
 20
1379.221170344588
 30
0.0
 11
1404.1783979760869
 21
1417.905925431375
 31
0.0
  0
TEXT
  5
B9
  8
DIMNSIONS
 62
     7
 10
1386.2799227795899
 20
1481.2846529553469
 30
0.0
 40
40.721028645833343
  1
127
 50
290.00000000000011
 41
0.7
 11
1424.5451729088909
 21
1495.2120650091631
 31
0.0
 73
     3
  0
TEXT
  5
BA
  8
DIMNSIONS
 62
     7
 10
1375.0
 20
1732.6297116600531
 30
0.0
 40
31.412506103515629
  1
4ヶ所-1/4インチネジ
 41
0.7
 11
1375.0
 21
1764.0422177635689
 31
0.0
 73
     3
  0
TEXT
  5
BB
  8
DIMNSIONS
 62
     7
 10
1375.0
 20
1682.1072483423641
 30
0.0
 40
31.412506103515629
  1
（長さ20mm）
 41
0.7
 11
1375.0
 21
1713.5197544458799
 31
0.0
 73
     3
  0
LINE
  5
BC
  8
DIMNSIONS
  6
CONTINUOUS
 62
     7
 10
1232.039715131632
 20
1455.023687319482
 30
0.0
 11
1300.0
 21
1749.999999999829
 31
0.0
  0
LINE
  5
BD
  8
DIMNSIONS
  6
CONTINUOUS
 62
     7
 10
1232.039715131632
 20
1455.023687319482
 30
0.0
 11
1230.318994466317
 21
1504.2986801205759
 31
0.0
  0
LINE
  5
BE
  8
DIMNSIONS
  6
CONTINUOUS
 62
     7
 10
1232.039715131632
 20
1455.023687319482
 30
0.0
 11
1255.1870237231999
 21
1498.5574431891821
 31
0.0
  0
LINE
  5
BF
  8
DIMNSIONS
  6
CONTINUOUS
 62
     7
 10
1300.0
 20
1749.999999999829
 30
0.0
 11
1350.0
 21
1749.999999999829
 31
0.0
  0
TEXT
  5
C0
  8
DATA
 62
     7
 10
287.38113357727252
 20
214.38294687050421
 30
0.0
 40
24.4326171875
  1
仕様および外観は予告なく変更されることがありますので、ご了承ください。
 41
0.7
 11
287.38113357727252
 21
238.81556405800421
 31
0.0
 73
     3
  0
ARC
  5
C1
  8
DATA
  6
CONTINUOUS
 62
     7
 10
1690.761984193952
 20
1482.7334982977541
 30
0.0
 40
3.7660158060490372
 50
266.43789216460192
 51
93.562107835398237
  0
ARC
  5
C2
  8
DATA
  6
CONTINUOUS
 62
     7
 10
1690.6383178429589
 20
1482.7369571915519
 30
0.0
 40
1.7896854995166589
 50
268.26011415097412
 51
95.331600624818137
  0
ARC
  5
C3
  8
DATA
  6
CONTINUOUS
 62
     7
 10
1690.91407395075
 20
1482.7334982977541
 30
0.0
 40
6.2139260492500741
 50
266.43789671640968
 51
93.562103283590332
  0
TEXT
  5
C4
  8
DATA
 62
     7
 10
2267.0523607047289
 20
431.304506640809
 30
0.0
 40
36.64892578125
  1
JBL
 41
0.7
 11
2267.0523607047289
 21
467.953432422059
 31
0.0
 73
     3
  0
TEXT
  5
C5
  8
DATA
 62
     7
 10
2244.7313005954711
 20
1766.3330078125041
 30
0.0
 40
30.99918365478516
  1
コネクターパネル拡大図
 41
0.7
 11
2244.7313005954711
 21
1797.332191467289
 31
0.0
 73
     3
  0
LINE
  5
C6
  8
DATA
  6
CONTINUOUS
 62
     7
 10
2187.5000000003288
 20
1750.000000000005
 30
0.0
 11
2712.5000000003238
 21
1750.000000000005
 31
0.0
  0
ARC
  5
C7
  8
DATA
  6
CONTINUOUS
 62
     7
 10
2356.0200000003292
 20
1600.0000000000059
 30
0.0
 40
18.999999999999691
 50
52.136353638269128
 51
127.8636463617308
  0
ARC
  5
C8
  8
DATA
  6
CONTINUOUS
 62
     7
 10
2356.0200000003292
 20
1600.0000000000059
 30
0.0
 40
18.999999999999488
 50
232.1363536382722
 51
307.86364636172789
  0
ARC
  5
C9
  8
DATA
  6
CONTINUOUS
 62
     7
 10
2356.0200000003292
 20
1600.0000000000059
 30
0.0
 40
39.999999999999922
 50
22.024312837042039
 51
157.97568716295831
  0
ARC
  5
CA
  8
DATA
  6
CONTINUOUS
 62
     7
 10
2356.0200000003292
 20
1600.0000000000059
 30
0.0
 40
40.000000000000519
 50
202.024312837042
 51
337.97568716295768
  0
LINE
  5
CB
  8
DATA
  6
CONTINUOUS
 62
     7
 10
2356.020000000336
 20
1534.0000000000059
 30
0.0
 11
2413.1776766501071
 21
1567.0000000000059
 31
0.0
  0
LINE
  5
CC
  8
DATA
  6
CONTINUOUS
 62
     7
 10
2298.86232335056
 20
1633.0000000000121
 30
0.0
 11
2356.0200000003319
 21
1666.00000000001
 31
0.0
  0
LINE
  5
CD
  8
DATA
  6
CONTINUOUS
 62
     7
 10
2359.240000000324
 20
1524.0000000000059
 30
0.0
 11
2542.2400000003199
 21
1524.0000000000059
 31
0.0
  0
LINE
  5
CE
  8
DATA
  6
CONTINUOUS
 62
     7
 10
2359.240000000324
 20
1676.0000000000059
 30
0.0
 11
2542.2400000003199
 21
1676.0000000000059
 31
0.0
  0
CIRCLE
  5
CF
  8
DATA
  6
CONTINUOUS
 62
     7
 10
2356.0200000003292
 20
1600.0000000000059
 30
0.0
 40
66.000000000000682
  0
TEXT
  5
D0
  8
DATA
 62
     7
 10
2333.6212856795109
 20
1588.0664062500059
 30
0.0
 40
24.799346923828121
  1
RED
 41
0.7
 11
2333.6212856795109
 21
1612.865753173834
 31
0.0
 73
     3
  0
LINE
  5
D1
  8
DATA
  6
CONTINUOUS
 62
     7
 10
1871.500000000068
 20
1130.0000000000009
 30
0.0
 11
1871.500000000068
 21
1470.6539514672811
 31
0.0
  0
LINE
  5
D2
  8
DATA
  6
CONTINUOUS
 62
     7
 10
1592.0000000000671
 20
1108.0
 30
0.0
 11
1606.000000000068
 21
1108.0
 31
0.0
  0
LINE
  5
D3
  8
DATA
  6
CONTINUOUS
 62
     7
 10
1692.9999999999991
 20
1108.0
 30
0.0
 11
1707.0
 21
1108.0
 31
0.0
  0
CIRCLE
  5
D4
  8
DATA
  6
CONTINUOUS
 62
     7
 10
1599.000000000068
 20
1123.0
 30
0.0
 40
4.0
  0
LINE
  5
D5
  8
DATA
  6
CONTINUOUS
 62
     7
 10
1596.500000000068
 20
1123.0
 30
0.0
 11
1601.500000000068
 21
1123.0
 31
0.0
  0
LINE
  5
D6
  8
DATA
  6
CONTINUOUS
 62
     7
 10
1599.0000000000659
 20
1120.5
 30
0.0
 11
1599.0000000000659
 21
1125.5
 31
0.0
  0
ARC
  5
D7
  8
DATA
  6
CONTINUOUS
 62
     7
 10
1599.000000000068
 20
1123.0000000000009
 30
0.0
 40
6.999999999999317
 50
0.0
 51
180.0
  0
CIRCLE
  5
D8
  8
DATA
  6
CONTINUOUS
 62
     7
 10
1700.0000000000009
 20
1123.0
 30
0.0
 40
4.0
  0
LINE
  5
D9
  8
DATA
  6
CONTINUOUS
 62
     7
 10
1697.5000000000009
 20
1123.0
 30
0.0
 11
1702.4999999999991
 21
1123.0
 31
0.0
  0
LINE
  5
DA
  8
DATA
  6
CONTINUOUS
 62
     7
 10
1699.9999999999991
 20
1120.5
 30
0.0
 11
1699.9999999999991
 21
1125.5
 31
0.0
  0
ARC
  5
DB
  8
DATA
  6
CONTINUOUS
 62
     7
 10
1700.0000000000009
 20
1123.0000000000009
 30
0.0
 40
6.9999999999990896
 50
0.0
 51
180.0
  0
ARC
  5
DC
  8
DATA
  6
CONTINUOUS
 62
     7
 10
1599.0000000000659
 20
1131.000000000002
 30
0.0
 40
6.999999999999317
 50
0.0
 51
180.00000000000179
  0
LINE
  5
DD
  8
DATA
  6
CONTINUOUS
 62
     7
 10
1592.0000000000671
 20
1108.0
 30
0.0
 11
1592.0000000000689
 21
1131.000000000002
 31
0.0
  0
LINE
  5
DE
  8
DATA
  6
CONTINUOUS
 62
     7
 10
1606.000000000068
 20
1131.000000000002
 30
0.0
 11
1606.000000000068
 21
1108.0
 31
0.0
  0
LINE
  5
DF
  8
DATA
  6
CONTINUOUS
 62
     7
 10
1693.0
 20
1108.0
 30
0.0
 11
1693.000000000002
 21
1131.000000000002
 31
0.0
  0
LINE
  5
E0
  8
DATA
  6
CONTINUOUS
 62
     7
 10
1707.0
 20
1131.000000000002
 30
0.0
 11
1707.0
 21
1108.0
 31
0.0
  0
ARC
  5
E1
  8
DATA
  6
CONTINUOUS
 62
     7
 10
1699.9999999999991
 20
1131.000000000002
 30
0.0
 40
6.9999999999990896
 50
0.0
 51
180.00000000000179
  0
LINE
  5
E2
  8
DATA
  6
CONTINUOUS
 62
     7
 10
1793.9999999999329
 20
1108.0
 30
0.0
 11
1807.999999999932
 21
1108.0
 31
0.0
  0
CIRCLE
  5
E3
  8
DATA
  6
CONTINUOUS
 62
     7
 10
1800.9999999999329
 20
1123.0
 30
0.0
 40
4.0
  0
LINE
  5
E4
  8
DATA
  6
CONTINUOUS
 62
     7
 10
1798.4999999999329
 20
1123.0
 30
0.0
 11
1803.499999999932
 21
1123.0
 31
0.0
  0
LINE
  5
E5
  8
DATA
  6
CONTINUOUS
 62
     7
 10
1800.9999999999329
 20
1120.5
 30
0.0
 11
1800.9999999999329
 21
1125.5
 31
0.0
  0
ARC
  5
E6
  8
DATA
  6
CONTINUOUS
 62
     7
 10
1800.9999999999329
 20
1123.0000000000009
 30
0.0
 40
6.9999999999992042
 50
0.0
 51
180.0
  0
LINE
  5
E7
  8
DATA
  6
CONTINUOUS
 62
     7
 10
1793.9999999999329
 20
1108.0
 30
0.0
 11
1793.9999999999329
 21
1131.000000000002
 31
0.0
  0
LINE
  5
E8
  8
DATA
  6
CONTINUOUS
 62
     7
 10
1807.999999999932
 20
1131.000000000002
 30
0.0
 11
1807.999999999932
 21
1108.0
 31
0.0
  0
ARC
  5
E9
  8
DATA
  6
CONTINUOUS
 62
     7
 10
1800.999999999932
 20
1131.000000000002
 30
0.0
 40
6.9999999999982947
 50
0.0
 51
180.00000000000179
  0
ARC
  5
EA
  8
DATA
  6
CONTINUOUS
 62
     7
 10
1841.5000000000671
 20
1130.0000000000009
 30
0.0
 40
30.000000000000451
 50
270.0
 51
0.0
  0
CIRCLE
  5
EB
  8
DATA
  6
CONTINUOUS
 62
     7
 10
1860.3908821418411
 20
1309.375563795847
 30
0.0
 40
6.0
  0
CIRCLE
  5
EC
  8
DATA
  6
CONTINUOUS
 62
     7
 10
1860.3908821418411
 20
1309.375563795847
 30
0.0
 40
4.0
  0
LINE
  5
ED
  8
DATA
  6
CONTINUOUS
 62
     7
 10
1857.8908821418411
 20
1309.375563795847
 30
0.0
 11
1862.8908821418411
 21
1309.375563795847
 31
0.0
  0
LINE
  5
EE
  8
DATA
  6
CONTINUOUS
 62
     7
 10
1860.3908821418411
 20
1306.875563795847
 30
0.0
 11
1860.3908821418411
 21
1311.875563795847
 31
0.0
  0
TEXT
  5
EF
  8
DATA
 62
     7
 10
1684.5
 20
1423.304500873903
 30
0.0
 40
3.30657958984375
  1
Northridge, California, USA
 41
0.7
 11
1684.5
 21
1426.6110804637469
 31
0.0
 73
     3
  0
TEXT
  5
F0
  8
DATA
 62
     7
 10
1684.5
 20
1428.4895347180641
 30
0.0
 40
4.959869384765625
  1
JBL Professional
 41
0.7
 11
1684.5
 21
1433.4494041028299
 31
0.0
 73
     3
  0
LINE
  5
F1
  8
DATA
  6
CONTINUOUS
 62
     7
 10
1652.5
 20
1439.217800539677
 30
0.0
 11
1747.5
 21
1439.217800539677
 31
0.0
  0
LINE
  5
F2
  8
DATA
  6
CONTINUOUS
 62
     7
 10
1646.0
 20
1497.5648144199599
 30
0.0
 11
1754.0
 21
1497.5648144199599
 31
0.0
  0
LINE
  5
F3
  8
DATA
  6
CONTINUOUS
 62
     7
 10
1656.0
 20
1414.3762534680629
 30
0.0
 11
1656.0
 21
1434.3762534680641
 31
0.0
  0
LINE
  5
F4
  8
DATA
  6
CONTINUOUS
 62
     7
 10
1656.0
 20
1434.3762534680641
 30
0.0
 11
1681.0
 21
1434.3762534680641
 31
0.0
  0
LINE
  5
F5
  8
DATA
  6
CONTINUOUS
 62
     7
 10
1681.0
 20
1434.3762534680641
 30
0.0
 11
1681.0
 21
1414.3762534680629
 31
0.0
  0
LINE
  5
F6
  8
DATA
  6
CONTINUOUS
 62
     7
 10
1652.5
 20
1406.217800539674
 30
0.0
 11
1652.5
 21
1439.2178005396761
 31
0.0
  0
LINE
  5
F7
  8
DATA
  6
CONTINUOUS
 62
     7
 10
1687.228000000001
 20
1488.104519436019
 30
0.0
 11
1693.828
 21
1488.1045194360181
 31
0.0
  0
LINE
  5
F8
  8
DATA
  6
CONTINUOUS
 62
     7
 10
1687.228000000001
 20
1477.36247715949
 30
0.0
 11
1693.828
 21
1477.36247715949
 31
0.0
  0
LINE
  5
F9
  8
DATA
  6
CONTINUOUS
 62
     7
 10
1687.228000000001
 20
1488.104519436019
 30
0.0
 11
1683.9280000000001
 21
1482.7334982977541
 31
0.0
  0
LINE
  5
FA
  8
DATA
  6
CONTINUOUS
 62
     7
 10
1683.9280000000001
 20
1482.7334982977541
 30
0.0
 11
1687.228000000001
 21
1477.36247715949
 31
0.0
  0
LINE
  5
FB
  8
DATA
  6
CONTINUOUS
 62
     7
 10
1693.828
 20
1477.36247715949
 30
0.0
 11
1697.1279999999999
 21
1482.7334982977541
 31
0.0
  0
LINE
  5
FC
  8
DATA
  6
CONTINUOUS
 62
     7
 10
1697.1279999999999
 20
1482.7334982977541
 30
0.0
 11
1693.828
 21
1488.1045194360181
 31
0.0
  0
LINE
  5
FD
  8
DATA
  6
CONTINUOUS
 62
     7
 10
1690.5514438034991
 20
1489.8751042977549
 30
0.0
 11
1709.3199999999999
 21
1489.8751042977549
 31
0.0
  0
LINE
  5
FE
  8
DATA
  6
CONTINUOUS
 62
     7
 10
1690.5280000000009
 20
1475.59914994415
 30
0.0
 11
1709.3199999999999
 21
1475.59914994415
 31
0.0
  0
LINE
  5
FF
  8
DATA
  6
CONTINUOUS
 62
     7
 10
1706.024000000001
 20
1488.104519436019
 30
0.0
 11
1712.624
 21
1488.1045194360181
 31
0.0
  0
LINE
  5
100
  8
DATA
  6
CONTINUOUS
 62
     7
 10
1706.024000000001
 20
1477.36247715949
 30
0.0
 11
1712.624
 21
1477.36247715949
 31
0.0
  0
LINE
  5
101
  8
DATA
  6
CONTINUOUS
 62
     7
 10
1706.024000000001
 20
1488.104519436019
 30
0.0
 11
1702.7240000000011
 21
1482.7334982977541
 31
0.0
  0
LINE
  5
102
  8
DATA
  6
CONTINUOUS
 62
     7
 10
1702.7240000000011
 20
1482.7334982977541
 30
0.0
 11
1706.024000000001
 21
1477.36247715949
 31
0.0
  0
LINE
  5
103
  8
DATA
  6
CONTINUOUS
 62
     7
 10
1712.624
 20
1477.36247715949
 30
0.0
 11
1715.924
 21
1482.7334982977541
 31
0.0
  0
LINE
  5
104
  8
DATA
  6
CONTINUOUS
 62
     7
 10
1715.924
 20
1482.7334982977541
 30
0.0
 11
1712.624
 21
1488.1045194360181
 31
0.0
  0
LINE
  5
105
  8
DATA
  6
CONTINUOUS
 62
     7
 10
1747.5
 20
1406.217800539674
 30
0.0
 11
1747.5
 21
1439.2178005396761
 31
0.0
  0
ARC
  5
106
  8
DATA
  6
CONTINUOUS
 62
     7
 10
1841.5000000000689
 20
1470.6539514672811
 30
0.0
 40
30.000000000000341
 50
0.0
 51
90.0
  0
LINE
  5
107
  8
DATA
  6
CONTINUOUS
 62
     7
 10
2298.8623233505591
 20
1566.9999999999959
 30
0.0
 11
2356.0200000003269
 21
1534.0
 31
0.0
  0
LINE
  5
108
  8
DATA
  6
CONTINUOUS
 62
     7
 10
2298.86232335055
 20
1567.0000000000121
 30
0.0
 11
2298.86232335055
 21
1633.000000000007
 31
0.0
  0
ARC
  5
109
  8
DATA
  6
CONTINUOUS
 62
     7
 10
2359.240000000324
 20
1600.0000000000059
 30
0.0
 40
75.999999999999787
 50
89.999999999995893
 51
270.00000000000421
  0
ARC
  5
10A
  8
DATA
  6
CONTINUOUS
 62
     7
 10
2543.9800000003252
 20
1600.0000000000059
 30
0.0
 40
18.999999999999272
 50
52.136353638270769
 51
127.86364636172971
  0
ARC
  5
10B
  8
DATA
  6
CONTINUOUS
 62
     7
 10
2543.9800000003252
 20
1600.0000000000059
 30
0.0
 40
18.999999999999769
 50
232.13635363827109
 51
307.8636463617284
  0
ARC
  5
10C
  8
DATA
  6
CONTINUOUS
 62
     7
 10
2543.9800000003252
 20
1600.0000000000059
 30
0.0
 40
39.999999999997812
 50
22.024312837043261
 51
157.97568716295731
  0
ARC
  5
10D
  8
DATA
  6
CONTINUOUS
 62
     7
 10
2543.9800000003252
 20
1600.0000000000059
 30
0.0
 40
39.999999999998948
 50
202.02431283704291
 51
337.97568716295638
  0
LINE
  5
10E
  8
DATA
  6
CONTINUOUS
 62
     7
 10
2601.1376766501071
 20
1632.999999999998
 30
0.0
 11
2601.1376766501071
 21
1567.0000000000041
 31
0.0
  0
LINE
  5
10F
  8
DATA
  6
CONTINUOUS
 62
     7
 10
2601.1376766500989
 20
1633.000000000013
 30
0.0
 11
2543.9800000003302
 21
1666.0000000000109
 31
0.0
  0
LINE
  5
110
  8
DATA
  6
CONTINUOUS
 62
     7
 10
2543.9800000003352
 20
1534.000000000005
 30
0.0
 11
2601.1376766500989
 21
1567.000000000003
 31
0.0
  0
LINE
  5
111
  8
DATA
  6
CONTINUOUS
 62
     7
 10
2486.8223233505628
 20
1566.9999999999991
 30
0.0
 11
2543.9800000003279
 21
1534.0000000000009
 31
0.0
  0
LINE
  5
112
  8
DATA
  6
CONTINUOUS
 62
     7
 10
2486.8223233505541
 20
1567.0000000000141
 30
0.0
 11
2486.822323350551
 21
1633.000000000008
 31
0.0
  0
LINE
  5
113
  8
DATA
  6
CONTINUOUS
 62
     7
 10
2486.8223233505569
 20
1633.0000000000109
 30
0.0
 11
2543.9800000003238
 21
1666.0000000000059
 31
0.0
  0
CIRCLE
  5
114
  8
DATA
  6
CONTINUOUS
 62
     7
 10
2543.9800000003252
 20
1600.0000000000059
 30
0.0
 40
65.999999999999773
  0
LINE
  5
115
  8
DATA
  6
CONTINUOUS
 62
     7
 10
2413.1776766501112
 20
1633.0
 30
0.0
 11
2413.177676650108
 21
1567.000000000005
 31
0.0
  0
LINE
  5
116
  8
DATA
  6
CONTINUOUS
 62
     7
 10
2413.177676650103
 20
1633.000000000015
 30
0.0
 11
2356.020000000331
 21
1666.0000000000121
 31
0.0
  0
ARC
  5
117
  8
DATA
  6
CONTINUOUS
 62
     7
 10
2542.2400000003199
 20
1600.0000000000059
 30
0.0
 40
75.999999999999787
 50
270.00000000000409
 51
89.999999999995865
  0
TEXT
  5
118
  8
DATA
 62
     7
 10
2521.5812856795078
 20
1588.0664062500059
 30
0.0
 40
24.799346923828121
  1
BLK
 41
0.7
 11
2521.5812856795078
 21
1612.865753173834
 31
0.0
 73
     3
  0
TEXT
  5
119
  8
DATA
 62
     7
 10
2229.5523607047289
 20
379.1501816408088
 30
0.0
 40
24.4326171875
  1
2ウェイ・サラウンド・システム
 41
0.7
 11
2229.5523607047289
 21
403.58279882830868
 31
0.0
 73
     3
  0
TEXT
  5
11A
  8
DATA
 62
     7
 10
2267.0523607047289
 20
322.554506640809
 30
0.0
 40
36.64892578125
  1
8320
 41
0.7
 11
2267.0523607047289
 21
359.203432422059
 31
0.0
 73
     3
  0
ARC
  5
11B
  8
DATA
  6
CONTINUOUS
 62
     7
 10
1690.141926085636
 20
1482.7334982977541
 30
0.0
 40
6.2139260856347516
 50
86.437891327111913
 51
273.56210867288797
  0
ARC
  5
11C
  8
DATA
  6
CONTINUOUS
 62
     7
 10
1690.3895649538699
 20
1482.737373706917
 30
0.0
 40
7.1395660056707468
 50
88.700793613598265
 51
271.11102565180022
  0
ARC
  5
11D
  8
DATA
  6
CONTINUOUS
 62
     7
 10
1690.2940158060501
 20
1482.7334982977541
 30
0.0
 40
3.766015806048697
 50
86.437892164601521
 51
273.56210783539842
  0
ARC
  5
11E
  8
DATA
  6
CONTINUOUS
 62
     7
 10
1690.417682157042
 20
1482.7369571915519
 30
0.0
 40
1.7896854995165521
 50
84.668399375181565
 51
271.739885849026
  0
ARC
  5
11F
  8
DATA
  6
CONTINUOUS
 62
     7
 10
1709.4818788496291
 20
1482.737373706917
 30
0.0
 40
7.1395660056709263
 50
268.88897434819887
 51
91.299206386402645
  0
ARC
  5
120
  8
DATA
  6
CONTINUOUS
 62
     7
 10
1709.553984193951
 20
1482.7334982977541
 30
0.0
 40
3.7660158060490372
 50
266.43789216460192
 51
93.562107835398237
  0
ARC
  5
121
  8
DATA
  6
CONTINUOUS
 62
     7
 10
1709.4303178429579
 20
1482.7369571915519
 30
0.0
 40
1.7896854995166589
 50
268.26011415097412
 51
95.331600624818137
  0
ARC
  5
122
  8
DATA
  6
CONTINUOUS
 62
     7
 10
1709.0860158060491
 20
1482.7334982977541
 30
0.0
 40
3.766015806048697
 50
86.437892164601521
 51
273.56210783539842
  0
ARC
  5
123
  8
DATA
  6
CONTINUOUS
 62
     7
 10
1709.2096821570419
 20
1482.7369571915519
 30
0.0
 40
1.7896854995165521
 50
84.668399375181565
 51
271.739885849026
  0
ARC
  5
124
  8
DATA
  6
CONTINUOUS
 62
     7
 10
1709.7140739507499
 20
1482.7334982977541
 30
0.0
 40
6.2139260492500679
 50
266.43789671641071
 51
93.562103283589281
  0
ARC
  5
125
  8
DATA
  6
CONTINUOUS
 62
     7
 10
1708.941926085635
 20
1482.7334982977541
 30
0.0
 40
6.2139260856347516
 50
86.437891327111913
 51
273.56210867288797
  0
ARC
  5
126
  8
DATA
  6
CONTINUOUS
 62
     7
 10
1668.908664159037
 20
1421.3342259064909
 30
0.0
 40
0.2709656475958259
 50
307.64190249757053
 51
354.26701928936552
  0
LINE
  5
127
  8
DATA
  6
CONTINUOUS
 62
     7
 10
1661.9485824999999
 20
1425.6042059680631
 30
0.0
 11
1663.2188735000011
 21
1428.6309539680631
 31
0.0
  0
LINE
  5
128
  8
DATA
  6
CONTINUOUS
 62
     7
 10
1661.9485824999999
 20
1425.6042059680631
 30
0.0
 11
1660.6939655000001
 21
1428.6309539680631
 31
0.0
  0
LINE
  5
129
  8
DATA
  6
CONTINUOUS
 62
     7
 10
1671.5777225000011
 20
1420.130953968066
 30
0.0
 11
1671.5777225000011
 21
1428.6309539680631
 31
0.0
  0
LINE
  5
12A
  8
DATA
  6
CONTINUOUS
 62
     7
 10
1673.2087194999999
 20
1428.6309539680631
 30
0.0
 11
1673.2087194999999
 21
1421.4326099680659
 31
0.0
  0
LINE
  5
12B
  8
DATA
  6
CONTINUOUS
 62
     7
 10
1663.8148170000011
 20
1428.6309539680631
 30
0.0
 11
1663.8148170000011
 21
1421.4326099680659
 31
0.0
  0
LINE
  5
12C
  8
DATA
  6
CONTINUOUS
 62
     7
 10
1665.3830840000001
 20
1428.6309539680631
 30
0.0
 11
1665.3830840000001
 21
1421.4326099680659
 31
0.0
  0
LINE
  5
12D
  8
DATA
  6
CONTINUOUS
 62
     7
 10
1666.1985824999999
 20
1428.6309539680631
 30
0.0
 11
1666.1985824999999
 21
1420.130953968066
 31
0.0
  0
LINE
  5
12E
  8
DATA
  6
CONTINUOUS
 62
     7
 10
1667.6257069999999
 20
1427.831146468063
 30
0.0
 11
1667.6257069999999
 21
1425.102357468063
 31
0.0
  0
LINE
  5
12F
  8
DATA
  6
CONTINUOUS
 62
     7
 10
1670.6845000000001
 20
1425.260253468063
 30
0.0
 11
1670.6845000000001
 21
1427.250876968063
 31
0.0
  0
LINE
  5
130
  8
DATA
  6
CONTINUOUS
 62
     7
 10
1669.1782745
 20
1427.454757968062
 30
0.0
 11
1669.1782745
 21
1425.4787374680629
 31
0.0
  0
LINE
  5
131
  8
DATA
  6
CONTINUOUS
 62
     7
 10
1662.6229384999999
 20
1422.797012968065
 30
0.0
 11
1662.6229384999999
 21
1421.4326269680651
 31
0.0
  0
LINE
  5
132
  8
DATA
  6
CONTINUOUS
 62
     7
 10
1662.6229384999999
 20
1422.797012968065
 30
0.0
 11
1661.211496500001
 21
1422.797012968065
 31
0.0
  0
LINE
  5
133
  8
DATA
  6
CONTINUOUS
 62
     7
 10
1661.211496500001
 20
1422.797012968065
 30
0.0
 11
1661.211496500001
 21
1421.4326269680651
 31
0.0
  0
ARC
  5
134
  8
DATA
  6
CONTINUOUS
 62
     7
 10
1663.2218654999999
 20
1421.414232968066
 30
0.0
 40
0.593239502305699
 50
269.71184879274801
 51
1.775987005681827
  0
ARC
  5
135
  8
DATA
  6
CONTINUOUS
 62
     7
 10
1663.2158900000011
 20
1421.414232968066
 30
0.0
 40
0.5932364688406575
 50
178.22401299431161
 51
270.28815120724568
  0
ARC
  5
136
  8
DATA
  6
CONTINUOUS
 62
     7
 10
1662.202120500001
 20
1421.480677468066
 30
0.0
 40
0.9917801769497533
 50
182.77699544999629
 51
207.35960666714359
  0
CIRCLE
  5
137
  8
DATA
  6
CONTINUOUS
 62
     7
 10
1662.0348405000011
 20
1424.428001468063
 30
0.0
 40
0.8076529999999593
  0
LINE
  5
138
  8
DATA
  6
CONTINUOUS
 62
     7
 10
1675.8277225000011
 20
1420.1309624680659
 30
0.0
 11
1675.8277225000011
 21
1422.797021468064
 31
0.0
  0
LINE
  5
139
  8
DATA
  6
CONTINUOUS
 62
     7
 10
1675.8277225000011
 20
1422.797012968065
 30
0.0
 11
1674.4006065000001
 21
1422.797012968065
 31
0.0
  0
LINE
  5
13A
  8
DATA
  6
CONTINUOUS
 62
     7
 10
1674.4006065000001
 20
1422.797012968065
 30
0.0
 11
1674.4006065000001
 21
1421.4326269680651
 31
0.0
  0
LINE
  5
13B
  8
DATA
  6
CONTINUOUS
 62
     7
 10
1667.6257069999999
 20
1420.9307784680659
 30
0.0
 11
1667.6257069999999
 21
1424.2868674680631
 31
0.0
  0
LINE
  5
13C
  8
DATA
  6
CONTINUOUS
 62
     7
 10
1667.6256985
 20
1424.2868674680631
 30
0.0
 11
1668.3941494999999
 21
1424.2868674680631
 31
0.0
  0
LINE
  5
13D
  8
DATA
  6
CONTINUOUS
 62
     7
 10
1669.1782745
 20
1421.3071584680661
 30
0.0
 11
1669.1782745
 21
1423.9104874680629
 31
0.0
  0
ARC
  5
13E
  8
DATA
  6
CONTINUOUS
 62
     7
 10
1664.3924600000009
 20
1421.480677468066
 30
0.0
 40
0.9917787656851849
 50
332.64039333286848
 51
357.22300455000368
  0
ARC
  5
13F
  8
DATA
  6
CONTINUOUS
 62
     7
 10
1673.8076464999999
 20
1421.414232968066
 30
0.0
 40
0.593239502305699
 50
269.71184879274801
 51
1.7759870056819971
  0
ARC
  5
140
  8
DATA
  6
CONTINUOUS
 62
     7
 10
1673.801679500001
 20
1421.414232968066
 30
0.0
 40
0.5932364688406575
 50
178.22401299431161
 51
270.28815120724568
  0
LINE
  5
141
  8
DATA
  6
CONTINUOUS
 62
     7
 10
1670.6838115
 20
1421.4953569680661
 30
0.0
 11
1670.6838115
 21
1423.7536539680641
 31
0.0
  0
LINE
  5
142
  8
DATA
  6
CONTINUOUS
 62
     7
 10
1667.6256985
 20
1425.102357468063
 30
0.0
 11
1668.3941494999999
 21
1425.102357468063
 31
0.0
  0
ARC
  5
143
  8
DATA
  6
CONTINUOUS
 62
     7
 10
1669.0702225
 20
1421.744576968066
 30
0.0
 40
1.6172196999596109
 50
273.8309816091184
 51
351.1351473098062
  0
LINE
  5
144
  8
DATA
  6
CONTINUOUS
 62
     7
 10
1663.8148170000011
 20
1428.6309539680631
 30
0.0
 11
1665.3830840000001
 21
1428.6309539680631
 31
0.0
  0
LINE
  5
145
  8
DATA
  6
CONTINUOUS
 62
     7
 10
1660.6939655000001
 20
1428.6309539680631
 30
0.0
 11
1663.2188735000011
 21
1428.6309539680631
 31
0.0
  0
LINE
  5
146
  8
DATA
  6
CONTINUOUS
 62
     7
 10
1671.5777225000011
 20
1428.6309539680631
 30
0.0
 11
1673.2087194999999
 21
1428.6309539680631
 31
0.0
  0
LINE
  5
147
  8
DATA
  6
CONTINUOUS
 62
     7
 10
1666.1985824999999
 20
1428.6309539680631
 30
0.0
 11
1669.1946541089251
 21
1428.630947088383
 31
0.0
  0
LINE
  5
148
  8
DATA
  6
CONTINUOUS
 62
     7
 10
1667.6256985
 20
1427.8311379680631
 30
0.0
 11
1668.3941494999999
 21
1427.8311379680631
 31
0.0
  0
ARC
  5
149
  8
DATA
  6
CONTINUOUS
 62
     7
 10
1669.0863470000011
 20
1427.019812968063
 30
0.0
 40
1.6147704429748071
 50
8.2269238590138052
 51
86.154126692152218
  0
ARC
  5
14A
  8
DATA
  6
CONTINUOUS
 62
     7
 10
1668.908664159037
 20
1423.883420029639
 30
0.0
 40
0.2709656475957183
 50
5.7329807106130168
 51
52.358097502414807
  0
ARC
  5
14B
  8
DATA
  6
CONTINUOUS
 62
     7
 10
1668.4032236432131
 20
1422.796232701565
 30
0.0
 40
1.4906623853736221
 50
77.173517193117732
 51
90.348780062382346
  0
ARC
  5
14C
  8
DATA
  6
CONTINUOUS
 62
     7
 10
1668.5706486233471
 20
1423.4264552326069
 30
0.0
 40
0.8393222181390833
 50
53.13799110592867
 51
78.766896377340785
  0
ARC
  5
14D
  8
DATA
  6
CONTINUOUS
 62
     7
 10
1669.8612834999999
 20
1423.698055468064
 30
0.0
 40
0.8244049393267259
 50
3.8670063598199871
 51
88.361634567901419
  0
ARC
  5
14E
  8
DATA
  6
CONTINUOUS
 62
     7
 10
1669.860527
 20
1425.3469874680629
 30
0.0
 40
0.8252241489547564
 50
271.68928210464782
 51
356.07828298266821
  0
ARC
  5
14F
  8
DATA
  6
CONTINUOUS
 62
     7
 10
1668.908664159037
 20
1425.505804906488
 30
0.0
 40
0.2709656475958259
 50
307.64190249757053
 51
354.26701928941321
  0
ARC
  5
150
  8
DATA
  6
CONTINUOUS
 62
     7
 10
1668.4032236432131
 20
1426.592992234562
 30
0.0
 40
1.4906623853747301
 50
269.6512199376179
 51
282.82648280687272
  0
ARC
  5
151
  8
DATA
  6
CONTINUOUS
 62
     7
 10
1668.5706486233471
 20
1425.9627697035201
 30
0.0
 40
0.8393222181387559
 50
281.2331036226638
 51
306.8620088940682
  0
ARC
  5
152
  8
DATA
  6
CONTINUOUS
 62
     7
 10
1668.908664159037
 20
1427.4276905296381
 30
0.0
 40
0.2709656475957183
 50
5.7329807106130168
 51
52.358097502414807
  0
ARC
  5
153
  8
DATA
  6
CONTINUOUS
 62
     7
 10
1668.4032236432131
 20
1426.3405032015639
 30
0.0
 40
1.490662385374619
 50
77.173517193126443
 51
90.348780062382147
  0
ARC
  5
154
  8
DATA
  6
CONTINUOUS
 62
     7
 10
1668.5706486233471
 20
1426.9707257326061
 30
0.0
 40
0.8393222181391742
 50
53.137991105933338
 51
78.766896377342306
  0
ARC
  5
155
  8
DATA
  6
CONTINUOUS
 62
     7
 10
1702.582008219747
 20
1194.1941771074751
 30
0.0
 40
0.8262858336092049
 50
307.64190249758701
 51
354.26701928940162
  0
LINE
  5
156
  8
DATA
  6
CONTINUOUS
 62
     7
 10
1681.3578533253651
 20
1207.215104542302
 30
0.0
 11
1685.2314936453649
 21
1216.4449055023019
 31
0.0
  0
LINE
  5
157
  8
DATA
  6
CONTINUOUS
 62
     7
 10
1681.3578533253651
 20
1207.215104542302
 30
0.0
 11
1677.5320094853651
 21
1216.4449055023019
 31
0.0
  0
LINE
  5
158
  8
DATA
  6
CONTINUOUS
 62
     7
 10
1710.721066125365
 20
1190.5249055023021
 30
0.0
 11
1710.721066125365
 21
1216.4449055023019
 31
0.0
  0
LINE
  5
159
  8
DATA
  6
CONTINUOUS
 62
     7
 10
1715.6946475653649
 20
1216.4449055023019
 30
0.0
 11
1715.6946475653649
 21
1194.4941906223021
 31
0.0
  0
LINE
  5
15A
  8
DATA
  6
CONTINUOUS
 62
     7
 10
1687.0487707653649
 20
1216.4449055023019
 30
0.0
 11
1687.0487707653649
 21
1194.4941906223021
 31
0.0
  0
LINE
  5
15B
  8
DATA
  6
CONTINUOUS
 62
     7
 10
1691.8310626053651
 20
1216.4449055023019
 30
0.0
 11
1691.8310626053651
 21
1194.4941906223021
 31
0.0
  0
LINE
  5
15C
  8
DATA
  6
CONTINUOUS
 62
     7
 10
1694.3178533253649
 20
1216.4449055023019
 30
0.0
 11
1694.3178533253649
 21
1190.5249055023021
 31
0.0
  0
LINE
  5
15D
  8
DATA
  6
CONTINUOUS
 62
     7
 10
1698.669743565365
 20
1214.0059631023021
 30
0.0
 11
1698.669743565365
 21
1205.6847618223021
 31
0.0
  0
LINE
  5
15E
  8
DATA
  6
CONTINUOUS
 62
     7
 10
1707.997262925365
 20
1206.1662517423031
 30
0.0
 11
1707.997262925365
 21
1212.2364824623021
 31
0.0
  0
LINE
  5
15F
  8
DATA
  6
CONTINUOUS
 62
     7
 10
1703.4041611653649
 20
1212.8581995823019
 30
0.0
 11
1703.4041611653649
 21
1206.8324994223019
 31
0.0
  0
ARC
  5
160
  8
DATA
  6
CONTINUOUS
 62
     7
 10
1686.0891086853651
 20
1197.1806431023019
 30
0.0
 40
6.6843880780345959
 50
264.69085622153591
 51
323.99119915424552
  0
LINE
  5
161
  8
DATA
  6
CONTINUOUS
 62
     7
 10
1683.4142424453651
 20
1198.6548171823019
 30
0.0
 11
1683.4142424453651
 21
1194.4942424623021
 31
0.0
  0
LINE
  5
162
  8
DATA
  6
CONTINUOUS
 62
     7
 10
1683.4142424453651
 20
1198.6548171823019
 30
0.0
 11
1679.110174605365
 21
1198.6548171823019
 31
0.0
  0
LINE
  5
163
  8
DATA
  6
CONTINUOUS
 62
     7
 10
1679.110174605365
 20
1198.6548171823019
 30
0.0
 11
1679.110174605365
 21
1194.4942424623021
 31
0.0
  0
ARC
  5
164
  8
DATA
  6
CONTINUOUS
 62
     7
 10
1685.240617485365
 20
1194.438151582302
 30
0.0
 40
1.8090315176203551
 50
269.7118487927512
 51
1.775987005674551
  0
ARC
  5
165
  8
DATA
  6
CONTINUOUS
 62
     7
 10
1685.222395725365
 20
1194.438151582302
 30
0.0
 40
1.809022267335296
 50
178.22401299432229
 51
270.28815120724869
  0
ARC
  5
166
  8
DATA
  6
CONTINUOUS
 62
     7
 10
1684.8521285253651
 20
1197.1806431023019
 30
0.0
 40
6.68437722216545
 50
216.008800845758
 51
275.30914377846449
  0
ARC
  5
167
  8
DATA
  6
CONTINUOUS
 62
     7
 10
1682.1309950853649
 20
1194.6407682223021
 30
0.0
 40
3.0243461395926698
 50
182.7769954499943
 51
207.35960666715391
  0
CIRCLE
  5
168
  8
DATA
  6
CONTINUOUS
 62
     7
 10
1681.6208894853651
 20
1203.6283727023019
 30
0.0
 40
2.462866560000065
  0
LINE
  5
169
  8
DATA
  6
CONTINUOUS
 62
     7
 10
1723.6810661253651
 20
1190.524931422302
 30
0.0
 11
1710.721066125365
 21
1190.524931422302
 31
0.0
  0
LINE
  5
16A
  8
DATA
  6
CONTINUOUS
 62
     7
 10
1723.6810661253651
 20
1190.524931422302
 30
0.0
 11
1723.6810661253651
 21
1198.654843102302
 31
0.0
  0
LINE
  5
16B
  8
DATA
  6
CONTINUOUS
 62
     7
 10
1723.6810661253651
 20
1198.6548171823019
 30
0.0
 11
1719.3292018053651
 21
1198.6548171823019
 31
0.0
  0
LINE
  5
16C
  8
DATA
  6
CONTINUOUS
 62
     7
 10
1719.3292018053651
 20
1198.6548171823019
 30
0.0
 11
1719.3292018053651
 21
1194.4942424623021
 31
0.0
  0
LINE
  5
16D
  8
DATA
  6
CONTINUOUS
 62
     7
 10
1694.3178533253649
 20
1190.524931422302
 30
0.0
 11
1703.4041611653649
 21
1190.5249573423021
 31
0.0
  0
LINE
  5
16E
  8
DATA
  6
CONTINUOUS
 62
     7
 10
1698.6697176453661
 20
1192.9638997423019
 30
0.0
 11
1701.0130411653649
 21
1192.9638997423019
 31
0.0
  0
LINE
  5
16F
  8
DATA
  6
CONTINUOUS
 62
     7
 10
1698.669743565365
 20
1192.9638997423019
 30
0.0
 11
1698.669743565365
 21
1203.1979970223019
 31
0.0
  0
LINE
  5
170
  8
DATA
  6
CONTINUOUS
 62
     7
 10
1698.6697176453661
 20
1203.1979970223019
 30
0.0
 11
1701.0130411653649
 21
1203.1979970223019
 31
0.0
  0
LINE
  5
171
  8
DATA
  6
CONTINUOUS
 62
     7
 10
1703.4041611653649
 20
1194.1116373423019
 30
0.0
 11
1703.4041611653649
 21
1202.0502594223019
 31
0.0
  0
ARC
  5
172
  8
DATA
  6
CONTINUOUS
 62
     7
 10
1688.810242125365
 20
1194.6407682223021
 30
0.0
 40
3.0243418360665619
 50
332.6403933328445
 51
357.22300455000772
  0
ARC
  5
173
  8
DATA
  6
CONTINUOUS
 62
     7
 10
1717.521022605365
 20
1194.438151582302
 30
0.0
 40
1.809031517620354
 50
269.7118487927566
 51
1.775987005674494
  0
ARC
  5
174
  8
DATA
  6
CONTINUOUS
 62
     7
 10
1717.5028267653649
 20
1194.438151582302
 30
0.0
 40
1.8090222673353531
 50
178.22401299432229
 51
270.28815120724698
  0
LINE
  5
175
  8
DATA
  6
CONTINUOUS
 62
     7
 10
1707.9951634053659
 20
1194.6855320623019
 30
0.0
 11
1707.9951634053659
 21
1201.5720095023021
 31
0.0
  0
LINE
  5
176
  8
DATA
  6
CONTINUOUS
 62
     7
 10
1698.6697176453661
 20
1205.6847618223021
 30
0.0
 11
1701.0130411653649
 21
1205.6847618223021
 31
0.0
  0
ARC
  5
177
  8
DATA
  6
CONTINUOUS
 62
     7
 10
1703.074666125365
 20
1195.4455064623021
 30
0.0
 40
4.9315687791733858
 50
273.8309816091147
 51
351.13514730980057
  0
LINE
  5
178
  8
DATA
  6
CONTINUOUS
 62
     7
 10
1687.0487707653649
 20
1216.4449055023019
 30
0.0
 11
1691.8310626053651
 21
1216.4449055023019
 31
0.0
  0
LINE
  5
179
  8
DATA
  6
CONTINUOUS
 62
     7
 10
1677.5320094853651
 20
1216.4449055023019
 30
0.0
 11
1685.2314936453649
 21
1216.4449055023019
 31
0.0
  0
LINE
  5
17A
  8
DATA
  6
CONTINUOUS
 62
     7
 10
1710.721066125365
 20
1216.4449055023019
 30
0.0
 11
1715.6946475653649
 21
1216.4449055023019
 31
0.0
  0
LINE
  5
17B
  8
DATA
  6
CONTINUOUS
 62
     7
 10
1694.3178533253649
 20
1216.4449055023019
 30
0.0
 11
1703.454109337521
 21
1216.4448845233269
 31
0.0
  0
LINE
  5
17C
  8
DATA
  6
CONTINUOUS
 62
     7
 10
1698.6697176453661
 20
1214.005937182302
 30
0.0
 11
1701.0130411653649
 21
1214.005937182302
 31
0.0
  0
ARC
  5
17D
  8
DATA
  6
CONTINUOUS
 62
     7
 10
1703.1238363653649
 20
1211.531873182302
 30
0.0
 40
4.924099986106687
 50
8.2269238590197542
 51
86.154126692152005
  0
ARC
  5
17E
  8
DATA
  6
CONTINUOUS
 62
     7
 10
1701.0407119644331
 20
1197.509458936144
 30
0.0
 40
4.5456434151659426
 50
269.65121993761812
 51
282.8264828068713
  0
ARC
  5
17F
  8
DATA
  6
CONTINUOUS
 62
     7
 10
1701.5512596685589
 20
1195.587650935601
 30
0.0
 40
2.5594390463733321
 50
281.23310362265249
 51
306.86200889406211
  0
ARC
  5
180
  8
DATA
  6
CONTINUOUS
 62
     7
 10
1702.582008219747
 20
1201.967719657129
 30
0.0
 40
0.826285833609395
 50
5.7329807105661708
 51
52.35809750242889
  0
ARC
  5
181
  8
DATA
  6
CONTINUOUS
 62
     7
 10
1701.0407119644331
 20
1198.652437828461
 30
0.0
 40
4.5456434151653484
 50
77.173517193126884
 51
90.348780062381877
  0
ARC
  5
182
  8
DATA
  6
CONTINUOUS
 62
     7
 10
1701.5512596685589
 20
1200.5742458290031
 30
0.0
 40
2.55943904637286
 50
53.137991105938902
 51
78.766896377343016
  0
ARC
  5
183
  8
DATA
  6
CONTINUOUS
 62
     7
 10
1705.4869368453651
 20
1201.4024667823021
 30
0.0
 40
2.5139501208644002
 50
3.867006359832021
 51
88.361634567901987
  0
ARC
  5
184
  8
DATA
  6
CONTINUOUS
 62
     7
 10
1705.4846299653659
 20
1206.4307394223031
 30
0.0
 40
2.5164482283440281
 50
271.68928210464549
 51
356.07828298266281
  0
ARC
  5
185
  8
DATA
  6
CONTINUOUS
 62
     7
 10
1702.582008219747
 20
1206.915039187475
 30
0.0
 40
0.8262858336093849
 50
307.64190249757729
 51
354.26701928940167
  0
ARC
  5
186
  8
DATA
  6
CONTINUOUS
 62
     7
 10
1701.0407119644331
 20
1210.230321016144
 30
0.0
 40
4.5456434151657152
 50
269.65121993761812
 51
282.82648280687459
  0
ARC
  5
187
  8
DATA
  6
CONTINUOUS
 62
     7
 10
1701.5512596685589
 20
1208.308513015601
 30
0.0
 40
2.559439046372439
 50
281.23310362265647
 51
306.86200889406211
  0
ARC
  5
188
  8
DATA
  6
CONTINUOUS
 62
     7
 10
1702.582008219747
 20
1212.7756598171279
 30
0.0
 40
0.8262858336094859
 50
5.7329807106289197
 51
52.358097502432273
  0
ARC
  5
189
  8
DATA
  6
CONTINUOUS
 62
     7
 10
1701.0407119644331
 20
1209.460377988461
 30
0.0
 40
4.5456434151657907
 50
77.173517193128134
 51
90.348780062381806
  0
ARC
  5
18A
  8
DATA
  6
CONTINUOUS
 62
     7
 10
1701.5512596685589
 20
1211.3821859890029
 30
0.0
 40
2.55943904637286
 50
53.137991105938902
 51
78.766896377345503
  0
LINE
  5
18B
  8
DATA
  6
CONTINUOUS
 62
     7
 10
1558.500000000068
 20
1500.6539514672811
 30
0.0
 11
1841.5000000000689
 21
1500.6539514672811
 31
0.0
  0
LINE
  5
18C
  8
DATA
  6
CONTINUOUS
 62
     7
 10
1558.500000000068
 20
1100.0
 30
0.0
 11
1841.5000000000671
 21
1100.0
 31
0.0
  0
LINE
  5
18D
  8
DATA
  6
CONTINUOUS
 62
     7
 10
1670.0000000001489
 20
1181.004130267514
 30
0.0
 11
1670.0000000001489
 21
1224.806289587417
 31
0.0
  0
LINE
  5
18E
  8
DATA
  6
CONTINUOUS
 62
     7
 10
1730.0000000001489
 20
1181.004130267514
 30
0.0
 11
1670.0000000001489
 21
1181.004130267514
 31
0.0
  0
LINE
  5
18F
  8
DATA
  6
CONTINUOUS
 62
     7
 10
1730.0000000001489
 20
1224.806289587417
 30
0.0
 11
1730.0000000001489
 21
1181.004130267514
 31
0.0
  0
LINE
  5
190
  8
DATA
  6
CONTINUOUS
 62
     7
 10
1670.0000000001489
 20
1224.806289587417
 30
0.0
 11
1730.0000000001489
 21
1224.806289587417
 31
0.0
  0
LINE
  5
191
  8
DATA
  6
CONTINUOUS
 62
     7
 10
1646.0
 20
1497.5648144199599
 30
0.0
 11
1646.0
 21
1321.3333612620861
 31
0.0
  0
LINE
  5
192
  8
DATA
  6
CONTINUOUS
 62
     7
 10
1754.0
 20
1497.5648144199599
 30
0.0
 11
1754.0
 21
1321.3333612620861
 31
0.0
  0
CIRCLE
  5
193
  8
DATA
  6
CONTINUOUS
 62
     7
 10
1860.3563650204169
 20
1440.4626843954809
 30
0.0
 40
6.0
  0
CIRCLE
  5
194
  8
DATA
  6
CONTINUOUS
 62
     7
 10
1860.3563650204169
 20
1440.4626843954809
 30
0.0
 40
4.0
  0
LINE
  5
195
  8
DATA
  6
CONTINUOUS
 62
     7
 10
1857.856365020418
 20
1440.4626843954809
 30
0.0
 11
1862.8563650204169
 21
1440.4626843954809
 31
0.0
  0
LINE
  5
196
  8
DATA
  6
CONTINUOUS
 62
     7
 10
1860.3563650204169
 20
1437.96268439548
 30
0.0
 11
1860.3563650204169
 21
1442.9626843954809
 31
0.0
  0
CIRCLE
  5
197
  8
DATA
  6
CONTINUOUS
 62
     7
 10
1860.5
 20
1178.2884431962129
 30
0.0
 40
6.0
  0
CIRCLE
  5
198
  8
DATA
  6
CONTINUOUS
 62
     7
 10
1860.5
 20
1178.2884431962129
 30
0.0
 40
4.0
  0
LINE
  5
199
  8
DATA
  6
CONTINUOUS
 62
     7
 10
1858.0
 20
1178.2884431962129
 30
0.0
 11
1863.0
 21
1178.2884431962129
 31
0.0
  0
LINE
  5
19A
  8
DATA
  6
CONTINUOUS
 62
     7
 10
1860.5
 20
1175.788443196212
 30
0.0
 11
1860.5
 21
1180.7884431962129
 31
0.0
  0
LINE
  5
19B
  8
DATA
  6
CONTINUOUS
 62
     7
 10
1558.007101826739
 20
1175.213251925433
 30
0.0
 11
1840.8240059741711
 21
1175.213251925433
 31
0.0
  0
LINE
  5
19C
  8
DATA
  6
CONTINUOUS
 62
     7
 10
1558.007101826739
 20
1465.4349246831539
 30
0.0
 11
1646.0
 21
1465.4349246831539
 31
0.0
  0
LINE
  5
19D
  8
DATA
  6
CONTINUOUS
 62
     7
 10
1754.0
 20
1465.4349246831539
 30
0.0
 11
1841.992898173396
 21
1465.4349246831539
 31
0.0
  0
LINE
  5
19E
  8
DATA
  6
CONTINUOUS
 62
     7
 10
1692.9999999999991
 20
1499.558578316485
 30
0.0
 11
1707.0
 21
1499.558578316485
 31
0.0
  0
LINE
  5
19F
  8
DATA
  6
CONTINUOUS
 62
     7
 10
1693.0
 20
1499.558578316485
 30
0.0
 11
1693.0
 21
1498.561696368223
 31
0.0
  0
LINE
  5
1A0
  8
DATA
  6
CONTINUOUS
 62
     7
 10
1707.000000000136
 20
1498.561696368223
 30
0.0
 11
1707.0
 21
1499.558578316485
 31
0.0
  0
CIRCLE
  5
1A1
  8
DATA
  6
CONTINUOUS
 62
     7
 10
1668.9092404098881
 20
1482.1393652811821
 30
0.0
 40
5.0
  0
CIRCLE
  5
1A2
  8
DATA
  6
CONTINUOUS
 62
     7
 10
1730.909240409889
 20
1482.7369571915519
 30
0.0
 40
5.0
  0
LINE
  5
1A3
  8
DATA
  6
CONTINUOUS
 62
     7
 10
1646.0
 20
1477.1558568304019
 30
0.0
 11
1754.0
 21
1477.1558568304019
 31
0.0
  0
LINE
  5
1A4
  8
DATA
  6
CONTINUOUS
 62
     7
 10
1660.4092404097401
 20
1450.071250309755
 30
0.0
 11
1669.4092404097401
 21
1450.071250309755
 31
0.0
  0
LINE
  5
1A5
  8
DATA
  6
CONTINUOUS
 62
     7
 10
1664.9092404097401
 20
1445.8426678097551
 30
0.0
 11
1664.9092404097401
 21
1454.299832809754
 31
0.0
  0
ARC
  5
1A6
  8
DATA
  6
CONTINUOUS
 62
     7
 10
1664.493918451989
 20
1450.071250309755
 30
0.0
 40
6.684678042250102
 50
86.437894021761579
 51
273.56210597823849
  0
ARC
  5
1A7
  8
DATA
  6
CONTINUOUS
 62
     7
 10
1665.3245623674909
 20
1450.071250309755
 30
0.0
 40
6.6846780422500398
 50
266.43789402175429
 51
93.562105978231088
  0
LINE
  5
1A8
  8
DATA
  6
CONTINUOUS
 62
     7
 10
1730.409240409741
 20
1450.071250309755
 30
0.0
 11
1739.409240409741
 21
1450.071250309755
 31
0.0
  0
LINE
  5
1A9
  8
DATA
  6
CONTINUOUS
 62
     7
 10
1734.9092404097401
 20
1445.8426678097551
 30
0.0
 11
1734.9092404097401
 21
1454.299832809754
 31
0.0
  0
ARC
  5
1AA
  8
DATA
  6
CONTINUOUS
 62
     7
 10
1734.493918451989
 20
1450.071250309755
 30
0.0
 40
6.6846780422501046
 50
86.43789402176111
 51
273.56210597823889
  0
ARC
  5
1AB
  8
DATA
  6
CONTINUOUS
 62
     7
 10
1735.3245623674909
 20
1450.071250309755
 30
0.0
 40
6.6846780422500398
 50
266.43789402175429
 51
93.562105978231088
  0
ARC
  5
1AC
  8
DATA
  6
CONTINUOUS
 62
     7
 10
687.23661729162632
 20
1920.065449377166
 30
0.0
 40
19.488920537539212
 50
10.468940502613361
 51
29.312304216749752
  0
LINE
  5
1AD
  8
DATA
  6
CONTINUOUS
 62
     7
 10
552.50000000015041
 20
1800.000000000005
 30
0.0
 11
847.49999999998431
 21
1800.000000000005
 31
0.0
  0
LINE
  5
1AE
  8
DATA
  6
CONTINUOUS
 62
     7
 10
528.4999999999992
 20
1830.183885531816
 30
0.0
 11
871.4999999999992
 21
1830.183885531816
 31
0.0
  0
LINE
  5
1AF
  8
DATA
  6
CONTINUOUS
 62
     7
 10
528.4999999999992
 20
1130.0
 30
0.0
 11
528.4999999999992
 21
1470.6539514672811
 31
0.0
  0
LINE
  5
1B0
  8
DATA
  6
CONTINUOUS
 62
     7
 10
569.66953782458586
 20
2035.3930627412331
 30
0.0
 11
558.18024915683009
 21
1873.8920764934981
 31
0.0
  0
ARC
  5
1B1
  8
DATA
  6
CONTINUOUS
 62
     7
 10
552.50000000015041
 20
1820.000000000005
 30
0.0
 40
20.000000000001421
 50
192.53588006977509
 51
270.0
  0
LINE
  5
1B2
  8
DATA
  6
CONTINUOUS
 62
     7
 10
528.4999999999992
 20
1830.183885531816
 30
0.0
 11
532.97679448567203
 21
1815.6589809445859
 31
0.0
  0
ARC
  5
1B3
  8
DATA
  6
CONTINUOUS
 62
     7
 10
700.00000000003433
 20
1835.2646624188301
 30
0.0
 40
8.5000000000687663
 50
61.927513064536697
 51
118.0724869358627
  0
LINE
  5
1B4
  8
DATA
  6
CONTINUOUS
 62
     7
 10
696.0
 20
1842.7646624188901
 30
0.0
 11
704.0
 21
1842.764662418891
 31
0.0
  0
LINE
  5
1B5
  8
DATA
  6
CONTINUOUS
 62
     7
 10
704.0
 20
1840.764662418891
 30
0.0
 11
704.0
 21
1842.764662418891
 31
0.0
  0
LINE
  5
1B6
  8
DATA
  6
CONTINUOUS
 62
     7
 10
696.0
 20
1840.764662418891
 30
0.0
 11
696.0
 21
1842.764662418891
 31
0.0
  0
LINE
  5
1B7
  8
DATA
  6
CONTINUOUS
 62
     7
 10
692.99999999999966
 20
1840.7646624188901
 30
0.0
 11
707.00000000000011
 21
1840.764662418891
 31
0.0
  0
LINE
  5
1B8
  8
DATA
  6
CONTINUOUS
 62
     7
 10
692.99999999999966
 20
1840.7646624188901
 30
0.0
 11
693.00635560651995
 21
1917.6066346805801
 31
0.0
  0
LINE
  5
1B9
  8
DATA
  6
CONTINUOUS
 62
     7
 10
707.00000000000011
 20
1840.7646624188901
 30
0.0
 11
706.99901155648331
 21
1917.6066346805801
 31
0.0
  0
LINE
  5
1BA
  8
DATA
  6
CONTINUOUS
 62
     7
 10
528.98761120209281
 20
1849.415614333805
 30
0.0
 11
528.4999999999992
 21
1830.183885531816
 31
0.0
  0
LINE
  5
1BB
  8
DATA
  6
CONTINUOUS
 62
     7
 10
683.0
 20
1952.3145467031441
 30
0.0
 11
683.0
 21
1967.1045943720289
 31
0.0
  0
LINE
  5
1BC
  8
DATA
  6
CONTINUOUS
 62
     7
 10
717.0
 20
1952.3145467031441
 30
0.0
 11
717.0
 21
1967.1045943720289
 31
0.0
  0
LINE
  5
1BD
  8
DATA
  6
CONTINUOUS
 62
     7
 10
695.500007262694
 20
1976.056983760101
 30
0.0
 11
695.500007262694
 21
1967.129903862635
 31
0.0
  0
LINE
  5
1BE
  8
DATA
  6
CONTINUOUS
 62
     7
 10
684.50000726269411
 20
1967.129903862635
 30
0.0
 11
684.50000726269411
 21
1976.056983760101
 31
0.0
  0
LINE
  5
1BF
  8
DATA
  6
CONTINUOUS
 62
     7
 10
871.4999999999992
 20
1130.0
 30
0.0
 11
871.4999999999992
 21
1470.6539514672811
 31
0.0
  0
LINE
  5
1C0
  8
DATA
  6
CONTINUOUS
 62
     7
 10
830.33046217554534
 20
2035.393062741229
 30
0.0
 11
841.81975084317173
 21
1873.892076493501
 31
0.0
  0
ARC
  5
1C1
  8
DATA
  6
CONTINUOUS
 62
     7
 10
847.49999999998431
 20
1820.000000000005
 30
0.0
 40
19.999999999999879
 50
270.0
 51
347.46411993022178
  0
LINE
  5
1C2
  8
DATA
  6
CONTINUOUS
 62
     7
 10
867.02320551445996
 20
1815.658980944585
 30
0.0
 11
871.4999999999992
 21
1830.183885531816
 31
0.0
  0
LINE
  5
1C3
  8
DATA
  6
CONTINUOUS
 62
     7
 10
871.01238879790685
 20
1849.415614333805
 30
0.0
 11
871.4999999999992
 21
1830.183885531816
 31
0.0
  0
ARC
  5
1C4
  8
DATA
  6
CONTINUOUS
 62
     7
 10
558.50000000000068
 20
1442.384236989493
 30
0.0
 40
30.0
 50
90.0
 51
180.0
  0
ARC
  5
1C5
  8
DATA
  6
CONTINUOUS
 62
     7
 10
558.50000000000068
 20
1470.6539514672811
 30
0.0
 40
29.999999999999549
 50
90.0
 51
180.0
  0
ARC
  5
1C6
  8
DATA
  6
CONTINUOUS
 62
     7
 10
841.49999999999932
 20
1442.384236989493
 30
0.0
 40
29.999999999999769
 50
0.0
 51
90.0
  0
ARC
  5
1C7
  8
DATA
  6
CONTINUOUS
 62
     7
 10
841.49999999999932
 20
1470.6539514672811
 30
0.0
 40
29.999999999999769
 50
0.0
 51
90.0
  0
ARC
  5
1C8
  8
DATA
  6
CONTINUOUS
 62
     7
 10
841.49999999999932
 20
1130.0
 30
0.0
 40
30.000000000000451
 50
270.0
 51
0.0
  0
ARC
  5
1C9
  8
DATA
  6
CONTINUOUS
 62
     7
 10
558.50000000000068
 20
1130.0
 30
0.0
 40
30.000000000001592
 50
180.0
 51
270.0
  0
ARC
  5
1CA
  8
DATA
  6
CONTINUOUS
 62
     7
 10
699.29029965037921
 20
1927.116402639117
 30
0.0
 40
5.5321278855155827
 50
26.752666501944461
 51
82.601355409825985
  0
ARC
  5
1CB
  8
DATA
  6
CONTINUOUS
 62
     7
 10
667.63668463573197
 20
1916.7140011863339
 30
0.0
 40
39.372446903528413
 50
1.29909411885815
 51
10.082287123712049
  0
ARC
  5
1CC
  8
DATA
  6
CONTINUOUS
 62
     7
 10
712.76874987137694
 20
1920.065449377166
 30
0.0
 40
19.488920537539169
 50
150.68769578325029
 51
169.53105949738659
  0
ARC
  5
1CD
  8
DATA
  6
CONTINUOUS
 62
     7
 10
700.71506751262393
 20
1927.116402639117
 30
0.0
 40
5.5321278855155791
 50
97.398644590174044
 51
153.2473334980555
  0
ARC
  5
1CE
  8
DATA
  6
CONTINUOUS
 62
     7
 10
732.36868252727083
 20
1916.7140011863339
 30
0.0
 40
39.372446903527937
 50
169.91771287628779
 51
178.70090588114181
  0
ARC
  5
1CF
  8
DATA
  6
CONTINUOUS
 62
     7
 10
700.73141991366845
 20
1123.8346353229811
 30
0.0
 40
0.3187831148184466
 50
307.64190249757769
 51
354.26701928938797
  0
LINE
  5
1D0
  8
DATA
  6
CONTINUOUS
 62
     7
 10
692.54308855009515
 20
1128.8581412777751
 30
0.0
 11
694.03754855009515
 21
1132.4190212777751
 31
0.0
  0
LINE
  5
1D1
  8
DATA
  6
CONTINUOUS
 62
     7
 10
692.54308855009515
 20
1128.8581412777751
 30
0.0
 11
691.0670685500952
 21
1132.4190212777751
 31
0.0
  0
LINE
  5
1D2
  8
DATA
  6
CONTINUOUS
 62
     7
 10
703.87148855009525
 20
1122.4190212777751
 30
0.0
 11
703.87148855009525
 21
1132.4190212777751
 31
0.0
  0
LINE
  5
1D3
  8
DATA
  6
CONTINUOUS
 62
     7
 10
705.79030855009523
 20
1132.4190212777751
 30
0.0
 11
705.79030855009523
 21
1123.950381277775
 31
0.0
  0
LINE
  5
1D4
  8
DATA
  6
CONTINUOUS
 62
     7
 10
694.73865855009524
 20
1132.4190212777751
 30
0.0
 11
694.73865855009524
 21
1123.950381277775
 31
0.0
  0
LINE
  5
1D5
  8
DATA
  6
CONTINUOUS
 62
     7
 10
696.58367855009521
 20
1132.4190212777751
 30
0.0
 11
696.58367855009521
 21
1123.950381277775
 31
0.0
  0
LINE
  5
1D6
  8
DATA
  6
CONTINUOUS
 62
     7
 10
697.54308855009515
 20
1132.4190212777751
 30
0.0
 11
697.54308855009515
 21
1122.4190212777751
 31
0.0
  0
LINE
  5
1D7
  8
DATA
  6
CONTINUOUS
 62
     7
 10
699.2220585500952
 20
1131.4780712777749
 30
0.0
 11
699.2220585500952
 21
1128.2677312777751
 31
0.0
  0
LINE
  5
1D8
  8
DATA
  6
CONTINUOUS
 62
     7
 10
702.82063855009517
 20
1128.4534912777749
 30
0.0
 11
702.82063855009517
 21
1130.795401277775
 31
0.0
  0
LINE
  5
1D9
  8
DATA
  6
CONTINUOUS
 62
     7
 10
701.0486085500952
 20
1131.0352612777749
 30
0.0
 11
701.0486085500952
 21
1128.7105312777751
 31
0.0
  0
ARC
  5
1DA
  8
DATA
  6
CONTINUOUS
 62
     7
 10
694.36841855009516
 20
1124.9868212777751
 30
0.0
 40
2.5788534251676989
 50
264.69085622153318
 51
323.99119915424359
  0
LINE
  5
1DB
  8
DATA
  6
CONTINUOUS
 62
     7
 10
693.33644855009516
 20
1125.555561277775
 30
0.0
 11
693.33644855009516
 21
1123.950401277775
 31
0.0
  0
LINE
  5
1DC
  8
DATA
  6
CONTINUOUS
 62
     7
 10
693.33644855009516
 20
1125.555561277775
 30
0.0
 11
691.67592855009525
 21
1125.555561277775
 31
0.0
  0
LINE
  5
1DD
  8
DATA
  6
CONTINUOUS
 62
     7
 10
691.67592855009525
 20
1125.555561277775
 30
0.0
 11
691.67592855009525
 21
1123.950401277775
 31
0.0
  0
ARC
  5
1DE
  8
DATA
  6
CONTINUOUS
 62
     7
 10
694.04106855009525
 20
1123.928761277775
 30
0.0
 40
0.6979288262424001
 50
269.71184879275029
 51
1.7759870056818841
  0
ARC
  5
1DF
  8
DATA
  6
CONTINUOUS
 62
     7
 10
694.03403855009515
 20
1123.928761277775
 30
0.0
 40
0.6979252574595547
 50
178.22401299431701
 51
270.28815120724312
  0
ARC
  5
1E0
  8
DATA
  6
CONTINUOUS
 62
     7
 10
693.89118855009508
 20
1124.9868212777751
 30
0.0
 40
2.5788492369465641
 50
216.00880084575761
 51
275.30914377846682
  0
ARC
  5
1E1
  8
DATA
  6
CONTINUOUS
 62
     7
 10
692.84136855009524
 20
1124.006931277775
 30
0.0
 40
1.1668002081762081
 50
182.7769954499968
 51
207.3596066671515
  0
CIRCLE
  5
1E2
  8
DATA
  6
CONTINUOUS
 62
     7
 10
692.64456855009519
 20
1127.4743712777749
 30
0.0
 40
0.9501800000000457
  0
LINE
  5
1E3
  8
DATA
  6
CONTINUOUS
 62
     7
 10
708.87148855009525
 20
1122.419031277775
 30
0.0
 11
703.87148855009525
 21
1122.419031277775
 31
0.0
  0
LINE
  5
1E4
  8
DATA
  6
CONTINUOUS
 62
     7
 10
708.87148855009525
 20
1122.419031277775
 30
0.0
 11
708.87148855009525
 21
1125.555571277775
 31
0.0
  0
LINE
  5
1E5
  8
DATA
  6
CONTINUOUS
 62
     7
 10
708.87148855009525
 20
1125.555561277775
 30
0.0
 11
707.19252855009518
 21
1125.555561277775
 31
0.0
  0
LINE
  5
1E6
  8
DATA
  6
CONTINUOUS
 62
     7
 10
707.19252855009518
 20
1125.555561277775
 30
0.0
 11
707.19252855009518
 21
1123.950401277775
 31
0.0
  0
LINE
  5
1E7
  8
DATA
  6
CONTINUOUS
 62
     7
 10
697.54308855009515
 20
1122.419031277775
 30
0.0
 11
701.0486085500952
 21
1122.419041277775
 31
0.0
  0
LINE
  5
1E8
  8
DATA
  6
CONTINUOUS
 62
     7
 10
699.22204855009511
 20
1123.359991277775
 30
0.0
 11
700.12610855009507
 21
1123.359991277775
 31
0.0
  0
LINE
  5
1E9
  8
DATA
  6
CONTINUOUS
 62
     7
 10
699.2220585500952
 20
1123.359991277775
 30
0.0
 11
699.2220585500952
 21
1127.3083312777751
 31
0.0
  0
LINE
  5
1EA
  8
DATA
  6
CONTINUOUS
 62
     7
 10
699.22204855009511
 20
1127.3083312777751
 30
0.0
 11
700.12610855009507
 21
1127.3083312777751
 31
0.0
  0
LINE
  5
1EB
  8
DATA
  6
CONTINUOUS
 62
     7
 10
701.0486085500952
 20
1123.802791277775
 30
0.0
 11
701.0486085500952
 21
1126.8655312777751
 31
0.0
  0
ARC
  5
1EC
  8
DATA
  6
CONTINUOUS
 62
     7
 10
695.41823855009523
 20
1124.006931277775
 30
0.0
 40
1.166798547865157
 50
332.64039333284478
 51
357.22300455000573
  0
ARC
  5
1ED
  8
DATA
  6
CONTINUOUS
 62
     7
 10
706.49492855009521
 20
1123.928761277775
 30
0.0
 40
0.6979288262424001
 50
269.71184879275029
 51
1.7759870056818841
  0
ARC
  5
1EE
  8
DATA
  6
CONTINUOUS
 62
     7
 10
706.4879085500952
 20
1123.928761277775
 30
0.0
 40
0.6979252574595547
 50
178.22401299431701
 51
270.28815120725238
  0
LINE
  5
1EF
  8
DATA
  6
CONTINUOUS
 62
     7
 10
702.81982855009505
 20
1124.0242012777751
 30
0.0
 11
702.81982855009505
 21
1126.681021277775
 31
0.0
  0
LINE
  5
1F0
  8
DATA
  6
CONTINUOUS
 62
     7
 10
699.22204855009511
 20
1128.2677312777751
 30
0.0
 11
700.12610855009507
 21
1128.2677312777751
 31
0.0
  0
ARC
  5
1F1
  8
DATA
  6
CONTINUOUS
 62
     7
 10
700.92148855009521
 20
1124.3174012777749
 30
0.0
 40
1.9026114117180259
 50
273.83098160911482
 51
351.13514730980171
  0
LINE
  5
1F2
  8
DATA
  6
CONTINUOUS
 62
     7
 10
694.73865855009524
 20
1132.4190212777751
 30
0.0
 11
696.58367855009521
 21
1132.4190212777751
 31
0.0
  0
LINE
  5
1F3
  8
DATA
  6
CONTINUOUS
 62
     7
 10
691.0670685500952
 20
1132.4190212777751
 30
0.0
 11
694.03754855009515
 21
1132.4190212777751
 31
0.0
  0
LINE
  5
1F4
  8
DATA
  6
CONTINUOUS
 62
     7
 10
703.87148855009525
 20
1132.4190212777751
 30
0.0
 11
705.79030855009523
 21
1132.4190212777751
 31
0.0
  0
LINE
  5
1F5
  8
DATA
  6
CONTINUOUS
 62
     7
 10
697.54308855009515
 20
1132.4190212777751
 30
0.0
 11
701.06787867824187
 21
1132.4190131840339
 31
0.0
  0
LINE
  5
1F6
  8
DATA
  6
CONTINUOUS
 62
     7
 10
699.22204855009511
 20
1131.4780612777749
 30
0.0
 11
700.12610855009507
 21
1131.4780612777749
 31
0.0
  0
ARC
  5
1F7
  8
DATA
  6
CONTINUOUS
 62
     7
 10
700.94045855009506
 20
1130.5235612777749
 30
0.0
 40
1.8997299329115289
 50
8.2269238590191414
 51
86.154126692155344
  0
ARC
  5
1F8
  8
DATA
  6
CONTINUOUS
 62
     7
 10
700.1367840126984
 20
1125.113679238362
 30
0.0
 40
1.7537204533818349
 50
269.65121993761392
 51
282.8264828068717
  0
ARC
  5
1F9
  8
DATA
  6
CONTINUOUS
 62
     7
 10
700.33375457756199
 20
1124.3722409665479
 30
0.0
 40
0.9874379036933291
 50
281.23310362266199
 51
306.86200889406479
  0
ARC
  5
1FA
  8
DATA
  6
CONTINUOUS
 62
     7
 10
700.73141991366845
 20
1126.833687232569
 30
0.0
 40
0.3187831148183949
 50
5.732980710571284
 51
52.358097502422339
  0
ARC
  5
1FB
  8
DATA
  6
CONTINUOUS
 62
     7
 10
700.1367840126984
 20
1125.554643317188
 30
0.0
 40
1.7537204533816291
 50
77.173517193126656
 51
90.348780062386126
  0
ARC
  5
1FC
  8
DATA
  6
CONTINUOUS
 62
     7
 10
700.33375457756199
 20
1126.2960815890019
 30
0.0
 40
0.9874379036932557
 50
53.1379911059352
 51
78.766896377338114
  0
ARC
  5
1FD
  8
DATA
  6
CONTINUOUS
 62
     7
 10
701.85214855009519
 20
1126.6156112777751
 30
0.0
 40
0.9698881639138548
 50
3.8670063598308371
 51
88.361634567897383
  0
ARC
  5
1FE
  8
DATA
  6
CONTINUOUS
 62
     7
 10
701.85125855009517
 20
1128.5555312777749
 30
0.0
 40
0.9708519399474397
 50
271.68928210464469
 51
356.07828298266418
  0
ARC
  5
1FF
  8
DATA
  6
CONTINUOUS
 62
     7
 10
700.73141991366845
 20
1128.7423753229809
 30
0.0
 40
0.3187831148184466
 50
307.64190249757769
 51
354.26701928938797
  0
ARC
  5
200
  8
DATA
  6
CONTINUOUS
 62
     7
 10
700.1367840126984
 20
1130.0214192383619
 30
0.0
 40
1.7537204533818349
 50
269.65121993761392
 51
282.8264828068717
  0
ARC
  5
201
  8
DATA
  6
CONTINUOUS
 62
     7
 10
700.33375457756199
 20
1129.279980966548
 30
0.0
 40
0.9874379036931062
 50
281.2331036226646
 51
306.86200889407269
  0
ARC
  5
202
  8
DATA
  6
CONTINUOUS
 62
     7
 10
700.73141991366845
 20
1131.0034172325691
 30
0.0
 40
0.3187831148184176
 50
5.7329807106119457
 51
52.358097502422339
  0
ARC
  5
203
  8
DATA
  6
CONTINUOUS
 62
     7
 10
700.1367840126984
 20
1129.7243733171881
 30
0.0
 40
1.7537204533818509
 50
77.173517193128305
 51
90.348780062386055
  0
ARC
  5
204
  8
DATA
  6
CONTINUOUS
 62
     7
 10
700.33375457756199
 20
1130.465811589002
 30
0.0
 40
0.9874379036932557
 50
53.1379911059352
 51
78.766896377338114
  0
POLYLINE
  5
205
  8
DATA
  6
CONTINUOUS
 62
     7
 66
     1
 10
0.0
 20
0.0
 30
0.0
 70
     1
  0
VERTEX
  5
4B1
  8
DATA
  6
CONTINUOUS
 62
     7
 10
685.50000000000011
 20
1139.0000000000009
 30
0.0
  0
VERTEX
  5
4B2
  8
DATA
  6
CONTINUOUS
 62
     7
 10
714.50000000000011
 20
1139.0000000000009
 30
0.0
  0
VERTEX
  5
4B3
  8
DATA
  6
CONTINUOUS
 62
     7
 10
714.50000000000011
 20
1115.0
 30
0.0
  0
VERTEX
  5
4B4
  8
DATA
  6
CONTINUOUS
 62
     7
 10
685.50000000000011
 20
1115.0
 30
0.0
  0
SEQEND
  5
4B5
  8
DATA
  6
CONTINUOUS
 62
     7
  0
LINE
  5
20C
  8
DATA
  6
CONTINUOUS
 62
     7
 10
649.0
 20
1948.758719597118
 30
0.0
 11
751.0
 21
1948.758719597118
 31
0.0
  0
LINE
  5
20D
  8
DATA
  6
CONTINUOUS
 62
     7
 10
649.0
 20
1948.758719597118
 30
0.0
 11
649.0
 21
2040.0382560861981
 31
0.0
  0
LINE
  5
20E
  8
DATA
  6
CONTINUOUS
 62
     7
 10
751.0
 20
1948.758719597118
 30
0.0
 11
751.0
 21
2040.0382560861981
 31
0.0
  0
ARC
  5
20F
  8
DATA
  6
CONTINUOUS
 62
     7
 10
788.23661729162632
 20
1920.065449377166
 30
0.0
 40
19.488920537539212
 50
10.468940502613361
 51
29.312304216749752
  0
ARC
  5
210
  8
DATA
  6
CONTINUOUS
 62
     7
 10
801.00000000003422
 20
1835.2646624188301
 30
0.0
 40
8.5000000000687663
 50
61.927513064536697
 51
118.0724869358627
  0
LINE
  5
211
  8
DATA
  6
CONTINUOUS
 62
     7
 10
797.00000000000011
 20
1842.7646624188901
 30
0.0
 11
805.0
 21
1842.764662418891
 31
0.0
  0
LINE
  5
212
  8
DATA
  6
CONTINUOUS
 62
     7
 10
805.0
 20
1840.764662418891
 30
0.0
 11
805.0
 21
1842.764662418891
 31
0.0
  0
LINE
  5
213
  8
DATA
  6
CONTINUOUS
 62
     7
 10
797.00000000000011
 20
1840.764662418891
 30
0.0
 11
797.00000000000011
 21
1842.764662418891
 31
0.0
  0
LINE
  5
214
  8
DATA
  6
CONTINUOUS
 62
     7
 10
793.99999999999955
 20
1840.7646624188901
 30
0.0
 11
808.00000000000011
 21
1840.764662418891
 31
0.0
  0
LINE
  5
215
  8
DATA
  6
CONTINUOUS
 62
     7
 10
793.99999999999955
 20
1840.7646624188901
 30
0.0
 11
794.00635560651995
 21
1917.6066346805801
 31
0.0
  0
LINE
  5
216
  8
DATA
  6
CONTINUOUS
 62
     7
 10
808.00000000000011
 20
1840.7646624188901
 30
0.0
 11
807.9990115564832
 21
1917.6066346805801
 31
0.0
  0
ARC
  5
217
  8
DATA
  6
CONTINUOUS
 62
     7
 10
800.29029965037932
 20
1927.116402639117
 30
0.0
 40
5.5321278855155827
 50
26.752666501944461
 51
82.601355409825985
  0
ARC
  5
218
  8
DATA
  6
CONTINUOUS
 62
     7
 10
768.63668463573185
 20
1916.7140011863339
 30
0.0
 40
39.372446903528413
 50
1.29909411885815
 51
10.082287123712049
  0
ARC
  5
219
  8
DATA
  6
CONTINUOUS
 62
     7
 10
813.76874987137705
 20
1920.065449377166
 30
0.0
 40
19.488920537539169
 50
150.68769578325029
 51
169.53105949738659
  0
ARC
  5
21A
  8
DATA
  6
CONTINUOUS
 62
     7
 10
801.71506751262405
 20
1927.116402639117
 30
0.0
 40
5.5321278855155791
 50
97.398644590174044
 51
153.2473334980555
  0
ARC
  5
21B
  8
DATA
  6
CONTINUOUS
 62
     7
 10
833.36868252727083
 20
1916.7140011863339
 30
0.0
 40
39.372446903527937
 50
169.91771287628779
 51
178.70090588114181
  0
ARC
  5
21C
  8
DATA
  6
CONTINUOUS
 62
     7
 10
586.23661729162632
 20
1920.065449377166
 30
0.0
 40
19.488920537539212
 50
10.468940502613361
 51
29.312304216749752
  0
ARC
  5
21D
  8
DATA
  6
CONTINUOUS
 62
     7
 10
599.00000000003445
 20
1835.2646624188301
 30
0.0
 40
8.5000000000687663
 50
61.927513064536697
 51
118.0724869358627
  0
LINE
  5
21E
  8
DATA
  6
CONTINUOUS
 62
     7
 10
595.00000000000011
 20
1842.7646624188901
 30
0.0
 11
603.00000000000011
 21
1842.764662418891
 31
0.0
  0
LINE
  5
21F
  8
DATA
  6
CONTINUOUS
 62
     7
 10
603.00000000000011
 20
1840.764662418891
 30
0.0
 11
603.00000000000011
 21
1842.764662418891
 31
0.0
  0
LINE
  5
220
  8
DATA
  6
CONTINUOUS
 62
     7
 10
595.00000000000011
 20
1840.764662418891
 30
0.0
 11
595.00000000000011
 21
1842.764662418891
 31
0.0
  0
LINE
  5
221
  8
DATA
  6
CONTINUOUS
 62
     7
 10
591.99999999999977
 20
1840.7646624188901
 30
0.0
 11
606.00000000000011
 21
1840.764662418891
 31
0.0
  0
LINE
  5
222
  8
DATA
  6
CONTINUOUS
 62
     7
 10
591.99999999999977
 20
1840.7646624188901
 30
0.0
 11
592.00635560651983
 21
1917.6066346805801
 31
0.0
  0
LINE
  5
223
  8
DATA
  6
CONTINUOUS
 62
     7
 10
606.00000000000011
 20
1840.7646624188901
 30
0.0
 11
605.99901155648342
 21
1917.6066346805801
 31
0.0
  0
ARC
  5
224
  8
DATA
  6
CONTINUOUS
 62
     7
 10
598.29029965037921
 20
1927.116402639117
 30
0.0
 40
5.5321278855155827
 50
26.752666501944461
 51
82.601355409825985
  0
ARC
  5
225
  8
DATA
  6
CONTINUOUS
 62
     7
 10
566.63668463573185
 20
1916.7140011863339
 30
0.0
 40
39.372446903528413
 50
1.29909411885815
 51
10.082287123712049
  0
ARC
  5
226
  8
DATA
  6
CONTINUOUS
 62
     7
 10
611.76874987137705
 20
1920.065449377166
 30
0.0
 40
19.488920537539169
 50
150.68769578325029
 51
169.53105949738659
  0
ARC
  5
227
  8
DATA
  6
CONTINUOUS
 62
     7
 10
599.71506751262393
 20
1927.116402639117
 30
0.0
 40
5.5321278855155791
 50
97.398644590174044
 51
153.2473334980555
  0
ARC
  5
228
  8
DATA
  6
CONTINUOUS
 62
     7
 10
631.36868252727072
 20
1916.7140011863339
 30
0.0
 40
39.372446903527937
 50
169.91771287628779
 51
178.70090588114181
  0
LINE
  5
229
  8
DATA
  6
CONTINUOUS
 62
     7
 10
825.34306683954594
 20
2040.0382560861981
 30
0.0
 11
574.65693316058457
 21
2040.0382560861981
 31
0.0
  0
LINE
  5
22A
  8
DATA
  6
CONTINUOUS
 62
     7
 10
1067.901100628831
 20
1488.570889711282
 30
0.0
 11
1207.2743090340409
 21
1105.6461467410249
 31
0.0
  0
LINE
  5
22B
  8
DATA
  6
CONTINUOUS
 62
     7
 10
1160.775100422632
 20
1116.449496416858
 30
0.0
 11
1039.224899577368
 21
1450.405928569395
 31
0.0
  0
LINE
  5
22C
  8
DATA
  6
CONTINUOUS
 62
     7
 10
1067.901100628831
 20
1488.570889711282
 30
0.0
 11
1052.622963946277
 21
1481.827944863895
 31
0.0
  0
LINE
  5
22D
  8
DATA
  6
CONTINUOUS
 62
     7
 10
1207.2743090340409
 20
1105.6461467410249
 30
0.0
 11
1191.236295926459
 21
1100.99094521298
 31
0.0
  0
ARC
  5
22E
  8
DATA
  6
CONTINUOUS
 62
     7
 10
1062.717215097015
 20
1458.956432152537
 30
0.0
 40
24.999999999999929
 50
113.81407483429069
 51
200.00000000000011
  0
ARC
  5
22F
  8
DATA
  6
CONTINUOUS
 62
     7
 10
1184.2674159422791
 20
1125.0
 30
0.0
 40
25.000000000000028
 50
200.00000000000011
 51
286.18592516570982
  0
LINE
  5
230
  8
DATA
  6
CONTINUOUS
 62
     7
 10
1214.9460757021391
 20
1150.35374005677
 30
0.0
 11
1099.1876548226189
 21
1468.3973875349179
 31
0.0
  0
LINE
  5
231
  8
DATA
  6
CONTINUOUS
 62
     7
 10
1241.6110969571639
 20
1134.106382072491
 30
0.0
 11
1109.170645778263
 21
1497.983531108903
 31
0.0
  0
LINE
  5
232
  8
DATA
  6
STYLE_11
 62
     7
 10
1221.040720967269
 20
1477.1558568304019
 30
0.0
 11
1277.755471183214
 21
1321.3333612620861
 31
0.0
  0
LINE
  5
233
  8
DATA
  6
STYLE_11
 62
     7
 10
1194.739117427815
 20
1489.480928447158
 30
0.0
 11
1202.256658394102
 21
1492.2170895937629
 31
0.0
  0
LINE
  5
234
  8
DATA
  6
STYLE_11
 62
     7
 10
1202.307277375314
 20
1492.078015085887
 30
0.0
 11
1207.3869605439861
 21
1478.1217002819751
 31
0.0
  0
LINE
  5
235
  8
DATA
  6
STYLE_11
 62
     7
 10
1199.8694195776991
 20
1475.38553913537
 30
0.0
 11
1207.3869605439861
 21
1478.1217002819751
 31
0.0
  0
LINE
  5
236
  8
DATA
  6
STYLE_11
 62
     7
 10
1204.220082030221
 20
1486.8226274887049
 30
0.0
 11
1213.1471619276861
 21
1490.071818850299
 31
0.0
  0
LINE
  5
237
  8
DATA
  6
STYLE_11
 62
     7
 10
1205.474155889081
 20
1483.3770878791561
 30
0.0
 11
1214.401235786547
 21
1486.626279240751
 31
0.0
  0
LINE
  5
238
  8
DATA
  6
STYLE_11
 62
     7
 10
1202.9660081713589
 20
1490.268167098254
 30
0.0
 11
1211.8930880688249
 21
1493.5173584598481
 31
0.0
  0
LINE
  5
239
  8
DATA
  6
STYLE_11
 62
     7
 10
1215.6553096454079
 20
1483.180739631202
 30
0.0
 11
1206.728229747941
 21
1479.9315482696079
 31
0.0
  0
LINE
  5
23A
  8
DATA
  6
STYLE_11
 62
     7
 10
1190.0317618001591
 20
1487.79525973867
 30
0.0
 11
1194.7302249040879
 21
1489.5053604552979
 31
0.0
  0
LINE
  5
23B
  8
DATA
  6
STYLE_11
 62
     7
 10
1195.2304679787089
 20
1473.5119319027251
 30
0.0
 11
1199.928931082638
 21
1475.2220326193531
 31
0.0
  0
LINE
  5
23C
  8
DATA
  6
STYLE_11
 62
     7
 10
1194.7302249040879
 20
1489.5053604552979
 30
0.0
 11
1199.928931082638
 21
1475.2220326193519
 31
0.0
  0
LINE
  5
23D
  8
DATA
  6
STYLE_11
 62
     7
 10
1186.475934694133
 20
1497.5648144199599
 30
0.0
 11
1197.0785591372289
 21
1468.434343175597
 31
0.0
  0
LINE
  5
23E
  8
DATA
  6
STYLE_11
 62
     7
 10
1197.0785591372289
 20
1468.434343175597
 30
0.0
 11
1221.040720967269
 21
1477.1558568304019
 31
0.0
  0
ARC
  5
23F
  8
DATA
  6
CONTINUOUS
 62
     7
 10
1247.755471183214
 20
1447.61474984817
 30
0.0
 40
29.99999999999995
 50
0.0
 51
72.883584450917283
  0
ARC
  5
240
  8
DATA
  6
CONTINUOUS
 62
     7
 10
1146.4241940867021
 20
1239.4669810183659
 30
0.0
 40
261.18697044891422
 50
65.053645170479186
 51
107.4960108637497
  0
LINE
  5
241
  8
DATA
  6
CONTINUOUS
 62
     7
 10
1277.755471183214
 20
1183.4007172073091
 30
0.0
 11
1277.755471183214
 21
1447.61474984817
 31
0.0
  0
ARC
  5
242
  8
DATA
  6
CONTINUOUS
 62
     7
 10
1019.397140830645
 20
1367.260233676026
 30
0.0
 40
322.08657347825249
 50
305.68387471552359
 51
321.76595697994293
  0
ARC
  5
243
  8
DATA
  6
CONTINUOUS
 62
     7
 10
1252.755471183214
 20
1183.4007172073091
 30
0.0
 40
25.000000000000529
 50
321.76595697994321
 51
0.0
  0
ARC
  5
244
  8
DATA
  6
CONTINUOUS
 62
     7
 10
1200.223839814237
 20
1176.67693760923
 30
0.0
 40
10.831400078895999
 50
19.769758506437359
 51
39.501417734886807
  0
ARC
  5
245
  8
DATA
  6
CONTINUOUS
 62
     7
 10
1204.5741741800459
 20
1180.201594765382
 30
0.0
 40
5.232834972242383
 50
40.02238477815402
 51
59.499179362019362
  0
ARC
  5
246
  8
DATA
  6
CONTINUOUS
 62
     7
 10
1206.124265226546
 20
1182.9992214428021
 30
0.0
 40
2.0373354589425321
 50
57.126475033490891
 51
106.49995410247909
  0
ARC
  5
247
  8
DATA
  6
CONTINUOUS
 62
     7
 10
1200.2536130523381
 20
1176.5951363098441
 30
0.0
 40
10.83140007889607
 50
0.498582265113121
 51
20.230241493563909
  0
ARC
  5
248
  8
DATA
  6
CONTINUOUS
 62
     7
 10
1205.8517684673441
 20
1176.6914333098091
 30
0.0
 40
5.2328349722423209
 50
340.50082063798232
 51
359.97761522184692
  0
ARC
  5
249
  8
DATA
  6
CONTINUOUS
 62
     7
 10
1208.8374868646169
 20
1175.5447062582271
 30
0.0
 40
2.0373354589424522
 50
293.5000458975224
 51
342.87352496651181
  0
ARC
  5
24A
  8
DATA
  6
CONTINUOUS
 62
     7
 10
1214.9418931850159
 20
1182.033870942535
 30
0.0
 40
10.831400078896021
 50
180.4985822651131
 51
200.2302414935626
  0
ARC
  5
24B
  8
DATA
  6
CONTINUOUS
 62
     7
 10
1209.34373777001
 20
1181.9375739425691
 30
0.0
 40
5.2328349722424496
 50
160.50082063798021
 51
179.9776152218445
  0
ARC
  5
24C
  8
DATA
  6
CONTINUOUS
 62
     7
 10
1206.358019372738
 20
1183.084300994152
 30
0.0
 40
2.0373354589427501
 50
113.5000458975256
 51
162.87352496651309
  0
ARC
  5
24D
  8
DATA
  6
CONTINUOUS
 62
     7
 10
1214.9716664231171
 20
1181.9520696431489
 30
0.0
 40
10.83140007889603
 50
199.76975850643601
 51
219.50141773488701
  0
ARC
  5
24E
  8
DATA
  6
CONTINUOUS
 62
     7
 10
1210.6213320573081
 20
1178.427412486996
 30
0.0
 40
5.2328349722422356
 50
220.0223847781522
 51
239.4991793620176
  0
ARC
  5
24F
  8
DATA
  6
CONTINUOUS
 62
     7
 10
1209.0712410108081
 20
1175.629785809577
 30
0.0
 40
2.037335458942624
 50
237.1264750334868
 51
286.49995410247482
  0
ARC
  5
250
  8
DATA
  6
CONTINUOUS
 62
     7
 10
1152.512029820306
 20
1307.7640582088641
 30
0.0
 40
10.831400078896049
 50
19.76975850643727
 51
39.501417734886807
  0
ARC
  5
251
  8
DATA
  6
CONTINUOUS
 62
     7
 10
1156.8623641861161
 20
1311.288715365017
 30
0.0
 40
5.23283497224228
 50
40.022384778151718
 51
59.499179362017031
  0
ARC
  5
252
  8
DATA
  6
CONTINUOUS
 62
     7
 10
1158.412455232615
 20
1314.0863420424359
 30
0.0
 40
2.0373354589425929
 50
57.126475033488198
 51
106.4999541024778
  0
ARC
  5
253
  8
DATA
  6
CONTINUOUS
 62
     7
 10
1152.5418030584069
 20
1307.6822569094779
 30
0.0
 40
10.83140007889607
 50
0.4985822651119183
 51
20.23024149356381
  0
ARC
  5
254
  8
DATA
  6
CONTINUOUS
 62
     7
 10
1158.1399584734129
 20
1307.778553909443
 30
0.0
 40
5.2328349722423209
 50
340.50082063798232
 51
359.97761522184692
  0
ARC
  5
255
  8
DATA
  6
CONTINUOUS
 62
     7
 10
1161.125676870686
 20
1306.6318268578609
 30
0.0
 40
2.0373354589424739
 50
293.50004589752388
 51
342.87352496650612
  0
ARC
  5
256
  8
DATA
  6
CONTINUOUS
 62
     7
 10
1167.230083191085
 20
1313.1209915421689
 30
0.0
 40
10.831400078896131
 50
180.4985822651131
 51
200.23024149356371
  0
ARC
  5
257
  8
DATA
  6
CONTINUOUS
 62
     7
 10
1161.6319277760799
 20
1313.0246945422041
 30
0.0
 40
5.2328349722422676
 50
160.50082063798209
 51
179.977615221847
  0
ARC
  5
258
  8
DATA
  6
CONTINUOUS
 62
     7
 10
1158.646209378807
 20
1314.1714215937859
 30
0.0
 40
2.0373354589424961
 50
113.5000458975252
 51
162.87352496651209
  0
ARC
  5
259
  8
DATA
  6
CONTINUOUS
 62
     7
 10
1167.2598564291859
 20
1313.039190242783
 30
0.0
 40
10.831400078896101
 50
199.76975850643711
 51
219.50141773488761
  0
ARC
  5
25A
  8
DATA
  6
CONTINUOUS
 62
     7
 10
1162.9095220633769
 20
1309.5145330866301
 30
0.0
 40
5.2328349722423244
 50
220.02238477815129
 51
239.4991793620176
  0
ARC
  5
25B
  8
DATA
  6
CONTINUOUS
 62
     7
 10
1161.359431016878
 20
1306.7169064092111
 30
0.0
 40
2.0373354589427528
 50
237.12647503349311
 51
286.49995410247789
  0
ARC
  5
25C
  8
DATA
  6
CONTINUOUS
 62
     7
 10
1104.800219826375
 20
1438.8511788084991
 30
0.0
 40
10.831400078896101
 50
19.76975850643716
 51
39.501417734887731
  0
ARC
  5
25D
  8
DATA
  6
CONTINUOUS
 62
     7
 10
1109.1505541921849
 20
1442.3758359646511
 30
0.0
 40
5.2328349722424701
 50
40.022384778153238
 51
59.499179362017209
  0
ARC
  5
25E
  8
DATA
  6
CONTINUOUS
 62
     7
 10
1110.700645238684
 20
1445.1734626420709
 30
0.0
 40
2.037335458942815
 50
57.126475033490323
 51
106.4999541024761
  0
ARC
  5
25F
  8
DATA
  6
CONTINUOUS
 62
     7
 10
1104.829993064476
 20
1438.769377509112
 30
0.0
 40
10.83140007889607
 50
0.498582265113121
 51
20.23024149356371
  0
ARC
  5
260
  8
DATA
  6
CONTINUOUS
 62
     7
 10
1110.4281484794819
 20
1438.865674509078
 30
0.0
 40
5.2328349722422436
 50
340.5008206379847
 51
359.97761522184692
  0
ARC
  5
261
  8
DATA
  6
CONTINUOUS
 62
     7
 10
1113.413866876755
 20
1437.718947457495
 30
0.0
 40
2.0373354589424739
 50
293.50004589752388
 51
342.87352496651778
  0
ARC
  5
262
  8
DATA
  6
CONTINUOUS
 62
     7
 10
1119.518273197154
 20
1444.2081121418039
 30
0.0
 40
10.83140007889601
 50
180.49858226511191
 51
200.2302414935638
  0
ARC
  5
263
  8
DATA
  6
CONTINUOUS
 62
     7
 10
1113.920117782149
 20
1444.111815141838
 30
0.0
 40
5.2328349722423431
 50
160.5008206379797
 51
179.9776152218445
  0
ARC
  5
264
  8
DATA
  6
CONTINUOUS
 62
     7
 10
1110.9343993848761
 20
1445.25854219342
 30
0.0
 40
2.0373354589426822
 50
113.5000458975212
 51
162.87352496650561
  0
ARC
  5
265
  8
DATA
  6
CONTINUOUS
 62
     7
 10
1119.5480464352549
 20
1444.1263108424171
 30
0.0
 40
10.831400078896049
 50
199.7697585064372
 51
219.50141773488701
  0
ARC
  5
266
  8
DATA
  6
CONTINUOUS
 62
     7
 10
1115.197712069446
 20
1440.6016536862639
 30
0.0
 40
5.23283497224228
 50
220.02238477815169
 51
239.4991793620151
  0
ARC
  5
267
  8
DATA
  6
CONTINUOUS
 62
     7
 10
1113.6476210229471
 20
1437.804027008845
 30
0.0
 40
2.0373354589424642
 50
237.126475033482
 51
286.49995410247618
  0
LINE
  5
268
  8
DATA
  6
CONTINUOUS
 62
     7
 10
558.50000000000068
 20
1500.6539514672811
 30
0.0
 11
841.49999999999932
 21
1500.6539514672811
 31
0.0
  0
LINE
  5
269
  8
DATA
  6
CONTINUOUS
 62
     7
 10
841.49999999999932
 20
1472.384236989493
 30
0.0
 11
558.50000000000068
 21
1472.384236989493
 31
0.0
  0
LINE
  5
26A
  8
DATA
  6
CONTINUOUS
 62
     7
 10
558.50000000000068
 20
1100.0
 30
0.0
 11
841.49999999999932
 21
1100.0
 31
0.0
  0
LINE
  5
26B
  8
DATA
  6
CONTINUOUS
 62
     7
 10
555.98198530246975
 20
1870.097094530046
 30
0.0
 11
531.19687336601964
 21
1853.4386710937511
 31
0.0
  0
LINE
  5
26C
  8
DATA
  6
CONTINUOUS
 62
     7
 10
844.01801469753218
 20
1870.0970945300451
 30
0.0
 11
868.80312663397979
 21
1853.4386710937511
 31
0.0
  0
LINE
  5
26D
  8
DATA
  6
CONTINUOUS
 62
     7
 10
670.0
 20
1948.758719597118
 30
0.0
 11
730.0
 21
1948.758719597118
 31
0.0
  0
LINE
  5
26E
  8
DATA
  6
CONTINUOUS
 62
     7
 10
665.5
 20
1953.3748091474531
 30
0.0
 11
665.5
 21
1963.3711333794929
 31
0.0
  0
LINE
  5
26F
  8
DATA
  6
CONTINUOUS
 62
     7
 10
674.5
 20
1953.3748091474531
 30
0.0
 11
665.5
 21
1953.3748091474531
 31
0.0
  0
LINE
  5
270
  8
DATA
  6
CONTINUOUS
 62
     7
 10
674.5
 20
1963.374809147452
 30
0.0
 11
674.5
 21
1953.3748091474531
 31
0.0
  0
LINE
  5
271
  8
DATA
  6
CONTINUOUS
 62
     7
 10
725.49999999999989
 20
1953.3748091474531
 30
0.0
 11
725.49999999999989
 21
1963.374809147452
 31
0.0
  0
LINE
  5
272
  8
DATA
  6
CONTINUOUS
 62
     7
 10
734.49999999999989
 20
1953.3748091474531
 30
0.0
 11
725.49999999999989
 21
1953.3748091474531
 31
0.0
  0
LINE
  5
273
  8
DATA
  6
CONTINUOUS
 62
     7
 10
734.49999999999989
 20
1963.374809147452
 30
0.0
 11
734.49999999999989
 21
1953.3748091474531
 31
0.0
  0
LINE
  5
274
  8
DATA
  6
CONTINUOUS
 62
     7
 10
751.0
 20
1959.361344040213
 30
0.0
 11
734.49999999999989
 21
1959.361344040213
 31
0.0
  0
LINE
  5
275
  8
DATA
  6
CONTINUOUS
 62
     7
 10
725.49999999999989
 20
1959.361344040213
 30
0.0
 11
717.0
 21
1959.361344040213
 31
0.0
  0
LINE
  5
276
  8
DATA
  6
CONTINUOUS
 62
     7
 10
703.0
 20
1959.361344040213
 30
0.0
 11
697.0
 21
1959.361344040213
 31
0.0
  0
LINE
  5
277
  8
DATA
  6
CONTINUOUS
 62
     7
 10
683.0
 20
1959.361344040213
 30
0.0
 11
674.5
 21
1959.361344040213
 31
0.0
  0
LINE
  5
278
  8
DATA
  6
CONTINUOUS
 62
     7
 10
665.5
 20
1959.361344040213
 30
0.0
 11
649.0
 21
1959.361344040213
 31
0.0
  0
LINE
  5
279
  8
DATA
  6
CONTINUOUS
 62
     7
 10
717.0
 20
1952.3145467031441
 30
0.0
 11
683.0
 21
1952.3145467031441
 31
0.0
  0
LINE
  5
27A
  8
DATA
  6
CONTINUOUS
 62
     7
 10
717.0
 20
1957.0130098070731
 30
0.0
 11
683.0
 21
1957.0130098070731
 31
0.0
  0
LINE
  5
27B
  8
DATA
  6
CONTINUOUS
 62
     7
 10
697.0
 20
1957.0130098070731
 30
0.0
 11
697.00001452538822
 21
1967.1045943720289
 31
0.0
  0
LINE
  5
27C
  8
DATA
  6
CONTINUOUS
 62
     7
 10
751.0
 20
1983.3235058702539
 30
0.0
 11
649.0
 21
1983.3235058702539
 31
0.0
  0
LINE
  5
27D
  8
DATA
  6
STYLE_11
 62
     7
 10
1274.1625341315751
 20
1337.052483481312
 30
0.0
 11
1278.2667758514831
 21
1325.7761720318799
 31
0.0
  0
LINE
  5
27E
  8
DATA
  6
STYLE_11
 62
     7
 10
1274.1625341315751
 20
1337.052483481312
 30
0.0
 11
1272.2831488900031
 21
1336.3684431946599
 31
0.0
  0
LINE
  5
27F
  8
DATA
  6
STYLE_11
 62
     7
 10
1276.3873906099111
 20
1325.092131745228
 30
0.0
 11
1278.2667758514831
 21
1325.7761720318799
 31
0.0
  0
ARC
  5
280
  8
DATA
  6
STYLE_11
 62
     7
 10
1265.6431130076869
 20
1327.566601144182
 30
0.0
 40
12.75000000000003
 50
351.92751306414652
 51
48.072486935852737
  0
ARC
  5
281
  8
DATA
  6
CONTINUOUS
 62
     7
 10
664.87806743789042
 20
2008.0714308960751
 30
0.0
 40
14.92636004483923
 50
256.12251687396082
 51
270.46805107713658
  0
ARC
  5
282
  8
DATA
  6
CONTINUOUS
 62
     7
 10
662.91167500145184
 20
1999.905567358843
 30
0.0
 40
6.5274071324328844
 50
242.27762307098209
 51
255.68749692808939
  0
ARC
  5
283
  8
DATA
  6
CONTINUOUS
 62
     7
 10
660.7526996053565
 20
1995.9339345659921
 30
0.0
 40
2.0067040138088141
 50
217.42192737717519
 51
243.24534030313279
  0
ARC
  5
284
  8
DATA
  6
CONTINUOUS
 62
     7
 10
659.82346356568803
 20
1995.211541033472
 30
0.0
 40
0.8297865750056042
 50
180.9564591644218
 51
216.7981257224163
  0
ARC
  5
285
  8
DATA
  6
CONTINUOUS
 62
     7
 10
664.87806743789042
 20
1982.323948602889
 30
0.0
 40
14.92636004483926
 50
89.531948922863421
 51
103.8774831260391
  0
ARC
  5
286
  8
DATA
  6
CONTINUOUS
 62
     7
 10
662.91167500145184
 20
1990.48981214012
 30
0.0
 40
6.5274071324328764
 50
104.3125030719106
 51
117.7223769290178
  0
ARC
  5
287
  8
DATA
  6
CONTINUOUS
 62
     7
 10
660.7526996053565
 20
1994.4614449329699
 30
0.0
 40
2.0067040138087999
 50
116.75465969686709
 51
142.57807262282481
  0
ARC
  5
288
  8
DATA
  6
CONTINUOUS
 62
     7
 10
659.82346356568803
 20
1995.18383846549
 30
0.0
 40
0.8297865750056441
 50
143.20187427758361
 51
179.04354083557811
  0
ARC
  5
289
  8
DATA
  6
CONTINUOUS
 62
     7
 10
665.12193256210946
 20
2008.0714308960751
 30
0.0
 40
14.92636004483926
 50
269.53194892286342
 51
283.87748312603912
  0
ARC
  5
28A
  8
DATA
  6
CONTINUOUS
 62
     7
 10
667.08832499854805
 20
1999.905567358843
 30
0.0
 40
6.5274071324328764
 50
284.31250307191061
 51
297.72237692901803
  0
ARC
  5
28B
  8
DATA
  6
CONTINUOUS
 62
     7
 10
669.24730039464328
 20
1995.9339345659921
 30
0.0
 40
2.0067040138087999
 50
296.75465969686718
 51
322.57807262282478
  0
ARC
  5
28C
  8
DATA
  6
CONTINUOUS
 62
     7
 10
670.17653643431197
 20
1995.211541033472
 30
0.0
 40
0.8297865750056441
 50
323.20187427758361
 51
359.04354083557809
  0
ARC
  5
28D
  8
DATA
  6
CONTINUOUS
 62
     7
 10
665.12193256210946
 20
1982.323948602889
 30
0.0
 40
14.92636004483923
 50
76.122516873960862
 51
90.46805107713655
  0
ARC
  5
28E
  8
DATA
  6
CONTINUOUS
 62
     7
 10
667.08832499854805
 20
1990.48981214012
 30
0.0
 40
6.5274071324328844
 50
62.277623070982152
 51
75.687496928089374
  0
ARC
  5
28F
  8
DATA
  6
CONTINUOUS
 62
     7
 10
669.24730039464328
 20
1994.4614449329699
 30
0.0
 40
2.0067040138088141
 50
37.421927377175187
 51
63.245340303132913
  0
ARC
  5
290
  8
DATA
  6
CONTINUOUS
 62
     7
 10
670.17653643431197
 20
1995.18383846549
 30
0.0
 40
0.8297865750056042
 50
0.9564591644218133
 51
36.798125722416373
  0
LINE
  5
291
  8
DATA
  6
CONTINUOUS
 62
     7
 10
658.99379260561329
 20
1995.197689749481
 30
0.0
 11
658.99379260561329
 21
1993.318304507909
 31
0.0
  0
LINE
  5
292
  8
DATA
  6
CONTINUOUS
 62
     7
 10
671.00620739438659
 20
1993.318304507909
 30
0.0
 11
671.00620739438659
 21
1995.197689749481
 31
0.0
  0
LINE
  5
293
  8
DATA
  6
CONTINUOUS
 62
     7
 10
665.0
 20
1996.697689749481
 30
0.0
 11
665.0
 21
1993.697689749481
 31
0.0
  0
LINE
  5
294
  8
DATA
  6
CONTINUOUS
 62
     7
 10
660.60975609800016
 20
1995.197689749481
 30
0.0
 11
669.39024390199995
 21
1995.197689749481
 31
0.0
  0
ARC
  5
295
  8
DATA
  6
CONTINUOUS
 62
     7
 10
664.87806743789042
 20
2006.1920456545031
 30
0.0
 40
14.92636004483923
 50
256.12251687396082
 51
270.46805107713658
  0
ARC
  5
296
  8
DATA
  6
CONTINUOUS
 62
     7
 10
662.91167500145184
 20
1998.026182117271
 30
0.0
 40
6.5274071324328844
 50
242.27762307098209
 51
255.68749692808939
  0
ARC
  5
297
  8
DATA
  6
CONTINUOUS
 62
     7
 10
660.7526996053565
 20
1994.0545493244199
 30
0.0
 40
2.0067040138088141
 50
217.42192737717519
 51
243.24534030313279
  0
ARC
  5
298
  8
DATA
  6
CONTINUOUS
 62
     7
 10
659.82346356568803
 20
1993.3321557919
 30
0.0
 40
0.8297865750056042
 50
180.9564591644218
 51
216.7981257224163
  0
ARC
  5
299
  8
DATA
  6
CONTINUOUS
 62
     7
 10
665.12193256210946
 20
2006.1920456545031
 30
0.0
 40
14.92636004483926
 50
269.53194892286342
 51
283.87748312603912
  0
ARC
  5
29A
  8
DATA
  6
CONTINUOUS
 62
     7
 10
667.08832499854805
 20
1998.026182117271
 30
0.0
 40
6.5274071324328764
 50
284.31250307191061
 51
297.72237692901803
  0
ARC
  5
29B
  8
DATA
  6
CONTINUOUS
 62
     7
 10
669.24730039464328
 20
1994.0545493244199
 30
0.0
 40
2.0067040138087999
 50
296.75465969686718
 51
322.57807262282478
  0
ARC
  5
29C
  8
DATA
  6
CONTINUOUS
 62
     7
 10
670.17653643431197
 20
1993.3321557919
 30
0.0
 40
0.8297865750056441
 50
323.20187427758361
 51
359.04354083557809
  0
ARC
  5
29D
  8
DATA
  6
CONTINUOUS
 62
     7
 10
664.87806743789042
 20
2051.371181041106
 30
0.0
 40
14.92636004483923
 50
256.12251687396082
 51
270.46805107713658
  0
ARC
  5
29E
  8
DATA
  6
CONTINUOUS
 62
     7
 10
662.91167500145184
 20
2043.2053175038759
 30
0.0
 40
6.5274071324328844
 50
242.27762307098209
 51
255.68749692808939
  0
ARC
  5
29F
  8
DATA
  6
CONTINUOUS
 62
     7
 10
660.7526996053565
 20
2039.2336847110239
 30
0.0
 40
2.0067040138088141
 50
217.42192737717519
 51
243.24534030313279
  0
ARC
  5
2A0
  8
DATA
  6
CONTINUOUS
 62
     7
 10
659.82346356568803
 20
2038.5112911785041
 30
0.0
 40
0.8297865750056042
 50
180.9564591644218
 51
216.7981257224163
  0
ARC
  5
2A1
  8
DATA
  6
CONTINUOUS
 62
     7
 10
664.87806743789042
 20
2025.623698747921
 30
0.0
 40
14.92636004483926
 50
89.531948922863421
 51
103.8774831260391
  0
ARC
  5
2A2
  8
DATA
  6
CONTINUOUS
 62
     7
 10
662.91167500145184
 20
2033.7895622851511
 30
0.0
 40
6.5274071324328764
 50
104.3125030719106
 51
117.7223769290178
  0
ARC
  5
2A3
  8
DATA
  6
CONTINUOUS
 62
     7
 10
660.7526996053565
 20
2037.7611950780031
 30
0.0
 40
2.0067040138087999
 50
116.75465969686709
 51
142.57807262282481
  0
ARC
  5
2A4
  8
DATA
  6
CONTINUOUS
 62
     7
 10
659.82346356568803
 20
2038.4835886105229
 30
0.0
 40
0.8297865750056441
 50
143.20187427758361
 51
179.04354083557811
  0
ARC
  5
2A5
  8
DATA
  6
CONTINUOUS
 62
     7
 10
665.12193256210946
 20
2051.371181041106
 30
0.0
 40
14.92636004483926
 50
269.53194892286342
 51
283.87748312603912
  0
ARC
  5
2A6
  8
DATA
  6
CONTINUOUS
 62
     7
 10
667.08832499854805
 20
2043.2053175038759
 30
0.0
 40
6.5274071324328764
 50
284.31250307191061
 51
297.72237692901803
  0
ARC
  5
2A7
  8
DATA
  6
CONTINUOUS
 62
     7
 10
669.24730039464328
 20
2039.2336847110239
 30
0.0
 40
2.0067040138087999
 50
296.75465969686718
 51
322.57807262282478
  0
ARC
  5
2A8
  8
DATA
  6
CONTINUOUS
 62
     7
 10
670.17653643431197
 20
2038.5112911785041
 30
0.0
 40
0.8297865750056441
 50
323.20187427758361
 51
359.04354083557809
  0
ARC
  5
2A9
  8
DATA
  6
CONTINUOUS
 62
     7
 10
665.12193256210946
 20
2025.623698747921
 30
0.0
 40
14.92636004483923
 50
76.122516873960862
 51
90.46805107713655
  0
ARC
  5
2AA
  8
DATA
  6
CONTINUOUS
 62
     7
 10
667.08832499854805
 20
2033.7895622851511
 30
0.0
 40
6.5274071324328844
 50
62.277623070982152
 51
75.687496928089374
  0
ARC
  5
2AB
  8
DATA
  6
CONTINUOUS
 62
     7
 10
669.24730039464328
 20
2037.7611950780031
 30
0.0
 40
2.0067040138088141
 50
37.421927377175187
 51
63.245340303132913
  0
ARC
  5
2AC
  8
DATA
  6
CONTINUOUS
 62
     7
 10
670.17653643431197
 20
2038.4835886105229
 30
0.0
 40
0.8297865750056042
 50
0.9564591644218133
 51
36.798125722416373
  0
LINE
  5
2AD
  8
DATA
  6
CONTINUOUS
 62
     7
 10
658.99379260561329
 20
2038.497439894513
 30
0.0
 11
658.99379260561329
 21
2036.6180546529411
 31
0.0
  0
LINE
  5
2AE
  8
DATA
  6
CONTINUOUS
 62
     7
 10
671.00620739438659
 20
2036.6180546529411
 30
0.0
 11
671.00620739438659
 21
2038.497439894513
 31
0.0
  0
LINE
  5
2AF
  8
DATA
  6
CONTINUOUS
 62
     7
 10
665.0
 20
2039.997439894513
 30
0.0
 11
665.0
 21
2036.997439894513
 31
0.0
  0
LINE
  5
2B0
  8
DATA
  6
CONTINUOUS
 62
     7
 10
660.60975609800016
 20
2038.497439894513
 30
0.0
 11
669.39024390199995
 21
2038.497439894513
 31
0.0
  0
ARC
  5
2B1
  8
DATA
  6
CONTINUOUS
 62
     7
 10
664.87806743789042
 20
2049.491795799534
 30
0.0
 40
14.92636004483923
 50
256.12251687396082
 51
270.46805107713658
  0
ARC
  5
2B2
  8
DATA
  6
CONTINUOUS
 62
     7
 10
662.91167500145184
 20
2041.325932262303
 30
0.0
 40
6.5274071324328844
 50
242.27762307098209
 51
255.68749692808939
  0
ARC
  5
2B3
  8
DATA
  6
CONTINUOUS
 62
     7
 10
660.7526996053565
 20
2037.3542994694519
 30
0.0
 40
2.0067040138088141
 50
217.42192737717519
 51
243.24534030313279
  0
ARC
  5
2B4
  8
DATA
  6
CONTINUOUS
 62
     7
 10
659.82346356568803
 20
2036.6319059369321
 30
0.0
 40
0.8297865750056042
 50
180.9564591644218
 51
216.7981257224163
  0
ARC
  5
2B5
  8
DATA
  6
CONTINUOUS
 62
     7
 10
665.12193256210946
 20
2049.491795799534
 30
0.0
 40
14.92636004483926
 50
269.53194892286342
 51
283.87748312603912
  0
ARC
  5
2B6
  8
DATA
  6
CONTINUOUS
 62
     7
 10
667.08832499854805
 20
2041.325932262303
 30
0.0
 40
6.5274071324328764
 50
284.31250307191061
 51
297.72237692901803
  0
ARC
  5
2B7
  8
DATA
  6
CONTINUOUS
 62
     7
 10
669.24730039464328
 20
2037.3542994694519
 30
0.0
 40
2.0067040138087999
 50
296.75465969686718
 51
322.57807262282478
  0
ARC
  5
2B8
  8
DATA
  6
CONTINUOUS
 62
     7
 10
670.17653643431197
 20
2036.6319059369321
 30
0.0
 40
0.8297865750056441
 50
323.20187427758361
 51
359.04354083557809
  0
ARC
  5
2B9
  8
DATA
  6
CONTINUOUS
 62
     7
 10
734.87806743789042
 20
2008.0714308960751
 30
0.0
 40
14.92636004483923
 50
256.12251687396082
 51
270.46805107713658
  0
ARC
  5
2BA
  8
DATA
  6
CONTINUOUS
 62
     7
 10
732.91167500145184
 20
1999.905567358843
 30
0.0
 40
6.5274071324328844
 50
242.27762307098209
 51
255.68749692808939
  0
ARC
  5
2BB
  8
DATA
  6
CONTINUOUS
 62
     7
 10
730.75269960535661
 20
1995.9339345659921
 30
0.0
 40
2.0067040138088141
 50
217.42192737717519
 51
243.24534030313279
  0
ARC
  5
2BC
  8
DATA
  6
CONTINUOUS
 62
     7
 10
729.82346356568803
 20
1995.211541033472
 30
0.0
 40
0.8297865750056042
 50
180.9564591644218
 51
216.7981257224163
  0
ARC
  5
2BD
  8
DATA
  6
CONTINUOUS
 62
     7
 10
734.87806743789042
 20
1982.323948602889
 30
0.0
 40
14.92636004483926
 50
89.531948922863421
 51
103.8774831260391
  0
ARC
  5
2BE
  8
DATA
  6
CONTINUOUS
 62
     7
 10
732.91167500145184
 20
1990.48981214012
 30
0.0
 40
6.5274071324328764
 50
104.3125030719106
 51
117.7223769290178
  0
ARC
  5
2BF
  8
DATA
  6
CONTINUOUS
 62
     7
 10
730.75269960535661
 20
1994.4614449329699
 30
0.0
 40
2.0067040138087999
 50
116.75465969686709
 51
142.57807262282481
  0
ARC
  5
2C0
  8
DATA
  6
CONTINUOUS
 62
     7
 10
729.82346356568803
 20
1995.18383846549
 30
0.0
 40
0.8297865750056441
 50
143.20187427758361
 51
179.04354083557811
  0
ARC
  5
2C1
  8
DATA
  6
CONTINUOUS
 62
     7
 10
735.12193256210946
 20
2008.0714308960751
 30
0.0
 40
14.92636004483926
 50
269.53194892286342
 51
283.87748312603912
  0
ARC
  5
2C2
  8
DATA
  6
CONTINUOUS
 62
     7
 10
737.08832499854816
 20
1999.905567358843
 30
0.0
 40
6.5274071324328764
 50
284.31250307191061
 51
297.72237692901803
  0
ARC
  5
2C3
  8
DATA
  6
CONTINUOUS
 62
     7
 10
739.2473003946435
 20
1995.9339345659921
 30
0.0
 40
2.0067040138087999
 50
296.75465969686718
 51
322.57807262282478
  0
ARC
  5
2C4
  8
DATA
  6
CONTINUOUS
 62
     7
 10
740.17653643431186
 20
1995.211541033472
 30
0.0
 40
0.8297865750056441
 50
323.20187427758361
 51
359.04354083557809
  0
ARC
  5
2C5
  8
DATA
  6
CONTINUOUS
 62
     7
 10
735.12193256210946
 20
1982.323948602889
 30
0.0
 40
14.92636004483923
 50
76.122516873960862
 51
90.46805107713655
  0
ARC
  5
2C6
  8
DATA
  6
CONTINUOUS
 62
     7
 10
737.08832499854816
 20
1990.48981214012
 30
0.0
 40
6.5274071324328844
 50
62.277623070982152
 51
75.687496928089374
  0
ARC
  5
2C7
  8
DATA
  6
CONTINUOUS
 62
     7
 10
739.2473003946435
 20
1994.4614449329699
 30
0.0
 40
2.0067040138088141
 50
37.421927377175187
 51
63.245340303132913
  0
ARC
  5
2C8
  8
DATA
  6
CONTINUOUS
 62
     7
 10
740.17653643431186
 20
1995.18383846549
 30
0.0
 40
0.8297865750056042
 50
0.9564591644218133
 51
36.798125722416373
  0
LINE
  5
2C9
  8
DATA
  6
CONTINUOUS
 62
     7
 10
728.99379260561329
 20
1995.197689749481
 30
0.0
 11
728.99379260561329
 21
1993.318304507909
 31
0.0
  0
LINE
  5
2CA
  8
DATA
  6
CONTINUOUS
 62
     7
 10
741.00620739438659
 20
1993.318304507909
 30
0.0
 11
741.00620739438659
 21
1995.197689749481
 31
0.0
  0
LINE
  5
2CB
  8
DATA
  6
CONTINUOUS
 62
     7
 10
735.0
 20
1996.697689749481
 30
0.0
 11
735.0
 21
1993.697689749481
 31
0.0
  0
LINE
  5
2CC
  8
DATA
  6
CONTINUOUS
 62
     7
 10
730.60975609800005
 20
1995.197689749481
 30
0.0
 11
739.39024390199984
 21
1995.197689749481
 31
0.0
  0
ARC
  5
2CD
  8
DATA
  6
CONTINUOUS
 62
     7
 10
734.87806743789042
 20
2006.1920456545031
 30
0.0
 40
14.92636004483923
 50
256.12251687396082
 51
270.46805107713658
  0
ARC
  5
2CE
  8
DATA
  6
CONTINUOUS
 62
     7
 10
732.91167500145184
 20
1998.026182117271
 30
0.0
 40
6.5274071324328844
 50
242.27762307098209
 51
255.68749692808939
  0
ARC
  5
2CF
  8
DATA
  6
CONTINUOUS
 62
     7
 10
730.75269960535661
 20
1994.0545493244199
 30
0.0
 40
2.0067040138088141
 50
217.42192737717519
 51
243.24534030313279
  0
ARC
  5
2D0
  8
DATA
  6
CONTINUOUS
 62
     7
 10
729.82346356568803
 20
1993.3321557919
 30
0.0
 40
0.8297865750056042
 50
180.9564591644218
 51
216.7981257224163
  0
ARC
  5
2D1
  8
DATA
  6
CONTINUOUS
 62
     7
 10
735.12193256210946
 20
2006.1920456545031
 30
0.0
 40
14.92636004483926
 50
269.53194892286342
 51
283.87748312603912
  0
ARC
  5
2D2
  8
DATA
  6
CONTINUOUS
 62
     7
 10
737.08832499854816
 20
1998.026182117271
 30
0.0
 40
6.5274071324328764
 50
284.31250307191061
 51
297.72237692901803
  0
ARC
  5
2D3
  8
DATA
  6
CONTINUOUS
 62
     7
 10
739.2473003946435
 20
1994.0545493244199
 30
0.0
 40
2.0067040138087999
 50
296.75465969686718
 51
322.57807262282478
  0
ARC
  5
2D4
  8
DATA
  6
CONTINUOUS
 62
     7
 10
740.17653643431186
 20
1993.3321557919
 30
0.0
 40
0.8297865750056441
 50
323.20187427758361
 51
359.04354083557809
  0
ARC
  5
2D5
  8
DATA
  6
CONTINUOUS
 62
     7
 10
734.87806743789042
 20
2051.371181041106
 30
0.0
 40
14.92636004483923
 50
256.12251687396082
 51
270.46805107713658
  0
ARC
  5
2D6
  8
DATA
  6
CONTINUOUS
 62
     7
 10
732.91167500145184
 20
2043.2053175038759
 30
0.0
 40
6.5274071324328844
 50
242.27762307098209
 51
255.68749692808939
  0
ARC
  5
2D7
  8
DATA
  6
CONTINUOUS
 62
     7
 10
730.75269960535661
 20
2039.2336847110239
 30
0.0
 40
2.0067040138088141
 50
217.42192737717519
 51
243.24534030313279
  0
ARC
  5
2D8
  8
DATA
  6
CONTINUOUS
 62
     7
 10
729.82346356568803
 20
2038.5112911785041
 30
0.0
 40
0.8297865750056042
 50
180.9564591644218
 51
216.7981257224163
  0
ARC
  5
2D9
  8
DATA
  6
CONTINUOUS
 62
     7
 10
734.87806743789042
 20
2025.623698747921
 30
0.0
 40
14.92636004483926
 50
89.531948922863421
 51
103.8774831260391
  0
ARC
  5
2DA
  8
DATA
  6
CONTINUOUS
 62
     7
 10
732.91167500145184
 20
2033.7895622851511
 30
0.0
 40
6.5274071324328764
 50
104.3125030719106
 51
117.7223769290178
  0
ARC
  5
2DB
  8
DATA
  6
CONTINUOUS
 62
     7
 10
730.75269960535661
 20
2037.7611950780031
 30
0.0
 40
2.0067040138087999
 50
116.75465969686709
 51
142.57807262282481
  0
ARC
  5
2DC
  8
DATA
  6
CONTINUOUS
 62
     7
 10
729.82346356568803
 20
2038.4835886105229
 30
0.0
 40
0.8297865750056441
 50
143.20187427758361
 51
179.04354083557811
  0
ARC
  5
2DD
  8
DATA
  6
CONTINUOUS
 62
     7
 10
735.12193256210946
 20
2051.371181041106
 30
0.0
 40
14.92636004483926
 50
269.53194892286342
 51
283.87748312603912
  0
ARC
  5
2DE
  8
DATA
  6
CONTINUOUS
 62
     7
 10
737.08832499854816
 20
2043.2053175038759
 30
0.0
 40
6.5274071324328764
 50
284.31250307191061
 51
297.72237692901803
  0
ARC
  5
2DF
  8
DATA
  6
CONTINUOUS
 62
     7
 10
739.2473003946435
 20
2039.2336847110239
 30
0.0
 40
2.0067040138087999
 50
296.75465969686718
 51
322.57807262282478
  0
ARC
  5
2E0
  8
DATA
  6
CONTINUOUS
 62
     7
 10
740.17653643431186
 20
2038.5112911785041
 30
0.0
 40
0.8297865750056441
 50
323.20187427758361
 51
359.04354083557809
  0
ARC
  5
2E1
  8
DATA
  6
CONTINUOUS
 62
     7
 10
735.12193256210946
 20
2025.623698747921
 30
0.0
 40
14.92636004483923
 50
76.122516873960862
 51
90.46805107713655
  0
ARC
  5
2E2
  8
DATA
  6
CONTINUOUS
 62
     7
 10
737.08832499854816
 20
2033.7895622851511
 30
0.0
 40
6.5274071324328844
 50
62.277623070982152
 51
75.687496928089374
  0
ARC
  5
2E3
  8
DATA
  6
CONTINUOUS
 62
     7
 10
739.2473003946435
 20
2037.7611950780031
 30
0.0
 40
2.0067040138088141
 50
37.421927377175187
 51
63.245340303132913
  0
ARC
  5
2E4
  8
DATA
  6
CONTINUOUS
 62
     7
 10
740.17653643431186
 20
2038.4835886105229
 30
0.0
 40
0.8297865750056042
 50
0.9564591644218133
 51
36.798125722416373
  0
LINE
  5
2E5
  8
DATA
  6
CONTINUOUS
 62
     7
 10
728.99379260561329
 20
2038.497439894513
 30
0.0
 11
728.99379260561329
 21
2036.6180546529411
 31
0.0
  0
LINE
  5
2E6
  8
DATA
  6
CONTINUOUS
 62
     7
 10
741.00620739438659
 20
2036.6180546529411
 30
0.0
 11
741.00620739438659
 21
2038.497439894513
 31
0.0
  0
LINE
  5
2E7
  8
DATA
  6
CONTINUOUS
 62
     7
 10
735.0
 20
2039.997439894513
 30
0.0
 11
735.0
 21
2036.997439894513
 31
0.0
  0
LINE
  5
2E8
  8
DATA
  6
CONTINUOUS
 62
     7
 10
730.60975609800005
 20
2038.497439894513
 30
0.0
 11
739.39024390199984
 21
2038.497439894513
 31
0.0
  0
ARC
  5
2E9
  8
DATA
  6
CONTINUOUS
 62
     7
 10
734.87806743789042
 20
2049.491795799534
 30
0.0
 40
14.92636004483923
 50
256.12251687396082
 51
270.46805107713658
  0
ARC
  5
2EA
  8
DATA
  6
CONTINUOUS
 62
     7
 10
732.91167500145184
 20
2041.325932262303
 30
0.0
 40
6.5274071324328844
 50
242.27762307098209
 51
255.68749692808939
  0
ARC
  5
2EB
  8
DATA
  6
CONTINUOUS
 62
     7
 10
730.75269960535661
 20
2037.3542994694519
 30
0.0
 40
2.0067040138088141
 50
217.42192737717519
 51
243.24534030313279
  0
ARC
  5
2EC
  8
DATA
  6
CONTINUOUS
 62
     7
 10
729.82346356568803
 20
2036.6319059369321
 30
0.0
 40
0.8297865750056042
 50
180.9564591644218
 51
216.7981257224163
  0
ARC
  5
2ED
  8
DATA
  6
CONTINUOUS
 62
     7
 10
735.12193256210946
 20
2049.491795799534
 30
0.0
 40
14.92636004483926
 50
269.53194892286342
 51
283.87748312603912
  0
ARC
  5
2EE
  8
DATA
  6
CONTINUOUS
 62
     7
 10
737.08832499854816
 20
2041.325932262303
 30
0.0
 40
6.5274071324328764
 50
284.31250307191061
 51
297.72237692901803
  0
ARC
  5
2EF
  8
DATA
  6
CONTINUOUS
 62
     7
 10
739.2473003946435
 20
2037.3542994694519
 30
0.0
 40
2.0067040138087999
 50
296.75465969686718
 51
322.57807262282478
  0
ARC
  5
2F0
  8
DATA
  6
CONTINUOUS
 62
     7
 10
740.17653643431186
 20
2036.6319059369321
 30
0.0
 40
0.8297865750056441
 50
323.20187427758361
 51
359.04354083557809
  0
LINE
  5
2F1
  8
DATA
  6
STYLE_11
 62
     7
 10
1211.8930880688249
 20
1493.5173584598481
 30
0.0
 11
1215.6553096454079
 21
1483.180739631202
 31
0.0
  0
ARC
  5
2F2
  8
DATA
  6
CONTINUOUS
 62
     7
 10
669.94361073507025
 20
1953.539543551602
 30
0.0
 40
11.371729637141449
 50
89.715884897534636
 51
104.4173435863317
  0
ARC
  5
2F3
  8
DATA
  6
CONTINUOUS
 62
     7
 10
668.19102730147415
 20
1960.512250040106
 30
0.0
 40
4.182424156114946
 50
104.9474418007773
 51
122.21179201611839
  0
ARC
  5
2F4
  8
DATA
  6
CONTINUOUS
 62
     7
 10
666.6593126017907
 20
1962.974373732093
 30
0.0
 40
1.2828866428559491
 50
122.9477268967218
 51
145.70177898692791
  0
ARC
  5
2F5
  8
DATA
  6
CONTINUOUS
 62
     7
 10
666.11439485889457
 20
1963.361947624551
 30
0.0
 40
0.6144635227009587
 50
146.92520687688159
 51
179.1434404559447
  0
ARC
  5
2F6
  8
DATA
  6
CONTINUOUS
 62
     7
 10
669.94361073507025
 20
1973.2027232073831
 30
0.0
 40
11.37172963714144
 50
255.58265641366819
 51
270.28411510246531
  0
ARC
  5
2F7
  8
DATA
  6
CONTINUOUS
 62
     7
 10
668.19102730147415
 20
1966.2300167188789
 30
0.0
 40
4.1824241561149389
 50
237.78820798388159
 51
255.05255819922269
  0
ARC
  5
2F8
  8
DATA
  6
CONTINUOUS
 62
     7
 10
666.6593126017907
 20
1963.767893026891
 30
0.0
 40
1.2828866428559611
 50
214.29822101307209
 51
237.0522731032782
  0
ARC
  5
2F9
  8
DATA
  6
CONTINUOUS
 62
     7
 10
666.11439485889457
 20
1963.3803191344341
 30
0.0
 40
0.6144635227009601
 50
180.8565595440553
 51
213.07479312311841
  0
ARC
  5
2FA
  8
DATA
  6
CONTINUOUS
 62
     7
 10
670.05638926492975
 20
1953.539543551602
 30
0.0
 40
11.37172963714144
 50
75.582656413668275
 51
90.284115102465407
  0
ARC
  5
2FB
  8
DATA
  6
CONTINUOUS
 62
     7
 10
671.80897269852585
 20
1960.512250040106
 30
0.0
 40
4.1824241561149389
 50
57.788207983881598
 51
75.052558199222702
  0
ARC
  5
2FC
  8
DATA
  6
CONTINUOUS
 62
     7
 10
673.34068739820907
 20
1962.974373732093
 30
0.0
 40
1.2828866428559611
 50
34.298221013072123
 51
57.052273103278182
  0
ARC
  5
2FD
  8
DATA
  6
CONTINUOUS
 62
     7
 10
673.88560514110532
 20
1963.361947624551
 30
0.0
 40
0.6144635227009601
 50
0.8565595440553401
 51
33.074793123118411
  0
ARC
  5
2FE
  8
DATA
  6
CONTINUOUS
 62
     7
 10
670.05638926492975
 20
1973.2027232073831
 30
0.0
 40
11.371729637141449
 50
269.71588489753458
 51
284.41734358633181
  0
ARC
  5
2FF
  8
DATA
  6
CONTINUOUS
 62
     7
 10
671.80897269852585
 20
1966.2300167188789
 30
0.0
 40
4.182424156114946
 50
284.94744180077731
 51
302.21179201611841
  0
ARC
  5
300
  8
DATA
  6
CONTINUOUS
 62
     7
 10
673.34068739820907
 20
1963.767893026891
 30
0.0
 40
1.2828866428559491
 50
302.9477268967218
 51
325.70177898692799
  0
ARC
  5
301
  8
DATA
  6
CONTINUOUS
 62
     7
 10
673.88560514110532
 20
1963.3803191344341
 30
0.0
 40
0.6144635227009587
 50
326.9252068768817
 51
359.14344045594459
  0
ARC
  5
302
  8
DATA
  6
CONTINUOUS
 62
     7
 10
729.94361073507014
 20
1953.539543551602
 30
0.0
 40
11.371729637141449
 50
89.715884897534636
 51
104.4173435863317
  0
ARC
  5
303
  8
DATA
  6
CONTINUOUS
 62
     7
 10
728.19102730147415
 20
1960.512250040106
 30
0.0
 40
4.182424156114946
 50
104.9474418007773
 51
122.21179201611839
  0
ARC
  5
304
  8
DATA
  6
CONTINUOUS
 62
     7
 10
726.65931260179082
 20
1962.974373732093
 30
0.0
 40
1.2828866428559491
 50
122.9477268967218
 51
145.70177898692791
  0
ARC
  5
305
  8
DATA
  6
CONTINUOUS
 62
     7
 10
726.1143948588948
 20
1963.361947624551
 30
0.0
 40
0.6144635227009587
 50
146.92520687688159
 51
179.1434404559447
  0
ARC
  5
306
  8
DATA
  6
CONTINUOUS
 62
     7
 10
729.94361073507014
 20
1973.2027232073831
 30
0.0
 40
11.37172963714144
 50
255.58265641366819
 51
270.28411510246531
  0
ARC
  5
307
  8
DATA
  6
CONTINUOUS
 62
     7
 10
728.19102730147415
 20
1966.2300167188789
 30
0.0
 40
4.1824241561149389
 50
237.78820798388159
 51
255.05255819922269
  0
ARC
  5
308
  8
DATA
  6
CONTINUOUS
 62
     7
 10
726.65931260179082
 20
1963.767893026891
 30
0.0
 40
1.2828866428559611
 50
214.29822101307209
 51
237.0522731032782
  0
ARC
  5
309
  8
DATA
  6
CONTINUOUS
 62
     7
 10
726.1143948588948
 20
1963.3803191344341
 30
0.0
 40
0.6144635227009601
 50
180.8565595440553
 51
213.07479312311841
  0
ARC
  5
30A
  8
DATA
  6
CONTINUOUS
 62
     7
 10
730.05638926492975
 20
1953.539543551602
 30
0.0
 40
11.37172963714144
 50
75.582656413668275
 51
90.284115102465407
  0
ARC
  5
30B
  8
DATA
  6
CONTINUOUS
 62
     7
 10
731.80897269852574
 20
1960.512250040106
 30
0.0
 40
4.1824241561149389
 50
57.788207983881598
 51
75.052558199222702
  0
ARC
  5
30C
  8
DATA
  6
CONTINUOUS
 62
     7
 10
733.34068739820918
 20
1962.974373732093
 30
0.0
 40
1.2828866428559611
 50
34.298221013072123
 51
57.052273103278182
  0
ARC
  5
30D
  8
DATA
  6
CONTINUOUS
 62
     7
 10
733.8856051411052
 20
1963.361947624551
 30
0.0
 40
0.6144635227009601
 50
0.8565595440553401
 51
33.074793123118411
  0
ARC
  5
30E
  8
DATA
  6
CONTINUOUS
 62
     7
 10
730.05638926492975
 20
1973.2027232073831
 30
0.0
 40
11.371729637141449
 50
269.71588489753458
 51
284.41734358633181
  0
ARC
  5
30F
  8
DATA
  6
CONTINUOUS
 62
     7
 10
731.80897269852574
 20
1966.2300167188789
 30
0.0
 40
4.182424156114946
 50
284.94744180077731
 51
302.21179201611841
  0
ARC
  5
310
  8
DATA
  6
CONTINUOUS
 62
     7
 10
733.34068739820918
 20
1963.767893026891
 30
0.0
 40
1.2828866428559491
 50
302.9477268967218
 51
325.70177898692799
  0
ARC
  5
311
  8
DATA
  6
CONTINUOUS
 62
     7
 10
733.8856051411052
 20
1963.3803191344341
 30
0.0
 40
0.6144635227009587
 50
326.9252068768817
 51
359.14344045594459
  0
LINE
  5
312
  8
DATA
  6
CONTINUOUS
 62
     7
 10
684.50000726269411
 20
1976.056983760101
 30
0.0
 11
684.81199760773802
 21
1976.684020689532
 31
0.0
  0
LINE
  5
313
  8
DATA
  6
CONTINUOUS
 62
     7
 10
684.81199760773802
 20
1976.684020689532
 30
0.0
 11
690.00000726269411
 21
1977.938094548392
 31
0.0
  0
LINE
  5
314
  8
DATA
  6
CONTINUOUS
 62
     7
 10
690.00000726269411
 20
1977.938094548392
 30
0.0
 11
695.18795838562198
 21
1976.684020689532
 31
0.0
  0
LINE
  5
315
  8
DATA
  6
CONTINUOUS
 62
     7
 10
695.18795838562198
 20
1976.684020689532
 30
0.0
 11
695.53748555988875
 21
1976.0786218650751
 31
0.0
  0
LINE
  5
316
  8
DATA
  6
CONTINUOUS
 62
     7
 10
695.500007262694
 20
1976.056983760101
 30
0.0
 11
695.18795838562198
 21
1975.429946830671
 31
0.0
  0
LINE
  5
317
  8
DATA
  6
CONTINUOUS
 62
     7
 10
695.18795838562198
 20
1975.429946830671
 30
0.0
 11
690.00000726269411
 21
1974.1758729718099
 31
0.0
  0
LINE
  5
318
  8
DATA
  6
CONTINUOUS
 62
     7
 10
690.00000726269411
 20
1974.1758729718099
 30
0.0
 11
684.81199760773802
 21
1975.429946830671
 31
0.0
  0
LINE
  5
319
  8
DATA
  6
CONTINUOUS
 62
     7
 10
684.81199760773802
 20
1975.429946830671
 30
0.0
 11
684.50000726269411
 21
1976.056983760101
 31
0.0
  0
LINE
  5
31A
  8
DATA
  6
CONTINUOUS
 62
     7
 10
690.00000726269411
 20
1974.1758729718099
 30
0.0
 11
690.00000726269411
 21
1965.2487930743439
 31
0.0
  0
ARC
  5
31B
  8
DATA
  6
CONTINUOUS
 62
     7
 10
686.92907854868315
 20
1963.6652214413821
 30
0.0
 40
5.5848589525541632
 50
115.7813932545707
 51
125.7307598980248
  0
ARC
  5
31C
  8
DATA
  6
CONTINUOUS
 62
     7
 10
684.91428742320238
 20
1966.514569126083
 30
0.0
 40
2.0954442822469681
 50
126.5075047851798
 51
144.92807383267919
  0
ARC
  5
31D
  8
DATA
  6
CONTINUOUS
 62
     7
 10
684.11491524112296
 20
1967.0820584944779
 30
0.0
 40
1.1151429776784381
 50
145.191570653448
 51
178.84203317233559
  0
ARC
  5
31E
  8
DATA
  6
CONTINUOUS
 62
     7
 10
689.83276506275479
 20
1980.3540418347729
 30
0.0
 40
15.81548282100943
 50
253.3207870165858
 51
270.60589050078772
  0
ARC
  5
31F
  8
DATA
  6
CONTINUOUS
 62
     7
 10
686.92907854868315
 20
1970.5439673026749
 30
0.0
 40
5.5848589525540886
 50
234.26924010197521
 51
252.97094725323811
  0
ARC
  5
320
  8
DATA
  6
CONTINUOUS
 62
     7
 10
684.91428742320238
 20
1967.6946196179749
 30
0.0
 40
2.0954442822469921
 50
215.0719261673209
 51
233.4924952148202
  0
ARC
  5
321
  8
DATA
  6
CONTINUOUS
 62
     7
 10
684.11491524112296
 20
1967.1271302495791
 30
0.0
 40
1.115142977678417
 50
181.1579668276643
 51
214.808429346552
  0
ARC
  5
322
  8
DATA
  6
CONTINUOUS
 62
     7
 10
693.07093597670507
 20
1963.6652214413821
 30
0.0
 40
5.5848589525540886
 50
54.269240101975242
 51
64.218606745428758
  0
ARC
  5
323
  8
DATA
  6
CONTINUOUS
 62
     7
 10
695.08572710218584
 20
1966.514569126083
 30
0.0
 40
2.0954442822469921
 50
35.071926167320868
 51
53.492495214820252
  0
ARC
  5
324
  8
DATA
  6
CONTINUOUS
 62
     7
 10
695.88509928426515
 20
1967.0820584944779
 30
0.0
 40
1.115142977678417
 50
1.157966827664328
 51
34.808429346552018
  0
ARC
  5
325
  8
DATA
  6
CONTINUOUS
 62
     7
 10
690.16724946263321
 20
1980.3540418347729
 30
0.0
 40
15.8154828210094
 50
269.39410949921228
 51
286.67921298341417
  0
ARC
  5
326
  8
DATA
  6
CONTINUOUS
 62
     7
 10
693.07093597670507
 20
1970.5439673026749
 30
0.0
 40
5.5848589525541152
 50
287.02905274676198
 51
305.73075989802481
  0
ARC
  5
327
  8
DATA
  6
CONTINUOUS
 62
     7
 10
695.08572710218584
 20
1967.6946196179749
 30
0.0
 40
2.0954442822469681
 50
306.50750478517978
 51
324.92807383267922
  0
ARC
  5
328
  8
DATA
  6
CONTINUOUS
 62
     7
 10
695.88509928426515
 20
1967.1271302495791
 30
0.0
 40
1.1151429776784381
 50
325.19157065344803
 51
358.84203317233568
  0
LINE
  5
329
  8
DATA
  6
CONTINUOUS
 62
     7
 10
695.500007262694
 20
1967.129903862635
 30
0.0
 11
695.18795838562198
 21
1966.5028669332039
 31
0.0
  0
LINE
  5
32A
  8
DATA
  6
CONTINUOUS
 62
     7
 10
695.18795838562198
 20
1966.5028669332039
 30
0.0
 11
690.00000726269411
 21
1965.2487930743439
 31
0.0
  0
LINE
  5
32B
  8
DATA
  6
CONTINUOUS
 62
     7
 10
690.00000726269411
 20
1965.2487930743439
 30
0.0
 11
684.81199760773802
 21
1966.5028669332039
 31
0.0
  0
LINE
  5
32C
  8
DATA
  6
CONTINUOUS
 62
     7
 10
684.81199760773802
 20
1966.5028669332039
 30
0.0
 11
684.50000726269411
 21
1967.129903862635
 31
0.0
  0
LINE
  5
32D
  8
DATA
  6
CONTINUOUS
 62
     7
 10
704.49999273730589
 20
1976.056983760101
 30
0.0
 11
704.49999273730589
 21
1967.129903862635
 31
0.0
  0
LINE
  5
32E
  8
DATA
  6
CONTINUOUS
 62
     7
 10
715.49999273730589
 20
1967.129903862635
 30
0.0
 11
715.49999273730589
 21
1976.056983760101
 31
0.0
  0
LINE
  5
32F
  8
DATA
  6
CONTINUOUS
 62
     7
 10
703.0
 20
1957.0130098070731
 30
0.0
 11
702.99998547461166
 21
1967.1045943720289
 31
0.0
  0
LINE
  5
330
  8
DATA
  6
CONTINUOUS
 62
     7
 10
715.49999273730589
 20
1976.056983760101
 30
0.0
 11
715.18800239226186
 21
1976.684020689532
 31
0.0
  0
LINE
  5
331
  8
DATA
  6
CONTINUOUS
 62
     7
 10
715.18800239226186
 20
1976.684020689532
 30
0.0
 11
709.99999273730577
 21
1977.938094548392
 31
0.0
  0
LINE
  5
332
  8
DATA
  6
CONTINUOUS
 62
     7
 10
709.99999273730577
 20
1977.938094548392
 30
0.0
 11
704.81204161437802
 21
1976.684020689532
 31
0.0
  0
LINE
  5
333
  8
DATA
  6
CONTINUOUS
 62
     7
 10
704.81204161437802
 20
1976.684020689532
 30
0.0
 11
704.46251444011125
 21
1976.0786218650751
 31
0.0
  0
LINE
  5
334
  8
DATA
  6
CONTINUOUS
 62
     7
 10
704.49999273730589
 20
1976.056983760101
 30
0.0
 11
704.81204161437802
 21
1975.429946830671
 31
0.0
  0
LINE
  5
335
  8
DATA
  6
CONTINUOUS
 62
     7
 10
704.81204161437802
 20
1975.429946830671
 30
0.0
 11
709.99999273730577
 21
1974.1758729718099
 31
0.0
  0
LINE
  5
336
  8
DATA
  6
CONTINUOUS
 62
     7
 10
709.99999273730577
 20
1974.1758729718099
 30
0.0
 11
715.18800239226186
 21
1975.429946830671
 31
0.0
  0
LINE
  5
337
  8
DATA
  6
CONTINUOUS
 62
     7
 10
715.18800239226186
 20
1975.429946830671
 30
0.0
 11
715.49999273730589
 21
1976.056983760101
 31
0.0
  0
LINE
  5
338
  8
DATA
  6
CONTINUOUS
 62
     7
 10
709.99999273730577
 20
1974.1758729718099
 30
0.0
 11
709.99999273730577
 21
1965.2487930743439
 31
0.0
  0
ARC
  5
339
  8
DATA
  6
CONTINUOUS
 62
     7
 10
713.07092145131685
 20
1963.6652214413821
 30
0.0
 40
5.5848589525540886
 50
54.269240101975242
 51
64.218606745429284
  0
ARC
  5
33A
  8
DATA
  6
CONTINUOUS
 62
     7
 10
715.08571257679762
 20
1966.514569126083
 30
0.0
 40
2.0954442822469921
 50
35.071926167320868
 51
53.492495214820252
  0
ARC
  5
33B
  8
DATA
  6
CONTINUOUS
 62
     7
 10
715.88508475887681
 20
1967.0820584944779
 30
0.0
 40
1.115142977678417
 50
1.157966827664328
 51
34.808429346552018
  0
ARC
  5
33C
  8
DATA
  6
CONTINUOUS
 62
     7
 10
710.16723493724521
 20
1980.3540418347729
 30
0.0
 40
15.8154828210094
 50
269.39410949921228
 51
286.67921298341417
  0
ARC
  5
33D
  8
DATA
  6
CONTINUOUS
 62
     7
 10
713.07092145131685
 20
1970.5439673026749
 30
0.0
 40
5.5848589525541152
 50
287.02905274676198
 51
305.73075989802481
  0
ARC
  5
33E
  8
DATA
  6
CONTINUOUS
 62
     7
 10
715.08571257679762
 20
1967.6946196179749
 30
0.0
 40
2.0954442822469681
 50
306.50750478517978
 51
324.92807383267922
  0
ARC
  5
33F
  8
DATA
  6
CONTINUOUS
 62
     7
 10
715.88508475887681
 20
1967.1271302495791
 30
0.0
 40
1.1151429776784381
 50
325.19157065344803
 51
358.84203317233568
  0
ARC
  5
340
  8
DATA
  6
CONTINUOUS
 62
     7
 10
706.92906402329481
 20
1963.6652214413821
 30
0.0
 40
5.5848589525540611
 50
115.7813932545712
 51
125.7307598980248
  0
ARC
  5
341
  8
DATA
  6
CONTINUOUS
 62
     7
 10
704.91427289781404
 20
1966.514569126083
 30
0.0
 40
2.0954442822469681
 50
126.5075047851798
 51
144.92807383267919
  0
ARC
  5
342
  8
DATA
  6
CONTINUOUS
 62
     7
 10
704.11490071573485
 20
1967.0820584944779
 30
0.0
 40
1.1151429776784381
 50
145.191570653448
 51
178.84203317233559
  0
ARC
  5
343
  8
DATA
  6
CONTINUOUS
 62
     7
 10
709.83275053736656
 20
1980.3540418347729
 30
0.0
 40
15.81548282100943
 50
253.3207870165858
 51
270.60589050078772
  0
ARC
  5
344
  8
DATA
  6
CONTINUOUS
 62
     7
 10
706.92906402329481
 20
1970.5439673026749
 30
0.0
 40
5.5848589525540886
 50
234.26924010197521
 51
252.97094725323811
  0
ARC
  5
345
  8
DATA
  6
CONTINUOUS
 62
     7
 10
704.91427289781404
 20
1967.6946196179749
 30
0.0
 40
2.0954442822469921
 50
215.0719261673209
 51
233.4924952148202
  0
ARC
  5
346
  8
DATA
  6
CONTINUOUS
 62
     7
 10
704.11490071573485
 20
1967.1271302495791
 30
0.0
 40
1.115142977678417
 50
181.1579668276643
 51
214.808429346552
  0
LINE
  5
347
  8
DATA
  6
CONTINUOUS
 62
     7
 10
704.49999273730589
 20
1967.129903862635
 30
0.0
 11
704.81204161437802
 21
1966.5028669332039
 31
0.0
  0
LINE
  5
348
  8
DATA
  6
CONTINUOUS
 62
     7
 10
704.81204161437802
 20
1966.5028669332039
 30
0.0
 11
709.99999273730577
 21
1965.2487930743439
 31
0.0
  0
LINE
  5
349
  8
DATA
  6
CONTINUOUS
 62
     7
 10
709.99999273730577
 20
1965.2487930743439
 30
0.0
 11
715.18800239226186
 21
1966.5028669332039
 31
0.0
  0
LINE
  5
34A
  8
DATA
  6
CONTINUOUS
 62
     7
 10
715.18800239226186
 20
1966.5028669332039
 30
0.0
 11
715.49999273730589
 21
1967.129903862635
 31
0.0
  0
ARC
  5
34B
  8
DATA
  6
CONTINUOUS
 62
     7
 10
574.65693316058457
 20
2035.0382560861981
 30
0.0
 40
4.9999999999999432
 50
90.0
 51
175.93079525240569
  0
ARC
  5
34C
  8
DATA
  6
CONTINUOUS
 62
     7
 10
825.34306683954594
 20
2035.0382560861981
 30
0.0
 40
4.9999999999999867
 50
4.0692047475498967
 51
90.0
  0
ARC
  5
34D
  8
DATA
  6
CONTINUOUS
 62
     7
 10
533.98600484765825
 20
1849.288882475264
 30
0.0
 40
5.0000000000000124
 50
123.9056045499179
 51
178.54760433432611
  0
ARC
  5
34E
  8
DATA
  6
CONTINUOUS
 62
     7
 10
553.19285382083115
 20
1874.246883148533
 30
0.0
 40
5.0000000000000124
 50
303.90560454991788
 51
355.93079525240512
  0
ARC
  5
34F
  8
DATA
  6
CONTINUOUS
 62
     7
 10
846.80714617917067
 20
1874.246883148533
 30
0.0
 40
4.9999999999999867
 50
184.06920474754989
 51
236.09439545008209
  0
ARC
  5
350
  8
DATA
  6
CONTINUOUS
 62
     7
 10
866.01399515234118
 20
1849.288882475264
 30
0.0
 40
4.9999999999999529
 50
1.452395665669026
 51
56.094395450081748
  0
LINE
  5
351
  8
DATA
  6
STYLE_11
 62
     7
 10
1230.7259759292151
 20
1456.393446321121
 30
0.0
 11
1234.8302176491229
 21
1445.117134871691
 31
0.0
  0
LINE
  5
352
  8
DATA
  6
STYLE_11
 62
     7
 10
1230.7259759292151
 20
1456.393446321121
 30
0.0
 11
1228.8465906876429
 21
1455.70940603447
 31
0.0
  0
LINE
  5
353
  8
DATA
  6
STYLE_11
 62
     7
 10
1232.9508324075509
 20
1444.433094585039
 30
0.0
 11
1234.8302176491229
 21
1445.117134871691
 31
0.0
  0
ARC
  5
354
  8
DATA
  6
STYLE_11
 62
     7
 10
1222.206554805327
 20
1446.9075639839921
 30
0.0
 40
12.75000000000003
 50
351.92751306414652
 51
48.072486935852737
  0
ARC
  5
355
  8
DATA
  6
CONTINUOUS
 62
     7
 10
1558.500000000068
 20
1130.0
 30
0.0
 40
29.99999999999946
 50
180.0
 51
270.0
  0
CIRCLE
  5
356
  8
DATA
  6
CONTINUOUS
 62
     7
 10
1539.512239654694
 20
1309.375563795847
 30
0.0
 40
5.9999999999999707
  0
ARC
  5
357
  8
DATA
  6
CONTINUOUS
 62
     7
 10
1558.500000000068
 20
1470.6539514672811
 30
0.0
 40
29.999999999999769
 50
90.0
 51
180.0
  0
LINE
  5
358
  8
DATA
  6
CONTINUOUS
 62
     7
 10
1528.500000000068
 20
1130.0
 30
0.0
 11
1528.500000000068
 21
1470.6539514672811
 31
0.0
  0
CIRCLE
  5
359
  8
DATA
  6
CONTINUOUS
 62
     7
 10
1539.512239654694
 20
1309.375563795847
 30
0.0
 40
3.9999999999999711
  0
LINE
  5
35A
  8
DATA
  6
CONTINUOUS
 62
     7
 10
1537.012239654694
 20
1309.375563795847
 30
0.0
 11
1542.012239654694
 21
1309.375563795847
 31
0.0
  0
LINE
  5
35B
  8
DATA
  6
CONTINUOUS
 62
     7
 10
1539.5122396546931
 20
1306.875563795847
 30
0.0
 11
1539.5122396546931
 21
1311.875563795847
 31
0.0
  0
CIRCLE
  5
35C
  8
DATA
  6
CONTINUOUS
 62
     7
 10
1539.5
 20
1440.4626843954809
 30
0.0
 40
5.9999999999999707
  0
CIRCLE
  5
35D
  8
DATA
  6
CONTINUOUS
 62
     7
 10
1539.5
 20
1440.4626843954809
 30
0.0
 40
3.9999999999999711
  0
LINE
  5
35E
  8
DATA
  6
CONTINUOUS
 62
     7
 10
1536.9999999999991
 20
1440.4626843954809
 30
0.0
 11
1541.9999999999991
 21
1440.4626843954809
 31
0.0
  0
LINE
  5
35F
  8
DATA
  6
CONTINUOUS
 62
     7
 10
1539.4999999999991
 20
1437.96268439548
 30
0.0
 11
1539.4999999999991
 21
1442.9626843954809
 31
0.0
  0
CIRCLE
  5
360
  8
DATA
  6
CONTINUOUS
 62
     7
 10
1539.5366323628421
 20
1178.2884431962129
 30
0.0
 40
5.9999999999999707
  0
CIRCLE
  5
361
  8
DATA
  6
CONTINUOUS
 62
     7
 10
1539.5366323628421
 20
1178.2884431962129
 30
0.0
 40
3.9999999999999711
  0
LINE
  5
362
  8
DATA
  6
CONTINUOUS
 62
     7
 10
1537.0366323628421
 20
1178.2884431962129
 30
0.0
 11
1542.0366323628409
 21
1178.2884431962129
 31
0.0
  0
LINE
  5
363
  8
DATA
  6
CONTINUOUS
 62
     7
 10
1539.5366323628409
 20
1175.788443196212
 30
0.0
 11
1539.5366323628409
 21
1180.788443196212
 31
0.0
  0
LINE
  5
364
  8
DATA
  6
CONTINUOUS
 62
     7
 10
1558.007101826739
 20
1497.983531108903
 30
0.0
 11
1558.007101826739
 21
1134.106382072491
 31
0.0
  0
ARC
  5
365
  8
DATA
  6
CONTINUOUS
 62
     7
 10
1238.438391221787
 20
1158.9042436399111
 30
0.0
 40
24.999999999999979
 50
200.0000000000002
 51
277.29096700565083
  0
ARC
  5
366
  8
DATA
  6
CONTINUOUS
 62
     7
 10
1122.6799703422671
 20
1476.947891118059
 30
0.0
 40
25.00000000000021
 50
122.7090329943494
 51
199.9999999999996
  0
ARC
  5
367
  8
DATA
  6
CONTINUOUS
 62
     7
 10
1558.007101826739
 20
1163.613483899162
 30
0.0
 40
29.507101826671501
 50
180.0
 51
270.0
  0
ARC
  5
368
  8
DATA
  6
CONTINUOUS
 62
     7
 10
1558.007101826739
 20
1468.476429282231
 30
0.0
 40
29.507101826671491
 50
90.000000000000028
 51
180.0
  0
LINE
  5
369
  8
DATA
  6
CONTINUOUS
 62
     7
 10
1558.007101826739
 20
1105.6461467410249
 30
0.0
 11
1841.992898173396
 21
1105.6461467410249
 31
0.0
  0
LINE
  5
36A
  8
DATA
  6
CONTINUOUS
 62
     7
 10
1841.992898173396
 20
1497.983531108903
 30
0.0
 11
1841.992898173396
 21
1134.106382072491
 31
0.0
  0
ARC
  5
36B
  8
DATA
  6
CONTINUOUS
 62
     7
 10
1841.992898173396
 20
1163.613483899162
 30
0.0
 40
29.507101826671491
 50
270.0
 51
0.0
  0
ARC
  5
36C
  8
DATA
  6
CONTINUOUS
 62
     7
 10
1841.992898173396
 20
1468.476429282231
 30
0.0
 40
29.507101826671491
 50
0.0
 51
90.0
  0
ARC
  5
36D
  8
DATA
  6
CONTINUOUS
 62
     7
 10
1558.007101826739
 20
1135.153248567696
 30
0.0
 40
29.507101826671501
 50
180.0
 51
270.0
  0
ARC
  5
36E
  8
DATA
  6
CONTINUOUS
 62
     7
 10
1841.992898173396
 20
1135.153248567696
 30
0.0
 40
29.507101826671491
 50
270.0
 51
0.0
  0
ARC
  5
36F
  8
DATA
  6
CONTINUOUS
 62
     7
 10
1700.735249299204
 20
1387.272123373853
 30
0.0
 40
11.29804738055741
 50
266.43789522684642
 51
93.562104773153564
  0
ARC
  5
370
  8
DATA
  6
CONTINUOUS
 62
     7
 10
1700.910737435574
 20
1387.272123373853
 30
0.0
 40
14.122559244187631
 50
266.43789402175958
 51
93.562105978240425
  0
TEXT
  5
371
  8
DATA
 62
     7
 10
1684.5
 20
1416.618440968065
 30
0.0
 40
3.30657958984375
  1
Model: 8320 Cinema Surround
 41
0.7
 11
1684.5
 21
1419.925020557909
 31
0.0
 73
     3
  0
TEXT
  5
372
  8
DATA
 62
     7
 10
1681.637945282733
 20
1409.6419609559639
 30
0.0
 40
2.4799346923828121
  1
Impedance: 8 Ohms
 41
0.7
 11
1681.637945282733
 21
1412.1218956483469
 31
0.0
 73
     3
  0
TEXT
  5
373
  8
DATA
 62
     7
 10
1712.9450501828251
 20
1409.61990039584
 30
0.0
 40
2.4799346923828121
  1
Polarity:  EIA
 41
0.7
 11
1712.9450501828251
 21
1412.099835088223
 31
0.0
 73
     3
  0
TEXT
  5
374
  8
DATA
 62
     7
 10
1657.9933689966899
 20
1409.682894093062
 30
0.0
 40
2.4799346923828121
  1
PROFESSIONAL
 41
0.7
 11
1657.9933689966899
 21
1412.1628287854451
 31
0.0
 73
     3
  0
LINE
  5
375
  8
DATA
  6
CONTINUOUS
 62
     7
 10
1681.0
 20
1414.3762534680629
 30
0.0
 11
1656.0
 21
1414.3762534680629
 31
0.0
  0
LINE
  5
376
  8
DATA
  6
CONTINUOUS
 62
     7
 10
1681.0
 20
1412.8762534680629
 30
0.0
 11
1656.0
 21
1412.8762534680629
 31
0.0
  0
LINE
  5
377
  8
DATA
  6
CONTINUOUS
 62
     7
 10
1681.0
 20
1408.876253468062
 30
0.0
 11
1656.0
 21
1408.876253468062
 31
0.0
  0
LINE
  5
378
  8
DATA
  6
CONTINUOUS
 62
     7
 10
1656.0
 20
1408.876253468062
 30
0.0
 11
1656.0
 21
1412.8762534680629
 31
0.0
  0
LINE
  5
379
  8
DATA
  6
CONTINUOUS
 62
     7
 10
1681.0
 20
1408.876253468062
 30
0.0
 11
1681.0
 21
1412.8762534680629
 31
0.0
  0
LINE
  5
37A
  8
DATA
  6
CONTINUOUS
 62
     7
 10
1660.575
 20
1330.730287469944
 30
0.0
 11
1669.575
 21
1330.730287469944
 31
0.0
  0
LINE
  5
37B
  8
DATA
  6
CONTINUOUS
 62
     7
 10
1665.075
 20
1326.501704969945
 30
0.0
 11
1665.075
 21
1334.958869969943
 31
0.0
  0
ARC
  5
37C
  8
DATA
  6
CONTINUOUS
 62
     7
 10
1664.659678042249
 20
1330.730287469944
 30
0.0
 40
6.6846780422480592
 50
86.437894021760513
 51
273.56210597823929
  0
ARC
  5
37D
  8
DATA
  6
CONTINUOUS
 62
     7
 10
1665.490321957752
 20
1330.730287469944
 30
0.0
 40
6.6846780422483381
 50
266.43789402175332
 51
93.562105978232211
  0
LINE
  5
37E
  8
DATA
  6
CONTINUOUS
 62
     7
 10
1730.4250000000011
 20
1330.7302874699451
 30
0.0
 11
1739.425
 21
1330.7302874699451
 31
0.0
  0
LINE
  5
37F
  8
DATA
  6
CONTINUOUS
 62
     7
 10
1734.9250000000011
 20
1326.5017049699461
 30
0.0
 11
1734.9250000000011
 21
1334.958869969943
 31
0.0
  0
ARC
  5
380
  8
DATA
  6
CONTINUOUS
 62
     7
 10
1734.5096780422491
 20
1330.7302874699451
 30
0.0
 40
6.6846780422480627
 50
86.437894021760016
 51
273.56210597823991
  0
ARC
  5
381
  8
DATA
  6
CONTINUOUS
 62
     7
 10
1735.340321957751
 20
1330.7302874699451
 30
0.0
 40
6.6846780422483381
 50
266.43789402175332
 51
93.562105978232211
  0
ARC
  5
382
  8
DATA
  6
CONTINUOUS
 62
     7
 10
1699.1558559239479
 20
1387.272123373853
 30
0.0
 40
14.122559244187631
 50
86.437894021760016
 51
273.56210597824003
  0
ARC
  5
383
  8
DATA
  6
CONTINUOUS
 62
     7
 10
1699.331344089904
 20
1387.272123373853
 30
0.0
 40
11.298047410142541
 50
86.437892816672289
 51
273.56210718332773
  0
ARC
  5
384
  8
DATA
  6
CONTINUOUS
 62
     7
 10
1663.5001130000001
 20
1422.3135839680649
 30
0.0
 40
2.192025411390857
 50
264.69085622152909
 51
323.99119915426729
  0
ARC
  5
385
  8
DATA
  6
CONTINUOUS
 62
     7
 10
1663.0944675000001
 20
1422.3135839680649
 30
0.0
 40
2.1920218514040619
 50
216.00880084573799
 51
275.3091437784671
  0
LINE
  5
386
  8
DATA
  6
CONTINUOUS
 62
     7
 10
1675.8277225000011
 20
1420.1309624680659
 30
0.0
 11
1671.5777225000011
 21
1420.1309624680659
 31
0.0
  0
LINE
  5
387
  8
DATA
  6
CONTINUOUS
 62
     7
 10
1666.1985824999999
 20
1420.1309624680659
 30
0.0
 11
1669.1782745
 21
1420.1309709680661
 31
0.0
  0
LINE
  5
388
  8
DATA
  6
CONTINUOUS
 62
     7
 10
1667.6256985
 20
1420.9307784680659
 30
0.0
 11
1668.3941494999999
 21
1420.9307784680659
 31
0.0
  0
ARC
  5
389
  8
DATA
  6
CONTINUOUS
 62
     7
 10
1668.4032236432131
 20
1422.4214132345639
 30
0.0
 40
1.490662385373706
 50
269.65121993761773
 51
282.8264828068813
  0
ARC
  5
38A
  8
DATA
  6
CONTINUOUS
 62
     7
 10
1668.5706486233471
 20
1421.7911907035229
 30
0.0
 40
0.8393222181388672
 50
281.23310362266221
 51
306.86200889407428
  0
LINE
  5
38B
  8
DATA
  6
CONTINUOUS
 62
     7
 10
1646.0
 20
1321.3333612620861
 30
0.0
 11
1754.0
 21
1321.3333612620861
 31
0.0
  0
LINE
  5
38C
  8
DATA
  6
CONTINUOUS
 62
     7
 10
1652.5
 20
1406.217800539674
 30
0.0
 11
1747.5
 21
1406.217800539674
 31
0.0
  0
LINE
  5
38D
  8
DATA
  6
CONTINUOUS
 62
     7
 10
1608.0
 20
1276.8765452355799
 30
0.0
 11
1590.3223304703361
 21
1294.5542147652429
 31
0.0
  0
LINE
  5
38E
  8
DATA
  6
CONTINUOUS
 62
     7
 10
1625.6776695296639
 20
1294.5542147652429
 30
0.0
 11
1608.0
 21
1276.8765452355799
 31
0.0
  0
LINE
  5
38F
  8
DATA
  6
CONTINUOUS
 62
     7
 10
1608.0
 20
1312.2318842949101
 30
0.0
 11
1625.6776695296639
 21
1294.5542147652429
 31
0.0
  0
LINE
  5
390
  8
DATA
  6
CONTINUOUS
 62
     7
 10
1590.3223304703361
 20
1294.5542147652429
 30
0.0
 11
1608.0
 21
1312.2318842949101
 31
0.0
  0
LINE
  5
391
  8
DATA
  6
CONTINUOUS
 62
     7
 10
1625.6776695296639
 20
1294.5542147652429
 30
0.0
 11
1590.3223304703361
 21
1294.5542147652429
 31
0.0
  0
LINE
  5
392
  8
DATA
  6
CONTINUOUS
 62
     7
 10
1608.0
 20
1276.8765452355799
 30
0.0
 11
1608.0
 21
1312.2318842949101
 31
0.0
  0
LINE
  5
393
  8
DATA
  6
CONTINUOUS
 62
     7
 10
1588.0
 20
1243.0476108872861
 30
0.0
 11
1570.3223304703361
 21
1260.72528041695
 31
0.0
  0
LINE
  5
394
  8
DATA
  6
CONTINUOUS
 62
     7
 10
1605.677669529663
 20
1260.72528041695
 30
0.0
 11
1588.0
 21
1243.0476108872861
 31
0.0
  0
LINE
  5
395
  8
DATA
  6
CONTINUOUS
 62
     7
 10
1588.0
 20
1278.4029499466151
 30
0.0
 11
1605.677669529663
 21
1260.72528041695
 31
0.0
  0
LINE
  5
396
  8
DATA
  6
CONTINUOUS
 62
     7
 10
1570.3223304703361
 20
1260.72528041695
 30
0.0
 11
1588.0
 21
1278.4029499466151
 31
0.0
  0
LINE
  5
397
  8
DATA
  6
CONTINUOUS
 62
     7
 10
1605.677669529663
 20
1260.72528041695
 30
0.0
 11
1570.3223304703361
 21
1260.72528041695
 31
0.0
  0
LINE
  5
398
  8
DATA
  6
CONTINUOUS
 62
     7
 10
1588.0
 20
1243.0476108872861
 30
0.0
 11
1588.0
 21
1278.4029499466151
 31
0.0
  0
LINE
  5
399
  8
DATA
  6
CONTINUOUS
 62
     7
 10
1608.0
 20
1209.2186765389929
 30
0.0
 11
1590.3223304703361
 21
1226.8963460686571
 31
0.0
  0
LINE
  5
39A
  8
DATA
  6
CONTINUOUS
 62
     7
 10
1625.6776695296639
 20
1226.8963460686571
 30
0.0
 11
1608.0
 21
1209.2186765389929
 31
0.0
  0
LINE
  5
39B
  8
DATA
  6
CONTINUOUS
 62
     7
 10
1608.0
 20
1244.5740155983231
 30
0.0
 11
1625.6776695296639
 21
1226.8963460686571
 31
0.0
  0
LINE
  5
39C
  8
DATA
  6
CONTINUOUS
 62
     7
 10
1590.3223304703361
 20
1226.8963460686571
 30
0.0
 11
1608.0
 21
1244.5740155983231
 31
0.0
  0
LINE
  5
39D
  8
DATA
  6
CONTINUOUS
 62
     7
 10
1625.6776695296639
 20
1226.8963460686571
 30
0.0
 11
1590.3223304703361
 21
1226.8963460686571
 31
0.0
  0
LINE
  5
39E
  8
DATA
  6
CONTINUOUS
 62
     7
 10
1608.0
 20
1209.2186765389929
 30
0.0
 11
1608.0
 21
1244.5740155983231
 31
0.0
  0
LINE
  5
39F
  8
DATA
  6
CONTINUOUS
 62
     7
 10
1793.6480119486371
 20
1276.8765452355799
 30
0.0
 11
1811.325681478301
 21
1294.5542147652429
 31
0.0
  0
LINE
  5
3A0
  8
DATA
  6
CONTINUOUS
 62
     7
 10
1775.9703424189729
 20
1294.5542147652429
 30
0.0
 11
1793.6480119486371
 21
1276.8765452355799
 31
0.0
  0
LINE
  5
3A1
  8
DATA
  6
CONTINUOUS
 62
     7
 10
1793.6480119486371
 20
1312.2318842949101
 30
0.0
 11
1775.9703424189729
 21
1294.5542147652429
 31
0.0
  0
LINE
  5
3A2
  8
DATA
  6
CONTINUOUS
 62
     7
 10
1811.325681478301
 20
1294.5542147652429
 30
0.0
 11
1793.6480119486371
 21
1312.2318842949101
 31
0.0
  0
LINE
  5
3A3
  8
DATA
  6
CONTINUOUS
 62
     7
 10
1775.9703424189729
 20
1294.5542147652429
 30
0.0
 11
1811.325681478301
 21
1294.5542147652429
 31
0.0
  0
LINE
  5
3A4
  8
DATA
  6
CONTINUOUS
 62
     7
 10
1793.6480119486371
 20
1276.8765452355799
 30
0.0
 11
1793.6480119486371
 21
1312.2318842949101
 31
0.0
  0
LINE
  5
3A5
  8
DATA
  6
CONTINUOUS
 62
     7
 10
1813.6480119486371
 20
1243.0476108872861
 30
0.0
 11
1831.325681478301
 21
1260.72528041695
 31
0.0
  0
LINE
  5
3A6
  8
DATA
  6
CONTINUOUS
 62
     7
 10
1795.9703424189729
 20
1260.72528041695
 30
0.0
 11
1813.6480119486371
 21
1243.0476108872861
 31
0.0
  0
LINE
  5
3A7
  8
DATA
  6
CONTINUOUS
 62
     7
 10
1813.6480119486371
 20
1278.4029499466151
 30
0.0
 11
1795.9703424189729
 21
1260.72528041695
 31
0.0
  0
LINE
  5
3A8
  8
DATA
  6
CONTINUOUS
 62
     7
 10
1831.325681478301
 20
1260.72528041695
 30
0.0
 11
1813.6480119486371
 21
1278.4029499466151
 31
0.0
  0
LINE
  5
3A9
  8
DATA
  6
CONTINUOUS
 62
     7
 10
1795.9703424189729
 20
1260.72528041695
 30
0.0
 11
1831.325681478301
 21
1260.72528041695
 31
0.0
  0
LINE
  5
3AA
  8
DATA
  6
CONTINUOUS
 62
     7
 10
1813.6480119486371
 20
1243.0476108872861
 30
0.0
 11
1813.6480119486371
 21
1278.4029499466151
 31
0.0
  0
LINE
  5
3AB
  8
DATA
  6
CONTINUOUS
 62
     7
 10
1793.6480119486371
 20
1209.2186765389929
 30
0.0
 11
1811.325681478301
 21
1226.8963460686571
 31
0.0
  0
LINE
  5
3AC
  8
DATA
  6
CONTINUOUS
 62
     7
 10
1775.9703424189729
 20
1226.8963460686571
 30
0.0
 11
1793.6480119486371
 21
1209.2186765389929
 31
0.0
  0
LINE
  5
3AD
  8
DATA
  6
CONTINUOUS
 62
     7
 10
1793.6480119486371
 20
1244.5740155983231
 30
0.0
 11
1775.9703424189729
 21
1226.8963460686571
 31
0.0
  0
LINE
  5
3AE
  8
DATA
  6
CONTINUOUS
 62
     7
 10
1811.325681478301
 20
1226.8963460686571
 30
0.0
 11
1793.6480119486371
 21
1244.5740155983231
 31
0.0
  0
LINE
  5
3AF
  8
DATA
  6
CONTINUOUS
 62
     7
 10
1775.9703424189729
 20
1226.8963460686571
 30
0.0
 11
1811.325681478301
 21
1226.8963460686571
 31
0.0
  0
LINE
  5
3B0
  8
DATA
  6
CONTINUOUS
 62
     7
 10
1793.6480119486371
 20
1209.2186765389929
 30
0.0
 11
1793.6480119486371
 21
1244.5740155983231
 31
0.0
  0
LINE
  5
3B1
  8
DATA
  6
CONTINUOUS
 62
     7
 10
1654.0
 20
1276.8765452355799
 30
0.0
 11
1636.3223304703361
 21
1294.5542147652429
 31
0.0
  0
LINE
  5
3B2
  8
DATA
  6
CONTINUOUS
 62
     7
 10
1671.677669529663
 20
1294.5542147652429
 30
0.0
 11
1654.0
 21
1276.8765452355799
 31
0.0
  0
LINE
  5
3B3
  8
DATA
  6
CONTINUOUS
 62
     7
 10
1654.0
 20
1312.2318842949101
 30
0.0
 11
1671.677669529663
 21
1294.5542147652429
 31
0.0
  0
LINE
  5
3B4
  8
DATA
  6
CONTINUOUS
 62
     7
 10
1636.3223304703361
 20
1294.5542147652429
 30
0.0
 11
1654.0
 21
1312.2318842949101
 31
0.0
  0
LINE
  5
3B5
  8
DATA
  6
CONTINUOUS
 62
     7
 10
1671.677669529663
 20
1294.5542147652429
 30
0.0
 11
1636.3223304703361
 21
1294.5542147652429
 31
0.0
  0
LINE
  5
3B6
  8
DATA
  6
CONTINUOUS
 62
     7
 10
1654.0
 20
1276.8765452355799
 30
0.0
 11
1654.0
 21
1312.2318842949101
 31
0.0
  0
LINE
  5
3B7
  8
DATA
  6
CONTINUOUS
 62
     7
 10
1700.0
 20
1276.8765452355799
 30
0.0
 11
1682.3223304703361
 21
1294.5542147652429
 31
0.0
  0
LINE
  5
3B8
  8
DATA
  6
CONTINUOUS
 62
     7
 10
1717.677669529663
 20
1294.5542147652429
 30
0.0
 11
1700.0
 21
1276.8765452355799
 31
0.0
  0
LINE
  5
3B9
  8
DATA
  6
CONTINUOUS
 62
     7
 10
1700.0
 20
1312.2318842949101
 30
0.0
 11
1717.677669529663
 21
1294.5542147652429
 31
0.0
  0
LINE
  5
3BA
  8
DATA
  6
CONTINUOUS
 62
     7
 10
1682.3223304703361
 20
1294.5542147652429
 30
0.0
 11
1700.0
 21
1312.2318842949101
 31
0.0
  0
LINE
  5
3BB
  8
DATA
  6
CONTINUOUS
 62
     7
 10
1717.677669529663
 20
1294.5542147652429
 30
0.0
 11
1682.3223304703361
 21
1294.5542147652429
 31
0.0
  0
LINE
  5
3BC
  8
DATA
  6
CONTINUOUS
 62
     7
 10
1700.0
 20
1276.8765452355799
 30
0.0
 11
1700.0
 21
1312.2318842949101
 31
0.0
  0
LINE
  5
3BD
  8
DATA
  6
CONTINUOUS
 62
     7
 10
1746.0
 20
1276.8765452355799
 30
0.0
 11
1728.3223304703361
 21
1294.5542147652429
 31
0.0
  0
LINE
  5
3BE
  8
DATA
  6
CONTINUOUS
 62
     7
 10
1763.677669529663
 20
1294.5542147652429
 30
0.0
 11
1746.0
 21
1276.8765452355799
 31
0.0
  0
LINE
  5
3BF
  8
DATA
  6
CONTINUOUS
 62
     7
 10
1746.0
 20
1312.2318842949101
 30
0.0
 11
1763.677669529663
 21
1294.5542147652429
 31
0.0
  0
LINE
  5
3C0
  8
DATA
  6
CONTINUOUS
 62
     7
 10
1728.3223304703361
 20
1294.5542147652429
 30
0.0
 11
1746.0
 21
1312.2318842949101
 31
0.0
  0
LINE
  5
3C1
  8
DATA
  6
CONTINUOUS
 62
     7
 10
1763.677669529663
 20
1294.5542147652429
 30
0.0
 11
1728.3223304703361
 21
1294.5542147652429
 31
0.0
  0
LINE
  5
3C2
  8
DATA
  6
CONTINUOUS
 62
     7
 10
1746.0
 20
1276.8765452355799
 30
0.0
 11
1746.0
 21
1312.2318842949101
 31
0.0
  0
LINE
  5
3C3
  8
DATA
  6
CONTINUOUS
 62
     7
 10
1633.0
 20
1243.0476108872861
 30
0.0
 11
1615.322330470337
 21
1260.72528041695
 31
0.0
  0
LINE
  5
3C4
  8
DATA
  6
CONTINUOUS
 62
     7
 10
1650.677669529663
 20
1260.72528041695
 30
0.0
 11
1633.0
 21
1243.0476108872861
 31
0.0
  0
LINE
  5
3C5
  8
DATA
  6
CONTINUOUS
 62
     7
 10
1633.0
 20
1278.4029499466151
 30
0.0
 11
1650.677669529663
 21
1260.72528041695
 31
0.0
  0
LINE
  5
3C6
  8
DATA
  6
CONTINUOUS
 62
     7
 10
1615.322330470337
 20
1260.72528041695
 30
0.0
 11
1633.0
 21
1278.4029499466151
 31
0.0
  0
LINE
  5
3C7
  8
DATA
  6
CONTINUOUS
 62
     7
 10
1650.677669529663
 20
1260.72528041695
 30
0.0
 11
1615.322330470337
 21
1260.72528041695
 31
0.0
  0
LINE
  5
3C8
  8
DATA
  6
CONTINUOUS
 62
     7
 10
1633.0
 20
1243.0476108872861
 30
0.0
 11
1633.0
 21
1278.4029499466151
 31
0.0
  0
LINE
  5
3C9
  8
DATA
  6
CONTINUOUS
 62
     7
 10
1678.0
 20
1243.0476108872861
 30
0.0
 11
1660.3223304703361
 21
1260.72528041695
 31
0.0
  0
LINE
  5
3CA
  8
DATA
  6
CONTINUOUS
 62
     7
 10
1695.677669529663
 20
1260.72528041695
 30
0.0
 11
1678.0
 21
1243.0476108872861
 31
0.0
  0
LINE
  5
3CB
  8
DATA
  6
CONTINUOUS
 62
     7
 10
1678.0
 20
1278.4029499466151
 30
0.0
 11
1695.677669529663
 21
1260.72528041695
 31
0.0
  0
LINE
  5
3CC
  8
DATA
  6
CONTINUOUS
 62
     7
 10
1660.3223304703361
 20
1260.72528041695
 30
0.0
 11
1678.0
 21
1278.4029499466151
 31
0.0
  0
LINE
  5
3CD
  8
DATA
  6
CONTINUOUS
 62
     7
 10
1695.677669529663
 20
1260.72528041695
 30
0.0
 11
1660.3223304703361
 21
1260.72528041695
 31
0.0
  0
LINE
  5
3CE
  8
DATA
  6
CONTINUOUS
 62
     7
 10
1678.0
 20
1243.0476108872861
 30
0.0
 11
1678.0
 21
1278.4029499466151
 31
0.0
  0
LINE
  5
3CF
  8
DATA
  6
CONTINUOUS
 62
     7
 10
1723.0
 20
1243.0476108872861
 30
0.0
 11
1705.3223304703361
 21
1260.72528041695
 31
0.0
  0
LINE
  5
3D0
  8
DATA
  6
CONTINUOUS
 62
     7
 10
1740.677669529663
 20
1260.72528041695
 30
0.0
 11
1723.0
 21
1243.0476108872861
 31
0.0
  0
LINE
  5
3D1
  8
DATA
  6
CONTINUOUS
 62
     7
 10
1723.0
 20
1278.4029499466151
 30
0.0
 11
1740.677669529663
 21
1260.72528041695
 31
0.0
  0
LINE
  5
3D2
  8
DATA
  6
CONTINUOUS
 62
     7
 10
1705.3223304703361
 20
1260.72528041695
 30
0.0
 11
1723.0
 21
1278.4029499466151
 31
0.0
  0
LINE
  5
3D3
  8
DATA
  6
CONTINUOUS
 62
     7
 10
1740.677669529663
 20
1260.72528041695
 30
0.0
 11
1705.3223304703361
 21
1260.72528041695
 31
0.0
  0
LINE
  5
3D4
  8
DATA
  6
CONTINUOUS
 62
     7
 10
1723.0
 20
1243.0476108872861
 30
0.0
 11
1723.0
 21
1278.4029499466151
 31
0.0
  0
LINE
  5
3D5
  8
DATA
  6
CONTINUOUS
 62
     7
 10
1768.0
 20
1243.0476108872861
 30
0.0
 11
1750.3223304703361
 21
1260.72528041695
 31
0.0
  0
LINE
  5
3D6
  8
DATA
  6
CONTINUOUS
 62
     7
 10
1785.677669529663
 20
1260.72528041695
 30
0.0
 11
1768.0
 21
1243.0476108872861
 31
0.0
  0
LINE
  5
3D7
  8
DATA
  6
CONTINUOUS
 62
     7
 10
1768.0
 20
1278.4029499466151
 30
0.0
 11
1785.677669529663
 21
1260.72528041695
 31
0.0
  0
LINE
  5
3D8
  8
DATA
  6
CONTINUOUS
 62
     7
 10
1750.3223304703361
 20
1260.72528041695
 30
0.0
 11
1768.0
 21
1278.4029499466151
 31
0.0
  0
LINE
  5
3D9
  8
DATA
  6
CONTINUOUS
 62
     7
 10
1785.677669529663
 20
1260.72528041695
 30
0.0
 11
1750.3223304703361
 21
1260.72528041695
 31
0.0
  0
LINE
  5
3DA
  8
DATA
  6
CONTINUOUS
 62
     7
 10
1768.0
 20
1243.0476108872861
 30
0.0
 11
1768.0
 21
1278.4029499466151
 31
0.0
  0
LINE
  5
3DB
  8
DATA
  6
CONTINUOUS
 62
     7
 10
1588.0
 20
1378.3633482804589
 30
0.0
 11
1570.3223304703361
 21
1396.0410178101231
 31
0.0
  0
LINE
  5
3DC
  8
DATA
  6
CONTINUOUS
 62
     7
 10
1605.677669529663
 20
1396.0410178101231
 30
0.0
 11
1588.0
 21
1378.3633482804589
 31
0.0
  0
LINE
  5
3DD
  8
DATA
  6
CONTINUOUS
 62
     7
 10
1588.0
 20
1413.7186873397879
 30
0.0
 11
1605.677669529663
 21
1396.0410178101231
 31
0.0
  0
LINE
  5
3DE
  8
DATA
  6
CONTINUOUS
 62
     7
 10
1570.3223304703361
 20
1396.0410178101231
 30
0.0
 11
1588.0
 21
1413.7186873397879
 31
0.0
  0
LINE
  5
3DF
  8
DATA
  6
CONTINUOUS
 62
     7
 10
1605.677669529663
 20
1396.0410178101231
 30
0.0
 11
1570.3223304703361
 21
1396.0410178101231
 31
0.0
  0
LINE
  5
3E0
  8
DATA
  6
CONTINUOUS
 62
     7
 10
1588.0
 20
1378.3633482804589
 30
0.0
 11
1588.0
 21
1413.7186873397879
 31
0.0
  0
LINE
  5
3E1
  8
DATA
  6
CONTINUOUS
 62
     7
 10
1588.0
 20
1310.7054795838719
 30
0.0
 11
1570.3223304703361
 21
1328.3831491135361
 31
0.0
  0
LINE
  5
3E2
  8
DATA
  6
CONTINUOUS
 62
     7
 10
1605.677669529663
 20
1328.3831491135361
 30
0.0
 11
1588.0
 21
1310.7054795838719
 31
0.0
  0
LINE
  5
3E3
  8
DATA
  6
CONTINUOUS
 62
     7
 10
1588.0
 20
1346.0608186432021
 30
0.0
 11
1605.677669529663
 21
1328.3831491135361
 31
0.0
  0
LINE
  5
3E4
  8
DATA
  6
CONTINUOUS
 62
     7
 10
1570.3223304703361
 20
1328.3831491135361
 30
0.0
 11
1588.0
 21
1346.0608186432021
 31
0.0
  0
LINE
  5
3E5
  8
DATA
  6
CONTINUOUS
 62
     7
 10
1605.677669529663
 20
1328.3831491135361
 30
0.0
 11
1570.3223304703361
 21
1328.3831491135361
 31
0.0
  0
LINE
  5
3E6
  8
DATA
  6
CONTINUOUS
 62
     7
 10
1588.0
 20
1310.7054795838719
 30
0.0
 11
1588.0
 21
1346.0608186432021
 31
0.0
  0
LINE
  5
3E7
  8
DATA
  6
CONTINUOUS
 62
     7
 10
1813.6480119486371
 20
1378.3633482804589
 30
0.0
 11
1831.325681478301
 21
1396.0410178101231
 31
0.0
  0
LINE
  5
3E8
  8
DATA
  6
CONTINUOUS
 62
     7
 10
1795.9703424189729
 20
1396.0410178101231
 30
0.0
 11
1813.6480119486371
 21
1378.3633482804589
 31
0.0
  0
LINE
  5
3E9
  8
DATA
  6
CONTINUOUS
 62
     7
 10
1813.6480119486371
 20
1413.7186873397879
 30
0.0
 11
1795.9703424189729
 21
1396.0410178101231
 31
0.0
  0
LINE
  5
3EA
  8
DATA
  6
CONTINUOUS
 62
     7
 10
1831.325681478301
 20
1396.0410178101231
 30
0.0
 11
1813.6480119486371
 21
1413.7186873397879
 31
0.0
  0
LINE
  5
3EB
  8
DATA
  6
CONTINUOUS
 62
     7
 10
1795.9703424189729
 20
1396.0410178101231
 30
0.0
 11
1831.325681478301
 21
1396.0410178101231
 31
0.0
  0
LINE
  5
3EC
  8
DATA
  6
CONTINUOUS
 62
     7
 10
1813.6480119486371
 20
1378.3633482804589
 30
0.0
 11
1813.6480119486371
 21
1413.7186873397879
 31
0.0
  0
LINE
  5
3ED
  8
DATA
  6
CONTINUOUS
 62
     7
 10
1813.6480119486371
 20
1310.7054795838719
 30
0.0
 11
1831.325681478301
 21
1328.3831491135361
 31
0.0
  0
LINE
  5
3EE
  8
DATA
  6
CONTINUOUS
 62
     7
 10
1795.9703424189729
 20
1328.3831491135361
 30
0.0
 11
1813.6480119486371
 21
1310.7054795838719
 31
0.0
  0
LINE
  5
3EF
  8
DATA
  6
CONTINUOUS
 62
     7
 10
1813.6480119486371
 20
1346.0608186432021
 30
0.0
 11
1795.9703424189729
 21
1328.3831491135361
 31
0.0
  0
LINE
  5
3F0
  8
DATA
  6
CONTINUOUS
 62
     7
 10
1831.325681478301
 20
1328.3831491135361
 30
0.0
 11
1813.6480119486371
 21
1346.0608186432021
 31
0.0
  0
LINE
  5
3F1
  8
DATA
  6
CONTINUOUS
 62
     7
 10
1795.9703424189729
 20
1328.3831491135361
 30
0.0
 11
1831.325681478301
 21
1328.3831491135361
 31
0.0
  0
LINE
  5
3F2
  8
DATA
  6
CONTINUOUS
 62
     7
 10
1813.6480119486371
 20
1310.7054795838719
 30
0.0
 11
1813.6480119486371
 21
1346.0608186432021
 31
0.0
  0
LINE
  5
3F3
  8
DATA
  6
CONTINUOUS
 62
     7
 10
1608.0
 20
1344.534413932166
 30
0.0
 11
1590.3223304703361
 21
1362.2120834618299
 31
0.0
  0
LINE
  5
3F4
  8
DATA
  6
CONTINUOUS
 62
     7
 10
1625.6776695296639
 20
1362.2120834618299
 30
0.0
 11
1608.0
 21
1344.534413932166
 31
0.0
  0
LINE
  5
3F5
  8
DATA
  6
CONTINUOUS
 62
     7
 10
1608.0
 20
1379.889752991495
 30
0.0
 11
1625.6776695296639
 21
1362.2120834618299
 31
0.0
  0
LINE
  5
3F6
  8
DATA
  6
CONTINUOUS
 62
     7
 10
1590.3223304703361
 20
1362.2120834618299
 30
0.0
 11
1608.0
 21
1379.889752991495
 31
0.0
  0
LINE
  5
3F7
  8
DATA
  6
CONTINUOUS
 62
     7
 10
1625.6776695296639
 20
1362.2120834618299
 30
0.0
 11
1590.3223304703361
 21
1362.2120834618299
 31
0.0
  0
LINE
  5
3F8
  8
DATA
  6
CONTINUOUS
 62
     7
 10
1608.0
 20
1344.534413932166
 30
0.0
 11
1608.0
 21
1379.889752991495
 31
0.0
  0
LINE
  5
3F9
  8
DATA
  6
CONTINUOUS
 62
     7
 10
1793.6480119486371
 20
1344.534413932166
 30
0.0
 11
1811.325681478301
 21
1362.2120834618299
 31
0.0
  0
LINE
  5
3FA
  8
DATA
  6
CONTINUOUS
 62
     7
 10
1775.9703424189729
 20
1362.2120834618299
 30
0.0
 11
1793.6480119486371
 21
1344.534413932166
 31
0.0
  0
LINE
  5
3FB
  8
DATA
  6
CONTINUOUS
 62
     7
 10
1793.6480119486371
 20
1379.889752991495
 30
0.0
 11
1775.9703424189729
 21
1362.2120834618299
 31
0.0
  0
LINE
  5
3FC
  8
DATA
  6
CONTINUOUS
 62
     7
 10
1811.325681478301
 20
1362.2120834618299
 30
0.0
 11
1793.6480119486371
 21
1379.889752991495
 31
0.0
  0
LINE
  5
3FD
  8
DATA
  6
CONTINUOUS
 62
     7
 10
1775.9703424189729
 20
1362.2120834618299
 30
0.0
 11
1811.325681478301
 21
1362.2120834618299
 31
0.0
  0
LINE
  5
3FE
  8
DATA
  6
CONTINUOUS
 62
     7
 10
1793.6480119486371
 20
1344.534413932166
 30
0.0
 11
1793.6480119486371
 21
1379.889752991495
 31
0.0
  0
ARC
  5
3FF
  8
DATA
  6
CONTINUOUS
 62
     7
 10
1700.0000000000009
 20
1522.639886601735
 30
0.0
 40
25.075072181774779
 50
253.78982074551399
 51
269.99999999999841
  0
ARC
  5
400
  8
DATA
  6
CONTINUOUS
 62
     7
 10
1700.000000000136
 20
1522.639886601735
 30
0.0
 40
25.075072181774772
 50
270.00000000000159
 51
286.21017925448598
  0
LINE
  5
401
  8
DATA
  6
CONTINUOUS
 62
     7
 10
1591.9999999999291
 20
1499.558578316485
 30
0.0
 11
1605.99999999993
 21
1499.558578316485
 31
0.0
  0
LINE
  5
402
  8
DATA
  6
CONTINUOUS
 62
     7
 10
1591.9999999999311
 20
1499.558578316485
 30
0.0
 11
1591.9999999999311
 21
1498.561696368223
 31
0.0
  0
LINE
  5
403
  8
DATA
  6
CONTINUOUS
 62
     7
 10
1606.0000000000659
 20
1498.561696368223
 30
0.0
 11
1605.99999999993
 21
1499.558578316485
 31
0.0
  0
ARC
  5
404
  8
DATA
  6
CONTINUOUS
 62
     7
 10
1598.99999999993
 20
1522.639886601735
 30
0.0
 40
25.075072181774779
 50
253.78982074551399
 51
269.99999999999841
  0
ARC
  5
405
  8
DATA
  6
CONTINUOUS
 62
     7
 10
1599.0000000000659
 20
1522.639886601735
 30
0.0
 40
25.075072181774772
 50
270.00000000000159
 51
286.21017925448598
  0
LINE
  5
406
  8
DATA
  6
CONTINUOUS
 62
     7
 10
1793.999999999796
 20
1499.558578316485
 30
0.0
 11
1807.999999999796
 21
1499.558578316485
 31
0.0
  0
LINE
  5
407
  8
DATA
  6
CONTINUOUS
 62
     7
 10
1793.999999999797
 20
1499.558578316485
 30
0.0
 11
1793.999999999797
 21
1498.561696368223
 31
0.0
  0
LINE
  5
408
  8
DATA
  6
CONTINUOUS
 62
     7
 10
1807.999999999932
 20
1498.561696368223
 30
0.0
 11
1807.999999999796
 21
1499.558578316485
 31
0.0
  0
ARC
  5
409
  8
DATA
  6
CONTINUOUS
 62
     7
 10
1800.999999999797
 20
1522.639886601735
 30
0.0
 40
25.075072181774779
 50
253.78982074551399
 51
269.99999999999841
  0
ARC
  5
40A
  8
DATA
  6
CONTINUOUS
 62
     7
 10
1800.999999999932
 20
1522.639886601735
 30
0.0
 40
25.075072181774772
 50
270.00000000000159
 51
286.21017925448598
  0
ENDSEC
  0
EOF
