  0
SECTION
  2
HEADER
  9
$ACADVER
  1
AC1009
  9
$INSBASE
 10
0.0
 20
0.0
 30
0.0
  9
$EXTMIN
 10
-1250.0823911746049
 20
-1874.8832945933341
 30
-0.0033988876757149
  9
$EXTMAX
 10
1450.0824037474611
 20
2139.5676713551261
 30
0.0000000777973383
  9
$LIMMIN
 10
0.0
 20
0.0
  9
$LIMMAX
 10
0.0
 20
0.0
  9
$ORTHOMODE
 70
     0
  9
$REGENMODE
 70
     1
  9
$FILLMODE
 70
     1
  9
$QTEXTMODE
 70
     0
  9
$MIRRTEXT
 70
     1
  9
$DRAGMODE
 70
     2
  9
$LTSCALE
 40
76.200000000000003
  9
$OSMODE
 70
   231
  9
$ATTMODE
 70
     1
  9
$TEXTSIZE
 40
0.0
  9
$TRACEWID
 40
1.0
  9
$TEXTSTYLE
  7
STANDARD
  9
$CLAYER
  8
DATA
  9
$CELTYPE
  6
BYLAYER
  9
$CECOLOR
 62
   256
  9
$DIMSCALE
 40
1.0
  9
$DIMASZ
 40
0.18
  9
$DIMEXO
 40
0.0625
  9
$DIMDLI
 40
0.38
  9
$DIMRND
 40
0.0
  9
$DIMDLE
 40
0.0
  9
$DIMEXE
 40
0.18
  9
$DIMTP
 40
0.0
  9
$DIMTM
 40
0.0
  9
$DIMTXT
 40
0.18
  9
$DIMCEN
 40
0.09
  9
$DIMTSZ
 40
0.0
  9
$DIMTOL
 70
     0
  9
$DIMLIM
 70
     0
  9
$DIMTIH
 70
     1
  9
$DIMTOH
 70
     1
  9
$DIMSE1
 70
     0
  9
$DIMSE2
 70
     0
  9
$DIMTAD
 70
     0
  9
$DIMZIN
 70
     0
  9
$DIMBLK
  1

  9
$DIMASO
 70
     1
  9
$DIMSHO
 70
     1
  9
$DIMPOST
  1

  9
$DIMAPOST
  1

  9
$DIMALT
 70
     0
  9
$DIMALTD
 70
     2
  9
$DIMALTF
 40
25.399999999999999
  9
$DIMLFAC
 40
1.0
  9
$DIMTOFL
 70
     0
  9
$DIMTVP
 40
0.0
  9
$DIMTIX
 70
     0
  9
$DIMSOXD
 70
     0
  9
$DIMSAH
 70
     0
  9
$DIMBLK1
  1

  9
$DIMBLK2
  1

  9
$DIMSTYLE
  2
STANDARD
  9
$DIMCLRD
 70
     0
  9
$DIMCLRE
 70
     0
  9
$DIMCLRT
 70
     0
  9
$DIMTFAC
 40
1.0
  9
$DIMGAP
 40
0.09
  9
$LUNITS
 70
     2
  9
$LUPREC
 70
     4
  9
$SKETCHINC
 40
0.1
  9
$FILLETRAD
 40
0.0
  9
$AUNITS
 70
     0
  9
$AUPREC
 70
     0
  9
$MENU
  1
acad
  9
$ELEVATION
 40
0.0
  9
$PELEVATION
 40
0.0
  9
$THICKNESS
 40
0.0
  9
$LIMCHECK
 70
     0
  9
$BLIPMODE
 70
     0
  9
$CHAMFERA
 40
0.0
  9
$CHAMFERB
 40
0.0
  9
$SKPOLY
 70
     0
  9
$TDCREATE
 40
2454985.6961342599
  9
$TDUPDATE
 40
2454985.6967849769
  9
$TDINDWG
 40
0.0005138194
  9
$TDUSRTIMER
 40
0.0005121875
  9
$USRTIMER
 70
     1
  9
$ANGBASE
 50
0.0
  9
$ANGDIR
 70
     0
  9
$PDMODE
 70
     1
  9
$PDSIZE
 40
-2.0
  9
$PLINEWID
 40
0.0
  9
$COORDS
 70
     1
  9
$SPLFRAME
 70
     0
  9
$SPLINETYPE
 70
     6
  9
$SPLINESEGS
 70
     8
  9
$ATTDIA
 70
     0
  9
$ATTREQ
 70
     1
  9
$HANDLING
 70
     1
  9
$HANDSEED
  5
5CB
  9
$SURFTAB1
 70
     6
  9
$SURFTAB2
 70
     6
  9
$SURFTYPE
 70
     6
  9
$SURFU
 70
     6
  9
$SURFV
 70
     6
  9
$UCSNAME
  2

  9
$UCSORG
 10
0.0
 20
0.0
 30
0.0
  9
$UCSXDIR
 10
1.0
 20
0.0
 30
0.0
  9
$UCSYDIR
 10
0.0
 20
1.0
 30
0.0
  9
$PUCSNAME
  2

  9
$PUCSORG
 10
0.0
 20
0.0
 30
0.0
  9
$PUCSXDIR
 10
1.0
 20
0.0
 30
0.0
  9
$PUCSYDIR
 10
0.0
 20
1.0
 30
0.0
  9
$USERI1
 70
     0
  9
$USERI2
 70
     0
  9
$USERI3
 70
     0
  9
$USERI4
 70
     0
  9
$USERI5
 70
     0
  9
$USERR1
 40
0.0
  9
$USERR2
 40
0.0
  9
$USERR3
 40
0.0
  9
$USERR4
 40
0.0
  9
$USERR5
 40
0.0
  9
$WORLDVIEW
 70
     1
  9
$SHADEDGE
 70
     3
  9
$SHADEDIF
 70
    70
  9
$TILEMODE
 70
     1
  9
$MAXACTVP
 70
    64
  9
$PLIMCHECK
 70
     0
  9
$PEXTMIN
 10
1.0000000000000000E+020
 20
1.0000000000000000E+020
 30
1.0000000000000000E+020
  9
$PEXTMAX
 10
-1.0000000000000000E+020
 20
-1.0000000000000000E+020
 30
-1.0000000000000000E+020
  9
$PLIMMIN
 10
0.0
 20
0.0
  9
$PLIMMAX
 10
12.0
 20
9.0
  9
$UNITMODE
 70
     0
  9
$VISRETAIN
 70
     0
  9
$PLINEGEN
 70
     1
  9
$PSLTSCALE
 70
     0
  0
ENDSEC
  0
SECTION
  2
TABLES
  0
TABLE
  2
VPORT
 70
     1
  0
VPORT
  2
*ACTIVE
 70
     0
 10
0.0
 20
0.0
 11
1.0
 21
1.0
 12
100.0000062864285
 22
132.34218838089569
 13
0.0
 23
0.0
 14
1.0
 24
1.0
 15
0.0
 25
0.0
 16
0.0
 26
0.0
 36
1.0
 17
0.0
 27
0.0
 37
0.0
 40
4047.7198966054912
 41
1.66804979253112
 42
50.0
 43
0.0
 44
0.0
 50
0.0
 51
0.0
 71
     0
 72
  2000
 73
     1
 74
     1
 75
     0
 76
     0
 77
     0
 78
     0
  0
ENDTAB
  0
TABLE
  2
LTYPE
 70
    13
  0
LTYPE
  2
CONTINUOUS
 70
     0
  3
Solid line
 72
    65
 73
     0
 40
0.0
  0
LTYPE
  2
STYLE_11
 70
     0
  3

 72
    65
 73
     2
 40
0.1875
 49
0.125
 49
-0.0625
  0
ENDTAB
  0
TABLE
  2
LAYER
 70
     6
  0
LAYER
  2
0
 70
     0
 62
     7
  6
CONTINUOUS
  0
LAYER
  2
DATA
 70
     0
 62
     7
  6
CONTINUOUS
  0
LAYER
  2
HIBINO-BASE
 70
     0
 62
     7
  6
CONTINUOUS
  0
LAYER
  2
PATTERN_FILL
 70
     0
 62
     7
  6
CONTINUOUS
  0
LAYER
  2
SPEC
 70
     0
 62
     7
  6
CONTINUOUS
  0
LAYER
  2
DIMNSIONS
 70
     0
 62
     7
  6
CONTINUOUS
  0
ENDTAB
  0
TABLE
  2
STYLE
 70
     3
  0
STYLE
  2
STANDARD
 70
     0
 40
0.0
 41
1.0
 50
0.0
 71
     0
 42
0.0
  3
txt
  4
BIGFONT.SHX
  0
ENDTAB
  0
TABLE
  2
VIEW
 70
     0
  0
ENDTAB
  0
TABLE
  2
UCS
 70
     0
  0
ENDTAB
  0
TABLE
  2
APPID
 70
     4
  0
APPID
  2
ACAD
 70
     0
  0
APPID
  2
ACADANNOTATIVE
 70
     0
  0
APPID
  2
ACAD_MLEADERVER
 70
     0
  0
APPID
  2
ACADANNOPO
 70
     0
  0
ENDTAB
  0
TABLE
  2
DIMSTYLE
 70
     2
  0
DIMSTYLE
  2
STANDARD
 70
     0
  3

  4

  5

  6

  7

 40
1.0
 41
0.18
 42
0.0625
 43
0.38
 44
0.18
 45
0.0
 46
0.0
 47
0.0
 48
0.0
140
0.18
141
0.09
142
0.0
143
25.399999999999999
144
1.0
145
0.0
146
1.0
147
0.09
 71
     0
 72
     0
 73
     1
 74
     1
 75
     0
 76
     0
 77
     0
 78
     0
170
     0
171
     2
172
     0
173
     0
174
     0
175
     0
176
     0
177
     0
178
     0
  0
ENDTAB
  0
ENDSEC
  0
SECTION
  2
BLOCKS
  0
BLOCK
  8
0
  2
$MODEL_SPACE
 70
     0
 10
0.0
 20
0.0
 30
0.0
  3
$MODEL_SPACE
  1

  0
ENDBLK
  5
58C
  8
0
  0
BLOCK
 67
     1
  8
0
  2
$PAPER_SPACE
 70
     0
 10
0.0
 20
0.0
 30
0.0
  3
$PAPER_SPACE
  1

  0
ENDBLK
  5
588
 67
     1
  8
0
  0
BLOCK
  8
PATTERN_FILL
  2
____
 70
     0
 10
0.0
 20
0.0
 30
0.0
  3
____
  1

  0
LINE
  5
32
  8
0
  6
CONTINUOUS
 62
     7
 10
299.15511105442278
 20
358.6734730400463
 30
0.0
 11
303.74330334881461
 21
357.4440706200453
 31
0.0
  0
LINE
  5
33
  8
0
  6
CONTINUOUS
 62
     7
 10
296.8786539191151
 20
357.73053362044089
 30
0.0
 11
304.4668462135071
 21
355.69728362314657
 31
0.0
  0
LINE
  5
34
  8
0
  6
CONTINUOUS
 62
     7
 10
295.84665504555159
 20
356.454142614587
 30
0.0
 11
305.19038907819959
 21
353.9504966262478
 31
0.0
  0
LINE
  5
35
  8
0
  6
CONTINUOUS
 62
     7
 10
295.26767665662521
 20
355.05636513571977
 30
0.0
 11
304.7609143880216
 21
352.51265975203557
 31
0.0
  0
LINE
  5
36
  8
0
  6
CONTINUOUS
 62
     7
 10
294.77388101072961
 20
353.63576300964837
 30
0.0
 11
304.18193599909517
 21
351.1148822731684
 31
0.0
  0
LINE
  5
37
  8
0
  6
CONTINUOUS
 62
     7
 10
295.49742387542221
 20
351.88897601274971
 30
0.0
 11
303.23376182702771
 21
349.8160305062429
 31
0.0
  0
LINE
  5
38
  8
0
  6
CONTINUOUS
 62
     7
 10
296.22096674011448
 20
350.14218901585087
 30
0.0
 11
300.95730469172008
 21
348.87309108663737
 31
0.0
  0
ENDBLK
  5
39
  8
PATTERN_FILL
  0
BLOCK
  8
PATTERN_FILL
  2
____-1
 70
     0
 10
0.0
 20
0.0
 30
0.0
  3
____-1
  1

  0
LINE
  5
3B
  8
0
  6
CONTINUOUS
 62
     7
 10
244.76879566717369
 20
241.35195988497591
 30
0.0
 11
249.89804011502719
 21
246.48120433282929
 31
0.0
  0
LINE
  5
3C
  8
0
  6
CONTINUOUS
 62
     7
 10
245.33038929293431
 20
239.79223316717679
 30
0.0
 11
251.4577668328262
 21
245.91961070706881
 31
0.0
  0
LINE
  5
3D
  8
0
  6
CONTINUOUS
 62
     7
 10
245.951709636494
 20
238.29223316717679
 30
0.0
 11
252.9577668328262
 21
245.29829036350921
 31
0.0
  0
LINE
  5
3E
  8
0
  6
CONTINUOUS
 62
     7
 10
246.9999999999994
 20
237.21920318712259
 30
0.0
 11
254.0307968128804
 21
244.25000000000369
 31
0.0
  0
LINE
  5
3F
  8
0
  6
CONTINUOUS
 62
     7
 10
248.4999999999994
 20
236.59788284356301
 30
0.0
 11
254.65211715644011
 21
242.75000000000369
 31
0.0
  0
LINE
  5
40
  8
0
  6
CONTINUOUS
 62
     7
 10
249.99999999999861
 20
235.9765625000025
 30
0.0
 11
255.27343750000051
 21
241.25000000000441
 31
0.0
  0
LINE
  5
41
  8
0
  6
CONTINUOUS
 62
     7
 10
253.6213203435583
 20
237.4765625000025
 30
0.0
 11
253.77343750000051
 21
237.62867965644469
 31
0.0
  0
ENDBLK
  5
42
  8
PATTERN_FILL
  0
ENDSEC
  0
SECTION
  2
ENTITIES
  0
LINE
  5
43
  8
HIBINO-BASE
  6
CONTINUOUS
 62
     7
 10
-1250.0
 20
2139.4454099999998
 30
0.0
 11
1450.0
 21
2139.4454099999998
 31
0.0
  0
LINE
  5
44
  8
HIBINO-BASE
  6
CONTINUOUS
 62
     7
 10
1450.0
 20
-1760.55459
 30
0.0
 11
-1250.0
 21
-1760.55459
 31
0.0
  0
LINE
  5
45
  8
HIBINO-BASE
  6
CONTINUOUS
 62
     7
 10
-1250.0
 20
-1760.55459
 30
0.0
 11
-1250.0
 21
2139.4454099999998
 31
0.0
  0
TEXT
  5
46
  8
HIBINO-BASE
 62
     7
 10
-1142.24
 20
-1856.6847570000009
 30
0.0
 40
54.000662695312492
  1
Hibino Corporation
 41
0.7
 11
-1142.24
 21
-1802.684094304688
 31
0.0
 73
     3
  0
LINE
  5
47
  8
HIBINO-BASE
  6
CONTINUOUS
 62
     7
 10
1450.0
 20
2139.4454099999998
 30
0.0
 11
1450.0
 21
-1760.55459
 31
0.0
  0
LINE
  5
48
  8
HIBINO-BASE
  6
CONTINUOUS
 62
     7
 10
100.0
 20
-1423.05459
 30
0.0
 11
1450.0
 21
-1423.05459
 31
0.0
  0
LINE
  5
49
  8
HIBINO-BASE
  6
CONTINUOUS
 62
     7
 10
100.0
 20
-1760.55459
 30
0.0
 11
100.0
 21
-1423.05459
 31
0.0
  0
TEXT
  5
4A
  8
HIBINO-BASE
 62
     7
 10
113.5
 20
-1463.5546380000001
 30
0.0
 40
27.000389062499998
  1
NOTE
 41
0.7
 11
113.5
 21
-1436.5542489375
 31
0.0
 73
     3
  0
LINE
  5
4B
  8
HIBINO-BASE
  6
CONTINUOUS
 62
     7
 10
625.0
 20
-1760.55459
 30
0.0
 11
625.0
 21
-1423.05459
 31
0.0
  0
TEXT
  5
4C
  8
HIBINO-BASE
 62
     7
 10
638.49999999999989
 20
-1463.5546380000001
 30
0.0
 40
27.000389062499998
  1
TITLE
 41
0.7
 11
638.49999999999989
 21
-1436.5542489375
 31
0.0
 73
     3
  0
TEXT
  5
4D
  8
HIBINO-BASE
 62
     7
 10
851.02584999999999
 20
-1856.6847570000009
 30
0.0
 40
54.000662695312492
  1
ヒビノ株式会社
 41
0.7
 11
851.02584999999999
 21
-1802.684094304688
 31
0.0
 73
     3
  0
LINE
  5
4E
  8
HIBINO-BASE
  6
CONTINUOUS
 62
     7
 10
100.0
 20
-1610.55459
 30
0.0
 11
1450.0
 21
-1610.55459
 31
0.0
  0
TEXT
  5
4F
  8
HIBINO-BASE
 62
     7
 10
826.0
 20
-1650.2098380000009
 30
0.0
 40
27.000389062499998
  1
DRAWN
 41
0.7
 11
826.0
 21
-1623.2094489375011
 31
0.0
 73
     3
  0
TEXT
  5
50
  8
HIBINO-BASE
 62
     7
 10
451.0
 20
-1650.2098380000009
 30
0.0
 40
27.000389062499998
  1
DATE
 41
0.7
 11
451.0
 21
-1623.2094489375011
 31
0.0
 73
     3
  0
TEXT
  5
51
  8
HIBINO-BASE
 62
     7
 10
116.5
 20
-1649.8464329999999
 30
0.0
 40
24.432655664062501
  1
図面サイズ
 41
0.7
 11
116.5
 21
-1625.4137773359371
 31
0.0
 73
     3
  0
TEXT
  5
52
  8
HIBINO-BASE
 62
     7
 10
300.99999999999989
 20
-1650.2098380000009
 30
0.0
 40
27.000389062499998
  1
SCALE
 41
0.7
 11
300.99999999999989
 21
-1623.2094489375011
 31
0.0
 73
     3
  0
TEXT
  5
53
  8
HIBINO-BASE
 62
     7
 10
638.49999999999989
 20
-1650.2098380000009
 30
0.0
 40
27.000389062499998
  1
DESIGN
 41
0.7
 11
638.49999999999989
 21
-1623.2094489375011
 31
0.0
 73
     3
  0
TEXT
  5
54
  8
HIBINO-BASE
 62
     7
 10
1201.0
 20
-1650.2098380000009
 30
0.0
 40
27.000389062499998
  1
DRAWING NO.
 41
0.7
 11
1201.0
 21
-1623.2094489375011
 31
0.0
 73
     3
  0
TEXT
  5
55
  8
HIBINO-BASE
 62
     7
 10
1013.5
 20
-1650.2098380000009
 30
0.0
 40
27.000389062499998
  1
CHECK
 41
0.7
 11
1013.5
 21
-1623.2094489375011
 31
0.0
 73
     3
  0
LINE
  5
56
  8
HIBINO-BASE
  6
CONTINUOUS
 62
     7
 10
315.625
 20
-1741.80459
 30
0.0
 11
371.875
 21
-1685.55459
 31
0.0
  0
TEXT
  5
57
  8
HIBINO-BASE
 62
     7
 10
306.25
 20
-1711.2903779999999
 30
0.0
 40
32.576797265624997
  1
1
 41
0.7
 11
306.25
 21
-1678.713580734375
 31
0.0
 73
     3
  0
LINE
  5
58
  8
HIBINO-BASE
  6
CONTINUOUS
 62
     7
 10
287.5
 20
-1760.55459
 30
0.0
 11
287.5
 21
-1610.55459
 31
0.0
  0
LINE
  5
59
  8
HIBINO-BASE
  6
CONTINUOUS
 62
     7
 10
437.5
 20
-1760.55459
 30
0.0
 11
437.5
 21
-1610.55459
 31
0.0
  0
LINE
  5
5A
  8
HIBINO-BASE
  6
CONTINUOUS
 62
     7
 10
812.5
 20
-1610.55459
 30
0.0
 11
812.5
 21
-1760.55459
 31
0.0
  0
LINE
  5
5B
  8
HIBINO-BASE
  6
CONTINUOUS
 62
     7
 10
1187.5
 20
-1610.55459
 30
0.0
 11
1187.5
 21
-1760.55459
 31
0.0
  0
LINE
  5
5C
  8
HIBINO-BASE
  6
CONTINUOUS
 62
     7
 10
1000.0
 20
-1760.55459
 30
0.0
 11
1000.0
 21
-1610.55459
 31
0.0
  0
TEXT
  5
5D
  8
HIBINO-BASE
 62
     7
 10
158.66334999999989
 20
-1723.077747
 30
0.0
 40
48.865195898437499
  1
A4
 41
0.7
 11
158.66334999999989
 21
-1674.2125511015629
 31
0.0
 73
     3
  0
TEXT
  5
5E
  8
HIBINO-BASE
 62
     7
 10
362.5
 20
-1739.4153779999999
 30
0.0
 40
32.576797265624997
  1
15
 41
0.7
 11
362.5
 21
-1706.838580734375
 31
0.0
 73
     3
  0
TEXT
  5
5F
  8
HIBINO-BASE
 62
     7
 10
835.08715016551946
 20
-1720.469538000001
 30
0.0
 40
27.000389062499998
  1
N.Sasaki
 41
0.7
 11
835.08715016551946
 21
-1693.4691489375
 31
0.0
 73
     3
  0
TEXT
  5
60
  8
HIBINO-BASE
 62
     7
 10
450.34809999999987
 20
-1695.0878479999999
 30
0.0
 40
27.000389062499998
  1
'00.01.
 41
0.7
 11
450.34809999999987
 21
-1668.0874589375001
 31
0.0
 73
     3
  0
TEXT
  5
61
  8
HIBINO-BASE
 62
     7
 10
450.34809999999987
 20
-1737.452360694459
 30
0.0
 40
20.360514322916671
  1
'02.05.修正
 41
0.7
 11
450.34809999999987
 21
-1717.091846371542
 31
0.0
 73
     3
  0
INSERT
  5
62
  8
PATTERN_FILL
 62
     7
  2
____
 10
100.0
 20
140.0
 30
0.0
  0
INSERT
  5
63
  8
PATTERN_FILL
 62
     7
  2
____-1
 10
100.0
 20
140.0
 30
0.0
  0
TEXT
  5
64
  8
SPEC
 62
     7
 10
-636.49999999999989
 20
1213.7642433333319
 30
0.0
 40
28.504720052083329
  1
バインディング・ポスト(ダブルバナナプラグ対応), 圧着端子(スタ ッド径8)
 41
0.7
 11
-636.49999999999989
 21
1242.2689633854161
 31
0.0
 73
     3
  0
LINE
  5
65
  8
SPEC
  6
CONTINUOUS
 62
     7
 10
-1137.5
 20
1989.4454099999989
 30
0.0
 11
1150.0
 21
1989.4454099999989
 31
0.0
  0
LINE
  5
66
  8
SPEC
  6
CONTINUOUS
 62
     7
 10
-1137.5
 20
1933.1954099999989
 30
0.0
 11
1150.0
 21
1933.1954099999989
 31
0.0
  0
LINE
  5
67
  8
SPEC
  6
CONTINUOUS
 62
     7
 10
-1137.5
 20
1708.1954099999989
 30
0.0
 11
1150.0
 21
1708.1954099999989
 31
0.0
  0
LINE
  5
68
  8
SPEC
  6
CONTINUOUS
 62
     7
 10
-1137.5
 20
1764.4454099999989
 30
0.0
 11
1150.0
 21
1764.4454099999989
 31
0.0
  0
LINE
  5
69
  8
SPEC
  6
CONTINUOUS
 62
     7
 10
-1137.5
 20
1820.6954099999989
 30
0.0
 11
1150.0
 21
1820.6954099999989
 31
0.0
  0
LINE
  5
6A
  8
SPEC
  6
CONTINUOUS
 62
     7
 10
-1137.5
 20
1651.9454099999989
 30
0.0
 11
1150.0
 21
1651.9454099999989
 31
0.0
  0
LINE
  5
6B
  8
SPEC
  6
CONTINUOUS
 62
     7
 10
-1137.5
 20
1539.4454099999989
 30
0.0
 11
1150.0
 21
1539.4454099999989
 31
0.0
  0
LINE
  5
6C
  8
SPEC
  6
CONTINUOUS
 62
     7
 10
-1137.5
 20
1595.6954099999989
 30
0.0
 11
1150.0
 21
1595.6954099999989
 31
0.0
  0
LINE
  5
6D
  8
SPEC
  6
CONTINUOUS
 62
     7
 10
-1137.5
 20
1483.1954099999989
 30
0.0
 11
1150.0
 21
1483.1954099999989
 31
0.0
  0
LINE
  5
6E
  8
SPEC
  6
CONTINUOUS
 62
     7
 10
-1137.5
 20
1426.9454099999989
 30
0.0
 11
1150.0
 21
1426.9454099999989
 31
0.0
  0
LINE
  5
6F
  8
SPEC
  6
CONTINUOUS
 62
     7
 10
-1137.5
 20
1876.9454099999989
 30
0.0
 11
1150.0
 21
1876.9454099999989
 31
0.0
  0
LINE
  5
70
  8
SPEC
  6
CONTINUOUS
 62
     7
 10
-1137.5
 20
1314.4454099999989
 30
0.0
 11
1150.0
 21
1314.4454099999989
 31
0.0
  0
LINE
  5
71
  8
SPEC
  6
CONTINUOUS
 62
     7
 10
-1137.5
 20
1201.9454099999989
 30
0.0
 11
1150.0
 21
1201.9454099999989
 31
0.0
  0
LINE
  5
72
  8
SPEC
  6
CONTINUOUS
 62
     7
 10
-1137.5
 20
1989.4454099999989
 30
0.0
 11
-1137.5
 21
1089.4454099999989
 31
0.0
  0
TEXT
  5
73
  8
SPEC
 62
     7
 10
-1118.75
 20
2010.3444599999989
 30
0.0
 40
36.64892578125
  1
仕様
 41
0.7
 11
-1118.75
 21
2046.9933857812489
 31
0.0
 73
     3
  0
LINE
  5
74
  8
SPEC
  6
CONTINUOUS
 62
     7
 10
-649.99999999999989
 20
1989.4454099999989
 30
0.0
 11
-649.99999999999989
 21
1089.4454099999989
 31
0.0
  0
LINE
  5
75
  8
SPEC
  6
CONTINUOUS
 62
     7
 10
1150.0
 20
1989.4454099999989
 30
0.0
 11
1150.0
 21
1089.4454099999989
 31
0.0
  0
TEXT
  5
76
  8
SPEC
 62
     7
 10
-636.49999999999989
 20
1270.0142433333331
 30
0.0
 40
28.504720052083329
  1
SPユニットは前面側で交換（グリルは裏側よりネジ4ヶ所取付け）
 41
0.7
 11
-636.49999999999989
 21
1298.5189633854161
 31
0.0
 73
     3
  0
TEXT
  5
77
  8
SPEC
 62
     7
 10
-1124.0
 20
1270.0142433333331
 30
0.0
 40
28.504720052083329
  1
メンテナンス
 41
0.7
 11
-1124.0
 21
1298.5189633854161
 31
0.0
 73
     3
  0
TEXT
  5
78
  8
SPEC
 62
     7
 10
-1124.0
 20
1213.7642433333319
 30
0.0
 40
28.504720052083329
  1
コネクター
 41
0.7
 11
-1124.0
 21
1242.2689633854161
 31
0.0
 73
     3
  0
TEXT
  5
79
  8
SPEC
 62
     7
 10
-1124.0
 20
1157.5142433333319
 30
0.0
 40
28.504720052083329
  1
寸法
 41
0.7
 11
-1124.0
 21
1186.0189633854161
 31
0.0
 73
     3
  0
TEXT
  5
7A
  8
SPEC
 62
     7
 10
-1124.0
 20
1101.2642433333319
 30
0.0
 40
28.504720052083329
  1
重量
 41
0.7
 11
-1124.0
 21
1129.7689633854161
 31
0.0
 73
     3
  0
TEXT
  5
7B
  8
SPEC
 62
     7
 10
-1124.0
 20
1945.0142433333319
 30
0.0
 40
28.504720052083329
  1
形式
 41
0.7
 11
-1124.0
 21
1973.5189633854161
 31
0.0
 73
     3
  0
TEXT
  5
7C
  8
SPEC
 62
     7
 10
-1124.0
 20
1888.7642433333319
 30
0.0
 40
28.504720052083329
  1
周波数レンジ(-10dB)
 41
0.7
 11
-1124.0
 21
1917.2689633854161
 31
0.0
 73
     3
  0
TEXT
  5
7D
  8
SPEC
 62
     7
 10
-1124.0
 20
1832.5142433333319
 30
0.0
 40
28.504720052083329
  1
公称カバレージ
 41
0.7
 11
-1124.0
 21
1861.0189633854161
 31
0.0
 73
     3
  0
TEXT
  5
7E
  8
SPEC
 62
     7
 10
-1124.0
 20
1720.0142433333319
 30
0.0
 40
28.504720052083329
  1
高域ユニット
 41
0.7
 11
-1124.0
 21
1748.5189633854161
 31
0.0
 73
     3
  0
TEXT
  5
7F
  8
SPEC
 62
     7
 10
-1124.0
 20
1663.7642433333319
 30
0.0
 40
28.504720052083329
  1
音圧レベル(1W/1m)
 41
0.7
 11
-1124.0
 21
1692.2689633854161
 31
0.0
 73
     3
  0
TEXT
  5
80
  8
SPEC
 62
     7
 10
-1124.0
 20
1776.2642433333319
 30
0.0
 40
28.504720052083329
  1
低域ユニット
 41
0.7
 11
-1124.0
 21
1804.7689633854161
 31
0.0
 73
     3
  0
TEXT
  5
81
  8
SPEC
 62
     7
 10
-1124.0
 20
1607.5142433333319
 30
0.0
 40
28.504720052083329
  1
公称インピーダンス
 41
0.7
 11
-1124.0
 21
1636.0189633854161
 31
0.0
 73
     3
  0
TEXT
  5
82
  8
SPEC
 62
     7
 10
-1124.0
 20
1551.2642433333319
 30
0.0
 40
28.504720052083329
  1
許容入力
 41
0.7
 11
-1124.0
 21
1579.7689633854161
 31
0.0
 73
     3
  0
TEXT
  5
83
  8
SPEC
 62
     7
 10
-1124.0
 20
1495.0142433333319
 30
0.0
 40
28.504720052083329
  1
クロスオーバー
 41
0.7
 11
-1124.0
 21
1523.5189633854161
 31
0.0
 73
     3
  0
TEXT
  5
84
  8
SPEC
 62
     7
 10
-1124.0
 20
1326.2642433333319
 30
0.0
 40
28.504720052083329
  1
極性
 41
0.7
 11
-1124.0
 21
1354.7689633854161
 31
0.0
 73
     3
  0
TEXT
  5
85
  8
SPEC
 62
     7
 10
-1124.0
 20
1438.7642433333319
 30
0.0
 40
28.504720052083329
  1
高域特性
 41
0.7
 11
-1124.0
 21
1467.2689633854161
 31
0.0
 73
     3
  0
TEXT
  5
86
  8
SPEC
 62
     7
 10
-1124.0
 20
1382.5142433333319
 30
0.0
 40
28.504720052083329
  1
外装色
 41
0.7
 11
-1124.0
 21
1411.0189633854161
 31
0.0
 73
     3
  0
TEXT
  5
87
  8
SPEC
 62
     7
 10
-636.49999999999989
 20
1157.5142433333319
 30
0.0
 40
28.504720052083329
  1
457(W)×453(H)×260(D)mm
 41
0.7
 11
-636.49999999999989
 21
1186.0189633854161
 31
0.0
 73
     3
  0
TEXT
  5
88
  8
SPEC
 62
     7
 10
-636.49999999999989
 20
1101.2642433333319
 30
0.0
 40
28.504720052083329
  1
約8.6kg
 41
0.7
 11
-636.49999999999989
 21
1129.7689633854161
 31
0.0
 73
     3
  0
TEXT
  5
89
  8
SPEC
 62
     7
 10
-636.49999999999989
 20
1945.0142433333319
 30
0.0
 40
28.504720052083329
  1
2ウェイ・サラウンド・システム(High Power Cinema Surround Speaker)
 41
0.7
 11
-636.49999999999989
 21
1973.5189633854161
 31
0.0
 73
     3
  0
TEXT
  5
8A
  8
SPEC
 62
     7
 10
-636.49999999999989
 20
1438.7642433333319
 30
0.0
 40
28.504720052083329
  1
ISO2969 Cureve X surround contour
 41
0.7
 11
-636.49999999999989
 21
1467.2689633854161
 31
0.0
 73
     3
  0
TEXT
  5
8B
  8
SPEC
 62
     7
 10
-636.49999999999989
 20
1720.0142433333319
 30
0.0
 40
28.504720052083329
  1
25mm(ダイアフラム径:1インチ)
 41
0.7
 11
-636.49999999999989
 21
1748.5189633854161
 31
0.0
 73
     3
  0
TEXT
  5
8C
  8
SPEC
 62
     7
 10
-636.49999999999989
 20
1551.2642433333319
 30
0.0
 40
28.504720052083329
  1
250W(Pink noise),1000W(Peak)
 41
0.7
 11
-636.49999999999989
 21
1579.7689633854161
 31
0.0
 73
     3
  0
TEXT
  5
8D
  8
SPEC
 62
     7
 10
-636.49999999999989
 20
1495.0142433333319
 30
0.0
 40
28.504720052083329
  1
(ネットワーク):2.2kHz
 41
0.7
 11
-636.49999999999989
 21
1523.5189633854161
 31
0.0
 73
     3
  0
TEXT
  5
8E
  8
SPEC
 62
     7
 10
-636.49999999999989
 20
1326.2642433333319
 30
0.0
 40
28.504720052083329
  1
正相(低域),正相(高域)
 41
0.7
 11
-636.49999999999989
 21
1354.7689633854161
 31
0.0
 73
     3
  0
TEXT
  5
8F
  8
SPEC
 62
     7
 10
-636.49999999999989
 20
1776.2642433333319
 30
0.0
 40
28.504720052083329
  1
250mm(口径:10インチ)
 41
0.7
 11
-636.49999999999989
 21
1804.7689633854161
 31
0.0
 73
     3
  0
TEXT
  5
90
  8
SPEC
 62
     7
 10
-636.49999999999989
 20
1832.5142433333319
 30
0.0
 40
28.504720052083329
  1
100゜×80゜
 41
0.7
 11
-636.49999999999989
 21
1861.0189633854161
 31
0.0
 73
     3
  0
TEXT
  5
91
  8
SPEC
 62
     7
 10
-636.49999999999989
 20
1663.7642433333319
 30
0.0
 40
28.504720052083329
  1
96dB SPL
 41
0.7
 11
-636.49999999999989
 21
1692.2689633854161
 31
0.0
 73
     3
  0
TEXT
  5
92
  8
SPEC
 62
     7
 10
-636.49999999999989
 20
1607.5142433333319
 30
0.0
 40
28.504720052083329
  1
8Ω
 41
0.7
 11
-636.49999999999989
 21
1636.0189633854161
 31
0.0
 73
     3
  0
TEXT
  5
93
  8
SPEC
 62
     7
 10
-636.49999999999989
 20
1382.5142433333319
 30
0.0
 40
28.504720052083329
  1
黒
 41
0.7
 11
-636.49999999999989
 21
1411.0189633854161
 31
0.0
 73
     3
  0
TEXT
  5
94
  8
SPEC
 62
     7
 10
-636.49999999999989
 20
1888.7642433333319
 30
0.0
 40
28.504720052083329
  1
45Hz～18kHz
 41
0.7
 11
-636.49999999999989
 21
1917.2689633854161
 31
0.0
 73
     3
  0
LINE
  5
95
  8
SPEC
  6
CONTINUOUS
 62
     7
 10
-1137.5
 20
1370.6954099999989
 30
0.0
 11
1150.0
 21
1370.6954099999989
 31
0.0
  0
LINE
  5
96
  8
SPEC
  6
CONTINUOUS
 62
     7
 10
-1137.5
 20
1258.1954099999989
 30
0.0
 11
1150.0
 21
1258.1954099999989
 31
0.0
  0
LINE
  5
97
  8
SPEC
  6
CONTINUOUS
 62
     7
 10
-1137.5
 20
1145.6954099999989
 30
0.0
 11
1150.0
 21
1145.6954099999989
 31
0.0
  0
LINE
  5
98
  8
SPEC
  6
CONTINUOUS
 62
     7
 10
-1137.5
 20
1089.4454099999989
 30
0.0
 11
1150.0
 21
1089.4454099999989
 31
0.0
  0
TEXT
  5
99
  8
SPEC
 62
     7
 10
50.0
 20
366.30078125000222
 30
0.0
 40
31.412506103515629
  1
BLK (-)
 41
0.7
 11
50.0
 21
397.71328735351779
 31
0.0
 73
     3
  0
TEXT
  5
9A
  8
SPEC
 62
     7
 10
50.0
 20
478.8007812500029
 30
0.0
 40
31.412506103515629
  1
RED (+)
 41
0.7
 11
50.0
 21
510.21328735351852
 31
0.0
 73
     3
  0
LINE
  5
9B
  8
SPEC
  6
CONTINUOUS
 62
     7
 10
1118.685101667219
 20
106.2286975543601
 30
0.0
 11
1118.685101667219
 21
132.22345455144369
 31
0.0
  0
LINE
  5
9C
  8
SPEC
  6
CONTINUOUS
 62
     7
 10
1081.314898332784
 20
132.22345455144239
 30
0.0
 11
1081.314898332784
 21
106.2286975543592
 31
0.0
  0
ARC
  5
9D
  8
SPEC
  6
CONTINUOUS
 62
     7
 10
1100.0
 20
199.99999999999989
 30
0.0
 40
95.614801085742343
 50
281.2692948357751
 51
318.730705164227
  0
ARC
  5
9E
  8
SPEC
  6
CONTINUOUS
 62
     7
 10
1100.0
 20
199.99999999999989
 30
0.0
 40
95.614801085742286
 50
221.26929483577419
 51
258.7307051642278
  0
CIRCLE
  5
9F
  8
SPEC
  6
CONTINUOUS
 62
     7
 10
1100.0
 20
199.99999999999989
 30
0.0
 40
101.2392011496095
  0
CIRCLE
  5
A0
  8
SPEC
  6
CONTINUOUS
 62
     7
 10
1100.0
 20
199.99999999999989
 30
0.0
 40
112.4880012773437
  0
LINE
  5
A1
  8
SPEC
  6
CONTINUOUS
 62
     7
 10
700.0000000000008
 20
12.499999999997611
 30
0.0
 11
700.0000000000008
 21
381.25000000000028
 31
0.0
  0
LINE
  5
A2
  8
SPEC
  6
CONTINUOUS
 62
     7
 10
750.0
 20
-24.999999999998529
 30
0.0
 11
750.00000000000159
 21
493.74999999999801
 31
0.0
  0
CIRCLE
  5
A3
  8
SPEC
  6
CONTINUOUS
 62
     7
 10
1175.563977080064
 20
124.4360229199354
 30
0.0
 40
2.8122000319335712
  0
CIRCLE
  5
A4
  8
SPEC
  6
CONTINUOUS
 62
     7
 10
1024.436022919934
 20
124.4360229199354
 30
0.0
 40
2.8122000319335712
  0
LINE
  5
A5
  8
SPEC
  6
CONTINUOUS
 62
     7
 10
700.0000000000008
 20
12.499999999997611
 30
0.0
 11
1087.643023332784
 21
12.499999999998071
 31
0.0
  0
LINE
  5
A6
  8
SPEC
  6
CONTINUOUS
 62
     7
 10
750.0
 20
-24.999999999998749
 30
0.0
 11
1112.356976667219
 21
-25.00000000000216
 31
0.0
  0
LINE
  5
A7
  8
SPEC
  6
CONTINUOUS
 62
     7
 10
587.50000000000068
 20
-200.00000000000011
 30
0.0
 11
812.50000000000102
 21
-200.00000000000011
 31
0.0
  0
TEXT
  5
A8
  8
SPEC
 62
     7
 10
644.01762743503946
 20
-183.66699218750031
 30
0.0
 40
30.99918365478516
  1
接続図
 41
0.7
 11
644.01762743503946
 21
-152.66780853271521
 31
0.0
 73
     3
  0
TEXT
  5
A9
  8
SPEC
 62
     7
 10
929.85444833713154
 20
28.653921277964869
 30
0.0
 40
29.061727410927421
  1
GRN/BLK
 41
0.7
 11
929.85444833713154
 21
57.71564868889228
 31
0.0
 73
     3
  0
TEXT
  5
AA
  8
SPEC
 62
     7
 10
1124.856976667219
 20
28.65392127796397
 30
0.0
 40
29.061727410927421
  1
GRN
 41
0.7
 11
1124.856976667219
 21
57.715648688891378
 31
0.0
 73
     3
  0
LINE
  5
AB
  8
SPEC
  6
CONTINUOUS
 62
     7
 10
1106.0288516672199
 20
114.5385760529019
 30
0.0
 11
1106.0288516672199
 21
123.9135760529014
 31
0.0
  0
LINE
  5
AC
  8
SPEC
  6
CONTINUOUS
 62
     7
 10
1093.971148332784
 20
114.53857605290101
 30
0.0
 11
1093.971148332784
 21
123.9135760529014
 31
0.0
  0
LINE
  5
AD
  8
SPEC
  6
CONTINUOUS
 62
     7
 10
1081.314898332784
 20
114.5385760529005
 30
0.0
 11
1118.685101667219
 21
114.5385760529019
 31
0.0
  0
LINE
  5
AE
  8
SPEC
  6
CONTINUOUS
 62
     7
 10
1081.314898332784
 20
123.9135760529005
 30
0.0
 11
1118.685101667219
 21
123.9135760529014
 31
0.0
  0
CIRCLE
  5
AF
  8
SPEC
  6
CONTINUOUS
 62
     7
 10
1100.0
 20
93.136398786523287
 30
0.0
 40
2.8122000319335712
  0
LINE
  5
B0
  8
SPEC
  6
CONTINUOUS
 62
     7
 10
1087.643023332784
 20
114.5385760529005
 30
0.0
 11
1087.643023332784
 21
12.499999999998071
 31
0.0
  0
LINE
  5
B1
  8
SPEC
  6
CONTINUOUS
 62
     7
 10
1112.356976667219
 20
-25.000000000001702
 30
0.0
 11
1112.356976667219
 21
114.5385760529005
 31
0.0
  0
LINE
  5
B2
  8
SPEC
  6
CONTINUOUS
 62
     7
 10
850.00000000000102
 20
412.49999999999932
 30
0.0
 11
1078.3588461953891
 21
412.49999999999932
 31
0.0
  0
LINE
  5
B3
  8
SPEC
  6
CONTINUOUS
 62
     7
 10
800.00000000000171
 20
375.0000000000008
 30
0.0
 11
1121.641153804602
 21
374.99999999999937
 31
0.0
  0
LINE
  5
B4
  8
SPEC
  6
CONTINUOUS
 62
     7
 10
450.0
 20
362.50000000000261
 30
0.0
 11
618.75
 21
362.50000000000171
 31
0.0
  0
LINE
  5
B5
  8
SPEC
  6
CONTINUOUS
 62
     7
 10
450.0
 20
512.50000000000261
 30
0.0
 11
618.75
 21
512.50000000000307
 31
0.0
  0
TEXT
  5
B6
  8
SPEC
 62
     7
 10
466.55297051789029
 20
410.05645119606942
 30
0.0
 40
20.360514322916671
  1
フィルター
 41
0.7
 11
466.55297051789029
 21
430.4169655189861
 31
0.0
 73
     3
  0
LINE
  5
B7
  8
SPEC
  6
STYLE_11
 62
     7
 10
450.0
 20
381.25000000000261
 30
0.0
 11
618.75
 21
381.25000000000261
 31
0.0
  0
LINE
  5
B8
  8
SPEC
  6
STYLE_11
 62
     7
 10
450.0
 20
493.75000000000352
 30
0.0
 11
618.75
 21
493.75000000000159
 31
0.0
  0
LINE
  5
B9
  8
SPEC
  6
CONTINUOUS
 62
     7
 10
450.0
 20
162.5000000000021
 30
0.0
 11
618.75
 21
162.50000000000119
 31
0.0
  0
LINE
  5
BA
  8
SPEC
  6
CONTINUOUS
 62
     7
 10
450.0
 20
312.50000000000171
 30
0.0
 11
618.75
 21
312.50000000000261
 31
0.0
  0
TEXT
  5
BB
  8
SPEC
 62
     7
 10
466.55297051789029
 20
210.05645119606899
 30
0.0
 40
20.360514322916671
  1
フィルター
 41
0.7
 11
466.55297051789029
 21
230.41696551898571
 31
0.0
 73
     3
  0
LINE
  5
BC
  8
SPEC
  6
STYLE_11
 62
     7
 10
450.0
 20
181.25000000000171
 30
0.0
 11
618.75
 21
181.25000000000171
 31
0.0
  0
LINE
  5
BD
  8
SPEC
  6
STYLE_11
 62
     7
 10
450.0
 20
293.75000000000261
 30
0.0
 11
618.75
 21
293.7500000000008
 31
0.0
  0
CIRCLE
  5
BE
  8
SPEC
  6
CONTINUOUS
 62
     7
 10
250.0
 20
381.25000000000261
 30
0.0
 40
32.625
  0
LINE
  5
BF
  8
SPEC
  6
CONTINUOUS
 62
     7
 10
221.74592120153201
 20
364.93750000000222
 30
0.0
 11
250.0
 21
348.62500000000313
 31
0.0
  0
LINE
  5
C0
  8
SPEC
  6
CONTINUOUS
 62
     7
 10
250.0
 20
413.87500000000261
 30
0.0
 11
221.74592120153201
 21
397.56250000000222
 31
0.0
  0
CIRCLE
  5
C1
  8
SPEC
  6
CONTINUOUS
 62
     7
 10
250.0
 20
493.75000000000352
 30
0.0
 40
32.625
  0
LINE
  5
C2
  8
SPEC
  6
CONTINUOUS
 62
     7
 10
250.0
 20
526.37500000000352
 30
0.0
 11
221.74592120153201
 21
510.06250000000313
 31
0.0
  0
LINE
  5
C3
  8
SPEC
  6
CONTINUOUS
 62
     7
 10
221.74592120153201
 20
477.43750000000261
 30
0.0
 11
250.0
 21
461.12500000000313
 31
0.0
  0
LINE
  5
C4
  8
SPEC
  6
CONTINUOUS
 62
     7
 10
221.74592120153201
 20
397.56250000000222
 30
0.0
 11
221.74592120153201
 21
364.93750000000222
 31
0.0
  0
LINE
  5
C5
  8
SPEC
  6
CONTINUOUS
 62
     7
 10
221.74592120153201
 20
510.06250000000313
 30
0.0
 11
221.74592120153201
 21
477.43750000000261
 31
0.0
  0
LINE
  5
C6
  8
SPEC
  6
CONTINUOUS
 62
     7
 10
282.625
 20
381.25000000000261
 30
0.0
 11
450.0
 21
381.25000000000261
 31
0.0
  0
LINE
  5
C7
  8
SPEC
  6
CONTINUOUS
 62
     7
 10
282.625
 20
493.75000000000352
 30
0.0
 11
450.0
 21
493.75000000000352
 31
0.0
  0
CIRCLE
  5
C8
  8
SPEC
  6
CONTINUOUS
 62
     7
 10
250.0
 20
381.25000000000261
 30
0.0
 40
18.675000000000178
  0
LINE
  5
C9
  8
SPEC
  6
CONTINUOUS
 62
     7
 10
250.0
 20
348.62500000000313
 30
0.0
 11
278.25407879846529
 21
364.93750000000261
 31
0.0
  0
LINE
  5
CA
  8
SPEC
  6
CONTINUOUS
 62
     7
 10
278.25407879846529
 20
364.93750000000261
 30
0.0
 11
278.25407879846529
 21
397.56250000000119
 31
0.0
  0
LINE
  5
CB
  8
SPEC
  6
CONTINUOUS
 62
     7
 10
278.25407879846529
 20
397.56250000000119
 30
0.0
 11
250.0
 21
413.87500000000261
 31
0.0
  0
CIRCLE
  5
CC
  8
SPEC
  6
CONTINUOUS
 62
     7
 10
250.0
 20
381.25000000000261
 30
0.0
 40
8.7750000000005457
  0
CIRCLE
  5
CD
  8
SPEC
  6
CONTINUOUS
 62
     7
 10
250.0
 20
493.75000000000352
 30
0.0
 40
18.675000000000178
  0
LINE
  5
CE
  8
SPEC
  6
CONTINUOUS
 62
     7
 10
250.0
 20
461.12500000000313
 30
0.0
 11
278.25407879846529
 21
477.43750000000352
 31
0.0
  0
LINE
  5
CF
  8
SPEC
  6
CONTINUOUS
 62
     7
 10
278.25407879846529
 20
477.43750000000352
 30
0.0
 11
278.25407879846529
 21
510.06250000000222
 31
0.0
  0
LINE
  5
D0
  8
SPEC
  6
CONTINUOUS
 62
     7
 10
278.25407879846529
 20
510.06250000000222
 30
0.0
 11
250.0
 21
526.37500000000352
 31
0.0
  0
CIRCLE
  5
D1
  8
SPEC
  6
CONTINUOUS
 62
     7
 10
250.0
 20
493.75000000000352
 30
0.0
 40
8.7750000000005457
  0
CIRCLE
  5
D2
  8
SPEC
  6
CONTINUOUS
 62
     7
 10
350.0
 20
381.25000000000313
 30
0.0
 40
5.2734375
  0
CIRCLE
  5
D3
  8
SPEC
  6
CONTINUOUS
 62
     7
 10
400.0
 20
493.75000000000352
 30
0.0
 40
5.2734375
  0
LINE
  5
D4
  8
SPEC
  6
CONTINUOUS
 62
     7
 10
400.0
 20
293.75000000000261
 30
0.0
 11
400.0
 21
493.75000000000352
 31
0.0
  0
LINE
  5
D5
  8
SPEC
  6
CONTINUOUS
 62
     7
 10
450.0
 20
362.50000000000261
 30
0.0
 11
450.0
 21
512.50000000000261
 31
0.0
  0
LINE
  5
D6
  8
SPEC
  6
CONTINUOUS
 62
     7
 10
400.0
 20
293.75000000000261
 30
0.0
 11
450.0
 21
293.75000000000261
 31
0.0
  0
LINE
  5
D7
  8
SPEC
  6
CONTINUOUS
 62
     7
 10
450.0
 20
162.5000000000021
 30
0.0
 11
450.0
 21
312.50000000000171
 31
0.0
  0
LINE
  5
D8
  8
SPEC
  6
CONTINUOUS
 62
     7
 10
350.0000000000008
 20
181.25000000000171
 30
0.0
 11
450.0
 21
181.25000000000171
 31
0.0
  0
LINE
  5
D9
  8
SPEC
  6
CONTINUOUS
 62
     7
 10
349.99999999999909
 20
181.25000000000171
 30
0.0
 11
350.0
 21
381.25000000000313
 31
0.0
  0
TEXT
  5
DA
  8
SPEC
 62
     7
 10
479.78213718455697
 20
449.60723244606942
 30
0.0
 40
20.360514322916671
  1
ローパス
 41
0.7
 11
479.78213718455697
 21
469.9677467689861
 31
0.0
 73
     3
  0
TEXT
  5
DB
  8
SPEC
 62
     7
 10
479.78213718455697
 20
249.60723244606899
 30
0.0
 40
20.360514322916671
  1
ハイパス
 41
0.7
 11
479.78213718455697
 21
269.96774676898559
 31
0.0
 73
     3
  0
LINE
  5
DC
  8
SPEC
  6
CONTINUOUS
 62
     7
 10
618.75
 20
362.50000000000171
 30
0.0
 11
618.75
 21
512.50000000000261
 31
0.0
  0
LINE
  5
DD
  8
SPEC
  6
CONTINUOUS
 62
     7
 10
618.75
 20
162.50000000000119
 30
0.0
 11
618.75
 21
312.50000000000171
 31
0.0
  0
LINE
  5
DE
  8
SPEC
  6
CONTINUOUS
 62
     7
 10
618.75
 20
493.75000000000023
 30
0.0
 11
750.00000000000159
 21
493.74999999999841
 31
0.0
  0
LINE
  5
DF
  8
SPEC
  6
CONTINUOUS
 62
     7
 10
618.75
 20
381.25000000000171
 30
0.0
 11
700.0000000000008
 21
381.25000000000119
 31
0.0
  0
LINE
  5
E0
  8
SPEC
  6
CONTINUOUS
 62
     7
 10
618.75000000000068
 20
293.75000000000398
 30
0.0
 11
800.00000000000102
 21
293.75000000000119
 31
0.0
  0
LINE
  5
E1
  8
SPEC
  6
CONTINUOUS
 62
     7
 10
618.75
 20
181.25000000000119
 30
0.0
 11
850.00000000000102
 21
181.2499999999994
 31
0.0
  0
LINE
  5
E2
  8
SPEC
  6
CONTINUOUS
 62
     7
 10
800.00000000000102
 20
293.7500000000004
 30
0.0
 11
800.00000000000102
 21
375.0000000000008
 31
0.0
  0
LINE
  5
E3
  8
SPEC
  6
CONTINUOUS
 62
     7
 10
850.00000000000102
 20
181.24999999999841
 30
0.0
 11
850.00000000000102
 21
412.49999999999932
 31
0.0
  0
TEXT
  5
E4
  8
SPEC
 62
     7
 10
1240.6249999999991
 20
182.07897202905991
 30
0.0
 40
29.061727410927421
  1
Low Freq
 41
0.7
 11
1240.6249999999991
 21
211.14069943998729
 31
0.0
 73
     3
  0
TEXT
  5
E5
  8
SPEC
 62
     7
 10
1240.6249999999991
 20
227.07897202905991
 30
0.0
 40
29.061727410927421
  1
Driver
 41
0.7
 11
1240.6249999999991
 21
256.14069943998732
 31
0.0
 73
     3
  0
TEXT
  5
E6
  8
SPEC
 62
     7
 10
1240.6249999999991
 20
137.07897202905991
 30
0.0
 40
29.061727410927421
  1
250mm
 41
0.7
 11
1240.6249999999991
 21
166.14069943998729
 31
0.0
 73
     3
  0
TEXT
  5
E7
  8
SPEC
 62
     7
 10
1240.6249999999991
 20
524.29629500007775
 30
0.0
 40
29.061727410927421
  1
High Freq
 41
0.7
 11
1240.6249999999991
 21
553.35802241100521
 31
0.0
 73
     3
  0
TEXT
  5
E8
  8
SPEC
 62
     7
 10
1240.6300000000001
 20
569.29442234420765
 30
0.0
 40
29.061727410927421
  1
Driver
 41
0.7
 11
1240.6300000000001
 21
598.35614975513522
 31
0.0
 73
     3
  0
TEXT
  5
E9
  8
SPEC
 62
     7
 10
1240.6300000000001
 20
479.29442234420782
 30
0.0
 40
29.061727410927421
  1
25mm
 41
0.7
 11
1240.6300000000001
 21
508.35614975513522
 31
0.0
 73
     3
  0
LINE
  5
EA
  8
SPEC
  6
CONTINUOUS
 62
     7
 10
1149.3536593055901
 20
250.0700454403844
 30
0.0
 11
1171.865779230267
 21
263.06742393892631
 31
0.0
  0
LINE
  5
EB
  8
SPEC
  6
CONTINUOUS
 62
     7
 10
1118.6851016672149
 20
267.77654544855739
 30
0.0
 11
1118.6851016672149
 21
293.77130244564057
 31
0.0
  0
LINE
  5
EC
  8
SPEC
  6
CONTINUOUS
 62
     7
 10
1081.314898332781
 20
267.77654544855687
 30
0.0
 11
1081.314898332781
 21
293.77130244564057
 31
0.0
  0
LINE
  5
ED
  8
SPEC
  6
CONTINUOUS
 62
     7
 10
1028.1342207697301
 20
263.06742393892489
 30
0.0
 11
1050.6463406944069
 21
250.07004544038401
 31
0.0
  0
ARC
  5
EE
  8
SPEC
  6
CONTINUOUS
 62
     7
 10
1100.0
 20
199.99999999999989
 30
0.0
 40
95.614801085742144
 50
101.2692948357745
 51
138.73070516422661
  0
ARC
  5
EF
  8
SPEC
  6
CONTINUOUS
 62
     7
 10
1100.0
 20
199.99999999999989
 30
0.0
 40
95.614801085741576
 50
41.269294835774559
 51
78.730705164226592
  0
CIRCLE
  5
F0
  8
SPEC
  6
CONTINUOUS
 62
     7
 10
1100.0
 20
306.8636012134765
 30
0.0
 40
2.8122000319335712
  0
CIRCLE
  5
F1
  8
SPEC
  6
CONTINUOUS
 62
     7
 10
1175.563977080064
 20
275.56397708006568
 30
0.0
 40
2.8122000319335712
  0
CIRCLE
  5
F2
  8
SPEC
  6
CONTINUOUS
 62
     7
 10
1024.436022919934
 20
275.56397708006568
 30
0.0
 40
2.8122000319335712
  0
CIRCLE
  5
F3
  8
SPEC
  6
CONTINUOUS
 62
     7
 10
993.13639878652248
 20
199.99999999999989
 30
0.0
 40
2.8122000319335712
  0
LINE
  5
F4
  8
SPEC
  6
CONTINUOUS
 62
     7
 10
1009.449119102511
 20
230.7038785067146
 30
0.0
 11
1031.9612390271891
 21
217.70650000817199
 31
0.0
  0
LINE
  5
F5
  8
SPEC
  6
CONTINUOUS
 62
     7
 10
1168.0387609728079
 20
217.70650000817511
 30
0.0
 11
1190.5508808974851
 21
230.7038785067156
 31
0.0
  0
LINE
  5
F6
  8
SPEC
  6
CONTINUOUS
 62
     7
 10
1028.1342207697301
 20
136.93257606107389
 30
0.0
 11
1050.646340694409
 21
149.9299545596148
 31
0.0
  0
LINE
  5
F7
  8
SPEC
  6
CONTINUOUS
 62
     7
 10
1149.3536593055919
 20
149.9299545596167
 30
0.0
 11
1171.8657792302711
 21
136.93257606107531
 31
0.0
  0
ARC
  5
F8
  8
SPEC
  6
CONTINUOUS
 62
     7
 10
1100.0
 20
199.99999999999989
 30
0.0
 40
95.614801085741576
 50
341.26929483577482
 51
18.730705164227292
  0
LINE
  5
F9
  8
SPEC
  6
CONTINUOUS
 62
     7
 10
1009.449119102511
 20
169.29612149328511
 30
0.0
 11
1031.9612390271891
 21
182.29349999182651
 31
0.0
  0
ARC
  5
FA
  8
SPEC
  6
CONTINUOUS
 62
     7
 10
1100.0
 20
199.99999999999989
 30
0.0
 40
95.614801085741973
 50
161.26929483577399
 51
198.73070516422641
  0
CIRCLE
  5
FB
  8
SPEC
  6
CONTINUOUS
 62
     7
 10
1100.0
 20
199.99999999999989
 30
0.0
 40
63.269251277343763
  0
CIRCLE
  5
FC
  8
SPEC
  6
CONTINUOUS
 62
     7
 10
1100.0
 20
199.99999999999989
 30
0.0
 40
49.21875
  0
CIRCLE
  5
FD
  8
SPEC
  6
CONTINUOUS
 62
     7
 10
1100.0
 20
199.99999999999989
 30
0.0
 40
56.244000638671423
  0
CIRCLE
  5
FE
  8
SPEC
  6
CONTINUOUS
 62
     7
 10
1100.0
 20
199.99999999999989
 30
0.0
 40
70.305000798339265
  0
LINE
  5
FF
  8
SPEC
  6
CONTINUOUS
 62
     7
 10
1168.03876097281
 20
182.2934999918287
 30
0.0
 11
1190.5508808974871
 21
169.2961214932869
 31
0.0
  0
CIRCLE
  5
100
  8
SPEC
  6
CONTINUOUS
 62
     7
 10
1206.8636012134759
 20
199.99999999999989
 30
0.0
 40
2.8122000319335712
  0
CIRCLE
  5
101
  8
SPEC
  6
CONTINUOUS
 62
     7
 10
1100.0
 20
549.99999999999989
 30
0.0
 40
47.0
  0
CIRCLE
  5
102
  8
SPEC
  6
CONTINUOUS
 62
     7
 10
1100.0
 20
549.99999999999989
 30
0.0
 40
70.305000798339265
  0
CIRCLE
  5
103
  8
SPEC
  6
CONTINUOUS
 62
     7
 10
1100.0
 20
549.99999999999989
 30
0.0
 40
56.244000638671423
  0
TEXT
  5
104
  8
SPEC
 62
     7
 10
929.65080713696625
 20
428.65392071148369
 30
0.0
 40
29.061734676361091
  1
YEL/BLK
 41
0.7
 11
929.65080713696625
 21
457.71565538784478
 31
0.0
 73
     3
  0
TEXT
  5
105
  8
SPEC
 62
     7
 10
1134.1411538046029
 20
428.65392071148369
 30
0.0
 40
29.061734676361091
  1
YEL
 41
0.7
 11
1134.1411538046029
 21
457.71565538784478
 31
0.0
 73
     3
  0
CIRCLE
  5
106
  8
SPEC
  6
CONTINUOUS
 62
     7
 10
1121.641153804602
 20
490.54141859090788
 30
0.0
 40
3.5152500399171909
  0
CIRCLE
  5
107
  8
SPEC
  6
CONTINUOUS
 62
     7
 10
1078.3588461953971
 20
490.54141859090828
 30
0.0
 40
3.5152500399171909
  0
LINE
  5
108
  8
SPEC
  6
CONTINUOUS
 62
     7
 10
1078.3588461953941
 20
412.49999999999932
 30
0.0
 11
1078.3588461953971
 21
487.0261685509916
 31
0.0
  0
LINE
  5
109
  8
SPEC
  6
CONTINUOUS
 62
     7
 10
1121.641153804602
 20
374.99999999999937
 30
0.0
 11
1121.641153804602
 21
487.0261685509908
 31
0.0
  0
TEXT
  5
10A
  8
DIMNSIONS
 62
     7
 10
-200.0
 20
-1576.51224
 30
0.0
 40
36.64892578125
  1
(単位：mm)
 41
0.7
 11
-200.0
 21
-1539.86331421875
 31
0.0
 73
     3
  0
LINE
  5
10B
  8
DIMNSIONS
  6
CONTINUOUS
 62
     7
 10
-881.41426966023209
 20
-389.71002325061647
 30
0.0
 11
-1030.0
 21
-389.71002325061647
 31
0.0
  0
LINE
  5
10C
  8
DIMNSIONS
  6
CONTINUOUS
 62
     7
 10
-905.0
 20
-650.0
 30
0.0
 11
-1030.0
 21
-650.0
 31
0.0
  0
LINE
  5
10D
  8
DIMNSIONS
  6
CONTINUOUS
 62
     7
 10
-1000.0
 20
-389.71002325061647
 30
0.0
 11
-1000.0
 21
-650.0
 31
0.0
  0
LINE
  5
10E
  8
DIMNSIONS
  6
CONTINUOUS
 62
     7
 10
-1000.0
 20
-389.71002325061647
 30
0.0
 11
-987.23891971046794
 21
-437.33502325061647
 31
0.0
  0
LINE
  5
10F
  8
DIMNSIONS
  6
CONTINUOUS
 62
     7
 10
-1000.0
 20
-389.71002325061647
 30
0.0
 11
-1012.7610802895319
 21
-437.33502325061647
 31
0.0
  0
LINE
  5
110
  8
DIMNSIONS
  6
CONTINUOUS
 62
     7
 10
-1000.0
 20
-650.0
 30
0.0
 11
-1012.7610802895319
 21
-602.37499999999989
 31
0.0
  0
LINE
  5
111
  8
DIMNSIONS
  6
CONTINUOUS
 62
     7
 10
-1000.0
 20
-650.0
 30
0.0
 11
-987.23891971046794
 21
-602.37499999999989
 31
0.0
  0
TEXT
  5
112
  8
DIMNSIONS
 62
     7
 10
-1014.908333333333
 20
-559.54251162530807
 30
0.0
 40
40.721028645833343
  1
260
 50
90.0
 41
0.7
 11
-1055.6293619791661
 21
-559.54251162530807
 31
0.0
 73
     3
  0
LINE
  5
113
  8
DIMNSIONS
  6
CONTINUOUS
 62
     7
 10
-899.32802941340287
 20
-746.99573422522155
 30
0.0
 11
-1030.9644707185339
 21
-746.99573422522155
 31
0.0
  0
LINE
  5
114
  8
DIMNSIONS
  6
CONTINUOUS
 62
     7
 10
-901.06066015087151
 20
-1200.0
 30
0.0
 11
-1030.9644707185339
 21
-1200.0
 31
0.0
  0
LINE
  5
115
  8
DIMNSIONS
  6
CONTINUOUS
 62
     7
 10
-1000.964470718535
 20
-746.99573422522155
 30
0.0
 11
-1000.964470718535
 21
-1200.0
 31
0.0
  0
LINE
  5
116
  8
DIMNSIONS
  6
CONTINUOUS
 62
     7
 10
-1000.964470718535
 20
-746.99573422522155
 30
0.0
 11
-988.20339042900241
 21
-794.62073422522155
 31
0.0
  0
LINE
  5
117
  8
DIMNSIONS
  6
CONTINUOUS
 62
     7
 10
-1000.964470718535
 20
-746.99573422522155
 30
0.0
 11
-1013.725551008066
 21
-794.62073422522155
 31
0.0
  0
LINE
  5
118
  8
DIMNSIONS
  6
CONTINUOUS
 62
     7
 10
-1000.964470718535
 20
-1200.0
 30
0.0
 11
-1013.725551008066
 21
-1152.375
 31
0.0
  0
LINE
  5
119
  8
DIMNSIONS
  6
CONTINUOUS
 62
     7
 10
-1000.964470718535
 20
-1200.0
 30
0.0
 11
-988.20339042900241
 21
-1152.375
 31
0.0
  0
TEXT
  5
11A
  8
DIMNSIONS
 62
     7
 10
-1015.872804051868
 20
-1013.1853671126109
 30
0.0
 40
40.721028645833343
  1
453
 50
90.0
 41
0.7
 11
-1056.5938326977009
 21
-1013.1853671126109
 31
0.0
 73
     3
  0
LINE
  5
11B
  8
DIMNSIONS
  6
CONTINUOUS
 62
     7
 10
-900.0
 20
-1201.80906
 30
0.0
 11
-900.0
 21
-1330.0
 31
0.0
  0
LINE
  5
11C
  8
DIMNSIONS
  6
CONTINUOUS
 62
     7
 10
-442.7999999999991
 20
-1201.80906
 30
0.0
 11
-442.7999999999991
 21
-1330.0
 31
0.0
  0
LINE
  5
11D
  8
DIMNSIONS
  6
CONTINUOUS
 62
     7
 10
-900.0
 20
-1300.0
 30
0.0
 11
-442.7999999999991
 21
-1300.0
 31
0.0
  0
LINE
  5
11E
  8
DIMNSIONS
  6
CONTINUOUS
 62
     7
 10
-900.0
 20
-1300.0
 30
0.0
 11
-852.37499999999989
 21
-1287.2389197104669
 31
0.0
  0
LINE
  5
11F
  8
DIMNSIONS
  6
CONTINUOUS
 62
     7
 10
-900.0
 20
-1300.0
 30
0.0
 11
-852.37499999999989
 21
-1312.7610802895319
 31
0.0
  0
LINE
  5
120
  8
DIMNSIONS
  6
CONTINUOUS
 62
     7
 10
-442.7999999999991
 20
-1300.0
 30
0.0
 11
-490.42499999999922
 21
-1312.7610802895319
 31
0.0
  0
LINE
  5
121
  8
DIMNSIONS
  6
CONTINUOUS
 62
     7
 10
-442.7999999999991
 20
-1300.0
 30
0.0
 11
-490.42499999999922
 21
-1287.2389197104669
 31
0.0
  0
TEXT
  5
122
  8
DIMNSIONS
 62
     7
 10
-711.08749999999975
 20
-1285.091666666666
 30
0.0
 40
40.721028645833343
  1
457
 41
0.7
 11
-711.08749999999975
 21
-1244.370638020833
 31
0.0
 73
     3
  0
LINE
  5
123
  8
DIMNSIONS
  6
CONTINUOUS
 62
     7
 10
-349.99999999999909
 20
-829.53271167692856
 30
0.0
 11
-349.99999999999909
 21
-1330.0
 31
0.0
  0
LINE
  5
124
  8
DIMNSIONS
  6
CONTINUOUS
 62
     7
 10
-89.710023250614555
 20
-1171.8917358373949
 30
0.0
 11
-89.710023250614555
 21
-1330.0
 31
0.0
  0
LINE
  5
125
  8
DIMNSIONS
  6
CONTINUOUS
 62
     7
 10
-349.99999999999909
 20
-1300.0
 30
0.0
 11
-89.710023250614555
 21
-1300.0
 31
0.0
  0
LINE
  5
126
  8
DIMNSIONS
  6
CONTINUOUS
 62
     7
 10
-349.99999999999909
 20
-1300.0
 30
0.0
 11
-302.37499999999898
 21
-1287.2389197104669
 31
0.0
  0
LINE
  5
127
  8
DIMNSIONS
  6
CONTINUOUS
 62
     7
 10
-349.99999999999909
 20
-1300.0
 30
0.0
 11
-302.37499999999898
 21
-1312.7610802895319
 31
0.0
  0
LINE
  5
128
  8
DIMNSIONS
  6
CONTINUOUS
 62
     7
 10
-89.710023250614555
 20
-1300.0
 30
0.0
 11
-137.33502325061451
 21
-1312.7610802895319
 31
0.0
  0
LINE
  5
129
  8
DIMNSIONS
  6
CONTINUOUS
 62
     7
 10
-89.710023250614555
 20
-1300.0
 30
0.0
 11
-137.33502325061451
 21
-1287.2389197104669
 31
0.0
  0
TEXT
  5
12A
  8
DIMNSIONS
 62
     7
 10
-259.54251162530682
 20
-1285.091666666666
 30
0.0
 40
40.721028645833343
  1
260
 41
0.7
 11
-259.54251162530682
 21
-1244.370638020833
 31
0.0
 73
     3
  0
LINE
  5
12B
  8
DIMNSIONS
  6
CONTINUOUS
 62
     7
 10
-349.99999999999881
 20
-844.73271167692872
 30
0.0
 11
-349.9999999999846
 21
-1162.9446384174601
 31
0.0
  0
ARC
  5
12C
  8
DIMNSIONS
  6
CONTINUOUS
 62
     7
 10
-350.00000000000051
 20
-804.50369843067904
 30
0.0
 40
328.44093998678142
 50
270.0000000000025
 51
290.00000000000023
  0
LINE
  5
12D
  8
DIMNSIONS
  6
CONTINUOUS
 62
     7
 10
-237.66658263170331
 20
-1113.137226100245
 30
0.0
 11
-278.05489718701602
 21
-1141.4174284074591
 31
0.0
  0
LINE
  5
12E
  8
DIMNSIONS
  6
CONTINUOUS
 62
     7
 10
-237.66658263170331
 20
-1113.137226100245
 30
0.0
 11
-286.78399020624829
 21
-1117.4344424448
 31
0.0
  0
LINE
  5
12F
  8
DIMNSIONS
  6
CONTINUOUS
 62
     7
 10
-349.99999999998602
 20
-1132.9446384174601
 30
0.0
 11
-302.37499999998602
 21
-1120.1835581279281
 31
0.0
  0
LINE
  5
130
  8
DIMNSIONS
  6
CONTINUOUS
 62
     7
 10
-349.99999999998602
 20
-1132.9446384174601
 30
0.0
 11
-302.37499999998602
 21
-1145.7057187069929
 31
0.0
  0
TEXT
  5
131
  8
DIMNSIONS
 62
     7
 10
-303.50676228536292
 20
-1204.2524634576259
 30
0.0
 40
40.721028645833343
  1
20°
 50
14.18965878610533
 41
0.7
 11
-313.48880611015989
 21
-1164.7738493095251
 31
0.0
 73
     3
  0
LINE
  5
132
  8
DIMNSIONS
  6
CONTINUOUS
 62
     7
 10
-113.8655508471409
 20
-781.82608493606335
 30
0.0
 11
43.117341865910653
 21
-724.68898469950716
 31
0.0
  0
LINE
  5
133
  8
DIMNSIONS
  6
CONTINUOUS
 62
     7
 10
-70.42899264478045
 20
-901.16704777587393
 30
0.0
 11
86.553900068271147
 21
-844.02994753931762
 31
0.0
  0
LINE
  5
134
  8
DIMNSIONS
  6
CONTINUOUS
 62
     7
 10
14.92656324233344
 20
-734.94958899927735
 30
0.0
 11
58.363121444693931
 21
-854.29055183908793
 31
0.0
  0
LINE
  5
135
  8
DIMNSIONS
  6
CONTINUOUS
 62
     7
 10
14.92656324233344
 20
-734.94958899927735
 30
0.0
 11
43.907331618694897
 21
-774.83819463386385
 31
0.0
  0
LINE
  5
136
  8
DIMNSIONS
  6
CONTINUOUS
 62
     7
 10
14.92656324233344
 20
-734.94958899927735
 30
0.0
 11
20.08034206016184
 21
-783.98451898854921
 31
0.0
  0
LINE
  5
137
  8
DIMNSIONS
  6
CONTINUOUS
 62
     7
 10
58.363121444693931
 20
-854.29055183908793
 30
0.0
 11
30.082919137479021
 21
-813.90223728377543
 31
0.0
  0
LINE
  5
138
  8
DIMNSIONS
  6
CONTINUOUS
 62
     7
 10
58.363121444693931
 20
-854.29055183908793
 30
0.0
 11
54.065905100138892
 21
-805.17314426454288
 31
0.0
  0
TEXT
  5
139
  8
DIMNSIONS
 62
     7
 10
37.08016872682601
 20
-752.22706922832845
 30
0.0
 40
40.721028645833343
  1
127
 50
290.00000000000023
 41
0.7
 11
75.345418856127154
 21
-738.29965717451182
 31
0.0
 73
     3
  0
LINE
  5
13A
  8
DIMNSIONS
  6
CONTINUOUS
 62
     7
 10
413.52500000000151
 20
-754.45616245357462
 30
0.0
 11
413.52500000000151
 21
-620.0
 31
0.0
  0
LINE
  5
13B
  8
DIMNSIONS
  6
CONTINUOUS
 62
     7
 10
343.67500000000069
 20
-754.45616245357462
 30
0.0
 11
343.67500000000069
 21
-620.0
 31
0.0
  0
LINE
  5
13C
  8
DIMNSIONS
  6
CONTINUOUS
 62
     7
 10
343.67500000000069
 20
-650.0
 30
0.0
 11
413.52500000000151
 21
-650.0
 31
0.0
  0
LINE
  5
13D
  8
DIMNSIONS
  6
CONTINUOUS
 62
     7
 10
413.52500000000151
 20
-650.0
 30
0.0
 11
580.83333333333326
 21
-650.0
 31
0.0
  0
LINE
  5
13E
  8
DIMNSIONS
  6
CONTINUOUS
 62
     7
 10
413.52500000000151
 20
-650.0
 30
0.0
 11
461.15000000000151
 21
-637.23891971046794
 31
0.0
  0
LINE
  5
13F
  8
DIMNSIONS
  6
CONTINUOUS
 62
     7
 10
413.52500000000151
 20
-650.0
 30
0.0
 11
461.15000000000151
 21
-662.76108028953195
 31
0.0
  0
LINE
  5
140
  8
DIMNSIONS
  6
CONTINUOUS
 62
     7
 10
343.67500000000069
 20
-650.0
 30
0.0
 11
268.67500000000069
 21
-650.0
 31
0.0
  0
LINE
  5
141
  8
DIMNSIONS
  6
CONTINUOUS
 62
     7
 10
343.67500000000069
 20
-650.0
 30
0.0
 11
296.05000000000058
 21
-662.76108028953195
 31
0.0
  0
LINE
  5
142
  8
DIMNSIONS
  6
CONTINUOUS
 62
     7
 10
343.67500000000069
 20
-650.0
 30
0.0
 11
296.05000000000058
 21
-637.23891971046794
 31
0.0
  0
TEXT
  5
143
  8
DIMNSIONS
 62
     7
 10
475.0
 20
-635.0916666666667
 30
0.0
 40
40.721028645833343
  1
69.9
 41
0.7
 11
475.0
 21
-594.37063802083321
 31
0.0
 73
     3
  0
TEXT
  5
144
  8
DIMNSIONS
 62
     7
 10
712.5
 20
-1235.10546875
 30
0.0
 40
31.412506103515629
  1
グリル取付ビス(4ヶ所)
 41
0.7
 11
712.5
 21
-1203.6929626464839
 31
0.0
 73
     3
  0
LINE
  5
145
  8
DIMNSIONS
  6
CONTINUOUS
 62
     7
 10
300.0
 20
-1250.0
 30
0.0
 11
1150.0
 21
-1250.0
 31
0.0
  0
LINE
  5
146
  8
DIMNSIONS
  6
CONTINUOUS
 62
     7
 10
203.13077582382999
 20
-754.9212958802301
 30
0.0
 11
300.0
 21
-1250.0
 31
0.0
  0
LINE
  5
147
  8
DIMNSIONS
  6
CONTINUOUS
 62
     7
 10
203.13077582382999
 20
-754.9212958802301
 30
0.0
 11
225.51479016700321
 21
-798.85239758551961
 31
0.0
  0
LINE
  5
148
  8
DIMNSIONS
  6
CONTINUOUS
 62
     7
 10
203.13077582382999
 20
-754.9212958802301
 30
0.0
 11
200.55035003104831
 21
-804.15875314483526
 31
0.0
  0
LINE
  5
149
  8
DIMNSIONS
  6
CONTINUOUS
 62
     7
 10
555.97980615895722
 20
-754.83657230394044
 30
0.0
 11
700.0000000000008
 21
-1250.0
 31
0.0
  0
LINE
  5
14A
  8
DIMNSIONS
  6
CONTINUOUS
 62
     7
 10
555.97980615895722
 20
-754.83657230394044
 30
0.0
 11
582.10749036848335
 21
-796.64960750832574
 31
0.0
  0
LINE
  5
14B
  8
DIMNSIONS
  6
CONTINUOUS
 62
     7
 10
555.97980615895722
 20
-754.83657230394044
 30
0.0
 11
557.70052682427172
 21
-804.11156510503429
 31
0.0
  0
LINE
  5
14C
  8
DIMNSIONS
  6
CONTINUOUS
 62
     7
 10
205.566270646399
 20
-1179.3952097857241
 30
0.0
 11
300.0
 21
-1250.0
 31
0.0
  0
LINE
  5
14D
  8
DIMNSIONS
  6
CONTINUOUS
 62
     7
 10
205.566270646399
 20
-1179.3952097857241
 30
0.0
 11
251.59647980101309
 21
-1197.064551605338
 31
0.0
  0
LINE
  5
14E
  8
DIMNSIONS
  6
CONTINUOUS
 62
     7
 10
205.566270646399
 20
-1179.3952097857241
 30
0.0
 11
236.59493020599871
 21
-1217.712413246968
 31
0.0
  0
LINE
  5
14F
  8
DIMNSIONS
  6
CONTINUOUS
 62
     7
 10
558.43613420156169
 20
-1178.7973454498219
 30
0.0
 11
700.0000000000008
 21
-1250.0
 31
0.0
  0
LINE
  5
150
  8
DIMNSIONS
  6
CONTINUOUS
 62
     7
 10
558.43613420156169
 20
-1178.7973454498219
 30
0.0
 11
606.8352900573492
 21
-1188.2051883270749
 31
0.0
  0
LINE
  5
151
  8
DIMNSIONS
  6
CONTINUOUS
 62
     7
 10
558.43613420156169
 20
-1178.7973454498219
 30
0.0
 11
595.64711125576991
 21
-1211.1443543042301
 31
0.0
  0
TEXT
  5
152
  8
DIMNSIONS
 62
     7
 10
68.999999999999986
 20
-564.6953125
 30
0.0
 40
31.412506103515629
  1
（長さ1インチ）
 41
0.7
 11
68.999999999999986
 21
-533.28280639648438
 31
0.0
 73
     3
  0
TEXT
  5
153
  8
DIMNSIONS
 62
     7
 10
-31.000000000000011
 20
-514.6953125
 30
0.0
 40
31.412506103515629
  1
4ヶ所-1/4インチネジ
 41
0.7
 11
-31.000000000000011
 21
-483.28280639648438
 31
0.0
 73
     3
  0
LINE
  5
154
  8
DIMNSIONS
  6
CONTINUOUS
 62
     7
 10
-100.0
 20
-500.0
 30
0.0
 11
-50.000000000000021
 21
-500.0
 31
0.0
  0
LINE
  5
155
  8
DIMNSIONS
  6
CONTINUOUS
 62
     7
 10
-141.3470020493705
 20
-787.16031785029872
 30
0.0
 11
-100.0
 21
-500.0
 31
0.0
  0
LINE
  5
156
  8
DIMNSIONS
  6
CONTINUOUS
 62
     7
 10
-141.3470020493705
 20
-787.16031785029872
 30
0.0
 11
-146.5007808671989
 21
-738.12538786102687
 31
0.0
  0
LINE
  5
157
  8
DIMNSIONS
  6
CONTINUOUS
 62
     7
 10
-141.3470020493705
 20
-787.16031785029872
 30
0.0
 11
-121.2928404364601
 21
-742.11793339788358
 31
0.0
  0
ARC
  5
158
  8
DATA
  6
CONTINUOUS
 62
     7
 10
-718.23632231083195
 20
-937.45844294890446
 30
0.0
 40
3.7662601299257181
 50
266.4418483017929
 51
93.558151698207183
  0
ARC
  5
159
  8
DATA
  6
CONTINUOUS
 62
     7
 10
-670.81516164369498
 20
-855.88259240000025
 30
0.0
 40
9.4151616436954342
 50
266.43868634440099
 51
93.56131365559898
  0
TEXT
  5
15A
  8
DATA
 62
     7
 10
850.0
 20
-1484.84124
 30
0.0
 40
36.64892578125
  1
JBL
 41
0.7
 11
850.0
 21
-1448.19231421875
 31
0.0
 73
     3
  0
TEXT
  5
15B
  8
DATA
 62
     7
 10
-1100.0
 20
-1696.98459
 30
0.0
 40
24.4326171875
  1
仕様および外観は予告なく変更されることがありますので、ご了承ください。
 41
0.7
 11
-1100.0
 21
-1672.5519728125009
 31
0.0
 73
     3
  0
ARC
  5
15C
  8
DATA
  6
CONTINUOUS
 62
     7
 10
-558.92857142857065
 20
-1280.3571428571429
 30
0.0
 40
192.0784544217841
 50
110.11963314081839
 51
155.26917185557281
  0
ARC
  5
15D
  8
DATA
  6
CONTINUOUS
 62
     7
 10
-970.89451875366103
 20
-502.08951167671478
 30
0.0
 40
462.45930100779589
 50
297.02259662621321
 51
309.03112217220382
  0
ARC
  5
15E
  8
DATA
  6
CONTINUOUS
 62
     7
 10
-970.89451875366103
 20
-1209.675673123284
 30
0.0
 40
462.45930100779589
 50
50.968877827795971
 51
62.977403373786707
  0
LINE
  5
15F
  8
DATA
  6
CONTINUOUS
 62
     7
 10
-586.39999999999964
 20
-916.49311339999974
 30
0.0
 11
-756.39999999999975
 21
-916.49311339999974
 31
0.0
  0
LINE
  5
160
  8
DATA
  6
CONTINUOUS
 62
     7
 10
-756.39999999999975
 20
-795.27207139999973
 30
0.0
 11
-586.39999999999964
 21
-795.27207139999973
 31
0.0
  0
LINE
  5
161
  8
DATA
  6
CONTINUOUS
 62
     7
 10
-870.0
 20
-746.99573422522155
 30
0.0
 11
-472.79999999999922
 21
-746.99573422522155
 31
0.0
  0
LINE
  5
162
  8
DATA
  6
CONTINUOUS
 62
     7
 10
-870.0
 20
-1200.0
 30
0.0
 11
-472.79999999999922
 21
-1200.0
 31
0.0
  0
LINE
  5
163
  8
DATA
  6
CONTINUOUS
 62
     7
 10
-870.0
 20
-770.37007440000014
 30
0.0
 11
-472.79999999999922
 21
-770.37007440000014
 31
0.0
  0
LINE
  5
164
  8
DATA
  6
CONTINUOUS
 62
     7
 10
-900.0
 20
-1170.0
 30
0.0
 11
-900.0
 21
-776.99573422522155
 31
0.0
  0
LINE
  5
165
  8
DATA
  6
CONTINUOUS
 62
     7
 10
-817.39999999969052
 20
-1068.0988427645509
 30
0.0
 11
-800.44400614977633
 21
-1052.1653292638421
 31
0.0
  0
LINE
  5
166
  8
DATA
  6
CONTINUOUS
 62
     7
 10
-817.39999999969052
 20
-1024.2440320955909
 30
0.0
 11
-800.6273811947716
 21
-1040.005228445985
 31
0.0
  0
LINE
  5
167
  8
DATA
  6
CONTINUOUS
 62
     7
 10
-840.73452377884666
 20
-1046.1714373611439
 30
0.0
 11
-800.68618007138173
 21
-1046.171437427827
 31
0.0
  0
LINE
  5
168
  8
DATA
  6
CONTINUOUS
 62
     7
 10
-840.73452378478112
 20
-1155.928163761145
 30
0.0
 11
-817.40000000562475
 21
-1134.0007584955911
 31
0.0
  0
LINE
  5
169
  8
DATA
  6
CONTINUOUS
 62
     7
 10
-817.40000000562475
 20
-1177.8555691645499
 30
0.0
 11
-817.40000000562475
 21
-1134.0007584955911
 31
0.0
  0
LINE
  5
16A
  8
DATA
  6
CONTINUOUS
 62
     7
 10
-840.73452378478112
 20
-1155.928163761145
 30
0.0
 11
-794.06547621521975
 21
-1155.9281638388541
 31
0.0
  0
LINE
  5
16B
  8
DATA
  6
CONTINUOUS
 62
     7
 10
-759.00000000562329
 20
-1177.8555691645499
 30
0.0
 11
-782.33452378477978
 21
-1155.928163761145
 31
0.0
  0
LINE
  5
16C
  8
DATA
  6
CONTINUOUS
 62
     7
 10
-735.66547621521943
 20
-1155.9281638388541
 30
0.0
 11
-759.00000000562329
 21
-1177.8555691645499
 31
0.0
  0
LINE
  5
16D
  8
DATA
  6
CONTINUOUS
 62
     7
 10
-747.02557767330723
 20
-1145.2530992157431
 30
0.0
 11
-735.66547621521943
 21
-1155.9281638388541
 31
0.0
  0
LINE
  5
16E
  8
DATA
  6
CONTINUOUS
 62
     7
 10
-782.33452378477978
 20
-1155.928163761145
 30
0.0
 11
-760.11718278876344
 21
-1135.0505729196379
 31
0.0
  0
LINE
  5
16F
  8
DATA
  6
CONTINUOUS
 62
     7
 10
-759.00000000562329
 20
-1177.8555691645499
 30
0.0
 11
-759.00000000562329
 21
-1136.0384185543969
 31
0.0
  0
LINE
  5
170
  8
DATA
  6
CONTINUOUS
 62
     7
 10
-782.33452378477978
 20
-1155.928163761145
 30
0.0
 11
-735.66547621521943
 21
-1155.9281638388541
 31
0.0
  0
LINE
  5
171
  8
DATA
  6
CONTINUOUS
 62
     7
 10
-788.20000000562413
 20
-1150.41638756455
 30
0.0
 11
-811.53452378478028
 21
-1128.488982161145
 31
0.0
  0
LINE
  5
172
  8
DATA
  6
CONTINUOUS
 62
     7
 10
-765.93071285715052
 20
-1129.489982980296
 30
0.0
 11
-788.20000000562413
 21
-1150.41638756455
 31
0.0
  0
LINE
  5
173
  8
DATA
  6
CONTINUOUS
 62
     7
 10
-788.20000000562413
 20
-1106.5615768955911
 30
0.0
 11
-775.40551039187017
 21
-1118.5845332002029
 31
0.0
  0
LINE
  5
174
  8
DATA
  6
CONTINUOUS
 62
     7
 10
-811.53452378478028
 20
-1128.488982161145
 30
0.0
 11
-788.20000000562413
 21
-1106.5615768955911
 31
0.0
  0
LINE
  5
175
  8
DATA
  6
CONTINUOUS
 62
     7
 10
-788.20000000562413
 20
-1150.41638756455
 30
0.0
 11
-788.20000000562413
 21
-1106.5615768955911
 31
0.0
  0
LINE
  5
176
  8
DATA
  6
CONTINUOUS
 62
     7
 10
-811.53452378478028
 20
-1128.488982161145
 30
0.0
 11
-766.89922962275102
 21
-1128.488982235468
 31
0.0
  0
LINE
  5
177
  8
DATA
  6
CONTINUOUS
 62
     7
 10
-846.60000000562366
 20
-1150.41638756455
 30
0.0
 11
-869.93452378478014
 21
-1128.488982161145
 31
0.0
  0
LINE
  5
178
  8
DATA
  6
CONTINUOUS
 62
     7
 10
-823.26547621521945
 20
-1128.4889822388541
 30
0.0
 11
-846.60000000562366
 21
-1150.41638756455
 31
0.0
  0
LINE
  5
179
  8
DATA
  6
CONTINUOUS
 62
     7
 10
-846.60000000562366
 20
-1106.5615768955911
 30
0.0
 11
-823.26547621521945
 21
-1128.4889822388541
 31
0.0
  0
LINE
  5
17A
  8
DATA
  6
CONTINUOUS
 62
     7
 10
-869.93452378478014
 20
-1128.488982161145
 30
0.0
 11
-846.60000000562366
 21
-1106.5615768955911
 31
0.0
  0
LINE
  5
17B
  8
DATA
  6
CONTINUOUS
 62
     7
 10
-846.60000000562366
 20
-1150.41638756455
 30
0.0
 11
-846.60000000562366
 21
-1106.5615768955911
 31
0.0
  0
LINE
  5
17C
  8
DATA
  6
CONTINUOUS
 62
     7
 10
-869.93452378478014
 20
-1128.488982161145
 30
0.0
 11
-823.26547621521945
 21
-1128.4889822388541
 31
0.0
  0
LINE
  5
17D
  8
DATA
  6
CONTINUOUS
 62
     7
 10
-817.40000000562475
 20
-1122.97720596455
 30
0.0
 11
-840.73452378478112
 21
-1101.049800561145
 31
0.0
  0
LINE
  5
17E
  8
DATA
  6
CONTINUOUS
 62
     7
 10
-794.06547621521975
 20
-1101.049800638855
 30
0.0
 11
-817.40000000562475
 21
-1122.97720596455
 31
0.0
  0
LINE
  5
17F
  8
DATA
  6
CONTINUOUS
 62
     7
 10
-817.40000000562475
 20
-1079.1223952955911
 30
0.0
 11
-794.06547621521975
 21
-1101.049800638855
 31
0.0
  0
LINE
  5
180
  8
DATA
  6
CONTINUOUS
 62
     7
 10
-840.73452378478112
 20
-1101.049800561145
 30
0.0
 11
-817.40000000562475
 21
-1079.1223952955911
 31
0.0
  0
LINE
  5
181
  8
DATA
  6
CONTINUOUS
 62
     7
 10
-817.40000000562475
 20
-1122.97720596455
 30
0.0
 11
-817.40000000562475
 21
-1079.1223952955911
 31
0.0
  0
LINE
  5
182
  8
DATA
  6
CONTINUOUS
 62
     7
 10
-840.73452378478112
 20
-1101.049800561145
 30
0.0
 11
-794.06547621521975
 21
-1101.049800638855
 31
0.0
  0
LINE
  5
183
  8
DATA
  6
CONTINUOUS
 62
     7
 10
-846.60000000562366
 20
-1095.53802436455
 30
0.0
 11
-869.93452378478014
 21
-1073.6106189611451
 31
0.0
  0
LINE
  5
184
  8
DATA
  6
CONTINUOUS
 62
     7
 10
-823.26547621521945
 20
-1073.6106190388541
 30
0.0
 11
-846.60000000562366
 21
-1095.53802436455
 31
0.0
  0
LINE
  5
185
  8
DATA
  6
CONTINUOUS
 62
     7
 10
-846.60000000562366
 20
-1051.6832136955909
 30
0.0
 11
-823.26547621521945
 21
-1073.6106190388541
 31
0.0
  0
LINE
  5
186
  8
DATA
  6
CONTINUOUS
 62
     7
 10
-869.93452378478014
 20
-1073.6106189611451
 30
0.0
 11
-846.60000000562366
 21
-1051.6832136955909
 31
0.0
  0
LINE
  5
187
  8
DATA
  6
CONTINUOUS
 62
     7
 10
-846.60000000562366
 20
-1095.53802436455
 30
0.0
 11
-846.60000000562366
 21
-1051.6832136955909
 31
0.0
  0
LINE
  5
188
  8
DATA
  6
CONTINUOUS
 62
     7
 10
-869.93452378478014
 20
-1073.6106189611451
 30
0.0
 11
-823.26547621521945
 21
-1073.6106190388541
 31
0.0
  0
LINE
  5
189
  8
DATA
  6
CONTINUOUS
 62
     7
 10
-817.39999999969052
 20
-1068.0988427645509
 30
0.0
 11
-840.73452377884666
 21
-1046.1714373611439
 31
0.0
  0
LINE
  5
18A
  8
DATA
  6
CONTINUOUS
 62
     7
 10
-840.73452377884666
 20
-1046.1714373611439
 30
0.0
 11
-817.39999999969052
 21
-1024.2440320955909
 31
0.0
  0
LINE
  5
18B
  8
DATA
  6
CONTINUOUS
 62
     7
 10
-817.39999999969052
 20
-1068.0988427645509
 30
0.0
 11
-817.39999999969052
 21
-1024.2440320955909
 31
0.0
  0
LINE
  5
18C
  8
DATA
  6
CONTINUOUS
 62
     7
 10
-846.60000000562366
 20
-1040.65966116455
 30
0.0
 11
-869.93452378478014
 21
-1018.732255761145
 31
0.0
  0
LINE
  5
18D
  8
DATA
  6
CONTINUOUS
 62
     7
 10
-823.26547621521945
 20
-1018.732255838854
 30
0.0
 11
-846.60000000562366
 21
-1040.65966116455
 31
0.0
  0
LINE
  5
18E
  8
DATA
  6
CONTINUOUS
 62
     7
 10
-846.60000000562366
 20
-996.80485049559138
 30
0.0
 11
-823.26547621521945
 21
-1018.732255838854
 31
0.0
  0
LINE
  5
18F
  8
DATA
  6
CONTINUOUS
 62
     7
 10
-869.93452378478014
 20
-1018.732255761145
 30
0.0
 11
-846.60000000562366
 21
-996.80485049559138
 31
0.0
  0
LINE
  5
190
  8
DATA
  6
CONTINUOUS
 62
     7
 10
-846.60000000562366
 20
-1040.65966116455
 30
0.0
 11
-846.60000000562366
 21
-996.80485049559138
 31
0.0
  0
LINE
  5
191
  8
DATA
  6
CONTINUOUS
 62
     7
 10
-869.93452378478014
 20
-1018.732255761145
 30
0.0
 11
-823.26547621521945
 21
-1018.732255838854
 31
0.0
  0
LINE
  5
192
  8
DATA
  6
CONTINUOUS
 62
     7
 10
-817.40000000562475
 20
-1177.8555691645499
 30
0.0
 11
-840.73452378478112
 21
-1155.928163761145
 31
0.0
  0
LINE
  5
193
  8
DATA
  6
CONTINUOUS
 62
     7
 10
-794.06547621521975
 20
-1155.9281638388541
 30
0.0
 11
-817.40000000562475
 21
-1177.8555691645499
 31
0.0
  0
LINE
  5
194
  8
DATA
  6
CONTINUOUS
 62
     7
 10
-817.40000000562475
 20
-1134.0007584955911
 30
0.0
 11
-794.06547621521975
 21
-1155.9281638388541
 31
0.0
  0
LINE
  5
195
  8
DATA
  6
CONTINUOUS
 62
     7
 10
-718.4700621809061
 20
-939.33794294890436
 30
0.0
 11
-718.4700621809061
 21
-935.57894294890446
 31
0.0
  0
LINE
  5
196
  8
DATA
  6
CONTINUOUS
 62
     7
 10
-720.4700621809061
 20
-937.45844294890446
 30
0.0
 11
-716.47006218090598
 21
-937.45844294890446
 31
0.0
  0
LINE
  5
197
  8
DATA
  6
CONTINUOUS
 62
     7
 10
-846.60000000562366
 20
-930.90293476455042
 30
0.0
 11
-869.93452378478014
 21
-908.97552936114528
 31
0.0
  0
LINE
  5
198
  8
DATA
  6
CONTINUOUS
 62
     7
 10
-823.26547621521945
 20
-908.97552943885455
 30
0.0
 11
-846.60000000562366
 21
-930.90293476455042
 31
0.0
  0
LINE
  5
199
  8
DATA
  6
CONTINUOUS
 62
     7
 10
-846.60000000562366
 20
-887.04812409559145
 30
0.0
 11
-823.26547621521945
 21
-908.97552943885455
 31
0.0
  0
LINE
  5
19A
  8
DATA
  6
CONTINUOUS
 62
     7
 10
-869.93452378478014
 20
-908.97552936114528
 30
0.0
 11
-846.60000000562366
 21
-887.04812409559145
 31
0.0
  0
LINE
  5
19B
  8
DATA
  6
CONTINUOUS
 62
     7
 10
-846.60000000562366
 20
-930.90293476455042
 30
0.0
 11
-846.60000000562366
 21
-887.04812409559145
 31
0.0
  0
LINE
  5
19C
  8
DATA
  6
CONTINUOUS
 62
     7
 10
-869.93452378478014
 20
-908.97552936114528
 30
0.0
 11
-823.26547621521945
 21
-908.97552943885455
 31
0.0
  0
LINE
  5
19D
  8
DATA
  6
CONTINUOUS
 62
     7
 10
-788.20000000562413
 20
-930.90293476455042
 30
0.0
 11
-811.53452378478028
 21
-908.97552936114528
 31
0.0
  0
LINE
  5
19E
  8
DATA
  6
CONTINUOUS
 62
     7
 10
-764.86547621522004
 20
-908.97552943885455
 30
0.0
 11
-788.20000000562413
 21
-930.90293476455042
 31
0.0
  0
LINE
  5
19F
  8
DATA
  6
CONTINUOUS
 62
     7
 10
-788.20000000562413
 20
-887.04812409559145
 30
0.0
 11
-764.86547621522004
 21
-908.97552943885455
 31
0.0
  0
LINE
  5
1A0
  8
DATA
  6
CONTINUOUS
 62
     7
 10
-811.53452378478028
 20
-908.97552936114528
 30
0.0
 11
-788.20000000562413
 21
-887.04812409559145
 31
0.0
  0
LINE
  5
1A1
  8
DATA
  6
CONTINUOUS
 62
     7
 10
-788.20000000562413
 20
-930.90293476455042
 30
0.0
 11
-788.20000000562413
 21
-887.04812409559145
 31
0.0
  0
LINE
  5
1A2
  8
DATA
  6
CONTINUOUS
 62
     7
 10
-811.53452378478028
 20
-908.97552936114528
 30
0.0
 11
-764.86547621522004
 21
-908.97552943885455
 31
0.0
  0
LINE
  5
1A3
  8
DATA
  6
CONTINUOUS
 62
     7
 10
-817.40000000562475
 20
-903.46375316455078
 30
0.0
 11
-840.73452378478112
 21
-881.53634776114495
 31
0.0
  0
LINE
  5
1A4
  8
DATA
  6
CONTINUOUS
 62
     7
 10
-794.06547621521975
 20
-881.53634783885445
 30
0.0
 11
-817.40000000562475
 21
-903.46375316455078
 31
0.0
  0
LINE
  5
1A5
  8
DATA
  6
CONTINUOUS
 62
     7
 10
-817.40000000562475
 20
-859.60894249559135
 30
0.0
 11
-794.06547621521975
 21
-881.53634783885445
 31
0.0
  0
LINE
  5
1A6
  8
DATA
  6
CONTINUOUS
 62
     7
 10
-840.73452378478112
 20
-881.53634776114495
 30
0.0
 11
-817.40000000562475
 21
-859.60894249559135
 31
0.0
  0
LINE
  5
1A7
  8
DATA
  6
CONTINUOUS
 62
     7
 10
-817.40000000562475
 20
-903.46375316455078
 30
0.0
 11
-817.40000000562475
 21
-859.60894249559135
 31
0.0
  0
LINE
  5
1A8
  8
DATA
  6
CONTINUOUS
 62
     7
 10
-840.73452378478112
 20
-881.53634776114495
 30
0.0
 11
-794.06547621521975
 21
-881.53634783885445
 31
0.0
  0
LINE
  5
1A9
  8
DATA
  6
CONTINUOUS
 62
     7
 10
-788.20000000562413
 20
-876.02457156455046
 30
0.0
 11
-811.53452378478028
 21
-854.0971661611452
 31
0.0
  0
LINE
  5
1AA
  8
DATA
  6
CONTINUOUS
 62
     7
 10
-764.86547621522004
 20
-854.09716623885424
 30
0.0
 11
-788.20000000562413
 21
-876.02457156455046
 31
0.0
  0
LINE
  5
1AB
  8
DATA
  6
CONTINUOUS
 62
     7
 10
-788.20000000562413
 20
-832.16976089559103
 30
0.0
 11
-764.86547621522004
 21
-854.09716623885424
 31
0.0
  0
LINE
  5
1AC
  8
DATA
  6
CONTINUOUS
 62
     7
 10
-811.53452378478028
 20
-854.0971661611452
 30
0.0
 11
-788.20000000562413
 21
-832.16976089559103
 31
0.0
  0
LINE
  5
1AD
  8
DATA
  6
CONTINUOUS
 62
     7
 10
-788.20000000562413
 20
-876.02457156455046
 30
0.0
 11
-788.20000000562413
 21
-832.16976089559103
 31
0.0
  0
LINE
  5
1AE
  8
DATA
  6
CONTINUOUS
 62
     7
 10
-811.53452378478028
 20
-854.0971661611452
 30
0.0
 11
-764.86547621522004
 21
-854.09716623885424
 31
0.0
  0
LINE
  5
1AF
  8
DATA
  6
CONTINUOUS
 62
     7
 10
-817.40000000562475
 20
-848.58538996455025
 30
0.0
 11
-840.73452378478112
 21
-826.65798456114521
 31
0.0
  0
LINE
  5
1B0
  8
DATA
  6
CONTINUOUS
 62
     7
 10
-794.06547621521975
 20
-826.65798463885449
 30
0.0
 11
-817.40000000562475
 21
-848.58538996455025
 31
0.0
  0
LINE
  5
1B1
  8
DATA
  6
CONTINUOUS
 62
     7
 10
-817.40000000562475
 20
-804.73057929559116
 30
0.0
 11
-794.06547621521975
 21
-826.65798463885449
 31
0.0
  0
LINE
  5
1B2
  8
DATA
  6
CONTINUOUS
 62
     7
 10
-840.73452378478112
 20
-826.65798456114521
 30
0.0
 11
-817.40000000562475
 21
-804.73057929559116
 31
0.0
  0
LINE
  5
1B3
  8
DATA
  6
CONTINUOUS
 62
     7
 10
-817.40000000562475
 20
-848.58538996455025
 30
0.0
 11
-817.40000000562475
 21
-804.73057929559116
 31
0.0
  0
LINE
  5
1B4
  8
DATA
  6
CONTINUOUS
 62
     7
 10
-840.73452378478112
 20
-826.65798456114521
 30
0.0
 11
-794.06547621521975
 21
-826.65798463885449
 31
0.0
  0
LINE
  5
1B5
  8
DATA
  6
CONTINUOUS
 62
     7
 10
-846.60000000021591
 20
-876.02457156455046
 30
0.0
 11
-869.93452377937194
 21
-854.0971661611452
 31
0.0
  0
LINE
  5
1B6
  8
DATA
  6
CONTINUOUS
 62
     7
 10
-823.26547620981091
 20
-854.09716623885458
 30
0.0
 11
-846.60000000021591
 21
-876.02457156455046
 31
0.0
  0
LINE
  5
1B7
  8
DATA
  6
CONTINUOUS
 62
     7
 10
-846.60000000021591
 20
-832.16976089559148
 30
0.0
 11
-823.26547620981091
 21
-854.09716623885458
 31
0.0
  0
LINE
  5
1B8
  8
DATA
  6
CONTINUOUS
 62
     7
 10
-869.93452377937194
 20
-854.0971661611452
 30
0.0
 11
-846.60000000021591
 21
-832.16976089559148
 31
0.0
  0
LINE
  5
1B9
  8
DATA
  6
CONTINUOUS
 62
     7
 10
-846.60000000021591
 20
-876.02457156455046
 30
0.0
 11
-846.60000000021591
 21
-832.16976089559148
 31
0.0
  0
LINE
  5
1BA
  8
DATA
  6
CONTINUOUS
 62
     7
 10
-869.93452377937194
 20
-854.0971661611452
 30
0.0
 11
-823.26547620981091
 21
-854.09716623885458
 31
0.0
  0
LINE
  5
1BB
  8
DATA
  6
CONTINUOUS
 62
     7
 10
-761.39999999999975
 20
-911.49311339999986
 30
0.0
 11
-761.39999999999975
 21
-800.27207139999962
 31
0.0
  0
ARC
  5
1BC
  8
DATA
  6
CONTINUOUS
 62
     7
 10
-756.39999999999975
 20
-911.49311339999986
 30
0.0
 40
5.0
 50
180.0
 51
270.0
  0
ARC
  5
1BD
  8
DATA
  6
CONTINUOUS
 62
     7
 10
-756.39999999999975
 20
-800.27207139999962
 30
0.0
 40
5.0
 50
90.0
 51
180.0
  0
ARC
  5
1BE
  8
DATA
  6
CONTINUOUS
 62
     7
 10
-800.00000000000102
 20
-762.49999999999852
 30
0.0
 40
380.17265814364032
 50
297.40757543781848
 51
339.97998598531137
  0
LINE
  5
1BF
  8
DATA
  6
CONTINUOUS
 62
     7
 10
-442.7999999999991
 20
-1170.0
 30
0.0
 11
-442.7999999999991
 21
-776.99573422522155
 31
0.0
  0
LINE
  5
1C0
  8
DATA
  6
CONTINUOUS
 62
     7
 10
-519.53452378477971
 20
-908.97552943885455
 30
0.0
 11
-496.19999999437448
 21
-930.90293476455042
 31
0.0
  0
LINE
  5
1C1
  8
DATA
  6
CONTINUOUS
 62
     7
 10
-496.1999999943755
 20
-887.04812409559145
 30
0.0
 11
-519.53452378477971
 21
-908.97552943885455
 31
0.0
  0
LINE
  5
1C2
  8
DATA
  6
CONTINUOUS
 62
     7
 10
-472.86547621521822
 20
-908.97552936114528
 30
0.0
 11
-496.1999999943755
 21
-887.04812409559145
 31
0.0
  0
LINE
  5
1C3
  8
DATA
  6
CONTINUOUS
 62
     7
 10
-496.19999999437448
 20
-930.90293476455042
 30
0.0
 11
-496.1999999943755
 21
-887.04812409559145
 31
0.0
  0
LINE
  5
1C4
  8
DATA
  6
CONTINUOUS
 62
     7
 10
-472.86547621521822
 20
-908.97552936114528
 30
0.0
 11
-519.53452378477971
 21
-908.97552943885455
 31
0.0
  0
LINE
  5
1C5
  8
DATA
  6
CONTINUOUS
 62
     7
 10
-554.59999999437514
 20
-930.90293476455042
 30
0.0
 11
-531.26547621521956
 21
-908.97552936114528
 31
0.0
  0
LINE
  5
1C6
  8
DATA
  6
CONTINUOUS
 62
     7
 10
-577.93452378477923
 20
-908.97552943885455
 30
0.0
 11
-554.59999999437514
 21
-930.90293476455042
 31
0.0
  0
LINE
  5
1C7
  8
DATA
  6
CONTINUOUS
 62
     7
 10
-554.59999999437514
 20
-887.04812409559145
 30
0.0
 11
-577.93452378477923
 21
-908.97552943885455
 31
0.0
  0
LINE
  5
1C8
  8
DATA
  6
CONTINUOUS
 62
     7
 10
-531.26547621521956
 20
-908.97552936114528
 30
0.0
 11
-554.59999999437514
 21
-887.04812409559145
 31
0.0
  0
LINE
  5
1C9
  8
DATA
  6
CONTINUOUS
 62
     7
 10
-554.59999999437514
 20
-930.90293476455042
 30
0.0
 11
-554.59999999437514
 21
-887.04812409559145
 31
0.0
  0
LINE
  5
1CA
  8
DATA
  6
CONTINUOUS
 62
     7
 10
-531.26547621521956
 20
-908.97552936114528
 30
0.0
 11
-577.93452378477923
 21
-908.97552943885455
 31
0.0
  0
LINE
  5
1CB
  8
DATA
  6
CONTINUOUS
 62
     7
 10
-525.39999999437521
 20
-903.46375316455078
 30
0.0
 11
-502.06547621521889
 21
-881.53634776114552
 31
0.0
  0
LINE
  5
1CC
  8
DATA
  6
CONTINUOUS
 62
     7
 10
-548.73452378478032
 20
-881.53634783885468
 30
0.0
 11
-525.39999999437521
 21
-903.46375316455078
 31
0.0
  0
LINE
  5
1CD
  8
DATA
  6
CONTINUOUS
 62
     7
 10
-525.39999999437521
 20
-859.6089424955918
 30
0.0
 11
-548.73452378478032
 21
-881.53634783885468
 31
0.0
  0
LINE
  5
1CE
  8
DATA
  6
CONTINUOUS
 62
     7
 10
-502.06547621521889
 20
-881.53634776114552
 30
0.0
 11
-525.39999999437521
 21
-859.6089424955918
 31
0.0
  0
LINE
  5
1CF
  8
DATA
  6
CONTINUOUS
 62
     7
 10
-525.39999999437521
 20
-903.46375316455078
 30
0.0
 11
-525.39999999437521
 21
-859.6089424955918
 31
0.0
  0
LINE
  5
1D0
  8
DATA
  6
CONTINUOUS
 62
     7
 10
-502.06547621521889
 20
-881.53634776114552
 30
0.0
 11
-548.73452378478032
 21
-881.53634783885468
 31
0.0
  0
LINE
  5
1D1
  8
DATA
  6
CONTINUOUS
 62
     7
 10
-554.59999999437514
 20
-876.02457156455046
 30
0.0
 11
-531.26547621521956
 21
-854.0971661611452
 31
0.0
  0
LINE
  5
1D2
  8
DATA
  6
CONTINUOUS
 62
     7
 10
-577.93452378477923
 20
-854.09716623885458
 30
0.0
 11
-554.59999999437514
 21
-876.02457156455046
 31
0.0
  0
LINE
  5
1D3
  8
DATA
  6
CONTINUOUS
 62
     7
 10
-554.59999999437514
 20
-832.16976089559148
 30
0.0
 11
-577.93452378477923
 21
-854.09716623885458
 31
0.0
  0
LINE
  5
1D4
  8
DATA
  6
CONTINUOUS
 62
     7
 10
-531.26547621521956
 20
-854.0971661611452
 30
0.0
 11
-554.59999999437514
 21
-832.16976089559148
 31
0.0
  0
LINE
  5
1D5
  8
DATA
  6
CONTINUOUS
 62
     7
 10
-554.59999999437514
 20
-876.02457156455046
 30
0.0
 11
-554.59999999437514
 21
-832.16976089559148
 31
0.0
  0
LINE
  5
1D6
  8
DATA
  6
CONTINUOUS
 62
     7
 10
-531.26547621521956
 20
-854.0971661611452
 30
0.0
 11
-577.93452378477923
 21
-854.09716623885458
 31
0.0
  0
LINE
  5
1D7
  8
DATA
  6
CONTINUOUS
 62
     7
 10
-525.39999999437521
 20
-848.58538996455025
 30
0.0
 11
-502.06547621521889
 21
-826.65798456114544
 31
0.0
  0
LINE
  5
1D8
  8
DATA
  6
CONTINUOUS
 62
     7
 10
-548.73452378478032
 20
-826.65798463885449
 30
0.0
 11
-525.39999999437521
 21
-848.58538996455025
 31
0.0
  0
LINE
  5
1D9
  8
DATA
  6
CONTINUOUS
 62
     7
 10
-525.39999999437521
 20
-804.73057929559116
 30
0.0
 11
-548.73452378478032
 21
-826.65798463885449
 31
0.0
  0
LINE
  5
1DA
  8
DATA
  6
CONTINUOUS
 62
     7
 10
-502.06547621521889
 20
-826.65798456114544
 30
0.0
 11
-525.39999999437521
 21
-804.73057929559116
 31
0.0
  0
LINE
  5
1DB
  8
DATA
  6
CONTINUOUS
 62
     7
 10
-525.39999999437521
 20
-848.58538996455025
 30
0.0
 11
-525.39999999437521
 21
-804.73057929559116
 31
0.0
  0
LINE
  5
1DC
  8
DATA
  6
CONTINUOUS
 62
     7
 10
-502.06547621521889
 20
-826.65798456114544
 30
0.0
 11
-548.73452378478032
 21
-826.65798463885449
 31
0.0
  0
LINE
  5
1DD
  8
DATA
  6
CONTINUOUS
 62
     7
 10
-496.19999999978342
 20
-876.02457156455046
 30
0.0
 11
-472.8654762206279
 21
-854.0971661611452
 31
0.0
  0
LINE
  5
1DE
  8
DATA
  6
CONTINUOUS
 62
     7
 10
-519.53452379018825
 20
-854.09716623885458
 30
0.0
 11
-496.19999999978342
 21
-876.02457156455046
 31
0.0
  0
LINE
  5
1DF
  8
DATA
  6
CONTINUOUS
 62
     7
 10
-496.19999999978342
 20
-832.16976089559148
 30
0.0
 11
-519.53452379018825
 21
-854.09716623885458
 31
0.0
  0
LINE
  5
1E0
  8
DATA
  6
CONTINUOUS
 62
     7
 10
-472.8654762206279
 20
-854.0971661611452
 30
0.0
 11
-496.19999999978342
 21
-832.16976089559148
 31
0.0
  0
LINE
  5
1E1
  8
DATA
  6
CONTINUOUS
 62
     7
 10
-496.19999999978342
 20
-876.02457156455046
 30
0.0
 11
-496.19999999978342
 21
-832.16976089559148
 31
0.0
  0
LINE
  5
1E2
  8
DATA
  6
CONTINUOUS
 62
     7
 10
-472.8654762206279
 20
-854.0971661611452
 30
0.0
 11
-519.53452379018825
 21
-854.09716623885458
 31
0.0
  0
LINE
  5
1E3
  8
DATA
  6
CONTINUOUS
 62
     7
 10
-496.19999999437448
 20
-930.90293476455042
 30
0.0
 11
-472.86547621521822
 21
-908.97552936114528
 31
0.0
  0
ARC
  5
1E4
  8
DATA
  6
CONTINUOUS
 62
     7
 10
-371.9054812463383
 20
-502.08951167671478
 30
0.0
 40
462.45930100779623
 50
230.9688778272324
 51
242.9774033737867
  0
ARC
  5
1E5
  8
DATA
  6
CONTINUOUS
 62
     7
 10
-371.9054812463383
 20
-1209.675673123284
 30
0.0
 40
462.45930100779651
 50
117.0225966262133
 51
129.03112217276811
  0
LINE
  5
1E6
  8
DATA
  6
CONTINUOUS
 62
     7
 10
-581.39999999999964
 20
-911.49311339999986
 30
0.0
 11
-581.39999999999964
 21
-800.27207139999962
 31
0.0
  0
ARC
  5
1E7
  8
DATA
  6
CONTINUOUS
 62
     7
 10
-586.39999999999964
 20
-911.49311339999986
 30
0.0
 40
5.0
 50
270.0
 51
0.0
  0
ARC
  5
1E8
  8
DATA
  6
CONTINUOUS
 62
     7
 10
-586.39999999999964
 20
-800.27207139999962
 30
0.0
 40
5.0
 50
0.0
 51
90.0
  0
TEXT
  5
1E9
  8
DATA
 62
     7
 10
844.73130059514176
 20
-533.6669921875
 30
0.0
 40
30.99918365478516
  1
コネクターパネル拡大図
 41
0.7
 11
844.73130059514176
 21
-502.6678085327149
 31
0.0
 73
     3
  0
LINE
  5
1EA
  8
DATA
  6
CONTINUOUS
 62
     7
 10
787.5
 20
-550.0
 30
0.0
 11
1312.4999999999991
 21
-550.0
 31
0.0
  0
LINE
  5
1EB
  8
DATA
  6
CONTINUOUS
 62
     7
 10
495.39999999999969
 20
-1008.782394647244
 30
0.0
 11
495.39999999999969
 21
-965.78239464724516
 31
0.0
  0
LINE
  5
1EC
  8
DATA
  6
CONTINUOUS
 62
     7
 10
378.59999999999951
 20
-1008.782394647244
 30
0.0
 11
378.59999999999951
 21
-965.78239464724516
 31
0.0
  0
LINE
  5
1ED
  8
DATA
  6
CONTINUOUS
 62
     7
 10
320.19999999999982
 20
-1008.782394647244
 30
0.0
 11
320.19999999999982
 21
-965.78239464724516
 31
0.0
  0
LINE
  5
1EE
  8
DATA
  6
CONTINUOUS
 62
     7
 10
437.0
 20
-1008.782394647244
 30
0.0
 11
437.0
 21
-965.78239464724516
 31
0.0
  0
LINE
  5
1EF
  8
DATA
  6
CONTINUOUS
 62
     7
 10
261.80000000000013
 20
-1008.782394647244
 30
0.0
 11
261.80000000000013
 21
-965.78239464724516
 31
0.0
  0
LINE
  5
1F0
  8
DATA
  6
CONTINUOUS
 62
     7
 10
564.59999999999945
 20
-752.99543647264682
 30
0.0
 11
564.59999999999945
 21
-1144.4421811968789
 31
0.0
  0
LINE
  5
1F1
  8
DATA
  6
CONTINUOUS
 62
     7
 10
192.60000000000039
 20
-1144.4421811968789
 30
0.0
 11
192.60000000000039
 21
-752.99543647264682
 31
0.0
  0
LINE
  5
1F2
  8
DATA
  6
CONTINUOUS
 62
     7
 10
575.52400597432018
 20
-1150.441883444304
 30
0.0
 11
575.52400597432018
 21
-746.99573422522155
 31
0.0
  0
LINE
  5
1F3
  8
DATA
  6
CONTINUOUS
 62
     7
 10
150.0
 20
-1170.0
 30
0.0
 11
150.0
 21
-776.99573422522155
 31
0.0
  0
LINE
  5
1F4
  8
DATA
  6
CONTINUOUS
 62
     7
 10
378.59999999999951
 20
-1008.782394647244
 30
0.0
 11
400.09999999999951
 21
-987.2823946472447
 31
0.0
  0
LINE
  5
1F5
  8
DATA
  6
CONTINUOUS
 62
     7
 10
357.10000000000042
 20
-987.2823946472447
 30
0.0
 11
378.59999999999951
 21
-1008.782394647244
 31
0.0
  0
LINE
  5
1F6
  8
DATA
  6
CONTINUOUS
 62
     7
 10
320.19999999999982
 20
-1008.782394647244
 30
0.0
 11
341.69999999999982
 21
-987.2823946472447
 31
0.0
  0
LINE
  5
1F7
  8
DATA
  6
CONTINUOUS
 62
     7
 10
298.70000000000078
 20
-987.2823946472447
 30
0.0
 11
320.19999999999982
 21
-1008.782394647244
 31
0.0
  0
LINE
  5
1F8
  8
DATA
  6
CONTINUOUS
 62
     7
 10
415.5
 20
-987.2823946472447
 30
0.0
 11
437.0
 21
-1008.782394647244
 31
0.0
  0
LINE
  5
1F9
  8
DATA
  6
CONTINUOUS
 62
     7
 10
437.0
 20
-1008.782394647244
 30
0.0
 11
458.49999999999909
 21
-987.2823946472447
 31
0.0
  0
LINE
  5
1FA
  8
DATA
  6
CONTINUOUS
 62
     7
 10
261.80000000000013
 20
-1008.782394647244
 30
0.0
 11
283.30000000000018
 21
-987.2823946472447
 31
0.0
  0
LINE
  5
1FB
  8
DATA
  6
CONTINUOUS
 62
     7
 10
240.30000000000109
 20
-987.2823946472447
 30
0.0
 11
261.80000000000013
 21
-1008.782394647244
 31
0.0
  0
LINE
  5
1FC
  8
DATA
  6
CONTINUOUS
 62
     7
 10
495.39999999999969
 20
-1008.782394647244
 30
0.0
 11
516.89999999999873
 21
-987.2823946472447
 31
0.0
  0
LINE
  5
1FD
  8
DATA
  6
CONTINUOUS
 62
     7
 10
473.89999999999969
 20
-987.2823946472447
 30
0.0
 11
495.39999999999969
 21
-1008.782394647244
 31
0.0
  0
LINE
  5
1FE
  8
DATA
  6
CONTINUOUS
 62
     7
 10
181.6759940256816
 20
-746.99573422522155
 30
0.0
 11
181.6759940256816
 21
-1150.441883444304
 31
0.0
  0
LINE
  5
1FF
  8
DATA
  6
CONTINUOUS
 62
     7
 10
607.19999999999982
 20
-1170.0
 30
0.0
 11
607.19999999999982
 21
-776.99573422522155
 31
0.0
  0
LINE
  5
200
  8
DATA
  6
CONTINUOUS
 62
     7
 10
444.70000000000078
 20
-1016.482394647244
 30
0.0
 11
487.69999999999982
 21
-1016.482394647244
 31
0.0
  0
LINE
  5
201
  8
DATA
  6
CONTINUOUS
 62
     7
 10
444.70000000000078
 20
-1074.8823946472439
 30
0.0
 11
487.69999999999982
 21
-1074.8823946472439
 31
0.0
  0
LINE
  5
202
  8
DATA
  6
CONTINUOUS
 62
     7
 10
180.0
 20
-1200.0
 30
0.0
 11
577.19999999999982
 21
-1200.0
 31
0.0
  0
LINE
  5
203
  8
DATA
  6
CONTINUOUS
 62
     7
 10
180.0
 20
-1150.441883444304
 30
0.0
 11
577.19999999999982
 21
-1150.441883444304
 31
0.0
  0
LINE
  5
204
  8
DATA
  6
CONTINUOUS
 62
     7
 10
487.69999999999982
 20
-1016.482394647244
 30
0.0
 11
466.19999999999987
 21
-994.9823946472452
 31
0.0
  0
LINE
  5
205
  8
DATA
  6
CONTINUOUS
 62
     7
 10
466.19999999999987
 20
-1037.9823946472441
 30
0.0
 11
487.69999999999982
 21
-1016.482394647244
 31
0.0
  0
LINE
  5
206
  8
DATA
  6
CONTINUOUS
 62
     7
 10
487.69999999999982
 20
-1074.8823946472439
 30
0.0
 11
466.19999999999987
 21
-1053.3823946472439
 31
0.0
  0
LINE
  5
207
  8
DATA
  6
CONTINUOUS
 62
     7
 10
466.19999999999987
 20
-1096.3823946472439
 30
0.0
 11
487.69999999999982
 21
-1074.8823946472439
 31
0.0
  0
LINE
  5
208
  8
DATA
  6
CONTINUOUS
 62
     7
 10
466.19999999999987
 20
-994.9823946472452
 30
0.0
 11
444.70000000000078
 21
-1016.482394647244
 31
0.0
  0
LINE
  5
209
  8
DATA
  6
CONTINUOUS
 62
     7
 10
444.70000000000078
 20
-1016.482394647244
 30
0.0
 11
466.19999999999987
 21
-1037.9823946472441
 31
0.0
  0
LINE
  5
20A
  8
DATA
  6
CONTINUOUS
 62
     7
 10
466.19999999999987
 20
-1053.3823946472439
 30
0.0
 11
444.70000000000078
 21
-1074.8823946472439
 31
0.0
  0
LINE
  5
20B
  8
DATA
  6
CONTINUOUS
 62
     7
 10
444.70000000000078
 20
-1074.8823946472439
 30
0.0
 11
466.19999999999987
 21
-1096.3823946472439
 31
0.0
  0
ARC
  5
20C
  8
DATA
  6
CONTINUOUS
 62
     7
 10
437.36268358150107
 20
-1168.999999999998
 30
0.0
 40
6.9999999999990896
 50
0.0
 51
180.00000000000369
  0
LINE
  5
20D
  8
DATA
  6
CONTINUOUS
 62
     7
 10
444.3626835815021
 20
-1168.999999999998
 30
0.0
 11
444.3626835815021
 21
-1192.0
 31
0.0
  0
LINE
  5
20E
  8
DATA
  6
CONTINUOUS
 62
     7
 10
430.36268358150301
 20
-1192.0
 30
0.0
 11
430.36268358150301
 21
-1168.999999999998
 31
0.0
  0
ARC
  5
20F
  8
DATA
  6
CONTINUOUS
 62
     7
 10
437.3626835815021
 20
-1176.999999999998
 30
0.0
 40
6.9999999999990896
 50
0.0
 51
180.0
  0
LINE
  5
210
  8
DATA
  6
CONTINUOUS
 62
     7
 10
437.3626835815021
 20
-1179.5
 30
0.0
 11
437.3626835815021
 21
-1174.5
 31
0.0
  0
LINE
  5
211
  8
DATA
  6
CONTINUOUS
 62
     7
 10
434.86268358150301
 20
-1177.0
 30
0.0
 11
439.8626835815021
 21
-1177.0
 31
0.0
  0
CIRCLE
  5
212
  8
DATA
  6
CONTINUOUS
 62
     7
 10
437.3626835815021
 20
-1177.0
 30
0.0
 40
4.0
  0
LINE
  5
213
  8
DATA
  6
CONTINUOUS
 62
     7
 10
430.36268358150301
 20
-1192.0
 30
0.0
 11
444.3626835815021
 21
-1192.0
 31
0.0
  0
LINE
  5
214
  8
DATA
  6
CONTINUOUS
 62
     7
 10
433.10000000000031
 20
-1136.1512796373499
 30
0.0
 11
433.1000000000011
 21
-1047.6512796373499
 31
0.0
  0
LINE
  5
215
  8
DATA
  6
CONTINUOUS
 62
     7
 10
168.21647186359041
 20
-1125.920603133241
 30
0.0
 11
168.21647186359041
 21
-1120.920603133241
 31
0.0
  0
LINE
  5
216
  8
DATA
  6
CONTINUOUS
 62
     7
 10
165.71647186359129
 20
-1123.420603133241
 30
0.0
 11
170.71647186359041
 21
-1123.420603133241
 31
0.0
  0
CIRCLE
  5
217
  8
DATA
  6
CONTINUOUS
 62
     7
 10
168.21647186359041
 20
-1123.420603133241
 30
0.0
 40
4.0
  0
LINE
  5
218
  8
DATA
  6
CONTINUOUS
 62
     7
 10
170.13468828091661
 20
-1015.506720190897
 30
0.0
 11
170.13468828091661
 21
-1010.506720190897
 31
0.0
  0
LINE
  5
219
  8
DATA
  6
CONTINUOUS
 62
     7
 10
167.63468828091661
 20
-1013.006720190896
 30
0.0
 11
172.63468828091661
 21
-1013.006720190896
 31
0.0
  0
CIRCLE
  5
21A
  8
DATA
  6
CONTINUOUS
 62
     7
 10
170.13468828091749
 20
-1013.006720190896
 30
0.0
 40
4.0
  0
ARC
  5
21B
  8
DATA
  6
CONTINUOUS
 62
     7
 10
319.8626835815021
 20
-1168.999999999998
 30
0.0
 40
6.9999999999990896
 50
0.0
 51
180.00000000000369
  0
LINE
  5
21C
  8
DATA
  6
CONTINUOUS
 62
     7
 10
326.86268358150397
 20
-1168.999999999998
 30
0.0
 11
326.86268358150397
 21
-1192.0
 31
0.0
  0
LINE
  5
21D
  8
DATA
  6
CONTINUOUS
 62
     7
 10
312.86268358150397
 20
-1192.0
 30
0.0
 11
312.86268358150483
 21
-1168.999999999998
 31
0.0
  0
LINE
  5
21E
  8
DATA
  6
CONTINUOUS
 62
     7
 10
209.3626835815021
 20
-1168.999999999998
 30
0.0
 11
209.3626835815021
 21
-1192.0
 31
0.0
  0
LINE
  5
21F
  8
DATA
  6
CONTINUOUS
 62
     7
 10
195.36268358150201
 20
-1192.0
 30
0.0
 11
195.36268358150289
 21
-1168.999999999998
 31
0.0
  0
ARC
  5
220
  8
DATA
  6
CONTINUOUS
 62
     7
 10
202.3626835815021
 20
-1168.999999999998
 30
0.0
 40
6.9999999999990896
 50
0.0
 51
180.00000000000369
  0
ARC
  5
221
  8
DATA
  6
CONTINUOUS
 62
     7
 10
319.86268358150397
 20
-1176.999999999998
 30
0.0
 40
6.999999999998181
 50
0.0
 51
180.0
  0
LINE
  5
222
  8
DATA
  6
CONTINUOUS
 62
     7
 10
319.8626835815021
 20
-1179.5
 30
0.0
 11
319.8626835815021
 21
-1174.5
 31
0.0
  0
LINE
  5
223
  8
DATA
  6
CONTINUOUS
 62
     7
 10
317.36268358150301
 20
-1177.0
 30
0.0
 11
322.36268358150301
 21
-1177.0
 31
0.0
  0
CIRCLE
  5
224
  8
DATA
  6
CONTINUOUS
 62
     7
 10
319.86268358150397
 20
-1177.0
 30
0.0
 40
4.0
  0
ARC
  5
225
  8
DATA
  6
CONTINUOUS
 62
     7
 10
202.36268358150301
 20
-1176.999999999998
 30
0.0
 40
6.9999999999990896
 50
0.0
 51
180.0
  0
LINE
  5
226
  8
DATA
  6
CONTINUOUS
 62
     7
 10
202.3626835815021
 20
-1179.5
 30
0.0
 11
202.3626835815021
 21
-1174.5
 31
0.0
  0
LINE
  5
227
  8
DATA
  6
CONTINUOUS
 62
     7
 10
199.86268358150201
 20
-1177.0
 30
0.0
 11
204.8626835815021
 21
-1177.0
 31
0.0
  0
CIRCLE
  5
228
  8
DATA
  6
CONTINUOUS
 62
     7
 10
202.36268358150301
 20
-1177.0
 30
0.0
 40
4.0
  0
LINE
  5
229
  8
DATA
  6
CONTINUOUS
 62
     7
 10
312.86268358150301
 20
-1192.0
 30
0.0
 11
326.86268358150301
 21
-1192.0
 31
0.0
  0
LINE
  5
22A
  8
DATA
  6
CONTINUOUS
 62
     7
 10
195.36268358150201
 20
-1192.0
 30
0.0
 11
209.3626835815021
 21
-1192.0
 31
0.0
  0
CIRCLE
  5
22B
  8
DATA
  6
CONTINUOUS
 62
     7
 10
168.21647186359041
 20
-1123.420603133241
 30
0.0
 40
6.0
  0
CIRCLE
  5
22C
  8
DATA
  6
CONTINUOUS
 62
     7
 10
170.13468828091749
 20
-1013.006720190896
 30
0.0
 40
6.0
  0
LINE
  5
22D
  8
DATA
  6
CONTINUOUS
 62
     7
 10
327.90000000000049
 20
-1016.482394647244
 30
0.0
 11
370.90000000000049
 21
-1016.482394647244
 31
0.0
  0
LINE
  5
22E
  8
DATA
  6
CONTINUOUS
 62
     7
 10
370.90000000000049
 20
-1016.482394647244
 30
0.0
 11
349.40000000000049
 21
-994.9823946472452
 31
0.0
  0
LINE
  5
22F
  8
DATA
  6
CONTINUOUS
 62
     7
 10
349.40000000000049
 20
-1037.9823946472441
 30
0.0
 11
349.40000000000049
 21
-994.9823946472452
 31
0.0
  0
LINE
  5
230
  8
DATA
  6
CONTINUOUS
 62
     7
 10
349.40000000000049
 20
-994.9823946472452
 30
0.0
 11
327.90000000000049
 21
-1016.482394647244
 31
0.0
  0
LINE
  5
231
  8
DATA
  6
CONTINUOUS
 62
     7
 10
349.40000000000049
 20
-1037.9823946472441
 30
0.0
 11
370.90000000000049
 21
-1016.482394647244
 31
0.0
  0
LINE
  5
232
  8
DATA
  6
CONTINUOUS
 62
     7
 10
327.90000000000049
 20
-1016.482394647244
 30
0.0
 11
349.40000000000049
 21
-1037.9823946472441
 31
0.0
  0
LINE
  5
233
  8
DATA
  6
CONTINUOUS
 62
     7
 10
407.79999999999922
 20
-1037.9823946472441
 30
0.0
 11
407.79999999999922
 21
-994.9823946472452
 31
0.0
  0
LINE
  5
234
  8
DATA
  6
CONTINUOUS
 62
     7
 10
407.79999999999922
 20
-994.9823946472452
 30
0.0
 11
386.30000000000013
 21
-1016.482394647244
 31
0.0
  0
LINE
  5
235
  8
DATA
  6
CONTINUOUS
 62
     7
 10
386.30000000000013
 20
-1016.482394647244
 30
0.0
 11
407.79999999999922
 21
-1037.9823946472441
 31
0.0
  0
LINE
  5
236
  8
DATA
  6
CONTINUOUS
 62
     7
 10
232.6000000000013
 20
-1037.9823946472441
 30
0.0
 11
232.6000000000013
 21
-994.9823946472452
 31
0.0
  0
LINE
  5
237
  8
DATA
  6
CONTINUOUS
 62
     7
 10
232.6000000000013
 20
-994.9823946472452
 30
0.0
 11
211.1000000000013
 21
-1016.482394647244
 31
0.0
  0
LINE
  5
238
  8
DATA
  6
CONTINUOUS
 62
     7
 10
254.10000000000039
 20
-1016.482394647244
 30
0.0
 11
232.6000000000013
 21
-994.9823946472452
 31
0.0
  0
LINE
  5
239
  8
DATA
  6
CONTINUOUS
 62
     7
 10
269.5
 20
-1016.482394647244
 30
0.0
 11
312.49999999999898
 21
-1016.482394647244
 31
0.0
  0
LINE
  5
23A
  8
DATA
  6
CONTINUOUS
 62
     7
 10
211.1000000000013
 20
-1016.482394647244
 30
0.0
 11
254.10000000000039
 21
-1016.482394647244
 31
0.0
  0
LINE
  5
23B
  8
DATA
  6
CONTINUOUS
 62
     7
 10
211.1000000000013
 20
-1016.482394647244
 30
0.0
 11
232.6000000000013
 21
-1037.9823946472441
 31
0.0
  0
LINE
  5
23C
  8
DATA
  6
CONTINUOUS
 62
     7
 10
232.6000000000013
 20
-1037.9823946472441
 30
0.0
 11
254.10000000000039
 21
-1016.482394647244
 31
0.0
  0
LINE
  5
23D
  8
DATA
  6
CONTINUOUS
 62
     7
 10
312.49999999999898
 20
-1016.482394647244
 30
0.0
 11
291.0
 21
-994.9823946472452
 31
0.0
  0
LINE
  5
23E
  8
DATA
  6
CONTINUOUS
 62
     7
 10
291.0
 20
-1037.9823946472441
 30
0.0
 11
291.0
 21
-994.9823946472452
 31
0.0
  0
LINE
  5
23F
  8
DATA
  6
CONTINUOUS
 62
     7
 10
291.0
 20
-994.9823946472452
 30
0.0
 11
269.5
 21
-1016.482394647244
 31
0.0
  0
LINE
  5
240
  8
DATA
  6
CONTINUOUS
 62
     7
 10
291.0
 20
-1037.9823946472441
 30
0.0
 11
312.49999999999898
 21
-1016.482394647244
 31
0.0
  0
LINE
  5
241
  8
DATA
  6
CONTINUOUS
 62
     7
 10
269.5
 20
-1016.482394647244
 30
0.0
 11
291.0
 21
-1037.9823946472441
 31
0.0
  0
LINE
  5
242
  8
DATA
  6
CONTINUOUS
 62
     7
 10
232.6000000000013
 20
-1096.3823946472439
 30
0.0
 11
232.6000000000013
 21
-1053.3823946472439
 31
0.0
  0
LINE
  5
243
  8
DATA
  6
CONTINUOUS
 62
     7
 10
232.6000000000013
 20
-1053.3823946472439
 30
0.0
 11
211.1000000000013
 21
-1074.8823946472439
 31
0.0
  0
LINE
  5
244
  8
DATA
  6
CONTINUOUS
 62
     7
 10
254.10000000000039
 20
-1074.8823946472439
 30
0.0
 11
232.6000000000013
 21
-1053.3823946472439
 31
0.0
  0
LINE
  5
245
  8
DATA
  6
CONTINUOUS
 62
     7
 10
269.5
 20
-1074.8823946472439
 30
0.0
 11
312.49999999999898
 21
-1074.8823946472439
 31
0.0
  0
LINE
  5
246
  8
DATA
  6
CONTINUOUS
 62
     7
 10
211.1000000000013
 20
-1074.8823946472439
 30
0.0
 11
254.10000000000039
 21
-1074.8823946472439
 31
0.0
  0
LINE
  5
247
  8
DATA
  6
CONTINUOUS
 62
     7
 10
211.1000000000013
 20
-1074.8823946472439
 30
0.0
 11
232.6000000000013
 21
-1096.3823946472439
 31
0.0
  0
LINE
  5
248
  8
DATA
  6
CONTINUOUS
 62
     7
 10
232.6000000000013
 20
-1096.3823946472439
 30
0.0
 11
254.10000000000039
 21
-1074.8823946472439
 31
0.0
  0
LINE
  5
249
  8
DATA
  6
CONTINUOUS
 62
     7
 10
240.30000000000109
 20
-1045.6823946472441
 30
0.0
 11
283.30000000000018
 21
-1045.6823946472441
 31
0.0
  0
LINE
  5
24A
  8
DATA
  6
CONTINUOUS
 62
     7
 10
283.30000000000018
 20
-1045.6823946472441
 30
0.0
 11
261.80000000000013
 21
-1024.182394647245
 31
0.0
  0
LINE
  5
24B
  8
DATA
  6
CONTINUOUS
 62
     7
 10
261.80000000000013
 20
-1067.1823946472441
 30
0.0
 11
261.80000000000013
 21
-1024.182394647245
 31
0.0
  0
LINE
  5
24C
  8
DATA
  6
CONTINUOUS
 62
     7
 10
261.80000000000013
 20
-1024.182394647245
 30
0.0
 11
240.30000000000109
 21
-1045.6823946472441
 31
0.0
  0
LINE
  5
24D
  8
DATA
  6
CONTINUOUS
 62
     7
 10
261.80000000000013
 20
-1067.1823946472441
 30
0.0
 11
283.30000000000018
 21
-1045.6823946472441
 31
0.0
  0
LINE
  5
24E
  8
DATA
  6
CONTINUOUS
 62
     7
 10
240.30000000000109
 20
-1045.6823946472441
 30
0.0
 11
261.80000000000013
 21
-1067.1823946472441
 31
0.0
  0
LINE
  5
24F
  8
DATA
  6
CONTINUOUS
 62
     7
 10
312.49999999999898
 20
-1074.8823946472439
 30
0.0
 11
291.0
 21
-1053.3823946472439
 31
0.0
  0
LINE
  5
250
  8
DATA
  6
CONTINUOUS
 62
     7
 10
291.0
 20
-1096.3823946472439
 30
0.0
 11
291.0
 21
-1053.3823946472439
 31
0.0
  0
LINE
  5
251
  8
DATA
  6
CONTINUOUS
 62
     7
 10
291.0
 20
-1053.3823946472439
 30
0.0
 11
269.5
 21
-1074.8823946472439
 31
0.0
  0
LINE
  5
252
  8
DATA
  6
CONTINUOUS
 62
     7
 10
291.0
 20
-1096.3823946472439
 30
0.0
 11
312.49999999999898
 21
-1074.8823946472439
 31
0.0
  0
LINE
  5
253
  8
DATA
  6
CONTINUOUS
 62
     7
 10
269.5
 20
-1074.8823946472439
 30
0.0
 11
291.0
 21
-1096.3823946472439
 31
0.0
  0
LINE
  5
254
  8
DATA
  6
CONTINUOUS
 62
     7
 10
324.10000000000042
 20
-1047.6512796373499
 30
0.0
 11
324.10000000000127
 21
-1136.1512796373499
 31
0.0
  0
ARC
  5
255
  8
DATA
  6
CONTINUOUS
 62
     7
 10
198.60000000000039
 20
-1144.4421811968789
 30
0.0
 40
5.9999999999994786
 50
180.68318783238061
 51
269.42919001210578
  0
ARC
  5
256
  8
DATA
  6
CONTINUOUS
 62
     7
 10
180.0
 20
-1120.441883444304
 30
0.0
 40
30.0
 50
180.0
 51
270.0
  0
ARC
  5
257
  8
DATA
  6
CONTINUOUS
 62
     7
 10
180.0
 20
-1170.0
 30
0.0
 40
30.0
 50
180.0
 51
270.0
  0
LINE
  5
258
  8
DATA
  6
CONTINUOUS
 62
     7
 10
386.30000000000013
 20
-1016.482394647244
 30
0.0
 11
429.29999999999922
 21
-1016.482394647244
 31
0.0
  0
LINE
  5
259
  8
DATA
  6
CONTINUOUS
 62
     7
 10
429.29999999999922
 20
-1016.482394647244
 30
0.0
 11
407.79999999999922
 21
-994.9823946472452
 31
0.0
  0
LINE
  5
25A
  8
DATA
  6
CONTINUOUS
 62
     7
 10
407.79999999999922
 20
-1037.9823946472441
 30
0.0
 11
429.29999999999922
 21
-1016.482394647244
 31
0.0
  0
LINE
  5
25B
  8
DATA
  6
CONTINUOUS
 62
     7
 10
324.10000000000127
 20
-1136.1512796373499
 30
0.0
 11
433.1000000000011
 21
-1136.1512796373499
 31
0.0
  0
LINE
  5
25C
  8
DATA
  6
CONTINUOUS
 62
     7
 10
324.10000000000127
 20
-1047.651279637349
 30
0.0
 11
433.10000000000031
 21
-1047.6512796373499
 31
0.0
  0
LINE
  5
25D
  8
DATA
  6
CONTINUOUS
 62
     7
 10
466.19999999999987
 20
-1037.9823946472441
 30
0.0
 11
466.19999999999987
 21
-994.9823946472452
 31
0.0
  0
LINE
  5
25E
  8
DATA
  6
CONTINUOUS
 62
     7
 10
466.19999999999987
 20
-1096.3823946472439
 30
0.0
 11
466.19999999999987
 21
-1053.3823946472439
 31
0.0
  0
LINE
  5
25F
  8
DATA
  6
CONTINUOUS
 62
     7
 10
587.06531171908398
 20
-1015.506720190897
 30
0.0
 11
587.06531171908398
 21
-1010.506720190897
 31
0.0
  0
LINE
  5
260
  8
DATA
  6
CONTINUOUS
 62
     7
 10
584.5653117190833
 20
-1013.006720190896
 30
0.0
 11
589.56531171908409
 21
-1013.006720190896
 31
0.0
  0
CIRCLE
  5
261
  8
DATA
  6
CONTINUOUS
 62
     7
 10
587.06531171908398
 20
-1013.006720190896
 30
0.0
 40
4.0
  0
LINE
  5
262
  8
DATA
  6
CONTINUOUS
 62
     7
 10
588.9835281364094
 20
-1125.920603133241
 30
0.0
 11
588.9835281364094
 21
-1120.920603133241
 31
0.0
  0
LINE
  5
263
  8
DATA
  6
CONTINUOUS
 62
     7
 10
586.4835281364102
 20
-1123.420603133241
 30
0.0
 11
591.48352813640929
 21
-1123.420603133241
 31
0.0
  0
CIRCLE
  5
264
  8
DATA
  6
CONTINUOUS
 62
     7
 10
588.9835281364094
 20
-1123.420603133241
 30
0.0
 40
4.0
  0
ARC
  5
265
  8
DATA
  6
CONTINUOUS
 62
     7
 10
554.8626835815021
 20
-1168.999999999998
 30
0.0
 40
6.9999999999990896
 50
0.0
 51
180.0
  0
LINE
  5
266
  8
DATA
  6
CONTINUOUS
 62
     7
 10
561.86268358150312
 20
-1168.999999999998
 30
0.0
 11
561.86268358150312
 21
-1192.0
 31
0.0
  0
LINE
  5
267
  8
DATA
  6
CONTINUOUS
 62
     7
 10
547.86268358150312
 20
-1192.0
 30
0.0
 11
547.86268358150392
 21
-1168.999999999998
 31
0.0
  0
ARC
  5
268
  8
DATA
  6
CONTINUOUS
 62
     7
 10
554.8626835815021
 20
-1176.999999999998
 30
0.0
 40
6.9999999999990896
 50
0.0
 51
180.0
  0
LINE
  5
269
  8
DATA
  6
CONTINUOUS
 62
     7
 10
554.8626835815021
 20
-1179.4999999999991
 30
0.0
 11
554.8626835815021
 21
-1174.5
 31
0.0
  0
LINE
  5
26A
  8
DATA
  6
CONTINUOUS
 62
     7
 10
552.36268358150312
 20
-1176.9999999999991
 30
0.0
 11
557.36268358150198
 21
-1176.9999999999991
 31
0.0
  0
CIRCLE
  5
26B
  8
DATA
  6
CONTINUOUS
 62
     7
 10
554.8626835815021
 20
-1176.9999999999991
 30
0.0
 40
4.0
  0
LINE
  5
26C
  8
DATA
  6
CONTINUOUS
 62
     7
 10
547.86268358150198
 20
-1192.0
 30
0.0
 11
561.86268358150312
 21
-1192.0
 31
0.0
  0
CIRCLE
  5
26D
  8
DATA
  6
CONTINUOUS
 62
     7
 10
588.9835281364094
 20
-1123.420603133241
 30
0.0
 40
6.0
  0
CIRCLE
  5
26E
  8
DATA
  6
CONTINUOUS
 62
     7
 10
587.06531171908398
 20
-1013.006720190896
 30
0.0
 40
6.0
  0
ARC
  5
26F
  8
DATA
  6
CONTINUOUS
 62
     7
 10
577.19999999999982
 20
-1120.441883444304
 30
0.0
 40
30.0
 50
270.0
 51
0.0
  0
ARC
  5
270
  8
DATA
  6
CONTINUOUS
 62
     7
 10
577.19999999999982
 20
-1170.0
 30
0.0
 40
30.0
 50
270.0
 51
0.0
  0
LINE
  5
271
  8
DATA
  6
CONTINUOUS
 62
     7
 10
503.0999999999994
 20
-1016.482394647244
 30
0.0
 11
546.09999999999854
 21
-1016.482394647244
 31
0.0
  0
LINE
  5
272
  8
DATA
  6
CONTINUOUS
 62
     7
 10
546.09999999999854
 20
-1016.482394647244
 30
0.0
 11
524.59999999999945
 21
-994.9823946472452
 31
0.0
  0
LINE
  5
273
  8
DATA
  6
CONTINUOUS
 62
     7
 10
524.59999999999945
 20
-994.9823946472452
 30
0.0
 11
503.0999999999994
 21
-1016.482394647244
 31
0.0
  0
LINE
  5
274
  8
DATA
  6
CONTINUOUS
 62
     7
 10
524.59999999999945
 20
-1037.9823946472441
 30
0.0
 11
546.09999999999854
 21
-1016.482394647244
 31
0.0
  0
LINE
  5
275
  8
DATA
  6
CONTINUOUS
 62
     7
 10
503.0999999999994
 20
-1016.482394647244
 30
0.0
 11
524.59999999999945
 21
-1037.9823946472441
 31
0.0
  0
LINE
  5
276
  8
DATA
  6
CONTINUOUS
 62
     7
 10
524.59999999999945
 20
-1037.9823946472441
 30
0.0
 11
524.59999999999945
 21
-994.9823946472452
 31
0.0
  0
LINE
  5
277
  8
DATA
  6
CONTINUOUS
 62
     7
 10
503.0999999999994
 20
-1074.8823946472439
 30
0.0
 11
546.09999999999854
 21
-1074.8823946472439
 31
0.0
  0
LINE
  5
278
  8
DATA
  6
CONTINUOUS
 62
     7
 10
546.09999999999854
 20
-1074.8823946472439
 30
0.0
 11
524.59999999999945
 21
-1053.3823946472439
 31
0.0
  0
LINE
  5
279
  8
DATA
  6
CONTINUOUS
 62
     7
 10
524.59999999999945
 20
-1053.3823946472439
 30
0.0
 11
503.0999999999994
 21
-1074.8823946472439
 31
0.0
  0
LINE
  5
27A
  8
DATA
  6
CONTINUOUS
 62
     7
 10
524.59999999999945
 20
-1096.3823946472439
 30
0.0
 11
546.09999999999854
 21
-1074.8823946472439
 31
0.0
  0
LINE
  5
27B
  8
DATA
  6
CONTINUOUS
 62
     7
 10
503.0999999999994
 20
-1074.8823946472439
 30
0.0
 11
524.59999999999945
 21
-1096.3823946472439
 31
0.0
  0
LINE
  5
27C
  8
DATA
  6
CONTINUOUS
 62
     7
 10
524.59999999999945
 20
-1096.3823946472439
 30
0.0
 11
524.59999999999945
 21
-1053.3823946472439
 31
0.0
  0
LINE
  5
27D
  8
DATA
  6
CONTINUOUS
 62
     7
 10
473.89999999999969
 20
-1045.6823946472441
 30
0.0
 11
516.89999999999873
 21
-1045.6823946472441
 31
0.0
  0
LINE
  5
27E
  8
DATA
  6
CONTINUOUS
 62
     7
 10
516.89999999999873
 20
-1045.6823946472441
 30
0.0
 11
495.39999999999969
 21
-1024.182394647245
 31
0.0
  0
LINE
  5
27F
  8
DATA
  6
CONTINUOUS
 62
     7
 10
495.39999999999969
 20
-1067.1823946472441
 30
0.0
 11
495.39999999999969
 21
-1024.182394647245
 31
0.0
  0
LINE
  5
280
  8
DATA
  6
CONTINUOUS
 62
     7
 10
495.39999999999969
 20
-1024.182394647245
 30
0.0
 11
473.89999999999969
 21
-1045.6823946472441
 31
0.0
  0
LINE
  5
281
  8
DATA
  6
CONTINUOUS
 62
     7
 10
495.39999999999969
 20
-1067.1823946472441
 30
0.0
 11
516.89999999999873
 21
-1045.6823946472441
 31
0.0
  0
LINE
  5
282
  8
DATA
  6
CONTINUOUS
 62
     7
 10
473.89999999999969
 20
-1045.6823946472441
 30
0.0
 11
495.39999999999969
 21
-1067.1823946472441
 31
0.0
  0
ARC
  5
283
  8
DATA
  6
CONTINUOUS
 62
     7
 10
558.60000000000025
 20
-1144.4421811968789
 30
0.0
 40
5.9999999999998499
 50
270.57080998789422
 51
359.31681216762371
  0
LINE
  5
284
  8
DATA
  6
CONTINUOUS
 62
     7
 10
444.70000000000078
 20
-899.68239464724491
 30
0.0
 11
487.69999999999982
 21
-899.68239464724491
 31
0.0
  0
LINE
  5
285
  8
DATA
  6
CONTINUOUS
 62
     7
 10
444.70000000000078
 20
-841.2823946472455
 30
0.0
 11
487.69999999999982
 21
-841.2823946472455
 31
0.0
  0
LINE
  5
286
  8
DATA
  6
CONTINUOUS
 62
     7
 10
432.60000000000042
 20
-788.80634838573269
 30
0.0
 11
564.59999999999945
 21
-788.80634838573269
 31
0.0
  0
LINE
  5
287
  8
DATA
  6
CONTINUOUS
 62
     7
 10
444.70000000000078
 20
-958.08239464724522
 30
0.0
 11
487.69999999999982
 21
-958.08239464724522
 31
0.0
  0
TEXT
  5
288
  8
DATA
 62
     7
 10
363.10000000000042
 20
-832.51628217026632
 30
0.0
 40
2.4799346923828121
  1
Polarity:                        EIA
 41
0.7
 11
363.10000000000042
 21
-830.03634747788351
 31
0.0
 73
     3
  0
TEXT
  5
289
  8
DATA
 62
     7
 10
363.10000000000042
 20
-824.58073529526655
 30
0.0
 40
3.30657958984375
  1
Model: 8340A Cinema Surround
 41
0.7
 11
363.10000000000042
 21
-821.27415570542269
 31
0.0
 73
     3
  0
TEXT
  5
28A
  8
DATA
 62
     7
 10
363.10000000000042
 20
-812.70964154526735
 30
0.0
 40
4.959869384765625
  1
JBL Professional
 41
0.7
 11
363.10000000000042
 21
-807.74977216050161
 31
0.0
 73
     3
  0
TEXT
  5
28B
  8
DATA
 62
     7
 10
363.10000000000042
 20
-817.58073529526655
 30
0.0
 40
3.30657958984375
  1
Northridge, California, USA
 41
0.7
 11
363.10000000000042
 21
-814.27415570542269
 31
0.0
 73
     3
  0
TEXT
  5
28C
  8
DATA
 62
     7
 10
363.10000000000042
 20
-828.51628217026644
 30
0.0
 40
2.4799346923828121
  1
Nominal Impedance:        8 Ohms
 41
0.7
 11
363.10000000000042
 21
-826.03634747788362
 31
0.0
 73
     3
  0
LINE
  5
28D
  8
DATA
  6
CONTINUOUS
 62
     7
 10
180.0
 20
-746.99573422522155
 30
0.0
 11
577.20000000000073
 21
-746.99573422522155
 31
0.0
  0
LINE
  5
28E
  8
DATA
  6
CONTINUOUS
 62
     7
 10
487.69999999999982
 20
-899.68239464724491
 30
0.0
 11
466.19999999999987
 21
-878.18239464724547
 31
0.0
  0
LINE
  5
28F
  8
DATA
  6
CONTINUOUS
 62
     7
 10
466.19999999999987
 20
-921.18239464724456
 30
0.0
 11
487.69999999999982
 21
-899.68239464724491
 31
0.0
  0
LINE
  5
290
  8
DATA
  6
CONTINUOUS
 62
     7
 10
487.69999999999982
 20
-841.2823946472455
 30
0.0
 11
466.19999999999987
 21
-819.78239464724595
 31
0.0
  0
LINE
  5
291
  8
DATA
  6
CONTINUOUS
 62
     7
 10
466.19999999999987
 20
-862.78239464724493
 30
0.0
 11
487.69999999999982
 21
-841.2823946472455
 31
0.0
  0
LINE
  5
292
  8
DATA
  6
CONTINUOUS
 62
     7
 10
466.19999999999987
 20
-979.58239464724454
 30
0.0
 11
487.69999999999982
 21
-958.08239464724522
 31
0.0
  0
LINE
  5
293
  8
DATA
  6
CONTINUOUS
 62
     7
 10
487.69999999999982
 20
-958.08239464724522
 30
0.0
 11
466.19999999999987
 21
-936.58239464724534
 31
0.0
  0
LINE
  5
294
  8
DATA
  6
CONTINUOUS
 62
     7
 10
458.49999999999909
 20
-987.2823946472447
 30
0.0
 11
437.0
 21
-965.78239464724516
 31
0.0
  0
LINE
  5
295
  8
DATA
  6
CONTINUOUS
 62
     7
 10
400.09999999999951
 20
-987.2823946472447
 30
0.0
 11
378.59999999999951
 21
-965.78239464724516
 31
0.0
  0
LINE
  5
296
  8
DATA
  6
CONTINUOUS
 62
     7
 10
378.59999999999951
 20
-965.78239464724516
 30
0.0
 11
357.10000000000042
 21
-987.2823946472447
 31
0.0
  0
LINE
  5
297
  8
DATA
  6
CONTINUOUS
 62
     7
 10
320.19999999999982
 20
-965.78239464724516
 30
0.0
 11
298.70000000000078
 21
-987.2823946472447
 31
0.0
  0
LINE
  5
298
  8
DATA
  6
CONTINUOUS
 62
     7
 10
341.69999999999982
 20
-987.2823946472447
 30
0.0
 11
320.19999999999982
 21
-965.78239464724516
 31
0.0
  0
LINE
  5
299
  8
DATA
  6
CONTINUOUS
 62
     7
 10
283.30000000000018
 20
-987.2823946472447
 30
0.0
 11
261.80000000000013
 21
-965.78239464724516
 31
0.0
  0
LINE
  5
29A
  8
DATA
  6
CONTINUOUS
 62
     7
 10
261.80000000000013
 20
-965.78239464724516
 30
0.0
 11
240.30000000000109
 21
-987.2823946472447
 31
0.0
  0
LINE
  5
29B
  8
DATA
  6
CONTINUOUS
 62
     7
 10
437.0
 20
-965.78239464724516
 30
0.0
 11
415.5
 21
-987.2823946472447
 31
0.0
  0
LINE
  5
29C
  8
DATA
  6
CONTINUOUS
 62
     7
 10
357.10000000000042
 20
-987.2823946472447
 30
0.0
 11
400.09999999999951
 21
-987.2823946472447
 31
0.0
  0
LINE
  5
29D
  8
DATA
  6
CONTINUOUS
 62
     7
 10
298.69999999999982
 20
-987.2823946472447
 30
0.0
 11
341.70000000000078
 21
-987.2823946472447
 31
0.0
  0
LINE
  5
29E
  8
DATA
  6
CONTINUOUS
 62
     7
 10
240.30000000000109
 20
-987.2823946472447
 30
0.0
 11
283.30000000000018
 21
-987.2823946472447
 31
0.0
  0
LINE
  5
29F
  8
DATA
  6
CONTINUOUS
 62
     7
 10
415.49999999999909
 20
-987.2823946472447
 30
0.0
 11
458.5000000000008
 21
-987.2823946472447
 31
0.0
  0
LINE
  5
2A0
  8
DATA
  6
CONTINUOUS
 62
     7
 10
466.19999999999987
 20
-878.18239464724547
 30
0.0
 11
444.70000000000078
 21
-899.68239464724491
 31
0.0
  0
LINE
  5
2A1
  8
DATA
  6
CONTINUOUS
 62
     7
 10
444.70000000000078
 20
-899.68239464724491
 30
0.0
 11
466.19999999999987
 21
-921.18239464724456
 31
0.0
  0
LINE
  5
2A2
  8
DATA
  6
CONTINUOUS
 62
     7
 10
466.19999999999987
 20
-819.78239464724595
 30
0.0
 11
444.70000000000078
 21
-841.2823946472455
 31
0.0
  0
LINE
  5
2A3
  8
DATA
  6
CONTINUOUS
 62
     7
 10
444.70000000000078
 20
-841.2823946472455
 30
0.0
 11
466.19999999999987
 21
-862.78239464724493
 31
0.0
  0
LINE
  5
2A4
  8
DATA
  6
CONTINUOUS
 62
     7
 10
444.70000000000078
 20
-958.08239464724522
 30
0.0
 11
466.19999999999987
 21
-979.58239464724454
 31
0.0
  0
LINE
  5
2A5
  8
DATA
  6
CONTINUOUS
 62
     7
 10
466.19999999999987
 20
-936.58239464724534
 30
0.0
 11
444.70000000000078
 21
-958.08239464724522
 31
0.0
  0
CIRCLE
  5
2A6
  8
DATA
  6
CONTINUOUS
 62
     7
 10
437.36268358150107
 20
-750.99573422522155
 30
0.0
 40
4.0
  0
LINE
  5
2A7
  8
DATA
  6
CONTINUOUS
 62
     7
 10
437.36268358150107
 20
-753.49573422522099
 30
0.0
 11
437.36268358150107
 21
-748.49573422522155
 31
0.0
  0
LINE
  5
2A8
  8
DATA
  6
CONTINUOUS
 62
     7
 10
434.8626835815021
 20
-750.99573422522155
 30
0.0
 11
439.8626835815021
 21
-750.99573422522155
 31
0.0
  0
LINE
  5
2A9
  8
DATA
  6
CONTINUOUS
 62
     7
 10
430.36268358150221
 20
-750.99573422520814
 30
0.0
 11
430.36268358150221
 21
-746.99573422522155
 31
0.0
  0
LINE
  5
2AA
  8
DATA
  6
CONTINUOUS
 62
     7
 10
444.3626835815021
 20
-750.99573422520734
 30
0.0
 11
444.3626835815021
 21
-746.99573422522155
 31
0.0
  0
ARC
  5
2AB
  8
DATA
  6
CONTINUOUS
 62
     7
 10
437.36268358150107
 20
-746.8707342252344
 30
0.0
 40
8.1249999999865317
 50
210.5102374060933
 51
329.48976259398108
  0
LINE
  5
2AC
  8
DATA
  6
CONTINUOUS
 62
     7
 10
432.5999999999994
 20
-926.91350965714003
 30
0.0
 11
432.60000000000042
 21
-753.33465487947785
 31
0.0
  0
LINE
  5
2AD
  8
DATA
  6
CONTINUOUS
 62
     7
 10
429.60000000000031
 20
-753.33465487947785
 30
0.0
 11
429.60000000000031
 21
-926.91350965714003
 31
0.0
  0
LINE
  5
2AE
  8
DATA
  6
CONTINUOUS
 62
     7
 10
426.10000000000031
 20
-853.66446986687868
 30
0.0
 11
426.10000000000031
 21
-801.98137572365476
 31
0.0
  0
CIRCLE
  5
2AF
  8
DATA
  6
CONTINUOUS
 62
     7
 10
319.8626835815021
 20
-750.99573422522155
 30
0.0
 40
4.0
  0
LINE
  5
2B0
  8
DATA
  6
CONTINUOUS
 62
     7
 10
319.8626835815021
 20
-753.49573422522099
 30
0.0
 11
319.8626835815021
 21
-748.49573422522155
 31
0.0
  0
LINE
  5
2B1
  8
DATA
  6
CONTINUOUS
 62
     7
 10
317.36268358150301
 20
-750.99573422522155
 30
0.0
 11
322.3626835815021
 21
-750.99573422522155
 31
0.0
  0
LINE
  5
2B2
  8
DATA
  6
CONTINUOUS
 62
     7
 10
202.36268358150119
 20
-753.49573422522099
 30
0.0
 11
202.36268358150119
 21
-748.49573422522155
 31
0.0
  0
LINE
  5
2B3
  8
DATA
  6
CONTINUOUS
 62
     7
 10
199.86268358150119
 20
-750.99573422522155
 30
0.0
 11
204.86268358150119
 21
-750.99573422522155
 31
0.0
  0
CIRCLE
  5
2B4
  8
DATA
  6
CONTINUOUS
 62
     7
 10
202.36268358150119
 20
-750.99573422522155
 30
0.0
 40
4.0
  0
LINE
  5
2B5
  8
DATA
  6
CONTINUOUS
 62
     7
 10
168.21647186359041
 20
-905.09283724855266
 30
0.0
 11
168.21647186359041
 21
-900.09283724855254
 31
0.0
  0
LINE
  5
2B6
  8
DATA
  6
CONTINUOUS
 62
     7
 10
165.71647186359129
 20
-902.59283724855266
 30
0.0
 11
170.71647186359041
 21
-902.59283724855266
 31
0.0
  0
CIRCLE
  5
2B7
  8
DATA
  6
CONTINUOUS
 62
     7
 10
168.21647186359041
 20
-902.59283724855266
 30
0.0
 40
4.0
  0
LINE
  5
2B8
  8
DATA
  6
CONTINUOUS
 62
     7
 10
168.21647186359041
 20
-794.6789543062082
 30
0.0
 11
168.21647186359041
 21
-789.6789543062082
 31
0.0
  0
LINE
  5
2B9
  8
DATA
  6
CONTINUOUS
 62
     7
 10
165.71647186359129
 20
-792.17895430620808
 30
0.0
 11
170.71647186359129
 21
-792.17895430620808
 31
0.0
  0
CIRCLE
  5
2BA
  8
DATA
  6
CONTINUOUS
 62
     7
 10
168.21647186359041
 20
-792.17895430620808
 30
0.0
 40
4.0
  0
LINE
  5
2BB
  8
DATA
  6
CONTINUOUS
 62
     7
 10
312.86268358150301
 20
-750.99573422520814
 30
0.0
 11
312.86268358150301
 21
-746.99573422522155
 31
0.0
  0
LINE
  5
2BC
  8
DATA
  6
CONTINUOUS
 62
     7
 10
326.86268358150301
 20
-750.99573422520734
 30
0.0
 11
326.86268358150301
 21
-746.99573422522155
 31
0.0
  0
ARC
  5
2BD
  8
DATA
  6
CONTINUOUS
 62
     7
 10
319.8626835815021
 20
-746.8707342252344
 30
0.0
 40
8.1249999999865317
 50
210.5102374060933
 51
329.48976259398108
  0
LINE
  5
2BE
  8
DATA
  6
CONTINUOUS
 62
     7
 10
209.3626835815021
 20
-750.99573422520734
 30
0.0
 11
209.3626835815021
 21
-746.99573422522155
 31
0.0
  0
LINE
  5
2BF
  8
DATA
  6
CONTINUOUS
 62
     7
 10
195.36268358150119
 20
-750.99573422520814
 30
0.0
 11
195.36268358150119
 21
-747.94372563308798
 31
0.0
  0
ARC
  5
2C0
  8
DATA
  6
CONTINUOUS
 62
     7
 10
202.36268358150119
 20
-746.8707342252344
 30
0.0
 40
8.1249999999865317
 50
210.5102374060933
 51
329.48976259398108
  0
CIRCLE
  5
2C1
  8
DATA
  6
CONTINUOUS
 62
     7
 10
168.21647186359041
 20
-902.59283724855266
 30
0.0
 40
6.0
  0
CIRCLE
  5
2C2
  8
DATA
  6
CONTINUOUS
 62
     7
 10
168.21647186359041
 20
-792.17895430620808
 30
0.0
 40
6.0
  0
LINE
  5
2C3
  8
DATA
  6
CONTINUOUS
 62
     7
 10
232.6000000000013
 20
-921.18239464724456
 30
0.0
 11
232.6000000000013
 21
-878.18239464724547
 31
0.0
  0
LINE
  5
2C4
  8
DATA
  6
CONTINUOUS
 62
     7
 10
232.6000000000013
 20
-878.18239464724547
 30
0.0
 11
211.1000000000013
 21
-899.68239464724491
 31
0.0
  0
LINE
  5
2C5
  8
DATA
  6
CONTINUOUS
 62
     7
 10
254.10000000000039
 20
-899.68239464724491
 30
0.0
 11
232.6000000000013
 21
-878.18239464724547
 31
0.0
  0
LINE
  5
2C6
  8
DATA
  6
CONTINUOUS
 62
     7
 10
312.49999999999898
 20
-899.68239464724491
 30
0.0
 11
291.0
 21
-878.18239464724547
 31
0.0
  0
LINE
  5
2C7
  8
DATA
  6
CONTINUOUS
 62
     7
 10
291.0
 20
-921.18239464724456
 30
0.0
 11
291.0
 21
-878.18239464724547
 31
0.0
  0
LINE
  5
2C8
  8
DATA
  6
CONTINUOUS
 62
     7
 10
291.0
 20
-878.18239464724547
 30
0.0
 11
269.5
 21
-899.68239464724491
 31
0.0
  0
LINE
  5
2C9
  8
DATA
  6
CONTINUOUS
 62
     7
 10
269.5
 20
-899.68239464724491
 30
0.0
 11
312.49999999999898
 21
-899.68239464724491
 31
0.0
  0
LINE
  5
2CA
  8
DATA
  6
CONTINUOUS
 62
     7
 10
211.1000000000013
 20
-899.68239464724491
 30
0.0
 11
254.10000000000039
 21
-899.68239464724491
 31
0.0
  0
LINE
  5
2CB
  8
DATA
  6
CONTINUOUS
 62
     7
 10
211.1000000000013
 20
-899.68239464724491
 30
0.0
 11
232.6000000000013
 21
-921.18239464724456
 31
0.0
  0
LINE
  5
2CC
  8
DATA
  6
CONTINUOUS
 62
     7
 10
232.6000000000013
 20
-921.18239464724456
 30
0.0
 11
254.10000000000039
 21
-899.68239464724491
 31
0.0
  0
LINE
  5
2CD
  8
DATA
  6
CONTINUOUS
 62
     7
 10
291.0
 20
-921.18239464724456
 30
0.0
 11
312.49999999999898
 21
-899.68239464724491
 31
0.0
  0
LINE
  5
2CE
  8
DATA
  6
CONTINUOUS
 62
     7
 10
269.5
 20
-899.68239464724491
 30
0.0
 11
291.0
 21
-921.18239464724456
 31
0.0
  0
LINE
  5
2CF
  8
DATA
  6
CONTINUOUS
 62
     7
 10
240.30000000000109
 20
-928.88239464724506
 30
0.0
 11
283.30000000000018
 21
-928.88239464724506
 31
0.0
  0
LINE
  5
2D0
  8
DATA
  6
CONTINUOUS
 62
     7
 10
283.30000000000018
 20
-928.88239464724506
 30
0.0
 11
261.80000000000013
 21
-907.38239464724506
 31
0.0
  0
LINE
  5
2D1
  8
DATA
  6
CONTINUOUS
 62
     7
 10
261.80000000000013
 20
-907.38239464724506
 30
0.0
 11
240.30000000000109
 21
-928.88239464724506
 31
0.0
  0
LINE
  5
2D2
  8
DATA
  6
CONTINUOUS
 62
     7
 10
232.6000000000013
 20
-862.78239464724493
 30
0.0
 11
232.6000000000013
 21
-819.78239464724595
 31
0.0
  0
LINE
  5
2D3
  8
DATA
  6
CONTINUOUS
 62
     7
 10
232.6000000000013
 20
-819.78239464724595
 30
0.0
 11
211.1000000000013
 21
-841.2823946472455
 31
0.0
  0
LINE
  5
2D4
  8
DATA
  6
CONTINUOUS
 62
     7
 10
254.10000000000039
 20
-841.2823946472455
 30
0.0
 11
232.6000000000013
 21
-819.78239464724595
 31
0.0
  0
LINE
  5
2D5
  8
DATA
  6
CONTINUOUS
 62
     7
 10
312.49999999999898
 20
-841.2823946472455
 30
0.0
 11
291.0
 21
-819.78239464724595
 31
0.0
  0
LINE
  5
2D6
  8
DATA
  6
CONTINUOUS
 62
     7
 10
291.0
 20
-862.78239464724493
 30
0.0
 11
291.0
 21
-819.78239464724595
 31
0.0
  0
LINE
  5
2D7
  8
DATA
  6
CONTINUOUS
 62
     7
 10
291.0
 20
-819.78239464724595
 30
0.0
 11
269.5
 21
-841.2823946472455
 31
0.0
  0
LINE
  5
2D8
  8
DATA
  6
CONTINUOUS
 62
     7
 10
269.5
 20
-841.2823946472455
 30
0.0
 11
312.49999999999898
 21
-841.2823946472455
 31
0.0
  0
LINE
  5
2D9
  8
DATA
  6
CONTINUOUS
 62
     7
 10
211.1000000000013
 20
-841.2823946472455
 30
0.0
 11
254.10000000000039
 21
-841.2823946472455
 31
0.0
  0
LINE
  5
2DA
  8
DATA
  6
CONTINUOUS
 62
     7
 10
211.1000000000013
 20
-841.2823946472455
 30
0.0
 11
232.6000000000013
 21
-862.78239464724493
 31
0.0
  0
LINE
  5
2DB
  8
DATA
  6
CONTINUOUS
 62
     7
 10
232.6000000000013
 20
-862.78239464724493
 30
0.0
 11
254.10000000000039
 21
-841.2823946472455
 31
0.0
  0
LINE
  5
2DC
  8
DATA
  6
CONTINUOUS
 62
     7
 10
240.30000000000109
 20
-870.48239464724509
 30
0.0
 11
283.30000000000018
 21
-870.48239464724509
 31
0.0
  0
LINE
  5
2DD
  8
DATA
  6
CONTINUOUS
 62
     7
 10
283.30000000000018
 20
-870.48239464724509
 30
0.0
 11
261.80000000000013
 21
-848.98239464724566
 31
0.0
  0
LINE
  5
2DE
  8
DATA
  6
CONTINUOUS
 62
     7
 10
261.80000000000013
 20
-891.98239464724463
 30
0.0
 11
261.80000000000013
 21
-848.98239464724566
 31
0.0
  0
LINE
  5
2DF
  8
DATA
  6
CONTINUOUS
 62
     7
 10
261.80000000000013
 20
-848.98239464724566
 30
0.0
 11
240.30000000000109
 21
-870.48239464724509
 31
0.0
  0
LINE
  5
2E0
  8
DATA
  6
CONTINUOUS
 62
     7
 10
261.80000000000013
 20
-891.98239464724463
 30
0.0
 11
283.30000000000018
 21
-870.48239464724509
 31
0.0
  0
LINE
  5
2E1
  8
DATA
  6
CONTINUOUS
 62
     7
 10
240.30000000000109
 20
-870.48239464724509
 30
0.0
 11
261.80000000000013
 21
-891.98239464724463
 31
0.0
  0
LINE
  5
2E2
  8
DATA
  6
CONTINUOUS
 62
     7
 10
291.0
 20
-862.78239464724493
 30
0.0
 11
312.49999999999898
 21
-841.2823946472455
 31
0.0
  0
LINE
  5
2E3
  8
DATA
  6
CONTINUOUS
 62
     7
 10
269.5
 20
-841.2823946472455
 30
0.0
 11
291.0
 21
-862.78239464724493
 31
0.0
  0
LINE
  5
2E4
  8
DATA
  6
CONTINUOUS
 62
     7
 10
324.59999999999951
 20
-926.91350965714003
 30
0.0
 11
324.59999999999951
 21
-753.33465487947785
 31
0.0
  0
LINE
  5
2E5
  8
DATA
  6
CONTINUOUS
 62
     7
 10
327.60000000000042
 20
-926.91350965714003
 30
0.0
 11
327.60000000000042
 21
-753.33465487947785
 31
0.0
  0
LINE
  5
2E6
  8
DATA
  6
CONTINUOUS
 62
     7
 10
331.10000000000031
 20
-853.66446986687868
 30
0.0
 11
331.10000000000031
 21
-801.98137572365476
 31
0.0
  0
LINE
  5
2E7
  8
DATA
  6
CONTINUOUS
 62
     7
 10
359.59999999999951
 20
-832.32292279526655
 30
0.0
 11
359.59999999999951
 21
-828.32292279526655
 31
0.0
  0
LINE
  5
2E8
  8
DATA
  6
CONTINUOUS
 62
     7
 10
334.60000000000042
 20
-832.32292279526655
 30
0.0
 11
334.60000000000042
 21
-828.32292279526655
 31
0.0
  0
LINE
  5
2E9
  8
DATA
  6
CONTINUOUS
 62
     7
 10
359.59999999999951
 20
-832.32292279526655
 30
0.0
 11
334.60000000000042
 21
-832.32292279526655
 31
0.0
  0
LINE
  5
2EA
  8
DATA
  6
CONTINUOUS
 62
     7
 10
359.59999999999951
 20
-828.32292279526655
 30
0.0
 11
334.60000000000042
 21
-828.32292279526655
 31
0.0
  0
LINE
  5
2EB
  8
DATA
  6
CONTINUOUS
 62
     7
 10
359.59999999999951
 20
-826.82292279526655
 30
0.0
 11
334.60000000000042
 21
-826.82292279526655
 31
0.0
  0
LINE
  5
2EC
  8
DATA
  6
CONTINUOUS
 62
     7
 10
359.59999999999951
 20
-806.82292279526655
 30
0.0
 11
359.59999999999951
 21
-826.82292279526655
 31
0.0
  0
LINE
  5
2ED
  8
DATA
  6
CONTINUOUS
 62
     7
 10
334.60000000000042
 20
-806.82292279526655
 30
0.0
 11
359.59999999999951
 21
-806.82292279526655
 31
0.0
  0
LINE
  5
2EE
  8
DATA
  6
CONTINUOUS
 62
     7
 10
334.60000000000042
 20
-826.82292279526655
 30
0.0
 11
334.60000000000042
 21
-806.82292279526655
 31
0.0
  0
ARC
  5
2EF
  8
DATA
  6
CONTINUOUS
 62
     7
 10
198.60000000000039
 20
-752.99543647264682
 30
0.0
 40
5.9999999999998499
 50
90.570809987894208
 51
179.3168121676236
  0
LINE
  5
2F0
  8
DATA
  6
CONTINUOUS
 62
     7
 10
192.60000000000039
 20
-788.80634838573212
 30
0.0
 11
324.60000000000031
 21
-788.80634838573212
 31
0.0
  0
ARC
  5
2F1
  8
DATA
  6
CONTINUOUS
 62
     7
 10
180.0
 20
-776.99573422522155
 30
0.0
 40
30.0
 50
90.0
 51
180.0
  0
LINE
  5
2F2
  8
DATA
  6
CONTINUOUS
 62
     7
 10
327.90000000000049
 20
-958.08239464724522
 30
0.0
 11
370.90000000000049
 21
-958.08239464724522
 31
0.0
  0
LINE
  5
2F3
  8
DATA
  6
CONTINUOUS
 62
     7
 10
349.40000000000049
 20
-979.58239464724454
 30
0.0
 11
370.90000000000049
 21
-958.08239464724522
 31
0.0
  0
LINE
  5
2F4
  8
DATA
  6
CONTINUOUS
 62
     7
 10
327.90000000000049
 20
-958.08239464724522
 30
0.0
 11
349.40000000000049
 21
-979.58239464724454
 31
0.0
  0
LINE
  5
2F5
  8
DATA
  6
CONTINUOUS
 62
     7
 10
386.30000000000013
 20
-958.08239464724522
 30
0.0
 11
407.79999999999922
 21
-979.58239464724454
 31
0.0
  0
LINE
  5
2F6
  8
DATA
  6
CONTINUOUS
 62
     7
 10
269.5
 20
-958.08239464724522
 30
0.0
 11
312.49999999999898
 21
-958.08239464724522
 31
0.0
  0
LINE
  5
2F7
  8
DATA
  6
CONTINUOUS
 62
     7
 10
211.1000000000013
 20
-958.08239464724522
 30
0.0
 11
254.10000000000039
 21
-958.08239464724522
 31
0.0
  0
LINE
  5
2F8
  8
DATA
  6
CONTINUOUS
 62
     7
 10
211.1000000000013
 20
-958.08239464724522
 30
0.0
 11
232.6000000000013
 21
-979.58239464724454
 31
0.0
  0
LINE
  5
2F9
  8
DATA
  6
CONTINUOUS
 62
     7
 10
232.6000000000013
 20
-979.58239464724454
 30
0.0
 11
254.10000000000039
 21
-958.08239464724522
 31
0.0
  0
LINE
  5
2FA
  8
DATA
  6
CONTINUOUS
 62
     7
 10
291.0
 20
-979.58239464724454
 30
0.0
 11
312.49999999999898
 21
-958.08239464724522
 31
0.0
  0
LINE
  5
2FB
  8
DATA
  6
CONTINUOUS
 62
     7
 10
269.5
 20
-958.08239464724522
 30
0.0
 11
291.0
 21
-979.58239464724454
 31
0.0
  0
LINE
  5
2FC
  8
DATA
  6
CONTINUOUS
 62
     7
 10
370.90000000000049
 20
-958.08239464724522
 30
0.0
 11
349.40000000000049
 21
-936.58239464724534
 31
0.0
  0
LINE
  5
2FD
  8
DATA
  6
CONTINUOUS
 62
     7
 10
349.40000000000049
 20
-979.58239464724454
 30
0.0
 11
349.40000000000049
 21
-936.58239464724534
 31
0.0
  0
LINE
  5
2FE
  8
DATA
  6
CONTINUOUS
 62
     7
 10
349.40000000000049
 20
-936.58239464724534
 30
0.0
 11
327.90000000000049
 21
-958.08239464724522
 31
0.0
  0
LINE
  5
2FF
  8
DATA
  6
CONTINUOUS
 62
     7
 10
407.79999999999922
 20
-979.58239464724454
 30
0.0
 11
407.79999999999922
 21
-936.58239464724534
 31
0.0
  0
LINE
  5
300
  8
DATA
  6
CONTINUOUS
 62
     7
 10
407.79999999999922
 20
-936.58239464724534
 30
0.0
 11
386.30000000000013
 21
-958.08239464724522
 31
0.0
  0
LINE
  5
301
  8
DATA
  6
CONTINUOUS
 62
     7
 10
232.6000000000013
 20
-979.58239464724454
 30
0.0
 11
232.6000000000013
 21
-936.58239464724534
 31
0.0
  0
LINE
  5
302
  8
DATA
  6
CONTINUOUS
 62
     7
 10
232.6000000000013
 20
-936.58239464724534
 30
0.0
 11
211.1000000000013
 21
-958.08239464724522
 31
0.0
  0
LINE
  5
303
  8
DATA
  6
CONTINUOUS
 62
     7
 10
254.10000000000039
 20
-958.08239464724522
 30
0.0
 11
232.6000000000013
 21
-936.58239464724534
 31
0.0
  0
LINE
  5
304
  8
DATA
  6
CONTINUOUS
 62
     7
 10
312.49999999999898
 20
-958.08239464724522
 30
0.0
 11
291.0
 21
-936.58239464724534
 31
0.0
  0
LINE
  5
305
  8
DATA
  6
CONTINUOUS
 62
     7
 10
291.0
 20
-979.58239464724454
 30
0.0
 11
291.0
 21
-936.58239464724534
 31
0.0
  0
LINE
  5
306
  8
DATA
  6
CONTINUOUS
 62
     7
 10
291.0
 20
-936.58239464724534
 30
0.0
 11
269.5
 21
-958.08239464724522
 31
0.0
  0
LINE
  5
307
  8
DATA
  6
CONTINUOUS
 62
     7
 10
261.80000000000013
 20
-950.38239464724472
 30
0.0
 11
261.80000000000013
 21
-907.38239464724506
 31
0.0
  0
LINE
  5
308
  8
DATA
  6
CONTINUOUS
 62
     7
 10
261.80000000000013
 20
-950.38239464724472
 30
0.0
 11
283.30000000000018
 21
-928.88239464724506
 31
0.0
  0
LINE
  5
309
  8
DATA
  6
CONTINUOUS
 62
     7
 10
240.30000000000109
 20
-928.88239464724506
 30
0.0
 11
261.80000000000013
 21
-950.38239464724472
 31
0.0
  0
TEXT
  5
30A
  8
DATA
 62
     7
 10
336.59336899669051
 20
-831.51628217026644
 30
0.0
 40
2.4799346923828121
  1
PROFESSIONAL
 41
0.7
 11
336.59336899669051
 21
-829.03634747788351
 31
0.0
 73
     3
  0
LINE
  5
30B
  8
DATA
  6
CONTINUOUS
 62
     7
 10
327.60000000000042
 20
-777.97222926257245
 30
0.0
 11
429.60000000000031
 21
-777.97222926257245
 31
0.0
  0
LINE
  5
30C
  8
DATA
  6
CONTINUOUS
 62
     7
 10
324.59999999999951
 20
-753.33465487947785
 30
0.0
 11
432.60000000000042
 21
-753.33465487947785
 31
0.0
  0
LINE
  5
30D
  8
DATA
  6
CONTINUOUS
 62
     7
 10
331.10000000000031
 20
-853.66446986687868
 30
0.0
 11
426.10000000000031
 21
-853.66446986687868
 31
0.0
  0
LINE
  5
30E
  8
DATA
  6
CONTINUOUS
 62
     7
 10
331.10000000000031
 20
-801.9813757236542
 30
0.0
 11
426.10000000000031
 21
-801.9813757236542
 31
0.0
  0
LINE
  5
30F
  8
DATA
  6
CONTINUOUS
 62
     7
 10
324.59999999999951
 20
-926.91350965714003
 30
0.0
 11
432.60000000000042
 21
-926.91350965714003
 31
0.0
  0
LINE
  5
310
  8
DATA
  6
CONTINUOUS
 62
     7
 10
386.30000000000013
 20
-958.08239464724522
 30
0.0
 11
429.29999999999922
 21
-958.08239464724522
 31
0.0
  0
LINE
  5
311
  8
DATA
  6
CONTINUOUS
 62
     7
 10
407.79999999999922
 20
-979.58239464724454
 30
0.0
 11
429.29999999999922
 21
-958.08239464724522
 31
0.0
  0
LINE
  5
312
  8
DATA
  6
CONTINUOUS
 62
     7
 10
429.29999999999922
 20
-958.08239464724522
 30
0.0
 11
407.79999999999922
 21
-936.58239464724534
 31
0.0
  0
LINE
  5
313
  8
DATA
  6
CONTINUOUS
 62
     7
 10
466.19999999999987
 20
-921.18239464724456
 30
0.0
 11
466.19999999999987
 21
-878.18239464724547
 31
0.0
  0
LINE
  5
314
  8
DATA
  6
CONTINUOUS
 62
     7
 10
466.19999999999987
 20
-862.78239464724493
 30
0.0
 11
466.19999999999987
 21
-819.78239464724595
 31
0.0
  0
LINE
  5
315
  8
DATA
  6
CONTINUOUS
 62
     7
 10
466.19999999999987
 20
-979.58239464724454
 30
0.0
 11
466.19999999999987
 21
-936.58239464724534
 31
0.0
  0
LINE
  5
316
  8
DATA
  6
CONTINUOUS
 62
     7
 10
516.89999999999873
 20
-987.2823946472447
 30
0.0
 11
495.39999999999969
 21
-965.78239464724516
 31
0.0
  0
LINE
  5
317
  8
DATA
  6
CONTINUOUS
 62
     7
 10
495.39999999999969
 20
-965.78239464724516
 30
0.0
 11
473.89999999999969
 21
-987.2823946472447
 31
0.0
  0
LINE
  5
318
  8
DATA
  6
CONTINUOUS
 62
     7
 10
473.89999999999969
 20
-987.2823946472447
 30
0.0
 11
516.89999999999873
 21
-987.2823946472447
 31
0.0
  0
CIRCLE
  5
319
  8
DATA
  6
CONTINUOUS
 62
     7
 10
554.8626835815021
 20
-750.99573422522155
 30
0.0
 40
4.0
  0
LINE
  5
31A
  8
DATA
  6
CONTINUOUS
 62
     7
 10
554.8626835815021
 20
-753.49573422522099
 30
0.0
 11
554.8626835815021
 21
-748.49573422522155
 31
0.0
  0
LINE
  5
31B
  8
DATA
  6
CONTINUOUS
 62
     7
 10
552.36268358150312
 20
-750.99573422522155
 30
0.0
 11
557.36268358150107
 21
-750.99573422522155
 31
0.0
  0
LINE
  5
31C
  8
DATA
  6
CONTINUOUS
 62
     7
 10
588.9835281364094
 20
-794.6789543062082
 30
0.0
 11
588.9835281364094
 21
-789.6789543062082
 31
0.0
  0
LINE
  5
31D
  8
DATA
  6
CONTINUOUS
 62
     7
 10
586.4835281364102
 20
-792.17895430620808
 30
0.0
 11
591.48352813640929
 21
-792.17895430620808
 31
0.0
  0
CIRCLE
  5
31E
  8
DATA
  6
CONTINUOUS
 62
     7
 10
588.9835281364094
 20
-792.17895430620808
 30
0.0
 40
4.0
  0
LINE
  5
31F
  8
DATA
  6
CONTINUOUS
 62
     7
 10
588.9835281364094
 20
-905.09283724855266
 30
0.0
 11
588.9835281364094
 21
-900.09283724855254
 31
0.0
  0
LINE
  5
320
  8
DATA
  6
CONTINUOUS
 62
     7
 10
586.4835281364102
 20
-902.59283724855266
 30
0.0
 11
591.48352813640929
 21
-902.59283724855266
 31
0.0
  0
CIRCLE
  5
321
  8
DATA
  6
CONTINUOUS
 62
     7
 10
588.9835281364094
 20
-902.59283724855266
 30
0.0
 40
4.0
  0
LINE
  5
322
  8
DATA
  6
CONTINUOUS
 62
     7
 10
561.86268358150312
 20
-750.99573422520734
 30
0.0
 11
561.86268358150312
 21
-747.96007195287291
 31
0.0
  0
LINE
  5
323
  8
DATA
  6
CONTINUOUS
 62
     7
 10
547.86268358150198
 20
-750.99573422520814
 30
0.0
 11
547.86268358150198
 21
-746.99573422522155
 31
0.0
  0
ARC
  5
324
  8
DATA
  6
CONTINUOUS
 62
     7
 10
554.8626835815021
 20
-746.8707342252344
 30
0.0
 40
8.1249999999865317
 50
210.5102374060933
 51
329.48976259398108
  0
CIRCLE
  5
325
  8
DATA
  6
CONTINUOUS
 62
     7
 10
588.9835281364094
 20
-902.59283724855266
 30
0.0
 40
6.0
  0
CIRCLE
  5
326
  8
DATA
  6
CONTINUOUS
 62
     7
 10
588.9835281364094
 20
-792.17895430620808
 30
0.0
 40
6.0
  0
ARC
  5
327
  8
DATA
  6
CONTINUOUS
 62
     7
 10
577.20000000000073
 20
-776.99573422522155
 30
0.0
 40
30.0
 50
0.0
 51
90.0
  0
LINE
  5
328
  8
DATA
  6
CONTINUOUS
 62
     7
 10
473.89999999999969
 20
-870.48239464724509
 30
0.0
 11
495.39999999999969
 21
-891.98239464724463
 31
0.0
  0
LINE
  5
329
  8
DATA
  6
CONTINUOUS
 62
     7
 10
546.09999999999854
 20
-899.68239464724491
 30
0.0
 11
524.59999999999945
 21
-878.18239464724547
 31
0.0
  0
LINE
  5
32A
  8
DATA
  6
CONTINUOUS
 62
     7
 10
524.59999999999945
 20
-878.18239464724547
 30
0.0
 11
503.0999999999994
 21
-899.68239464724491
 31
0.0
  0
LINE
  5
32B
  8
DATA
  6
CONTINUOUS
 62
     7
 10
524.59999999999945
 20
-921.18239464724456
 30
0.0
 11
524.59999999999945
 21
-878.18239464724547
 31
0.0
  0
LINE
  5
32C
  8
DATA
  6
CONTINUOUS
 62
     7
 10
503.0999999999994
 20
-899.68239464724491
 30
0.0
 11
546.09999999999854
 21
-899.68239464724491
 31
0.0
  0
LINE
  5
32D
  8
DATA
  6
CONTINUOUS
 62
     7
 10
524.59999999999945
 20
-921.18239464724456
 30
0.0
 11
546.09999999999854
 21
-899.68239464724491
 31
0.0
  0
LINE
  5
32E
  8
DATA
  6
CONTINUOUS
 62
     7
 10
503.0999999999994
 20
-899.68239464724491
 30
0.0
 11
524.59999999999945
 21
-921.18239464724456
 31
0.0
  0
LINE
  5
32F
  8
DATA
  6
CONTINUOUS
 62
     7
 10
473.89999999999969
 20
-928.88239464724506
 30
0.0
 11
516.89999999999873
 21
-928.88239464724506
 31
0.0
  0
LINE
  5
330
  8
DATA
  6
CONTINUOUS
 62
     7
 10
516.89999999999873
 20
-928.88239464724506
 30
0.0
 11
495.39999999999969
 21
-907.38239464724506
 31
0.0
  0
LINE
  5
331
  8
DATA
  6
CONTINUOUS
 62
     7
 10
495.39999999999969
 20
-907.38239464724506
 30
0.0
 11
473.89999999999969
 21
-928.88239464724506
 31
0.0
  0
LINE
  5
332
  8
DATA
  6
CONTINUOUS
 62
     7
 10
546.09999999999854
 20
-841.2823946472455
 30
0.0
 11
524.59999999999945
 21
-819.78239464724595
 31
0.0
  0
LINE
  5
333
  8
DATA
  6
CONTINUOUS
 62
     7
 10
524.59999999999945
 20
-819.78239464724595
 30
0.0
 11
503.0999999999994
 21
-841.2823946472455
 31
0.0
  0
LINE
  5
334
  8
DATA
  6
CONTINUOUS
 62
     7
 10
524.59999999999945
 20
-862.78239464724493
 30
0.0
 11
524.59999999999945
 21
-819.78239464724595
 31
0.0
  0
LINE
  5
335
  8
DATA
  6
CONTINUOUS
 62
     7
 10
503.0999999999994
 20
-841.2823946472455
 30
0.0
 11
546.09999999999854
 21
-841.2823946472455
 31
0.0
  0
LINE
  5
336
  8
DATA
  6
CONTINUOUS
 62
     7
 10
524.59999999999945
 20
-862.78239464724493
 30
0.0
 11
546.09999999999854
 21
-841.2823946472455
 31
0.0
  0
LINE
  5
337
  8
DATA
  6
CONTINUOUS
 62
     7
 10
503.0999999999994
 20
-841.2823946472455
 30
0.0
 11
524.59999999999945
 21
-862.78239464724493
 31
0.0
  0
LINE
  5
338
  8
DATA
  6
CONTINUOUS
 62
     7
 10
473.89999999999969
 20
-870.48239464724509
 30
0.0
 11
516.89999999999873
 21
-870.48239464724509
 31
0.0
  0
LINE
  5
339
  8
DATA
  6
CONTINUOUS
 62
     7
 10
516.89999999999873
 20
-870.48239464724509
 30
0.0
 11
495.39999999999969
 21
-848.98239464724566
 31
0.0
  0
LINE
  5
33A
  8
DATA
  6
CONTINUOUS
 62
     7
 10
495.39999999999969
 20
-891.98239464724463
 30
0.0
 11
495.39999999999969
 21
-848.98239464724566
 31
0.0
  0
LINE
  5
33B
  8
DATA
  6
CONTINUOUS
 62
     7
 10
495.39999999999969
 20
-848.98239464724566
 30
0.0
 11
473.89999999999969
 21
-870.48239464724509
 31
0.0
  0
LINE
  5
33C
  8
DATA
  6
CONTINUOUS
 62
     7
 10
495.39999999999969
 20
-891.98239464724463
 30
0.0
 11
516.89999999999873
 21
-870.48239464724509
 31
0.0
  0
ARC
  5
33D
  8
DATA
  6
CONTINUOUS
 62
     7
 10
558.60000000000025
 20
-752.99543647264682
 30
0.0
 40
6.0000000000003819
 50
0.683187832376285
 51
89.429190012105863
  0
LINE
  5
33E
  8
DATA
  6
CONTINUOUS
 62
     7
 10
503.0999999999994
 20
-958.08239464724522
 30
0.0
 11
546.09999999999854
 21
-958.08239464724522
 31
0.0
  0
LINE
  5
33F
  8
DATA
  6
CONTINUOUS
 62
     7
 10
524.59999999999945
 20
-979.58239464724454
 30
0.0
 11
546.09999999999854
 21
-958.08239464724522
 31
0.0
  0
LINE
  5
340
  8
DATA
  6
CONTINUOUS
 62
     7
 10
503.0999999999994
 20
-958.08239464724522
 30
0.0
 11
524.59999999999945
 21
-979.58239464724454
 31
0.0
  0
LINE
  5
341
  8
DATA
  6
CONTINUOUS
 62
     7
 10
546.09999999999854
 20
-958.08239464724522
 30
0.0
 11
524.59999999999945
 21
-936.58239464724534
 31
0.0
  0
LINE
  5
342
  8
DATA
  6
CONTINUOUS
 62
     7
 10
524.59999999999945
 20
-936.58239464724534
 30
0.0
 11
503.0999999999994
 21
-958.08239464724522
 31
0.0
  0
LINE
  5
343
  8
DATA
  6
CONTINUOUS
 62
     7
 10
524.59999999999945
 20
-979.58239464724454
 30
0.0
 11
524.59999999999945
 21
-936.58239464724534
 31
0.0
  0
LINE
  5
344
  8
DATA
  6
CONTINUOUS
 62
     7
 10
495.39999999999969
 20
-950.38239464724472
 30
0.0
 11
495.39999999999969
 21
-907.38239464724506
 31
0.0
  0
LINE
  5
345
  8
DATA
  6
CONTINUOUS
 62
     7
 10
495.39999999999969
 20
-950.38239464724472
 30
0.0
 11
516.89999999999873
 21
-928.88239464724506
 31
0.0
  0
LINE
  5
346
  8
DATA
  6
CONTINUOUS
 62
     7
 10
473.89999999999969
 20
-928.88239464724506
 30
0.0
 11
495.39999999999969
 21
-950.38239464724472
 31
0.0
  0
ARC
  5
347
  8
DATA
  6
CONTINUOUS
 62
     7
 10
1143.98
 20
-700.0
 30
0.0
 40
18.999999999999751
 50
52.136353638268389
 51
127.8636463617315
  0
ARC
  5
348
  8
DATA
  6
CONTINUOUS
 62
     7
 10
1143.98
 20
-700.0
 30
0.0
 40
19.000000000000458
 50
232.13635363827009
 51
307.86364636172817
  0
ARC
  5
349
  8
DATA
  6
CONTINUOUS
 62
     7
 10
956.02000000000032
 20
-700.0
 30
0.0
 40
18.999999999999751
 50
52.136353638268389
 51
127.8636463617315
  0
ARC
  5
34A
  8
DATA
  6
CONTINUOUS
 62
     7
 10
956.02000000000032
 20
-700.0
 30
0.0
 40
19.000000000000458
 50
232.13635363827009
 51
307.8636463617276
  0
ARC
  5
34B
  8
DATA
  6
CONTINUOUS
 62
     7
 10
1143.98
 20
-700.0
 30
0.0
 40
39.999999999999751
 50
22.024312837042309
 51
157.9756871629582
  0
ARC
  5
34C
  8
DATA
  6
CONTINUOUS
 62
     7
 10
1143.98
 20
-700.0
 30
0.0
 40
40.000000000000739
 50
202.0243128370424
 51
337.97568716295712
  0
ARC
  5
34D
  8
DATA
  6
CONTINUOUS
 62
     7
 10
956.02000000000032
 20
-700.0
 30
0.0
 40
39.999999999999751
 50
22.024312837042309
 51
157.9756871629582
  0
ARC
  5
34E
  8
DATA
  6
CONTINUOUS
 62
     7
 10
956.02000000000032
 20
-700.0
 30
0.0
 40
40.000000000000739
 50
202.0243128370424
 51
337.97568716295712
  0
LINE
  5
34F
  8
DATA
  6
CONTINUOUS
 62
     7
 10
1209.9800000000059
 20
-700.00000000000887
 30
0.0
 11
1176.9800000000091
 21
-757.15767664977625
 31
0.0
  0
LINE
  5
350
  8
DATA
  6
CONTINUOUS
 62
     7
 10
1209.9800000000059
 20
-699.99999999999125
 30
0.0
 11
1176.9800000000091
 21
-642.84232335022205
 31
0.0
  0
LINE
  5
351
  8
DATA
  6
CONTINUOUS
 62
     7
 10
1110.9800000000059
 20
-757.15767664977625
 30
0.0
 11
1176.9800000000021
 21
-757.15767664977443
 31
0.0
  0
LINE
  5
352
  8
DATA
  6
CONTINUOUS
 62
     7
 10
1077.980000000005
 20
-700.00000000000887
 30
0.0
 11
1110.98
 21
-757.15767664977625
 31
0.0
  0
LINE
  5
353
  8
DATA
  6
CONTINUOUS
 62
     7
 10
1077.980000000005
 20
-699.99999999999125
 30
0.0
 11
1110.98
 21
-642.84232335022205
 31
0.0
  0
LINE
  5
354
  8
DATA
  6
CONTINUOUS
 62
     7
 10
1110.9800000000059
 20
-642.84232335022205
 30
0.0
 11
1176.9800000000021
 21
-642.84232335022398
 31
0.0
  0
CIRCLE
  5
355
  8
DATA
  6
CONTINUOUS
 62
     7
 10
1143.98
 20
-700.0
 30
0.0
 40
66.000000000001819
  0
LINE
  5
356
  8
DATA
  6
CONTINUOUS
 62
     7
 10
1022.020000000006
 20
-700.00000000000887
 30
0.0
 11
989.02000000000476
 21
-757.15767664977625
 31
0.0
  0
LINE
  5
357
  8
DATA
  6
CONTINUOUS
 62
     7
 10
1022.020000000006
 20
-699.99999999999125
 30
0.0
 11
989.02000000000476
 21
-642.84232335022205
 31
0.0
  0
LINE
  5
358
  8
DATA
  6
CONTINUOUS
 62
     7
 10
923.02000000000601
 20
-757.15767664977625
 30
0.0
 11
989.02000000000476
 21
-757.15767664977443
 31
0.0
  0
LINE
  5
359
  8
DATA
  6
CONTINUOUS
 62
     7
 10
923.02000000000601
 20
-642.84232335022205
 30
0.0
 11
989.02000000000476
 21
-642.84232335022398
 31
0.0
  0
LINE
  5
35A
  8
DATA
  6
CONTINUOUS
 62
     7
 10
959.23999999999535
 20
-776.00000000000034
 30
0.0
 11
1142.239999999995
 21
-776.00000000000034
 31
0.0
  0
LINE
  5
35B
  8
DATA
  6
CONTINUOUS
 62
     7
 10
959.23999999999535
 20
-623.99999999999955
 30
0.0
 11
1142.239999999995
 21
-623.99999999999955
 31
0.0
  0
ARC
  5
35C
  8
DATA
  6
CONTINUOUS
 62
     7
 10
1142.239999999995
 20
-700.0
 30
0.0
 40
76.000000000000455
 50
270.00000000000341
 51
89.999999999996575
  0
LINE
  5
35D
  8
DATA
  6
CONTINUOUS
 62
     7
 10
890.01999999999759
 20
-700.00000000000887
 30
0.0
 11
923.019999999996
 21
-757.15767664977625
 31
0.0
  0
LINE
  5
35E
  8
DATA
  6
CONTINUOUS
 62
     7
 10
890.01999999999759
 20
-699.99999999999125
 30
0.0
 11
923.019999999996
 21
-642.84232335022205
 31
0.0
  0
CIRCLE
  5
35F
  8
DATA
  6
CONTINUOUS
 62
     7
 10
956.02000000000032
 20
-700.0
 30
0.0
 40
66.000000000001819
  0
ARC
  5
360
  8
DATA
  6
CONTINUOUS
 62
     7
 10
959.23999999999535
 20
-700.0
 30
0.0
 40
76.000000000000455
 50
89.999999999996575
 51
270.00000000000341
  0
TEXT
  5
361
  8
DATA
 62
     7
 10
933.62128567918239
 20
-711.93359374999989
 30
0.0
 40
24.799346923828121
  1
RED
 41
0.7
 11
933.62128567918239
 21
-687.13424682617176
 31
0.0
 73
     3
  0
TEXT
  5
362
  8
DATA
 62
     7
 10
1121.581285679182
 20
-711.93359374999989
 30
0.0
 40
24.799346923828121
  1
BLK
 41
0.7
 11
1121.581285679182
 21
-687.13424682617176
 31
0.0
 73
     3
  0
TEXT
  5
363
  8
DATA
 62
     7
 10
850.0
 20
-1593.59124
 30
0.0
 40
36.64892578125
  1
8340A
 41
0.7
 11
850.0
 21
-1556.94231421875
 31
0.0
 73
     3
  0
TEXT
  5
364
  8
DATA
 62
     7
 10
812.5
 20
-1536.9955649999999
 30
0.0
 40
24.4326171875
  1
2ウェイ・サラウンド・システム
 41
0.7
 11
812.5
 21
-1512.5629478124999
 31
0.0
 73
     3
  0
LINE
  5
365
  8
DATA
  6
CONTINUOUS
 62
     7
 10
-348.3609013570358
 20
-809.00708494048354
 30
0.0
 11
-212.7428359010901
 21
-1181.6146574508091
 31
0.0
  0
LINE
  5
366
  8
DATA
  6
CONTINUOUS
 62
     7
 10
-311.75304235401057
 20
-763.3961309177181
 30
0.0
 11
-155.38143282551431
 21
-1193.0235971410341
 31
0.0
  0
LINE
  5
367
  8
DATA
  6
CONTINUOUS
 62
     7
 10
-89.710023250615919
 20
-801.73581668438862
 30
0.0
 11
-89.710023250615023
 21
-1141.8917358373949
 31
0.0
  0
LINE
  5
368
  8
DATA
  6
CONTINUOUS
 62
     7
 10
-268.706843435954
 20
-751.55529463117205
 30
0.0
 11
-115.8651373519651
 21
-1171.4844308478521
 31
0.0
  0
LINE
  5
369
  8
DATA
  6
CONTINUOUS
 62
     7
 10
-247.99774823207369
 20
-748.51507587782748
 30
0.0
 11
-98.358943293022136
 21
-1159.6443135220461
 31
0.0
  0
LINE
  5
36A
  8
DATA
  6
STYLE_11
 62
     7
 10
-146.84461147727779
 20
-778.93099254483013
 30
0.0
 11
-92.634418760158525
 21
-927.87227293939713
 31
0.0
  0
LINE
  5
36B
  8
DATA
  6
CONTINUOUS
 62
     7
 10
-179.5204866657736
 20
-1199.171812113816
 30
0.0
 11
-155.38143282551431
 21
-1193.0235971410341
 31
0.0
  0
ARC
  5
36C
  8
DATA
  6
CONTINUOUS
 62
     7
 10
-186.30477321525089
 20
-1171.798404722213
 30
0.0
 40
28.201595277786751
 50
200.36958060494689
 51
283.91982625755571
  0
ARC
  5
36D
  8
DATA
  6
CONTINUOUS
 62
     7
 10
-112.2100232506159
 20
-1141.8917358373949
 30
0.0
 40
22.500000000000071
 50
305.67303112010279
 51
0.0
  0
ARC
  5
36E
  8
DATA
  6
CONTINUOUS
 62
     7
 10
-300.8826734073873
 20
-879.06498941994641
 30
0.0
 40
346.03557385481002
 50
294.8649325546038
 51
305.67303112010319
  0
LINE
  5
36F
  8
DATA
  6
STYLE_11
 62
     7
 10
-92.634418760158525
 20
-927.87227293939713
 30
0.0
 11
-89.710023250615919
 21
-926.8078800207021
 31
0.0
  0
ARC
  5
370
  8
DATA
  6
STYLE_11
 62
     7
 10
-103.7424384697065
 20
-913.29215045698675
 30
0.0
 40
8.9514285714533397
 50
327.51730069588427
 51
72.482699304132566
  0
ARC
  5
371
  8
DATA
  6
CONTINUOUS
 62
     7
 10
-219.52467029720091
 20
-1014.517796217298
 30
0.0
 40
267.5222671014206
 50
64.729525117010454
 51
110.1665516682032
  0
LINE
  5
372
  8
DATA
  6
CONTINUOUS
 62
     7
 10
-334.19662681664249
 20
-774.2026097207721
 30
0.0
 11
-311.75304235401057
 21
-763.3961309177181
 31
0.0
  0
ARC
  5
373
  8
DATA
  6
CONTINUOUS
 62
     7
 10
-321.79840472221349
 20
-799.53271167692856
 30
0.0
 40
28.20159527778678
 50
116.0801737424448
 51
199.63041939505311
  0
ARC
  5
374
  8
DATA
  6
CONTINUOUS
 62
     7
 10
-124.7100232506163
 20
-801.73581668438862
 30
0.0
 40
35.0
 50
0.0
 51
56.361186640584087
  0
LINE
  5
375
  8
DATA
  6
STYLE_11
 62
     7
 10
-174.68412327713619
 20
-762.38055270942164
 30
0.0
 11
-167.1665823108487
 21
-759.64439156281651
 31
0.0
  0
LINE
  5
376
  8
DATA
  6
STYLE_11
 62
     7
 10
-167.11596332963649
 20
-759.78346607069261
 30
0.0
 11
-162.0362801609644
 21
-773.739780874605
 31
0.0
  0
LINE
  5
377
  8
DATA
  6
STYLE_11
 62
     7
 10
-169.5538211272515
 20
-776.47594202121013
 30
0.0
 11
-162.0362801609644
 21
-773.739780874605
 31
0.0
  0
LINE
  5
378
  8
DATA
  6
STYLE_11
 62
     7
 10
-165.70478821827459
 20
-763.66063782405536
 30
0.0
 11
-156.7777083208093
 21
-760.4114464624613
 31
0.0
  0
LINE
  5
379
  8
DATA
  6
STYLE_11
 62
     7
 10
-163.44745527232541
 20
-769.8626091212426
 30
0.0
 11
-154.52037537485921
 21
-766.6134177596482
 31
0.0
  0
LINE
  5
37A
  8
DATA
  6
STYLE_11
 62
     7
 10
-166.8334546912497
 20
-760.55965217546191
 30
0.0
 11
-157.90637479378341
 21
-757.31046081386785
 31
0.0
  0
LINE
  5
37B
  8
DATA
  6
STYLE_11
 62
     7
 10
-153.3917089018851
 20
-769.71440340824154
 30
0.0
 11
-162.3187887993513
 21
-772.96359476983605
 31
0.0
  0
LINE
  5
37C
  8
DATA
  6
STYLE_11
 62
     7
 10
-157.90637479378341
 20
-757.31046081386785
 30
0.0
 11
-153.3917089018851
 21
-769.71440340824154
 31
0.0
  0
LINE
  5
37D
  8
DATA
  6
STYLE_11
 62
     7
 10
-179.39147890479211
 20
-764.06622141790956
 30
0.0
 11
-174.6930158008627
 21
-762.35612070128116
 31
0.0
  0
LINE
  5
37E
  8
DATA
  6
STYLE_11
 62
     7
 10
-174.19277272624191
 20
-778.34954925385546
 30
0.0
 11
-169.49430962231239
 21
-776.63944853722705
 31
0.0
  0
LINE
  5
37F
  8
DATA
  6
STYLE_11
 62
     7
 10
-174.6930158008627
 20
-762.35612070128116
 30
0.0
 11
-169.49430962231239
 21
-776.63944853722739
 31
0.0
  0
LINE
  5
380
  8
DATA
  6
STYLE_11
 62
     7
 10
-184.44062786820859
 20
-750.19379865345888
 30
0.0
 11
-170.80677330731851
 21
-787.65250619963444
 31
0.0
  0
LINE
  5
381
  8
DATA
  6
STYLE_11
 62
     7
 10
-170.80677330731851
 20
-787.65250619963444
 30
0.0
 11
-146.84461147727779
 21
-778.93099254483013
 31
0.0
  0
ARC
  5
382
  8
DATA
  6
STYLE_11
 62
     7
 10
-147.17899667206621
 20
-793.95118761717595
 30
0.0
 40
8.9514285714533397
 50
327.51730069588427
 51
72.482699304132566
  0
ARC
  5
383
  8
DATA
  6
CONTINUOUS
 62
     7
 10
-241.00903017163159
 20
-791.44948946927093
 30
0.0
 40
6.1328125000003038
 50
130.3510216860949
 51
269.64897831391249
  0
ARC
  5
384
  8
DATA
  6
CONTINUOUS
 62
     7
 10
-245.0174065071725
 20
-792.90841914314524
 30
0.0
 40
6.1328125000006128
 50
310.35102168609183
 51
89.648978313913062
  0
ARC
  5
385
  8
DATA
  6
CONTINUOUS
 62
     7
 10
-200.82166333086559
 20
-901.86337241161561
 30
0.0
 40
6.1328125000003038
 50
130.3510216860949
 51
269.64897831391249
  0
ARC
  5
386
  8
DATA
  6
CONTINUOUS
 62
     7
 10
-204.83003966640641
 20
-903.3223020854897
 30
0.0
 40
6.1328125000006128
 50
310.35102168609183
 51
89.648978313913062
  0
ARC
  5
387
  8
DATA
  6
CONTINUOUS
 62
     7
 10
-160.63429649009939
 20
-1012.277255353959
 30
0.0
 40
6.1328125000003038
 50
130.3510216860949
 51
269.64897831391249
  0
ARC
  5
388
  8
DATA
  6
CONTINUOUS
 62
     7
 10
-164.6426728256402
 20
-1013.736185027833
 30
0.0
 40
6.1328125000006128
 50
310.35102168609183
 51
89.648978313913062
  0
ARC
  5
389
  8
DATA
  6
CONTINUOUS
 62
     7
 10
-120.4469296493335
 20
-1122.6911382963031
 30
0.0
 40
6.1328125000003038
 50
130.3510216860949
 51
269.64897831391249
  0
ARC
  5
38A
  8
DATA
  6
CONTINUOUS
 62
     7
 10
-124.4553059848743
 20
-1124.1500679701769
 30
0.0
 40
6.1328125000006128
 50
310.35102168609183
 51
89.648978313913062
  0
ARC
  5
38B
  8
DATA
  6
CONTINUOUS
 62
     7
 10
369.3619841939518
 20
-770.24912205362489
 30
0.0
 40
3.7660158060490372
 50
266.43789216460192
 51
93.562107835398166
  0
ARC
  5
38C
  8
DATA
  6
CONTINUOUS
 62
     7
 10
369.2383178429593
 20
-770.24566315982668
 30
0.0
 40
1.7896854995166589
 50
268.26011415097412
 51
95.331600624818137
  0
ARC
  5
38D
  8
DATA
  6
CONTINUOUS
 62
     7
 10
369.51407395075029
 20
-770.24912205362489
 30
0.0
 40
6.2139260492500723
 50
266.43789671641008
 51
93.562103283589764
  0
ARC
  5
38E
  8
DATA
  6
CONTINUOUS
 62
     7
 10
397.3019526194434
 20
-871.94149134116378
 30
0.0
 40
11.2980473805573
 50
266.43789522684631
 51
93.562104773153635
  0
ARC
  5
38F
  8
DATA
  6
CONTINUOUS
 62
     7
 10
397.47744075581329
 20
-871.94149134116378
 30
0.0
 40
14.1225592441874
 50
266.43789402175952
 51
93.562105978240496
  0
LINE
  5
390
  8
DATA
  6
CONTINUOUS
 62
     7
 10
339.17500000000058
 20
-791.1279259535761
 30
0.0
 11
348.17500000000069
 21
-791.1279259535761
 31
0.0
  0
LINE
  5
391
  8
DATA
  6
CONTINUOUS
 62
     7
 10
343.67500000000069
 20
-795.35650845357634
 30
0.0
 11
343.67500000000069
 21
-786.89934345357653
 31
0.0
  0
LINE
  5
392
  8
DATA
  6
CONTINUOUS
 62
     7
 10
365.82800000000083
 20
-764.87810091536028
 30
0.0
 11
372.42800000000028
 21
-764.87810091536062
 31
0.0
  0
LINE
  5
393
  8
DATA
  6
CONTINUOUS
 62
     7
 10
365.82800000000083
 20
-775.6201431918895
 30
0.0
 11
372.42800000000028
 21
-775.62014319188916
 31
0.0
  0
LINE
  5
394
  8
DATA
  6
CONTINUOUS
 62
     7
 10
365.82800000000083
 20
-764.87810091536028
 30
0.0
 11
362.5280000000007
 21
-770.24912205362455
 31
0.0
  0
LINE
  5
395
  8
DATA
  6
CONTINUOUS
 62
     7
 10
362.5280000000007
 20
-770.24912205362455
 30
0.0
 11
365.82800000000083
 21
-775.6201431918895
 31
0.0
  0
LINE
  5
396
  8
DATA
  6
CONTINUOUS
 62
     7
 10
372.42800000000028
 20
-775.62014319188916
 30
0.0
 11
375.72799999999961
 21
-770.24912205362455
 31
0.0
  0
LINE
  5
397
  8
DATA
  6
CONTINUOUS
 62
     7
 10
375.72799999999961
 20
-770.24912205362455
 30
0.0
 11
372.42800000000028
 21
-764.87810091536062
 31
0.0
  0
LINE
  5
398
  8
DATA
  6
CONTINUOUS
 62
     7
 10
369.15144380349892
 20
-763.10751605362452
 30
0.0
 11
387.92000000000002
 21
-763.10751605362452
 31
0.0
  0
LINE
  5
399
  8
DATA
  6
CONTINUOUS
 62
     7
 10
369.12800000000078
 20
-777.38347040722908
 30
0.0
 11
387.92000000000002
 21
-777.38347040722908
 31
0.0
  0
LINE
  5
39A
  8
DATA
  6
CONTINUOUS
 62
     7
 10
384.62400000000122
 20
-764.87810091536028
 30
0.0
 11
391.22400000000061
 21
-764.87810091536062
 31
0.0
  0
LINE
  5
39B
  8
DATA
  6
CONTINUOUS
 62
     7
 10
384.62400000000122
 20
-775.6201431918895
 30
0.0
 11
391.22400000000061
 21
-775.62014319188916
 31
0.0
  0
LINE
  5
39C
  8
DATA
  6
CONTINUOUS
 62
     7
 10
384.62400000000122
 20
-764.87810091536028
 30
0.0
 11
381.32400000000092
 21
-770.24912205362455
 31
0.0
  0
LINE
  5
39D
  8
DATA
  6
CONTINUOUS
 62
     7
 10
381.32400000000092
 20
-770.24912205362455
 30
0.0
 11
384.62400000000122
 21
-775.6201431918895
 31
0.0
  0
LINE
  5
39E
  8
DATA
  6
CONTINUOUS
 62
     7
 10
391.22400000000061
 20
-775.62014319188916
 30
0.0
 11
394.524
 21
-770.24912205362455
 31
0.0
  0
LINE
  5
39F
  8
DATA
  6
CONTINUOUS
 62
     7
 10
394.524
 20
-770.24912205362455
 30
0.0
 11
391.22400000000061
 21
-764.87810091536062
 31
0.0
  0
ARC
  5
3A0
  8
DATA
  6
CONTINUOUS
 62
     7
 10
343.25967804224939
 20
-791.1279259535761
 30
0.0
 40
6.6846780422501046
 50
86.43789402176111
 51
273.56210597823889
  0
ARC
  5
3A1
  8
DATA
  6
CONTINUOUS
 62
     7
 10
344.09032195775183
 20
-791.12792595357632
 30
0.0
 40
6.6846780422501579
 50
266.43789402175378
 51
93.562105978231088
  0
LINE
  5
3A2
  8
DATA
  6
CONTINUOUS
 62
     7
 10
409.02500000000049
 20
-791.1279259535761
 30
0.0
 11
418.02500000000049
 21
-791.1279259535761
 31
0.0
  0
LINE
  5
3A3
  8
DATA
  6
CONTINUOUS
 62
     7
 10
413.52500000000049
 20
-795.35650845357588
 30
0.0
 11
413.52500000000049
 21
-786.89934345357631
 31
0.0
  0
ARC
  5
3A4
  8
DATA
  6
CONTINUOUS
 62
     7
 10
413.10967804224941
 20
-791.1279259535761
 30
0.0
 40
6.6846780422501046
 50
86.43789402176111
 51
273.56210597823889
  0
ARC
  5
3A5
  8
DATA
  6
CONTINUOUS
 62
     7
 10
413.94032195775162
 20
-791.1279259535761
 30
0.0
 40
6.6846780422501579
 50
266.43789402175378
 51
93.562105978231088
  0
LINE
  5
3A6
  8
DATA
  6
CONTINUOUS
 62
     7
 10
339.17500000000058
 20
-910.46888879338655
 30
0.0
 11
348.17500000000069
 21
-910.46888879338655
 31
0.0
  0
LINE
  5
3A7
  8
DATA
  6
CONTINUOUS
 62
     7
 10
343.67500000000069
 20
-914.69747129338703
 30
0.0
 11
343.67500000000069
 21
-906.24030629338722
 31
0.0
  0
ARC
  5
3A8
  8
DATA
  6
CONTINUOUS
 62
     7
 10
343.25967804224939
 20
-910.46888879338655
 30
0.0
 40
6.6846780422501046
 50
86.43789402176111
 51
273.56210597823889
  0
ARC
  5
3A9
  8
DATA
  6
CONTINUOUS
 62
     7
 10
344.09032195775183
 20
-910.46888879338655
 30
0.0
 40
6.6846780422501579
 50
266.43789402175378
 51
93.562105978231173
  0
LINE
  5
3AA
  8
DATA
  6
CONTINUOUS
 62
     7
 10
409.02500000000049
 20
-910.46888879338655
 30
0.0
 11
418.02500000000049
 21
-910.46888879338655
 31
0.0
  0
LINE
  5
3AB
  8
DATA
  6
CONTINUOUS
 62
     7
 10
413.52500000000049
 20
-914.69747129338657
 30
0.0
 11
413.52500000000049
 21
-906.24030629338688
 31
0.0
  0
ARC
  5
3AC
  8
DATA
  6
CONTINUOUS
 62
     7
 10
413.10967804224941
 20
-910.46888879338655
 30
0.0
 40
6.6846780422501046
 50
86.43789402176111
 51
273.56210597823889
  0
ARC
  5
3AD
  8
DATA
  6
CONTINUOUS
 62
     7
 10
413.94032195775162
 20
-910.46888879338655
 30
0.0
 40
6.6846780422501579
 50
266.43789402175378
 51
93.562105978231173
  0
ARC
  5
3AE
  8
DATA
  6
CONTINUOUS
 62
     7
 10
395.72255924418818
 20
-871.94149134116378
 30
0.0
 40
14.1225592441874
 50
86.437894021759703
 51
273.56210597824031
  0
ARC
  5
3AF
  8
DATA
  6
CONTINUOUS
 62
     7
 10
395.89804741014319
 20
-871.94149134116378
 30
0.0
 40
11.29804741014231
 50
86.437892816671933
 51
273.56210718332801
  0
ARC
  5
3B0
  8
DATA
  6
CONTINUOUS
 62
     7
 10
368.74192608563573
 20
-770.24912205362455
 30
0.0
 40
6.2139260856348644
 50
86.437891327111956
 51
273.56210867288797
  0
ARC
  5
3B1
  8
DATA
  6
CONTINUOUS
 62
     7
 10
368.98956495386938
 20
-770.24524664446187
 30
0.0
 40
7.1395660056708623
 50
88.70079361359781
 51
271.11102565180067
  0
ARC
  5
3B2
  8
DATA
  6
CONTINUOUS
 62
     7
 10
368.89401580604982
 20
-770.24912205362489
 30
0.0
 40
3.7660158060488098
 50
86.437892164601635
 51
273.56210783539842
  0
ARC
  5
3B3
  8
DATA
  6
CONTINUOUS
 62
     7
 10
369.01768215704237
 20
-770.24566315982668
 30
0.0
 40
1.7896854995165521
 50
84.668399375181565
 51
271.739885849026
  0
ARC
  5
3B4
  8
DATA
  6
CONTINUOUS
 62
     7
 10
388.08187884962939
 20
-770.24524664446187
 30
0.0
 40
7.1395660056709236
 50
268.88897434819933
 51
91.299206386402119
  0
ARC
  5
3B5
  8
DATA
  6
CONTINUOUS
 62
     7
 10
388.15398419395098
 20
-770.24912205362489
 30
0.0
 40
3.7660158060490372
 50
266.43789216460192
 51
93.562107835398166
  0
ARC
  5
3B6
  8
DATA
  6
CONTINUOUS
 62
     7
 10
388.03031784295848
 20
-770.24566315982668
 30
0.0
 40
1.7896854995166589
 50
268.26011415097412
 51
95.331600624818137
  0
ARC
  5
3B7
  8
DATA
  6
CONTINUOUS
 62
     7
 10
387.68601580604911
 20
-770.24912205362489
 30
0.0
 40
3.7660158060488098
 50
86.437892164601635
 51
273.56210783539842
  0
ARC
  5
3B8
  8
DATA
  6
CONTINUOUS
 62
     7
 10
387.80968215704161
 20
-770.24566315982668
 30
0.0
 40
1.7896854995165521
 50
84.668399375181565
 51
271.739885849026
  0
ARC
  5
3B9
  8
DATA
  6
CONTINUOUS
 62
     7
 10
388.31407395075041
 20
-770.24912205362489
 30
0.0
 40
6.2139260492500723
 50
266.43789671641008
 51
93.562103283589764
  0
ARC
  5
3BA
  8
DATA
  6
CONTINUOUS
 62
     7
 10
387.54192608563568
 20
-770.24912205362455
 30
0.0
 40
6.2139260856348644
 50
86.437891327111956
 51
273.56210867288797
  0
ARC
  5
3BB
  8
DATA
  6
CONTINUOUS
 62
     7
 10
-860.42606628987539
 20
-514.99702180658176
 30
0.0
 40
19.48892053753924
 50
10.468940502613689
 51
29.31230421675005
  0
LINE
  5
3BC
  8
DATA
  6
CONTINUOUS
 62
     7
 10
-874.99999999999955
 20
-650.0
 30
0.0
 11
-467.80000000000041
 21
-650.0
 31
0.0
  0
LINE
  5
3BD
  8
DATA
  6
CONTINUOUS
 62
     7
 10
-900.00000000000011
 20
-611.75304235401018
 30
0.0
 11
-442.7999999999999
 21
-611.75304235401018
 31
0.0
  0
LINE
  5
3BE
  8
DATA
  6
CONTINUOUS
 62
     7
 10
-851.41426966023266
 20
-389.71002325061642
 30
0.0
 11
-491.4065623289145
 21
-389.71002325061568
 31
0.0
  0
ARC
  5
3BF
  8
DATA
  6
CONTINUOUS
 62
     7
 10
-612.66268358146795
 20
-591.96015847870808
 30
0.0
 40
8.5000000000688676
 50
61.927513064537038
 51
118.0724869358623
  0
LINE
  5
3C0
  8
DATA
  6
CONTINUOUS
 62
     7
 10
-616.66268358150114
 20
-584.46015847864805
 30
0.0
 11
-608.66268358150114
 21
-584.4601584786476
 31
0.0
  0
LINE
  5
3C1
  8
DATA
  6
CONTINUOUS
 62
     7
 10
-619.6626835815016
 20
-586.46015847864783
 30
0.0
 11
-605.66268358150114
 21
-586.4601584786476
 31
0.0
  0
LINE
  5
3C2
  8
DATA
  6
CONTINUOUS
 62
     7
 10
-722.41979646124105
 20
-446.84461147727762
 30
0.0
 11
-620.41979646124184
 21
-446.84461147727762
 31
0.0
  0
LINE
  5
3C3
  8
DATA
  6
CONTINUOUS
 62
     7
 10
-722.41979646124105
 20
-392.63441876015878
 30
0.0
 11
-620.41979646124184
 21
-392.63441876015833
 31
0.0
  0
LINE
  5
3C4
  8
DATA
  6
CONTINUOUS
 62
     7
 10
-722.41979646124105
 20
-484.44062786820848
 30
0.0
 11
-620.41979646124184
 21
-484.44062786820848
 31
0.0
  0
ARC
  5
3C5
  8
DATA
  6
CONTINUOUS
 62
     7
 10
-706.27079646124525
 20
-444.81773926338423
 30
0.0
 40
7.6180958278942867
 50
21.25259915042799
 51
158.74740084954269
  0
ARC
  5
3C6
  8
DATA
  6
CONTINUOUS
 62
     7
 10
-706.27079646124525
 20
-432.89099535902039
 30
0.0
 40
11.593677129323121
 50
232.2365575379724
 51
307.76344246207009
  0
LINE
  5
3C7
  8
DATA
  6
CONTINUOUS
 62
     7
 10
-722.41979646124105
 20
-470.80677330731828
 30
0.0
 11
-687.34379646124103
 21
-470.80677330731851
 31
0.0
  0
ARC
  5
3C8
  8
DATA
  6
CONTINUOUS
 62
     7
 10
-706.27079646124605
 20
-389.45443715666079
 30
0.0
 40
11.59367712932284
 50
232.23655753797411
 51
307.7634424620698
  0
ARC
  5
3C9
  8
DATA
  6
CONTINUOUS
 62
     7
 10
-706.27079646124605
 20
-401.38118106102462
 30
0.0
 40
7.6180958278942867
 50
21.25259915042799
 51
158.74740084954169
  0
LINE
  5
3CA
  8
DATA
  6
CONTINUOUS
 62
     7
 10
-722.41979646124105
 20
-484.44062786820848
 30
0.0
 11
-722.41979646124105
 21
-389.71002325061568
 31
0.0
  0
LINE
  5
3CB
  8
DATA
  6
CONTINUOUS
 62
     7
 10
-725.41979646124105
 20
-389.71002325061608
 30
0.0
 11
-722.41979646124105
 21
-484.44062786820848
 31
0.0
  0
LINE
  5
3CC
  8
DATA
  6
CONTINUOUS
 62
     7
 10
-857.37786691178621
 20
-395.27804331699622
 30
0.0
 11
-868.32763092593689
 21
-546.97047818552585
 31
0.0
  0
ARC
  5
3CD
  8
DATA
  6
CONTINUOUS
 62
     7
 10
-874.99999999999955
 20
-630.0
 30
0.0
 40
20.000000000000082
 50
192.53588006977591
 51
270.0
  0
LINE
  5
3CE
  8
DATA
  6
CONTINUOUS
 62
     7
 10
-900.00000000000011
 20
-611.75304235401018
 30
0.0
 11
-894.52320551447667
 21
-634.34101905541945
 31
0.0
  0
ARC
  5
3CF
  8
DATA
  6
CONTINUOUS
 62
     7
 10
-730.16268358146738
 20
-591.96015847870808
 30
0.0
 40
8.5000000000686526
 50
61.927513064539767
 51
118.0724869358624
  0
LINE
  5
3D0
  8
DATA
  6
CONTINUOUS
 62
     7
 10
-734.16268358150205
 20
-584.46015847864805
 30
0.0
 11
-726.16268358150114
 21
-584.4601584786476
 31
0.0
  0
LINE
  5
3D1
  8
DATA
  6
CONTINUOUS
 62
     7
 10
-726.16268358150114
 20
-586.4601584786476
 30
0.0
 11
-726.16268358150114
 21
-584.4601584786476
 31
0.0
  0
LINE
  5
3D2
  8
DATA
  6
CONTINUOUS
 62
     7
 10
-734.16268358150114
 20
-586.4601584786476
 30
0.0
 11
-734.16268358150114
 21
-584.4601584786476
 31
0.0
  0
LINE
  5
3D3
  8
DATA
  6
CONTINUOUS
 62
     7
 10
-737.16268358150114
 20
-586.46015847864783
 30
0.0
 11
-723.16268358150205
 21
-586.4601584786476
 31
0.0
  0
ARC
  5
3D4
  8
DATA
  6
CONTINUOUS
 62
     7
 10
-847.66268358146749
 20
-591.96015847870808
 30
0.0
 40
8.5000000000688676
 50
61.927513064537038
 51
118.0724869358623
  0
LINE
  5
3D5
  8
DATA
  6
CONTINUOUS
 62
     7
 10
-851.66268358150148
 20
-584.46015847864805
 30
0.0
 11
-843.66268358150148
 21
-584.4601584786476
 31
0.0
  0
LINE
  5
3D6
  8
DATA
  6
CONTINUOUS
 62
     7
 10
-843.66268358150148
 20
-586.4601584786476
 30
0.0
 11
-843.66268358150148
 21
-584.4601584786476
 31
0.0
  0
LINE
  5
3D7
  8
DATA
  6
CONTINUOUS
 62
     7
 10
-851.66268358150148
 20
-586.4601584786476
 30
0.0
 11
-851.66268358150148
 21
-584.4601584786476
 31
0.0
  0
LINE
  5
3D8
  8
DATA
  6
CONTINUOUS
 62
     7
 10
-854.66268358150205
 20
-586.46015847864783
 30
0.0
 11
-840.6626835815016
 21
-586.4601584786476
 31
0.0
  0
LINE
  5
3D9
  8
DATA
  6
CONTINUOUS
 62
     7
 10
-854.66268358150205
 20
-586.46015847864783
 30
0.0
 11
-854.66268358150205
 21
-517.46015847864805
 31
0.0
  0
LINE
  5
3DA
  8
DATA
  6
CONTINUOUS
 62
     7
 10
-840.6626835815016
 20
-586.46015847864805
 30
0.0
 11
-840.6626835815016
 21
-517.46015847864805
 31
0.0
  0
LINE
  5
3DB
  8
DATA
  6
CONTINUOUS
 62
     7
 10
-737.16268358150114
 20
-586.46015847864783
 30
0.0
 11
-737.16268358150114
 21
-517.46015847864805
 31
0.0
  0
LINE
  5
3DC
  8
DATA
  6
CONTINUOUS
 62
     7
 10
-723.16268358150205
 20
-586.46015847864805
 30
0.0
 11
-723.16268358150205
 21
-517.46015847864805
 31
0.0
  0
ARC
  5
3DD
  8
DATA
  6
CONTINUOUS
 62
     7
 10
-870.32244067283648
 20
-546.82648487431948
 30
0.0
 40
1.999999999999819
 50
307.62060343385002
 51
355.87132339717601
  0
LINE
  5
3DE
  8
DATA
  6
CONTINUOUS
 62
     7
 10
-895.23210922421697
 20
-569.31881444954377
 30
0.0
 11
-900.00000000000011
 21
-611.75304235401006
 31
0.0
  0
LINE
  5
3DF
  8
DATA
  6
CONTINUOUS
 62
     7
 10
-869.10158061278594
 20
-548.4106252449219
 30
0.0
 11
-894.46547566003414
 21
-567.95798796930467
 31
0.0
  0
ARC
  5
3E0
  8
DATA
  6
CONTINUOUS
 62
     7
 10
-893.24461559998349
 20
-569.54212833990698
 30
0.0
 40
1.999999999999819
 50
127.62060343384989
 51
173.5891599797649
  0
ARC
  5
3E1
  8
DATA
  6
CONTINUOUS
 62
     7
 10
-851.41426966023266
 20
-395.71002325061647
 30
0.0
 40
6.0
 50
90.0
 51
175.8713233971786
  0
LINE
  5
3E2
  8
DATA
  6
CONTINUOUS
 62
     7
 10
-688.16979646124207
 20
-484.44062786820899
 30
0.0
 11
-688.16979646124207
 21
-479.44062786820882
 31
0.0
  0
LINE
  5
3E3
  8
DATA
  6
CONTINUOUS
 62
     7
 10
-620.41979646124184
 20
-484.44062786820848
 30
0.0
 11
-620.41979646124184
 21
-389.71002325061568
 31
0.0
  0
LINE
  5
3E4
  8
DATA
  6
CONTINUOUS
 62
     7
 10
-620.41979646124184
 20
-484.44062786820848
 30
0.0
 11
-617.41979646124184
 21
-389.71002325061608
 31
0.0
  0
LINE
  5
3E5
  8
DATA
  6
CONTINUOUS
 62
     7
 10
-654.66979646124196
 20
-484.44062786820899
 30
0.0
 11
-654.66979646124196
 21
-479.44062786820882
 31
0.0
  0
LINE
  5
3E6
  8
DATA
  6
CONTINUOUS
 62
     7
 10
-616.66268358150114
 20
-586.4601584786476
 30
0.0
 11
-616.66268358150114
 21
-584.4601584786476
 31
0.0
  0
LINE
  5
3E7
  8
DATA
  6
CONTINUOUS
 62
     7
 10
-619.6626835815016
 20
-586.46015847864783
 30
0.0
 11
-619.6626835815016
 21
-517.46015847864805
 31
0.0
  0
LINE
  5
3E8
  8
DATA
  6
CONTINUOUS
 62
     7
 10
-688.31779646124119
 20
-479.44062786820848
 30
0.0
 11
-654.52179646124171
 21
-479.44062786820899
 31
0.0
  0
LINE
  5
3E9
  8
DATA
  6
CONTINUOUS
 62
     7
 10
-668.54779646124109
 20
-461.94062786820882
 30
0.0
 11
-655.34779646124173
 21
-461.94062786820882
 31
0.0
  0
LINE
  5
3EA
  8
DATA
  6
CONTINUOUS
 62
     7
 10
-669.37379646124123
 20
-471.44062786820882
 30
0.0
 11
-654.52179646124171
 21
-471.44062786820899
 31
0.0
  0
LINE
  5
3EB
  8
DATA
  6
CONTINUOUS
 62
     7
 10
-674.14379646124155
 20
-470.80677330731851
 30
0.0
 11
-668.54779646124109
 21
-470.80677330731851
 31
0.0
  0
LINE
  5
3EC
  8
DATA
  6
CONTINUOUS
 62
     7
 10
-668.54779646124109
 20
-471.44062786820899
 30
0.0
 11
-668.54779646124109
 21
-461.94062786820842
 31
0.0
  0
LINE
  5
3ED
  8
DATA
  6
CONTINUOUS
 62
     7
 10
-665.24779646124148
 20
-471.44062786820882
 30
0.0
 11
-665.24779646124148
 21
-461.94062786820882
 31
0.0
  0
LINE
  5
3EE
  8
DATA
  6
CONTINUOUS
 62
     7
 10
-669.52179646124125
 20
-479.44062786820882
 30
0.0
 11
-669.52179646124125
 21
-471.44062786820848
 31
0.0
  0
LINE
  5
3EF
  8
DATA
  6
CONTINUOUS
 62
     7
 10
-687.34379646124103
 20
-461.94062786820882
 30
0.0
 11
-674.14379646124155
 21
-461.94062786820882
 31
0.0
  0
LINE
  5
3F0
  8
DATA
  6
CONTINUOUS
 62
     7
 10
-674.14379646124155
 20
-461.94062786820882
 30
0.0
 11
-674.14379646124155
 21
-471.44062786820899
 31
0.0
  0
LINE
  5
3F1
  8
DATA
  6
CONTINUOUS
 62
     7
 10
-687.34379646124103
 20
-471.44062786820899
 30
0.0
 11
-687.34379646124103
 21
-461.94062786820842
 31
0.0
  0
LINE
  5
3F2
  8
DATA
  6
CONTINUOUS
 62
     7
 10
-677.44379646124105
 20
-471.44062786820911
 30
0.0
 11
-677.44379646124105
 21
-461.94062786820848
 31
0.0
  0
LINE
  5
3F3
  8
DATA
  6
CONTINUOUS
 62
     7
 10
-684.04379646124175
 20
-471.44062786820882
 30
0.0
 11
-684.04379646124175
 21
-461.94062786820882
 31
0.0
  0
LINE
  5
3F4
  8
DATA
  6
CONTINUOUS
 62
     7
 10
-673.31779646124164
 20
-479.44062786820882
 30
0.0
 11
-673.31779646124164
 21
-471.44062786820899
 31
0.0
  0
LINE
  5
3F5
  8
DATA
  6
CONTINUOUS
 62
     7
 10
-688.16979646124105
 20
-471.44062786820882
 30
0.0
 11
-673.31779646124164
 21
-471.44062786820899
 31
0.0
  0
LINE
  5
3F6
  8
DATA
  6
CONTINUOUS
 62
     7
 10
-688.31779646124119
 20
-479.44062786820882
 30
0.0
 11
-688.31779646124119
 21
-471.44062786820848
 31
0.0
  0
ARC
  5
3F7
  8
DATA
  6
CONTINUOUS
 62
     7
 10
-636.42079646124478
 20
-444.81773926338371
 30
0.0
 40
7.6180958278942867
 50
21.25259915042799
 51
158.74740084954169
  0
ARC
  5
3F8
  8
DATA
  6
CONTINUOUS
 62
     7
 10
-636.42079646124478
 20
-432.89099535902
 30
0.0
 40
11.59367712932284
 50
232.23655753797411
 51
307.7634424620698
  0
LINE
  5
3F9
  8
DATA
  6
CONTINUOUS
 62
     7
 10
-655.34779646124173
 20
-470.80677330731851
 30
0.0
 11
-620.41979646124184
 21
-470.80677330731828
 31
0.0
  0
LINE
  5
3FA
  8
DATA
  6
CONTINUOUS
 62
     7
 10
-655.34779646124173
 20
-461.94062786820882
 30
0.0
 11
-655.34779646124173
 21
-471.44062786820899
 31
0.0
  0
LINE
  5
3FB
  8
DATA
  6
CONTINUOUS
 62
     7
 10
-658.64779646124111
 20
-471.44062786820911
 30
0.0
 11
-658.64779646124111
 21
-461.94062786820848
 31
0.0
  0
LINE
  5
3FC
  8
DATA
  6
CONTINUOUS
 62
     7
 10
-654.52179646124171
 20
-479.44062786820882
 30
0.0
 11
-654.52179646124171
 21
-471.44062786820899
 31
0.0
  0
ARC
  5
3FD
  8
DATA
  6
CONTINUOUS
 62
     7
 10
-636.42079646124535
 20
-389.45443715666079
 30
0.0
 40
11.593677129323121
 50
232.2365575379724
 51
307.7634424620681
  0
ARC
  5
3FE
  8
DATA
  6
CONTINUOUS
 62
     7
 10
-636.42079646124535
 20
-401.38118106102462
 30
0.0
 40
7.6180958278938649
 50
21.252599150429219
 51
158.74740084954311
  0
LINE
  5
3FF
  8
DATA
  6
CONTINUOUS
 62
     7
 10
-485.42213308821403
 20
-395.27804331699622
 30
0.0
 11
-474.47236907406318
 21
-546.97047818552585
 31
0.0
  0
ARC
  5
400
  8
DATA
  6
CONTINUOUS
 62
     7
 10
-467.80000000000041
 20
-630.0
 30
0.0
 40
20.0
 50
270.0
 51
347.46411993022201
  0
LINE
  5
401
  8
DATA
  6
CONTINUOUS
 62
     7
 10
-448.27679448552419
 20
-634.34101905542002
 30
0.0
 11
-442.7999999999999
 21
-611.75304235401018
 31
0.0
  0
LINE
  5
402
  8
DATA
  6
CONTINUOUS
 62
     7
 10
-488.1626835815016
 20
-586.46015847864805
 30
0.0
 11
-488.1626835815016
 21
-517.46015847864805
 31
0.0
  0
ARC
  5
403
  8
DATA
  6
CONTINUOUS
 62
     7
 10
-495.16268358146829
 20
-591.96015847870808
 30
0.0
 40
8.5000000000688676
 50
61.927513064537038
 51
118.0724869358623
  0
LINE
  5
404
  8
DATA
  6
CONTINUOUS
 62
     7
 10
-499.1626835815016
 20
-584.46015847864805
 30
0.0
 11
-491.1626835815016
 21
-584.4601584786476
 31
0.0
  0
LINE
  5
405
  8
DATA
  6
CONTINUOUS
 62
     7
 10
-491.1626835815016
 20
-586.4601584786476
 30
0.0
 11
-491.1626835815016
 21
-584.4601584786476
 31
0.0
  0
LINE
  5
406
  8
DATA
  6
CONTINUOUS
 62
     7
 10
-499.1626835815016
 20
-586.4601584786476
 30
0.0
 11
-499.1626835815016
 21
-584.4601584786476
 31
0.0
  0
LINE
  5
407
  8
DATA
  6
CONTINUOUS
 62
     7
 10
-502.16268358150199
 20
-586.46015847864783
 30
0.0
 11
-488.1626835815016
 21
-586.4601584786476
 31
0.0
  0
LINE
  5
408
  8
DATA
  6
CONTINUOUS
 62
     7
 10
-608.66268358150114
 20
-586.4601584786476
 30
0.0
 11
-608.66268358150114
 21
-584.4601584786476
 31
0.0
  0
LINE
  5
409
  8
DATA
  6
CONTINUOUS
 62
     7
 10
-502.16268358150199
 20
-586.46015847864783
 30
0.0
 11
-502.16268358150199
 21
-517.46015847864805
 31
0.0
  0
LINE
  5
40A
  8
DATA
  6
CONTINUOUS
 62
     7
 10
-605.66268358150114
 20
-586.46015847864805
 30
0.0
 11
-605.66268358150114
 21
-517.46015847864805
 31
0.0
  0
ARC
  5
40B
  8
DATA
  6
CONTINUOUS
 62
     7
 10
-472.47755932716359
 20
-546.82648487431948
 30
0.0
 40
1.9999999999999081
 50
184.12867660282379
 51
232.37939656614029
  0
LINE
  5
40C
  8
DATA
  6
CONTINUOUS
 62
     7
 10
-447.5678907757831
 20
-569.31881444954411
 30
0.0
 11
-442.7999999999999
 21
-611.75304235401006
 31
0.0
  0
LINE
  5
40D
  8
DATA
  6
CONTINUOUS
 62
     7
 10
-473.69841938721419
 20
-548.41062524492202
 30
0.0
 11
-448.33452433996598
 21
-567.9579879693049
 31
0.0
  0
ARC
  5
40E
  8
DATA
  6
CONTINUOUS
 62
     7
 10
-449.55538440001681
 20
-569.54212833990709
 30
0.0
 40
2.0000000000000608
 50
6.410840020234339
 51
52.379396566151463
  0
ARC
  5
40F
  8
DATA
  6
CONTINUOUS
 62
     7
 10
-491.4065623289145
 20
-395.71002325061579
 30
0.0
 40
6.0000000000001608
 50
4.1286766028213124
 51
90.0
  0
ARC
  5
410
  8
DATA
  6
CONTINUOUS
 62
     7
 10
-848.37238393112239
 20
-507.94606854463001
 30
0.0
 40
5.5321278855155827
 50
26.752666501944461
 51
82.601355409825985
  0
ARC
  5
411
  8
DATA
  6
CONTINUOUS
 62
     7
 10
-880.0259989457694
 20
-518.34846999741364
 30
0.0
 40
39.372446903527958
 50
1.2990941188581651
 51
10.08228712371233
  0
ARC
  5
412
  8
DATA
  6
CONTINUOUS
 62
     7
 10
-834.89393371012466
 20
-514.99702180658176
 30
0.0
 40
19.488920537539219
 50
150.68769578325001
 51
169.53105949738631
  0
ARC
  5
413
  8
DATA
  6
CONTINUOUS
 62
     7
 10
-846.94761606887789
 20
-507.94606854463001
 30
0.0
 40
5.5321278855155791
 50
97.398644590174044
 51
153.2473334980555
  0
ARC
  5
414
  8
DATA
  6
CONTINUOUS
 62
     7
 10
-815.29400105423088
 20
-518.34846999741364
 30
0.0
 40
39.372446903527972
 50
169.9177128762876
 51
178.70090588114181
  0
ARC
  5
415
  8
DATA
  6
CONTINUOUS
 62
     7
 10
-742.92606628987551
 20
-514.99702180658176
 30
0.0
 40
19.48892053753924
 50
10.468940502613689
 51
29.31230421675005
  0
ARC
  5
416
  8
DATA
  6
CONTINUOUS
 62
     7
 10
-730.87238393112227
 20
-507.94606854463001
 30
0.0
 40
5.5321278855155827
 50
26.752666501944461
 51
82.601355409825985
  0
ARC
  5
417
  8
DATA
  6
CONTINUOUS
 62
     7
 10
-762.5259989457694
 20
-518.34846999741364
 30
0.0
 40
39.372446903527958
 50
1.2990941188581651
 51
10.08228712371233
  0
ARC
  5
418
  8
DATA
  6
CONTINUOUS
 62
     7
 10
-717.39393371012477
 20
-514.99702180658176
 30
0.0
 40
19.488920537539219
 50
150.68769578325001
 51
169.53105949738631
  0
ARC
  5
419
  8
DATA
  6
CONTINUOUS
 62
     7
 10
-729.44761606887789
 20
-507.94606854463001
 30
0.0
 40
5.5321278855155791
 50
97.398644590174044
 51
153.2473334980555
  0
ARC
  5
41A
  8
DATA
  6
CONTINUOUS
 62
     7
 10
-697.79400105423099
 20
-518.34846999741364
 30
0.0
 40
39.372446903527972
 50
169.9177128762876
 51
178.70090588114181
  0
ARC
  5
41B
  8
DATA
  6
CONTINUOUS
 62
     7
 10
-625.42606628987562
 20
-514.99702180658176
 30
0.0
 40
19.48892053753924
 50
10.468940502613689
 51
29.31230421675005
  0
ARC
  5
41C
  8
DATA
  6
CONTINUOUS
 62
     7
 10
-613.37238393112239
 20
-507.94606854463001
 30
0.0
 40
5.5321278855155827
 50
26.752666501944461
 51
82.601355409825985
  0
ARC
  5
41D
  8
DATA
  6
CONTINUOUS
 62
     7
 10
-645.0259989457694
 20
-518.34846999741364
 30
0.0
 40
39.372446903527958
 50
1.2990941188581651
 51
10.08228712371233
  0
ARC
  5
41E
  8
DATA
  6
CONTINUOUS
 62
     7
 10
-599.89393371012477
 20
-514.99702180658176
 30
0.0
 40
19.488920537539219
 50
150.68769578325001
 51
169.53105949738631
  0
ARC
  5
41F
  8
DATA
  6
CONTINUOUS
 62
     7
 10
-611.94761606887789
 20
-507.94606854463001
 30
0.0
 40
5.5321278855155791
 50
97.398644590174044
 51
153.2473334980555
  0
ARC
  5
420
  8
DATA
  6
CONTINUOUS
 62
     7
 10
-580.29400105423088
 20
-518.34846999741364
 30
0.0
 40
39.372446903527972
 50
169.9177128762876
 51
178.70090588114181
  0
ARC
  5
421
  8
DATA
  6
CONTINUOUS
 62
     7
 10
-507.92606628987551
 20
-514.99702180658176
 30
0.0
 40
19.48892053753924
 50
10.468940502613689
 51
29.31230421675005
  0
ARC
  5
422
  8
DATA
  6
CONTINUOUS
 62
     7
 10
-495.87238393112239
 20
-507.94606854463001
 30
0.0
 40
5.5321278855155827
 50
26.752666501944461
 51
82.601355409825985
  0
ARC
  5
423
  8
DATA
  6
CONTINUOUS
 62
     7
 10
-527.52599894576929
 20
-518.34846999741364
 30
0.0
 40
39.372446903527958
 50
1.2990941188581651
 51
10.08228712371233
  0
ARC
  5
424
  8
DATA
  6
CONTINUOUS
 62
     7
 10
-482.39393371012483
 20
-514.99702180658176
 30
0.0
 40
19.488920537539219
 50
150.68769578325001
 51
169.53105949738631
  0
ARC
  5
425
  8
DATA
  6
CONTINUOUS
 62
     7
 10
-494.44761606887772
 20
-507.94606854463001
 30
0.0
 40
5.5321278855155791
 50
97.398644590174044
 51
153.2473334980555
  0
ARC
  5
426
  8
DATA
  6
CONTINUOUS
 62
     7
 10
-462.79400105423088
 20
-518.34846999741364
 30
0.0
 40
39.372446903527972
 50
169.9177128762876
 51
178.70090588114181
  0
ARC
  5
427
  8
DATA
  6
CONTINUOUS
 62
     7
 10
-870.0
 20
-1170.0
 30
0.0
 40
30.0
 50
180.0
 51
270.0
  0
ARC
  5
428
  8
DATA
  6
CONTINUOUS
 62
     7
 10
-870.0
 20
-800.37007440000014
 30
0.0
 40
30.0
 50
90.0
 51
180.0
  0
ARC
  5
429
  8
DATA
  6
CONTINUOUS
 62
     7
 10
-870.0
 20
-776.99573422522155
 30
0.0
 40
30.0
 50
90.0
 51
180.0
  0
ARC
  5
42A
  8
DATA
  6
CONTINUOUS
 62
     7
 10
-472.79999999999922
 20
-1170.0
 30
0.0
 40
30.0
 50
270.0
 51
0.0
  0
ARC
  5
42B
  8
DATA
  6
CONTINUOUS
 62
     7
 10
-472.79999999999922
 20
-800.37007440000014
 30
0.0
 40
30.0
 50
0.0
 51
90.0
  0
ARC
  5
42C
  8
DATA
  6
CONTINUOUS
 62
     7
 10
-472.79999999999922
 20
-776.99573422522155
 30
0.0
 40
30.0
 50
0.0
 51
90.0
  0
ARC
  5
42D
  8
DATA
  6
CONTINUOUS
 62
     7
 10
-671.98483833165517
 20
-855.88259240000025
 30
0.0
 40
9.4151616683446662
 50
86.438683934225267
 51
273.56131606577469
  0
ARC
  5
42E
  8
DATA
  6
CONTINUOUS
 62
     7
 10
-826.28086949345538
 20
-961.31670799999938
 30
0.0
 40
36.719130506543522
 50
86.438683934227754
 51
273.56131606577219
  0
ARC
  5
42F
  8
DATA
  6
CONTINUOUS
 62
     7
 10
-825.78375694913825
 20
-961.31670799999984
 30
0.0
 40
28.716243050861038
 50
86.438685139313165
 51
273.56131486068682
  0
ARC
  5
430
  8
DATA
  6
CONTINUOUS
 62
     7
 10
-821.71913050654462
 20
-961.31670799999938
 30
0.0
 40
36.719130506543969
 50
266.43868393422781
 51
93.561316065772189
  0
ARC
  5
431
  8
DATA
  6
CONTINUOUS
 62
     7
 10
-822.21624305086164
 20
-961.31670799999984
 30
0.0
 40
28.716243050860591
 50
266.43868513931312
 51
93.561314860686906
  0
ARC
  5
432
  8
DATA
  6
CONTINUOUS
 62
     7
 10
-521.08087031531852
 20
-961.31670799999938
 30
0.0
 40
36.719130506543522
 50
86.438683934227754
 51
273.56131606577219
  0
ARC
  5
433
  8
DATA
  6
CONTINUOUS
 62
     7
 10
-520.58375777100161
 20
-961.31670799999984
 30
0.0
 40
28.716243050861038
 50
86.438685139313165
 51
273.56131486068682
  0
ARC
  5
434
  8
DATA
  6
CONTINUOUS
 62
     7
 10
-516.51913132840787
 20
-961.31670799999938
 30
0.0
 40
36.719130506543969
 50
266.43868393422781
 51
301.31235744510491
  0
ARC
  5
435
  8
DATA
  6
CONTINUOUS
 62
     7
 10
-516.51913132840787
 20
-961.31670799999938
 30
0.0
 40
36.719130506543912
 50
348.6005476977063
 51
93.561316065772147
  0
ARC
  5
436
  8
DATA
  6
CONTINUOUS
 62
     7
 10
-517.01624387272477
 20
-961.31670799999984
 30
0.0
 40
28.716243050860591
 50
266.43868513931312
 51
93.561314860686906
  0
ARC
  5
437
  8
DATA
  6
CONTINUOUS
 62
     7
 10
-718.70380206083166
 20
-937.45844294890446
 30
0.0
 40
3.7662601200743082
 50
86.44185071197677
 51
273.55814928802317
  0
ARC
  5
438
  8
DATA
  6
CONTINUOUS
 62
     7
 10
-624.09619794901982
 20
-937.45844294890446
 30
0.0
 40
3.7662601299257181
 50
266.4418483017929
 51
93.558151698207183
  0
LINE
  5
439
  8
DATA
  6
CONTINUOUS
 62
     7
 10
-624.3299378190942
 20
-939.33794294890436
 30
0.0
 11
-624.3299378190942
 21
-935.57894294890446
 31
0.0
  0
LINE
  5
43A
  8
DATA
  6
CONTINUOUS
 62
     7
 10
-626.3299378190942
 20
-937.45844294890446
 30
0.0
 11
-622.3299378190942
 21
-937.45844294890446
 31
0.0
  0
ARC
  5
43B
  8
DATA
  6
CONTINUOUS
 62
     7
 10
-624.56367769901965
 20
-937.45844294890446
 30
0.0
 40
3.7662601200743082
 50
86.44185071197677
 51
273.55814928802317
  0
ARC
  5
43C
  8
DATA
  6
CONTINUOUS
 62
     7
 10
-557.52907763103713
 20
-1000.014894267728
 30
0.0
 40
3.7662601299257181
 50
266.4418483017929
 51
93.558151698207183
  0
LINE
  5
43D
  8
DATA
  6
CONTINUOUS
 62
     7
 10
-557.76281750111127
 20
-1001.894394267728
 30
0.0
 11
-557.76281750111127
 21
-998.13539426772843
 31
0.0
  0
LINE
  5
43E
  8
DATA
  6
CONTINUOUS
 62
     7
 10
-559.76281750111139
 20
-1000.014894267728
 30
0.0
 11
-555.76281750111139
 21
-1000.014894267728
 31
0.0
  0
ARC
  5
43F
  8
DATA
  6
CONTINUOUS
 62
     7
 10
-557.99655738103695
 20
-1000.014894267728
 30
0.0
 40
3.7662601200743082
 50
86.44185071197677
 51
273.55814928802317
  0
ARC
  5
440
  8
DATA
  6
CONTINUOUS
 62
     7
 10
-784.80344262881363
 20
-1000.014894267728
 30
0.0
 40
3.7662601299257181
 50
266.4418483017929
 51
93.558151698207183
  0
LINE
  5
441
  8
DATA
  6
CONTINUOUS
 62
     7
 10
-785.03718249888777
 20
-1001.894394267728
 30
0.0
 11
-785.03718249888777
 21
-998.13539426772843
 31
0.0
  0
LINE
  5
442
  8
DATA
  6
CONTINUOUS
 62
     7
 10
-787.03718249888789
 20
-1000.014894267728
 30
0.0
 11
-783.03718249888789
 21
-1000.014894267728
 31
0.0
  0
ARC
  5
443
  8
DATA
  6
CONTINUOUS
 62
     7
 10
-785.27092237881345
 20
-1000.014894267728
 30
0.0
 40
3.7662601200743082
 50
86.44185071197677
 51
273.55814928802317
  0
ARC
  5
444
  8
DATA
  6
CONTINUOUS
 62
     7
 10
-784.80344262881363
 20
-1088.4830761367409
 30
0.0
 40
3.7662601299257181
 50
266.4418483017929
 51
93.558151698207183
  0
LINE
  5
445
  8
DATA
  6
CONTINUOUS
 62
     7
 10
-785.03718249888777
 20
-1090.3625761367409
 30
0.0
 11
-785.03718249888777
 21
-1086.6035761367409
 31
0.0
  0
LINE
  5
446
  8
DATA
  6
CONTINUOUS
 62
     7
 10
-787.03718249888789
 20
-1088.4830761367409
 30
0.0
 11
-783.03718249888789
 21
-1088.4830761367409
 31
0.0
  0
ARC
  5
447
  8
DATA
  6
CONTINUOUS
 62
     7
 10
-785.27092237881345
 20
-1088.4830761367409
 30
0.0
 40
3.7662601200743082
 50
86.44185071197677
 51
273.55814928802317
  0
ARC
  5
448
  8
DATA
  6
CONTINUOUS
 62
     7
 10
-718.23632231083195
 20
-1151.0395274555649
 30
0.0
 40
3.7662601299257181
 50
266.4418483017929
 51
93.558151698207183
  0
LINE
  5
449
  8
DATA
  6
CONTINUOUS
 62
     7
 10
-718.4700621809061
 20
-1152.9190274555649
 30
0.0
 11
-718.4700621809061
 21
-1149.1600274555649
 31
0.0
  0
LINE
  5
44A
  8
DATA
  6
CONTINUOUS
 62
     7
 10
-720.4700621809061
 20
-1151.0395274555649
 30
0.0
 11
-716.47006218090598
 21
-1151.0395274555649
 31
0.0
  0
ARC
  5
44B
  8
DATA
  6
CONTINUOUS
 62
     7
 10
-718.70380206083166
 20
-1151.0395274555649
 30
0.0
 40
3.7662601200743082
 50
86.44185071197677
 51
273.55814928802317
  0
ARC
  5
44C
  8
DATA
  6
CONTINUOUS
 62
     7
 10
-678.83333278029738
 20
-1044.25
 30
0.0
 40
121.8679954489005
 50
86.503075955432266
 51
255.0777972721466
  0
ARC
  5
44D
  8
DATA
  6
CONTINUOUS
 62
     7
 10
-677.99358448273892
 20
-1044.25
 30
0.0
 40
106.72019219497579
 50
86.45779005754612
 51
258.666886054918
  0
ARC
  5
44E
  8
DATA
  6
CONTINUOUS
 62
     7
 10
-676.59317648629246
 20
-1044.25
 30
0.0
 40
90.606352708761946
 50
86.714245310279253
 51
265.32847221708607
  0
ARC
  5
44F
  8
DATA
  6
CONTINUOUS
 62
     7
 10
-676.59317648629246
 20
-1044.25
 30
0.0
 40
90.606352708761918
 50
273.28284750274338
 51
273.28575468972059
  0
ARC
  5
450
  8
DATA
  6
CONTINUOUS
 62
     7
 10
-676.048121293495
 20
-1044.25
 30
0.0
 40
77.156465697787183
 50
86.546250784079007
 51
273.45374921592099
  0
ARC
  5
451
  8
DATA
  6
CONTINUOUS
 62
     7
 10
-675.95707833112147
 20
-1044.2709830308199
 30
0.0
 40
73.82503921811842
 50
86.460991312844925
 51
273.5390086871551
  0
ARC
  5
452
  8
DATA
  6
CONTINUOUS
 62
     7
 10
-675.75043170450795
 20
-1044.195907447003
 30
0.0
 40
70.09485601408835
 50
86.441654979980655
 51
273.55834502001932
  0
ARC
  5
453
  8
DATA
  6
CONTINUOUS
 62
     7
 10
-675.5261580763746
 20
-1044.2489852022341
 30
0.0
 40
66.484953123625047
 50
86.441849506884097
 51
273.55815049311587
  0
ARC
  5
454
  8
DATA
  6
CONTINUOUS
 62
     7
 10
-675.29566459112414
 20
-1044.248985202235
 30
0.0
 40
62.771002208875139
 50
86.441849506884466
 51
273.55815049311559
  0
ARC
  5
455
  8
DATA
  6
CONTINUOUS
 62
     7
 10
-675.06517110587436
 20
-1044.2489852022341
 30
0.0
 40
59.057051294125039
 50
86.441849506884097
 51
273.55815049311587
  0
ARC
  5
456
  8
DATA
  6
CONTINUOUS
 62
     7
 10
-674.83467762062435
 20
-1044.2489852022341
 30
0.0
 40
55.343100379375151
 50
86.441849506883983
 51
273.55815049311599
  0
ARC
  5
457
  8
DATA
  6
CONTINUOUS
 62
     7
 10
-674.60418419853613
 20
-1044.248985202235
 30
0.0
 40
51.62914940146311
 50
86.441850634144046
 51
273.55814936585602
  0
ARC
  5
458
  8
DATA
  6
CONTINUOUS
 62
     7
 10
-674.37369069966564
 20
-1044.248985202235
 30
0.0
 40
47.915198500333453
 50
86.441850459591919
 51
273.55814954040812
  0
ARC
  5
459
  8
DATA
  6
CONTINUOUS
 62
     7
 10
-674.14319718531215
 20
-1044.2489852022341
 30
0.0
 40
44.201247614686807
 50
86.441849932948145
 51
273.55815006705183
  0
ARC
  5
45A
  8
DATA
  6
CONTINUOUS
 62
     7
 10
-673.91270370578115
 20
-1044.2489852022341
 30
0.0
 40
40.487296294218332
 50
86.441850634143535
 51
273.55814936585642
  0
ARC
  5
45B
  8
DATA
  6
CONTINUOUS
 62
     7
 10
-673.73739879925665
 20
-1044.2489852022341
 30
0.0
 40
37.662601200742948
 50
86.441850711974851
 51
273.55814928802511
  0
ARC
  5
45C
  8
DATA
  6
CONTINUOUS
 62
     7
 10
-663.96666725797695
 20
-1044.250754332932
 30
0.0
 40
121.8679954489005
 50
0.0003546467896027
 51
93.491109681794313
  0
ARC
  5
45D
  8
DATA
  6
CONTINUOUS
 62
     7
 10
-664.80641555121167
 20
-1044.250669115464
 30
0.0
 40
106.72019219497589
 50
353.49662634586582
 51
93.536395579680331
  0
ARC
  5
45E
  8
DATA
  6
CONTINUOUS
 62
     7
 10
-666.2068235404472
 20
-1044.2505270023771
 30
0.0
 40
90.60635270876179
 50
266.70843094750592
 51
266.71424532719698
  0
ARC
  5
45F
  8
DATA
  6
CONTINUOUS
 62
     7
 10
-666.2068235404472
 20
-1044.2505270023771
 30
0.0
 40
90.606352708761918
 50
341.71755266099831
 51
93.279940326947369
  0
ARC
  5
460
  8
DATA
  6
CONTINUOUS
 62
     7
 10
-666.75187873043842
 20
-1044.250471690299
 30
0.0
 40
77.156465697787141
 50
266.54043642130563
 51
269.98932976721483
  0
ARC
  5
461
  8
DATA
  6
CONTINUOUS
 62
     7
 10
-666.75187873043842
 20
-1044.250471690299
 30
0.0
 40
77.156465697787183
 50
325.81110602155093
 51
93.447934853147544
  0
ARC
  5
462
  8
DATA
  6
CONTINUOUS
 62
     7
 10
-666.84292382169644
 20
-1044.271445481992
 30
0.0
 40
73.825039218118349
 50
266.45517695007169
 51
274.2282104662645
  0
ARC
  5
463
  8
DATA
  6
CONTINUOUS
 62
     7
 10
-666.84292382169644
 20
-1044.271445481992
 30
0.0
 40
73.825039218118462
 50
319.5433285154806
 51
93.533194324381526
  0
ARC
  5
464
  8
DATA
  6
CONTINUOUS
 62
     7
 10
-667.04956282859257
 20
-1044.1963489281079
 30
0.0
 40
70.094856014088265
 50
266.43584061720719
 51
281.6160414675137
  0
ARC
  5
465
  8
DATA
  6
CONTINUOUS
 62
     7
 10
-667.04956282859257
 20
-1044.1963489281079
 30
0.0
 40
70.094856014088123
 50
308.02878435036399
 51
93.552530657245995
  0
ARC
  5
466
  8
DATA
  6
CONTINUOUS
 62
     7
 10
-667.27384184188963
 20
-1044.24940392383
 30
0.0
 40
66.484953123624805
 50
266.43603514411069
 51
93.552336130342525
  0
ARC
  5
467
  8
DATA
  6
CONTINUOUS
 62
     7
 10
-667.50433532595321
 20
-1044.2493805334029
 30
0.0
 40
62.771002208874982
 50
266.43603514411097
 51
93.55233613034224
  0
ARC
  5
468
  8
DATA
  6
CONTINUOUS
 62
     7
 10
-667.73482881001598
 20
-1044.2493571429759
 30
0.0
 40
59.057051294125429
 50
266.43603514411069
 51
93.552336130342425
  0
ARC
  5
469
  8
DATA
  6
CONTINUOUS
 62
     7
 10
-667.96532229407933
 20
-1044.2493337525491
 30
0.0
 40
55.343100379375201
 50
266.43603514411041
 51
93.552336130342653
  0
ARC
  5
46A
  8
DATA
  6
CONTINUOUS
 62
     7
 10
-668.19581571498065
 20
-1044.2493103621291
 30
0.0
 40
51.629149401462968
 50
266.4360362713706
 51
93.552335003082646
  0
ARC
  5
46B
  8
DATA
  6
CONTINUOUS
 62
     7
 10
-668.42630921266425
 20
-1044.2492869717009
 30
0.0
 40
47.915198500333616
 50
266.43603609681838
 51
93.552335177634774
  0
ARC
  5
46C
  8
DATA
  6
CONTINUOUS
 62
     7
 10
-668.65680272583086
 20
-1044.249263581271
 30
0.0
 40
44.201247614686721
 50
266.43603557017468
 51
93.552335704278505
  0
ARC
  5
46D
  8
DATA
  6
CONTINUOUS
 62
     7
 10
-668.88729620417519
 20
-1044.2492401908439
 30
0.0
 40
40.487296294218851
 50
266.43603627137031
 51
93.552335003082987
  0
ARC
  5
46E
  8
DATA
  6
CONTINUOUS
 62
     7
 10
-669.06260110979701
 20
-1044.249222400942
 30
0.0
 40
37.662601200742998
 50
266.43603634920157
 51
93.552334925251714
  0
LINE
  5
46F
  8
DATA
  6
CONTINUOUS
 62
     7
 10
-657.05499999999961
 20
-1159.408657199999
 30
0.0
 11
-657.05499999999961
 21
-1182.7850372
 31
0.0
  0
LINE
  5
470
  8
DATA
  6
CONTINUOUS
 62
     7
 10
-685.74499999999955
 20
-1182.7850372
 30
0.0
 11
-685.74499999999955
 21
-1159.408657199999
 31
0.0
  0
LINE
  5
471
  8
DATA
  6
CONTINUOUS
 62
     7
 10
-657.05499999999961
 20
-1182.7850372
 30
0.0
 11
-685.74499999999955
 21
-1182.7850372
 31
0.0
  0
LINE
  5
472
  8
DATA
  6
CONTINUOUS
 62
     7
 10
-685.74499999999955
 20
-1159.408657199999
 30
0.0
 11
-657.05499999999961
 21
-1159.408657199999
 31
0.0
  0
ARC
  5
473
  8
DATA
  6
CONTINUOUS
 62
     7
 10
382.60571600696261
 20
-1104.5061760857079
 30
0.0
 40
1.1476192133463221
 50
307.64190249757962
 51
354.26701928939048
  0
LINE
  5
474
  8
DATA
  6
CONTINUOUS
 62
     7
 10
353.1277230980989
 20
-1086.421554648449
 30
0.0
 11
358.50777909809892
 21
-1073.6023866484491
 31
0.0
  0
LINE
  5
475
  8
DATA
  6
CONTINUOUS
 62
     7
 10
353.1277230980989
 20
-1086.421554648449
 30
0.0
 11
347.81405109809918
 21
-1073.6023866484491
 31
0.0
  0
LINE
  5
476
  8
DATA
  6
CONTINUOUS
 62
     7
 10
393.90996309809913
 20
-1109.6023866484491
 30
0.0
 11
393.90996309809913
 21
-1073.6023866484491
 31
0.0
  0
LINE
  5
477
  8
DATA
  6
CONTINUOUS
 62
     7
 10
400.81771509809909
 20
-1073.6023866484491
 30
0.0
 11
400.81771509809909
 21
-1104.0894906484491
 31
0.0
  0
LINE
  5
478
  8
DATA
  6
CONTINUOUS
 62
     7
 10
361.03177509809922
 20
-1073.6023866484491
 30
0.0
 11
361.03177509809922
 21
-1104.0894906484491
 31
0.0
  0
LINE
  5
479
  8
DATA
  6
CONTINUOUS
 62
     7
 10
367.67384709809892
 20
-1073.6023866484491
 30
0.0
 11
367.67384709809892
 21
-1104.0894906484491
 31
0.0
  0
LINE
  5
47A
  8
DATA
  6
CONTINUOUS
 62
     7
 10
371.1277230980989
 20
-1073.6023866484491
 30
0.0
 11
371.1277230980989
 21
-1109.6023866484491
 31
0.0
  0
LINE
  5
47B
  8
DATA
  6
CONTINUOUS
 62
     7
 10
377.17201509809911
 20
-1076.9898066484491
 30
0.0
 11
377.17201509809911
 21
-1088.547030648449
 31
0.0
  0
LINE
  5
47C
  8
DATA
  6
CONTINUOUS
 62
     7
 10
390.12690309809892
 20
-1087.8782946484489
 30
0.0
 11
390.12690309809892
 21
-1079.447418648449
 31
0.0
  0
LINE
  5
47D
  8
DATA
  6
CONTINUOUS
 62
     7
 10
383.74759509809911
 20
-1078.5839226484491
 30
0.0
 11
383.74759509809911
 21
-1086.9529506484489
 31
0.0
  0
ARC
  5
47E
  8
DATA
  6
CONTINUOUS
 62
     7
 10
359.6989110980989
 20
-1100.3583066484489
 30
0.0
 40
9.2838723306036357
 50
264.6908562215358
 51
323.9911991542462
  0
LINE
  5
47F
  8
DATA
  6
CONTINUOUS
 62
     7
 10
355.98381909809888
 20
-1098.3108426484489
 30
0.0
 11
355.98381909809888
 21
-1104.0894186484491
 31
0.0
  0
LINE
  5
480
  8
DATA
  6
CONTINUOUS
 62
     7
 10
355.98381909809888
 20
-1098.3108426484489
 30
0.0
 11
350.00594709809911
 21
-1098.3108426484489
 31
0.0
  0
LINE
  5
481
  8
DATA
  6
CONTINUOUS
 62
     7
 10
350.00594709809911
 20
-1098.3108426484489
 30
0.0
 11
350.00594709809911
 21
-1104.0894186484491
 31
0.0
  0
ARC
  5
482
  8
DATA
  6
CONTINUOUS
 62
     7
 10
358.52045109809922
 20
-1104.167322648449
 30
0.0
 40
2.5125437744726402
 50
269.71184879274972
 51
1.775987005677848
  0
ARC
  5
483
  8
DATA
  6
CONTINUOUS
 62
     7
 10
358.49514309809922
 20
-1104.167322648449
 30
0.0
 40
2.5125309268546001
 50
178.22401299431721
 51
270.28815120724829
  0
ARC
  5
484
  8
DATA
  6
CONTINUOUS
 62
     7
 10
357.98088309809913
 20
-1100.3583066484489
 30
0.0
 40
9.2838572530077847
 50
216.00880084575689
 51
275.30914377846437
  0
ARC
  5
485
  8
DATA
  6
CONTINUOUS
 62
     7
 10
354.201531098099
 20
-1103.885910648449
 30
0.0
 40
4.200480749434317
 50
182.77699544999439
 51
207.35960666715329
  0
CIRCLE
  5
486
  8
DATA
  6
CONTINUOUS
 62
     7
 10
353.49305109809899
 20
-1091.403126648449
 30
0.0
 40
3.420647999999971
  0
LINE
  5
487
  8
DATA
  6
CONTINUOUS
 62
     7
 10
411.90996309809913
 20
-1109.602350648448
 30
0.0
 11
393.90996309809913
 21
-1109.602350648448
 31
0.0
  0
LINE
  5
488
  8
DATA
  6
CONTINUOUS
 62
     7
 10
411.90996309809913
 20
-1109.602350648448
 30
0.0
 11
411.90996309809913
 21
-1098.310806648449
 31
0.0
  0
LINE
  5
489
  8
DATA
  6
CONTINUOUS
 62
     7
 10
411.90996309809913
 20
-1098.3108426484489
 30
0.0
 11
405.86570709809911
 21
-1098.3108426484489
 31
0.0
  0
LINE
  5
48A
  8
DATA
  6
CONTINUOUS
 62
     7
 10
405.86570709809911
 20
-1098.3108426484489
 30
0.0
 11
405.86570709809911
 21
-1104.0894186484491
 31
0.0
  0
LINE
  5
48B
  8
DATA
  6
CONTINUOUS
 62
     7
 10
371.1277230980989
 20
-1109.602350648448
 30
0.0
 11
383.74759509809911
 21
-1109.602314648449
 31
0.0
  0
LINE
  5
48C
  8
DATA
  6
CONTINUOUS
 62
     7
 10
377.17197909809892
 20
-1106.214894648449
 30
0.0
 11
380.42659509809909
 21
-1106.214894648449
 31
0.0
  0
LINE
  5
48D
  8
DATA
  6
CONTINUOUS
 62
     7
 10
377.17201509809911
 20
-1106.214894648449
 30
0.0
 11
377.17201509809911
 21
-1092.0008706484491
 31
0.0
  0
LINE
  5
48E
  8
DATA
  6
CONTINUOUS
 62
     7
 10
377.17197909809892
 20
-1092.0008706484491
 30
0.0
 11
380.42659509809909
 21
-1092.0008706484491
 31
0.0
  0
LINE
  5
48F
  8
DATA
  6
CONTINUOUS
 62
     7
 10
383.74759509809911
 20
-1104.6208146484489
 30
0.0
 11
383.74759509809911
 21
-1093.594950648449
 31
0.0
  0
ARC
  5
490
  8
DATA
  6
CONTINUOUS
 62
     7
 10
363.47826309809892
 20
-1103.885910648449
 30
0.0
 40
4.2004747723145774
 50
332.64039333284501
 51
357.22300455000692
  0
ARC
  5
491
  8
DATA
  6
CONTINUOUS
 62
     7
 10
403.35434709809891
 20
-1104.167322648449
 30
0.0
 40
2.5125437744726402
 50
269.71184879274972
 51
1.775987005677848
  0
ARC
  5
492
  8
DATA
  6
CONTINUOUS
 62
     7
 10
403.32907509809911
 20
-1104.167322648449
 30
0.0
 40
2.5125309268546001
 50
178.22401299431721
 51
270.28815120724829
  0
LINE
  5
493
  8
DATA
  6
CONTINUOUS
 62
     7
 10
390.12398709809912
 20
-1103.8237386484491
 30
0.0
 11
390.12398709809912
 21
-1094.259186648449
 31
0.0
  0
LINE
  5
494
  8
DATA
  6
CONTINUOUS
 62
     7
 10
377.17197909809892
 20
-1088.547030648449
 30
0.0
 11
380.42659509809909
 21
-1088.547030648449
 31
0.0
  0
ARC
  5
495
  8
DATA
  6
CONTINUOUS
 62
     7
 10
383.28996309809889
 20
-1102.768218648449
 30
0.0
 40
6.849401082185044
 50
273.83098160911641
 51
351.13514730980188
  0
LINE
  5
496
  8
DATA
  6
CONTINUOUS
 62
     7
 10
361.03177509809922
 20
-1073.6023866484491
 30
0.0
 11
367.67384709809892
 21
-1073.6023866484491
 31
0.0
  0
LINE
  5
497
  8
DATA
  6
CONTINUOUS
 62
     7
 10
347.81405109809918
 20
-1073.6023866484491
 30
0.0
 11
358.50777909809892
 21
-1073.6023866484491
 31
0.0
  0
LINE
  5
498
  8
DATA
  6
CONTINUOUS
 62
     7
 10
393.90996309809913
 20
-1073.6023866484491
 30
0.0
 11
400.81771509809909
 21
-1073.6023866484491
 31
0.0
  0
LINE
  5
499
  8
DATA
  6
CONTINUOUS
 62
     7
 10
371.1277230980989
 20
-1073.6023866484491
 30
0.0
 11
383.8169675594271
 21
-1073.602415785914
 31
0.0
  0
LINE
  5
49A
  8
DATA
  6
CONTINUOUS
 62
     7
 10
377.17197909809892
 20
-1076.989842648449
 30
0.0
 11
380.42659509809909
 21
-1076.989842648449
 31
0.0
  0
ARC
  5
49B
  8
DATA
  6
CONTINUOUS
 62
     7
 10
383.35825509809888
 20
-1080.4260426484491
 30
0.0
 40
6.8390277584815262
 50
8.2269238590202711
 51
86.154126692152218
  0
ARC
  5
49C
  8
DATA
  6
CONTINUOUS
 62
     7
 10
380.46502676347052
 20
-1099.9016179903349
 30
0.0
 40
6.3133936321746038
 50
269.65121993761738
 51
282.82648280687198
  0
ARC
  5
49D
  8
DATA
  6
CONTINUOUS
 62
     7
 10
381.1741207969792
 20
-1102.570795768866
 30
0.0
 40
3.5547764532959079
 50
281.23310362265562
 51
306.8620088940645
  0
ARC
  5
49E
  8
DATA
  6
CONTINUOUS
 62
     7
 10
382.60571600696261
 20
-1093.70958921119
 30
0.0
 40
1.147619213346434
 50
5.7329807105747816
 51
52.358097502429658
  0
ARC
  5
49F
  8
DATA
  6
CONTINUOUS
 62
     7
 10
380.46502676347052
 20
-1098.3141473065621
 30
0.0
 40
6.3133936321738684
 50
77.173517193126656
 51
90.348780062382573
  0
ARC
  5
4A0
  8
DATA
  6
CONTINUOUS
 62
     7
 10
381.1741207969792
 20
-1095.644969528031
 30
0.0
 40
3.5547764532957071
 50
53.13799110593915
 51
78.766896377341865
  0
ARC
  5
4A1
  8
DATA
  6
CONTINUOUS
 62
     7
 10
386.6403390980991
 20
-1094.4946626484491
 30
0.0
 40
3.4915973900894639
 50
3.8670063598305449
 51
88.361634567900566
  0
ARC
  5
4A2
  8
DATA
  6
CONTINUOUS
 62
     7
 10
386.63713509809912
 20
-1087.5109506484489
 30
0.0
 40
3.495066983810788
 50
271.68928210464748
 51
356.07828298266492
  0
ARC
  5
4A3
  8
DATA
  6
CONTINUOUS
 62
     7
 10
382.60571600696261
 20
-1086.8383120857079
 30
0.0
 40
1.1476192133463221
 50
307.64190249757962
 51
354.26701928939048
  0
ARC
  5
4A4
  8
DATA
  6
CONTINUOUS
 62
     7
 10
380.46502676347052
 20
-1082.233753990336
 30
0.0
 40
6.3133936321746038
 50
269.65121993761738
 51
282.82648280687363
  0
ARC
  5
4A5
  8
DATA
  6
CONTINUOUS
 62
     7
 10
381.1741207969792
 20
-1084.9029317688669
 30
0.0
 40
3.5547764532950161
 50
281.23310362265852
 51
306.86200889406388
  0
ARC
  5
4A6
  8
DATA
  6
CONTINUOUS
 62
     7
 10
382.60571600696261
 20
-1078.6985612111901
 30
0.0
 40
1.1476192133465251
 50
5.7329807106199597
 51
52.358097502425139
  0
ARC
  5
4A7
  8
DATA
  6
CONTINUOUS
 62
     7
 10
380.46502676347052
 20
-1083.3031193065619
 30
0.0
 40
6.3133936321745319
 50
77.173517193128006
 51
90.348780062382573
  0
ARC
  5
4A8
  8
DATA
  6
CONTINUOUS
 62
     7
 10
381.1741207969792
 20
-1080.633941528032
 30
0.0
 40
3.5547764532957071
 50
53.13799110593915
 51
78.766896377344565
  0
ARC
  5
4A9
  8
DATA
  6
CONTINUOUS
 62
     7
 10
348.04579405720051
 20
-819.79907890112872
 30
0.0
 40
0.270965647595701
 50
307.6419024975757
 51
354.2670192893865
  0
LINE
  5
4AA
  8
DATA
  6
CONTINUOUS
 62
     7
 10
341.0857123981632
 20
-815.52909883955363
 30
0.0
 11
342.35600339816318
 21
-812.50235083955351
 31
0.0
  0
LINE
  5
4AB
  8
DATA
  6
CONTINUOUS
 62
     7
 10
341.0857123981632
 20
-815.52909883955363
 30
0.0
 11
339.8310953981632
 21
-812.50235083955351
 31
0.0
  0
LINE
  5
4AC
  8
DATA
  6
CONTINUOUS
 62
     7
 10
350.7148523981632
 20
-821.00235083955363
 30
0.0
 11
350.7148523981632
 21
-812.50235083955351
 31
0.0
  0
LINE
  5
4AD
  8
DATA
  6
CONTINUOUS
 62
     7
 10
352.34584939816318
 20
-812.50235083955351
 30
0.0
 11
352.34584939816318
 21
-819.70069483955365
 31
0.0
  0
LINE
  5
4AE
  8
DATA
  6
CONTINUOUS
 62
     7
 10
342.95194689816321
 20
-812.50235083955351
 30
0.0
 11
342.95194689816321
 21
-819.70069483955365
 31
0.0
  0
LINE
  5
4AF
  8
DATA
  6
CONTINUOUS
 62
     7
 10
344.52021389816321
 20
-812.50235083955351
 30
0.0
 11
344.52021389816321
 21
-819.70069483955365
 31
0.0
  0
LINE
  5
4B0
  8
DATA
  6
CONTINUOUS
 62
     7
 10
345.3357123981632
 20
-812.50235083955351
 30
0.0
 11
345.3357123981632
 21
-821.00235083955363
 31
0.0
  0
LINE
  5
4B1
  8
DATA
  6
CONTINUOUS
 62
     7
 10
346.76283689816319
 20
-813.30215833955367
 30
0.0
 11
346.76283689816319
 21
-816.03094733955368
 31
0.0
  0
LINE
  5
4B2
  8
DATA
  6
CONTINUOUS
 62
     7
 10
349.82162989816322
 20
-815.87305133955363
 30
0.0
 11
349.82162989816322
 21
-813.88242783955366
 31
0.0
  0
LINE
  5
4B3
  8
DATA
  6
CONTINUOUS
 62
     7
 10
348.3154043981632
 20
-813.67854683955375
 30
0.0
 11
348.3154043981632
 21
-815.65456733955364
 31
0.0
  0
ARC
  5
4B4
  8
DATA
  6
CONTINUOUS
 62
     7
 10
342.63724289816321
 20
-818.81972083955372
 30
0.0
 40
2.1920254113925499
 50
264.69085622153472
 51
323.99119915424569
  0
LINE
  5
4B5
  8
DATA
  6
CONTINUOUS
 62
     7
 10
341.76006839816318
 20
-818.33629183955384
 30
0.0
 11
341.76006839816318
 21
-819.70067783955358
 31
0.0
  0
LINE
  5
4B6
  8
DATA
  6
CONTINUOUS
 62
     7
 10
341.76006839816318
 20
-818.33629183955384
 30
0.0
 11
340.34862639816322
 21
-818.33629183955384
 31
0.0
  0
LINE
  5
4B7
  8
DATA
  6
CONTINUOUS
 62
     7
 10
340.34862639816322
 20
-818.33629183955384
 30
0.0
 11
340.34862639816322
 21
-819.70067783955358
 31
0.0
  0
ARC
  5
4B8
  8
DATA
  6
CONTINUOUS
 62
     7
 10
342.3589953981633
 20
-819.71907183955352
 30
0.0
 40
0.5932395023060401
 50
269.71184879274813
 51
1.7759870056809171
  0
ARC
  5
4B9
  8
DATA
  6
CONTINUOUS
 62
     7
 10
342.35301989816321
 20
-819.71907183955352
 30
0.0
 40
0.593236468840654
 50
178.22401299432249
 51
270.2881512072513
  0
ARC
  5
4BA
  8
DATA
  6
CONTINUOUS
 62
     7
 10
342.23159739816322
 20
-818.81972083955372
 30
0.0
 40
2.192021851404597
 50
216.00880084575729
 51
275.3091437784642
  0
ARC
  5
4BB
  8
DATA
  6
CONTINUOUS
 62
     7
 10
341.33925039816319
 20
-819.65262733955353
 30
0.0
 40
0.9917801769497533
 50
182.77699544999629
 51
207.35960666715761
  0
CIRCLE
  5
4BC
  8
DATA
  6
CONTINUOUS
 62
     7
 10
341.17197039816318
 20
-816.70530333955378
 30
0.0
 40
0.8076529999999593
  0
LINE
  5
4BD
  8
DATA
  6
CONTINUOUS
 62
     7
 10
354.9648523981632
 20
-821.00234233955359
 30
0.0
 11
350.7148523981632
 21
-821.00234233955359
 31
0.0
  0
LINE
  5
4BE
  8
DATA
  6
CONTINUOUS
 62
     7
 10
354.9648523981632
 20
-821.00234233955359
 30
0.0
 11
354.9648523981632
 21
-818.33628333955357
 31
0.0
  0
LINE
  5
4BF
  8
DATA
  6
CONTINUOUS
 62
     7
 10
354.9648523981632
 20
-818.33629183955384
 30
0.0
 11
353.53773639816319
 21
-818.33629183955384
 31
0.0
  0
LINE
  5
4C0
  8
DATA
  6
CONTINUOUS
 62
     7
 10
353.53773639816319
 20
-818.33629183955384
 30
0.0
 11
353.53773639816319
 21
-819.70067783955358
 31
0.0
  0
LINE
  5
4C1
  8
DATA
  6
CONTINUOUS
 62
     7
 10
345.3357123981632
 20
-821.00234233955359
 30
0.0
 11
348.3154043981632
 21
-821.00233383955356
 31
0.0
  0
LINE
  5
4C2
  8
DATA
  6
CONTINUOUS
 62
     7
 10
346.76282839816321
 20
-820.20252633955374
 30
0.0
 11
347.53127939816329
 21
-820.20252633955374
 31
0.0
  0
LINE
  5
4C3
  8
DATA
  6
CONTINUOUS
 62
     7
 10
346.76283689816319
 20
-820.20252633955374
 30
0.0
 11
346.76283689816319
 21
-816.84643733955363
 31
0.0
  0
LINE
  5
4C4
  8
DATA
  6
CONTINUOUS
 62
     7
 10
346.76282839816321
 20
-816.84643733955363
 30
0.0
 11
347.53127939816329
 21
-816.84643733955363
 31
0.0
  0
LINE
  5
4C5
  8
DATA
  6
CONTINUOUS
 62
     7
 10
348.3154043981632
 20
-819.8261463395537
 30
0.0
 11
348.3154043981632
 21
-817.22281733955379
 31
0.0
  0
ARC
  5
4C6
  8
DATA
  6
CONTINUOUS
 62
     7
 10
343.52958989816318
 20
-819.65262733955353
 30
0.0
 40
0.991778765685394
 50
332.64039333284501
 51
357.2230045500043
  0
ARC
  5
4C7
  8
DATA
  6
CONTINUOUS
 62
     7
 10
352.94477639816319
 20
-819.71907183955352
 30
0.0
 40
0.59323950230604
 50
269.7118487927537
 51
1.77598700568086
  0
ARC
  5
4C8
  8
DATA
  6
CONTINUOUS
 62
     7
 10
352.9388093981633
 20
-819.71907183955352
 30
0.0
 40
0.593236468840654
 50
178.22401299432249
 51
270.28815120724568
  0
LINE
  5
4C9
  8
DATA
  6
CONTINUOUS
 62
     7
 10
349.8209413981632
 20
-819.63794783955359
 30
0.0
 11
349.8209413981632
 21
-817.37965083955362
 31
0.0
  0
LINE
  5
4CA
  8
DATA
  6
CONTINUOUS
 62
     7
 10
346.76282839816321
 20
-816.03094733955368
 30
0.0
 11
347.53127939816329
 21
-816.03094733955368
 31
0.0
  0
ARC
  5
4CB
  8
DATA
  6
CONTINUOUS
 62
     7
 10
348.20735239816321
 20
-819.38872783955367
 30
0.0
 40
1.617219699960291
 50
273.8309816091168
 51
351.13514730980171
  0
LINE
  5
4CC
  8
DATA
  6
CONTINUOUS
 62
     7
 10
342.95194689816321
 20
-812.50235083955351
 30
0.0
 11
344.52021389816321
 21
-812.50235083955351
 31
0.0
  0
LINE
  5
4CD
  8
DATA
  6
CONTINUOUS
 62
     7
 10
339.8310953981632
 20
-812.50235083955351
 30
0.0
 11
342.35600339816318
 21
-812.50235083955351
 31
0.0
  0
LINE
  5
4CE
  8
DATA
  6
CONTINUOUS
 62
     7
 10
350.7148523981632
 20
-812.50235083955351
 30
0.0
 11
352.34584939816318
 21
-812.50235083955351
 31
0.0
  0
LINE
  5
4CF
  8
DATA
  6
CONTINUOUS
 62
     7
 10
345.3357123981632
 20
-812.50235083955351
 30
0.0
 11
348.33178400708778
 21
-812.50235771923315
 31
0.0
  0
LINE
  5
4D0
  8
DATA
  6
CONTINUOUS
 62
     7
 10
346.76282839816321
 20
-813.30216683955371
 30
0.0
 11
347.53127939816329
 21
-813.30216683955371
 31
0.0
  0
ARC
  5
4D1
  8
DATA
  6
CONTINUOUS
 62
     7
 10
348.2234768981632
 20
-814.1134918395536
 30
0.0
 40
1.6147704429748231
 50
8.2269238590177984
 51
86.154126692152218
  0
ARC
  5
4D2
  8
DATA
  6
CONTINUOUS
 62
     7
 10
347.54035354137602
 20
-818.71189157305469
 30
0.0
 40
1.490662385374502
 50
269.65121993761778
 51
282.82648280687238
  0
ARC
  5
4D3
  8
DATA
  6
CONTINUOUS
 62
     7
 10
347.70777852150991
 20
-819.34211410409682
 30
0.0
 40
0.8393222181393134
 50
281.23310362265619
 51
306.86200889405433
  0
ARC
  5
4D4
  8
DATA
  6
CONTINUOUS
 62
     7
 10
348.04579405720051
 20
-817.24988477797854
 30
0.0
 40
0.2709656475956956
 50
5.7329807105651787
 51
52.358097502424329
  0
ARC
  5
4D5
  8
DATA
  6
CONTINUOUS
 62
     7
 10
347.54035354137602
 20
-818.33707210605246
 30
0.0
 40
1.490662385374385
 50
77.173517193126656
 51
90.348780062382204
  0
ARC
  5
4D6
  8
DATA
  6
CONTINUOUS
 62
     7
 10
347.70777852150991
 20
-817.70684957501055
 30
0.0
 40
0.8393222181392651
 50
53.137991105937999
 51
78.766896377343812
  0
ARC
  5
4D7
  8
DATA
  6
CONTINUOUS
 62
     7
 10
348.99841339816322
 20
-817.43524933955359
 30
0.0
 40
0.824404939326677
 50
3.867006359828137
 51
88.361634567901433
  0
ARC
  5
4D8
  8
DATA
  6
CONTINUOUS
 62
     7
 10
348.9976568981632
 20
-815.78631733955365
 30
0.0
 40
0.8252241489553247
 50
271.68928210464668
 51
356.07828298266332
  0
ARC
  5
4D9
  8
DATA
  6
CONTINUOUS
 62
     7
 10
348.04579405720051
 20
-815.62749990112889
 30
0.0
 40
0.2709656475956111
 50
307.64190249759042
 51
354.26701928938462
  0
ARC
  5
4DA
  8
DATA
  6
CONTINUOUS
 62
     7
 10
347.54035354137602
 20
-814.54031257305485
 30
0.0
 40
1.490662385374502
 50
269.65121993761778
 51
282.82648280687238
  0
ARC
  5
4DB
  8
DATA
  6
CONTINUOUS
 62
     7
 10
347.70777852150991
 20
-815.17053510409664
 30
0.0
 40
0.8393222181390903
 50
281.2331036226592
 51
306.86200889406052
  0
ARC
  5
4DC
  8
DATA
  6
CONTINUOUS
 62
     7
 10
348.04579405720051
 20
-813.70561427797895
 30
0.0
 40
0.2709656475957183
 50
5.7329807106130168
 51
52.35809750242435
  0
ARC
  5
4DD
  8
DATA
  6
CONTINUOUS
 62
     7
 10
347.54035354137602
 20
-814.79280160605254
 30
0.0
 40
1.4906623853746059
 50
77.173517193128575
 51
90.348780062382147
  0
ARC
  5
4DE
  8
DATA
  6
CONTINUOUS
 62
     7
 10
347.70777852150991
 20
-814.1625790750104
 30
0.0
 40
0.8393222181391742
 50
53.137991105933338
 51
78.766896377342306
  0
ARC
  5
4DF
  8
DATA
  6
CONTINUOUS
 62
     7
 10
-670.91921863642642
 20
-1174.6757031547929
 30
0.0
 40
0.3187831148184466
 50
307.64190249757769
 51
354.26701928938797
  0
LINE
  5
4E0
  8
DATA
  6
CONTINUOUS
 62
     7
 10
-679.10754999999961
 20
-1169.6521971999989
 30
0.0
 11
-677.6130899999996
 21
-1166.0913171999989
 31
0.0
  0
LINE
  5
4E1
  8
DATA
  6
CONTINUOUS
 62
     7
 10
-679.10754999999961
 20
-1169.6521971999989
 30
0.0
 11
-680.58356999999955
 21
-1166.0913171999989
 31
0.0
  0
LINE
  5
4E2
  8
DATA
  6
CONTINUOUS
 62
     7
 10
-667.77914999999962
 20
-1176.0913172
 30
0.0
 11
-667.77914999999962
 21
-1166.0913171999989
 31
0.0
  0
LINE
  5
4E3
  8
DATA
  6
CONTINUOUS
 62
     7
 10
-665.86032999999964
 20
-1166.0913171999989
 30
0.0
 11
-665.86032999999964
 21
-1174.559957199999
 31
0.0
  0
LINE
  5
4E4
  8
DATA
  6
CONTINUOUS
 62
     7
 10
-676.91197999999963
 20
-1166.0913171999989
 30
0.0
 11
-676.91197999999963
 21
-1174.559957199999
 31
0.0
  0
LINE
  5
4E5
  8
DATA
  6
CONTINUOUS
 62
     7
 10
-675.06695999999965
 20
-1166.0913171999989
 30
0.0
 11
-675.06695999999965
 21
-1174.559957199999
 31
0.0
  0
LINE
  5
4E6
  8
DATA
  6
CONTINUOUS
 62
     7
 10
-674.10754999999961
 20
-1166.0913171999989
 30
0.0
 11
-674.10754999999961
 21
-1176.0913172
 31
0.0
  0
LINE
  5
4E7
  8
DATA
  6
CONTINUOUS
 62
     7
 10
-672.42857999999956
 20
-1167.0322671999991
 30
0.0
 11
-672.42857999999956
 21
-1170.2426071999989
 31
0.0
  0
LINE
  5
4E8
  8
DATA
  6
CONTINUOUS
 62
     7
 10
-668.82999999999959
 20
-1170.0568472
 30
0.0
 11
-668.82999999999959
 21
-1167.714937199999
 31
0.0
  0
LINE
  5
4E9
  8
DATA
  6
CONTINUOUS
 62
     7
 10
-670.60202999999956
 20
-1167.4750771999991
 30
0.0
 11
-670.60202999999956
 21
-1169.7998072
 31
0.0
  0
ARC
  5
4EA
  8
DATA
  6
CONTINUOUS
 62
     7
 10
-677.28221999999948
 20
-1173.5235172
 30
0.0
 40
2.5788534251676989
 50
264.69085622153318
 51
323.99119915424359
  0
LINE
  5
4EB
  8
DATA
  6
CONTINUOUS
 62
     7
 10
-678.31418999999948
 20
-1172.9547771999989
 30
0.0
 11
-678.31418999999948
 21
-1174.559937199999
 31
0.0
  0
LINE
  5
4EC
  8
DATA
  6
CONTINUOUS
 62
     7
 10
-678.31418999999948
 20
-1172.9547771999989
 30
0.0
 11
-679.97470999999962
 21
-1172.9547771999989
 31
0.0
  0
LINE
  5
4ED
  8
DATA
  6
CONTINUOUS
 62
     7
 10
-679.97470999999962
 20
-1172.9547771999989
 30
0.0
 11
-679.97470999999962
 21
-1174.559937199999
 31
0.0
  0
ARC
  5
4EE
  8
DATA
  6
CONTINUOUS
 62
     7
 10
-677.60956999999962
 20
-1174.5815771999989
 30
0.0
 40
0.6979288262424001
 50
269.71184879275029
 51
1.7759870056818841
  0
ARC
  5
4EF
  8
DATA
  6
CONTINUOUS
 62
     7
 10
-677.61659999999961
 20
-1174.5815771999989
 30
0.0
 40
0.6979252574595547
 50
178.22401299431701
 51
270.28815120724312
  0
ARC
  5
4F0
  8
DATA
  6
CONTINUOUS
 62
     7
 10
-677.75944999999956
 20
-1173.5235172
 30
0.0
 40
2.5788492369465641
 50
216.00880084575761
 51
275.30914377846682
  0
ARC
  5
4F1
  8
DATA
  6
CONTINUOUS
 62
     7
 10
-678.80926999999963
 20
-1174.5034071999989
 30
0.0
 40
1.1668002081762081
 50
182.7769954499968
 51
207.3596066671515
  0
CIRCLE
  5
4F2
  8
DATA
  6
CONTINUOUS
 62
     7
 10
-679.00606999999957
 20
-1171.035967199999
 30
0.0
 40
0.9501800000000457
  0
LINE
  5
4F3
  8
DATA
  6
CONTINUOUS
 62
     7
 10
-662.77914999999962
 20
-1176.0913071999989
 30
0.0
 11
-667.77914999999962
 21
-1176.0913071999989
 31
0.0
  0
LINE
  5
4F4
  8
DATA
  6
CONTINUOUS
 62
     7
 10
-662.77914999999962
 20
-1176.0913071999989
 30
0.0
 11
-662.77914999999962
 21
-1172.9547672000001
 31
0.0
  0
LINE
  5
4F5
  8
DATA
  6
CONTINUOUS
 62
     7
 10
-662.77914999999962
 20
-1172.9547771999989
 30
0.0
 11
-664.45810999999958
 21
-1172.9547771999989
 31
0.0
  0
LINE
  5
4F6
  8
DATA
  6
CONTINUOUS
 62
     7
 10
-664.45810999999958
 20
-1172.9547771999989
 30
0.0
 11
-664.45810999999958
 21
-1174.559937199999
 31
0.0
  0
LINE
  5
4F7
  8
DATA
  6
CONTINUOUS
 62
     7
 10
-674.10754999999961
 20
-1176.0913071999989
 30
0.0
 11
-670.60202999999956
 21
-1176.091297199999
 31
0.0
  0
LINE
  5
4F8
  8
DATA
  6
CONTINUOUS
 62
     7
 10
-672.42858999999964
 20
-1175.150347199999
 30
0.0
 11
-671.52452999999946
 21
-1175.150347199999
 31
0.0
  0
LINE
  5
4F9
  8
DATA
  6
CONTINUOUS
 62
     7
 10
-672.42857999999956
 20
-1175.150347199999
 30
0.0
 11
-672.42857999999956
 21
-1171.2020072
 31
0.0
  0
LINE
  5
4FA
  8
DATA
  6
CONTINUOUS
 62
     7
 10
-672.42858999999964
 20
-1171.2020072
 30
0.0
 11
-671.52452999999946
 21
-1171.2020072
 31
0.0
  0
LINE
  5
4FB
  8
DATA
  6
CONTINUOUS
 62
     7
 10
-670.60202999999956
 20
-1174.707547199999
 30
0.0
 11
-670.60202999999956
 21
-1171.6448071999989
 31
0.0
  0
ARC
  5
4FC
  8
DATA
  6
CONTINUOUS
 62
     7
 10
-676.23239999999964
 20
-1174.5034071999989
 30
0.0
 40
1.166798547865157
 50
332.64039333284478
 51
357.22300455000573
  0
ARC
  5
4FD
  8
DATA
  6
CONTINUOUS
 62
     7
 10
-665.15570999999966
 20
-1174.5815771999989
 30
0.0
 40
0.6979288262424001
 50
269.71184879275029
 51
1.7759870056818841
  0
ARC
  5
4FE
  8
DATA
  6
CONTINUOUS
 62
     7
 10
-665.16272999999956
 20
-1174.5815771999989
 30
0.0
 40
0.6979252574595547
 50
178.22401299431701
 51
270.28815120725238
  0
LINE
  5
4FF
  8
DATA
  6
CONTINUOUS
 62
     7
 10
-668.83080999999947
 20
-1174.4861372
 30
0.0
 11
-668.83080999999947
 21
-1171.8293172000001
 31
0.0
  0
LINE
  5
500
  8
DATA
  6
CONTINUOUS
 62
     7
 10
-672.42858999999964
 20
-1170.2426071999989
 30
0.0
 11
-671.52452999999946
 21
-1170.2426071999989
 31
0.0
  0
ARC
  5
501
  8
DATA
  6
CONTINUOUS
 62
     7
 10
-670.72914999999955
 20
-1174.1929371999991
 30
0.0
 40
1.9026114117180259
 50
273.83098160911482
 51
351.13514730980171
  0
LINE
  5
502
  8
DATA
  6
CONTINUOUS
 62
     7
 10
-676.91197999999963
 20
-1166.0913171999989
 30
0.0
 11
-675.06695999999965
 21
-1166.0913171999989
 31
0.0
  0
LINE
  5
503
  8
DATA
  6
CONTINUOUS
 62
     7
 10
-680.58356999999955
 20
-1166.0913171999989
 30
0.0
 11
-677.6130899999996
 21
-1166.0913171999989
 31
0.0
  0
LINE
  5
504
  8
DATA
  6
CONTINUOUS
 62
     7
 10
-667.77914999999962
 20
-1166.0913171999989
 30
0.0
 11
-665.86032999999964
 21
-1166.0913171999989
 31
0.0
  0
LINE
  5
505
  8
DATA
  6
CONTINUOUS
 62
     7
 10
-674.10754999999961
 20
-1166.0913171999989
 30
0.0
 11
-670.582759871853
 21
-1166.0913252937401
 31
0.0
  0
LINE
  5
506
  8
DATA
  6
CONTINUOUS
 62
     7
 10
-672.42858999999964
 20
-1167.032277199999
 30
0.0
 11
-671.52452999999946
 21
-1167.032277199999
 31
0.0
  0
ARC
  5
507
  8
DATA
  6
CONTINUOUS
 62
     7
 10
-670.71017999999947
 20
-1167.9867772
 30
0.0
 40
1.8997299329115289
 50
8.2269238590191414
 51
86.154126692155344
  0
ARC
  5
508
  8
DATA
  6
CONTINUOUS
 62
     7
 10
-671.51385453739636
 20
-1173.396659239412
 30
0.0
 40
1.7537204533818349
 50
269.65121993761392
 51
282.8264828068717
  0
ARC
  5
509
  8
DATA
  6
CONTINUOUS
 62
     7
 10
-671.31688397253288
 20
-1174.1380975112261
 30
0.0
 40
0.9874379036933291
 50
281.23310362266199
 51
306.86200889406479
  0
ARC
  5
50A
  8
DATA
  6
CONTINUOUS
 62
     7
 10
-670.91921863642642
 20
-1171.676651245205
 30
0.0
 40
0.3187831148183949
 50
5.732980710571284
 51
52.358097502422339
  0
ARC
  5
50B
  8
DATA
  6
CONTINUOUS
 62
     7
 10
-671.51385453739636
 20
-1172.9556951605859
 30
0.0
 40
1.7537204533816291
 50
77.173517193126656
 51
90.348780062386126
  0
ARC
  5
50C
  8
DATA
  6
CONTINUOUS
 62
     7
 10
-671.31688397253288
 20
-1172.2142568887721
 30
0.0
 40
0.9874379036932557
 50
53.1379911059352
 51
78.766896377338114
  0
ARC
  5
50D
  8
DATA
  6
CONTINUOUS
 62
     7
 10
-669.79848999999967
 20
-1171.8947271999989
 30
0.0
 40
0.9698881639138548
 50
3.8670063598308371
 51
88.361634567897383
  0
ARC
  5
50E
  8
DATA
  6
CONTINUOUS
 62
     7
 10
-669.79937999999959
 20
-1169.9548071999991
 30
0.0
 40
0.9708519399474397
 50
271.68928210464469
 51
356.07828298266418
  0
ARC
  5
50F
  8
DATA
  6
CONTINUOUS
 62
     7
 10
-670.91921863642642
 20
-1169.767963154794
 30
0.0
 40
0.3187831148184466
 50
307.64190249757769
 51
354.26701928938797
  0
ARC
  5
510
  8
DATA
  6
CONTINUOUS
 62
     7
 10
-671.51385453739636
 20
-1168.488919239413
 30
0.0
 40
1.7537204533818349
 50
269.65121993761392
 51
282.8264828068717
  0
ARC
  5
511
  8
DATA
  6
CONTINUOUS
 62
     7
 10
-671.31688397253288
 20
-1169.2303575112271
 30
0.0
 40
0.9874379036931062
 50
281.2331036226646
 51
306.86200889407269
  0
ARC
  5
512
  8
DATA
  6
CONTINUOUS
 62
     7
 10
-670.91921863642642
 20
-1167.5069212452049
 30
0.0
 40
0.3187831148184176
 50
5.7329807106119457
 51
52.358097502422339
  0
ARC
  5
513
  8
DATA
  6
CONTINUOUS
 62
     7
 10
-671.51385453739636
 20
-1168.7859651605861
 30
0.0
 40
1.7537204533818509
 50
77.173517193128305
 51
90.348780062386055
  0
ARC
  5
514
  8
DATA
  6
CONTINUOUS
 62
     7
 10
-671.31688397253288
 20
-1168.044526888772
 30
0.0
 40
0.9874379036932557
 50
53.1379911059352
 51
78.766896377338114
  0
ENDSEC
  0
EOF
