  0
SECTION
  2
HEADER
  9
$ACADVER
  1
AC1015
  9
$ACADMAINTVER
 70
    20
  9
$DWGCODEPAGE
  3
ANSI_932
  9
$INSBASE
 10
0.0
 20
0.0
 30
0.0
  9
$EXTMIN
 10
1874.888164262011
 20
-509.3219693756646
 30
-0.0015258207003583
  9
$EXTMAX
 10
4575.039837454414
 20
3505.128996572795
 30
0.0000000349246037
  9
$LIMMIN
 10
0.0
 20
0.0
  9
$LIMMAX
 10
0.0
 20
0.0
  9
$ORTHOMODE
 70
     0
  9
$REGENMODE
 70
     1
  9
$FILLMODE
 70
     1
  9
$QTEXTMODE
 70
     0
  9
$MIRRTEXT
 70
     1
  9
$LTSCALE
 40
190.5
  9
$ATTMODE
 70
     1
  9
$TEXTSIZE
 40
0.0
  9
$TRACEWID
 40
1.0
  9
$TEXTSTYLE
  7
STANDARD
  9
$CLAYER
  8
DATA
  9
$CELTYPE
  6
ByLayer
  9
$CECOLOR
 62
   256
  9
$CELTSCALE
 40
1.0
  9
$DISPSILH
 70
     0
  9
$DIMSCALE
 40
1.0
  9
$DIMASZ
 40
0.18
  9
$DIMEXO
 40
0.0625
  9
$DIMDLI
 40
0.38
  9
$DIMRND
 40
0.0
  9
$DIMDLE
 40
0.0
  9
$DIMEXE
 40
0.18
  9
$DIMTP
 40
0.0
  9
$DIMTM
 40
0.0
  9
$DIMTXT
 40
0.18
  9
$DIMCEN
 40
0.09
  9
$DIMTSZ
 40
0.0
  9
$DIMTOL
 70
     0
  9
$DIMLIM
 70
     0
  9
$DIMTIH
 70
     1
  9
$DIMTOH
 70
     1
  9
$DIMSE1
 70
     0
  9
$DIMSE2
 70
     0
  9
$DIMTAD
 70
     0
  9
$DIMZIN
 70
     0
  9
$DIMBLK
  1

  9
$DIMASO
 70
     1
  9
$DIMSHO
 70
     1
  9
$DIMPOST
  1

  9
$DIMAPOST
  1

  9
$DIMALT
 70
     0
  9
$DIMALTD
 70
     2
  9
$DIMALTF
 40
25.4
  9
$DIMLFAC
 40
1.0
  9
$DIMTOFL
 70
     0
  9
$DIMTVP
 40
0.0
  9
$DIMTIX
 70
     0
  9
$DIMSOXD
 70
     0
  9
$DIMSAH
 70
     0
  9
$DIMBLK1
  1

  9
$DIMBLK2
  1

  9
$DIMSTYLE
  2
STANDARD
  9
$DIMCLRD
 70
     0
  9
$DIMCLRE
 70
     0
  9
$DIMCLRT
 70
     0
  9
$DIMTFAC
 40
1.0
  9
$DIMGAP
 40
0.09
  9
$DIMJUST
 70
     0
  9
$DIMSD1
 70
     0
  9
$DIMSD2
 70
     0
  9
$DIMTOLJ
 70
     1
  9
$DIMTZIN
 70
     0
  9
$DIMALTZ
 70
     0
  9
$DIMALTTZ
 70
     0
  9
$DIMUPT
 70
     0
  9
$DIMDEC
 70
     4
  9
$DIMTDEC
 70
     4
  9
$DIMALTU
 70
     2
  9
$DIMALTTD
 70
     2
  9
$DIMTXSTY
  7
STANDARD
  9
$DIMAUNIT
 70
     0
  9
$DIMADEC
 70
     0
  9
$DIMALTRND
 40
0.0
  9
$DIMAZIN
 70
     0
  9
$DIMDSEP
 70
    46
  9
$DIMATFIT
 70
     3
  9
$DIMFRAC
 70
     0
  9
$DIMLDRBLK
  1

  9
$DIMLUNIT
 70
     2
  9
$DIMLWD
 70
    -2
  9
$DIMLWE
 70
    -2
  9
$DIMTMOVE
 70
     0
  9
$LUNITS
 70
     2
  9
$LUPREC
 70
     4
  9
$SKETCHINC
 40
0.1
  9
$FILLETRAD
 40
0.0
  9
$AUNITS
 70
     0
  9
$AUPREC
 70
     0
  9
$MENU
  1
acad
  9
$ELEVATION
 40
0.0
  9
$PELEVATION
 40
0.0
  9
$THICKNESS
 40
0.0
  9
$LIMCHECK
 70
     0
  9
$CHAMFERA
 40
0.0
  9
$CHAMFERB
 40
0.0
  9
$CHAMFERC
 40
0.0
  9
$CHAMFERD
 40
0.0
  9
$SKPOLY
 70
     0
  9
$TDCREATE
 40
2457557.542627315
  9
$TDUCREATE
 40
2457557.167627315
  9
$TDUPDATE
 40
2457557.580937500
  9
$TDUUPDATE
 40
2457557.205937500
  9
$TDINDWG
 40
0.0003587963
  9
$TDUSRTIMER
 40
0.0003587963
  9
$USRTIMER
 70
     1
  9
$ANGBASE
 50
0.0
  9
$ANGDIR
 70
     0
  9
$PDMODE
 70
     1
  9
$PDSIZE
 40
-2.0
  9
$PLINEWID
 40
0.0
  9
$SPLFRAME
 70
     0
  9
$SPLINETYPE
 70
     6
  9
$SPLINESEGS
 70
     8
  9
$HANDSEED
  5
428
  9
$SURFTAB1
 70
     6
  9
$SURFTAB2
 70
     6
  9
$SURFTYPE
 70
     6
  9
$SURFU
 70
     6
  9
$SURFV
 70
     6
  9
$UCSBASE
  2

  9
$UCSNAME
  2

  9
$UCSORG
 10
0.0
 20
0.0
 30
0.0
  9
$UCSXDIR
 10
1.0
 20
0.0
 30
0.0
  9
$UCSYDIR
 10
0.0
 20
1.0
 30
0.0
  9
$UCSORTHOREF
  2

  9
$UCSORTHOVIEW
 70
     0
  9
$UCSORGTOP
 10
0.0
 20
0.0
 30
0.0
  9
$UCSORGBOTTOM
 10
0.0
 20
0.0
 30
0.0
  9
$UCSORGLEFT
 10
0.0
 20
0.0
 30
0.0
  9
$UCSORGRIGHT
 10
0.0
 20
0.0
 30
0.0
  9
$UCSORGFRONT
 10
0.0
 20
0.0
 30
0.0
  9
$UCSORGBACK
 10
0.0
 20
0.0
 30
0.0
  9
$PUCSBASE
  2

  9
$PUCSNAME
  2

  9
$PUCSORG
 10
0.0
 20
0.0
 30
0.0
  9
$PUCSXDIR
 10
1.0
 20
0.0
 30
0.0
  9
$PUCSYDIR
 10
0.0
 20
1.0
 30
0.0
  9
$PUCSORTHOREF
  2

  9
$PUCSORTHOVIEW
 70
     0
  9
$PUCSORGTOP
 10
0.0
 20
0.0
 30
0.0
  9
$PUCSORGBOTTOM
 10
0.0
 20
0.0
 30
0.0
  9
$PUCSORGLEFT
 10
0.0
 20
0.0
 30
0.0
  9
$PUCSORGRIGHT
 10
0.0
 20
0.0
 30
0.0
  9
$PUCSORGFRONT
 10
0.0
 20
0.0
 30
0.0
  9
$PUCSORGBACK
 10
0.0
 20
0.0
 30
0.0
  9
$USERI1
 70
     0
  9
$USERI2
 70
     0
  9
$USERI3
 70
     0
  9
$USERI4
 70
     0
  9
$USERI5
 70
     0
  9
$USERR1
 40
0.0
  9
$USERR2
 40
0.0
  9
$USERR3
 40
0.0
  9
$USERR4
 40
0.0
  9
$USERR5
 40
0.0
  9
$WORLDVIEW
 70
     1
  9
$SHADEDGE
 70
     3
  9
$SHADEDIF
 70
    70
  9
$TILEMODE
 70
     1
  9
$MAXACTVP
 70
    64
  9
$PINSBASE
 10
0.0
 20
0.0
 30
0.0
  9
$PLIMCHECK
 70
     0
  9
$PEXTMIN
 10
1.000000000000000E+20
 20
1.000000000000000E+20
 30
1.000000000000000E+20
  9
$PEXTMAX
 10
-1.000000000000000E+20
 20
-1.000000000000000E+20
 30
-1.000000000000000E+20
  9
$PLIMMIN
 10
0.0
 20
0.0
  9
$PLIMMAX
 10
12.0
 20
9.0
  9
$UNITMODE
 70
     0
  9
$VISRETAIN
 70
     0
  9
$PLINEGEN
 70
     1
  9
$PSLTSCALE
 70
     0
  9
$TREEDEPTH
 70
  3020
  9
$CMLSTYLE
  2
Standard
  9
$CMLJUST
 70
     0
  9
$CMLSCALE
 40
1.0
  9
$PROXYGRAPHICS
 70
     1
  9
$MEASUREMENT
 70
     0
  9
$CELWEIGHT
370
    -1
  9
$ENDCAPS
280
     0
  9
$JOINSTYLE
280
     0
  9
$LWDISPLAY
290
     0
  9
$INSUNITS
 70
     0
  9
$HYPERLINKBASE
  1

  9
$STYLESHEET
  1

  9
$XEDIT
290
     1
  9
$CEPSNTYPE
380
     0
  9
$PSTYLEMODE
290
     1
  9
$FINGERPRINTGUID
  2
{BE6D1E07-5013-C544-9878-4CF3CC383659}
  9
$VERSIONGUID
  2
{EA80F0F6-6E60-7F43-95E4-ECED604CFBB1}
  9
$EXTNAMES
290
     1
  9
$PSVPSCALE
 40
0.0
  9
$OLESTARTUP
290
     0
  0
ENDSEC
  0
SECTION
  2
CLASSES
  0
CLASS
  1
ACDBDICTIONARYWDFLT
  2
AcDbDictionaryWithDefault
  3
ObjectDBX Classes
 90
        0
280
     0
281
     0
  0
CLASS
  1
MATERIAL
  2
AcDbMaterial
  3
ObjectDBX Classes
 90
     1153
280
     0
281
     0
  0
CLASS
  1
VISUALSTYLE
  2
AcDbVisualStyle
  3
ObjectDBX Classes
 90
     4095
280
     0
281
     0
  0
CLASS
  1
SCALE
  2
AcDbScale
  3
ObjectDBX Classes
 90
     1153
280
     0
281
     0
  0
CLASS
  1
TABLESTYLE
  2
AcDbTableStyle
  3
ObjectDBX Classes
 90
     4095
280
     0
281
     0
  0
CLASS
  1
MLEADERSTYLE
  2
AcDbMLeaderStyle
  3
ACDB_MLEADERSTYLE_CLASS
 90
     4095
280
     0
281
     0
  0
CLASS
  1
ACDBSECTIONVIEWSTYLE
  2
AcDbSectionViewStyle
  3
ObjectDBX Classes
 90
     1025
280
     0
281
     0
  0
CLASS
  1
ACDBDETAILVIEWSTYLE
  2
AcDbDetailViewStyle
  3
ObjectDBX Classes
 90
     1025
280
     0
281
     0
  0
CLASS
  1
DICTIONARYVAR
  2
AcDbDictionaryVar
  3
ObjectDBX Classes
 90
        0
280
     0
281
     0
  0
CLASS
  1
CELLSTYLEMAP
  2
AcDbCellStyleMap
  3
ObjectDBX Classes
 90
     1152
280
     0
281
     0
  0
CLASS
  1
ACDBPLACEHOLDER
  2
AcDbPlaceHolder
  3
ObjectDBX Classes
 90
        0
280
     0
281
     0
  0
CLASS
  1
LAYOUT
  2
AcDbLayout
  3
ObjectDBX Classes
 90
        0
280
     0
281
     0
  0
ENDSEC
  0
SECTION
  2
TABLES
  0
TABLE
  2
VPORT
  5
350
330
0
100
AcDbSymbolTable
 70
     1
  0
VPORT
  5
3BC
330
350
100
AcDbSymbolTableRecord
100
AcDbViewportTableRecord
  2
*ACTIVE
 70
     0
 10
0.0
 20
0.0
 11
1.0
 21
1.0
 12
3224.964000858213
 22
1497.903513598565
 13
0.0
 23
0.0
 14
1.0
 24
1.0
 15
0.0
 25
0.0
 16
0.0
 26
0.0
 36
1.0
 17
0.0
 27
0.0
 37
0.0
 40
4036.308230735838
 41
2.306993642143505
 42
50.0
 43
0.0
 44
0.0
 50
0.0
 51
0.0
 71
     0
 72
  2000
 73
     1
 74
     1
 75
     0
 76
     0
 77
     0
 78
     0
281
     0
 65
     1
110
0.0
120
0.0
130
0.0
111
1.0
121
0.0
131
0.0
112
0.0
122
1.0
132
0.0
 79
     0
146
0.0
1001
ACAD_NAV_VCDISPLAY
1070
     3
  0
ENDTAB
  0
TABLE
  2
LTYPE
  5
34D
330
0
100
AcDbSymbolTable
 70
    13
  0
LTYPE
  5
3A2
330
34D
100
AcDbSymbolTableRecord
100
AcDbLinetypeTableRecord
  2
ByBlock
 70
     0
  3

 72
    65
 73
     0
 40
0.0
  0
LTYPE
  5
3A3
330
34D
100
AcDbSymbolTableRecord
100
AcDbLinetypeTableRecord
  2
ByLayer
 70
     0
  3

 72
    65
 73
     0
 40
0.0
  0
LTYPE
  5
3A4
330
34D
100
AcDbSymbolTableRecord
100
AcDbLinetypeTableRecord
  2
CONTINUOUS
 70
     0
  3
Solid line
 72
    65
 73
     0
 40
0.0
  0
LTYPE
  5
3C2
330
34D
100
AcDbSymbolTableRecord
100
AcDbLinetypeTableRecord
  2
STYLE_06
 70
     0
  3

 72
    65
 73
     4
 40
0.416656494140625
 49
0.25
 74
     0
 49
-0.08331298828125
 74
     0
 49
0.02777099609375
 74
     0
 49
-0.055572509765625
 74
     0
  0
ENDTAB
  0
TABLE
  2
LAYER
  5
34A
330
0
100
AcDbSymbolTable
 70
     5
  0
LAYER
  5
39C
102
{ACAD_XDICTIONARY
360
3D2
102
}
330
34A
100
AcDbSymbolTableRecord
100
AcDbLayerTableRecord
  2
0
 70
     0
 62
     7
  6
CONTINUOUS
370
    -3
390
357
  0
LAYER
  5
3BB
102
{ACAD_XDICTIONARY
360
3D4
102
}
330
34A
100
AcDbSymbolTableRecord
100
AcDbLayerTableRecord
  2
DATA
 70
     0
 62
     7
  6
CONTINUOUS
370
    -3
390
357
  0
LAYER
  5
3C9
102
{ACAD_XDICTIONARY
360
3D6
102
}
330
34A
100
AcDbSymbolTableRecord
100
AcDbLayerTableRecord
  2
HIBINO-BASE
 70
     0
 62
     7
  6
CONTINUOUS
370
    -3
390
357
  0
LAYER
  5
3CA
102
{ACAD_XDICTIONARY
360
3D8
102
}
330
34A
100
AcDbSymbolTableRecord
100
AcDbLayerTableRecord
  2
SPEC
 70
     0
 62
     7
  6
CONTINUOUS
370
    -3
390
357
  0
LAYER
  5
3CB
102
{ACAD_XDICTIONARY
360
3DA
102
}
330
34A
100
AcDbSymbolTableRecord
100
AcDbLayerTableRecord
  2
DIMNSIONS
 70
     0
 62
     7
  6
CONTINUOUS
370
    -3
390
357
  0
ENDTAB
  0
TABLE
  2
STYLE
  5
34B
330
0
100
AcDbSymbolTable
 70
     3
  0
STYLE
  5
39D
330
34B
100
AcDbSymbolTableRecord
100
AcDbTextStyleTableRecord
  2
STANDARD
 70
     0
 40
0.0
 41
1.0
 50
0.0
 71
     0
 42
0.0
  3
txt
  4
BIGFONT.SHX
  0
ENDTAB
  0
TABLE
  2
VIEW
  5
34E
330
0
100
AcDbSymbolTable
 70
     0
  0
ENDTAB
  0
TABLE
  2
UCS
  5
34F
330
0
100
AcDbSymbolTable
 70
     0
  0
ENDTAB
  0
TABLE
  2
APPID
  5
351
330
0
100
AcDbSymbolTable
 70
     4
  0
APPID
  5
39E
330
351
100
AcDbSymbolTableRecord
100
AcDbRegAppTableRecord
  2
ACAD
 70
     0
  0
APPID
  5
3A5
330
351
100
AcDbSymbolTableRecord
100
AcDbRegAppTableRecord
  2
AcadAnnotative
 70
     0
  0
APPID
  5
3E6
330
351
100
AcDbSymbolTableRecord
100
AcDbRegAppTableRecord
  2
ACAD_NAV_VCDISPLAY
 70
     0
  0
APPID
  5
41F
330
351
100
AcDbSymbolTableRecord
100
AcDbRegAppTableRecord
  2
ACAD_MLEADERVER
 70
     0
  0
ENDTAB
  0
TABLE
  2
DIMSTYLE
  5
352
330
0
100
AcDbSymbolTable
 70
     2
100
AcDbDimStyleTable
 71
     0
  0
DIMSTYLE
105
39F
330
352
100
AcDbSymbolTableRecord
100
AcDbDimStyleTableRecord
  2
STANDARD
 70
     0
279
     2
340
39D
  0
ENDTAB
  0
TABLE
  2
BLOCK_RECORD
  5
349
330
0
100
AcDbSymbolTable
 70
     0
  0
BLOCK_RECORD
  5
3B7
330
349
100
AcDbSymbolTableRecord
100
AcDbBlockTableRecord
  2
*Model_Space
340
3BA
  0
BLOCK_RECORD
  5
3B3
330
349
100
AcDbSymbolTableRecord
100
AcDbBlockTableRecord
  2
*Paper_Space
340
3B6
  0
ENDTAB
  0
ENDSEC
  0
SECTION
  2
BLOCKS
  0
BLOCK
  5
3B8
330
3B7
100
AcDbEntity
  8
0
100
AcDbBlockBegin
  2
*Model_Space
 70
     0
 10
0.0
 20
0.0
 30
0.0
  3
*Model_Space
  1

  0
ENDBLK
  5
3B9
330
3B7
100
AcDbEntity
  8
0
100
AcDbBlockEnd
  0
BLOCK
  5
3B4
330
3B3
100
AcDbEntity
 67
     1
  8
0
100
AcDbBlockBegin
  2
*Paper_Space
 70
     0
 10
0.0
 20
0.0
 30
0.0
  3
*Paper_Space
  1

  0
ENDBLK
  5
3B5
330
3B3
100
AcDbEntity
 67
     1
  8
0
100
AcDbBlockEnd
  0
ENDSEC
  0
SECTION
  2
ENTITIES
  0
LINE
  5
2E
330
3B7
100
AcDbEntity
  8
HIBINO-BASE
  6
Continuous
 62
     7
100
AcDbLine
 10
1874.900211927855
 20
3505.006735217668
 30
0.0
 11
4574.900211927853
 21
3505.006735217668
 31
0.0
  0
LINE
  5
2F
330
3B7
100
AcDbEntity
  8
HIBINO-BASE
  6
Continuous
 62
     7
100
AcDbLine
 10
4574.900211927853
 20
-394.9932647823311
 30
0.0
 11
1874.900211927855
 21
-394.9932647823311
 31
0.0
  0
LINE
  5
30
330
3B7
100
AcDbEntity
  8
HIBINO-BASE
  6
Continuous
 62
     7
100
AcDbLine
 10
1874.900211927855
 20
-394.9932647823309
 30
0.0
 11
1874.900211927855
 21
3505.006735217668
 31
0.0
  0
LINE
  5
31
330
3B7
100
AcDbEntity
  8
HIBINO-BASE
  6
Continuous
 62
     7
100
AcDbLine
 10
4574.900211927853
 20
3505.006735217668
 30
0.0
 11
4574.900211927853
 21
-394.9932647823311
 31
0.0
  0
LINE
  5
32
330
3B7
100
AcDbEntity
  8
HIBINO-BASE
  6
Continuous
 62
     7
100
AcDbLine
 10
3224.900211927855
 20
-57.49326478233115
 30
0.0
 11
4574.900211927853
 21
-57.49326478233115
 31
0.0
  0
LINE
  5
33
330
3B7
100
AcDbEntity
  8
HIBINO-BASE
  6
Continuous
 62
     7
100
AcDbLine
 10
3224.900211927855
 20
-394.9932647823311
 30
0.0
 11
3224.900211927855
 21
-57.49326478233115
 31
0.0
  0
TEXT
  5
34
330
3B7
100
AcDbEntity
  8
HIBINO-BASE
 62
     7
100
AcDbText
 10
3238.400211927855
 20
-95.12366478233138
 30
0.0
 40
24.4326171875
  1
NOTE
 41
0.7
 11
3238.400211927855
 21
-70.69104759483137
 31
0.0
100
AcDbText
 73
     3
  0
LINE
  5
35
330
3B7
100
AcDbEntity
  8
HIBINO-BASE
  6
Continuous
 62
     7
100
AcDbLine
 10
3749.900211927855
 20
-394.9932647823311
 30
0.0
 11
3749.900211927855
 21
-57.49326478233115
 31
0.0
  0
TEXT
  5
36
330
3B7
100
AcDbEntity
  8
HIBINO-BASE
 62
     7
100
AcDbText
 10
3763.400211927854
 20
-95.12366478233138
 30
0.0
 40
24.4326171875
  1
TITLE
 41
0.7
 11
3763.400211927854
 21
-70.69104759483137
 31
0.0
100
AcDbText
 73
     3
  0
LINE
  5
37
330
3B7
100
AcDbEntity
  8
HIBINO-BASE
  6
Continuous
 62
     7
100
AcDbLine
 10
3224.900211927855
 20
-244.9932647823311
 30
0.0
 11
4574.900211927853
 21
-244.9932647823311
 31
0.0
  0
TEXT
  5
38
330
3B7
100
AcDbEntity
  8
HIBINO-BASE
 62
     7
100
AcDbText
 10
3950.900211927854
 20
-281.7788647823311
 30
0.0
 40
24.4326171875
  1
DRAWN
 41
0.7
 11
3950.900211927854
 21
-257.3462475948311
 31
0.0
100
AcDbText
 73
     3
  0
TEXT
  5
39
330
3B7
100
AcDbEntity
  8
HIBINO-BASE
 62
     7
100
AcDbText
 10
3575.900211927854
 20
-281.7788647823311
 30
0.0
 40
24.4326171875
  1
DATE
 41
0.7
 11
3575.900211927854
 21
-257.3462475948311
 31
0.0
100
AcDbText
 73
     3
  0
TEXT
  5
3A
330
3B7
100
AcDbEntity
  8
HIBINO-BASE
 62
     7
100
AcDbText
 10
3425.900211927853
 20
-281.7788647823311
 30
0.0
 40
24.4326171875
  1
SCALE
 41
0.7
 11
3425.900211927853
 21
-257.3462475948311
 31
0.0
100
AcDbText
 73
     3
  0
TEXT
  5
3B
330
3B7
100
AcDbEntity
  8
HIBINO-BASE
 62
     7
100
AcDbText
 10
3763.400211927854
 20
-281.7788647823311
 30
0.0
 40
24.4326171875
  1
DESIGN
 41
0.7
 11
3763.400211927854
 21
-257.3462475948311
 31
0.0
100
AcDbText
 73
     3
  0
TEXT
  5
3C
330
3B7
100
AcDbEntity
  8
HIBINO-BASE
 62
     7
100
AcDbText
 10
4325.900211927852
 20
-281.7788647823311
 30
0.0
 40
24.4326171875
  1
DRAWING NO.
 41
0.7
 11
4325.900211927852
 21
-257.3462475948311
 31
0.0
100
AcDbText
 73
     3
  0
TEXT
  5
3D
330
3B7
100
AcDbEntity
  8
HIBINO-BASE
 62
     7
100
AcDbText
 10
4138.400211927852
 20
-281.7788647823311
 30
0.0
 40
24.4326171875
  1
CHECK
 41
0.7
 11
4138.400211927852
 21
-257.3462475948311
 31
0.0
100
AcDbText
 73
     3
  0
LINE
  5
3E
330
3B7
100
AcDbEntity
  8
HIBINO-BASE
  6
Continuous
 62
     7
100
AcDbLine
 10
3440.525211927855
 20
-376.2432647823311
 30
0.0
 11
3496.775211927855
 21
-319.9932647823312
 31
0.0
  0
TEXT
  5
3F
330
3B7
100
AcDbEntity
  8
HIBINO-BASE
 62
     7
100
AcDbText
 10
3431.150211927855
 20
-336.6274147823312
 30
0.0
 40
24.4326171875
  1
1
 41
0.7
 11
3431.150211927855
 21
-312.1947975948312
 31
0.0
100
AcDbText
 73
     3
  0
LINE
  5
40
330
3B7
100
AcDbEntity
  8
HIBINO-BASE
  6
Continuous
 62
     7
100
AcDbLine
 10
3412.400211927855
 20
-394.9932647823311
 30
0.0
 11
3412.400211927855
 21
-244.9932647823311
 31
0.0
  0
LINE
  5
41
330
3B7
100
AcDbEntity
  8
HIBINO-BASE
  6
Continuous
 62
     7
100
AcDbLine
 10
3562.400211927854
 20
-394.9932647823311
 30
0.0
 11
3562.400211927854
 21
-244.9932647823311
 31
0.0
  0
LINE
  5
42
330
3B7
100
AcDbEntity
  8
HIBINO-BASE
  6
Continuous
 62
     7
100
AcDbLine
 10
3937.400211927854
 20
-244.9932647823311
 30
0.0
 11
3937.400211927854
 21
-394.9932647823311
 31
0.0
  0
LINE
  5
43
330
3B7
100
AcDbEntity
  8
HIBINO-BASE
  6
Continuous
 62
     7
100
AcDbLine
 10
4312.400211927853
 20
-244.9932647823311
 30
0.0
 11
4312.400211927853
 21
-394.9932647823311
 31
0.0
  0
LINE
  5
44
330
3B7
100
AcDbEntity
  8
HIBINO-BASE
  6
Continuous
 62
     7
100
AcDbLine
 10
4124.900211927853
 20
-394.9932647823311
 30
0.0
 11
4124.900211927853
 21
-244.9932647823311
 31
0.0
  0
TEXT
  5
45
330
3B7
100
AcDbEntity
  8
HIBINO-BASE
 62
     7
100
AcDbText
 10
3575.248311927854
 20
-352.0385647823307
 30
0.0
 40
24.4326171875
  1
'16.06.
 41
0.7
 11
3575.248311927854
 21
-327.6059475948307
 31
0.0
100
AcDbText
 73
     3
  0
TEXT
  5
46
330
3B7
100
AcDbEntity
  8
HIBINO-BASE
 62
     7
100
AcDbText
 10
3487.400211927855
 20
-364.7524147823312
 30
0.0
 40
24.4326171875
  1
15
 41
0.7
 11
3487.400211927855
 21
-340.3197975948312
 31
0.0
100
AcDbText
 73
     3
  0
TEXT
  5
47
330
3B7
100
AcDbEntity
  8
HIBINO-BASE
 62
     7
100
AcDbText
 10
3959.987362093374
 20
-352.0385647823307
 30
0.0
 40
24.4326171875
  1
N.Sasaki
 41
0.7
 11
3959.987362093374
 21
-327.6059475948307
 31
0.0
100
AcDbText
 73
     3
  0
TEXT
  5
48
330
3B7
100
AcDbEntity
  8
HIBINO-BASE
 62
     7
100
AcDbText
 10
3283.150211927855
 20
-365.3532647823311
 30
0.0
 40
48.865234375
  1
A4
 41
0.7
 11
3283.150211927855
 21
-316.4880304073311
 31
0.0
100
AcDbText
 73
     3
  0
TEXT
  5
49
330
3B7
100
AcDbEntity
  8
HIBINO-BASE
 62
     7
100
AcDbText
 10
3239.275211927855
 20
-284.2850897823312
 30
0.0
 40
24.4326171875
  1
PAPER SIZE
 41
0.7
 11
3239.275211927855
 21
-259.8524725948312
 31
0.0
100
AcDbText
 73
     3
  0
TEXT
  5
4A
330
3B7
100
AcDbEntity
  8
HIBINO-BASE
 62
     7
100
AcDbText
 10
1982.660211927855
 20
-491.1234317823317
 30
0.0
 40
54.00066269531249
  1
Hibino Corporation
 41
0.7
 11
1982.660211927855
 21
-437.1227690870192
 31
0.0
100
AcDbText
 73
     3
  0
TEXT
  5
4B
330
3B7
100
AcDbEntity
  8
HIBINO-BASE
 62
     7
100
AcDbText
 10
3975.926061927855
 20
-491.1234317823317
 30
0.0
 40
54.00066269531249
  1
ヒビノ株式会社
 41
0.7
 11
3975.926061927855
 21
-437.1227690870192
 31
0.0
100
AcDbText
 73
     3
  0
TEXT
  5
4C
330
3B7
100
AcDbEntity
  8
SPEC
 62
     7
100
AcDbText
 10
2038.884786984249
 20
3370.899049999998
 30
0.0
 40
36.64892578125
  1
仕様
 41
0.7
 11
2038.884786984249
 21
3407.547975781249
 31
0.0
100
AcDbText
 73
     3
  0
TEXT
  5
4D
330
3B7
100
AcDbEntity
  8
SPEC
 62
     7
100
AcDbText
 10
2521.134786984249
 20
2630.568766666665
 30
0.0
 40
28.50472005208334
  1
369×699×423mm(除突起部)
 41
0.7
 11
2521.134786984249
 21
2659.073486718749
 31
0.0
100
AcDbText
 73
     3
  0
TEXT
  5
4E
330
3B7
100
AcDbEntity
  8
SPEC
 62
     7
100
AcDbText
 10
2033.634786984249
 20
2630.568766666665
 30
0.0
 40
28.50472005208334
  1
寸法（幅×高×奥行）
 41
0.7
 11
2033.634786984249
 21
2659.073486718749
 31
0.0
100
AcDbText
 73
     3
  0
TEXT
  5
4F
330
3B7
100
AcDbEntity
  8
SPEC
 62
     7
100
AcDbText
 10
2033.634786984249
 20
2574.318766666666
 30
0.0
 40
28.50472005208334
  1
質量
 41
0.7
 11
2033.634786984249
 21
2602.823486718749
 31
0.0
100
AcDbText
 73
     3
  0
TEXT
  5
50
330
3B7
100
AcDbEntity
  8
SPEC
 62
     7
100
AcDbText
 10
2521.134786984249
 20
2574.318766666666
 30
0.0
 40
28.50472005208334
  1
18kg
 41
0.7
 11
2521.134786984249
 21
2602.823486718749
 31
0.0
100
AcDbText
 73
     3
  0
LINE
  5
51
330
3B7
100
AcDbEntity
  8
SPEC
  6
Continuous
 62
     7
100
AcDbLine
 10
2020.134786984249
 20
3350.0
 30
0.0
 11
4232.634786984249
 21
3350.0
 31
0.0
  0
LINE
  5
52
330
3B7
100
AcDbEntity
  8
SPEC
  6
Continuous
 62
     7
100
AcDbLine
 10
2020.134786984249
 20
3293.749999999999
 30
0.0
 11
4232.634786984249
 21
3293.749999999999
 31
0.0
  0
LINE
  5
53
330
3B7
100
AcDbEntity
  8
SPEC
  6
Continuous
 62
     7
100
AcDbLine
 10
2020.134786984249
 20
3350.0
 30
0.0
 11
2020.134786984249
 21
2562.5
 31
0.0
  0
LINE
  5
54
330
3B7
100
AcDbEntity
  8
SPEC
  6
Continuous
 62
     7
100
AcDbLine
 10
2507.634786984249
 20
3350.0
 30
0.0
 11
2507.634786984249
 21
2562.5
 31
0.0
  0
LINE
  5
55
330
3B7
100
AcDbEntity
  8
SPEC
  6
Continuous
 62
     7
100
AcDbLine
 10
4232.634786984249
 20
3350.0
 30
0.0
 11
4232.634786984249
 21
2562.5
 31
0.0
  0
LINE
  5
56
330
3B7
100
AcDbEntity
  8
SPEC
  6
Continuous
 62
     7
100
AcDbLine
 10
2020.134786984249
 20
3237.499999999999
 30
0.0
 11
4232.634786984249
 21
3237.499999999999
 31
0.0
  0
LINE
  5
57
330
3B7
100
AcDbEntity
  8
SPEC
  6
Continuous
 62
     7
100
AcDbLine
 10
2020.134786984249
 20
3181.25
 30
0.0
 11
4232.634786984249
 21
3181.25
 31
0.0
  0
LINE
  5
58
330
3B7
100
AcDbEntity
  8
SPEC
  6
Continuous
 62
     7
100
AcDbLine
 10
2020.134786984249
 20
3125.0
 30
0.0
 11
4232.634786984249
 21
3125.0
 31
0.0
  0
LINE
  5
59
330
3B7
100
AcDbEntity
  8
SPEC
  6
Continuous
 62
     7
100
AcDbLine
 10
2020.134786984249
 20
3068.75
 30
0.0
 11
4232.634786984249
 21
3068.75
 31
0.0
  0
LINE
  5
5A
330
3B7
100
AcDbEntity
  8
SPEC
  6
Continuous
 62
     7
100
AcDbLine
 10
2020.134786984249
 20
3012.5
 30
0.0
 11
4232.634786984249
 21
3012.5
 31
0.0
  0
LINE
  5
5B
330
3B7
100
AcDbEntity
  8
SPEC
  6
Continuous
 62
     7
100
AcDbLine
 10
2020.134786984249
 20
2956.25
 30
0.0
 11
4232.634786984249
 21
2956.25
 31
0.0
  0
LINE
  5
5C
330
3B7
100
AcDbEntity
  8
SPEC
  6
Continuous
 62
     7
100
AcDbLine
 10
2020.134786984249
 20
2900.0
 30
0.0
 11
4232.634786984249
 21
2900.0
 31
0.0
  0
LINE
  5
5D
330
3B7
100
AcDbEntity
  8
SPEC
  6
Continuous
 62
     7
100
AcDbLine
 10
2020.134786984249
 20
2843.75
 30
0.0
 11
4232.634786984249
 21
2843.75
 31
0.0
  0
LINE
  5
5E
330
3B7
100
AcDbEntity
  8
SPEC
  6
Continuous
 62
     7
100
AcDbLine
 10
2020.134786984249
 20
2787.5
 30
0.0
 11
4232.634786984249
 21
2787.5
 31
0.0
  0
LINE
  5
5F
330
3B7
100
AcDbEntity
  8
SPEC
  6
Continuous
 62
     7
100
AcDbLine
 10
2020.134786984249
 20
2731.25
 30
0.0
 11
4232.634786984249
 21
2731.25
 31
0.0
  0
LINE
  5
60
330
3B7
100
AcDbEntity
  8
SPEC
  6
Continuous
 62
     7
100
AcDbLine
 10
2020.134786984249
 20
2675.0
 30
0.0
 11
4232.634786984249
 21
2675.0
 31
0.0
  0
LINE
  5
61
330
3B7
100
AcDbEntity
  8
SPEC
  6
Continuous
 62
     7
100
AcDbLine
 10
2020.134786984249
 20
2618.75
 30
0.0
 11
4232.634786984249
 21
2618.75
 31
0.0
  0
LINE
  5
62
330
3B7
100
AcDbEntity
  8
SPEC
  6
Continuous
 62
     7
100
AcDbLine
 10
2020.134786984249
 20
2562.5
 30
0.0
 11
4232.634786984249
 21
2562.5
 31
0.0
  0
TEXT
  5
63
330
3B7
100
AcDbEntity
  8
SPEC
 62
     7
100
AcDbText
 10
2033.634786984249
 20
3305.568766666666
 30
0.0
 40
28.50472005208333
  1
形式
 41
0.7
 11
2033.634786984249
 21
3334.073486718749
 31
0.0
100
AcDbText
 73
     3
  0
TEXT
  5
64
330
3B7
100
AcDbEntity
  8
SPEC
 62
     7
100
AcDbText
 10
2033.634786984249
 20
3249.318766666666
 30
0.0
 40
28.50472005208333
  1
駆動方式
 41
0.7
 11
2033.634786984249
 21
3277.823486718749
 31
0.0
100
AcDbText
 73
     3
  0
TEXT
  5
65
330
3B7
100
AcDbEntity
  8
SPEC
 62
     7
100
AcDbText
 10
2033.634786984249
 20
3193.068766666665
 30
0.0
 40
28.50472005208333
  1
周波数レンジ(-10dB)
 41
0.7
 11
2033.634786984249
 21
3221.573486718749
 31
0.0
100
AcDbText
 73
     3
  0
TEXT
  5
66
330
3B7
100
AcDbEntity
  8
SPEC
 62
     7
100
AcDbText
 10
2033.634786984249
 20
3136.818766666666
 30
0.0
 40
28.50472005208333
  1
周波数特性(±3dB)
 41
0.7
 11
2033.634786984249
 21
3165.323486718749
 31
0.0
100
AcDbText
 73
     3
  0
TEXT
  5
67
330
3B7
100
AcDbEntity
  8
SPEC
 62
     7
100
AcDbText
 10
2033.634786984249
 20
3080.568766666666
 30
0.0
 40
28.50472005208333
  1
カバレージ角
 41
0.7
 11
2033.634786984249
 21
3109.073486718749
 31
0.0
100
AcDbText
 73
     3
  0
TEXT
  5
68
330
3B7
100
AcDbEntity
  8
SPEC
 62
     7
100
AcDbText
 10
2033.634786984249
 20
3024.318766666665
 30
0.0
 40
28.50472005208333
  1
許容入力
 41
0.7
 11
2033.634786984249
 21
3052.823486718749
 31
0.0
100
AcDbText
 73
     3
  0
TEXT
  5
69
330
3B7
100
AcDbEntity
  8
SPEC
 62
     7
100
AcDbText
 10
2033.634786984249
 20
2968.068766666665
 30
0.0
 40
28.50472005208333
  1
感度(1W、1m)
 41
0.7
 11
2033.634786984249
 21
2996.573486718749
 31
0.0
100
AcDbText
 73
     3
  0
TEXT
  5
6A
330
3B7
100
AcDbEntity
  8
SPEC
 62
     7
100
AcDbText
 10
2033.634786984249
 20
2911.818766666666
 30
0.0
 40
28.50472005208333
  1
最大音圧(1m)
 41
0.7
 11
2033.634786984249
 21
2940.323486718749
 31
0.0
100
AcDbText
 73
     3
  0
TEXT
  5
6B
330
3B7
100
AcDbEntity
  8
SPEC
 62
     7
100
AcDbText
 10
2033.634786984249
 20
2855.568766666666
 30
0.0
 40
28.50472005208333
  1
公称インピーダンス
 41
0.7
 11
2033.634786984249
 21
2884.073486718749
 31
0.0
100
AcDbText
 73
     3
  0
TEXT
  5
6C
330
3B7
100
AcDbEntity
  8
SPEC
 62
     7
100
AcDbText
 10
2033.634786984249
 20
2799.318766666666
 30
0.0
 40
28.50472005208333
  1
クロスオーバー周波数
 41
0.7
 11
2033.634786984249
 21
2827.823486718749
 31
0.0
100
AcDbText
 73
     3
  0
TEXT
  5
6D
330
3B7
100
AcDbEntity
  8
SPEC
 62
     7
100
AcDbText
 10
2033.634786984249
 20
2743.068766666665
 30
0.0
 40
28.50472005208333
  1
ドライバー構成
 41
0.7
 11
2033.634786984249
 21
2771.573486718749
 31
0.0
100
AcDbText
 73
     3
  0
TEXT
  5
6E
330
3B7
100
AcDbEntity
  8
SPEC
 62
     7
100
AcDbText
 10
2033.634786984249
 20
2686.818766666665
 30
0.0
 40
28.50472005208333
  1
入力コネクター
 41
0.7
 11
2033.634786984249
 21
2715.323486718749
 31
0.0
100
AcDbText
 73
     3
  0
TEXT
  5
6F
330
3B7
100
AcDbEntity
  8
SPEC
 62
     7
100
AcDbText
 10
2521.134786984249
 20
3305.568766666666
 30
0.0
 40
28.50472005208333
  1
2-Wayフルレンジ
 41
0.7
 11
2521.134786984249
 21
3334.073486718749
 31
0.0
100
AcDbText
 73
     3
  0
TEXT
  5
70
330
3B7
100
AcDbEntity
  8
SPEC
 62
     7
100
AcDbText
 10
2521.134786984249
 20
3193.068766666665
 30
0.0
 40
28.50472005208333
  1
35Hz～20kHz
 41
0.7
 11
2521.134786984249
 21
3221.573486718749
 31
0.0
100
AcDbText
 73
     3
  0
TEXT
  5
71
330
3B7
100
AcDbEntity
  8
SPEC
 62
     7
100
AcDbText
 10
2521.134786984249
 20
3136.818766666666
 30
0.0
 40
28.50472005208333
  1
50Hz～19kHz
 41
0.7
 11
2521.134786984249
 21
3165.323486718749
 31
0.0
100
AcDbText
 73
     3
  0
TEXT
  5
72
330
3B7
100
AcDbEntity
  8
SPEC
 62
     7
100
AcDbText
 10
2521.134786984249
 20
3080.568766666666
 30
0.0
 40
28.50472005208333
  1
水平:120゜、垂直:60゜
 41
0.7
 11
2521.134786984249
 21
3109.073486718749
 31
0.0
100
AcDbText
 73
     3
  0
TEXT
  5
73
330
3B7
100
AcDbEntity
  8
SPEC
 62
     7
100
AcDbText
 10
2521.134786984249
 20
3024.318766666665
 30
0.0
 40
28.50472005208333
  1
400W(IECピンクノイズ、2時間)
 41
0.7
 11
2521.134786984249
 21
3052.823486718749
 31
0.0
100
AcDbText
 73
     3
  0
TEXT
  5
74
330
3B7
100
AcDbEntity
  8
SPEC
 62
     7
100
AcDbText
 10
2521.134786984249
 20
2968.068766666665
 30
0.0
 40
28.50472005208333
  1
98dB SPL
 41
0.7
 11
2521.134786984249
 21
2996.573486718749
 31
0.0
100
AcDbText
 73
     3
  0
TEXT
  5
75
330
3B7
100
AcDbEntity
  8
SPEC
 62
     7
100
AcDbText
 10
2521.134786984249
 20
2911.818766666666
 30
0.0
 40
28.50472005208333
  1
124dB SPL(連続)、130dB SPL(ピーク)
 41
0.7
 11
2521.134786984249
 21
2940.323486718749
 31
0.0
100
AcDbText
 73
     3
  0
TEXT
  5
76
330
3B7
100
AcDbEntity
  8
SPEC
 62
     7
100
AcDbText
 10
2521.134786984249
 20
2855.568766666666
 30
0.0
 40
28.50472005208333
  1
8Ω
 41
0.7
 11
2521.134786984249
 21
2884.073486718749
 31
0.0
100
AcDbText
 73
     3
  0
TEXT
  5
77
330
3B7
100
AcDbEntity
  8
SPEC
 62
     7
100
AcDbText
 10
2521.134786984249
 20
2799.318766666666
 30
0.0
 40
28.50472005208333
  1
1.9kHz
 41
0.7
 11
2521.134786984249
 21
2827.823486718749
 31
0.0
100
AcDbText
 73
     3
  0
TEXT
  5
78
330
3B7
100
AcDbEntity
  8
SPEC
 62
     7
100
AcDbText
 10
2521.134786984249
 20
2743.068766666665
 30
0.0
 40
28.50472005208333
  1
LF:MB12-8(12インチ(305mm))、HF:2408H-1(1インチ(25mm))
 41
0.7
 11
2521.134786984249
 21
2771.573486718749
 31
0.0
100
AcDbText
 73
     3
  0
TEXT
  5
79
330
3B7
100
AcDbEntity
  8
SPEC
 62
     7
100
AcDbText
 10
2521.134786984249
 20
2686.818766666665
 30
0.0
 40
28.50472005208333
  1
4Pスピコンx2、ねじ止め端子
 41
0.7
 11
2521.134786984249
 21
2715.323486718749
 31
0.0
100
AcDbText
 73
     3
  0
TEXT
  5
7A
330
3B7
100
AcDbEntity
  8
SPEC
 62
     7
100
AcDbText
 10
2521.134786984249
 20
3249.318766666666
 30
0.0
 40
28.50472005208333
  1
パッシブ
 41
0.7
 11
2521.134786984249
 21
3277.823486718749
 31
0.0
100
AcDbText
 73
     3
  0
TEXT
  5
7B
330
3B7
100
AcDbEntity
  8
DIMNSIONS
 62
     7
100
AcDbText
 10
2880.9375
 20
-155.875761458683
 30
0.0
 40
36.64892578125
  1
(単位：mm)
 41
0.7
 11
2880.9375
 21
-119.2268356774329
 31
0.0
100
AcDbText
 73
     3
  0
LINE
  5
7C
330
3B7
100
AcDbEntity
  8
DIMNSIONS
  6
Continuous
 62
     7
100
AcDbLine
 10
2195.5
 20
550.6995179482244
 30
0.0
 11
2070.0
 21
550.6995179482244
 31
0.0
  0
LINE
  5
7D
330
3B7
100
AcDbEntity
  8
DIMNSIONS
  6
Continuous
 62
     7
100
AcDbLine
 10
2195.5
 20
1249.300482051775
 30
0.0
 11
2070.0
 21
1249.300482051775
 31
0.0
  0
LINE
  5
7E
330
3B7
100
AcDbEntity
  8
DIMNSIONS
  6
Continuous
 62
     7
100
AcDbLine
 10
2100.0
 20
550.6995179482244
 30
0.0
 11
2100.0
 21
1249.300482051775
 31
0.0
  0
LINE
  5
7F
330
3B7
100
AcDbEntity
  8
DIMNSIONS
  6
Continuous
 62
     7
100
AcDbLine
 10
2100.0
 20
550.6995179482244
 30
0.0
 11
2089.949403072747
 21
588.2088563271306
 31
0.0
  0
LINE
  5
80
330
3B7
100
AcDbEntity
  8
DIMNSIONS
  6
Continuous
 62
     7
100
AcDbLine
 10
2100.0
 20
550.6995179482244
 30
0.0
 11
2110.050596927253
 21
588.2088563271306
 31
0.0
  0
LINE
  5
81
330
3B7
100
AcDbEntity
  8
DIMNSIONS
  6
Continuous
 62
     7
100
AcDbLine
 10
2100.0
 20
1249.300482051775
 30
0.0
 11
2110.050596927253
 21
1211.791143672869
 31
0.0
  0
LINE
  5
82
330
3B7
100
AcDbEntity
  8
DIMNSIONS
  6
Continuous
 62
     7
100
AcDbLine
 10
2100.0
 20
1249.300482051775
 30
0.0
 11
2089.949403072747
 21
1211.791143672869
 31
0.0
  0
TEXT
  5
83
330
3B7
100
AcDbEntity
  8
DIMNSIONS
 62
     7
100
AcDbText
 10
2085.091666666667
 20
860.3125
 30
0.0
 40
40.72102864583334
  1
699
 50
90.0
 41
0.7
 11
2044.370638020833
 21
860.3125
 31
0.0
100
AcDbText
 73
     3
  0
LINE
  5
84
330
3B7
100
AcDbEntity
  8
DIMNSIONS
  6
Continuous
 62
     7
100
AcDbLine
 10
2215.5
 20
530.6995179482243
 30
0.0
 11
2215.5
 21
370.0
 31
0.0
  0
LINE
  5
85
330
3B7
100
AcDbEntity
  8
DIMNSIONS
  6
Continuous
 62
     7
100
AcDbLine
 10
2584.500000000001
 20
530.6995179482243
 30
0.0
 11
2584.500000000001
 21
370.0
 31
0.0
  0
LINE
  5
86
330
3B7
100
AcDbEntity
  8
DIMNSIONS
  6
Continuous
 62
     7
100
AcDbLine
 10
2215.5
 20
400.0
 30
0.0
 11
2584.500000000001
 21
400.0
 31
0.0
  0
LINE
  5
87
330
3B7
100
AcDbEntity
  8
DIMNSIONS
  6
Continuous
 62
     7
100
AcDbLine
 10
2215.5
 20
400.0
 30
0.0
 11
2253.009338378905
 21
410.0505969272536
 31
0.0
  0
LINE
  5
88
330
3B7
100
AcDbEntity
  8
DIMNSIONS
  6
Continuous
 62
     7
100
AcDbLine
 10
2215.5
 20
400.0
 30
0.0
 11
2253.009338378905
 21
389.9494030727465
 31
0.0
  0
LINE
  5
89
330
3B7
100
AcDbEntity
  8
DIMNSIONS
  6
Continuous
 62
     7
100
AcDbLine
 10
2584.500000000001
 20
400.0
 30
0.0
 11
2546.990661621095
 21
389.9494030727463
 31
0.0
  0
LINE
  5
8A
330
3B7
100
AcDbEntity
  8
DIMNSIONS
  6
Continuous
 62
     7
100
AcDbLine
 10
2584.500000000001
 20
400.0
 30
0.0
 11
2546.990661621095
 21
410.0505969272536
 31
0.0
  0
TEXT
  5
8B
330
3B7
100
AcDbEntity
  8
DIMNSIONS
 62
     7
100
AcDbText
 10
2360.3125
 20
414.9083333333333
 30
0.0
 40
40.72102864583334
  1
369
 41
0.7
 11
2360.3125
 21
455.6293619791666
 31
0.0
100
AcDbText
 73
     3
  0
LINE
  5
8C
330
3B7
100
AcDbEntity
  8
DIMNSIONS
  6
Continuous
 62
     7
100
AcDbLine
 10
2370.0
 20
1877.611610845764
 30
0.0
 11
2119.999869299399
 21
1877.611610845764
 31
0.0
  0
LINE
  5
8D
330
3B7
100
AcDbEntity
  8
DIMNSIONS
  6
Continuous
 62
     7
100
AcDbLine
 10
2195.499869299398
 20
1922.611610845763
 30
0.0
 11
2119.999869299399
 21
1922.611610845763
 31
0.0
  0
LINE
  5
8E
330
3B7
100
AcDbEntity
  8
DIMNSIONS
  6
Continuous
 62
     7
100
AcDbLine
 10
2149.999869299399
 20
1922.611610845763
 30
0.0
 11
2149.999869299399
 21
1877.611610845764
 31
0.0
  0
LINE
  5
8F
330
3B7
100
AcDbEntity
  8
DIMNSIONS
  6
Continuous
 62
     7
100
AcDbLine
 10
2149.999869299399
 20
1877.611610845764
 30
0.0
 11
2149.999869299399
 21
1802.611610845764
 31
0.0
  0
LINE
  5
90
330
3B7
100
AcDbEntity
  8
DIMNSIONS
  6
Continuous
 62
     7
100
AcDbLine
 10
2149.999869299399
 20
1877.611610845764
 30
0.0
 11
2160.050466226652
 21
1840.102272466857
 31
0.0
  0
LINE
  5
91
330
3B7
100
AcDbEntity
  8
DIMNSIONS
  6
Continuous
 62
     7
100
AcDbLine
 10
2149.999869299399
 20
1877.611610845764
 30
0.0
 11
2139.949272372145
 21
1840.102272466857
 31
0.0
  0
LINE
  5
92
330
3B7
100
AcDbEntity
  8
DIMNSIONS
  6
Continuous
 62
     7
100
AcDbLine
 10
2149.999869299399
 20
1922.611610845763
 30
0.0
 11
2149.999869299399
 21
1996.166666666666
 31
0.0
  0
LINE
  5
93
330
3B7
100
AcDbEntity
  8
DIMNSIONS
  6
Continuous
 62
     7
100
AcDbLine
 10
2149.999869299399
 20
1922.611610845763
 30
0.0
 11
2139.949272372145
 21
1960.120949224669
 31
0.0
  0
LINE
  5
94
330
3B7
100
AcDbEntity
  8
DIMNSIONS
  6
Continuous
 62
     7
100
AcDbLine
 10
2149.999869299399
 20
1922.611610845763
 30
0.0
 11
2160.050466226652
 21
1960.120949224669
 31
0.0
  0
TEXT
  5
95
330
3B7
100
AcDbEntity
  8
DIMNSIONS
 62
     7
100
AcDbText
 10
2135.091535966066
 20
1943.25
 30
0.0
 40
40.72102864583334
  1
45
 50
90.0
 41
0.7
 11
2094.370507320233
 21
1943.25
 31
0.0
100
AcDbText
 73
     3
  0
LINE
  5
96
330
3B7
100
AcDbEntity
  8
DIMNSIONS
  6
Continuous
 62
     7
100
AcDbLine
 10
2195.499869299398
 20
1500.0
 30
0.0
 11
2070.0
 21
1500.0
 31
0.0
  0
LINE
  5
97
330
3B7
100
AcDbEntity
  8
DIMNSIONS
  6
Continuous
 62
     7
100
AcDbLine
 10
2195.499869299398
 20
1922.611610845763
 30
0.0
 11
2070.0
 21
1922.611610845763
 31
0.0
  0
LINE
  5
98
330
3B7
100
AcDbEntity
  8
DIMNSIONS
  6
Continuous
 62
     7
100
AcDbLine
 10
2100.0
 20
1500.0
 30
0.0
 11
2100.0
 21
1922.611610845763
 31
0.0
  0
LINE
  5
99
330
3B7
100
AcDbEntity
  8
DIMNSIONS
  6
Continuous
 62
     7
100
AcDbLine
 10
2100.0
 20
1500.0
 30
0.0
 11
2089.949403072747
 21
1537.509338378906
 31
0.0
  0
LINE
  5
9A
330
3B7
100
AcDbEntity
  8
DIMNSIONS
  6
Continuous
 62
     7
100
AcDbLine
 10
2100.0
 20
1500.0
 30
0.0
 11
2110.050596927253
 21
1537.509338378906
 31
0.0
  0
LINE
  5
9B
330
3B7
100
AcDbEntity
  8
DIMNSIONS
  6
Continuous
 62
     7
100
AcDbLine
 10
2100.0
 20
1922.611610845763
 30
0.0
 11
2110.050596927253
 21
1885.102272466857
 31
0.0
  0
LINE
  5
9C
330
3B7
100
AcDbEntity
  8
DIMNSIONS
  6
Continuous
 62
     7
100
AcDbLine
 10
2100.0
 20
1922.611610845763
 30
0.0
 11
2089.949403072747
 21
1885.102272466857
 31
0.0
  0
TEXT
  5
9D
330
3B7
100
AcDbEntity
  8
DIMNSIONS
 62
     7
100
AcDbText
 10
2085.091666666667
 20
1671.618305422881
 30
0.0
 40
40.72102864583334
  1
423
 50
90.0
 41
0.7
 11
2044.370638020833
 21
1671.618305422881
 31
0.0
100
AcDbText
 73
     3
  0
LINE
  5
9E
330
3B7
100
AcDbEntity
  8
DIMNSIONS
  6
Continuous
 62
     7
100
AcDbLine
 10
3033.258136955761
 20
546.7167796472234
 30
0.0
 11
2846.618997750454
 21
496.7069730211216
 31
0.0
  0
LINE
  5
9F
330
3B7
100
AcDbEntity
  8
DIMNSIONS
  6
Continuous
 62
     7
100
AcDbLine
 10
3131.766299688792
 20
963.4110823140137
 30
0.0
 11
2749.044217746805
 21
860.8610095321001
 31
0.0
  0
LINE
  5
A0
330
3B7
100
AcDbEntity
  8
DIMNSIONS
  6
Continuous
 62
     7
100
AcDbLine
 10
2875.596772539127
 20
504.4715443741972
 30
0.0
 11
2778.021992535476
 21
868.6255808851756
 31
0.0
  0
LINE
  5
A1
330
3B7
100
AcDbEntity
  8
DIMNSIONS
  6
Continuous
 62
     7
100
AcDbLine
 10
2875.596772539127
 20
504.4715443741972
 30
0.0
 11
2856.180510255815
 21
538.1014971419764
 31
0.0
  0
LINE
  5
A2
330
3B7
100
AcDbEntity
  8
DIMNSIONS
  6
Continuous
 62
     7
100
AcDbLine
 10
2875.596772539127
 20
504.4715443741972
 30
0.0
 11
2875.596772539127
 21
543.3040689408207
 31
0.0
  0
LINE
  5
A3
330
3B7
100
AcDbEntity
  8
DIMNSIONS
  6
Continuous
 62
     7
100
AcDbLine
 10
2778.021992535476
 20
868.6255808851756
 30
0.0
 11
2798.022221232167
 21
835.3396106229547
 31
0.0
  0
LINE
  5
A4
330
3B7
100
AcDbEntity
  8
DIMNSIONS
  6
Continuous
 62
     7
100
AcDbLine
 10
2778.021992535476
 20
868.6255808851756
 30
0.0
 11
2778.699713537199
 21
829.7989707001333
 31
0.0
  0
TEXT
  5
A5
330
3B7
100
AcDbEntity
  8
DIMNSIONS
 62
     7
100
AcDbText
 10
2822.680919196214
 20
644.3548208014355
 30
0.0
 40
40.72102864583334
  1
377
 50
105.0
 41
0.7
 11
2783.347425954147
 21
633.8154430517286
 31
0.0
100
AcDbText
 73
     3
  0
LINE
  5
A6
330
3B7
100
AcDbEntity
  8
DIMNSIONS
  6
Continuous
 62
     7
100
AcDbLine
 10
3057.753034383594
 20
532.5746440234926
 30
0.0
 11
3120.509860551245
 21
298.3629802440489
 31
0.0
  0
LINE
  5
A7
330
3B7
100
AcDbEntity
  8
DIMNSIONS
  6
Continuous
 62
     7
100
AcDbLine
 10
3168.50864583054
 20
942.1978788784171
 30
0.0
 11
3326.252061550816
 21
353.4914368508855
 31
0.0
  0
LINE
  5
A8
330
3B7
100
AcDbEntity
  8
DIMNSIONS
  6
Continuous
 62
     7
100
AcDbLine
 10
3112.745289198169
 20
327.3407550327208
 30
0.0
 11
3318.487490197741
 21
382.4692116395577
 31
0.0
  0
LINE
  5
A9
330
3B7
100
AcDbEntity
  8
DIMNSIONS
  6
Continuous
 62
     7
100
AcDbLine
 10
3112.745289198169
 20
327.3407550327208
 30
0.0
 11
3146.708980462113
 21
346.1671365210721
 31
0.0
  0
LINE
  5
AA
330
3B7
100
AcDbEntity
  8
DIMNSIONS
  6
Continuous
 62
     7
100
AcDbLine
 10
3112.745289198169
 20
327.3407550327208
 30
0.0
 11
3151.571899383212
 21
326.6630340309983
 31
0.0
  0
LINE
  5
AB
330
3B7
100
AcDbEntity
  8
DIMNSIONS
  6
Continuous
 62
     7
100
AcDbLine
 10
3318.487490197741
 20
382.4692116395577
 30
0.0
 11
3284.857537429961
 21
363.052949356246
 31
0.0
  0
LINE
  5
AC
330
3B7
100
AcDbEntity
  8
DIMNSIONS
  6
Continuous
 62
     7
100
AcDbLine
 10
3318.487490197741
 20
382.4692116395577
 30
0.0
 11
3279.654965631117
 21
382.4692116395577
 31
0.0
  0
TEXT
  5
AD
330
3B7
100
AcDbEntity
  8
DIMNSIONS
 62
     7
100
AcDbText
 10
3173.422647869704
 20
359.0334466772258
 30
0.0
 40
40.72102864583334
  1
213
 50
15.0
 41
0.7
 11
3162.883270119997
 21
398.3669399192932
 31
0.0
100
AcDbText
 73
     3
  0
LINE
  5
AE
330
3B7
100
AcDbEntity
  8
DIMNSIONS
  6
Continuous
 62
     7
100
AcDbLine
 10
3934.499999999998
 20
901.3004820517771
 30
0.0
 11
3934.499999999998
 21
372.1829629131444
 31
0.0
  0
LINE
  5
AF
330
3B7
100
AcDbEntity
  8
DIMNSIONS
  6
Continuous
 62
     7
100
AcDbLine
 10
3865.499999999999
 20
901.3004820517771
 30
0.0
 11
3865.499999999999
 21
372.1829629131444
 31
0.0
  0
LINE
  5
B0
330
3B7
100
AcDbEntity
  8
DIMNSIONS
  6
Continuous
 62
     7
100
AcDbLine
 10
3865.499999999999
 20
402.1829629131444
 30
0.0
 11
3934.499999999998
 21
402.1829629131444
 31
0.0
  0
LINE
  5
B1
330
3B7
100
AcDbEntity
  8
DIMNSIONS
  6
Continuous
 62
     7
100
AcDbLine
 10
3934.499999999998
 20
402.1829629131444
 30
0.0
 11
4067.436841497505
 21
402.1829629131444
 31
0.0
  0
LINE
  5
B2
330
3B7
100
AcDbEntity
  8
DIMNSIONS
  6
Continuous
 62
     7
100
AcDbLine
 10
3934.499999999998
 20
402.1829629131444
 30
0.0
 11
3972.009338378904
 21
412.2335598403978
 31
0.0
  0
LINE
  5
B3
330
3B7
100
AcDbEntity
  8
DIMNSIONS
  6
Continuous
 62
     7
100
AcDbLine
 10
3934.499999999998
 20
402.1829629131444
 30
0.0
 11
3972.009338378904
 21
392.1323659858908
 31
0.0
  0
LINE
  5
B4
330
3B7
100
AcDbEntity
  8
DIMNSIONS
  6
Continuous
 62
     7
100
AcDbLine
 10
3865.499999999999
 20
402.1829629131444
 30
0.0
 11
3790.499999999999
 21
402.1829629131444
 31
0.0
  0
LINE
  5
B5
330
3B7
100
AcDbEntity
  8
DIMNSIONS
  6
Continuous
 62
     7
100
AcDbLine
 10
3865.499999999999
 20
402.1829629131444
 30
0.0
 11
3827.990661621092
 21
392.1323659858907
 31
0.0
  0
LINE
  5
B6
330
3B7
100
AcDbEntity
  8
DIMNSIONS
  6
Continuous
 62
     7
100
AcDbLine
 10
3865.499999999999
 20
402.1829629131444
 30
0.0
 11
3827.990661621092
 21
412.2335598403978
 31
0.0
  0
TEXT
  5
B7
330
3B7
100
AcDbEntity
  8
DIMNSIONS
 62
     7
100
AcDbText
 10
3961.603508164172
 20
417.0912962464777
 30
0.0
 40
40.72102864583334
  1
69.0
 41
0.7
 11
3961.603508164172
 21
457.8123248923111
 31
0.0
100
AcDbText
 73
     3
  0
ARC
  5
B8
330
3B7
100
AcDbEntity
  8
DIMNSIONS
  6
Continuous
 62
     7
100
AcDbCircle
 10
3300.0
 20
1249.300482051777
 30
0.0
 40
146.4144240865514
100
AcDbArc
 50
179.9999999999999
 51
270.0
  0
LINE
  5
B9
330
3B7
100
AcDbEntity
  8
DIMNSIONS
  6
Continuous
 62
     7
100
AcDbLine
 10
3300.0
 20
1102.886057965226
 30
0.0
 11
3262.490661621094
 21
1092.835461037972
 31
0.0
  0
LINE
  5
BA
330
3B7
100
AcDbEntity
  8
DIMNSIONS
  6
Continuous
 62
     7
100
AcDbLine
 10
3300.0
 20
1102.886057965226
 30
0.0
 11
3262.490661621094
 21
1112.936654892479
 31
0.0
  0
LINE
  5
BB
330
3B7
100
AcDbEntity
  8
DIMNSIONS
  6
Continuous
 62
     7
100
AcDbLine
 10
3153.585575913449
 20
1249.300482051777
 30
0.0
 11
3163.636172840702
 21
1211.79114367287
 31
0.0
  0
LINE
  5
BC
330
3B7
100
AcDbEntity
  8
DIMNSIONS
  6
Continuous
 62
     7
100
AcDbLine
 10
3153.585575913449
 20
1249.300482051777
 30
0.0
 11
3143.534978986195
 21
1211.79114367287
 31
0.0
  0
TEXT
  5
BD
330
3B7
100
AcDbEntity
  8
DIMNSIONS
 62
     7
100
AcDbText
 10
3177.308627446916
 20
1177.532699325703
 30
0.0
 40
40.72102864583334
  1
90°
 50
322.1819505128885
 41
0.7
 11
3202.276968053058
 21
1209.70076021458
 31
0.0
100
AcDbText
 73
     3
  0
LINE
  5
BE
330
3B7
100
AcDbEntity
  8
DIMNSIONS
  6
Continuous
 62
     7
100
AcDbLine
 10
2870.109226684265
 20
1232.870868083067
 30
0.0
 11
2847.384528412759
 21
1317.680596619001
 31
0.0
  0
LINE
  5
BF
330
3B7
100
AcDbEntity
  8
DIMNSIONS
  6
Continuous
 62
     7
100
AcDbLine
 10
2967.011396341014
 20
1269.188487991517
 30
0.0
 11
2946.874888520533
 21
1344.338958264561
 31
0.0
  0
LINE
  5
C0
330
3B7
100
AcDbEntity
  8
DIMNSIONS
  6
Continuous
 62
     7
100
AcDbLine
 10
2855.149099765835
 20
1288.702821830329
 30
0.0
 11
2954.639459873608
 21
1315.361183475889
 31
0.0
  0
LINE
  5
C1
330
3B7
100
AcDbEntity
  8
DIMNSIONS
  6
Continuous
 62
     7
100
AcDbLine
 10
2855.149099765835
 20
1288.702821830329
 30
0.0
 11
2888.779052533613
 21
1308.119084113641
 31
0.0
  0
LINE
  5
C2
330
3B7
100
AcDbEntity
  8
DIMNSIONS
  6
Continuous
 62
     7
100
AcDbLine
 10
2855.149099765835
 20
1288.702821830329
 30
0.0
 11
2893.981624332458
 21
1288.702821830329
 31
0.0
  0
LINE
  5
C3
330
3B7
100
AcDbEntity
  8
DIMNSIONS
  6
Continuous
 62
     7
100
AcDbLine
 10
2954.639459873608
 20
1315.361183475889
 30
0.0
 11
2921.009507105829
 21
1295.944921192577
 31
0.0
  0
LINE
  5
C4
330
3B7
100
AcDbEntity
  8
DIMNSIONS
  6
Continuous
 62
     7
100
AcDbLine
 10
2954.639459873608
 20
1315.361183475889
 30
0.0
 11
2915.806935306985
 21
1315.361183475889
 31
0.0
  0
TEXT
  5
C5
330
3B7
100
AcDbEntity
  8
DIMNSIONS
 62
     7
100
AcDbText
 10
2862.70053799147
 20
1306.160465994195
 30
0.0
 40
40.72102864583334
  1
103
 50
15.0
 41
0.7
 11
2852.161160241763
 21
1345.493959236263
 31
0.0
100
AcDbText
 73
     3
  0
LINE
  5
C6
330
3B7
100
AcDbEntity
  8
DIMNSIONS
  6
Continuous
 62
     7
100
AcDbLine
 10
3057.753034383594
 20
532.5746440234921
 30
0.0
 11
3091.244308483864
 21
407.5835074710666
 31
0.0
  0
LINE
  5
C7
330
3B7
100
AcDbEntity
  8
DIMNSIONS
  6
Continuous
 62
     7
100
AcDbLine
 10
3159.831584942374
 20
549.5737474061562
 30
0.0
 11
3190.734668591619
 21
434.2418691166212
 31
0.0
  0
LINE
  5
C8
330
3B7
100
AcDbEntity
  8
DIMNSIONS
  6
Continuous
 62
     7
100
AcDbLine
 10
3083.479737130788
 20
436.5612822597385
 30
0.0
 11
3182.970097238543
 21
463.2196439052933
 31
0.0
  0
LINE
  5
C9
330
3B7
100
AcDbEntity
  8
DIMNSIONS
  6
Continuous
 62
     7
100
AcDbLine
 10
3083.479737130788
 20
436.5612822597385
 30
0.0
 11
3117.109689898567
 21
455.9775445430503
 31
0.0
  0
LINE
  5
CA
330
3B7
100
AcDbEntity
  8
DIMNSIONS
  6
Continuous
 62
     7
100
AcDbLine
 10
3083.479737130788
 20
436.5612822597385
 30
0.0
 11
3122.312261697412
 21
436.5612822597385
 31
0.0
  0
LINE
  5
CB
330
3B7
100
AcDbEntity
  8
DIMNSIONS
  6
Continuous
 62
     7
100
AcDbLine
 10
3182.970097238543
 20
463.2196439052933
 30
0.0
 11
3149.684126976323
 21
443.2194152086023
 31
0.0
  0
LINE
  5
CC
330
3B7
100
AcDbEntity
  8
DIMNSIONS
  6
Continuous
 62
     7
100
AcDbLine
 10
3182.970097238543
 20
463.2196439052933
 30
0.0
 11
3144.143487053501
 21
462.5419229035708
 31
0.0
  0
TEXT
  5
CD
330
3B7
100
AcDbEntity
  8
DIMNSIONS
 62
     7
100
AcDbText
 10
3091.031175356415
 20
454.0189264236025
 30
0.0
 40
40.72102864583334
  1
103
 50
15.0
 41
0.7
 11
3080.491797606708
 21
493.3524196656699
 31
0.0
100
AcDbText
 73
     3
  0
LINE
  5
CE
330
3B7
100
AcDbEntity
  8
DIMNSIONS
  6
Continuous
 62
     7
100
AcDbLine
 10
3695.499999999999
 20
1249.300482051777
 30
0.0
 11
3570.0
 21
1249.300482051777
 31
0.0
  0
LINE
  5
CF
330
3B7
100
AcDbEntity
  8
DIMNSIONS
  6
Continuous
 62
     7
100
AcDbLine
 10
3870.0
 20
1204.300482051773
 30
0.0
 11
3570.0
 21
1204.300482051773
 31
0.0
  0
LINE
  5
D0
330
3B7
100
AcDbEntity
  8
DIMNSIONS
  6
Continuous
 62
     7
100
AcDbLine
 10
3600.0
 20
1204.300482051773
 30
0.0
 11
3600.0
 21
1249.300482051777
 31
0.0
  0
LINE
  5
D1
330
3B7
100
AcDbEntity
  8
DIMNSIONS
  6
Continuous
 62
     7
100
AcDbLine
 10
3600.0
 20
1249.300482051777
 30
0.0
 11
3600.0
 21
1380.133815385211
 31
0.0
  0
LINE
  5
D2
330
3B7
100
AcDbEntity
  8
DIMNSIONS
  6
Continuous
 62
     7
100
AcDbLine
 10
3600.0
 20
1249.300482051777
 30
0.0
 11
3589.949403072747
 21
1286.809820430683
 31
0.0
  0
LINE
  5
D3
330
3B7
100
AcDbEntity
  8
DIMNSIONS
  6
Continuous
 62
     7
100
AcDbLine
 10
3600.0
 20
1249.300482051777
 30
0.0
 11
3610.050596927254
 21
1286.809820430683
 31
0.0
  0
LINE
  5
D4
330
3B7
100
AcDbEntity
  8
DIMNSIONS
  6
Continuous
 62
     7
100
AcDbLine
 10
3600.0
 20
1204.300482051773
 30
0.0
 11
3600.0
 21
1129.300482051774
 31
0.0
  0
LINE
  5
D5
330
3B7
100
AcDbEntity
  8
DIMNSIONS
  6
Continuous
 62
     7
100
AcDbLine
 10
3600.0
 20
1204.300482051773
 30
0.0
 11
3610.050596927254
 21
1166.791143672867
 31
0.0
  0
LINE
  5
D6
330
3B7
100
AcDbEntity
  8
DIMNSIONS
  6
Continuous
 62
     7
100
AcDbLine
 10
3600.0
 20
1204.300482051773
 30
0.0
 11
3589.949403072747
 21
1166.791143672867
 31
0.0
  0
TEXT
  5
D7
330
3B7
100
AcDbEntity
  8
DIMNSIONS
 62
     7
100
AcDbText
 10
3585.091666666667
 20
1274.300482051877
 30
0.0
 40
40.72102864583334
  1
45.0
 50
90.0
 41
0.7
 11
3544.370638020833
 21
1274.300482051877
 31
0.0
100
AcDbText
 73
     3
  0
LINE
  5
D8
330
3B7
100
AcDbEntity
  8
DIMNSIONS
  6
Continuous
 62
     7
100
AcDbLine
 10
3870.0
 20
1204.300482051773
 30
0.0
 11
3570.0
 21
1204.300482051773
 31
0.0
  0
LINE
  5
D9
330
3B7
100
AcDbEntity
  8
DIMNSIONS
  6
Continuous
 62
     7
100
AcDbLine
 10
3835.499999999999
 20
1058.300482051777
 30
0.0
 11
3570.0
 21
1058.300482051777
 31
0.0
  0
LINE
  5
DA
330
3B7
100
AcDbEntity
  8
DIMNSIONS
  6
Continuous
 62
     7
100
AcDbLine
 10
3600.0
 20
1204.300482051773
 30
0.0
 11
3600.0
 21
1058.300482051777
 31
0.0
  0
LINE
  5
DB
330
3B7
100
AcDbEntity
  8
DIMNSIONS
  6
Continuous
 62
     7
100
AcDbLine
 10
3600.0
 20
1204.300482051773
 30
0.0
 11
3610.050596927254
 21
1166.791143672867
 31
0.0
  0
LINE
  5
DC
330
3B7
100
AcDbEntity
  8
DIMNSIONS
  6
Continuous
 62
     7
100
AcDbLine
 10
3600.0
 20
1204.300482051773
 30
0.0
 11
3589.949403072747
 21
1166.791143672867
 31
0.0
  0
LINE
  5
DD
330
3B7
100
AcDbEntity
  8
DIMNSIONS
  6
Continuous
 62
     7
100
AcDbLine
 10
3600.0
 20
1058.300482051777
 30
0.0
 11
3589.949403072747
 21
1095.809820430683
 31
0.0
  0
LINE
  5
DE
330
3B7
100
AcDbEntity
  8
DIMNSIONS
  6
Continuous
 62
     7
100
AcDbLine
 10
3600.0
 20
1058.300482051777
 30
0.0
 11
3610.050596927254
 21
1095.809820430683
 31
0.0
  0
TEXT
  5
DF
330
3B7
100
AcDbEntity
  8
DIMNSIONS
 62
     7
100
AcDbText
 10
3585.091666666667
 20
1091.612982051775
 30
0.0
 40
40.72102864583334
  1
146
 50
90.0
 41
0.7
 11
3544.370638020833
 21
1091.612982051775
 31
0.0
100
AcDbText
 73
     3
  0
LINE
  5
E0
330
3B7
100
AcDbEntity
  8
DIMNSIONS
  6
Continuous
 62
     7
100
AcDbLine
 10
3835.499999999999
 20
931.3004820517772
 30
0.0
 11
3570.0
 21
931.3004820517772
 31
0.0
  0
LINE
  5
E1
330
3B7
100
AcDbEntity
  8
DIMNSIONS
  6
Continuous
 62
     7
100
AcDbLine
 10
3840.499999999999
 20
1058.300482051777
 30
0.0
 11
3570.0
 21
1058.300482051777
 31
0.0
  0
LINE
  5
E2
330
3B7
100
AcDbEntity
  8
DIMNSIONS
  6
Continuous
 62
     7
100
AcDbLine
 10
3600.0
 20
931.3004820517772
 30
0.0
 11
3600.0
 21
1058.300482051777
 31
0.0
  0
LINE
  5
E3
330
3B7
100
AcDbEntity
  8
DIMNSIONS
  6
Continuous
 62
     7
100
AcDbLine
 10
3600.0
 20
931.3004820517772
 30
0.0
 11
3589.949403072747
 21
968.8098204306834
 31
0.0
  0
LINE
  5
E4
330
3B7
100
AcDbEntity
  8
DIMNSIONS
  6
Continuous
 62
     7
100
AcDbLine
 10
3600.0
 20
931.3004820517772
 30
0.0
 11
3610.050596927254
 21
968.8098204306834
 31
0.0
  0
LINE
  5
E5
330
3B7
100
AcDbEntity
  8
DIMNSIONS
  6
Continuous
 62
     7
100
AcDbLine
 10
3600.0
 20
1058.300482051777
 30
0.0
 11
3610.050596927254
 21
1020.79114367287
 31
0.0
  0
LINE
  5
E6
330
3B7
100
AcDbEntity
  8
DIMNSIONS
  6
Continuous
 62
     7
100
AcDbLine
 10
3600.0
 20
1058.300482051777
 30
0.0
 11
3589.949403072747
 21
1020.79114367287
 31
0.0
  0
TEXT
  5
E7
330
3B7
100
AcDbEntity
  8
DIMNSIONS
 62
     7
100
AcDbText
 10
3585.091666666667
 20
955.1129820517772
 30
0.0
 40
40.72102864583334
  1
127
 50
90.0
 41
0.7
 11
3544.370638020833
 21
955.1129820517772
 31
0.0
100
AcDbText
 73
     3
  0
LINE
  5
E8
330
3B7
100
AcDbEntity
  8
DIMNSIONS
  6
Continuous
 62
     7
100
AcDbLine
 10
3903.116071913132
 20
1213.380685564481
 30
0.0
 11
3950.0
 21
1350.0
 31
0.0
  0
LINE
  5
E9
330
3B7
100
AcDbEntity
  8
DIMNSIONS
  6
Continuous
 62
     7
100
AcDbLine
 10
3903.116071913132
 20
1213.380685564481
 30
0.0
 11
3905.824891893482
 21
1252.118616052976
 31
0.0
  0
LINE
  5
EA
330
3B7
100
AcDbEntity
  8
DIMNSIONS
  6
Continuous
 62
     7
100
AcDbLine
 10
3903.116071913132
 20
1213.380685564481
 30
0.0
 11
3924.830944074642
 21
1245.574307467379
 31
0.0
  0
LINE
  5
EB
330
3B7
100
AcDbEntity
  8
DIMNSIONS
  6
Continuous
 62
     7
100
AcDbLine
 10
3950.0
 20
1350.0
 30
0.0
 11
3980.0
 21
1350.0
 31
0.0
  0
TEXT
  5
EC
330
3B7
100
AcDbEntity
  8
DIMNSIONS
 62
     7
100
AcDbText
 10
3980.0
 20
1330.95
 30
0.0
 40
40.72102864583334
  1
M10金具取付ポイント
 41
0.7
 11
3980.0
 21
1371.671028645833
 31
0.0
100
AcDbText
 73
     3
  0
LINE
  5
ED
330
3B7
100
AcDbEntity
  8
DIMNSIONS
  6
Continuous
 62
     7
100
AcDbLine
 10
3161.029766444009
 20
980.7714016890129
 30
0.0
 11
3175.0
 21
1450.0
 31
0.0
  0
LINE
  5
EE
330
3B7
100
AcDbEntity
  8
DIMNSIONS
  6
Continuous
 62
     7
100
AcDbLine
 10
3161.029766444009
 20
980.7714016890129
 30
0.0
 11
3152.294349099913
 21
1018.608651166768
 31
0.0
  0
LINE
  5
EF
330
3B7
100
AcDbEntity
  8
DIMNSIONS
  6
Continuous
 62
     7
100
AcDbLine
 10
3161.029766444009
 20
980.7714016890129
 30
0.0
 11
3172.38329785024
 21
1017.907129618126
 31
0.0
  0
LINE
  5
F0
330
3B7
100
AcDbEntity
  8
DIMNSIONS
  6
Continuous
 62
     7
100
AcDbLine
 10
3175.0
 20
1450.0
 30
0.0
 11
3205.0
 21
1450.0
 31
0.0
  0
TEXT
  5
F1
330
3B7
100
AcDbEntity
  8
DIMNSIONS
 62
     7
100
AcDbText
 10
3205.0
 20
1430.95
 30
0.0
 40
40.72102864583334
  1
M10金具取付ポイント(左右2ヵ所)
 41
0.7
 11
3205.0
 21
1471.671028645833
 31
0.0
100
AcDbText
 73
     3
  0
LINE
  5
F2
330
3B7
100
AcDbEntity
  8
DIMNSIONS
  6
Continuous
 62
     7
100
AcDbLine
 10
2322.500000000001
 20
1252.300482051772
 30
0.0
 11
2070.0
 21
1252.300482051772
 31
0.0
  0
LINE
  5
F3
330
3B7
100
AcDbEntity
  8
DIMNSIONS
  6
Continuous
 62
     7
100
AcDbLine
 10
2195.5
 20
1249.300482051775
 30
0.0
 11
2070.0
 21
1249.300482051775
 31
0.0
  0
LINE
  5
F4
330
3B7
100
AcDbEntity
  8
DIMNSIONS
  6
Continuous
 62
     7
100
AcDbLine
 10
2100.0
 20
1249.300482051775
 30
0.0
 11
2100.0
 21
1252.300482051772
 31
0.0
  0
LINE
  5
F5
330
3B7
100
AcDbEntity
  8
DIMNSIONS
  6
Continuous
 62
     7
100
AcDbLine
 10
2100.0
 20
1252.300482051772
 30
0.0
 11
2100.0
 21
1365.487982051774
 31
0.0
  0
LINE
  5
F6
330
3B7
100
AcDbEntity
  8
DIMNSIONS
  6
Continuous
 62
     7
100
AcDbLine
 10
2100.0
 20
1252.300482051772
 30
0.0
 11
2089.949403072747
 21
1289.809820430678
 31
0.0
  0
LINE
  5
F7
330
3B7
100
AcDbEntity
  8
DIMNSIONS
  6
Continuous
 62
     7
100
AcDbLine
 10
2100.0
 20
1252.300482051772
 30
0.0
 11
2110.050596927253
 21
1289.809820430678
 31
0.0
  0
LINE
  5
F8
330
3B7
100
AcDbEntity
  8
DIMNSIONS
  6
Continuous
 62
     7
100
AcDbLine
 10
2100.0
 20
1249.300482051775
 30
0.0
 11
2100.0
 21
1174.300482051775
 31
0.0
  0
LINE
  5
F9
330
3B7
100
AcDbEntity
  8
DIMNSIONS
  6
Continuous
 62
     7
100
AcDbLine
 10
2100.0
 20
1249.300482051775
 30
0.0
 11
2110.050596927253
 21
1211.791143672869
 31
0.0
  0
LINE
  5
FA
330
3B7
100
AcDbEntity
  8
DIMNSIONS
  6
Continuous
 62
     7
100
AcDbLine
 10
2100.0
 20
1249.300482051775
 30
0.0
 11
2089.949403072747
 21
1211.791143672869
 31
0.0
  0
TEXT
  5
FB
330
3B7
100
AcDbEntity
  8
DIMNSIONS
 62
     7
100
AcDbText
 10
2085.091666666667
 20
1286.112982051774
 30
0.0
 40
40.72102864583334
  1
3.0
 50
90.0
 41
0.7
 11
2044.370638020834
 21
1286.112982051774
 31
0.0
100
AcDbText
 73
     3
  0
LINE
  5
FC
330
3B7
100
AcDbEntity
  8
DIMNSIONS
  6
Continuous
 62
     7
100
AcDbLine
 10
3862.370697026919
 20
925.0388957589372
 30
0.0
 11
3550.0
 21
300.0
 31
0.0
  0
LINE
  5
FD
330
3B7
100
AcDbEntity
  8
DIMNSIONS
  6
Continuous
 62
     7
100
AcDbLine
 10
3862.370697026919
 20
925.0388957589372
 30
0.0
 11
3854.961102026427
 21
886.9198340424407
 31
0.0
  0
LINE
  5
FE
330
3B7
100
AcDbEntity
  8
DIMNSIONS
  6
Continuous
 62
     7
100
AcDbLine
 10
3862.370697026919
 20
925.0388957589372
 30
0.0
 11
3836.89426866649
 21
895.7316174442704
 31
0.0
  0
LINE
  5
FF
330
3B7
100
AcDbEntity
  8
DIMNSIONS
  6
Continuous
 62
     7
100
AcDbLine
 10
3550.0
 20
300.0
 30
0.0
 11
3580.0
 21
300.0
 31
0.0
  0
TEXT
  5
100
330
3B7
100
AcDbEntity
  8
DIMNSIONS
 62
     7
100
AcDbText
 10
3580.0
 20
280.9500000000002
 30
0.0
 40
40.72102864583334
  1
M8金具取付ポイント(4ヵ所)
 41
0.7
 11
3580.0
 21
321.6710286458335
 31
0.0
100
AcDbText
 73
     3
  0
LINE
  5
101
330
3B7
100
AcDbEntity
  8
DIMNSIONS
  6
Continuous
 62
     7
100
AcDbLine
 10
2401.072437923429
 20
1887.151520536132
 30
0.0
 11
2425.0
 21
2100.0
 31
0.0
  0
LINE
  5
102
330
3B7
100
AcDbEntity
  8
DIMNSIONS
  6
Continuous
 62
     7
100
AcDbLine
 10
2401.072437923429
 20
1887.151520536132
 30
0.0
 11
2395.667995061384
 21
1925.606129643082
 31
0.0
  0
LINE
  5
103
330
3B7
100
AcDbEntity
  8
DIMNSIONS
  6
Continuous
 62
     7
100
AcDbLine
 10
2401.072437923429
 20
1887.151520536132
 30
0.0
 11
2415.619357665071
 21
1923.156410346373
 31
0.0
  0
LINE
  5
104
330
3B7
100
AcDbEntity
  8
DIMNSIONS
  6
Continuous
 62
     7
100
AcDbLine
 10
2425.0
 20
2100.0
 30
0.0
 11
2455.0
 21
2100.0
 31
0.0
  0
TEXT
  5
105
330
3B7
100
AcDbEntity
  8
DIMNSIONS
 62
     7
100
AcDbText
 10
2455.0
 20
2080.95
 30
0.0
 40
40.72102864583334
  1
M10金具取付ポイント
 41
0.7
 11
2455.0
 21
2121.671028645833
 31
0.0
100
AcDbText
 73
     3
  0
LINE
  5
106
330
3B7
100
AcDbEntity
  8
DIMNSIONS
  6
Continuous
 62
     7
100
AcDbLine
 10
2401.907049116016
 20
1606.494504012189
 30
0.0
 11
2475.0
 21
2000.0
 31
0.0
  0
LINE
  5
107
330
3B7
100
AcDbEntity
  8
DIMNSIONS
  6
Continuous
 62
     7
100
AcDbLine
 10
2401.907049116016
 20
1606.494504012189
 30
0.0
 11
2399.198229135667
 21
1645.232434500683
 31
0.0
  0
LINE
  5
108
330
3B7
100
AcDbEntity
  8
DIMNSIONS
  6
Continuous
 62
     7
100
AcDbLine
 10
2401.907049116016
 20
1606.494504012189
 30
0.0
 11
2418.930107443001
 21
1641.396945895436
 31
0.0
  0
LINE
  5
109
330
3B7
100
AcDbEntity
  8
DIMNSIONS
  6
Continuous
 62
     7
100
AcDbLine
 10
2475.0
 20
2000.0
 30
0.0
 11
2505.0
 21
2000.0
 31
0.0
  0
TEXT
  5
10A
330
3B7
100
AcDbEntity
  8
DIMNSIONS
 62
     7
100
AcDbText
 10
2505.0
 20
1980.95
 30
0.0
 40
40.72102864583334
  1
M10金具取付ポイント(上下2ヵ所)
 41
0.7
 11
2505.0
 21
2021.671028645833
 31
0.0
100
AcDbText
 73
     3
  0
TEXT
  5
10B
330
3B7
100
AcDbEntity
  8
DIMNSIONS
 62
     7
100
AcDbText
 10
3300.0
 20
-19.04999999999981
 30
0.0
 40
40.72102864583334
  1
※ センタ ー振り分け
 41
0.7
 11
3300.0
 21
21.67102864583353
 31
0.0
100
AcDbText
 73
     3
  0
TEXT
  5
10C
330
3B7
100
AcDbEntity
  8
DIMNSIONS
 62
     7
100
AcDbText
 10
4074.573231617101
 20
449.264629579811
 30
0.0
 40
28.50472005208333
  1
※
 41
0.7
 11
4074.573231617101
 21
477.7693496318943
 31
0.0
100
AcDbText
 73
     3
  0
LINE
  5
10D
330
3B7
100
AcDbEntity
  8
DIMNSIONS
  6
Continuous
 62
     7
100
AcDbLine
 10
2877.873798037341
 20
1163.893093294395
 30
0.0
 11
2877.873798037341
 21
565.7080415722803
 31
0.0
  0
ARC
  5
10E
330
3B7
100
AcDbEntity
  8
DIMNSIONS
  6
Continuous
 62
     7
100
AcDbCircle
 10
2877.873798037341
 20
1203.893093294394
 30
0.0
 40
608.1850517221145
100
AcDbArc
 50
270.0
 51
285.0000000000001
  0
LINE
  5
10F
330
3B7
100
AcDbEntity
  8
DIMNSIONS
  6
Continuous
 62
     7
100
AcDbLine
 10
3035.283672369687
 20
616.4314446730519
 30
0.0
 11
3001.653719601907
 21
597.0151823897402
 31
0.0
  0
LINE
  5
110
330
3B7
100
AcDbEntity
  8
DIMNSIONS
  6
Continuous
 62
     7
100
AcDbLine
 10
3035.283672369687
 20
616.4314446730519
 30
0.0
 11
2996.451147803063
 21
616.4314446730519
 31
0.0
  0
LINE
  5
111
330
3B7
100
AcDbEntity
  8
DIMNSIONS
  6
Continuous
 62
     7
100
AcDbLine
 10
2877.873798037341
 20
595.7080415722803
 30
0.0
 11
2915.383136416247
 21
605.7586384995341
 31
0.0
  0
LINE
  5
112
330
3B7
100
AcDbEntity
  8
DIMNSIONS
  6
Continuous
 62
     7
100
AcDbLine
 10
2877.873798037341
 20
595.7080415722803
 30
0.0
 11
2915.383136416247
 21
585.6574446450268
 31
0.0
  0
TEXT
  5
113
330
3B7
100
AcDbEntity
  8
DIMNSIONS
 62
     7
100
AcDbText
 10
2896.174594283813
 20
615.1117763020565
 30
0.0
 40
40.72102864583334
  1
15.0°
 50
9.524329920946959
 41
0.7
 11
2889.436632084177
 21
655.2714829664615
 31
0.0
100
AcDbText
 73
     3
  0
LINE
  5
114
330
3B7
100
AcDbEntity
  8
DIMNSIONS
  6
Continuous
 62
     7
100
AcDbLine
 10
2977.033152814738
 20
1249.506303285695
 30
0.0
 11
3050.0
 21
1550.0
 31
0.0
  0
LINE
  5
115
330
3B7
100
AcDbEntity
  8
DIMNSIONS
  6
Continuous
 62
     7
100
AcDbLine
 10
2977.033152814738
 20
1249.506303285695
 30
0.0
 11
2976.172661425075
 21
1298.803821983132
 31
0.0
  0
LINE
  5
116
330
3B7
100
AcDbEntity
  8
DIMNSIONS
  6
Continuous
 62
     7
100
AcDbLine
 10
2977.033152814738
 20
1249.506303285695
 30
0.0
 11
3000.936704760271
 21
1292.629452516045
 31
0.0
  0
TEXT
  5
117
330
3B7
100
AcDbEntity
  8
DIMNSIONS
 62
     7
100
AcDbText
 10
2872.141408962674
 20
1554.639485677083
 30
0.0
 40
40.72102864583334
  1
M10金具取付ポイント位置
 41
0.7
 72
     1
 11
3075.0
 21
1575.0
 31
0.0
100
AcDbText
 73
     2
  0
TEXT
  5
118
330
3B7
100
AcDbEntity
  8
DIMNSIONS
 62
     7
100
AcDbText
 10
3197.141408962674
 20
154.6394856770833
 30
0.0
 40
40.72102864583334
  1
M10金具取付ポイント位置
 41
0.7
 72
     1
 11
3400.0
 21
175.0
 31
0.0
100
AcDbText
 73
     2
  0
LINE
  5
119
330
3B7
100
AcDbEntity
  8
DIMNSIONS
  6
Continuous
 62
     7
100
AcDbLine
 10
3160.579103274284
 20
565.5550082821035
 30
0.0
 11
3400.0
 21
200.0
 31
0.0
  0
LINE
  5
11A
330
3B7
100
AcDbEntity
  8
DIMNSIONS
  6
Continuous
 62
     7
100
AcDbLine
 10
3160.579103274284
 20
565.5550082821035
 30
0.0
 11
3197.790080328491
 21
533.2079994276965
 31
0.0
  0
LINE
  5
11B
330
3B7
100
AcDbEntity
  8
DIMNSIONS
  6
Continuous
 62
     7
100
AcDbLine
 10
3160.579103274284
 20
565.5550082821035
 30
0.0
 11
3176.631250275664
 21
518.9361883506427
 31
0.0
  0
TEXT
  5
11C
330
3B7
100
AcDbEntity
  8
DATA
 62
     7
100
AcDbText
 10
1933.923611111111
 20
-312.8098813003342
 30
0.0
 40
28.50472005208334
  1
※仕様及び外観は予告なく変更されることがあります。
 41
0.7
 11
1933.923611111111
 21
-284.3051612482509
 31
0.0
100
AcDbText
 73
     3
  0
TEXT
  5
11D
330
3B7
100
AcDbEntity
  8
DATA
 62
     7
100
AcDbText
 10
1933.923611111111
 20
-349.8515479670007
 30
0.0
 40
28.50472005208334
  1
　また、同一商品でも若干の個体差があることがあります。ご了承ください。
 41
0.7
 11
1933.923611111111
 21
-321.3468279149174
 31
0.0
100
AcDbText
 73
     3
  0
LINE
  5
11E
330
3B7
100
AcDbEntity
  8
DATA
  6
Continuous
 62
     7
100
AcDbLine
 10
4025.00004129588
 20
1624.999999999996
 30
0.0
 11
4375.000041295872
 21
1625.000000000003
 31
0.0
  0
ARC
  5
11F
330
3B7
100
AcDbEntity
  8
DATA
  6
Continuous
 62
     7
100
AcDbCircle
 10
4375.000041295868
 20
2370.499999999987
 30
0.0
 40
70.0
100
AcDbArc
 50
0.0
 51
90.0
  0
ARC
  5
120
330
3B7
100
AcDbEntity
  8
DATA
  6
Continuous
 62
     7
100
AcDbCircle
 10
4375.000041295872
 20
1695.000000000003
 30
0.0
 40
70.00000000000001
100
AcDbArc
 50
270.0
 51
0.0
  0
LINE
  5
121
330
3B7
100
AcDbEntity
  8
DATA
  6
Continuous
 62
     7
100
AcDbLine
 10
4025.000041295853
 20
2440.499999999981
 30
0.0
 11
4375.000041295868
 21
2440.499999999988
 31
0.0
  0
ARC
  5
122
330
3B7
100
AcDbEntity
  8
DATA
  6
Continuous
 62
     7
100
AcDbCircle
 10
6756.748254247553
 20
2032.750000000004
 30
0.0
 40
2336.290834332337
100
AcDbArc
 50
171.6878078779801
 51
188.3121921220213
  0
ARC
  5
123
330
3B7
100
AcDbEntity
  8
DATA
  6
Continuous
 62
     7
100
AcDbCircle
 10
4025.000041295859
 20
2370.499999999981
 30
0.0
 40
70.0
100
AcDbArc
 50
90.0
 51
180.0000000000052
  0
ARC
  5
124
330
3B7
100
AcDbEntity
  8
DATA
  6
Continuous
 62
     7
100
AcDbCircle
 10
4025.000041295873
 20
1694.999999999996
 30
0.0
 40
70.0
100
AcDbArc
 50
180.0000000000052
 51
270.0
  0
ARC
  5
125
330
3B7
100
AcDbEntity
  8
DATA
  6
Continuous
 62
     7
100
AcDbCircle
 10
1643.251828344181
 20
2032.74999999993
 30
0.0
 40
2336.290834332336
100
AcDbArc
 50
351.6878078779754
 51
1.375207410114171
  0
ARC
  5
126
330
3B7
100
AcDbEntity
  8
DATA
  6
Continuous
 62
     7
100
AcDbCircle
 10
4048.849574620947
 20
2090.499999999977
 30
0.0
 40
70.0
100
AcDbArc
 50
90.0
 51
181.3752074101136
  0
ARC
  5
127
330
3B7
100
AcDbEntity
  8
DATA
  6
Continuous
 62
     7
100
AcDbCircle
 10
1643.251828342641
 20
2032.749999999746
 30
0.0
 40
2336.290834333893
100
AcDbArc
 50
1.375207410118646
 51
8.312192122018121
  0
CIRCLE
  5
128
330
3B7
100
AcDbEntity
  8
DATA
  6
Continuous
 62
     7
100
AcDbCircle
 10
4304.553862354874
 20
2297.612280061219
 30
0.0
 40
82.24999999999999
  0
CIRCLE
  5
129
330
3B7
100
AcDbEntity
  8
DATA
  6
Continuous
 62
     7
100
AcDbCircle
 10
4371.053862354875
 20
2213.612280061219
 30
0.0
 40
14.0
  0
CIRCLE
  5
12A
330
3B7
100
AcDbEntity
  8
DATA
  6
Continuous
 62
     7
100
AcDbCircle
 10
4238.053862354874
 20
2381.612280061219
 30
0.0
 40
14.0
  0
LINE
  5
12B
330
3B7
100
AcDbEntity
  8
DATA
  6
Continuous
 62
     7
100
AcDbLine
 10
4283.553862354875
 20
2367.612280061219
 30
0.0
 11
4325.553862354874
 21
2367.612280061219
 31
0.0
  0
LINE
  5
12C
330
3B7
100
AcDbEntity
  8
DATA
  6
Continuous
 62
     7
100
AcDbLine
 10
4290.553862354874
 20
2227.612280061219
 30
0.0
 11
4318.553862354874
 21
2227.612280061219
 31
0.0
  0
LINE
  5
12D
330
3B7
100
AcDbEntity
  8
DATA
  6
Continuous
 62
     7
100
AcDbLine
 10
4290.553862354874
 20
2227.612280061219
 30
0.0
 11
4290.553862354874
 21
2236.012280061219
 31
0.0
  0
LINE
  5
12E
330
3B7
100
AcDbEntity
  8
DATA
  6
Continuous
 62
     7
100
AcDbLine
 10
4318.553862354874
 20
2227.612280061219
 30
0.0
 11
4318.553862354874
 21
2236.012280061219
 31
0.0
  0
LINE
  5
12F
330
3B7
100
AcDbEntity
  8
DATA
  6
Continuous
 62
     7
100
AcDbLine
 10
4283.553862354875
 20
2367.612280061219
 30
0.0
 11
4283.553862354875
 21
2355.52223006122
 31
0.0
  0
LINE
  5
130
330
3B7
100
AcDbEntity
  8
DATA
  6
Continuous
 62
     7
100
AcDbLine
 10
4325.553862354874
 20
2367.612280061219
 30
0.0
 11
4325.553862354874
 21
2355.52223006122
 31
0.0
  0
ARC
  5
131
330
3B7
100
AcDbEntity
  8
DATA
  6
Continuous
 62
     7
100
AcDbCircle
 10
4304.553862354874
 20
2297.612280061219
 30
0.0
 40
61.60001874190045
100
AcDbArc
 50
109.9322641506797
 51
257.1961668197001
  0
ARC
  5
132
330
3B7
100
AcDbEntity
  8
DATA
  6
Continuous
 62
     7
100
AcDbCircle
 10
4304.553862354874
 20
2297.612280061219
 30
0.0
 40
61.60002453042165
100
AcDbArc
 50
282.9999995554218
 51
69.99999423796268
  0
ARC
  5
133
330
3B7
100
AcDbEntity
  8
DATA
  6
Continuous
 62
     7
100
AcDbCircle
 10
4304.553862354874
 20
2297.612280061219
 30
0.0
 40
43.40001513444893
100
AcDbArc
 50
60.00001153555933
 51
150.0000115355617
  0
LINE
  5
134
330
3B7
100
AcDbEntity
  8
DATA
  6
Continuous
 62
     7
100
AcDbLine
 10
4266.968482354875
 20
2319.31249006122
 30
0.0
 11
4270.454202354874
 21
2317.299990061219
 31
0.0
  0
LINE
  5
135
330
3B7
100
AcDbEntity
  8
DATA
  6
Continuous
 62
     7
100
AcDbLine
 10
4326.253652354875
 20
2335.197940061219
 30
0.0
 11
4324.241152354874
 21
2331.712150061219
 31
0.0
  0
ARC
  5
136
330
3B7
100
AcDbEntity
  8
DATA
  6
Continuous
 62
     7
100
AcDbCircle
 10
4304.553862354874
 20
2297.612280061219
 30
0.0
 40
43.40001513444893
100
AcDbArc
 50
240.0000115355593
 51
330.0000115355617
  0
LINE
  5
137
330
3B7
100
AcDbEntity
  8
DATA
  6
Continuous
 62
     7
100
AcDbLine
 10
4282.853862354873
 20
2260.02676006122
 30
0.0
 11
4284.866362354875
 21
2263.512550061219
 31
0.0
  0
LINE
  5
138
330
3B7
100
AcDbEntity
  8
DATA
  6
Continuous
 62
     7
100
AcDbLine
 10
4342.139452354875
 20
2275.912420061219
 30
0.0
 11
4338.653662354874
 21
2277.924920061218
 31
0.0
  0
ARC
  5
139
330
3B7
100
AcDbEntity
  8
DATA
  6
Continuous
 62
     7
100
AcDbCircle
 10
4304.553862354874
 20
2297.612280061219
 30
0.0
 40
39.37502682106642
100
AcDbArc
 50
149.9996696821033
 51
240.0002126043032
  0
ARC
  5
13A
330
3B7
100
AcDbEntity
  8
DATA
  6
Continuous
 62
     7
100
AcDbCircle
 10
4304.553862354874
 20
2297.612280061219
 30
0.0
 40
39.37497306423961
100
AcDbArc
 50
330.0002126043048
 51
60.00071824312248
  0
ARC
  5
13B
330
3B7
100
AcDbEntity
  8
DATA
  6
Continuous
 62
     7
100
AcDbCircle
 10
4304.553862354874
 20
2297.612280061219
 30
0.0
 40
25.1999305661268
100
AcDbArc
 50
59.99990885470639
 51
149.9999088547064
  0
ARC
  5
13C
330
3B7
100
AcDbEntity
  8
DATA
  6
Continuous
 62
     7
100
AcDbCircle
 10
4304.553862354874
 20
2297.612280061219
 30
0.0
 40
25.1999305661268
100
AcDbArc
 50
239.9999088547064
 51
329.9999088547064
  0
LINE
  5
13D
330
3B7
100
AcDbEntity
  8
DATA
  6
Continuous
 62
     7
100
AcDbLine
 10
4317.153722354873
 20
2319.436110061219
 30
0.0
 11
4314.703792354873
 21
2315.192640061219
 31
0.0
  0
LINE
  5
13E
330
3B7
100
AcDbEntity
  8
DATA
  6
Continuous
 62
     7
100
AcDbLine
 10
4282.730172354876
 20
2310.212350061219
 30
0.0
 11
4286.973572354875
 21
2307.762350061219
 31
0.0
  0
LINE
  5
13F
330
3B7
100
AcDbEntity
  8
DATA
  6
Continuous
 62
     7
100
AcDbLine
 10
4291.953862354875
 20
2275.788520061219
 30
0.0
 11
4294.403862354874
 21
2280.031990061219
 31
0.0
  0
LINE
  5
140
330
3B7
100
AcDbEntity
  8
DATA
  6
Continuous
 62
     7
100
AcDbLine
 10
4326.377692354873
 20
2285.012420061219
 30
0.0
 11
4322.134222354875
 21
2287.462350061219
 31
0.0
  0
ARC
  5
141
330
3B7
100
AcDbEntity
  8
DATA
  6
Continuous
 62
     7
100
AcDbCircle
 10
4304.553862354874
 20
2297.612280061219
 30
0.0
 40
20.30001274603064
100
AcDbArc
 50
149.9997926340302
 51
240.0002336238284
  0
ARC
  5
142
330
3B7
100
AcDbEntity
  8
DATA
  6
Continuous
 62
     7
100
AcDbCircle
 10
4304.553862354874
 20
2297.612280061219
 30
0.0
 40
20.30000336784493
100
AcDbArc
 50
330.0002336238292
 51
59.99979263402809
  0
LINE
  5
143
330
3B7
100
AcDbEntity
  8
DATA
  6
Continuous
 62
     7
100
AcDbLine
 10
4371.053862354875
 20
2220.612280061219
 30
0.0
 11
4371.053862354875
 21
2206.612280061219
 31
0.0
  0
LINE
  5
144
330
3B7
100
AcDbEntity
  8
DATA
  6
Continuous
 62
     7
100
AcDbLine
 10
4364.053862354874
 20
2213.612280061219
 30
0.0
 11
4378.053862354874
 21
2213.612280061219
 31
0.0
  0
LINE
  5
145
330
3B7
100
AcDbEntity
  8
DATA
  6
Continuous
 62
     7
100
AcDbLine
 10
4238.053862354874
 20
2388.612280061219
 30
0.0
 11
4238.053862354874
 21
2374.612280061219
 31
0.0
  0
LINE
  5
146
330
3B7
100
AcDbEntity
  8
DATA
  6
Continuous
 62
     7
100
AcDbLine
 10
4231.053862354874
 20
2381.612280061219
 30
0.0
 11
4245.053862354875
 21
2381.612280061219
 31
0.0
  0
LINE
  5
147
330
3B7
100
AcDbEntity
  8
DATA
  6
Continuous
 62
     7
100
AcDbLine
 10
4048.849574620941
 20
2160.499999999981
 30
0.0
 11
4351.150507970761
 21
2160.499999999977
 31
0.0
  0
ARC
  5
148
330
3B7
100
AcDbEntity
  8
DATA
  6
Continuous
 62
     7
100
AcDbCircle
 10
4351.150507970792
 20
2090.499999999975
 30
0.0
 40
70.00000000000136
100
AcDbArc
 50
358.6247925898864
 51
90.0
  0
CIRCLE
  5
149
330
3B7
100
AcDbEntity
  8
DATA
  6
Continuous
 62
     7
100
AcDbCircle
 10
4095.000041295874
 20
2297.612280061222
 30
0.0
 40
82.24999999999999
  0
CIRCLE
  5
14A
330
3B7
100
AcDbEntity
  8
DATA
  6
Continuous
 62
     7
100
AcDbCircle
 10
4161.500041295873
 20
2213.612280061222
 30
0.0
 40
14.0
  0
CIRCLE
  5
14B
330
3B7
100
AcDbEntity
  8
DATA
  6
Continuous
 62
     7
100
AcDbCircle
 10
4028.500041295873
 20
2381.612280061222
 30
0.0
 40
14.0
  0
LINE
  5
14C
330
3B7
100
AcDbEntity
  8
DATA
  6
Continuous
 62
     7
100
AcDbLine
 10
4074.000041295874
 20
2367.612280061222
 30
0.0
 11
4116.000041295873
 21
2367.612280061222
 31
0.0
  0
LINE
  5
14D
330
3B7
100
AcDbEntity
  8
DATA
  6
Continuous
 62
     7
100
AcDbLine
 10
4081.000041295873
 20
2227.612280061222
 30
0.0
 11
4109.000041295874
 21
2227.612280061222
 31
0.0
  0
LINE
  5
14E
330
3B7
100
AcDbEntity
  8
DATA
  6
Continuous
 62
     7
100
AcDbLine
 10
4081.000041295873
 20
2227.612280061222
 30
0.0
 11
4081.000041295873
 21
2236.012280061223
 31
0.0
  0
LINE
  5
14F
330
3B7
100
AcDbEntity
  8
DATA
  6
Continuous
 62
     7
100
AcDbLine
 10
4109.000041295874
 20
2227.612280061222
 30
0.0
 11
4109.000041295874
 21
2236.012280061223
 31
0.0
  0
LINE
  5
150
330
3B7
100
AcDbEntity
  8
DATA
  6
Continuous
 62
     7
100
AcDbLine
 10
4074.000041295874
 20
2367.612280061222
 30
0.0
 11
4074.000041295874
 21
2355.522230061223
 31
0.0
  0
LINE
  5
151
330
3B7
100
AcDbEntity
  8
DATA
  6
Continuous
 62
     7
100
AcDbLine
 10
4116.000041295873
 20
2367.612280061222
 30
0.0
 11
4116.000041295873
 21
2355.522230061223
 31
0.0
  0
ARC
  5
152
330
3B7
100
AcDbEntity
  8
DATA
  6
Continuous
 62
     7
100
AcDbCircle
 10
4095.000041295874
 20
2297.612280061222
 30
0.0
 40
61.60001874190049
100
AcDbArc
 50
109.9322641506797
 51
257.1961668197
  0
ARC
  5
153
330
3B7
100
AcDbEntity
  8
DATA
  6
Continuous
 62
     7
100
AcDbCircle
 10
4095.000041295874
 20
2297.612280061222
 30
0.0
 40
61.60002453042168
100
AcDbArc
 50
282.9999995554219
 51
69.99999423796271
  0
ARC
  5
154
330
3B7
100
AcDbEntity
  8
DATA
  6
Continuous
 62
     7
100
AcDbCircle
 10
4095.000041295874
 20
2297.612280061222
 30
0.0
 40
43.40001513444893
100
AcDbArc
 50
60.00001153555933
 51
150.0000115355617
  0
LINE
  5
155
330
3B7
100
AcDbEntity
  8
DATA
  6
Continuous
 62
     7
100
AcDbLine
 10
4057.414661295875
 20
2319.312490061223
 30
0.0
 11
4060.900381295875
 21
2317.299990061221
 31
0.0
  0
LINE
  5
156
330
3B7
100
AcDbEntity
  8
DATA
  6
Continuous
 62
     7
100
AcDbLine
 10
4116.699831295874
 20
2335.197940061222
 30
0.0
 11
4114.687331295873
 21
2331.712150061222
 31
0.0
  0
ARC
  5
157
330
3B7
100
AcDbEntity
  8
DATA
  6
Continuous
 62
     7
100
AcDbCircle
 10
4095.000041295874
 20
2297.612280061222
 30
0.0
 40
43.40001513444893
100
AcDbArc
 50
240.0000115355593
 51
330.0000115355617
  0
LINE
  5
158
330
3B7
100
AcDbEntity
  8
DATA
  6
Continuous
 62
     7
100
AcDbLine
 10
4073.300041295874
 20
2260.026760061222
 30
0.0
 11
4075.312541295874
 21
2263.512550061222
 31
0.0
  0
LINE
  5
159
330
3B7
100
AcDbEntity
  8
DATA
  6
Continuous
 62
     7
100
AcDbLine
 10
4132.585631295874
 20
2275.912420061223
 30
0.0
 11
4129.099841295873
 21
2277.924920061222
 31
0.0
  0
ARC
  5
15A
330
3B7
100
AcDbEntity
  8
DATA
  6
Continuous
 62
     7
100
AcDbCircle
 10
4095.000041295874
 20
2297.612280061222
 30
0.0
 40
39.37502682106642
100
AcDbArc
 50
149.9996696821033
 51
240.0002126043032
  0
ARC
  5
15B
330
3B7
100
AcDbEntity
  8
DATA
  6
Continuous
 62
     7
100
AcDbCircle
 10
4095.000041295874
 20
2297.612280061222
 30
0.0
 40
39.37497306423971
100
AcDbArc
 50
330.0002126043049
 51
60.00071824312248
  0
ARC
  5
15C
330
3B7
100
AcDbEntity
  8
DATA
  6
Continuous
 62
     7
100
AcDbCircle
 10
4095.000041295874
 20
2297.612280061222
 30
0.0
 40
25.1999305661268
100
AcDbArc
 50
59.99990885470639
 51
149.9999088547064
  0
ARC
  5
15D
330
3B7
100
AcDbEntity
  8
DATA
  6
Continuous
 62
     7
100
AcDbCircle
 10
4095.000041295874
 20
2297.612280061222
 30
0.0
 40
25.1999305661268
100
AcDbArc
 50
239.9999088547064
 51
329.9999088547064
  0
LINE
  5
15E
330
3B7
100
AcDbEntity
  8
DATA
  6
Continuous
 62
     7
100
AcDbLine
 10
4107.599901295874
 20
2319.436110061223
 30
0.0
 11
4105.149971295873
 21
2315.192640061221
 31
0.0
  0
LINE
  5
15F
330
3B7
100
AcDbEntity
  8
DATA
  6
Continuous
 62
     7
100
AcDbLine
 10
4073.176351295875
 20
2310.212350061221
 30
0.0
 11
4077.419751295873
 21
2307.762350061222
 31
0.0
  0
LINE
  5
160
330
3B7
100
AcDbEntity
  8
DATA
  6
Continuous
 62
     7
100
AcDbLine
 10
4082.400041295874
 20
2275.788520061222
 30
0.0
 11
4084.850041295873
 21
2280.031990061223
 31
0.0
  0
LINE
  5
161
330
3B7
100
AcDbEntity
  8
DATA
  6
Continuous
 62
     7
100
AcDbLine
 10
4116.823871295874
 20
2285.012420061222
 30
0.0
 11
4112.580401295873
 21
2287.462350061221
 31
0.0
  0
ARC
  5
162
330
3B7
100
AcDbEntity
  8
DATA
  6
Continuous
 62
     7
100
AcDbCircle
 10
4095.000041295874
 20
2297.612280061222
 30
0.0
 40
20.30001274603074
100
AcDbArc
 50
149.9997926340304
 51
240.0002336238284
  0
ARC
  5
163
330
3B7
100
AcDbEntity
  8
DATA
  6
Continuous
 62
     7
100
AcDbCircle
 10
4095.000041295874
 20
2297.612280061222
 30
0.0
 40
20.30000336784484
100
AcDbArc
 50
330.0002336238291
 51
59.99979263402842
  0
LINE
  5
164
330
3B7
100
AcDbEntity
  8
DATA
  6
Continuous
 62
     7
100
AcDbLine
 10
4161.500041295873
 20
2220.612280061222
 30
0.0
 11
4161.500041295873
 21
2206.612280061222
 31
0.0
  0
LINE
  5
165
330
3B7
100
AcDbEntity
  8
DATA
  6
Continuous
 62
     7
100
AcDbLine
 10
4154.500041295873
 20
2213.612280061222
 30
0.0
 11
4168.500041295874
 21
2213.612280061222
 31
0.0
  0
LINE
  5
166
330
3B7
100
AcDbEntity
  8
DATA
  6
Continuous
 62
     7
100
AcDbLine
 10
4028.500041295873
 20
2388.612280061222
 30
0.0
 11
4028.500041295873
 21
2374.612280061222
 31
0.0
  0
LINE
  5
167
330
3B7
100
AcDbEntity
  8
DATA
  6
Continuous
 62
     7
100
AcDbLine
 10
4021.500041295873
 20
2381.612280061222
 30
0.0
 11
4035.500041295874
 21
2381.612280061222
 31
0.0
  0
LINE
  5
168
330
3B7
100
AcDbEntity
  8
DATA
  6
Continuous
 62
     7
100
AcDbLine
 10
4097.800041295855
 20
1978.499999999977
 30
0.0
 11
4302.200041295855
 21
1978.499999999974
 31
0.0
  0
LINE
  5
169
330
3B7
100
AcDbEntity
  8
DATA
  6
Continuous
 62
     7
100
AcDbLine
 10
4302.200041295855
 20
1978.499999999974
 30
0.0
 11
4302.200041295855
 21
1851.099999999973
 31
0.0
  0
LINE
  5
16A
330
3B7
100
AcDbEntity
  8
DATA
  6
Continuous
 62
     7
100
AcDbLine
 10
4302.200041295855
 20
1851.099999999973
 30
0.0
 11
4097.800041295854
 21
1851.099999999975
 31
0.0
  0
LINE
  5
16B
330
3B7
100
AcDbEntity
  8
DATA
  6
Continuous
 62
     7
100
AcDbLine
 10
4097.800041295854
 20
1851.099999999975
 30
0.0
 11
4097.800041295855
 21
1978.499999999977
 31
0.0
  0
LINE
  5
16C
330
3B7
100
AcDbEntity
  8
DATA
  6
Continuous
 62
     7
100
AcDbLine
 10
4208.050041295865
 20
1851.099999999975
 30
0.0
 11
4208.050041295862
 21
1978.499999999974
 31
0.0
  0
LINE
  5
16D
330
3B7
100
AcDbEntity
  8
DATA
  6
Continuous
 62
     7
100
AcDbLine
 10
4191.950041295873
 20
1851.099999999975
 30
0.0
 11
4191.950041295863
 21
1978.499999999974
 31
0.0
  0
LINE
  5
16E
330
3B7
100
AcDbEntity
  8
DATA
  6
Continuous
 62
     7
100
AcDbLine
 10
4286.063183897089
 20
1851.099999999973
 30
0.0
 11
4286.06318389708
 21
1978.499999999971
 31
0.0
  0
LINE
  5
16F
330
3B7
100
AcDbEntity
  8
DATA
  6
Continuous
 62
     7
100
AcDbLine
 10
4113.900041295853
 20
1851.099999999975
 30
0.0
 11
4113.900041295853
 21
1978.499999999977
 31
0.0
  0
CIRCLE
  5
170
330
3B7
100
AcDbEntity
  8
DATA
  6
Continuous
 62
     7
100
AcDbCircle
 10
4247.056612596469
 20
1914.79999999997
 30
0.0
 40
24.5
  0
CIRCLE
  5
171
330
3B7
100
AcDbEntity
  8
DATA
  6
Continuous
 62
     7
100
AcDbCircle
 10
4152.943469995264
 20
1914.799999999967
 30
0.0
 40
24.50000000000003
  0
TEXT
  5
172
330
3B7
100
AcDbEntity
  8
DATA
 62
     7
100
AcDbText
 10
4052.155424688093
 20
1772.632845228332
 30
0.0
 40
42.75708007812499
  1
9320
 41
0.7
 11
4052.155424688093
 21
1815.389925306456
 31
0.0
100
AcDbText
 73
     3
  0
LINE
  5
173
330
3B7
100
AcDbEntity
  8
DATA
  6
Continuous
 62
     7
100
AcDbLine
 10
4375.000041295855
 20
2072.913634699088
 30
0.0
 11
4025.000041295855
 21
2072.913634699088
 31
0.0
  0
TEXT
  5
174
330
3B7
100
AcDbEntity
  8
DATA
 62
     7
100
AcDbText
 10
4139.641267304292
 20
1985.203225924021
 30
0.0
 40
28.50472005208333
  1
+1
 41
0.7
 72
     1
 11
4152.943469995264
 21
1999.455585950062
 31
0.0
100
AcDbText
 73
     2
  0
TEXT
  5
175
330
3B7
100
AcDbEntity
  8
DATA
 62
     7
100
AcDbText
 10
4233.754409905496
 20
1985.203225924024
 30
0.0
 40
28.50472005208333
  1
-1
 41
0.7
 72
     1
 11
4247.056612596469
 21
1999.455585950066
 31
0.0
100
AcDbText
 73
     2
  0
TEXT
  5
176
330
3B7
100
AcDbEntity
  8
DATA
 62
     7
100
AcDbText
 10
4041.703829273286
 20
2030.012786912227
 30
0.0
 40
28.50472005208333
  1
PARALLEL WITH NL4
 41
0.7
 72
     1
 11
4200.000041295855
 21
2044.265146938269
 31
0.0
100
AcDbText
 73
     2
  0
TEXT
  5
177
330
3B7
100
AcDbEntity
  8
DATA
 62
     7
100
AcDbText
 10
4061.657133309743
 20
2097.420993408271
 30
0.0
 40
28.50472005208333
  1
2+/2- LOOP THRU
 41
0.7
 72
     1
 11
4200.000041295855
 21
2111.673353434313
 31
0.0
100
AcDbText
 73
     2
  0
TEXT
  5
178
330
3B7
100
AcDbEntity
  8
DATA
 62
     7
100
AcDbText
 10
4014.719360957335
 20
1554.639485677083
 30
0.0
 40
40.72102864583334
  1
コネクターパネル拡大図
 41
0.7
 72
     1
 11
4200.000041295876
 21
1575.0
 31
0.0
100
AcDbText
 73
     2
  0
LINE
  5
179
330
3B7
100
AcDbEntity
  8
DATA
  6
Continuous
 62
     7
100
AcDbLine
 10
3900.000020647938
 20
1525.0
 30
0.0
 11
4500.000020647938
 21
1525.0
 31
0.0
  0
LINE
  5
17A
330
3B7
100
AcDbEntity
  8
DATA
  6
Continuous
 62
     7
100
AcDbLine
 10
4139.082434388014
 20
1918.514053297187
 30
0.0
 11
4166.804505602512
 21
1911.085946702747
 31
0.0
  0
LINE
  5
17B
330
3B7
100
AcDbEntity
  8
DATA
  6
Continuous
 62
     7
100
AcDbLine
 10
4156.657523292484
 20
1928.661035607216
 30
0.0
 11
4149.229416698045
 21
1900.938964392718
 31
0.0
  0
LINE
  5
17C
330
3B7
100
AcDbEntity
  8
DATA
  6
Continuous
 62
     7
100
AcDbLine
 10
4233.195576989221
 20
1911.08594670275
 30
0.0
 11
4260.917648203718
 21
1918.51405329719
 31
0.0
  0
LINE
  5
17D
330
3B7
100
AcDbEntity
  8
DATA
  6
Continuous
 62
     7
100
AcDbLine
 10
4243.342559299249
 20
1928.661035607219
 30
0.0
 11
4250.770665893688
 21
1900.938964392722
 31
0.0
  0
TEXT
  5
17E
330
3B7
100
AcDbEntity
  8
DATA
 62
     7
100
AcDbText
 10
3974.900211927854
 20
-119.2799147823307
 30
0.0
 40
36.64892578125
  1
JBL PROFESSIONAL
 41
0.7
 11
3974.900211927854
 21
-82.63098900108071
 31
0.0
100
AcDbText
 73
     3
  0
TEXT
  5
17F
330
3B7
100
AcDbEntity
  8
DATA
 62
     7
100
AcDbText
 10
3974.900211927854
 20
-228.0299147823307
 30
0.0
 40
36.64892578125
  1
9320
 41
0.7
 11
3974.900211927854
 21
-191.3809890010807
 31
0.0
100
AcDbText
 73
     3
  0
LINE
  5
180
330
3B7
100
AcDbEntity
  8
DATA
  6
Continuous
 62
     7
100
AcDbLine
 10
2225.499869299399
 20
1500.0
 30
0.0
 11
2574.4998692994
 21
1500.0
 31
0.0
  0
LINE
  5
181
330
3B7
100
AcDbEntity
  8
DATA
  6
Continuous
 62
     7
100
AcDbLine
 10
2574.4998692994
 20
1922.611610845763
 30
0.0
 11
2225.499869299399
 21
1922.611610845763
 31
0.0
  0
LINE
  5
182
330
3B7
100
AcDbEntity
  8
DATA
  6
Continuous
 62
     7
100
AcDbLine
 10
2584.4998692994
 20
1510.0
 30
0.0
 11
2584.4998692994
 21
1912.611610845763
 31
0.0
  0
LINE
  5
183
330
3B7
100
AcDbEntity
  8
DATA
  6
Continuous
 62
     7
100
AcDbLine
 10
2215.499869299399
 20
1912.611610845763
 30
0.0
 11
2215.499869299399
 21
1510.0
 31
0.0
  0
LINE
  5
184
330
3B7
100
AcDbEntity
  8
DATA
  6
Continuous
 62
     7
100
AcDbLine
 10
2225.499869299399
 20
1634.263689854179
 30
0.0
 11
2574.4998692994
 21
1634.263689854179
 31
0.0
  0
LINE
  5
185
330
3B7
100
AcDbEntity
  8
DATA
  6
Continuous
 62
     7
100
AcDbLine
 10
2447.499999999999
 20
1249.300482051774
 30
0.0
 11
2447.499999999999
 21
1252.300482051772
 31
0.0
  0
LINE
  5
186
330
3B7
100
AcDbEntity
  8
DATA
  6
Continuous
 62
     7
100
AcDbLine
 10
2405.000000000001
 20
1240.371224995739
 30
0.0
 11
2404.980973490459
 21
1240.258437165173
 31
0.0
  0
LINE
  5
187
330
3B7
100
AcDbEntity
  8
DATA
  6
Continuous
 62
     7
100
AcDbLine
 10
2404.829629131445
 20
1240.0362885052
 30
0.0
 11
2404.698463103929
 21
1239.928618361232
 31
0.0
  0
LINE
  5
188
330
3B7
100
AcDbEntity
  8
DATA
  6
Continuous
 62
     7
100
AcDbLine
 10
2404.980973490459
 20
1240.258437165173
 30
0.0
 11
2404.924038765062
 21
1240.146507718101
 31
0.0
  0
LINE
  5
189
330
3B7
100
AcDbEntity
  8
DATA
  6
Continuous
 62
     7
100
AcDbLine
 10
2395.019026509542
 20
1240.258437165173
 30
0.0
 11
2395.000000000001
 21
1240.371224995739
 31
0.0
  0
LINE
  5
18A
330
3B7
100
AcDbEntity
  8
DATA
  6
Continuous
 62
     7
100
AcDbLine
 10
2404.698463103929
 20
1239.928618361232
 30
0.0
 11
2404.531538935183
 21
1239.824316721005
 31
0.0
  0
LINE
  5
18B
330
3B7
100
AcDbEntity
  8
DATA
  6
Continuous
 62
     7
100
AcDbLine
 10
2404.531538935183
 20
1239.824316721005
 30
0.0
 11
2404.330127018923
 21
1239.724177382983
 31
0.0
  0
LINE
  5
18C
330
3B7
100
AcDbEntity
  8
DATA
  6
Continuous
 62
     7
100
AcDbLine
 10
2404.924038765062
 20
1240.146507718101
 30
0.0
 11
2404.829629131445
 21
1240.0362885052
 31
0.0
  0
LINE
  5
18D
330
3B7
100
AcDbEntity
  8
DATA
  6
Continuous
 62
     7
100
AcDbLine
 10
2404.330127018923
 20
1239.724177382983
 30
0.0
 11
2404.095760221445
 21
1239.62896246799
 31
0.0
  0
LINE
  5
18E
330
3B7
100
AcDbEntity
  8
DATA
  6
Continuous
 62
     7
100
AcDbLine
 10
2395.301536896071
 20
1240.813831630246
 30
0.0
 11
2395.468461064817
 21
1240.918133270472
 31
0.0
  0
LINE
  5
18F
330
3B7
100
AcDbEntity
  8
DATA
  6
Continuous
 62
     7
100
AcDbLine
 10
2395.170370868556
 20
1240.0362885052
 30
0.0
 11
2395.075961234939
 21
1240.146507718101
 31
0.0
  0
LINE
  5
190
330
3B7
100
AcDbEntity
  8
DATA
  6
Continuous
 62
     7
100
AcDbLine
 10
2404.095760221445
 20
1239.62896246799
 30
0.0
 11
2403.830222215595
 21
1239.539396619025
 31
0.0
  0
LINE
  5
191
330
3B7
100
AcDbEntity
  8
DATA
  6
Continuous
 62
     7
100
AcDbLine
 10
2403.830222215595
 20
1239.539396619025
 30
0.0
 11
2403.535533905932
 21
1239.456161486277
 31
0.0
  0
LINE
  5
192
330
3B7
100
AcDbEntity
  8
DATA
  6
Continuous
 62
     7
100
AcDbLine
 10
2402.500000000001
 20
1241.491944335949
 30
0.0
 11
2402.867882181756
 21
1241.431285745222
 31
0.0
  0
LINE
  5
193
330
3B7
100
AcDbEntity
  8
DATA
  6
Continuous
 62
     7
100
AcDbLine
 10
2395.301536896071
 20
1239.928618361232
 30
0.0
 11
2395.170370868556
 21
1240.0362885052
 31
0.0
  0
LINE
  5
194
330
3B7
100
AcDbEntity
  8
DATA
  6
Continuous
 62
     7
100
AcDbLine
 10
2395.075961234939
 20
1240.146507718101
 30
0.0
 11
2395.019026509542
 21
1240.258437165173
 31
0.0
  0
LINE
  5
195
330
3B7
100
AcDbEntity
  8
DATA
  6
Continuous
 62
     7
100
AcDbLine
 10
2403.535533905932
 20
1239.456161486277
 30
0.0
 11
2403.213938048433
 21
1239.379890539368
 31
0.0
  0
LINE
  5
196
330
3B7
100
AcDbEntity
  8
DATA
  6
Continuous
 62
     7
100
AcDbLine
 10
2395.669872981078
 20
1239.724177382983
 30
0.0
 11
2395.468461064817
 21
1239.824316721005
 31
0.0
  0
LINE
  5
197
330
3B7
100
AcDbEntity
  8
DATA
  6
Continuous
 62
     7
100
AcDbLine
 10
2402.499999999999
 20
1239.250505655529
 30
0.0
 11
2402.113091308704
 21
1239.19837641569
 31
0.0
  0
LINE
  5
198
330
3B7
100
AcDbEntity
  8
DATA
  6
Continuous
 62
     7
100
AcDbLine
 10
2403.213938048433
 20
1239.379890539368
 30
0.0
 11
2402.867882181756
 21
1239.311164246255
 31
0.0
  0
LINE
  5
199
330
3B7
100
AcDbEntity
  8
DATA
  6
Continuous
 62
     7
100
AcDbLine
 10
2402.867882181756
 20
1239.311164246255
 30
0.0
 11
2402.499999999999
 21
1239.250505655529
 31
0.0
  0
LINE
  5
19A
330
3B7
100
AcDbEntity
  8
DATA
  6
Continuous
 62
     7
100
AcDbLine
 10
2395.904239778555
 20
1239.62896246799
 30
0.0
 11
2395.669872981078
 21
1239.724177382983
 31
0.0
  0
LINE
  5
19B
330
3B7
100
AcDbEntity
  8
DATA
  6
Continuous
 62
     7
100
AcDbLine
 10
2395.468461064817
 20
1239.824316721005
 30
0.0
 11
2395.301536896071
 21
1239.928618361232
 31
0.0
  0
LINE
  5
19C
330
3B7
100
AcDbEntity
  8
DATA
  6
Continuous
 62
     7
100
AcDbLine
 10
2397.132117818245
 20
1239.311164246255
 30
0.0
 11
2396.786061951568
 21
1239.379890539368
 31
0.0
  0
LINE
  5
19D
330
3B7
100
AcDbEntity
  8
DATA
  6
Continuous
 62
     7
100
AcDbLine
 10
2400.868240888335
 20
1239.096789984517
 30
0.0
 11
2400.43577871374
 21
1239.082054193257
 31
0.0
  0
LINE
  5
19E
330
3B7
100
AcDbEntity
  8
DATA
  6
Continuous
 62
     7
100
AcDbLine
 10
2401.710100716629
 20
1239.15517326173
 30
0.0
 11
2401.294095225513
 21
1239.121224995739
 31
0.0
  0
LINE
  5
19F
330
3B7
100
AcDbEntity
  8
DATA
  6
Continuous
 62
     7
100
AcDbLine
 10
2396.464466094068
 20
1239.456161486277
 30
0.0
 11
2396.169777784405
 21
1239.539396619025
 31
0.0
  0
LINE
  5
1A0
330
3B7
100
AcDbEntity
  8
DATA
  6
Continuous
 62
     7
100
AcDbLine
 10
2397.499999999999
 20
1239.250505655529
 30
0.0
 11
2397.132117818245
 21
1239.311164246255
 31
0.0
  0
LINE
  5
1A1
330
3B7
100
AcDbEntity
  8
DATA
  6
Continuous
 62
     7
100
AcDbLine
 10
2396.786061951568
 20
1239.379890539368
 30
0.0
 11
2396.464466094068
 21
1239.456161486277
 31
0.0
  0
LINE
  5
1A2
330
3B7
100
AcDbEntity
  8
DATA
  6
Continuous
 62
     7
100
AcDbLine
 10
2401.294095225513
 20
1239.121224995739
 30
0.0
 11
2400.868240888335
 21
1239.096789984517
 31
0.0
  0
LINE
  5
1A3
330
3B7
100
AcDbEntity
  8
DATA
  6
Continuous
 62
     7
100
AcDbLine
 10
2400.43577871374
 20
1239.082054193257
 30
0.0
 11
2400.000000000001
 21
1239.077129770226
 31
0.0
  0
LINE
  5
1A4
330
3B7
100
AcDbEntity
  8
DATA
  6
Continuous
 62
     7
100
AcDbLine
 10
2574.500000000001
 20
1249.300482051775
 30
0.0
 11
2225.5
 21
1249.300482051775
 31
0.0
  0
LINE
  5
1A5
330
3B7
100
AcDbEntity
  8
DATA
  6
Continuous
 62
     7
100
AcDbLine
 10
2396.169777784405
 20
1239.539396619025
 30
0.0
 11
2395.904239778555
 21
1239.62896246799
 31
0.0
  0
LINE
  5
1A6
330
3B7
100
AcDbEntity
  8
DATA
  6
Continuous
 62
     7
100
AcDbLine
 10
2402.113091308704
 20
1239.19837641569
 30
0.0
 11
2401.710100716629
 21
1239.15517326173
 31
0.0
  0
LINE
  5
1A7
330
3B7
100
AcDbEntity
  8
DATA
  6
Continuous
 62
     7
100
AcDbLine
 10
2398.289899283372
 20
1239.15517326173
 30
0.0
 11
2397.886908691297
 21
1239.19837641569
 31
0.0
  0
LINE
  5
1A8
330
3B7
100
AcDbEntity
  8
DATA
  6
Continuous
 62
     7
100
AcDbLine
 10
2397.886908691297
 20
1239.19837641569
 30
0.0
 11
2397.499999999999
 21
1239.250505655529
 31
0.0
  0
LINE
  5
1A9
330
3B7
100
AcDbEntity
  8
DATA
  6
Continuous
 62
     7
100
AcDbLine
 10
2399.131759111665
 20
1239.096789984517
 30
0.0
 11
2398.705904774487
 21
1239.121224995739
 31
0.0
  0
LINE
  5
1AA
330
3B7
100
AcDbEntity
  8
DATA
  6
Continuous
 62
     7
100
AcDbLine
 10
2400.000000000001
 20
1239.077129770226
 30
0.0
 11
2399.564221286263
 21
1239.082054193257
 31
0.0
  0
LINE
  5
1AB
330
3B7
100
AcDbEntity
  8
DATA
  6
Continuous
 62
     7
100
AcDbLine
 10
2399.564221286263
 20
1239.082054193257
 30
0.0
 11
2399.131759111665
 21
1239.096789984517
 31
0.0
  0
LINE
  5
1AC
330
3B7
100
AcDbEntity
  8
DATA
  6
Continuous
 62
     7
100
AcDbLine
 10
2398.705904774487
 20
1239.121224995739
 30
0.0
 11
2398.289899283372
 21
1239.15517326173
 31
0.0
  0
LINE
  5
1AD
330
3B7
100
AcDbEntity
  8
DATA
  6
Continuous
 62
     7
100
AcDbLine
 10
2405.000000000001
 20
1240.371224995739
 30
0.0
 11
2404.980973490459
 21
1240.484012826305
 31
0.0
  0
LINE
  5
1AE
330
3B7
100
AcDbEntity
  8
DATA
  6
Continuous
 62
     7
100
AcDbLine
 10
2404.980973490459
 20
1240.484012826305
 30
0.0
 11
2404.924038765062
 21
1240.595942273377
 31
0.0
  0
LINE
  5
1AF
330
3B7
100
AcDbEntity
  8
DATA
  6
Continuous
 62
     7
100
AcDbLine
 10
2404.924038765062
 20
1240.595942273377
 30
0.0
 11
2404.829629131445
 21
1240.706161486278
 31
0.0
  0
LINE
  5
1B0
330
3B7
100
AcDbEntity
  8
DATA
  6
Continuous
 62
     7
100
AcDbLine
 10
2404.829629131445
 20
1240.706161486278
 30
0.0
 11
2404.698463103929
 21
1240.813831630246
 31
0.0
  0
LINE
  5
1B1
330
3B7
100
AcDbEntity
  8
DATA
  6
Continuous
 62
     7
100
AcDbLine
 10
2404.698463103929
 20
1240.813831630246
 30
0.0
 11
2404.531538935183
 21
1240.918133270472
 31
0.0
  0
LINE
  5
1B2
330
3B7
100
AcDbEntity
  8
DATA
  6
Continuous
 62
     7
100
AcDbLine
 10
2404.531538935183
 20
1240.918133270472
 30
0.0
 11
2404.330127018923
 21
1241.018272608495
 31
0.0
  0
LINE
  5
1B3
330
3B7
100
AcDbEntity
  8
DATA
  6
Continuous
 62
     7
100
AcDbLine
 10
2404.330127018923
 20
1241.018272608495
 30
0.0
 11
2404.095760221445
 21
1241.113487523487
 31
0.0
  0
LINE
  5
1B4
330
3B7
100
AcDbEntity
  8
DATA
  6
Continuous
 62
     7
100
AcDbLine
 10
2404.095760221445
 20
1241.113487523487
 30
0.0
 11
2403.830222215595
 21
1241.203053372453
 31
0.0
  0
LINE
  5
1B5
330
3B7
100
AcDbEntity
  8
DATA
  6
Continuous
 62
     7
100
AcDbLine
 10
2403.830222215595
 20
1241.203053372453
 30
0.0
 11
2403.535533905932
 21
1241.2862885052
 31
0.0
  0
LINE
  5
1B6
330
3B7
100
AcDbEntity
  8
DATA
  6
Continuous
 62
     7
100
AcDbLine
 10
2403.535533905932
 20
1241.2862885052
 30
0.0
 11
2403.213938048433
 21
1241.362559452109
 31
0.0
  0
LINE
  5
1B7
330
3B7
100
AcDbEntity
  8
DATA
  6
Continuous
 62
     7
100
AcDbLine
 10
2403.213938048433
 20
1241.362559452109
 30
0.0
 11
2402.867882181756
 21
1241.431285745222
 31
0.0
  0
LINE
  5
1B8
330
3B7
100
AcDbEntity
  8
DATA
  6
Continuous
 62
     7
100
AcDbLine
 10
2402.500000000001
 20
1241.491944335949
 30
0.0
 11
2402.113091308704
 21
1241.544073575787
 31
0.0
  0
LINE
  5
1B9
330
3B7
100
AcDbEntity
  8
DATA
  6
Continuous
 62
     7
100
AcDbLine
 10
2402.113091308704
 20
1241.544073575787
 30
0.0
 11
2401.710100716629
 21
1241.587276729748
 31
0.0
  0
LINE
  5
1BA
330
3B7
100
AcDbEntity
  8
DATA
  6
Continuous
 62
     7
100
AcDbLine
 10
2401.710100716629
 20
1241.587276729748
 30
0.0
 11
2401.294095225513
 21
1241.621224995739
 31
0.0
  0
LINE
  5
1BB
330
3B7
100
AcDbEntity
  8
DATA
  6
Continuous
 62
     7
100
AcDbLine
 10
2401.294095225513
 20
1241.621224995739
 30
0.0
 11
2400.868240888335
 21
1241.645660006959
 31
0.0
  0
LINE
  5
1BC
330
3B7
100
AcDbEntity
  8
DATA
  6
Continuous
 62
     7
100
AcDbLine
 10
2400.868240888335
 20
1241.645660006959
 30
0.0
 11
2400.43577871374
 21
1241.66039579822
 31
0.0
  0
LINE
  5
1BD
330
3B7
100
AcDbEntity
  8
DATA
  6
Continuous
 62
     7
100
AcDbLine
 10
2400.43577871374
 20
1241.66039579822
 30
0.0
 11
2400.000000000001
 21
1241.665320221251
 31
0.0
  0
LINE
  5
1BE
330
3B7
100
AcDbEntity
  8
DATA
  6
Continuous
 62
     7
100
AcDbLine
 10
2400.000000000001
 20
1241.665320221251
 30
0.0
 11
2399.564221286263
 21
1241.66039579822
 31
0.0
  0
LINE
  5
1BF
330
3B7
100
AcDbEntity
  8
DATA
  6
Continuous
 62
     7
100
AcDbLine
 10
2399.564221286263
 20
1241.66039579822
 30
0.0
 11
2399.131759111665
 21
1241.645660006959
 31
0.0
  0
LINE
  5
1C0
330
3B7
100
AcDbEntity
  8
DATA
  6
Continuous
 62
     7
100
AcDbLine
 10
2399.131759111665
 20
1241.645660006959
 30
0.0
 11
2398.705904774487
 21
1241.621224995739
 31
0.0
  0
LINE
  5
1C1
330
3B7
100
AcDbEntity
  8
DATA
  6
Continuous
 62
     7
100
AcDbLine
 10
2398.705904774487
 20
1241.621224995739
 30
0.0
 11
2398.289899283372
 21
1241.587276729748
 31
0.0
  0
LINE
  5
1C2
330
3B7
100
AcDbEntity
  8
DATA
  6
Continuous
 62
     7
100
AcDbLine
 10
2398.289899283372
 20
1241.587276729748
 30
0.0
 11
2397.886908691297
 21
1241.544073575787
 31
0.0
  0
LINE
  5
1C3
330
3B7
100
AcDbEntity
  8
DATA
  6
Continuous
 62
     7
100
AcDbLine
 10
2397.886908691297
 20
1241.544073575787
 30
0.0
 11
2397.500000000001
 21
1241.491944335949
 31
0.0
  0
LINE
  5
1C4
330
3B7
100
AcDbEntity
  8
DATA
  6
Continuous
 62
     7
100
AcDbLine
 10
2397.500000000001
 20
1241.491944335949
 30
0.0
 11
2397.132117818245
 21
1241.431285745222
 31
0.0
  0
LINE
  5
1C5
330
3B7
100
AcDbEntity
  8
DATA
  6
Continuous
 62
     7
100
AcDbLine
 10
2397.132117818245
 20
1241.431285745222
 30
0.0
 11
2396.786061951568
 21
1241.362559452109
 31
0.0
  0
LINE
  5
1C6
330
3B7
100
AcDbEntity
  8
DATA
  6
Continuous
 62
     7
100
AcDbLine
 10
2396.786061951568
 20
1241.362559452109
 30
0.0
 11
2396.464466094068
 21
1241.2862885052
 31
0.0
  0
LINE
  5
1C7
330
3B7
100
AcDbEntity
  8
DATA
  6
Continuous
 62
     7
100
AcDbLine
 10
2396.464466094068
 20
1241.2862885052
 30
0.0
 11
2396.169777784405
 21
1241.203053372453
 31
0.0
  0
LINE
  5
1C8
330
3B7
100
AcDbEntity
  8
DATA
  6
Continuous
 62
     7
100
AcDbLine
 10
2396.169777784405
 20
1241.203053372453
 30
0.0
 11
2395.904239778555
 21
1241.113487523487
 31
0.0
  0
LINE
  5
1C9
330
3B7
100
AcDbEntity
  8
DATA
  6
Continuous
 62
     7
100
AcDbLine
 10
2395.904239778555
 20
1241.113487523487
 30
0.0
 11
2395.669872981078
 21
1241.018272608495
 31
0.0
  0
LINE
  5
1CA
330
3B7
100
AcDbEntity
  8
DATA
  6
Continuous
 62
     7
100
AcDbLine
 10
2395.669872981078
 20
1241.018272608495
 30
0.0
 11
2395.468461064817
 21
1240.918133270472
 31
0.0
  0
LINE
  5
1CB
330
3B7
100
AcDbEntity
  8
DATA
  6
Continuous
 62
     7
100
AcDbLine
 10
2395.301536896071
 20
1240.813831630246
 30
0.0
 11
2395.170370868556
 21
1240.706161486278
 31
0.0
  0
LINE
  5
1CC
330
3B7
100
AcDbEntity
  8
DATA
  6
Continuous
 62
     7
100
AcDbLine
 10
2395.170370868556
 20
1240.706161486278
 30
0.0
 11
2395.075961234939
 21
1240.595942273377
 31
0.0
  0
LINE
  5
1CD
330
3B7
100
AcDbEntity
  8
DATA
  6
Continuous
 62
     7
100
AcDbLine
 10
2395.075961234939
 20
1240.595942273377
 30
0.0
 11
2395.019026509542
 21
1240.484012826305
 31
0.0
  0
LINE
  5
1CE
330
3B7
100
AcDbEntity
  8
DATA
  6
Continuous
 62
     7
100
AcDbLine
 10
2395.019026509542
 20
1240.484012826305
 30
0.0
 11
2395.000000000001
 21
1240.371224995739
 31
0.0
  0
LINE
  5
1CF
330
3B7
100
AcDbEntity
  8
DATA
  6
Continuous
 62
     7
100
AcDbLine
 10
2584.500000000001
 20
560.6995179482244
 30
0.0
 11
2584.500000000001
 21
1239.300482051775
 31
0.0
  0
LINE
  5
1D0
330
3B7
100
AcDbEntity
  8
DATA
  6
Continuous
 62
     7
100
AcDbLine
 10
2574.500000000001
 20
1213.324634782525
 30
0.0
 11
2225.5
 21
1213.324634782525
 31
0.0
  0
LINE
  5
1D1
330
3B7
100
AcDbEntity
  8
DATA
  6
Continuous
 62
     7
100
AcDbLine
 10
2215.5
 20
1239.300482051775
 30
0.0
 11
2215.5
 21
560.6995179482244
 31
0.0
  0
LINE
  5
1D2
330
3B7
100
AcDbEntity
  8
DATA
  6
Continuous
 62
     7
100
AcDbLine
 10
2225.5
 20
550.6995179482244
 30
0.0
 11
2574.500000000001
 21
550.6995179482244
 31
0.0
  0
LINE
  5
1D3
330
3B7
100
AcDbEntity
  8
DATA
  6
Continuous
 62
     7
100
AcDbLine
 10
2352.500000000001
 20
1252.300482051772
 30
0.0
 11
2352.500000000001
 21
1249.300482051774
 31
0.0
  0
LINE
  5
1D4
330
3B7
100
AcDbEntity
  8
DATA
  6
Continuous
 62
     7
100
AcDbLine
 10
2367.500000000001
 20
1252.300482051772
 30
0.0
 11
2367.500000000001
 21
1249.300482051774
 31
0.0
  0
LINE
  5
1D5
330
3B7
100
AcDbEntity
  8
DATA
  6
Continuous
 62
     7
100
AcDbLine
 10
2432.499999999999
 20
1252.300482051772
 30
0.0
 11
2432.499999999999
 21
1249.300482051774
 31
0.0
  0
LINE
  5
1D6
330
3B7
100
AcDbEntity
  8
DATA
  6
Continuous
 62
     7
100
AcDbLine
 10
2447.499999999999
 20
1252.300482051772
 30
0.0
 11
2352.500000000001
 21
1252.300482051772
 31
0.0
  0
LINE
  5
1D7
330
3B7
100
AcDbEntity
  8
DATA
  6
Continuous
 62
     7
100
AcDbLine
 10
2419.90725
 20
141.8615634423597
 30
0.0
 11
2419.90725
 21
154.883306689457
 31
0.0
  0
LINE
  5
1D8
330
3B7
100
AcDbEntity
  8
DATA
  6
Continuous
 62
     7
100
AcDbLine
 10
2225.5
 20
-122.6116108457677
 30
0.0
 11
2574.5
 21
-122.6116108457677
 31
0.0
  0
LINE
  5
1D9
330
3B7
100
AcDbEntity
  8
DATA
  6
Continuous
 62
     7
100
AcDbLine
 10
2584.500000000001
 20
-112.6116108457677
 30
0.0
 11
2584.500000000001
 21
290.0
 31
0.0
  0
LINE
  5
1DA
330
3B7
100
AcDbEntity
  8
DATA
  6
Continuous
 62
     7
100
AcDbLine
 10
2574.5
 20
300.0
 30
0.0
 11
2225.5
 21
300.0
 31
0.0
  0
LINE
  5
1DB
330
3B7
100
AcDbEntity
  8
DATA
  6
Continuous
 62
     7
100
AcDbLine
 10
2215.5
 20
290.0
 30
0.0
 11
2215.5
 21
-112.6116108457677
 31
0.0
  0
LINE
  5
1DC
330
3B7
100
AcDbEntity
  8
DATA
  6
Continuous
 62
     7
100
AcDbLine
 10
2215.5
 20
122.4501350596709
 30
0.0
 11
2584.500000000001
 21
122.4501350596709
 31
0.0
  0
LINE
  5
1DD
330
3B7
100
AcDbEntity
  8
DATA
  6
Continuous
 62
     7
100
AcDbLine
 10
2380.092750000001
 20
141.8615634423597
 30
0.0
 11
2419.90725
 21
141.8615634423597
 31
0.0
  0
LINE
  5
1DE
330
3B7
100
AcDbEntity
  8
DATA
  6
Continuous
 62
     7
100
AcDbLine
 10
2419.90725
 20
144.7593409212266
 30
0.0
 11
2380.092750000001
 21
144.7593409212266
 31
0.0
  0
LINE
  5
1DF
330
3B7
100
AcDbEntity
  8
DATA
  6
Continuous
 62
     7
100
AcDbLine
 10
2380.092750000001
 20
154.883306689457
 30
0.0
 11
2380.092750000001
 21
141.8615634423597
 31
0.0
  0
LINE
  5
1E0
330
3B7
100
AcDbEntity
  8
DATA
  6
Continuous
 62
     7
100
AcDbLine
 10
2419.90725
 20
154.883306689457
 30
0.0
 11
2380.092750000001
 21
154.883306689457
 31
0.0
  0
LINE
  5
1E1
330
3B7
100
AcDbEntity
  8
DATA
  6
Continuous
 62
     7
100
AcDbLine
 10
3867.500000000001
 20
1249.300482051774
 30
0.0
 11
3867.500000000001
 21
1252.300482051774
 31
0.0
  0
LINE
  5
1E2
330
3B7
100
AcDbEntity
  8
DATA
  6
Continuous
 62
     7
100
AcDbLine
 10
3725.499999999999
 20
550.6995179482276
 30
0.0
 11
4074.500000000001
 21
550.6995179482276
 31
0.0
  0
LINE
  5
1E3
330
3B7
100
AcDbEntity
  8
DATA
  6
Continuous
 62
     7
100
AcDbLine
 10
3715.499999999999
 20
1239.300482051777
 30
0.0
 11
3715.499999999999
 21
560.6995179482275
 31
0.0
  0
LINE
  5
1E4
330
3B7
100
AcDbEntity
  8
DATA
  6
Continuous
 62
     7
100
AcDbLine
 10
3725.499999999999
 20
616.3636148593507
 30
0.0
 11
4074.500000000001
 21
616.3636148593507
 31
0.0
  0
LINE
  5
1E5
330
3B7
100
AcDbEntity
  8
DATA
  6
Continuous
 62
     7
100
AcDbLine
 10
4084.500000000001
 20
560.6995179482275
 30
0.0
 11
4084.500000000001
 21
1239.300482051777
 31
0.0
  0
LINE
  5
1E6
330
3B7
100
AcDbEntity
  8
DATA
  6
Continuous
 62
     7
100
AcDbLine
 10
4074.500000000001
 20
1249.300482051777
 30
0.0
 11
3725.499999999999
 21
1249.300482051777
 31
0.0
  0
LINE
  5
1E7
330
3B7
100
AcDbEntity
  8
DATA
  6
Continuous
 62
     7
100
AcDbLine
 10
3947.499999999999
 20
1252.300482051774
 30
0.0
 11
3852.499999999999
 21
1252.300482051774
 31
0.0
  0
LINE
  5
1E8
330
3B7
100
AcDbEntity
  8
DATA
  6
Continuous
 62
     7
100
AcDbLine
 10
3932.5
 20
1252.300482051774
 30
0.0
 11
3932.5
 21
1249.300482051774
 31
0.0
  0
LINE
  5
1E9
330
3B7
100
AcDbEntity
  8
DATA
  6
Continuous
 62
     7
100
AcDbLine
 10
3947.499999999999
 20
1249.300482051774
 30
0.0
 11
3947.499999999999
 21
1252.300482051774
 31
0.0
  0
LINE
  5
1EA
330
3B7
100
AcDbEntity
  8
DATA
  6
Continuous
 62
     7
100
AcDbLine
 10
3852.499999999999
 20
1252.300482051774
 30
0.0
 11
3852.499999999999
 21
1249.300482051774
 31
0.0
  0
ARC
  5
1EB
330
3B7
100
AcDbEntity
  8
DATA
  6
Continuous
 62
     7
100
AcDbCircle
 10
2225.499869299399
 20
1912.611610845763
 30
0.0
 40
10.0
100
AcDbArc
 50
90.0
 51
180.0
  0
ARC
  5
1EC
330
3B7
100
AcDbEntity
  8
DATA
  6
Continuous
 62
     7
100
AcDbCircle
 10
2225.499869299399
 20
1510.0
 30
0.0
 40
10.0
100
AcDbArc
 50
180.0
 51
270.0
  0
ARC
  5
1ED
330
3B7
100
AcDbEntity
  8
DATA
  6
Continuous
 62
     7
100
AcDbCircle
 10
2574.4998692994
 20
1510.0
 30
0.0
 40
10.0
100
AcDbArc
 50
270.0
 51
0.0
  0
ARC
  5
1EE
330
3B7
100
AcDbEntity
  8
DATA
  6
Continuous
 62
     7
100
AcDbCircle
 10
2574.4998692994
 20
1912.611610845763
 30
0.0
 40
10.0
100
AcDbArc
 50
0.0
 51
90.0
  0
LINE
  5
1EF
330
3B7
100
AcDbEntity
  8
DATA
  6
Continuous
 62
     7
100
AcDbLine
 10
2446.9998692994
 20
1832.861610845758
 30
0.0
 11
2446.999869299399
 21
1710.36161084576
 31
0.0
  0
LINE
  5
1F0
330
3B7
100
AcDbEntity
  8
DATA
  6
Continuous
 62
     7
100
AcDbLine
 10
2438.999869299399
 20
1840.861610845759
 30
0.0
 11
2360.9998692994
 21
1840.861610845759
 31
0.0
  0
ARC
  5
1F1
330
3B7
100
AcDbEntity
  8
DATA
  6
Continuous
 62
     7
100
AcDbCircle
 10
2438.999869299399
 20
1832.861610845758
 30
0.0
 40
8.0
100
AcDbArc
 50
0.0
 51
90.0
  0
LINE
  5
1F2
330
3B7
100
AcDbEntity
  8
DATA
  6
Continuous
 62
     7
100
AcDbLine
 10
2438.999869299399
 20
1702.36161084576
 30
0.0
 11
2360.999869299399
 21
1702.361610845759
 31
0.0
  0
ARC
  5
1F3
330
3B7
100
AcDbEntity
  8
DATA
  6
Continuous
 62
     7
100
AcDbCircle
 10
2438.999869299399
 20
1710.36161084576
 30
0.0
 40
8.0
100
AcDbArc
 50
270.0
 51
0.0
  0
LINE
  5
1F4
330
3B7
100
AcDbEntity
  8
DATA
  6
Continuous
 62
     7
100
AcDbLine
 10
2352.9998692994
 20
1832.861610845759
 30
0.0
 11
2352.999869299399
 21
1710.361610845759
 31
0.0
  0
ARC
  5
1F5
330
3B7
100
AcDbEntity
  8
DATA
  6
Continuous
 62
     7
100
AcDbCircle
 10
2360.9998692994
 20
1832.861610845759
 30
0.0
 40
8.0
100
AcDbArc
 50
90.0
 51
180.0
  0
ARC
  5
1F6
330
3B7
100
AcDbEntity
  8
DATA
  6
Continuous
 62
     7
100
AcDbCircle
 10
2360.999869299399
 20
1710.36161084576
 30
0.0
 40
8.0
100
AcDbArc
 50
180.0
 51
270.0
  0
LINE
  5
1F7
330
3B7
100
AcDbEntity
  8
DATA
  6
Continuous
 62
     7
100
AcDbLine
 10
2424.999869299398
 20
1829.86161084576
 30
0.0
 11
2374.999869299399
 21
1829.861610845759
 31
0.0
  0
ARC
  5
1F8
330
3B7
100
AcDbEntity
  8
DATA
  6
Continuous
 62
     7
100
AcDbCircle
 10
2374.999869299399
 20
1723.361610845761
 30
0.0
 40
10.0
100
AcDbArc
 50
180.0
 51
270.0
  0
ARC
  5
1F9
330
3B7
100
AcDbEntity
  8
DATA
  6
Continuous
 62
     7
100
AcDbCircle
 10
2374.999869299399
 20
1819.861610845759
 30
0.0
 40
10.0
100
AcDbArc
 50
90.0
 51
180.0
  0
LINE
  5
1FA
330
3B7
100
AcDbEntity
  8
DATA
  6
Continuous
 62
     7
100
AcDbLine
 10
2424.999869299403
 20
1713.361610845762
 30
0.0
 11
2374.999869299399
 21
1713.361610845761
 31
0.0
  0
ARC
  5
1FB
330
3B7
100
AcDbEntity
  8
DATA
  6
Continuous
 62
     7
100
AcDbCircle
 10
2034.750124592017
 20
1771.611610845759
 30
0.0
 40
333.7558334760477
100
AcDbArc
 50
351.6878078779802
 51
8.312192122021372
  0
ARC
  5
1FC
330
3B7
100
AcDbEntity
  8
DATA
  6
Continuous
 62
     7
100
AcDbCircle
 10
2424.999869299401
 20
1723.361610845762
 30
0.0
 40
10.0
100
AcDbArc
 50
270.0
 51
0.0000000000051728
  0
ARC
  5
1FD
330
3B7
100
AcDbEntity
  8
DATA
  6
Continuous
 62
     7
100
AcDbCircle
 10
2424.999869299399
 20
1819.86161084576
 30
0.0
 40
10.0
100
AcDbArc
 50
0.0000000000051728
 51
90.0
  0
ARC
  5
1FE
330
3B7
100
AcDbEntity
  8
DATA
  6
Continuous
 62
     7
100
AcDbCircle
 10
2765.249614006783
 20
1771.611610845769
 30
0.0
 40
333.7558334760481
100
AcDbArc
 50
171.6878078779753
 51
181.3752074101141
  0
ARC
  5
1FF
330
3B7
100
AcDbEntity
  8
DATA
  6
Continuous
 62
     7
100
AcDbCircle
 10
2421.592793110102
 20
1763.361610845763
 30
0.0
 40
10.0
100
AcDbArc
 50
270.0
 51
1.375207410113489
  0
ARC
  5
200
330
3B7
100
AcDbEntity
  8
DATA
  6
Continuous
 62
     7
100
AcDbCircle
 10
2765.249614007004
 20
1771.611610845796
 30
0.0
 40
333.75583347627
100
AcDbArc
 50
181.3752074101186
 51
188.3121921220181
  0
CIRCLE
  5
201
330
3B7
100
AcDbEntity
  8
DATA
  6
Continuous
 62
     7
100
AcDbCircle
 10
2385.063609148113
 20
1733.774142265585
 30
0.0
 40
11.75
  0
CIRCLE
  5
202
330
3B7
100
AcDbEntity
  8
DATA
  6
Continuous
 62
     7
100
AcDbCircle
 10
2375.563609148113
 20
1745.774142265586
 30
0.0
 40
2.0
  0
CIRCLE
  5
203
330
3B7
100
AcDbEntity
  8
DATA
  6
Continuous
 62
     7
100
AcDbCircle
 10
2394.563609148113
 20
1721.774142265585
 30
0.0
 40
2.0
  0
LINE
  5
204
330
3B7
100
AcDbEntity
  8
DATA
  6
Continuous
 62
     7
100
AcDbLine
 10
2388.063609148113
 20
1723.774142265585
 30
0.0
 11
2382.063609148113
 21
1723.774142265585
 31
0.0
  0
LINE
  5
205
330
3B7
100
AcDbEntity
  8
DATA
  6
Continuous
 62
     7
100
AcDbLine
 10
2387.063609148114
 20
1743.774142265586
 30
0.0
 11
2383.063609148113
 21
1743.774142265586
 31
0.0
  0
LINE
  5
206
330
3B7
100
AcDbEntity
  8
DATA
  6
Continuous
 62
     7
100
AcDbLine
 10
2387.063609148114
 20
1743.774142265586
 30
0.0
 11
2387.063609148114
 21
1742.574142265586
 31
0.0
  0
LINE
  5
207
330
3B7
100
AcDbEntity
  8
DATA
  6
Continuous
 62
     7
100
AcDbLine
 10
2383.063609148113
 20
1743.774142265586
 30
0.0
 11
2383.063609148113
 21
1742.574142265586
 31
0.0
  0
LINE
  5
208
330
3B7
100
AcDbEntity
  8
DATA
  6
Continuous
 62
     7
100
AcDbLine
 10
2388.063609148113
 20
1723.774142265585
 30
0.0
 11
2388.063609148113
 21
1725.501292265585
 31
0.0
  0
LINE
  5
209
330
3B7
100
AcDbEntity
  8
DATA
  6
Continuous
 62
     7
100
AcDbLine
 10
2382.063609148113
 20
1723.774142265585
 30
0.0
 11
2382.063609148113
 21
1725.501292265585
 31
0.0
  0
ARC
  5
20A
330
3B7
100
AcDbEntity
  8
DATA
  6
Continuous
 62
     7
100
AcDbCircle
 10
2385.063609148113
 20
1733.774142265585
 30
0.0
 40
8.800002677414472
100
AcDbArc
 50
289.9322641506818
 51
77.19616681969866
  0
ARC
  5
20B
330
3B7
100
AcDbEntity
  8
DATA
  6
Continuous
 62
     7
100
AcDbCircle
 10
2385.063609148113
 20
1733.774142265585
 30
0.0
 40
8.800003504345875
100
AcDbArc
 50
102.9999995554213
 51
249.9999942379641
  0
ARC
  5
20C
330
3B7
100
AcDbEntity
  8
DATA
  6
Continuous
 62
     7
100
AcDbCircle
 10
2385.063609148113
 20
1733.774142265585
 30
0.0
 40
6.20000216206402
100
AcDbArc
 50
240.0000115355612
 51
330.0000115355623
  0
LINE
  5
20D
330
3B7
100
AcDbEntity
  8
DATA
  6
Continuous
 62
     7
100
AcDbLine
 10
2390.432949148113
 20
1730.674112265585
 30
0.0
 11
2389.934989148113
 21
1730.961612265585
 31
0.0
  0
LINE
  5
20E
330
3B7
100
AcDbEntity
  8
DATA
  6
Continuous
 62
     7
100
AcDbLine
 10
2381.963639148113
 20
1728.404762265585
 30
0.0
 11
2382.251139148113
 21
1728.902732265586
 31
0.0
  0
ARC
  5
20F
330
3B7
100
AcDbEntity
  8
DATA
  6
Continuous
 62
     7
100
AcDbCircle
 10
2385.063609148113
 20
1733.774142265585
 30
0.0
 40
6.200002162064247
100
AcDbArc
 50
60.0000115355575
 51
150.0000115355601
  0
LINE
  5
210
330
3B7
100
AcDbEntity
  8
DATA
  6
Continuous
 62
     7
100
AcDbLine
 10
2388.163609148113
 20
1739.143502265585
 30
0.0
 11
2387.876109148113
 21
1738.645532265585
 31
0.0
  0
LINE
  5
211
330
3B7
100
AcDbEntity
  8
DATA
  6
Continuous
 62
     7
100
AcDbLine
 10
2379.694239148113
 20
1736.874122265585
 30
0.0
 11
2380.192209148114
 21
1736.586622265585
 31
0.0
  0
ARC
  5
212
330
3B7
100
AcDbEntity
  8
DATA
  6
Continuous
 62
     7
100
AcDbCircle
 10
2385.063609148113
 20
1733.774142265585
 30
0.0
 40
5.625003831581311
100
AcDbArc
 50
329.9996696821057
 51
60.00021260430081
  0
ARC
  5
213
330
3B7
100
AcDbEntity
  8
DATA
  6
Continuous
 62
     7
100
AcDbCircle
 10
2385.063609148113
 20
1733.774142265585
 30
0.0
 40
5.624996152034174
100
AcDbArc
 50
150.0002126043038
 51
240.0007182431259
  0
ARC
  5
214
330
3B7
100
AcDbEntity
  8
DATA
  6
Continuous
 62
     7
100
AcDbCircle
 10
2385.063609148113
 20
1733.774142265585
 30
0.0
 40
3.599990080875093
100
AcDbArc
 50
239.999908854709
 51
329.9999088547082
  0
ARC
  5
215
330
3B7
100
AcDbEntity
  8
DATA
  6
Continuous
 62
     7
100
AcDbCircle
 10
2385.063609148113
 20
1733.774142265585
 30
0.0
 40
3.59999008087532
100
AcDbArc
 50
59.99990885470278
 51
149.9999088547045
  0
LINE
  5
216
330
3B7
100
AcDbEntity
  8
DATA
  6
Continuous
 62
     7
100
AcDbLine
 10
2383.263629148113
 20
1730.656452265586
 30
0.0
 11
2383.613619148113
 21
1731.262662265586
 31
0.0
  0
LINE
  5
217
330
3B7
100
AcDbEntity
  8
DATA
  6
Continuous
 62
     7
100
AcDbLine
 10
2388.181279148113
 20
1731.974132265586
 30
0.0
 11
2387.575079148113
 21
1732.324132265586
 31
0.0
  0
LINE
  5
218
330
3B7
100
AcDbEntity
  8
DATA
  6
Continuous
 62
     7
100
AcDbLine
 10
2386.863609148113
 20
1736.891822265586
 30
0.0
 11
2386.513609148113
 21
1736.285612265585
 31
0.0
  0
LINE
  5
219
330
3B7
100
AcDbEntity
  8
DATA
  6
Continuous
 62
     7
100
AcDbLine
 10
2381.945919148114
 20
1735.574122265586
 30
0.0
 11
2382.552129148113
 21
1735.224132265585
 31
0.0
  0
ARC
  5
21A
330
3B7
100
AcDbEntity
  8
DATA
  6
Continuous
 62
     7
100
AcDbCircle
 10
2385.063609148113
 20
1733.774142265585
 30
0.0
 40
2.9000018208618
100
AcDbArc
 50
329.9997926340347
 51
60.00023362382313
  0
ARC
  5
21B
330
3B7
100
AcDbEntity
  8
DATA
  6
Continuous
 62
     7
100
AcDbCircle
 10
2385.063609148113
 20
1733.774142265585
 30
0.0
 40
2.900000481120395
100
AcDbArc
 50
150.0002336238257
 51
239.9997926340309
  0
LINE
  5
21C
330
3B7
100
AcDbEntity
  8
DATA
  6
Continuous
 62
     7
100
AcDbLine
 10
2375.563609148113
 20
1744.774142265585
 30
0.0
 11
2375.563609148113
 21
1746.774142265585
 31
0.0
  0
LINE
  5
21D
330
3B7
100
AcDbEntity
  8
DATA
  6
Continuous
 62
     7
100
AcDbLine
 10
2376.563609148114
 20
1745.774142265586
 30
0.0
 11
2374.563609148113
 21
1745.774142265586
 31
0.0
  0
LINE
  5
21E
330
3B7
100
AcDbEntity
  8
DATA
  6
Continuous
 62
     7
100
AcDbLine
 10
2394.563609148113
 20
1720.774142265586
 30
0.0
 11
2394.563609148113
 21
1722.774142265586
 31
0.0
  0
LINE
  5
21F
330
3B7
100
AcDbEntity
  8
DATA
  6
Continuous
 62
     7
100
AcDbLine
 10
2395.563609148113
 20
1721.774142265585
 30
0.0
 11
2393.563609148113
 21
1721.774142265585
 31
0.0
  0
LINE
  5
220
330
3B7
100
AcDbEntity
  8
DATA
  6
Continuous
 62
     7
100
AcDbLine
 10
2421.592793110103
 20
1753.361610845762
 30
0.0
 11
2378.406945488701
 21
1753.361610845763
 31
0.0
  0
ARC
  5
221
330
3B7
100
AcDbEntity
  8
DATA
  6
Continuous
 62
     7
100
AcDbCircle
 10
2378.406945488697
 20
1763.361610845763
 30
0.0
 40
10.00000000000065
100
AcDbArc
 50
178.6247925898865
 51
270.0
  0
CIRCLE
  5
222
330
3B7
100
AcDbEntity
  8
DATA
  6
Continuous
 62
     7
100
AcDbCircle
 10
2414.999869299399
 20
1733.774142265585
 30
0.0
 40
11.75
  0
CIRCLE
  5
223
330
3B7
100
AcDbEntity
  8
DATA
  6
Continuous
 62
     7
100
AcDbCircle
 10
2405.499869299399
 20
1745.774142265585
 30
0.0
 40
2.0
  0
CIRCLE
  5
224
330
3B7
100
AcDbEntity
  8
DATA
  6
Continuous
 62
     7
100
AcDbCircle
 10
2424.499869299399
 20
1721.774142265585
 30
0.0
 40
2.0
  0
LINE
  5
225
330
3B7
100
AcDbEntity
  8
DATA
  6
Continuous
 62
     7
100
AcDbLine
 10
2417.999869299399
 20
1723.774142265584
 30
0.0
 11
2411.999869299399
 21
1723.774142265584
 31
0.0
  0
LINE
  5
226
330
3B7
100
AcDbEntity
  8
DATA
  6
Continuous
 62
     7
100
AcDbLine
 10
2416.999869299399
 20
1743.774142265585
 30
0.0
 11
2412.999869299399
 21
1743.774142265585
 31
0.0
  0
LINE
  5
227
330
3B7
100
AcDbEntity
  8
DATA
  6
Continuous
 62
     7
100
AcDbLine
 10
2416.999869299399
 20
1743.774142265585
 30
0.0
 11
2416.999869299399
 21
1742.574142265585
 31
0.0
  0
LINE
  5
228
330
3B7
100
AcDbEntity
  8
DATA
  6
Continuous
 62
     7
100
AcDbLine
 10
2412.999869299399
 20
1743.774142265585
 30
0.0
 11
2412.999869299399
 21
1742.574142265585
 31
0.0
  0
LINE
  5
229
330
3B7
100
AcDbEntity
  8
DATA
  6
Continuous
 62
     7
100
AcDbLine
 10
2417.999869299399
 20
1723.774142265584
 30
0.0
 11
2417.999869299399
 21
1725.501292265585
 31
0.0
  0
LINE
  5
22A
330
3B7
100
AcDbEntity
  8
DATA
  6
Continuous
 62
     7
100
AcDbLine
 10
2411.999869299399
 20
1723.774142265584
 30
0.0
 11
2411.999869299399
 21
1725.501292265585
 31
0.0
  0
ARC
  5
22B
330
3B7
100
AcDbEntity
  8
DATA
  6
Continuous
 62
     7
100
AcDbCircle
 10
2414.999869299399
 20
1733.774142265585
 30
0.0
 40
8.800002677414472
100
AcDbArc
 50
289.9322641506818
 51
77.19616681969866
  0
ARC
  5
22C
330
3B7
100
AcDbEntity
  8
DATA
  6
Continuous
 62
     7
100
AcDbCircle
 10
2414.999869299399
 20
1733.774142265585
 30
0.0
 40
8.800003504345875
100
AcDbArc
 50
102.9999995554213
 51
249.9999942379641
  0
ARC
  5
22D
330
3B7
100
AcDbEntity
  8
DATA
  6
Continuous
 62
     7
100
AcDbCircle
 10
2414.999869299399
 20
1733.774142265585
 30
0.0
 40
6.20000216206402
100
AcDbArc
 50
240.0000115355612
 51
330.0000115355623
  0
LINE
  5
22E
330
3B7
100
AcDbEntity
  8
DATA
  6
Continuous
 62
     7
100
AcDbLine
 10
2420.3692092994
 20
1730.674112265585
 30
0.0
 11
2419.871249299399
 21
1730.961612265585
 31
0.0
  0
LINE
  5
22F
330
3B7
100
AcDbEntity
  8
DATA
  6
Continuous
 62
     7
100
AcDbLine
 10
2411.899899299399
 20
1728.404762265585
 30
0.0
 11
2412.1873992994
 21
1728.902732265585
 31
0.0
  0
ARC
  5
230
330
3B7
100
AcDbEntity
  8
DATA
  6
Continuous
 62
     7
100
AcDbCircle
 10
2414.999869299399
 20
1733.774142265585
 30
0.0
 40
6.200002162064247
100
AcDbArc
 50
60.0000115355575
 51
150.0000115355601
  0
LINE
  5
231
330
3B7
100
AcDbEntity
  8
DATA
  6
Continuous
 62
     7
100
AcDbLine
 10
2418.099869299399
 20
1739.143502265585
 30
0.0
 11
2417.812369299399
 21
1738.645532265585
 31
0.0
  0
LINE
  5
232
330
3B7
100
AcDbEntity
  8
DATA
  6
Continuous
 62
     7
100
AcDbLine
 10
2409.630499299399
 20
1736.874122265585
 30
0.0
 11
2410.128469299399
 21
1736.586622265585
 31
0.0
  0
ARC
  5
233
330
3B7
100
AcDbEntity
  8
DATA
  6
Continuous
 62
     7
100
AcDbCircle
 10
2414.999869299399
 20
1733.774142265585
 30
0.0
 40
5.625003831581311
100
AcDbArc
 50
329.9996696821057
 51
60.00021260430081
  0
ARC
  5
234
330
3B7
100
AcDbEntity
  8
DATA
  6
Continuous
 62
     7
100
AcDbCircle
 10
2414.999869299399
 20
1733.774142265585
 30
0.0
 40
5.624996152034174
100
AcDbArc
 50
150.0002126043038
 51
240.0007182431259
  0
ARC
  5
235
330
3B7
100
AcDbEntity
  8
DATA
  6
Continuous
 62
     7
100
AcDbCircle
 10
2414.999869299399
 20
1733.774142265585
 30
0.0
 40
3.599990080875093
100
AcDbArc
 50
239.999908854709
 51
329.9999088547082
  0
ARC
  5
236
330
3B7
100
AcDbEntity
  8
DATA
  6
Continuous
 62
     7
100
AcDbCircle
 10
2414.999869299399
 20
1733.774142265585
 30
0.0
 40
3.59999008087532
100
AcDbArc
 50
59.99990885470278
 51
149.9999088547045
  0
LINE
  5
237
330
3B7
100
AcDbEntity
  8
DATA
  6
Continuous
 62
     7
100
AcDbLine
 10
2413.199889299399
 20
1730.656452265585
 30
0.0
 11
2413.549879299399
 21
1731.262662265585
 31
0.0
  0
LINE
  5
238
330
3B7
100
AcDbEntity
  8
DATA
  6
Continuous
 62
     7
100
AcDbLine
 10
2418.117539299399
 20
1731.974132265585
 30
0.0
 11
2417.511339299399
 21
1732.324132265584
 31
0.0
  0
LINE
  5
239
330
3B7
100
AcDbEntity
  8
DATA
  6
Continuous
 62
     7
100
AcDbLine
 10
2416.7998692994
 20
1736.891822265585
 30
0.0
 11
2416.4498692994
 21
1736.285612265585
 31
0.0
  0
LINE
  5
23A
330
3B7
100
AcDbEntity
  8
DATA
  6
Continuous
 62
     7
100
AcDbLine
 10
2411.882179299399
 20
1735.574122265585
 30
0.0
 11
2412.488389299399
 21
1735.224132265585
 31
0.0
  0
ARC
  5
23B
330
3B7
100
AcDbEntity
  8
DATA
  6
Continuous
 62
     7
100
AcDbCircle
 10
2414.999869299399
 20
1733.774142265585
 30
0.0
 40
2.9000018208618
100
AcDbArc
 50
329.9997926340347
 51
60.00023362382313
  0
ARC
  5
23C
330
3B7
100
AcDbEntity
  8
DATA
  6
Continuous
 62
     7
100
AcDbCircle
 10
2414.999869299399
 20
1733.774142265585
 30
0.0
 40
2.900000481120395
100
AcDbArc
 50
150.0002336238257
 51
239.9997926340309
  0
LINE
  5
23D
330
3B7
100
AcDbEntity
  8
DATA
  6
Continuous
 62
     7
100
AcDbLine
 10
2405.499869299399
 20
1744.774142265585
 30
0.0
 11
2405.499869299399
 21
1746.774142265585
 31
0.0
  0
LINE
  5
23E
330
3B7
100
AcDbEntity
  8
DATA
  6
Continuous
 62
     7
100
AcDbLine
 10
2406.499869299399
 20
1745.774142265585
 30
0.0
 11
2404.499869299399
 21
1745.774142265585
 31
0.0
  0
LINE
  5
23F
330
3B7
100
AcDbEntity
  8
DATA
  6
Continuous
 62
     7
100
AcDbLine
 10
2424.499869299399
 20
1720.774142265584
 30
0.0
 11
2424.499869299399
 21
1722.774142265584
 31
0.0
  0
LINE
  5
240
330
3B7
100
AcDbEntity
  8
DATA
  6
Continuous
 62
     7
100
AcDbLine
 10
2425.499869299399
 20
1721.774142265585
 30
0.0
 11
2423.499869299399
 21
1721.774142265585
 31
0.0
  0
LINE
  5
241
330
3B7
100
AcDbEntity
  8
DATA
  6
Continuous
 62
     7
100
AcDbLine
 10
2414.599869299402
 20
1779.361610845763
 30
0.0
 11
2385.399869299401
 21
1779.361610845763
 31
0.0
  0
LINE
  5
242
330
3B7
100
AcDbEntity
  8
DATA
  6
Continuous
 62
     7
100
AcDbLine
 10
2385.399869299401
 20
1779.361610845763
 30
0.0
 11
2385.399869299401
 21
1797.561610845763
 31
0.0
  0
LINE
  5
243
330
3B7
100
AcDbEntity
  8
DATA
  6
Continuous
 62
     7
100
AcDbLine
 10
2385.399869299401
 20
1797.561610845763
 30
0.0
 11
2414.599869299402
 21
1797.561610845763
 31
0.0
  0
LINE
  5
244
330
3B7
100
AcDbEntity
  8
DATA
  6
Continuous
 62
     7
100
AcDbLine
 10
2414.599869299402
 20
1797.561610845763
 30
0.0
 11
2414.599869299402
 21
1779.361610845763
 31
0.0
  0
LINE
  5
245
330
3B7
100
AcDbEntity
  8
DATA
  6
Continuous
 62
     7
100
AcDbLine
 10
2398.8498692994
 20
1797.561610845763
 30
0.0
 11
2398.849869299401
 21
1779.361610845763
 31
0.0
  0
LINE
  5
246
330
3B7
100
AcDbEntity
  8
DATA
  6
Continuous
 62
     7
100
AcDbLine
 10
2401.149869299399
 20
1797.561610845763
 30
0.0
 11
2401.1498692994
 21
1779.361610845763
 31
0.0
  0
LINE
  5
247
330
3B7
100
AcDbEntity
  8
DATA
  6
Continuous
 62
     7
100
AcDbLine
 10
2387.705134642083
 20
1797.561610845763
 30
0.0
 11
2387.705134642084
 21
1779.361610845764
 31
0.0
  0
LINE
  5
248
330
3B7
100
AcDbEntity
  8
DATA
  6
Continuous
 62
     7
100
AcDbLine
 10
2412.299869299401
 20
1797.561610845763
 30
0.0
 11
2412.299869299401
 21
1779.361610845763
 31
0.0
  0
CIRCLE
  5
249
330
3B7
100
AcDbEntity
  8
DATA
  6
Continuous
 62
     7
100
AcDbCircle
 10
2393.277501970743
 20
1788.461610845764
 30
0.0
 40
3.500000000000003
  0
TEXT
  5
24A
330
3B7
100
AcDbEntity
  8
DATA
 62
     7
100
AcDbText
 10
2421.120528814797
 20
1808.771204384569
 30
0.0
 40
6.108154296875
  1
9320
 50
180.0
 41
0.7
 11
2421.120528814797
 21
1802.663050087694
 31
0.0
100
AcDbText
 73
     3
  0
LINE
  5
24B
330
3B7
100
AcDbEntity
  8
DATA
  6
Continuous
 62
     7
100
AcDbLine
 10
2374.999869299401
 20
1765.87394874589
 30
0.0
 11
2424.999869299401
 21
1765.87394874589
 31
0.0
  0
TEXT
  5
24C
330
3B7
100
AcDbEntity
  8
DATA
 62
     7
100
AcDbText
 10
2408.622551298196
 20
1778.404007142328
 30
0.0
 40
4.072102864583333
  1
+1
 50
180.0
 41
0.7
 72
     1
 11
2406.722236628057
 21
1776.367955710037
 31
0.0
100
AcDbText
 73
     2
  0
TEXT
  5
24D
330
3B7
100
AcDbEntity
  8
DATA
 62
     7
100
AcDbText
 10
2395.177816640881
 20
1778.404007142327
 30
0.0
 40
4.072102864583333
  1
-1
 50
180.0
 41
0.7
 72
     1
 11
2393.277501970743
 21
1776.367955710036
 31
0.0
100
AcDbText
 73
     2
  0
TEXT
  5
24E
330
3B7
100
AcDbEntity
  8
DATA
 62
     7
100
AcDbText
 10
2422.613613874054
 20
1772.00264128687
 30
0.0
 40
4.072102864583333
  1
PARALLEL WITH NL4
 50
180.0
 41
0.7
 72
     1
 11
2399.999869299401
 21
1769.966589854578
 31
0.0
100
AcDbText
 73
     2
  0
TEXT
  5
24F
330
3B7
100
AcDbEntity
  8
DATA
 62
     7
100
AcDbText
 10
2419.763141868845
 20
1762.372897501721
 30
0.0
 40
4.072102864583333
  1
2+/2- LOOP THRU
 50
180.0
 41
0.7
 72
     1
 11
2399.999869299401
 21
1760.336846069429
 31
0.0
100
AcDbText
 73
     2
  0
CIRCLE
  5
250
330
3B7
100
AcDbEntity
  8
DATA
  6
Continuous
 62
     7
100
AcDbCircle
 10
2360.9998692994
 20
1832.86161084576
 30
0.0
 40
3.0
  0
LINE
  5
251
330
3B7
100
AcDbEntity
  8
DATA
  6
Continuous
 62
     7
100
AcDbLine
 10
2360.9998692994
 20
1834.61161084576
 30
0.0
 11
2360.9998692994
 21
1831.11161084576
 31
0.0
  0
LINE
  5
252
330
3B7
100
AcDbEntity
  8
DATA
  6
Continuous
 62
     7
100
AcDbLine
 10
2359.2498692994
 20
1832.86161084576
 30
0.0
 11
2362.7498692994
 21
1832.86161084576
 31
0.0
  0
CIRCLE
  5
253
330
3B7
100
AcDbEntity
  8
DATA
  6
Continuous
 62
     7
100
AcDbCircle
 10
2438.999869299399
 20
1832.86161084576
 30
0.0
 40
3.0
  0
LINE
  5
254
330
3B7
100
AcDbEntity
  8
DATA
  6
Continuous
 62
     7
100
AcDbLine
 10
2438.999869299399
 20
1834.61161084576
 30
0.0
 11
2438.999869299399
 21
1831.11161084576
 31
0.0
  0
LINE
  5
255
330
3B7
100
AcDbEntity
  8
DATA
  6
Continuous
 62
     7
100
AcDbLine
 10
2437.249869299399
 20
1832.86161084576
 30
0.0
 11
2440.749869299399
 21
1832.86161084576
 31
0.0
  0
CIRCLE
  5
256
330
3B7
100
AcDbEntity
  8
DATA
  6
Continuous
 62
     7
100
AcDbCircle
 10
2360.999869299399
 20
1710.361610845761
 30
0.0
 40
3.0
  0
LINE
  5
257
330
3B7
100
AcDbEntity
  8
DATA
  6
Continuous
 62
     7
100
AcDbLine
 10
2360.999869299399
 20
1712.111610845761
 30
0.0
 11
2360.999869299399
 21
1708.611610845761
 31
0.0
  0
LINE
  5
258
330
3B7
100
AcDbEntity
  8
DATA
  6
Continuous
 62
     7
100
AcDbLine
 10
2359.249869299398
 20
1710.361610845761
 30
0.0
 11
2362.749869299399
 21
1710.361610845761
 31
0.0
  0
CIRCLE
  5
259
330
3B7
100
AcDbEntity
  8
DATA
  6
Continuous
 62
     7
100
AcDbCircle
 10
2438.999869299399
 20
1710.36161084576
 30
0.0
 40
3.0
  0
LINE
  5
25A
330
3B7
100
AcDbEntity
  8
DATA
  6
Continuous
 62
     7
100
AcDbLine
 10
2438.999869299399
 20
1712.11161084576
 30
0.0
 11
2438.999869299399
 21
1708.61161084576
 31
0.0
  0
LINE
  5
25B
330
3B7
100
AcDbEntity
  8
DATA
  6
Continuous
 62
     7
100
AcDbLine
 10
2437.249869299399
 20
1710.36161084576
 30
0.0
 11
2440.749869299399
 21
1710.36161084576
 31
0.0
  0
LINE
  5
25C
330
3B7
100
AcDbEntity
  8
DATA
  6
Continuous
 62
     7
100
AcDbLine
 10
2395.257649914636
 20
1788.992189888224
 30
0.0
 11
2391.29735402685
 21
1787.931031803304
 31
0.0
  0
LINE
  5
25D
330
3B7
100
AcDbEntity
  8
DATA
  6
Continuous
 62
     7
100
AcDbLine
 10
2392.746922928282
 20
1790.441758789656
 30
0.0
 11
2393.808081013203
 21
1786.481462901871
 31
0.0
  0
CIRCLE
  5
25E
330
3B7
100
AcDbEntity
  8
DATA
  6
Continuous
 62
     7
100
AcDbCircle
 10
2406.722236628057
 20
1788.461610845764
 30
0.0
 40
3.500000000000003
  0
LINE
  5
25F
330
3B7
100
AcDbEntity
  8
DATA
  6
Continuous
 62
     7
100
AcDbLine
 10
2408.70238457195
 20
1788.992189888224
 30
0.0
 11
2404.742088684165
 21
1787.931031803304
 31
0.0
  0
LINE
  5
260
330
3B7
100
AcDbEntity
  8
DATA
  6
Continuous
 62
     7
100
AcDbLine
 10
2406.191657585598
 20
1790.441758789657
 30
0.0
 11
2407.252815670517
 21
1786.481462901871
 31
0.0
  0
LWPOLYLINE
  5
261
330
3B7
100
AcDbEntity
  8
DATA
  6
Continuous
 62
     7
100
AcDbPolyline
 90
        6
 70
     1
 43
0.0
 10
2397.800213529775
 20
1600.759975539852
 10
2395.779487587611
 20
1597.387578539853
 10
2397.800213529775
 20
1594.015181539853
 10
2401.841665414102
 20
1594.015181539853
 10
2403.862391356265
 20
1597.387578539853
 10
2401.841665414102
 20
1600.759975539852
  0
ARC
  5
26A
330
3B7
100
AcDbEntity
  8
DATA
  6
Continuous
 62
     7
100
AcDbCircle
 10
2399.77597823117
 20
1596.886865272259
 30
0.0
 40
9.750820126767559
100
AcDbArc
 50
89.73580699542321
 51
121.7492700042417
  0
ARC
  5
26B
330
3B7
100
AcDbEntity
  8
DATA
  6
Continuous
 62
     7
100
AcDbCircle
 10
2399.413699219414
 20
1597.319066821955
 30
0.0
 40
9.193015045691408
100
AcDbArc
 50
121.2466632734847
 51
179.5729944309671
  0
ARC
  5
26C
330
3B7
100
AcDbEntity
  8
DATA
  6
Continuous
 62
     7
100
AcDbCircle
 10
2399.865900712707
 20
1596.886865272259
 30
0.0
 40
9.750820126767372
100
AcDbArc
 50
58.25072999575828
 51
90.2641930045768
  0
ARC
  5
26D
330
3B7
100
AcDbEntity
  8
DATA
  6
Continuous
 62
     7
100
AcDbCircle
 10
2400.228179724461
 20
1597.319066821955
 30
0.0
 40
9.193015045691602
100
AcDbArc
 50
0.4270055690328826
 51
58.75333672651525
  0
ARC
  5
26E
330
3B7
100
AcDbEntity
  8
DATA
  6
Continuous
 62
     7
100
AcDbCircle
 10
2399.77597823117
 20
1597.888291807447
 30
0.0
 40
9.750820126767372
100
AcDbArc
 50
238.2507299957583
 51
270.2641930045768
  0
ARC
  5
26F
330
3B7
100
AcDbEntity
  8
DATA
  6
Continuous
 62
     7
100
AcDbCircle
 10
2399.413699219414
 20
1597.456090257751
 30
0.0
 40
9.193015045691602
100
AcDbArc
 50
180.4270055690329
 51
238.7533367265153
  0
ARC
  5
270
330
3B7
100
AcDbEntity
  8
DATA
  6
Continuous
 62
     7
100
AcDbCircle
 10
2399.865900712707
 20
1597.888291807447
 30
0.0
 40
9.750820126767559
100
AcDbArc
 50
269.7358069954232
 51
301.7492700042418
  0
ARC
  5
271
330
3B7
100
AcDbEntity
  8
DATA
  6
Continuous
 62
     7
100
AcDbCircle
 10
2400.228179724461
 20
1597.456090257751
 30
0.0
 40
9.193015045691408
100
AcDbArc
 50
301.2466632734848
 51
359.572994430967
  0
CIRCLE
  5
272
330
3B7
100
AcDbEntity
  8
DATA
  6
Continuous
 62
     7
100
AcDbCircle
 10
2400.0
 20
1877.611610845764
 30
0.0
 40
9.599999999999907
  0
LWPOLYLINE
  5
273
330
3B7
100
AcDbEntity
  8
DATA
  6
Continuous
 62
     7
100
AcDbPolyline
 90
        6
 70
     1
 43
0.0
 10
2397.979274057837
 20
1881.111610845764
 10
2395.958548115673
 20
1877.611610845764
 10
2397.979274057837
 20
1874.111610845764
 10
2402.020725942164
 20
1874.111610845764
 10
2404.041451884328
 20
1877.611610845764
 10
2402.020725942164
 20
1881.111610845764
  0
CIRCLE
  5
27C
330
3B7
100
AcDbEntity
  8
DATA
  6
Continuous
 62
     7
100
AcDbCircle
 10
3865.499999999999
 20
931.3004820517772
 30
0.0
 40
7.0
  0
LINE
  5
27D
330
3B7
100
AcDbEntity
  8
DATA
  6
Continuous
 62
     7
100
AcDbLine
 10
3860.499999999999
 20
931.3004820517772
 30
0.0
 11
3870.499999999998
 21
931.3004820517772
 31
0.0
  0
LINE
  5
27E
330
3B7
100
AcDbEntity
  8
DATA
  6
Continuous
 62
     7
100
AcDbLine
 10
3865.499999999999
 20
926.3004820517771
 30
0.0
 11
3865.499999999999
 21
936.3004820517771
 31
0.0
  0
CIRCLE
  5
27F
330
3B7
100
AcDbEntity
  8
DATA
  6
Continuous
 62
     7
100
AcDbCircle
 10
3934.499999999998
 20
931.3004820517772
 30
0.0
 40
7.0
  0
LINE
  5
280
330
3B7
100
AcDbEntity
  8
DATA
  6
Continuous
 62
     7
100
AcDbLine
 10
3929.499999999999
 20
931.3004820517772
 30
0.0
 11
3939.499999999999
 21
931.3004820517772
 31
0.0
  0
LINE
  5
281
330
3B7
100
AcDbEntity
  8
DATA
  6
Continuous
 62
     7
100
AcDbLine
 10
3934.499999999998
 20
926.3004820517771
 30
0.0
 11
3934.499999999998
 21
936.3004820517771
 31
0.0
  0
CIRCLE
  5
282
330
3B7
100
AcDbEntity
  8
DATA
  6
Continuous
 62
     7
100
AcDbCircle
 10
3865.499999999999
 20
1058.300482051777
 30
0.0
 40
7.0
  0
LINE
  5
283
330
3B7
100
AcDbEntity
  8
DATA
  6
Continuous
 62
     7
100
AcDbLine
 10
3860.499999999999
 20
1058.300482051777
 30
0.0
 11
3870.499999999998
 21
1058.300482051777
 31
0.0
  0
LINE
  5
284
330
3B7
100
AcDbEntity
  8
DATA
  6
Continuous
 62
     7
100
AcDbLine
 10
3865.499999999999
 20
1053.300482051777
 30
0.0
 11
3865.499999999999
 21
1063.300482051777
 31
0.0
  0
CIRCLE
  5
285
330
3B7
100
AcDbEntity
  8
DATA
  6
Continuous
 62
     7
100
AcDbCircle
 10
3934.499999999998
 20
1058.300482051777
 30
0.0
 40
7.0
  0
LINE
  5
286
330
3B7
100
AcDbEntity
  8
DATA
  6
Continuous
 62
     7
100
AcDbLine
 10
3929.499999999999
 20
1058.300482051777
 30
0.0
 11
3939.499999999999
 21
1058.300482051777
 31
0.0
  0
LINE
  5
287
330
3B7
100
AcDbEntity
  8
DATA
  6
Continuous
 62
     7
100
AcDbLine
 10
3934.499999999998
 20
1053.300482051777
 30
0.0
 11
3934.499999999998
 21
1063.300482051777
 31
0.0
  0
CIRCLE
  5
288
330
3B7
100
AcDbEntity
  8
DATA
  6
Continuous
 62
     7
100
AcDbCircle
 10
3900.0
 20
1204.300482051773
 30
0.0
 40
9.599999999999907
  0
LWPOLYLINE
  5
289
330
3B7
100
AcDbEntity
  8
DATA
  6
Continuous
 62
     7
100
AcDbPolyline
 90
        6
 70
     1
 43
0.0
 10
3897.979274057837
 20
1207.800482051774
 10
3895.958548115674
 20
1204.300482051773
 10
3897.979274057837
 20
1200.800482051774
 10
3902.020725942164
 20
1200.800482051774
 10
3904.041451884327
 20
1204.300482051773
 10
3902.020725942164
 20
1207.800482051774
  0
ARC
  5
292
330
3B7
100
AcDbEntity
  8
DATA
  6
Continuous
 62
     7
100
AcDbCircle
 10
3725.499999999999
 20
1239.300482051777
 30
0.0
 40
10.0
100
AcDbArc
 50
90.0
 51
180.0
  0
ARC
  5
293
330
3B7
100
AcDbEntity
  8
DATA
  6
Continuous
 62
     7
100
AcDbCircle
 10
4074.500000000001
 20
1239.300482051777
 30
0.0
 40
10.0
100
AcDbArc
 50
0.0
 51
90.0
  0
ARC
  5
294
330
3B7
100
AcDbEntity
  8
DATA
  6
Continuous
 62
     7
100
AcDbCircle
 10
4074.500000000001
 20
560.6995179482275
 30
0.0
 40
10.0
100
AcDbArc
 50
270.0
 51
0.0
  0
ARC
  5
295
330
3B7
100
AcDbEntity
  8
DATA
  6
Continuous
 62
     7
100
AcDbCircle
 10
3725.499999999999
 20
560.6995179482275
 30
0.0
 40
10.0
100
AcDbArc
 50
180.0
 51
270.0
  0
ARC
  5
296
330
3B7
100
AcDbEntity
  8
DATA
  6
Continuous
 62
     7
100
AcDbCircle
 10
2225.5
 20
290.0
 30
0.0
 40
10.0
100
AcDbArc
 50
90.0
 51
180.0
  0
ARC
  5
297
330
3B7
100
AcDbEntity
  8
DATA
  6
Continuous
 62
     7
100
AcDbCircle
 10
2225.5
 20
-112.6116108457677
 30
0.0
 40
10.0
100
AcDbArc
 50
180.0
 51
270.0
  0
ARC
  5
298
330
3B7
100
AcDbEntity
  8
DATA
  6
Continuous
 62
     7
100
AcDbCircle
 10
2574.5
 20
-112.6116108457677
 30
0.0
 40
10.0
100
AcDbArc
 50
270.0
 51
0.0
  0
ARC
  5
299
330
3B7
100
AcDbEntity
  8
DATA
  6
Continuous
 62
     7
100
AcDbCircle
 10
2574.5
 20
290.0
 30
0.0
 40
10.0
100
AcDbArc
 50
0.0
 51
90.0
  0
ARC
  5
29A
330
3B7
100
AcDbEntity
  8
DATA
  6
Continuous
 62
     7
100
AcDbCircle
 10
2225.499869299399
 20
1644.263689854179
 30
0.0
 40
10.0
100
AcDbArc
 50
180.0
 51
270.0
  0
ARC
  5
29B
330
3B7
100
AcDbEntity
  8
DATA
  6
Continuous
 62
     7
100
AcDbCircle
 10
2574.4998692994
 20
1644.263689854179
 30
0.0
 40
10.0
100
AcDbArc
 50
270.0
 51
0.0
  0
ARC
  5
29C
330
3B7
100
AcDbEntity
  8
DATA
  6
Continuous
 62
     7
100
AcDbCircle
 10
2225.5
 20
112.4501350596708
 30
0.0
 40
10.0
100
AcDbArc
 50
90.0
 51
180.0
  0
ARC
  5
29D
330
3B7
100
AcDbEntity
  8
DATA
  6
Continuous
 62
     7
100
AcDbCircle
 10
2574.5
 20
112.4501350596708
 30
0.0
 40
10.0
100
AcDbArc
 50
0.0
 51
90.0
  0
ARC
  5
29E
330
3B7
100
AcDbEntity
  8
DATA
  6
Continuous
 62
     7
100
AcDbCircle
 10
3725.499999999999
 20
626.3636148593507
 30
0.0
 40
10.0
100
AcDbArc
 50
180.0
 51
270.0
  0
ARC
  5
29F
330
3B7
100
AcDbEntity
  8
DATA
  6
Continuous
 62
     7
100
AcDbCircle
 10
4074.500000000001
 20
626.3636148593507
 30
0.0
 40
10.0
100
AcDbArc
 50
270.0
 51
0.0
  0
LINE
  5
2A0
330
3B7
100
AcDbEntity
  8
DATA
  6
Continuous
 62
     7
100
AcDbLine
 10
3081.515477510397
 20
1252.300482051776
 30
0.0
 11
3081.515477510397
 21
1249.300482051777
 31
0.0
  0
LINE
  5
2A1
330
3B7
100
AcDbEntity
  8
DATA
  6
Continuous
 62
     7
100
AcDbLine
 10
3220.015477510396
 20
1252.300482051775
 30
0.0
 11
3220.015477510396
 21
1249.300482051777
 31
0.0
  0
LINE
  5
2A2
330
3B7
100
AcDbEntity
  8
DATA
  6
Continuous
 62
     7
100
AcDbLine
 10
3081.515477510397
 20
1252.300482051776
 30
0.0
 11
3220.015477510396
 21
1252.300482051775
 31
0.0
  0
LINE
  5
2A3
330
3B7
100
AcDbEntity
  8
DATA
  6
Continuous
 62
     7
100
AcDbLine
 10
3049.988463030517
 20
561.5524188121647
 30
0.0
 11
2877.873798037341
 21
1203.893093294395
 31
0.0
  0
LINE
  5
2A4
330
3B7
100
AcDbEntity
  8
DATA
  6
Continuous
 62
     7
100
AcDbLine
 10
2884.944865849206
 20
1216.140542008311
 30
0.0
 11
3007.427781392211
 21
1248.959740314668
 31
0.0
  0
LINE
  5
2A5
330
3B7
100
AcDbEntity
  8
DATA
  6
Continuous
 62
     7
100
AcDbLine
 10
3292.588190451026
 20
616.2040580543993
 30
0.0
 11
3062.235911744433
 21
554.4813510002991
 31
0.0
  0
ARC
  5
2A6
330
3B7
100
AcDbEntity
  8
DATA
  6
Continuous
 62
     7
100
AcDbCircle
 10
2887.533056300231
 20
1206.48128374542
 30
0.0
 40
10.00000000000002
100
AcDbArc
 50
104.9999999999998
 51
194.9999999999997
  0
ARC
  5
2A7
330
3B7
100
AcDbEntity
  8
DATA
  6
Continuous
 62
     7
100
AcDbCircle
 10
3059.647721293409
 20
564.1406092631897
 30
0.0
 40
10.00000000000002
100
AcDbArc
 50
194.9999999999997
 51
284.9999999999998
  0
LINE
  5
2A8
330
3B7
100
AcDbEntity
  8
DATA
  6
Continuous
 62
     7
100
AcDbLine
 10
3300.0
 20
625.8633163172901
 30
0.0
 11
3300.0
 21
1229.300482051777
 31
0.0
  0
LINE
  5
2A9
330
3B7
100
AcDbEntity
  8
DATA
  6
Continuous
 62
     7
100
AcDbLine
 10
3280.0
 20
1249.300482051777
 30
0.0
 11
3010.015971843235
 21
1249.300482051777
 31
0.0
  0
ARC
  5
2AA
330
3B7
100
AcDbEntity
  8
DATA
  6
Continuous
 62
     7
100
AcDbCircle
 10
3010.015971843236
 20
1239.300482051777
 30
0.0
 40
10.0
100
AcDbArc
 50
90.00000000000063
 51
104.9999999999999
  0
ARC
  5
2AB
330
3B7
100
AcDbEntity
  8
DATA
  6
Continuous
 62
     7
100
AcDbCircle
 10
3280.0
 20
1229.300482051777
 30
0.0
 40
20.00000000000005
100
AcDbArc
 50
0.0000000000001705
 51
90.00000000000019
  0
CIRCLE
  5
2AC
330
3B7
100
AcDbEntity
  8
DATA
  6
Continuous
 62
     7
100
AcDbCircle
 10
3160.744074477464
 20
971.1756536670892
 30
0.0
 40
9.599999999999894
  0
LWPOLYLINE
  5
2AD
330
3B7
100
AcDbEntity
  8
DATA
  6
Continuous
 62
     7
100
AcDbPolyline
 90
        6
 70
     1
 43
0.0
 10
3157.886336444217
 20
974.0333917003363
 10
3156.840331726688
 20
970.12964894956
 10
3159.698069759935
 20
967.271910916313
 10
3163.601812510711
 20
968.3179156338418
 10
3164.64781722824
 20
972.2216583846185
 10
3161.790079194993
 20
975.0793964178656
  0
LINE
  5
2B6
330
3B7
100
AcDbEntity
  8
DATA
  6
Continuous
 62
     7
100
AcDbLine
 10
2880.280815156794
 20
1194.909983109907
 30
0.0
 11
2926.645254818671
 21
1207.333297274828
 31
0.0
  0
LINE
  5
2B7
330
3B7
100
AcDbEntity
  8
DATA
  6
Continuous
 62
     7
100
AcDbLine
 10
3093.94588557294
 20
582.9588431615745
 30
0.0
 11
3047.581445911064
 21
570.5355289966529
 31
0.0
  0
LINE
  5
2B8
330
3B7
100
AcDbEntity
  8
DATA
  6
Continuous
 62
     7
100
AcDbLine
 10
3093.94588557294
 20
582.9588431615745
 30
0.0
 11
2926.645254818671
 21
1207.333297274828
 31
0.0
  0
ARC
  5
2B9
330
3B7
100
AcDbEntity
  8
DATA
  6
Continuous
 62
     7
100
AcDbCircle
 10
3290.0
 20
625.8633163172901
 30
0.0
 40
10.00000000000004
100
AcDbArc
 50
285.0000000000001
 51
0.0
  0
LINE
  5
2BA
330
3B7
100
AcDbEntity
  8
DATA
  6
Continuous
 62
     7
100
AcDbLine
 10
3031.026318210193
 20
624.59270009178
 30
0.0
 11
3020.673556406093
 21
663.2297331433428
 31
0.0
  0
LINE
  5
2BB
330
3B7
100
AcDbEntity
  8
DATA
  6
Continuous
 62
     7
100
AcDbLine
 10
3032.958169862772
 20
625.110338181985
 30
0.0
 11
3031.026318210193
 21
624.59270009178
 31
0.0
  0
LINE
  5
2BC
330
3B7
100
AcDbEntity
  8
DATA
  6
Continuous
 62
     7
100
AcDbLine
 10
3020.673556406093
 20
663.2297331433428
 30
0.0
 11
3022.605408058672
 21
663.7473712335475
 31
0.0
  0
LINE
  5
2BD
330
3B7
100
AcDbEntity
  8
DATA
  6
STYLE_06
 62
     7
100
AcDbLine
 10
2981.246443821652
 20
1216.062567545619
 30
0.0
 11
2968.305491566528
 21
1264.358858860072
 31
0.0
  0
LINE
  5
2BE
330
3B7
100
AcDbEntity
  8
DATA
  6
STYLE_06
 62
     7
100
AcDbLine
 10
3158.537489716861
 20
554.4033765376013
 30
0.0
 11
3145.596537461736
 21
602.6996678520553
 31
0.0
  0
LWPOLYLINE
  5
2BF
330
3B7
100
AcDbEntity
  8
DATA
  6
Continuous
 62
     7
100
AcDbPolyline
 90
        6
 70
     1
 43
0.0
 10
2397.979274057837
 20
28.37239699999986
 10
2395.958548115673
 20
25.0
 10
2397.979274057837
 20
21.62760299999991
 10
2402.020725942164
 20
21.62760299999991
 10
2404.041451884328
 20
25.0
 10
2402.020725942164
 20
28.37239699999986
  0
ARC
  5
2C8
330
3B7
100
AcDbEntity
  8
DATA
  6
Continuous
 62
     7
100
AcDbCircle
 10
2399.955038759232
 20
24.49928673240607
 30
0.0
 40
9.750820126767559
100
AcDbArc
 50
89.73580699542321
 51
121.7492700042413
  0
ARC
  5
2C9
330
3B7
100
AcDbEntity
  8
DATA
  6
Continuous
 62
     7
100
AcDbCircle
 10
2399.592759747477
 20
24.93148828210224
 30
0.0
 40
9.193015045691506
100
AcDbArc
 50
121.2466632734844
 51
179.5729944309664
  0
ARC
  5
2CA
330
3B7
100
AcDbEntity
  8
DATA
  6
Continuous
 62
     7
100
AcDbCircle
 10
2400.044961240769
 20
24.49928673240607
 30
0.0
 40
9.75082012676747
100
AcDbArc
 50
58.25072999575866
 51
90.2641930045768
  0
ARC
  5
2CB
330
3B7
100
AcDbEntity
  8
DATA
  6
Continuous
 62
     7
100
AcDbCircle
 10
2400.407240252524
 20
24.93148828210224
 30
0.0
 40
9.193015045691602
100
AcDbArc
 50
0.4270055690335912
 51
58.75333672651561
  0
ARC
  5
2CC
330
3B7
100
AcDbEntity
  8
DATA
  6
Continuous
 62
     7
100
AcDbCircle
 10
2399.955038759232
 20
25.50071326759371
 30
0.0
 40
9.750820126767276
100
AcDbArc
 50
238.250729995758
 51
270.2641930045768
  0
ARC
  5
2CD
330
3B7
100
AcDbEntity
  8
DATA
  6
Continuous
 62
     7
100
AcDbCircle
 10
2399.592759747477
 20
25.06851171789754
 30
0.0
 40
9.193015045691602
100
AcDbArc
 50
180.4270055690322
 51
238.7533367265148
  0
ARC
  5
2CE
330
3B7
100
AcDbEntity
  8
DATA
  6
Continuous
 62
     7
100
AcDbCircle
 10
2400.044961240769
 20
25.50071326759371
 30
0.0
 40
9.750820126767559
100
AcDbArc
 50
269.7358069954232
 51
301.749270004242
  0
ARC
  5
2CF
330
3B7
100
AcDbEntity
  8
DATA
  6
Continuous
 62
     7
100
AcDbCircle
 10
2400.407240252524
 20
25.06851171789754
 30
0.0
 40
9.193015045691312
100
AcDbArc
 50
301.2466632734852
 51
359.5729944309678
  0
ARC
  5
2D0
330
3B7
100
AcDbEntity
  8
DATA
  6
Continuous
 62
     7
100
AcDbCircle
 10
2225.5
 20
1203.324634782525
 30
0.0
 40
10.0
100
AcDbArc
 50
90.0
 51
180.0
  0
ARC
  5
2D1
330
3B7
100
AcDbEntity
  8
DATA
  6
Continuous
 62
     7
100
AcDbCircle
 10
2225.5
 20
1239.300482051775
 30
0.0
 40
10.0
100
AcDbArc
 50
90.0
 51
180.0
  0
ARC
  5
2D2
330
3B7
100
AcDbEntity
  8
DATA
  6
Continuous
 62
     7
100
AcDbCircle
 10
2574.500000000001
 20
1203.324634782525
 30
0.0
 40
10.0
100
AcDbArc
 50
0.0
 51
90.0
  0
ARC
  5
2D3
330
3B7
100
AcDbEntity
  8
DATA
  6
Continuous
 62
     7
100
AcDbCircle
 10
2574.500000000001
 20
1239.300482051775
 30
0.0
 40
10.0
100
AcDbArc
 50
0.0
 51
90.0
  0
ARC
  5
2D4
330
3B7
100
AcDbEntity
  8
DATA
  6
Continuous
 62
     7
100
AcDbCircle
 10
2574.500000000001
 20
560.6995179482244
 30
0.0
 40
10.0
100
AcDbArc
 50
270.0
 51
0.0
  0
ARC
  5
2D5
330
3B7
100
AcDbEntity
  8
DATA
  6
Continuous
 62
     7
100
AcDbCircle
 10
2225.5
 20
560.6995179482244
 30
0.0
 40
10.0
100
AcDbArc
 50
180.0
 51
270.0
  0
LWPOLYLINE
  5
2D6
330
3B7
100
AcDbEntity
  8
DATA
  6
Continuous
 62
     7
100
AcDbPolyline
 90
        6
 70
     1
 43
0.0
 10
3898.300311088861
 20
581.9239191948286
 10
3896.279585146697
 20
578.5515221948287
 10
3898.300311088861
 20
575.1791251948287
 10
3902.341762973189
 20
575.1791251948287
 10
3904.362488915353
 20
578.5515221948287
 10
3902.341762973189
 20
581.9239191948286
  0
ARC
  5
2DF
330
3B7
100
AcDbEntity
  8
DATA
  6
Continuous
 62
     7
100
AcDbCircle
 10
3900.276075790257
 20
578.0508089272347
 30
0.0
 40
9.750820126767559
100
AcDbArc
 50
89.73580699542321
 51
121.7492700042413
  0
ARC
  5
2E0
330
3B7
100
AcDbEntity
  8
DATA
  6
Continuous
 62
     7
100
AcDbCircle
 10
3899.913796778502
 20
578.483010476931
 30
0.0
 40
9.193015045691506
100
AcDbArc
 50
121.2466632734844
 51
179.5729944309664
  0
ARC
  5
2E1
330
3B7
100
AcDbEntity
  8
DATA
  6
Continuous
 62
     7
100
AcDbCircle
 10
3900.365998271793
 20
578.0508089272347
 30
0.0
 40
9.75082012676747
100
AcDbArc
 50
58.25072999575866
 51
90.2641930045768
  0
ARC
  5
2E2
330
3B7
100
AcDbEntity
  8
DATA
  6
Continuous
 62
     7
100
AcDbCircle
 10
3900.72827728355
 20
578.483010476931
 30
0.0
 40
9.193015045691602
100
AcDbArc
 50
0.4270055690335912
 51
58.75333672651561
  0
ARC
  5
2E3
330
3B7
100
AcDbEntity
  8
DATA
  6
Continuous
 62
     7
100
AcDbCircle
 10
3900.276075790257
 20
579.0522354624224
 30
0.0
 40
9.750820126767276
100
AcDbArc
 50
238.250729995758
 51
270.2641930045768
  0
ARC
  5
2E4
330
3B7
100
AcDbEntity
  8
DATA
  6
Continuous
 62
     7
100
AcDbCircle
 10
3899.913796778502
 20
578.6200339127264
 30
0.0
 40
9.193015045691602
100
AcDbArc
 50
180.4270055690322
 51
238.7533367265148
  0
ARC
  5
2E5
330
3B7
100
AcDbEntity
  8
DATA
  6
Continuous
 62
     7
100
AcDbCircle
 10
3900.365998271793
 20
579.0522354624224
 30
0.0
 40
9.750820126767559
100
AcDbArc
 50
269.7358069954232
 51
301.749270004242
  0
ARC
  5
2E6
330
3B7
100
AcDbEntity
  8
DATA
  6
Continuous
 62
     7
100
AcDbCircle
 10
3900.72827728355
 20
578.6200339127264
 30
0.0
 40
9.193015045691312
100
AcDbArc
 50
301.2466632734852
 51
359.5729944309678
  0
TEXT
  5
2E7
330
3B7
100
AcDbEntity
  8
DATA
 62
     7
100
AcDbText
 10
3937.400211927854
 20
-173.3392397823311
 30
0.0
 40
28.50472005208333
  1
2-Wayサラウンド・スピーカー 
 41
0.7
 11
3937.400211927854
 21
-144.8345197302478
 31
0.0
100
AcDbText
 73
     3
  0
LWPOLYLINE
  5
2E8
330
3B7
100
AcDbEntity
  8
DATA
  6
Continuous
 62
     7
100
AcDbPolyline
 90
        4
 70
     1
 43
0.0
 10
2380.0
 20
664.4288547077668
 10
2420.0
 20
664.4288547077668
 10
2420.0
 20
624.4288547077668
 10
2380.0
 20
624.4288547077668
  0
TEXT
  5
2EF
330
3B7
100
AcDbEntity
  8
DATA
 62
     7
100
AcDbText
 10
2383.84732530382
 20
629.8927743633139
 30
0.0
 40
4.072102864583333
  1
PROFESSIONAL
 41
0.7
 72
     1
 11
2400.0
 21
631.9288257956055
 31
0.0
100
AcDbText
 73
     2
  0
LWPOLYLINE
  5
2F0
330
3B7
100
AcDbEntity
  8
DATA
  6
Continuous
 62
     7
100
AcDbPolyline
 90
        4
 70
     1
 43
0.0
 10
2380.0
 20
664.4288547077668
 10
2420.0
 20
664.4288547077668
 10
2420.0
 20
624.4288547077668
 10
2380.0
 20
624.4288547077668
  0
LWPOLYLINE
  5
2F7
330
3B7
100
AcDbEntity
  8
DATA
  6
Continuous
 62
     7
100
AcDbPolyline
 90
        4
 70
     1
 43
0.0
 10
2380.0
 20
664.4288547077668
 10
2420.0
 20
664.4288547077668
 10
2420.0
 20
624.4288547077668
 10
2380.0
 20
624.4288547077668
  0
LINE
  5
2FE
330
3B7
100
AcDbEntity
  8
DATA
  6
Continuous
 62
     7
100
AcDbLine
 10
2380.0
 20
639.4287968834444
 30
0.0
 11
2420.0
 21
639.4287968834444
 31
0.0
  0
ARC
  5
2FF
330
3B7
100
AcDbEntity
  8
DATA
  6
Continuous
 62
     7
100
AcDbCircle
 10
2400.970359212114
 20
646.5522444183886
 30
0.0
 40
0.478174672227108
100
AcDbArc
 50
307.641902497535
 51
354.2670192895324
  0
LINE
  5
300
330
3B7
100
AcDbEntity
  8
DATA
  6
Continuous
 62
     7
100
AcDbLine
 10
2388.687862166753
 20
654.0875033505799
 30
0.0
 11
2390.929552166754
 21
659.4288233505799
 31
0.0
  0
LINE
  5
301
330
3B7
100
AcDbEntity
  8
DATA
  6
Continuous
 62
     7
100
AcDbLine
 10
2388.687862166753
 20
654.0875033505799
 30
0.0
 11
2386.473832166755
 21
659.4288233505799
 31
0.0
  0
LINE
  5
302
330
3B7
100
AcDbEntity
  8
DATA
  6
Continuous
 62
     7
100
AcDbLine
 10
2405.680462166754
 20
644.4288233505799
 30
0.0
 11
2405.680462166754
 21
659.4288233505799
 31
0.0
  0
LINE
  5
303
330
3B7
100
AcDbEntity
  8
DATA
  6
Continuous
 62
     7
100
AcDbLine
 10
2408.558692166754
 20
659.4288233505799
 30
0.0
 11
2408.558692166754
 21
646.7258633505807
 31
0.0
  0
LINE
  5
304
330
3B7
100
AcDbEntity
  8
DATA
  6
Continuous
 62
     7
100
AcDbLine
 10
2391.981217166754
 20
659.4288233505799
 30
0.0
 11
2391.981217166754
 21
646.7258633505807
 31
0.0
  0
LINE
  5
305
330
3B7
100
AcDbEntity
  8
DATA
  6
Continuous
 62
     7
100
AcDbLine
 10
2394.748747166754
 20
659.4288233505799
 30
0.0
 11
2394.748747166754
 21
646.7258633505807
 31
0.0
  0
LINE
  5
306
330
3B7
100
AcDbEntity
  8
DATA
  6
Continuous
 62
     7
100
AcDbLine
 10
2396.187862166753
 20
659.4288233505799
 30
0.0
 11
2396.187862166753
 21
644.4288233505799
 31
0.0
  0
LINE
  5
307
330
3B7
100
AcDbEntity
  8
DATA
  6
Continuous
 62
     7
100
AcDbLine
 10
2398.706317166755
 20
658.0173983505809
 30
0.0
 11
2398.706317166755
 21
653.2018883505802
 31
0.0
  0
LINE
  5
308
330
3B7
100
AcDbEntity
  8
DATA
  6
Continuous
 62
     7
100
AcDbLine
 10
2404.104187166753
 20
653.4805283505792
 30
0.0
 11
2404.104187166753
 21
656.9933933505795
 31
0.0
  0
LINE
  5
309
330
3B7
100
AcDbEntity
  8
DATA
  6
Continuous
 62
     7
100
AcDbLine
 10
2401.446142166753
 20
657.3531833505795
 30
0.0
 11
2401.446142166753
 21
653.8660883505791
 31
0.0
  0
ARC
  5
30A
330
3B7
100
AcDbEntity
  8
DATA
  6
Continuous
 62
     7
100
AcDbCircle
 10
2391.425857166754
 20
648.2805233505801
 30
0.0
 40
3.868280137751436
100
AcDbArc
 50
264.690856221533
 51
323.9911991542514
  0
LINE
  5
30B
330
3B7
100
AcDbEntity
  8
DATA
  6
Continuous
 62
     7
100
AcDbLine
 10
2389.877902166753
 20
649.1336333505805
 30
0.0
 11
2389.877902166753
 21
646.7258933505795
 31
0.0
  0
LINE
  5
30C
330
3B7
100
AcDbEntity
  8
DATA
  6
Continuous
 62
     7
100
AcDbLine
 10
2389.877902166753
 20
649.1336333505805
 30
0.0
 11
2387.387122166754
 21
649.1336333505805
 31
0.0
  0
LINE
  5
30D
330
3B7
100
AcDbEntity
  8
DATA
  6
Continuous
 62
     7
100
AcDbLine
 10
2387.387122166754
 20
649.1336333505805
 30
0.0
 11
2387.387122166754
 21
646.7258933505795
 31
0.0
  0
ARC
  5
30E
330
3B7
100
AcDbEntity
  8
DATA
  6
Continuous
 62
     7
100
AcDbCircle
 10
2390.934832166753
 20
646.6934333505796
 30
0.0
 40
1.046893239362461
100
AcDbArc
 50
269.7118487927625
 51
1.775987005689557
  0
ARC
  5
30F
330
3B7
100
AcDbEntity
  8
DATA
  6
Continuous
 62
     7
100
AcDbCircle
 10
2390.924287166753
 20
646.6934333505796
 30
0.0
 40
1.046887886189428
100
AcDbArc
 50
178.2240129943483
 51
270.2881512072647
  0
ARC
  5
310
330
3B7
100
AcDbEntity
  8
DATA
  6
Continuous
 62
     7
100
AcDbCircle
 10
2390.710012166754
 20
648.2805233505801
 30
0.0
 40
3.868273855420329
100
AcDbArc
 50
216.0088008457504
 51
275.3091437784687
  0
ARC
  5
311
330
3B7
100
AcDbEntity
  8
DATA
  6
Continuous
 62
     7
100
AcDbCircle
 10
2389.135282166753
 20
646.8106883505797
 30
0.0
 40
1.750200312263863
100
AcDbArc
 50
182.7769954500013
 51
207.3596066671519
  0
CIRCLE
  5
312
330
3B7
100
AcDbEntity
  8
DATA
  6
Continuous
 62
     7
100
AcDbCircle
 10
2388.840082166755
 20
652.0118483505788
 30
0.0
 40
1.425269999999727
  0
LINE
  5
313
330
3B7
100
AcDbEntity
  8
DATA
  6
Continuous
 62
     7
100
AcDbLine
 10
2413.180462166755
 20
644.4288383505806
 30
0.0
 11
2405.680462166754
 21
644.4288383505806
 31
0.0
  0
LINE
  5
314
330
3B7
100
AcDbEntity
  8
DATA
  6
Continuous
 62
     7
100
AcDbLine
 10
2413.180462166755
 20
644.4288383505806
 30
0.0
 11
2413.180462166755
 21
649.1336483505786
 31
0.0
  0
LINE
  5
315
330
3B7
100
AcDbEntity
  8
DATA
  6
Continuous
 62
     7
100
AcDbLine
 10
2413.180462166755
 20
649.1336333505805
 30
0.0
 11
2410.662022166754
 21
649.1336333505805
 31
0.0
  0
LINE
  5
316
330
3B7
100
AcDbEntity
  8
DATA
  6
Continuous
 62
     7
100
AcDbLine
 10
2410.662022166754
 20
649.1336333505805
 30
0.0
 11
2410.662022166754
 21
646.7258933505795
 31
0.0
  0
LINE
  5
317
330
3B7
100
AcDbEntity
  8
DATA
  6
Continuous
 62
     7
100
AcDbLine
 10
2396.187862166753
 20
644.4288383505806
 30
0.0
 11
2401.446142166753
 21
644.428853350581
 31
0.0
  0
LINE
  5
318
330
3B7
100
AcDbEntity
  8
DATA
  6
Continuous
 62
     7
100
AcDbLine
 10
2398.706302166754
 20
645.8402783505798
 30
0.0
 11
2400.062392166754
 21
645.8402783505798
 31
0.0
  0
LINE
  5
319
330
3B7
100
AcDbEntity
  8
DATA
  6
Continuous
 62
     7
100
AcDbLine
 10
2398.706317166755
 20
645.8402783505798
 30
0.0
 11
2398.706317166755
 21
651.7627883505801
 31
0.0
  0
LINE
  5
31A
330
3B7
100
AcDbEntity
  8
DATA
  6
Continuous
 62
     7
100
AcDbLine
 10
2398.706302166754
 20
651.7627883505801
 30
0.0
 11
2400.062392166754
 21
651.7627883505801
 31
0.0
  0
LINE
  5
31B
330
3B7
100
AcDbEntity
  8
DATA
  6
Continuous
 62
     7
100
AcDbLine
 10
2401.446142166753
 20
646.5044783505809
 30
0.0
 11
2401.446142166753
 21
651.098588350579
 31
0.0
  0
ARC
  5
31C
330
3B7
100
AcDbEntity
  8
DATA
  6
Continuous
 62
     7
100
AcDbCircle
 10
2393.000587166754
 20
646.8106883505797
 30
0.0
 40
1.750197821797112
100
AcDbArc
 50
332.6403933328761
 51
357.2230045500122
  0
ARC
  5
31D
330
3B7
100
AcDbEntity
  8
DATA
  6
Continuous
 62
     7
100
AcDbCircle
 10
2409.615622166754
 20
646.6934333505796
 30
0.0
 40
1.046893239362461
100
AcDbArc
 50
269.7118487927625
 51
1.775987005690296
  0
ARC
  5
31E
330
3B7
100
AcDbEntity
  8
DATA
  6
Continuous
 62
     7
100
AcDbCircle
 10
2409.605092166753
 20
646.6934333505796
 30
0.0
 40
1.046887886189882
100
AcDbArc
 50
178.224012994349
 51
270.2881512072399
  0
LINE
  5
31F
330
3B7
100
AcDbEntity
  8
DATA
  6
Continuous
 62
     7
100
AcDbLine
 10
2404.102972166754
 20
646.8365933505796
 30
0.0
 11
2404.102972166754
 21
650.8218233505804
 31
0.0
  0
LINE
  5
320
330
3B7
100
AcDbEntity
  8
DATA
  6
Continuous
 62
     7
100
AcDbLine
 10
2398.706302166754
 20
653.2018883505802
 30
0.0
 11
2400.062392166754
 21
653.2018883505802
 31
0.0
  0
ARC
  5
321
330
3B7
100
AcDbEntity
  8
DATA
  6
Continuous
 62
     7
100
AcDbCircle
 10
2401.255462166754
 20
647.2763933505788
 30
0.0
 40
2.853917117575122
100
AcDbArc
 50
273.8309816091208
 51
351.1351473098232
  0
LINE
  5
322
330
3B7
100
AcDbEntity
  8
DATA
  6
Continuous
 62
     7
100
AcDbLine
 10
2391.981217166754
 20
659.4288233505799
 30
0.0
 11
2394.748747166754
 21
659.4288233505799
 31
0.0
  0
LINE
  5
323
330
3B7
100
AcDbEntity
  8
DATA
  6
Continuous
 62
     7
100
AcDbLine
 10
2386.473832166755
 20
659.4288233505799
 30
0.0
 11
2390.929552166754
 21
659.4288233505799
 31
0.0
  0
LINE
  5
324
330
3B7
100
AcDbEntity
  8
DATA
  6
Continuous
 62
     7
100
AcDbLine
 10
2405.680462166754
 20
659.4288233505799
 30
0.0
 11
2408.558692166754
 21
659.4288233505799
 31
0.0
  0
LINE
  5
325
330
3B7
100
AcDbEntity
  8
DATA
  6
Continuous
 62
     7
100
AcDbLine
 10
2396.187862166753
 20
659.4288233505799
 30
0.0
 11
2401.475047358974
 21
659.4288112099693
 31
0.0
  0
LINE
  5
326
330
3B7
100
AcDbEntity
  8
DATA
  6
Continuous
 62
     7
100
AcDbLine
 10
2398.706302166754
 20
658.0173833505805
 30
0.0
 11
2400.062392166754
 21
658.0173833505805
 31
0.0
  0
ARC
  5
327
330
3B7
100
AcDbEntity
  8
DATA
  6
Continuous
 62
     7
100
AcDbCircle
 10
2401.283917166753
 20
656.585633350579
 30
0.0
 40
2.849594899367061
100
AcDbArc
 50
8.226923859026747
 51
86.15412669215178
  0
ARC
  5
328
330
3B7
100
AcDbEntity
  8
DATA
  6
Continuous
 62
     7
100
AcDbCircle
 10
2400.078405360659
 20
648.470810291461
 30
0.0
 40
2.630580680073322
100
AcDbArc
 50
269.6512199376116
 51
282.8264828068713
  0
ARC
  5
329
330
3B7
100
AcDbEntity
  8
DATA
  6
Continuous
 62
     7
100
AcDbCircle
 10
2400.373861207953
 20
647.358652883739
 30
0.0
 40
1.481156855538867
100
AcDbArc
 50
281.2331036226684
 51
306.8620088940658
  0
ARC
  5
32A
330
3B7
100
AcDbEntity
  8
DATA
  6
Continuous
 62
     7
100
AcDbCircle
 10
2400.970359212114
 20
651.0508222827716
 30
0.0
 40
0.4781746722271056
100
AcDbArc
 50
5.732980710467616
 51
52.35809750244839
  0
ARC
  5
32B
330
3B7
100
AcDbEntity
  8
DATA
  6
Continuous
 62
     7
100
AcDbCircle
 10
2400.078405360659
 20
649.132256409699
 30
0.0
 40
2.630580680072368
100
AcDbArc
 50
77.17351719313388
 51
90.3487800623886
  0
ARC
  5
32C
330
3B7
100
AcDbEntity
  8
DATA
  6
Continuous
 62
     7
100
AcDbCircle
 10
2400.373861207953
 20
650.244413817421
 30
0.0
 40
1.481156855539633
100
AcDbArc
 50
53.13799110593346
 51
78.76689637733682
  0
ARC
  5
32D
330
3B7
100
AcDbEntity
  8
DATA
  6
Continuous
 62
     7
100
AcDbCircle
 10
2402.651452166754
 20
650.7237083505795
 30
0.0
 40
1.454832245870302
100
AcDbArc
 50
3.867006359850065
 51
88.3616345678995
  0
ARC
  5
32E
330
3B7
100
AcDbEntity
  8
DATA
  6
Continuous
 62
     7
100
AcDbCircle
 10
2402.650117166754
 20
653.6335883505794
 30
0.0
 40
1.456277909920028
100
AcDbArc
 50
271.6892821046528
 51
356.0782829826695
  0
ARC
  5
32F
330
3B7
100
AcDbEntity
  8
DATA
  6
Continuous
 62
     7
100
AcDbCircle
 10
2400.970359212114
 20
653.9138544183887
 30
0.0
 40
0.478174672227108
100
AcDbArc
 50
307.641902497535
 51
354.2670192892613
  0
ARC
  5
330
330
3B7
100
AcDbEntity
  8
DATA
  6
Continuous
 62
     7
100
AcDbCircle
 10
2400.078405360659
 20
655.8324202914613
 30
0.0
 40
2.630580680073322
100
AcDbArc
 50
269.6512199376116
 51
282.8264828068713
  0
ARC
  5
331
330
3B7
100
AcDbEntity
  8
DATA
  6
Continuous
 62
     7
100
AcDbCircle
 10
2400.373861207953
 20
654.7202628837395
 30
0.0
 40
1.481156855541009
100
AcDbArc
 50
281.2331036226339
 51
306.8620088940683
  0
ARC
  5
332
330
3B7
100
AcDbEntity
  8
DATA
  6
Continuous
 62
     7
100
AcDbCircle
 10
2400.970359212114
 20
657.3054172827719
 30
0.0
 40
0.4781746722271056
100
AcDbArc
 50
5.732980710467616
 51
52.35809750244839
  0
ARC
  5
333
330
3B7
100
AcDbEntity
  8
DATA
  6
Continuous
 62
     7
100
AcDbCircle
 10
2400.078405360659
 20
655.3868514096993
 30
0.0
 40
2.630580680072368
100
AcDbArc
 50
77.17351719313388
 51
90.3487800623886
  0
ARC
  5
334
330
3B7
100
AcDbEntity
  8
DATA
  6
Continuous
 62
     7
100
AcDbCircle
 10
2400.373861207953
 20
656.4990088174212
 30
0.0
 40
1.481156855539633
100
AcDbArc
 50
53.13799110593346
 51
78.76689637733682
  0
CIRCLE
  5
335
330
3B7
100
AcDbEntity
  8
DATA
  6
Continuous
 62
     7
100
AcDbCircle
 10
2275.0
 20
577.2970097806765
 30
0.0
 40
3.0
  0
LINE
  5
336
330
3B7
100
AcDbEntity
  8
DATA
  6
Continuous
 62
     7
100
AcDbLine
 10
2275.0
 20
579.0470097806765
 30
0.0
 11
2275.0
 21
575.5470097806765
 31
0.0
  0
LINE
  5
337
330
3B7
100
AcDbEntity
  8
DATA
  6
Continuous
 62
     7
100
AcDbLine
 10
2273.25
 20
577.2970097806765
 30
0.0
 11
2276.75
 21
577.2970097806765
 31
0.0
  0
CIRCLE
  5
338
330
3B7
100
AcDbEntity
  8
DATA
  6
Continuous
 62
     7
100
AcDbCircle
 10
2400.0
 20
577.2970097806765
 30
0.0
 40
3.0
  0
LINE
  5
339
330
3B7
100
AcDbEntity
  8
DATA
  6
Continuous
 62
     7
100
AcDbLine
 10
2400.0
 20
579.0470097806765
 30
0.0
 11
2400.0
 21
575.5470097806765
 31
0.0
  0
LINE
  5
33A
330
3B7
100
AcDbEntity
  8
DATA
  6
Continuous
 62
     7
100
AcDbLine
 10
2398.25
 20
577.2970097806765
 30
0.0
 11
2401.75
 21
577.2970097806765
 31
0.0
  0
CIRCLE
  5
33B
330
3B7
100
AcDbEntity
  8
DATA
  6
Continuous
 62
     7
100
AcDbCircle
 10
2525.0
 20
577.2970097806765
 30
0.0
 40
3.0
  0
LINE
  5
33C
330
3B7
100
AcDbEntity
  8
DATA
  6
Continuous
 62
     7
100
AcDbLine
 10
2525.0
 20
579.0470097806765
 30
0.0
 11
2525.0
 21
575.5470097806765
 31
0.0
  0
LINE
  5
33D
330
3B7
100
AcDbEntity
  8
DATA
  6
Continuous
 62
     7
100
AcDbLine
 10
2523.25
 20
577.2970097806765
 30
0.0
 11
2526.75
 21
577.2970097806765
 31
0.0
  0
CIRCLE
  5
33E
330
3B7
100
AcDbEntity
  8
DATA
  6
Continuous
 62
     7
100
AcDbCircle
 10
2275.0
 20
1188.148502325883
 30
0.0
 40
3.0
  0
LINE
  5
33F
330
3B7
100
AcDbEntity
  8
DATA
  6
Continuous
 62
     7
100
AcDbLine
 10
2275.0
 20
1189.898502325883
 30
0.0
 11
2275.0
 21
1186.398502325883
 31
0.0
  0
LINE
  5
340
330
3B7
100
AcDbEntity
  8
DATA
  6
Continuous
 62
     7
100
AcDbLine
 10
2273.25
 20
1188.148502325883
 30
0.0
 11
2276.75
 21
1188.148502325883
 31
0.0
  0
CIRCLE
  5
341
330
3B7
100
AcDbEntity
  8
DATA
  6
Continuous
 62
     7
100
AcDbCircle
 10
2400.0
 20
1188.148502325883
 30
0.0
 40
3.0
  0
LINE
  5
342
330
3B7
100
AcDbEntity
  8
DATA
  6
Continuous
 62
     7
100
AcDbLine
 10
2400.0
 20
1189.898502325883
 30
0.0
 11
2400.0
 21
1186.398502325883
 31
0.0
  0
LINE
  5
343
330
3B7
100
AcDbEntity
  8
DATA
  6
Continuous
 62
     7
100
AcDbLine
 10
2398.25
 20
1188.148502325883
 30
0.0
 11
2401.75
 21
1188.148502325883
 31
0.0
  0
CIRCLE
  5
344
330
3B7
100
AcDbEntity
  8
DATA
  6
Continuous
 62
     7
100
AcDbCircle
 10
2525.0
 20
1188.148502325883
 30
0.0
 40
3.0
  0
LINE
  5
345
330
3B7
100
AcDbEntity
  8
DATA
  6
Continuous
 62
     7
100
AcDbLine
 10
2525.0
 20
1189.898502325883
 30
0.0
 11
2525.0
 21
1186.398502325883
 31
0.0
  0
LINE
  5
346
330
3B7
100
AcDbEntity
  8
DATA
  6
Continuous
 62
     7
100
AcDbLine
 10
2523.25
 20
1188.148502325883
 30
0.0
 11
2526.75
 21
1188.148502325883
 31
0.0
  0
ENDSEC
  0
SECTION
  2
OBJECTS
  0
DICTIONARY
  5
354
330
0
100
AcDbDictionary
281
     1
  3
ACAD_CIP_PREVIOUS_PRODUCT_INFO
350
3D1
  3
ACAD_COLOR
350
3AA
  3
ACAD_DETAILVIEWSTYLE
350
3B1
  3
ACAD_GROUP
350
355
  3
ACAD_LAYOUT
350
3A9
  3
ACAD_MATERIAL
350
358
  3
ACAD_MLEADERSTYLE
350
3AD
  3
ACAD_MLINESTYLE
350
3A6
  3
ACAD_PLOTSETTINGS
350
3A8
  3
ACAD_PLOTSTYLENAME
350
356
  3
ACAD_SCALELIST
350
38A
  3
ACAD_SECTIONVIEWSTYLE
350
3AF
  3
ACAD_TABLESTYLE
350
3AB
  3
ACAD_VISUALSTYLE
350
371
  3
ACDB_RECOMPOSE_DATA
350
3E9
  3
AcDbVariableDictionary
350
3DC
  3
DWGPROPS
350
3EA
  0
DICTIONARY
  5
3D2
330
39C
100
AcDbDictionary
280
     1
281
     1
  3
ADSK_XREC_LAYER_RECONCILED
360
3D3
  0
DICTIONARY
  5
3D4
330
3BB
100
AcDbDictionary
280
     1
281
     1
  3
ADSK_XREC_LAYER_RECONCILED
360
3D5
  0
DICTIONARY
  5
3D6
330
3C9
100
AcDbDictionary
280
     1
281
     1
  3
ADSK_XREC_LAYER_RECONCILED
360
3D7
  0
DICTIONARY
  5
3D8
330
3CA
100
AcDbDictionary
280
     1
281
     1
  3
ADSK_XREC_LAYER_RECONCILED
360
3D9
  0
DICTIONARY
  5
3DA
330
3CB
100
AcDbDictionary
280
     1
281
     1
  3
ADSK_XREC_LAYER_RECONCILED
360
3DB
  0
XRECORD
  5
3D1
102
{ACAD_REACTORS
330
354
102
}
330
354
100
AcDbXrecord
280
     1
300
ACDLT
300
2017
300
ACDLT_F_S
  0
DICTIONARY
  5
3AA
102
{ACAD_REACTORS
330
354
102
}
330
354
100
AcDbDictionary
281
     1
  0
DICTIONARY
  5
3B1
102
{ACAD_REACTORS
330
354
102
}
330
354
100
AcDbDictionary
281
     1
  3
Imperial24
350
3B2
  0
DICTIONARY
  5
355
102
{ACAD_REACTORS
330
354
102
}
330
354
100
AcDbDictionary
281
     1
  0
DICTIONARY
  5
3A9
102
{ACAD_REACTORS
330
354
102
}
330
354
100
AcDbDictionary
281
     1
  3
Model
350
3BA
  3
レイアウト1
350
3B6
  0
DICTIONARY
  5
358
102
{ACAD_REACTORS
330
354
102
}
330
354
100
AcDbDictionary
281
     1
  3
ByBlock
350
361
  3
ByLayer
350
359
  3
Global
350
369
  0
DICTIONARY
  5
3AD
102
{ACAD_REACTORS
330
354
102
}
330
354
100
AcDbDictionary
281
     1
  3
Standard
350
3AE
  0
DICTIONARY
  5
3A6
102
{ACAD_REACTORS
330
354
102
}
330
354
100
AcDbDictionary
281
     1
  3
Standard
350
3A7
  0
DICTIONARY
  5
3A8
102
{ACAD_REACTORS
330
354
102
}
330
354
100
AcDbDictionary
281
     1
  0
ACDBDICTIONARYWDFLT
  5
356
102
{ACAD_REACTORS
330
354
102
}
330
354
100
AcDbDictionary
281
     1
  3
Normal
350
357
100
AcDbDictionaryWithDefault
340
357
  0
DICTIONARY
  5
38A
102
{ACAD_REACTORS
330
354
102
}
330
354
100
AcDbDictionary
281
     1
  3
A0
350
38B
  3
A1
350
38C
  3
A2
350
38D
  3
A3
350
38E
  3
A4
350
38F
  3
A5
350
390
  3
A6
350
391
  3
A7
350
392
  3
A8
350
393
  3
A9
350
394
  3
B0
350
395
  3
B1
350
396
  3
B2
350
397
  3
B3
350
398
  3
B4
350
399
  3
B5
350
39A
  3
B6
350
39B
  0
DICTIONARY
  5
3AF
102
{ACAD_REACTORS
330
354
102
}
330
354
100
AcDbDictionary
281
     1
  3
Imperial24
350
3B0
  0
DICTIONARY
  5
3AB
102
{ACAD_REACTORS
330
354
102
}
330
354
100
AcDbDictionary
281
     1
  3
Standard
350
3AC
  0
DICTIONARY
  5
371
102
{ACAD_REACTORS
330
354
102
}
330
354
100
AcDbDictionary
281
     1
  3
2dWireframe
350
377
  3
Basic
350
376
  3
Brighten
350
37D
  3
ColorChange
350
381
  3
Conceptual
350
37A
  3
Dim
350
37C
  3
EdgeColorOff
350
389
  3
Facepattern
350
380
  3
Flat
350
372
  3
FlatWithEdges
350
373
  3
Gouraud
350
374
  3
GouraudWithEdges
350
375
  3
Hidden
350
379
  3
JitterOff
350
387
  3
Linepattern
350
37F
  3
OverhangOff
350
388
  3
Realistic
350
37B
  3
Shaded
350
386
  3
Shaded with edges
350
385
  3
Shades of Gray
350
382
  3
Sketchy
350
383
  3
Thicken
350
37E
  3
Wireframe
350
378
  3
X-Ray
350
384
  0
XRECORD
  5
3E9
102
{ACAD_REACTORS
330
354
102
}
330
354
100
AcDbXrecord
280
     1
 90
        1
330
3AC
  0
DICTIONARY
  5
3DC
102
{ACAD_REACTORS
330
354
102
}
330
354
100
AcDbDictionary
281
     1
  3
CANNOSCALE
350
3E1
  3
CMLEADERSTYLE
350
3DE
  3
CTABLESTYLE
350
3DD
  3
CVIEWDETAILSTYLE
350
3DF
  3
CVIEWSECTIONSTYLE
350
3E0
  3
DIMASSOC
350
3E4
  3
INDEXCTL
350
3E3
  3
SORTENTS
350
3E2
  3
XCLIPFRAME
350
3E5
  0
XRECORD
  5
3EA
102
{ACAD_REACTORS
330
354
102
}
330
354
100
AcDbXrecord
280
     1
  1
DWGPROPS COOKIE
  2

  3

  4

  6

  7

  8
sasaki_n
  9

300
=
301
=
302
=
303
=
304
=
305
=
306
=
307
=
308
=
309
=
 40
0.0003587962962963
 41
2457557.542627315
 42
2457557.5809375
  1

 90
        0
  0
XRECORD
  5
3D3
102
{ACAD_REACTORS
330
3D2
102
}
330
3D2
100
AcDbXrecord
280
     1
290
     1
  0
XRECORD
  5
3D5
102
{ACAD_REACTORS
330
3D4
102
}
330
3D4
100
AcDbXrecord
280
     1
290
     1
  0
XRECORD
  5
3D7
102
{ACAD_REACTORS
330
3D6
102
}
330
3D6
100
AcDbXrecord
280
     1
290
     1
  0
XRECORD
  5
3D9
102
{ACAD_REACTORS
330
3D8
102
}
330
3D8
100
AcDbXrecord
280
     1
290
     1
  0
XRECORD
  5
3DB
102
{ACAD_REACTORS
330
3DA
102
}
330
3DA
100
AcDbXrecord
280
     1
290
     1
  0
ACDBDETAILVIEWSTYLE
  5
3B2
102
{ACAD_XDICTIONARY
360
422
102
}
102
{ACAD_REACTORS
330
3B1
102
}
330
3B1
100
AcDbModelDocViewStyle
 70
     0
  3
Imperial24
290
     0
100
AcDbDetailViewStyle
 70
     0
 71
     0
 90
        3
 71
     1
340
39D
 40
0.24
340
0
 40
0.24
300

 40
0.36
280
     3
 71
     2
340
3A4
 90
       25
 71
     3
340
39D
 40
0.24
 90
        1
 40
0.75
 90
        1
300
%<\AcVar ViewType \f "%tc1">% %<\AcVar ViewDetailId>%\PSCALE %<\AcVar ViewScale \f "%sn">%
 71
     4
340
3A4
 90
       25
340
3A4
 90
       25
280
     0
  0
LAYOUT
  5
3BA
102
{ACAD_XDICTIONARY
360
426
102
}
102
{ACAD_REACTORS
330
3A9
102
}
330
3A9
100
AcDbPlotSettings
  1

  2
DocuPrint 3000-2
  4

  6

 40
0.0
 41
0.0
 42
0.0
 43
0.0
 44
0.0
 45
0.0
 46
0.0
 47
0.0
 48
0.0
 49
0.0
140
0.0
141
0.0
142
1.0
143
1.0
 70
  1712
 72
     0
 73
     0
 74
     0
  7

 75
     0
147
1.0
148
0.0
149
0.0
100
AcDbLayout
  1
Model
 70
     1
 71
     0
 10
0.0
 20
0.0
 11
12.0
 21
9.0
 12
0.0
 22
0.0
 32
0.0
 14
0.0
 24
0.0
 34
0.0
 15
0.0
 25
0.0
 35
0.0
146
0.0
 13
0.0
 23
0.0
 33
0.0
 16
1.0
 26
0.0
 36
0.0
 17
0.0
 27
1.0
 37
0.0
 76
     0
330
3B7
331
3BC
  0
LAYOUT
  5
3B6
102
{ACAD_XDICTIONARY
360
424
102
}
102
{ACAD_REACTORS
330
3A9
102
}
330
3A9
100
AcDbPlotSettings
  1

  2
DocuPrint 3000-2
  4

  6

 40
0.0
 41
0.0
 42
0.0
 43
0.0
 44
0.0
 45
0.0
 46
0.0
 47
0.0
 48
0.0
 49
0.0
140
0.0
141
0.0
142
1.0
143
1.0
 70
   688
 72
     0
 73
     0
 74
     5
  7

 75
    16
147
1.0
148
0.0
149
0.0
100
AcDbLayout
  1
レイアウト1
 70
     0
 71
     1
 10
0.0
 20
0.0
 11
12.0
 21
9.0
 12
0.0
 22
0.0
 32
0.0
 14
1.000000000000000E+20
 24
1.000000000000000E+20
 34
1.000000000000000E+20
 15
-1.000000000000000E+20
 25
-1.000000000000000E+20
 35
-1.000000000000000E+20
146
0.0
 13
0.0
 23
0.0
 33
0.0
 16
1.0
 26
0.0
 36
0.0
 17
0.0
 27
1.0
 37
0.0
 76
     0
330
3B3
  0
MATERIAL
  5
361
102
{ACAD_XDICTIONARY
360
362
102
}
102
{ACAD_REACTORS
330
358
102
}
330
358
100
AcDbMaterial
  1
ByBlock
 72
     0
 43
0.0208333333333333
 43
0.0
 43
0.0
 43
0.0
 43
0.0
 43
0.0208333333333333
 43
0.0
 43
0.0
 43
0.0
 43
0.0
 43
1.0
 43
0.0
 43
0.0
 43
0.0
 43
0.0
 43
1.0
 77
     0
 47
0.0208333333333333
 47
0.0
 47
0.0
 47
0.0
 47
0.0
 47
0.0208333333333333
 47
0.0
 47
0.0
 47
0.0
 47
0.0
 47
1.0
 47
0.0
 47
0.0
 47
0.0
 47
0.0
 47
1.0
171
     0
 49
0.0208333333333333
 49
0.0
 49
0.0
 49
0.0
 49
0.0
 49
0.0208333333333333
 49
0.0
 49
0.0
 49
0.0
 49
0.0
 49
1.0
 49
0.0
 49
0.0
 49
0.0
 49
0.0
 49
1.0
175
     0
142
0.0208333333333333
142
0.0
142
0.0
142
0.0
142
0.0
142
0.0208333333333333
142
0.0
142
0.0
142
0.0
142
0.0
142
1.0
142
0.0
142
0.0
142
0.0
142
0.0
142
1.0
179
     0
144
0.0208333333333333
144
0.0
144
0.0
144
0.0
144
0.0
144
0.0208333333333333
144
0.0
144
0.0
144
0.0
144
0.0
144
1.0
144
0.0
144
0.0
144
0.0
144
0.0
144
1.0
147
0.0208333333333333
147
0.0
147
0.0
147
0.0
147
0.0
147
0.0208333333333333
147
0.0
147
0.0
147
0.0
147
0.0
147
1.0
147
0.0
147
0.0
147
0.0
147
0.0
147
1.0
  0
MATERIAL
  5
359
102
{ACAD_XDICTIONARY
360
35A
102
}
102
{ACAD_REACTORS
330
358
102
}
330
358
100
AcDbMaterial
  1
ByLayer
 72
     0
 43
0.0208333333333333
 43
0.0
 43
0.0
 43
0.0
 43
0.0
 43
0.0208333333333333
 43
0.0
 43
0.0
 43
0.0
 43
0.0
 43
1.0
 43
0.0
 43
0.0
 43
0.0
 43
0.0
 43
1.0
 77
     0
 47
0.0208333333333333
 47
0.0
 47
0.0
 47
0.0
 47
0.0
 47
0.0208333333333333
 47
0.0
 47
0.0
 47
0.0
 47
0.0
 47
1.0
 47
0.0
 47
0.0
 47
0.0
 47
0.0
 47
1.0
171
     0
 49
0.0208333333333333
 49
0.0
 49
0.0
 49
0.0
 49
0.0
 49
0.0208333333333333
 49
0.0
 49
0.0
 49
0.0
 49
0.0
 49
1.0
 49
0.0
 49
0.0
 49
0.0
 49
0.0
 49
1.0
175
     0
142
0.0208333333333333
142
0.0
142
0.0
142
0.0
142
0.0
142
0.0208333333333333
142
0.0
142
0.0
142
0.0
142
0.0
142
1.0
142
0.0
142
0.0
142
0.0
142
0.0
142
1.0
179
     0
144
0.0208333333333333
144
0.0
144
0.0
144
0.0
144
0.0
144
0.0208333333333333
144
0.0
144
0.0
144
0.0
144
0.0
144
1.0
144
0.0
144
0.0
144
0.0
144
0.0
144
1.0
147
0.0208333333333333
147
0.0
147
0.0
147
0.0
147
0.0
147
0.0208333333333333
147
0.0
147
0.0
147
0.0
147
0.0
147
1.0
147
0.0
147
0.0
147
0.0
147
0.0
147
1.0
  0
MATERIAL
  5
369
102
{ACAD_XDICTIONARY
360
36A
102
}
102
{ACAD_REACTORS
330
358
102
}
330
358
100
AcDbMaterial
  1
Global
 72
     0
 43
0.0208333333333333
 43
0.0
 43
0.0
 43
0.0
 43
0.0
 43
0.0208333333333333
 43
0.0
 43
0.0
 43
0.0
 43
0.0
 43
1.0
 43
0.0
 43
0.0
 43
0.0
 43
0.0
 43
1.0
 77
     0
 47
0.0208333333333333
 47
0.0
 47
0.0
 47
0.0
 47
0.0
 47
0.0208333333333333
 47
0.0
 47
0.0
 47
0.0
 47
0.0
 47
1.0
 47
0.0
 47
0.0
 47
0.0
 47
0.0
 47
1.0
171
     0
 49
0.0208333333333333
 49
0.0
 49
0.0
 49
0.0
 49
0.0
 49
0.0208333333333333
 49
0.0
 49
0.0
 49
0.0
 49
0.0
 49
1.0
 49
0.0
 49
0.0
 49
0.0
 49
0.0
 49
1.0
175
     0
142
0.0208333333333333
142
0.0
142
0.0
142
0.0
142
0.0
142
0.0208333333333333
142
0.0
142
0.0
142
0.0
142
0.0
142
1.0
142
0.0
142
0.0
142
0.0
142
0.0
142
1.0
179
     0
144
0.0208333333333333
144
0.0
144
0.0
144
0.0
144
0.0
144
0.0208333333333333
144
0.0
144
0.0
144
0.0
144
0.0
144
1.0
144
0.0
144
0.0
144
0.0
144
0.0
144
1.0
147
0.0208333333333333
147
0.0
147
0.0
147
0.0
147
0.0
147
0.0208333333333333
147
0.0
147
0.0
147
0.0
147
0.0
147
1.0
147
0.0
147
0.0
147
0.0
147
0.0
147
1.0
  0
MLEADERSTYLE
  5
3AE
102
{ACAD_REACTORS
330
3AD
102
}
330
3AD
100
AcDbMLeaderStyle
170
     2
171
     1
172
     0
 90
        2
 40
0.0
 41
0.0
173
     1
 91
-1056964608
340
3A2
 92
       -2
290
     1
 42
0.09
291
     1
 43
0.36
  3
Standard
 44
0.18
300

342
39D
174
     1
178
     6
175
     1
176
     0
 93
-1056964608
 45
0.18
292
     0
297
     0
 46
0.18
 94
-1056964608
 47
1.0
 49
1.0
140
1.0
293
     1
141
0.0
294
     1
177
     0
142
1.0
295
     0
296
     0
143
0.125
1001
ACAD_MLEADERVER
1070
     2
  0
MLINESTYLE
  5
3A7
102
{ACAD_REACTORS
330
3A6
102
}
330
3A6
100
AcDbMlineStyle
  2
STANDARD
 70
     0
  3

 62
   256
 51
90.0
 52
90.0
 71
     2
 49
0.5
 62
   256
  6
BYLAYER
 49
-0.5
 62
   256
  6
BYLAYER
  0
ACDBPLACEHOLDER
  5
357
102
{ACAD_REACTORS
330
356
102
}
330
356
  0
SCALE
  5
38B
102
{ACAD_REACTORS
330
38A
102
}
330
38A
100
AcDbScale
 70
     0
300
1:1
140
1.0
141
1.0
290
     1
  0
SCALE
  5
38C
102
{ACAD_REACTORS
330
38A
102
}
330
38A
100
AcDbScale
 70
     0
300
1/128" = 1'-0"
140
0.0078125
141
12.0
290
     0
  0
SCALE
  5
38D
102
{ACAD_REACTORS
330
38A
102
}
330
38A
100
AcDbScale
 70
     0
300
1/64" = 1'-0"
140
0.015625
141
12.0
290
     0
  0
SCALE
  5
38E
102
{ACAD_REACTORS
330
38A
102
}
330
38A
100
AcDbScale
 70
     0
300
1/32" = 1'-0"
140
0.03125
141
12.0
290
     0
  0
SCALE
  5
38F
102
{ACAD_REACTORS
330
38A
102
}
330
38A
100
AcDbScale
 70
     0
300
1/16" = 1'-0"
140
0.0625
141
12.0
290
     0
  0
SCALE
  5
390
102
{ACAD_REACTORS
330
38A
102
}
330
38A
100
AcDbScale
 70
     0
300
3/32" = 1'-0"
140
0.09375
141
12.0
290
     0
  0
SCALE
  5
391
102
{ACAD_REACTORS
330
38A
102
}
330
38A
100
AcDbScale
 70
     0
300
1/8" = 1'-0"
140
0.125
141
12.0
290
     0
  0
SCALE
  5
392
102
{ACAD_REACTORS
330
38A
102
}
330
38A
100
AcDbScale
 70
     0
300
3/16" = 1'-0"
140
0.1875
141
12.0
290
     0
  0
SCALE
  5
393
102
{ACAD_REACTORS
330
38A
102
}
330
38A
100
AcDbScale
 70
     0
300
1/4" = 1'-0"
140
0.25
141
12.0
290
     0
  0
SCALE
  5
394
102
{ACAD_REACTORS
330
38A
102
}
330
38A
100
AcDbScale
 70
     0
300
3/8" = 1'-0"
140
0.375
141
12.0
290
     0
  0
SCALE
  5
395
102
{ACAD_REACTORS
330
38A
102
}
330
38A
100
AcDbScale
 70
     0
300
1/2" = 1'-0"
140
0.5
141
12.0
290
     0
  0
SCALE
  5
396
102
{ACAD_REACTORS
330
38A
102
}
330
38A
100
AcDbScale
 70
     0
300
3/4" = 1'-0"
140
0.75
141
12.0
290
     0
  0
SCALE
  5
397
102
{ACAD_REACTORS
330
38A
102
}
330
38A
100
AcDbScale
 70
     0
300
1" = 1'-0"
140
1.0
141
12.0
290
     0
  0
SCALE
  5
398
102
{ACAD_REACTORS
330
38A
102
}
330
38A
100
AcDbScale
 70
     0
300
1-1/2" = 1'-0"
140
1.5
141
12.0
290
     0
  0
SCALE
  5
399
102
{ACAD_REACTORS
330
38A
102
}
330
38A
100
AcDbScale
 70
     0
300
3" = 1'-0"
140
3.0
141
12.0
290
     0
  0
SCALE
  5
39A
102
{ACAD_REACTORS
330
38A
102
}
330
38A
100
AcDbScale
 70
     0
300
6" = 1'-0"
140
6.0
141
12.0
290
     0
  0
SCALE
  5
39B
102
{ACAD_REACTORS
330
38A
102
}
330
38A
100
AcDbScale
 70
     0
300
1'-0" = 1'-0"
140
12.0
141
12.0
290
     0
  0
ACDBSECTIONVIEWSTYLE
  5
3B0
102
{ACAD_XDICTIONARY
360
420
102
}
102
{ACAD_REACTORS
330
3AF
102
}
330
3AF
100
AcDbModelDocViewStyle
 70
     0
  3
Imperial24
290
     0
100
AcDbSectionViewStyle
 70
     0
 71
     0
 90
       78
 71
     1
340
39D
 40
0.24
340
0
340
0
 40
0.24
300
I, O, Q, S, X, Z
 40
0.48
 90
        3
 40
0.18
 90
        1
 71
     2
340
3A4
 90
       25
340
3A4
 90
       50
 40
0.24
 40
0.0
 40
0.24
 71
     3
340
39D
 40
0.24
 90
        1
 40
0.75
 90
        1
300
%<\AcVar ViewType \f "%tc1">% %<\AcVar ViewSectionStartId>%-%<\AcVar ViewSectionEndId>%\PSCALE %<\AcVar ViewScale \f "%sn">%
 71
     4
300
ANSI31
 40
1.0
 90
        0
290
     0
290
     0
 90
        6
 40
0.0
 40
1.570796326794896
 40
0.2617993877991494
 40
1.308996938995747
 40
-0.2617993877991494
 40
1.832595714594046
  0
TABLESTYLE
  5
3AC
102
{ACAD_XDICTIONARY
360
3E7
102
}
102
{ACAD_REACTORS
330
3AB
102
}
330
3AB
100
AcDbTableStyle
  3
Standard
 70
     0
 71
     0
 40
0.06
 41
0.06
280
     0
281
     0
  7
STANDARD
140
0.18
170
     2
 62
     0
 63
     7
283
     0
274
    -2
284
     1
 64
     0
275
    -2
285
     1
 65
     0
276
    -2
286
     1
 66
     0
277
    -2
287
     1
 67
     0
278
    -2
288
     1
 68
     0
279
    -2
289
     1
 69
     0
  7
STANDARD
140
0.25
170
     5
 62
     0
 63
     7
283
     0
274
    -2
284
     1
 64
     0
275
    -2
285
     1
 65
     0
276
    -2
286
     1
 66
     0
277
    -2
287
     1
 67
     0
278
    -2
288
     1
 68
     0
279
    -2
289
     1
 69
     0
  7
STANDARD
140
0.18
170
     5
 62
     0
 63
     7
283
     0
274
    -2
284
     1
 64
     0
275
    -2
285
     1
 65
     0
276
    -2
286
     1
 66
     0
277
    -2
287
     1
 67
     0
278
    -2
288
     1
 68
     0
279
    -2
289
     1
 69
     0
  0
VISUALSTYLE
  5
377
102
{ACAD_XDICTIONARY
360
3F8
102
}
102
{ACAD_REACTORS
330
371
102
}
330
371
100
AcDbVisualStyle
  2
2dWireframe
 70
     4
 71
     0
 72
     2
 73
     0
 90
        0
 40
-0.6
 41
-30.0
 62
     5
 63
     7
 74
     1
 91
        4
 64
     7
 65
   257
 75
     1
175
     1
 42
1.0
 92
        0
 66
   257
 43
1.0
 76
     1
 77
     6
 78
     2
 67
     7
 79
     5
170
     0
171
     0
290
     0
174
     0
 93
        1
 44
0.0
173
     0
291
     0
 45
0.0
1001
ACAD
1000
AcDbSavedByObjectVersion
1070
     0
  0
VISUALSTYLE
  5
376
102
{ACAD_XDICTIONARY
360
3F6
102
}
102
{ACAD_REACTORS
330
371
102
}
330
371
100
AcDbVisualStyle
  2
Basic
 70
     7
 71
     1
 72
     0
 73
     1
 90
        0
 40
-0.6
 41
-30.0
 62
     5
 63
     7
 74
     0
 91
        4
 64
     7
 65
   257
 75
     1
175
     1
 42
1.0
 92
        8
 66
     7
 43
1.0
 76
     1
 77
     6
 78
     2
 67
     7
 79
     5
170
     0
171
     0
290
     0
174
     0
 93
        1
 44
0.0
173
     0
291
     1
 45
0.0
1001
ACAD
1000
AcDbSavedByObjectVersion
1070
     0
  0
VISUALSTYLE
  5
37D
102
{ACAD_XDICTIONARY
360
404
102
}
102
{ACAD_REACTORS
330
371
102
}
330
371
100
AcDbVisualStyle
  2
Brighten
 70
    12
 71
     2
 72
     2
 73
     0
 90
        0
 40
-0.6
 41
-30.0
 62
     5
 63
     7
 74
     1
 91
        4
 64
     7
 65
   257
 75
     1
175
     1
 42
1.0
 92
        8
 66
     7
 43
1.0
 76
     1
 77
     6
 78
     2
 67
     7
 79
     5
170
     0
171
     0
290
     0
174
     0
 93
        1
 44
50.0
173
     0
291
     1
 45
0.0
1001
ACAD
1000
AcDbSavedByObjectVersion
1070
     0
  0
VISUALSTYLE
  5
381
102
{ACAD_XDICTIONARY
360
40C
102
}
102
{ACAD_REACTORS
330
371
102
}
330
371
100
AcDbVisualStyle
  2
ColorChange
 70
    16
 71
     2
 72
     2
 73
     3
 90
        0
 40
-0.6
 41
-30.0
 62
     5
 63
     8
 74
     1
 91
        4
 64
     7
 65
   257
 75
     1
175
     1
 42
1.0
 92
        8
 66
     8
 43
1.0
 76
     1
 77
     6
 78
     2
 67
     7
 79
     5
170
     0
171
     0
290
     0
174
     0
 93
        1
 44
0.0
173
     0
291
     1
 45
0.0
1001
ACAD
1000
AcDbSavedByObjectVersion
1070
     0
  0
VISUALSTYLE
  5
37A
102
{ACAD_XDICTIONARY
360
3FE
102
}
102
{ACAD_REACTORS
330
371
102
}
330
371
100
AcDbVisualStyle
  2
Conceptual
 70
     9
 71
     3
 72
     2
 73
     0
 90
        0
 40
-0.6
 41
-30.0
 62
     5
 63
     7
 74
     2
 91
        2
 64
     7
 65
   257
 75
     1
175
     1
 42
179.0
 92
        8
 66
     7
 43
1.0
 76
     1
 77
     6
 78
     2
 67
     7
 79
     3
170
     0
171
     0
290
     0
174
     0
 93
        1
 44
0.0
173
     0
291
     0
 45
0.0
1001
ACAD
1000
AcDbSavedByObjectVersion
1070
     0
  0
VISUALSTYLE
  5
37C
102
{ACAD_XDICTIONARY
360
402
102
}
102
{ACAD_REACTORS
330
371
102
}
330
371
100
AcDbVisualStyle
  2
Dim
 70
    11
 71
     2
 72
     2
 73
     0
 90
        0
 40
-0.6
 41
-30.0
 62
     5
 63
     7
 74
     1
 91
        4
 64
     7
 65
   257
 75
     1
175
     1
 42
1.0
 92
        8
 66
     7
 43
1.0
 76
     1
 77
     6
 78
     2
 67
     7
 79
     5
170
     0
171
     0
290
     0
174
     0
 93
        1
 44
-50.0
173
     0
291
     1
 45
0.0
1001
ACAD
1000
AcDbSavedByObjectVersion
1070
     0
  0
VISUALSTYLE
  5
389
102
{ACAD_XDICTIONARY
360
41C
102
}
102
{ACAD_REACTORS
330
371
102
}
330
371
100
AcDbVisualStyle
  2
EdgeColorOff
 70
    22
 71
     2
 72
     2
 73
     0
 90
        0
 40
-0.6
 41
-30.0
 62
     5
 63
     7
 74
     1
 91
        4
 64
     7
 65
   257
 75
     1
175
     1
 42
1.0
 92
        8
 66
     7
 43
1.0
 76
     1
 77
     6
 78
     2
 67
     7
 79
     5
170
     0
171
     0
290
     0
174
     0
 93
        1
 44
0.0
173
     0
291
     1
 45
0.0
1001
ACAD
1000
AcDbSavedByObjectVersion
1070
     0
  0
VISUALSTYLE
  5
380
102
{ACAD_XDICTIONARY
360
40A
102
}
102
{ACAD_REACTORS
330
371
102
}
330
371
100
AcDbVisualStyle
  2
Facepattern
 70
    15
 71
     2
 72
     2
 73
     0
 90
        0
 40
-0.6
 41
-30.0
 62
     5
 63
     7
 74
     1
 91
        4
 64
     7
 65
   257
 75
     1
175
     1
 42
1.0
 92
        8
 66
     7
 43
1.0
 76
     1
 77
     6
 78
     2
 67
     7
 79
     5
170
     0
171
     0
290
     0
174
     0
 93
        1
 44
0.0
173
     0
291
     1
 45
0.0
1001
ACAD
1000
AcDbSavedByObjectVersion
1070
     0
  0
VISUALSTYLE
  5
372
102
{ACAD_XDICTIONARY
360
3EE
102
}
102
{ACAD_REACTORS
330
371
102
}
330
371
100
AcDbVisualStyle
  2
Flat
 70
     0
 71
     2
 72
     1
 73
     1
 90
        2
 40
-0.6
 41
30.0
 62
     5
 63
     7
 74
     0
 91
        0
 64
     7
 65
   257
 75
     1
175
     1
 42
1.0
 92
        8
 66
     7
 43
1.0
 76
     1
 77
     6
 78
     2
 67
     7
 79
     5
170
     0
171
     0
290
     0
174
     0
 93
       13
 44
0.0
173
     0
291
     1
 45
0.0
1001
ACAD
1000
AcDbSavedByObjectVersion
1070
     0
  0
VISUALSTYLE
  5
373
102
{ACAD_XDICTIONARY
360
3F0
102
}
102
{ACAD_REACTORS
330
371
102
}
330
371
100
AcDbVisualStyle
  2
FlatWithEdges
 70
     1
 71
     2
 72
     1
 73
     1
 90
        2
 40
-0.6
 41
30.0
 62
     5
 63
     7
 74
     1
 91
        0
 64
     7
 65
   257
 75
     1
175
     1
 42
1.0
 92
        0
 66
   257
 43
1.0
 76
     1
 77
     6
 78
     2
 67
     7
 79
     5
170
     0
171
     0
290
     0
174
     0
 93
       13
 44
0.0
173
     0
291
     1
 45
0.0
1001
ACAD
1000
AcDbSavedByObjectVersion
1070
     0
  0
VISUALSTYLE
  5
374
102
{ACAD_XDICTIONARY
360
3F2
102
}
102
{ACAD_REACTORS
330
371
102
}
330
371
100
AcDbVisualStyle
  2
Gouraud
 70
     2
 71
     2
 72
     2
 73
     1
 90
        2
 40
-0.6
 41
30.0
 62
     5
 63
     7
 74
     0
 91
        0
 64
     7
 65
   257
 75
     1
175
     1
 42
1.0
 92
        0
 66
     7
 43
1.0
 76
     1
 77
     6
 78
     2
 67
     7
 79
     5
170
     0
171
     0
290
     0
174
     0
 93
       13
 44
0.0
173
     0
291
     1
 45
0.0
1001
ACAD
1000
AcDbSavedByObjectVersion
1070
     0
  0
VISUALSTYLE
  5
375
102
{ACAD_XDICTIONARY
360
3F4
102
}
102
{ACAD_REACTORS
330
371
102
}
330
371
100
AcDbVisualStyle
  2
GouraudWithEdges
 70
     3
 71
     2
 72
     2
 73
     1
 90
        2
 40
-0.6
 41
30.0
 62
     5
 63
     7
 74
     1
 91
        0
 64
     7
 65
   257
 75
     1
175
     1
 42
1.0
 92
        0
 66
   257
 43
1.0
 76
     1
 77
     6
 78
     2
 67
     7
 79
     5
170
     0
171
     0
290
     0
174
     0
 93
       13
 44
0.0
173
     0
291
     1
 45
0.0
1001
ACAD
1000
AcDbSavedByObjectVersion
1070
     0
  0
VISUALSTYLE
  5
379
102
{ACAD_XDICTIONARY
360
3FC
102
}
102
{ACAD_REACTORS
330
371
102
}
330
371
100
AcDbVisualStyle
  2
Hidden
 70
     6
 71
     1
 72
     2
 73
     2
 90
        0
 40
-0.6
 41
-30.0
 62
     5
 63
     7
 74
     2
 91
        2
 64
     7
 65
   257
 75
     2
175
     1
 42
40.0
 92
        0
 66
   257
 43
1.0
 76
     1
 77
     6
 78
     2
 67
     7
 79
     3
170
     0
171
     0
290
     0
174
     0
 93
        1
 44
0.0
173
     0
291
     0
 45
0.0
1001
ACAD
1000
AcDbSavedByObjectVersion
1070
     0
  0
VISUALSTYLE
  5
387
102
{ACAD_XDICTIONARY
360
418
102
}
102
{ACAD_REACTORS
330
371
102
}
330
371
100
AcDbVisualStyle
  2
JitterOff
 70
    20
 71
     2
 72
     2
 73
     0
 90
        0
 40
-0.6
 41
-30.0
 62
     5
 63
     7
 74
     1
 91
        4
 64
     7
 65
   257
 75
     1
175
     1
 42
1.0
 92
       10
 66
     7
 43
1.0
 76
     1
 77
     6
 78
     2
 67
     7
 79
     5
170
     0
171
     0
290
     0
174
     0
 93
        1
 44
0.0
173
     0
291
     1
 45
0.0
1001
ACAD
1000
AcDbSavedByObjectVersion
1070
     0
  0
VISUALSTYLE
  5
37F
102
{ACAD_XDICTIONARY
360
408
102
}
102
{ACAD_REACTORS
330
371
102
}
330
371
100
AcDbVisualStyle
  2
Linepattern
 70
    14
 71
     2
 72
     2
 73
     0
 90
        0
 40
-0.6
 41
-30.0
 62
     5
 63
     7
 74
     1
 91
        4
 64
     7
 65
   257
 75
     7
175
     7
 42
1.0
 92
        8
 66
     7
 43
1.0
 76
     1
 77
     6
 78
     2
 67
     7
 79
     5
170
     0
171
     0
290
     0
174
     0
 93
        1
 44
0.0
173
     0
291
     1
 45
0.0
1001
ACAD
1000
AcDbSavedByObjectVersion
1070
     0
  0
VISUALSTYLE
  5
388
102
{ACAD_XDICTIONARY
360
41A
102
}
102
{ACAD_REACTORS
330
371
102
}
330
371
100
AcDbVisualStyle
  2
OverhangOff
 70
    21
 71
     2
 72
     2
 73
     0
 90
        0
 40
-0.6
 41
-30.0
 62
     5
 63
     7
 74
     1
 91
        4
 64
     7
 65
   257
 75
     1
175
     1
 42
1.0
 92
        9
 66
     7
 43
1.0
 76
     1
 77
     6
 78
     2
 67
     7
 79
     5
170
     0
171
     0
290
     0
174
     0
 93
        1
 44
0.0
173
     0
291
     1
 45
0.0
1001
ACAD
1000
AcDbSavedByObjectVersion
1070
     0
  0
VISUALSTYLE
  5
37B
102
{ACAD_XDICTIONARY
360
400
102
}
102
{ACAD_REACTORS
330
371
102
}
330
371
100
AcDbVisualStyle
  2
Realistic
 70
     8
 71
     2
 72
     3
 73
     0
 90
        2
 40
-0.6
 41
30.0
 62
     5
 63
     7
 74
     0
 91
        0
 64
     7
 65
   257
 75
     1
175
     1
 42
1.0
 92
        8
 66
   257
 43
1.0
 76
     1
 77
     6
 78
     2
 67
     7
 79
     3
170
     0
171
     0
290
     0
174
     0
 93
       13
 44
0.0
173
     0
291
     0
 45
0.0
1001
ACAD
1000
AcDbSavedByObjectVersion
1070
     0
  0
VISUALSTYLE
  5
386
102
{ACAD_XDICTIONARY
360
416
102
}
102
{ACAD_REACTORS
330
371
102
}
330
371
100
AcDbVisualStyle
  2
Shaded
 70
    27
 71
     2
 72
     2
 73
     1
 90
        2
 40
-0.6
 41
30.0
 62
     5
 63
     7
 74
     0
 91
        4
 64
     7
 65
   257
 75
     1
175
     1
 42
1.0
 92
        8
 66
   257
 43
1.0
 76
     1
 77
     6
 78
     2
 67
     8
 79
     3
170
     0
171
     0
290
     0
174
     0
 93
        5
 44
0.0
173
     0
291
     0
 45
0.0
1001
ACAD
1000
AcDbSavedByObjectVersion
1070
     0
  0
VISUALSTYLE
  5
385
102
{ACAD_XDICTIONARY
360
414
102
}
102
{ACAD_REACTORS
330
371
102
}
330
371
100
AcDbVisualStyle
  2
Shaded with edges
 70
    26
 71
     2
 72
     2
 73
     1
 90
        2
 40
-0.6
 41
30.0
 62
     5
 63
     7
 74
     1
 91
        2
 64
     7
 65
   257
 75
     2
175
     1
 42
1.0
 92
        8
 66
   257
 43
1.0
 76
     1
 77
     6
 78
     2
 67
     7
 79
     3
170
     0
171
     0
290
     0
174
     0
 93
        5
 44
0.0
173
     0
291
     0
 45
0.0
1001
ACAD
1000
AcDbSavedByObjectVersion
1070
     0
  0
VISUALSTYLE
  5
382
102
{ACAD_XDICTIONARY
360
40E
102
}
102
{ACAD_REACTORS
330
371
102
}
330
371
100
AcDbVisualStyle
  2
Shades of Gray
 70
    23
 71
     2
 72
     2
 73
     3
 90
        0
 40
-0.6
 41
-30.0
 62
     5
 63
     7
 74
     2
 91
        2
 64
     7
 65
     7
 75
     1
175
     1
 42
40.0
 92
        8
 66
     7
 43
1.0
 76
     1
 77
     6
 78
     2
 67
     7
 79
     3
170
     0
171
     0
290
     0
174
     0
 93
        1
 44
0.0
173
     0
291
     0
 45
0.0
1001
ACAD
1000
AcDbSavedByObjectVersion
1070
     0
  0
VISUALSTYLE
  5
383
102
{ACAD_XDICTIONARY
360
410
102
}
102
{ACAD_REACTORS
330
371
102
}
330
371
100
AcDbVisualStyle
  2
Sketchy
 70
    24
 71
     1
 72
     2
 73
     2
 90
        0
 40
-0.6
 41
-30.0
 62
     5
 63
     7
 74
     2
 91
        2
 64
     7
 65
     7
 75
     1
175
     1
 42
40.0
 92
       11
 66
     7
 43
1.0
 76
     1
 77
     6
 78
     2
 67
     7
 79
     6
170
     0
171
     0
290
     0
174
     0
 93
        1
 44
0.0
173
     0
291
     0
 45
0.0
1001
ACAD
1000
AcDbSavedByObjectVersion
1070
     0
  0
VISUALSTYLE
  5
37E
102
{ACAD_XDICTIONARY
360
406
102
}
102
{ACAD_REACTORS
330
371
102
}
330
371
100
AcDbVisualStyle
  2
Thicken
 70
    13
 71
     2
 72
     2
 73
     0
 90
        0
 40
-0.6
 41
-30.0
 62
     5
 63
     7
 74
     1
 91
        4
 64
     7
 65
   257
 75
     1
175
     1
 42
1.0
 92
       12
 66
     7
 43
1.0
 76
     1
 77
     6
 78
     2
 67
     7
 79
     5
170
     0
171
     0
290
     0
174
     0
 93
        1
 44
0.0
173
     0
291
     1
 45
0.0
1001
ACAD
1000
AcDbSavedByObjectVersion
1070
     0
  0
VISUALSTYLE
  5
378
102
{ACAD_XDICTIONARY
360
3FA
102
}
102
{ACAD_REACTORS
330
371
102
}
330
371
100
AcDbVisualStyle
  2
Wireframe
 70
     5
 71
     0
 72
     2
 73
     0
 90
        0
 40
-0.6
 41
-30.0
 62
     5
 63
     7
 74
     1
 91
        4
 64
     7
 65
   257
 75
     1
175
     1
 42
1.0
 92
        0
 66
   257
 43
1.0
 76
     1
 77
     6
 78
     2
 67
     7
 79
     3
170
     0
171
     0
290
     0
174
     0
 93
        1
 44
0.0
173
     0
291
     0
 45
0.0
1001
ACAD
1000
AcDbSavedByObjectVersion
1070
     0
  0
VISUALSTYLE
  5
384
102
{ACAD_XDICTIONARY
360
412
102
}
102
{ACAD_REACTORS
330
371
102
}
330
371
100
AcDbVisualStyle
  2
X-Ray
 70
    25
 71
     2
 72
     2
 73
     1
 90
        1
 40
0.5
 41
-30.0
 62
     5
 63
     7
 74
     1
 91
        0
 64
     7
 65
   257
 75
     1
175
     1
 42
1.0
 92
        8
 66
     7
 43
1.0
 76
     1
 77
     6
 78
     2
 67
     7
 79
     3
170
     0
171
     0
290
     0
174
     0
 93
       13
 44
0.0
173
     0
291
     0
 45
0.0
1001
ACAD
1000
AcDbSavedByObjectVersion
1070
     0
  0
DICTIONARYVAR
  5
3E1
102
{ACAD_REACTORS
330
3DC
102
}
330
3DC
100
DictionaryVariables
280
     0
  1
1:1
  0
DICTIONARYVAR
  5
3DE
102
{ACAD_REACTORS
330
3DC
102
}
330
3DC
100
DictionaryVariables
280
     0
  1
STANDARD
  0
DICTIONARYVAR
  5
3DD
102
{ACAD_REACTORS
330
3DC
102
}
330
3DC
100
DictionaryVariables
280
     0
  1
STANDARD
  0
DICTIONARYVAR
  5
3DF
102
{ACAD_REACTORS
330
3DC
102
}
330
3DC
100
DictionaryVariables
280
     0
  1
Imperial24
  0
DICTIONARYVAR
  5
3E0
102
{ACAD_REACTORS
330
3DC
102
}
330
3DC
100
DictionaryVariables
280
     0
  1
Imperial24
  0
DICTIONARYVAR
  5
3E4
102
{ACAD_REACTORS
330
3DC
102
}
330
3DC
100
DictionaryVariables
280
     0
  1
1
  0
DICTIONARYVAR
  5
3E3
102
{ACAD_REACTORS
330
3DC
102
}
330
3DC
100
DictionaryVariables
280
     0
  1
0
  0
DICTIONARYVAR
  5
3E2
102
{ACAD_REACTORS
330
3DC
102
}
330
3DC
100
DictionaryVariables
280
     0
  1
127
  0
DICTIONARYVAR
  5
3E5
102
{ACAD_REACTORS
330
3DC
102
}
330
3DC
100
DictionaryVariables
280
     0
  1
2
  0
DICTIONARY
  5
422
330
3B2
100
AcDbDictionary
280
     1
281
     1
  3
ACAD_XREC_ROUNDTRIP
360
423
  0
DICTIONARY
  5
426
330
3BA
100
AcDbDictionary
280
     1
281
     1
  3
ACAD_XREC_ROUNDTRIP
360
427
  0
DICTIONARY
  5
424
330
3B6
100
AcDbDictionary
280
     1
281
     1
  3
ACAD_XREC_ROUNDTRIP
360
425
  0
DICTIONARY
  5
362
330
361
100
AcDbDictionary
280
     1
281
     1
  3
ACAD_XREC_ROUNDTRIP
360
3EC
  3
BUMPTILE
360
364
  3
DIFFUSETILE
360
363
  3
OPACITYTILE
360
367
  3
REFLECTIONTILE
360
366
  3
REFRACTIONTILE
360
368
  3
SPECULARTILE
360
365
  0
DICTIONARY
  5
35A
330
359
100
AcDbDictionary
280
     1
281
     1
  3
ACAD_XREC_ROUNDTRIP
360
3EB
  3
BUMPTILE
360
35C
  3
DIFFUSETILE
360
35B
  3
OPACITYTILE
360
35F
  3
REFLECTIONTILE
360
35E
  3
REFRACTIONTILE
360
360
  3
SPECULARTILE
360
35D
  0
DICTIONARY
  5
36A
330
369
100
AcDbDictionary
280
     1
281
     1
  3
ACAD_XREC_ROUNDTRIP
360
3ED
  3
BUMPTILE
360
36C
  3
DIFFUSETILE
360
36B
  3
OPACITYTILE
360
36F
  3
REFLECTIONTILE
360
36E
  3
REFRACTIONTILE
360
370
  3
SPECULARTILE
360
36D
  0
DICTIONARY
  5
420
330
3B0
100
AcDbDictionary
280
     1
281
     1
  3
ACAD_XREC_ROUNDTRIP
360
421
  0
DICTIONARY
  5
3E7
330
3AC
100
AcDbDictionary
280
     1
281
     1
  3
ACAD_ROUNDTRIP_2008_TABLESTYLE_CELLSTYLEMAP
360
3E8
  3
ACAD_XREC_ROUNDTRIP
360
41E
  0
DICTIONARY
  5
3F8
330
377
100
AcDbDictionary
280
     1
281
     1
  3
ACAD_XREC_ROUNDTRIP
360
3F9
  0
DICTIONARY
  5
3F6
330
376
100
AcDbDictionary
280
     1
281
     1
  3
ACAD_XREC_ROUNDTRIP
360
3F7
  0
DICTIONARY
  5
404
330
37D
100
AcDbDictionary
280
     1
281
     1
  3
ACAD_XREC_ROUNDTRIP
360
405
  0
DICTIONARY
  5
40C
330
381
100
AcDbDictionary
280
     1
281
     1
  3
ACAD_XREC_ROUNDTRIP
360
40D
  0
DICTIONARY
  5
3FE
330
37A
100
AcDbDictionary
280
     1
281
     1
  3
ACAD_XREC_ROUNDTRIP
360
3FF
  0
DICTIONARY
  5
402
330
37C
100
AcDbDictionary
280
     1
281
     1
  3
ACAD_XREC_ROUNDTRIP
360
403
  0
DICTIONARY
  5
41C
330
389
100
AcDbDictionary
280
     1
281
     1
  3
ACAD_XREC_ROUNDTRIP
360
41D
  0
DICTIONARY
  5
40A
330
380
100
AcDbDictionary
280
     1
281
     1
  3
ACAD_XREC_ROUNDTRIP
360
40B
  0
DICTIONARY
  5
3EE
330
372
100
AcDbDictionary
280
     1
281
     1
  3
ACAD_XREC_ROUNDTRIP
360
3EF
  0
DICTIONARY
  5
3F0
330
373
100
AcDbDictionary
280
     1
281
     1
  3
ACAD_XREC_ROUNDTRIP
360
3F1
  0
DICTIONARY
  5
3F2
330
374
100
AcDbDictionary
280
     1
281
     1
  3
ACAD_XREC_ROUNDTRIP
360
3F3
  0
DICTIONARY
  5
3F4
330
375
100
AcDbDictionary
280
     1
281
     1
  3
ACAD_XREC_ROUNDTRIP
360
3F5
  0
DICTIONARY
  5
3FC
330
379
100
AcDbDictionary
280
     1
281
     1
  3
ACAD_XREC_ROUNDTRIP
360
3FD
  0
DICTIONARY
  5
418
330
387
100
AcDbDictionary
280
     1
281
     1
  3
ACAD_XREC_ROUNDTRIP
360
419
  0
DICTIONARY
  5
408
330
37F
100
AcDbDictionary
280
     1
281
     1
  3
ACAD_XREC_ROUNDTRIP
360
409
  0
DICTIONARY
  5
41A
330
388
100
AcDbDictionary
280
     1
281
     1
  3
ACAD_XREC_ROUNDTRIP
360
41B
  0
DICTIONARY
  5
400
330
37B
100
AcDbDictionary
280
     1
281
     1
  3
ACAD_XREC_ROUNDTRIP
360
401
  0
DICTIONARY
  5
416
330
386
100
AcDbDictionary
280
     1
281
     1
  3
ACAD_XREC_ROUNDTRIP
360
417
  0
DICTIONARY
  5
414
330
385
100
AcDbDictionary
280
     1
281
     1
  3
ACAD_XREC_ROUNDTRIP
360
415
  0
DICTIONARY
  5
40E
330
382
100
AcDbDictionary
280
     1
281
     1
  3
ACAD_XREC_ROUNDTRIP
360
40F
  0
DICTIONARY
  5
410
330
383
100
AcDbDictionary
280
     1
281
     1
  3
ACAD_XREC_ROUNDTRIP
360
411
  0
DICTIONARY
  5
406
330
37E
100
AcDbDictionary
280
     1
281
     1
  3
ACAD_XREC_ROUNDTRIP
360
407
  0
DICTIONARY
  5
3FA
330
378
100
AcDbDictionary
280
     1
281
     1
  3
ACAD_XREC_ROUNDTRIP
360
3FB
  0
DICTIONARY
  5
412
330
384
100
AcDbDictionary
280
     1
281
     1
  3
ACAD_XREC_ROUNDTRIP
360
413
  0
XRECORD
  5
423
102
{ACAD_REACTORS
330
422
102
}
330
422
100
AcDbXrecord
280
     1
102
DISPLAYNAME
  1
Imperial24
102
FLAGS
 90
        0
  0
XRECORD
  5
427
102
{ACAD_REACTORS
330
426
102
}
330
426
100
AcDbXrecord
280
     1
102
SHADEPLOT
 70
     0
102
SHADEPLOTRESLEVEL
 70
     2
102
SHADEPLOTCUSTOMDPI
 70
   300
  0
XRECORD
  5
425
102
{ACAD_REACTORS
330
424
102
}
330
424
100
AcDbXrecord
280
     1
102
SHADEPLOT
 70
     0
102
SHADEPLOTRESLEVEL
 70
     2
102
SHADEPLOTCUSTOMDPI
 70
   300
  0
XRECORD
  5
3EC
102
{ACAD_REACTORS
330
362
102
}
330
362
100
AcDbXrecord
280
     1
102
MATERIAL
148
0.0
149
0.0
149
0.0
 93
        0
 94
      127
282
     0
 72
     0
 77
     0
171
     0
175
     0
179
     0
273
     0
  0
XRECORD
  5
364
102
{ACAD_REACTORS
330
362
102
}
330
362
100
AcDbXrecord
280
     1
270
     1
271
     1
  0
XRECORD
  5
363
102
{ACAD_REACTORS
330
362
102
}
330
362
100
AcDbXrecord
280
     1
270
     1
271
     1
  0
XRECORD
  5
367
102
{ACAD_REACTORS
330
362
102
}
330
362
100
AcDbXrecord
280
     1
270
     1
271
     1
  0
XRECORD
  5
366
102
{ACAD_REACTORS
330
362
102
}
330
362
100
AcDbXrecord
280
     1
270
     1
271
     1
  0
XRECORD
  5
368
102
{ACAD_REACTORS
330
362
102
}
330
362
100
AcDbXrecord
280
     1
270
     1
271
     1
  0
XRECORD
  5
365
102
{ACAD_REACTORS
330
362
102
}
330
362
100
AcDbXrecord
280
     1
270
     1
271
     1
  0
XRECORD
  5
3EB
102
{ACAD_REACTORS
330
35A
102
}
330
35A
100
AcDbXrecord
280
     1
102
MATERIAL
148
0.0
149
0.0
149
0.0
 93
        0
 94
      127
282
     0
 72
     0
 77
     0
171
     0
175
     0
179
     0
273
     0
  0
XRECORD
  5
35C
102
{ACAD_REACTORS
330
35A
102
}
330
35A
100
AcDbXrecord
280
     1
270
     1
271
     1
  0
XRECORD
  5
35B
102
{ACAD_REACTORS
330
35A
102
}
330
35A
100
AcDbXrecord
280
     1
270
     1
271
     1
  0
XRECORD
  5
35F
102
{ACAD_REACTORS
330
35A
102
}
330
35A
100
AcDbXrecord
280
     1
270
     1
271
     1
  0
XRECORD
  5
35E
102
{ACAD_REACTORS
330
35A
102
}
330
35A
100
AcDbXrecord
280
     1
270
     1
271
     1
  0
XRECORD
  5
360
102
{ACAD_REACTORS
330
35A
102
}
330
35A
100
AcDbXrecord
280
     1
270
     1
271
     1
  0
XRECORD
  5
35D
102
{ACAD_REACTORS
330
35A
102
}
330
35A
100
AcDbXrecord
280
     1
270
     1
271
     1
  0
XRECORD
  5
3ED
102
{ACAD_REACTORS
330
36A
102
}
330
36A
100
AcDbXrecord
280
     1
102
MATERIAL
148
0.0
149
0.0
149
0.0
 93
        0
 94
      127
282
     0
 72
     0
 77
     0
171
     0
175
     0
179
     0
273
     0
  0
XRECORD
  5
36C
102
{ACAD_REACTORS
330
36A
102
}
330
36A
100
AcDbXrecord
280
     1
270
     1
271
     1
  0
XRECORD
  5
36B
102
{ACAD_REACTORS
330
36A
102
}
330
36A
100
AcDbXrecord
280
     1
270
     1
271
     1
  0
XRECORD
  5
36F
102
{ACAD_REACTORS
330
36A
102
}
330
36A
100
AcDbXrecord
280
     1
270
     1
271
     1
  0
XRECORD
  5
36E
102
{ACAD_REACTORS
330
36A
102
}
330
36A
100
AcDbXrecord
280
     1
270
     1
271
     1
  0
XRECORD
  5
370
102
{ACAD_REACTORS
330
36A
102
}
330
36A
100
AcDbXrecord
280
     1
270
     1
271
     1
  0
XRECORD
  5
36D
102
{ACAD_REACTORS
330
36A
102
}
330
36A
100
AcDbXrecord
280
     1
270
     1
271
     1
  0
XRECORD
  5
421
102
{ACAD_REACTORS
330
420
102
}
330
420
100
AcDbXrecord
280
     1
102
DISPLAYNAME
  1
Imperial24
102
FLAGS
 90
        0
  0
CELLSTYLEMAP
  5
3E8
102
{ACAD_REACTORS
330
3E7
102
}
330
3E7
100
AcDbCellStyleMap
 90
        3
300
CELLSTYLE
  1
TABLEFORMAT_BEGIN
 90
        5
170
     1
 91
        0
 92
    32768
 62
   257
 93
        1
300
CONTENTFORMAT
  1
CONTENTFORMAT_BEGIN
 90
        0
 91
        0
 92
      512
 93
        0
300

 40
0.0
140
1.0
 94
        5
 62
     0
340
39D
144
0.25
309
CONTENTFORMAT_END
171
     0
 94
        0
309
TABLEFORMAT_END
  1
CELLSTYLE_BEGIN
 90
        1
 91
        1
300
_TITLE
309
CELLSTYLE_END
300
CELLSTYLE
  1
TABLEFORMAT_BEGIN
 90
        5
170
     1
 91
        0
 92
        0
 62
   257
 93
        1
300
CONTENTFORMAT
  1
CONTENTFORMAT_BEGIN
 90
        0
 91
        0
 92
      512
 93
        0
300

 40
0.0
140
1.0
 94
        5
 62
     0
340
39D
144
0.18
309
CONTENTFORMAT_END
171
     0
 94
        0
309
TABLEFORMAT_END
  1
CELLSTYLE_BEGIN
 90
        2
 91
        1
300
_HEADER
309
CELLSTYLE_END
300
CELLSTYLE
  1
TABLEFORMAT_BEGIN
 90
        5
170
     1
 91
        0
 92
        0
 62
   257
 93
        1
300
CONTENTFORMAT
  1
CONTENTFORMAT_BEGIN
 90
        0
 91
        0
 92
      512
 93
        0
300

 40
0.0
140
1.0
 94
        2
 62
     0
340
39D
144
0.18
309
CONTENTFORMAT_END
171
     0
 94
        0
309
TABLEFORMAT_END
  1
CELLSTYLE_BEGIN
 90
        3
 91
        2
300
_DATA
309
CELLSTYLE_END
  0
XRECORD
  5
41E
102
{ACAD_REACTORS
330
3E7
102
}
330
3E7
100
AcDbXrecord
280
     1
102
ACAD_ROUNDTRIP_PRE2007_TABLESTYLE
 90
      512
 91
        0
  1

 92
      512
 93
        0
  2

 94
      512
 95
        0
  3

  0
XRECORD
  5
3F9
102
{ACAD_REACTORS
330
3F8
102
}
330
3F8
100
AcDbXrecord
280
     1
102
RTVSPost2010Prop28
280
     1
102
RTVSPost2010PropOp28
 70
     1
102
RTVSPost2010Prop29
280
     1
102
RTVSPost2010PropOp29
 70
     1
102
RTVSPost2010Prop30
280
     0
102
RTVSPost2010PropOp30
 70
     1
102
RTVSPost2010Prop31
280
     0
102
RTVSPost2010PropOp31
 70
     1
102
RTVSPost2010Prop32
280
     0
102
RTVSPost2010PropOp32
 70
     1
102
RTVSPost2010Prop33
280
     0
102
RTVSPost2010PropOp33
 70
     1
102
RTVSPost2010Prop34
280
     0
102
RTVSPost2010PropOp34
 70
     1
102
RTVSPost2010Prop35
280
     0
102
RTVSPost2010PropOp35
 70
     1
102
RTVSPost2010Prop36
280
     0
102
RTVSPost2010PropOp36
 70
     1
102
RTVSPost2010Prop37
 90
       50
102
RTVSPost2010PropOp37
 70
     1
102
RTVSPost2010Prop38
140
0.0
102
RTVSPost2010PropOp38
 70
     1
102
RTVSPost2010Prop39
140
1.0
102
RTVSPost2010PropOp39
 70
     1
102
RTVSPost2010Prop40
 90
        0
102
RTVSPost2010PropOp40
 70
     1
102
RTVSPost2010Prop41ColorIndex
 90
       18
102
RTVSPost2010Prop41ColorRGB
 90
        0
102
RTVSPost2010PropOp41
 70
     1
102
RTVSPost2010Prop42
 90
       50
102
RTVSPost2010PropOp42
 70
     1
102
RTVSPost2010Prop43
 90
        3
102
RTVSPost2010PropOp43
 70
     1
102
RTVSPost2010Prop44ColorIndex
 90
        5
102
RTVSPost2010Prop44ColorRGB
 90
      255
102
RTVSPost2010PropOp44
 70
     1
102
RTVSPost2010Prop45
280
     0
102
RTVSPost2010PropOp45
 70
     1
102
RTVSPost2010Prop46
 90
       50
102
RTVSPost2010PropOp46
 70
     1
102
RTVSPost2010Prop47
 90
       50
102
RTVSPost2010PropOp47
 70
     1
102
RTVSPost2010Prop48
 90
       50
102
RTVSPost2010PropOp48
 70
     1
102
RTVSPost2010Prop49
280
     0
102
RTVSPost2010PropOp49
 70
     1
102
RTVSPost2010Prop50
 90
       50
102
RTVSPost2010PropOp50
 70
     1
102
RTVSPost2010Prop51ColorIndex
 90
      256
102
RTVSPost2010Prop51ColorRGB
 90
-16777216
102
RTVSPost2010PropOp51
 70
     0
102
RTVSPost2010Prop52
140
1.0
102
RTVSPost2010PropOp52
 70
     0
102
RTVSPost2010Prop53
 90
        2
102
RTVSPost2010PropOp53
 70
     1
102
RTVSPost2010Prop54
  1
strokes_ogs.tif
102
RTVSPost2010PropOp54
 70
     1
102
RTVSPost2010Prop55
280
     0
102
RTVSPost2010PropOp55
 70
     1
102
RTVSPost2010Prop56
140
1.0
102
RTVSPost2010PropOp56
 70
     1
102
RTVSPost2010Prop57
140
1.0
102
RTVSPost2010PropOp57
 70
     1
102
RTVSPropertyOp0
 70
     1
102
RTVSPropertyOp1
 70
     1
102
RTVSPropertyOp2
 70
     1
102
RTVSPropertyOp3
 70
     1
102
RTVSPropertyOp4
 70
     1
102
RTVSPropertyOp5
 70
     1
102
RTVSPropertyOp6
 70
     1
102
RTVSPropertyOp7
 70
     1
102
RTVSPropertyOp8
 70
     1
102
RTVSPropertyOp9
 70
     1
102
RTVSPropertyOp10
 70
     1
102
RTVSPropertyOp11
 70
     1
102
RTVSPropertyOp12
 70
     1
102
RTVSPropertyOp13
 70
     1
102
RTVSPropertyOp14
 70
     1
102
RTVSPropertyOp15
 70
     1
102
RTVSPropertyOp16
 70
     1
102
RTVSPropertyOp17
 70
     1
102
RTVSPropertyOp18
 70
     1
102
RTVSPropertyOp19
 70
     1
102
RTVSPropertyOp20
 70
     1
102
RTVSPropertyOp21
 70
     1
102
RTVSPropertyOp22
 70
     1
102
RTVSPropertyOp23
 70
     1
102
RTVSPropertyOp24
 70
     1
102
RTVSPropertyOp25
 70
     1
102
RTVSPropertyOp26
 70
     1
102
RTVSPropertyOp27
 70
     1
102
RTVSPropertyOp28
 70
     1
102
RTVSPropertyOp29
 70
     1
102
RTVSPropertyOp30
 70
     1
102
RTVSPropertyOp31
 70
     1
102
RTVSPropertyOp32
 70
     1
102
RTVSPropertyOp33
 70
     1
102
RTVSPropertyOp34
 70
     1
102
RTVSPropertyOp35
 70
     1
102
RTVSPropertyOp36
 70
     1
102
RTVSPropertyOp37
 70
     1
102
RTVSPropertyOp38
 70
     1
102
RTVSPropertyOp39
 70
     1
102
RTVSPropertyOp40
 70
     1
102
RTVSPropertyOp41
 70
     1
102
RTVSPropertyOp42
 70
     1
102
RTVSPropertyOp43
 70
     1
102
RTVSPropertyOp44
 70
     1
102
RTVSPropertyOp45
 70
     1
102
RTVSPropertyOp46
 70
     1
102
RTVSPropertyOp47
 70
     1
102
RTVSPropertyOp48
 70
     1
102
RTVSPropertyOp49
 70
     1
102
RTVSPropertyOp50
 70
     1
102
RTVSPropertyOp51
 70
     0
102
RTVSPropertyOp52
 70
     0
102
RTVSPropertyOp53
 70
     1
102
RTVSPropertyOp54
 70
     1
102
RTVSPropertyOp55
 70
     1
102
RTVSPropertyOp56
 70
     1
102
RTVSPropertyOp57
 70
     1
102
RTVSPropertyOp58
 70
     1
102
RTVSPropertyOp59
 70
     1
102
RTVSPropertyOp60
 70
     1
102
RTVSPropertyOp61
 70
     1
102
RTVSPropertyOp62
 70
     1
  0
XRECORD
  5
3F7
102
{ACAD_REACTORS
330
3F6
102
}
330
3F6
100
AcDbXrecord
280
     1
102
RTVSPost2010Prop28
280
     0
102
RTVSPost2010PropOp28
 70
     1
102
RTVSPost2010Prop29
280
     1
102
RTVSPost2010PropOp29
 70
     1
102
RTVSPost2010Prop30
280
     1
102
RTVSPost2010PropOp30
 70
     1
102
RTVSPost2010Prop31
280
     0
102
RTVSPost2010PropOp31
 70
     1
102
RTVSPost2010Prop32
280
     0
102
RTVSPost2010PropOp32
 70
     1
102
RTVSPost2010Prop33
280
     0
102
RTVSPost2010PropOp33
 70
     1
102
RTVSPost2010Prop34
280
     0
102
RTVSPost2010PropOp34
 70
     1
102
RTVSPost2010Prop35
280
     0
102
RTVSPost2010PropOp35
 70
     1
102
RTVSPost2010Prop36
280
     0
102
RTVSPost2010PropOp36
 70
     1
102
RTVSPost2010Prop37
 90
       50
102
RTVSPost2010PropOp37
 70
     1
102
RTVSPost2010Prop38
140
0.0
102
RTVSPost2010PropOp38
 70
     1
102
RTVSPost2010Prop39
140
1.0
102
RTVSPost2010PropOp39
 70
     1
102
RTVSPost2010Prop40
 90
        0
102
RTVSPost2010PropOp40
 70
     1
102
RTVSPost2010Prop41ColorIndex
 90
       18
102
RTVSPost2010Prop41ColorRGB
 90
        0
102
RTVSPost2010PropOp41
 70
     1
102
RTVSPost2010Prop42
 90
       50
102
RTVSPost2010PropOp42
 70
     1
102
RTVSPost2010Prop43
 90
        3
102
RTVSPost2010PropOp43
 70
     1
102
RTVSPost2010Prop44ColorIndex
 90
        5
102
RTVSPost2010Prop44ColorRGB
 90
      255
102
RTVSPost2010PropOp44
 70
     1
102
RTVSPost2010Prop45
280
     0
102
RTVSPost2010PropOp45
 70
     1
102
RTVSPost2010Prop46
 90
       50
102
RTVSPost2010PropOp46
 70
     1
102
RTVSPost2010Prop47
 90
       50
102
RTVSPost2010PropOp47
 70
     1
102
RTVSPost2010Prop48
 90
       50
102
RTVSPost2010PropOp48
 70
     1
102
RTVSPost2010Prop49
280
     0
102
RTVSPost2010PropOp49
 70
     1
102
RTVSPost2010Prop50
 90
       50
102
RTVSPost2010PropOp50
 70
     1
102
RTVSPost2010Prop51ColorIndex
 90
      256
102
RTVSPost2010Prop51ColorRGB
 90
-16777216
102
RTVSPost2010PropOp51
 70
     0
102
RTVSPost2010Prop52
140
1.0
102
RTVSPost2010PropOp52
 70
     0
102
RTVSPost2010Prop53
 90
        2
102
RTVSPost2010PropOp53
 70
     1
102
RTVSPost2010Prop54
  1
strokes_ogs.tif
102
RTVSPost2010PropOp54
 70
     1
102
RTVSPost2010Prop55
280
     0
102
RTVSPost2010PropOp55
 70
     1
102
RTVSPost2010Prop56
140
1.0
102
RTVSPost2010PropOp56
 70
     1
102
RTVSPost2010Prop57
140
1.0
102
RTVSPost2010PropOp57
 70
     1
102
RTVSPropertyOp0
 70
     1
102
RTVSPropertyOp1
 70
     1
102
RTVSPropertyOp2
 70
     1
102
RTVSPropertyOp3
 70
     1
102
RTVSPropertyOp4
 70
     1
102
RTVSPropertyOp5
 70
     1
102
RTVSPropertyOp6
 70
     1
102
RTVSPropertyOp7
 70
     1
102
RTVSPropertyOp8
 70
     1
102
RTVSPropertyOp9
 70
     1
102
RTVSPropertyOp10
 70
     1
102
RTVSPropertyOp11
 70
     1
102
RTVSPropertyOp12
 70
     1
102
RTVSPropertyOp13
 70
     1
102
RTVSPropertyOp14
 70
     1
102
RTVSPropertyOp15
 70
     1
102
RTVSPropertyOp16
 70
     1
102
RTVSPropertyOp17
 70
     1
102
RTVSPropertyOp18
 70
     1
102
RTVSPropertyOp19
 70
     1
102
RTVSPropertyOp20
 70
     1
102
RTVSPropertyOp21
 70
     1
102
RTVSPropertyOp22
 70
     1
102
RTVSPropertyOp23
 70
     1
102
RTVSPropertyOp24
 70
     1
102
RTVSPropertyOp25
 70
     1
102
RTVSPropertyOp26
 70
     1
102
RTVSPropertyOp27
 70
     1
102
RTVSPropertyOp28
 70
     1
102
RTVSPropertyOp29
 70
     1
102
RTVSPropertyOp30
 70
     1
102
RTVSPropertyOp31
 70
     1
102
RTVSPropertyOp32
 70
     1
102
RTVSPropertyOp33
 70
     1
102
RTVSPropertyOp34
 70
     1
102
RTVSPropertyOp35
 70
     1
102
RTVSPropertyOp36
 70
     1
102
RTVSPropertyOp37
 70
     1
102
RTVSPropertyOp38
 70
     1
102
RTVSPropertyOp39
 70
     1
102
RTVSPropertyOp40
 70
     1
102
RTVSPropertyOp41
 70
     1
102
RTVSPropertyOp42
 70
     1
102
RTVSPropertyOp43
 70
     1
102
RTVSPropertyOp44
 70
     1
102
RTVSPropertyOp45
 70
     1
102
RTVSPropertyOp46
 70
     1
102
RTVSPropertyOp47
 70
     1
102
RTVSPropertyOp48
 70
     1
102
RTVSPropertyOp49
 70
     1
102
RTVSPropertyOp50
 70
     1
102
RTVSPropertyOp51
 70
     0
102
RTVSPropertyOp52
 70
     0
102
RTVSPropertyOp53
 70
     1
102
RTVSPropertyOp54
 70
     1
102
RTVSPropertyOp55
 70
     1
102
RTVSPropertyOp56
 70
     1
102
RTVSPropertyOp57
 70
     1
102
RTVSPropertyOp58
 70
     1
102
RTVSPropertyOp59
 70
     1
102
RTVSPropertyOp60
 70
     1
102
RTVSPropertyOp61
 70
     1
102
RTVSPropertyOp62
 70
     1
  0
XRECORD
  5
405
102
{ACAD_REACTORS
330
404
102
}
330
404
100
AcDbXrecord
280
     1
102
RTVSPost2010Prop28
280
     0
102
RTVSPost2010PropOp28
 70
     1
102
RTVSPost2010Prop29
280
     1
102
RTVSPost2010PropOp29
 70
     1
102
RTVSPost2010Prop30
280
     1
102
RTVSPost2010PropOp30
 70
     1
102
RTVSPost2010Prop31
280
     0
102
RTVSPost2010PropOp31
 70
     1
102
RTVSPost2010Prop32
280
     0
102
RTVSPost2010PropOp32
 70
     1
102
RTVSPost2010Prop33
280
     0
102
RTVSPost2010PropOp33
 70
     1
102
RTVSPost2010Prop34
280
     0
102
RTVSPost2010PropOp34
 70
     1
102
RTVSPost2010Prop35
280
     0
102
RTVSPost2010PropOp35
 70
     1
102
RTVSPost2010Prop36
280
     0
102
RTVSPost2010PropOp36
 70
     1
102
RTVSPost2010Prop37
 90
       50
102
RTVSPost2010PropOp37
 70
     1
102
RTVSPost2010Prop38
140
0.0
102
RTVSPost2010PropOp38
 70
     1
102
RTVSPost2010Prop39
140
1.0
102
RTVSPost2010PropOp39
 70
     1
102
RTVSPost2010Prop40
 90
        0
102
RTVSPost2010PropOp40
 70
     1
102
RTVSPost2010Prop41ColorIndex
 90
       18
102
RTVSPost2010Prop41ColorRGB
 90
        0
102
RTVSPost2010PropOp41
 70
     1
102
RTVSPost2010Prop42
 90
       50
102
RTVSPost2010PropOp42
 70
     1
102
RTVSPost2010Prop43
 90
        3
102
RTVSPost2010PropOp43
 70
     1
102
RTVSPost2010Prop44ColorIndex
 90
        5
102
RTVSPost2010Prop44ColorRGB
 90
      255
102
RTVSPost2010PropOp44
 70
     1
102
RTVSPost2010Prop45
280
     0
102
RTVSPost2010PropOp45
 70
     1
102
RTVSPost2010Prop46
 90
       50
102
RTVSPost2010PropOp46
 70
     1
102
RTVSPost2010Prop47
 90
       50
102
RTVSPost2010PropOp47
 70
     1
102
RTVSPost2010Prop48
 90
       50
102
RTVSPost2010PropOp48
 70
     1
102
RTVSPost2010Prop49
280
     0
102
RTVSPost2010PropOp49
 70
     1
102
RTVSPost2010Prop50
 90
       50
102
RTVSPost2010PropOp50
 70
     1
102
RTVSPost2010Prop51ColorIndex
 90
      256
102
RTVSPost2010Prop51ColorRGB
 90
-16777216
102
RTVSPost2010PropOp51
 70
     0
102
RTVSPost2010Prop52
140
1.0
102
RTVSPost2010PropOp52
 70
     0
102
RTVSPost2010Prop53
 90
        2
102
RTVSPost2010PropOp53
 70
     1
102
RTVSPost2010Prop54
  1
strokes_ogs.tif
102
RTVSPost2010PropOp54
 70
     1
102
RTVSPost2010Prop55
280
     0
102
RTVSPost2010PropOp55
 70
     1
102
RTVSPost2010Prop56
140
1.0
102
RTVSPost2010PropOp56
 70
     1
102
RTVSPost2010Prop57
140
1.0
102
RTVSPost2010PropOp57
 70
     1
102
RTVSPropertyOp0
 70
     1
102
RTVSPropertyOp1
 70
     1
102
RTVSPropertyOp2
 70
     1
102
RTVSPropertyOp3
 70
     1
102
RTVSPropertyOp4
 70
     1
102
RTVSPropertyOp5
 70
     1
102
RTVSPropertyOp6
 70
     1
102
RTVSPropertyOp7
 70
     1
102
RTVSPropertyOp8
 70
     1
102
RTVSPropertyOp9
 70
     1
102
RTVSPropertyOp10
 70
     1
102
RTVSPropertyOp11
 70
     1
102
RTVSPropertyOp12
 70
     1
102
RTVSPropertyOp13
 70
     1
102
RTVSPropertyOp14
 70
     1
102
RTVSPropertyOp15
 70
     1
102
RTVSPropertyOp16
 70
     1
102
RTVSPropertyOp17
 70
     1
102
RTVSPropertyOp18
 70
     1
102
RTVSPropertyOp19
 70
     1
102
RTVSPropertyOp20
 70
     1
102
RTVSPropertyOp21
 70
     1
102
RTVSPropertyOp22
 70
     1
102
RTVSPropertyOp23
 70
     1
102
RTVSPropertyOp24
 70
     1
102
RTVSPropertyOp25
 70
     1
102
RTVSPropertyOp26
 70
     1
102
RTVSPropertyOp27
 70
     1
102
RTVSPropertyOp28
 70
     1
102
RTVSPropertyOp29
 70
     1
102
RTVSPropertyOp30
 70
     1
102
RTVSPropertyOp31
 70
     1
102
RTVSPropertyOp32
 70
     1
102
RTVSPropertyOp33
 70
     1
102
RTVSPropertyOp34
 70
     1
102
RTVSPropertyOp35
 70
     1
102
RTVSPropertyOp36
 70
     1
102
RTVSPropertyOp37
 70
     1
102
RTVSPropertyOp38
 70
     1
102
RTVSPropertyOp39
 70
     1
102
RTVSPropertyOp40
 70
     1
102
RTVSPropertyOp41
 70
     1
102
RTVSPropertyOp42
 70
     1
102
RTVSPropertyOp43
 70
     1
102
RTVSPropertyOp44
 70
     1
102
RTVSPropertyOp45
 70
     1
102
RTVSPropertyOp46
 70
     1
102
RTVSPropertyOp47
 70
     1
102
RTVSPropertyOp48
 70
     1
102
RTVSPropertyOp49
 70
     1
102
RTVSPropertyOp50
 70
     1
102
RTVSPropertyOp51
 70
     0
102
RTVSPropertyOp52
 70
     0
102
RTVSPropertyOp53
 70
     1
102
RTVSPropertyOp54
 70
     1
102
RTVSPropertyOp55
 70
     1
102
RTVSPropertyOp56
 70
     1
102
RTVSPropertyOp57
 70
     1
102
RTVSPropertyOp58
 70
     1
102
RTVSPropertyOp59
 70
     1
102
RTVSPropertyOp60
 70
     1
102
RTVSPropertyOp61
 70
     1
102
RTVSPropertyOp62
 70
     1
  0
XRECORD
  5
40D
102
{ACAD_REACTORS
330
40C
102
}
330
40C
100
AcDbXrecord
280
     1
102
RTVSPost2010Prop28
280
     0
102
RTVSPost2010PropOp28
 70
     1
102
RTVSPost2010Prop29
280
     1
102
RTVSPost2010PropOp29
 70
     1
102
RTVSPost2010Prop30
280
     1
102
RTVSPost2010PropOp30
 70
     1
102
RTVSPost2010Prop31
280
     0
102
RTVSPost2010PropOp31
 70
     1
102
RTVSPost2010Prop32
280
     0
102
RTVSPost2010PropOp32
 70
     1
102
RTVSPost2010Prop33
280
     0
102
RTVSPost2010PropOp33
 70
     1
102
RTVSPost2010Prop34
280
     0
102
RTVSPost2010PropOp34
 70
     1
102
RTVSPost2010Prop35
280
     0
102
RTVSPost2010PropOp35
 70
     1
102
RTVSPost2010Prop36
280
     0
102
RTVSPost2010PropOp36
 70
     1
102
RTVSPost2010Prop37
 90
       50
102
RTVSPost2010PropOp37
 70
     1
102
RTVSPost2010Prop38
140
0.0
102
RTVSPost2010PropOp38
 70
     1
102
RTVSPost2010Prop39
140
1.0
102
RTVSPost2010PropOp39
 70
     1
102
RTVSPost2010Prop40
 90
        0
102
RTVSPost2010PropOp40
 70
     1
102
RTVSPost2010Prop41ColorIndex
 90
       18
102
RTVSPost2010Prop41ColorRGB
 90
        0
102
RTVSPost2010PropOp41
 70
     1
102
RTVSPost2010Prop42
 90
       50
102
RTVSPost2010PropOp42
 70
     1
102
RTVSPost2010Prop43
 90
        3
102
RTVSPost2010PropOp43
 70
     1
102
RTVSPost2010Prop44ColorIndex
 90
        5
102
RTVSPost2010Prop44ColorRGB
 90
      255
102
RTVSPost2010PropOp44
 70
     1
102
RTVSPost2010Prop45
280
     0
102
RTVSPost2010PropOp45
 70
     1
102
RTVSPost2010Prop46
 90
       50
102
RTVSPost2010PropOp46
 70
     1
102
RTVSPost2010Prop47
 90
       50
102
RTVSPost2010PropOp47
 70
     1
102
RTVSPost2010Prop48
 90
       50
102
RTVSPost2010PropOp48
 70
     1
102
RTVSPost2010Prop49
280
     0
102
RTVSPost2010PropOp49
 70
     1
102
RTVSPost2010Prop50
 90
       50
102
RTVSPost2010PropOp50
 70
     1
102
RTVSPost2010Prop51ColorIndex
 90
      256
102
RTVSPost2010Prop51ColorRGB
 90
-16777216
102
RTVSPost2010PropOp51
 70
     0
102
RTVSPost2010Prop52
140
1.0
102
RTVSPost2010PropOp52
 70
     0
102
RTVSPost2010Prop53
 90
        2
102
RTVSPost2010PropOp53
 70
     1
102
RTVSPost2010Prop54
  1
strokes_ogs.tif
102
RTVSPost2010PropOp54
 70
     1
102
RTVSPost2010Prop55
280
     0
102
RTVSPost2010PropOp55
 70
     1
102
RTVSPost2010Prop56
140
1.0
102
RTVSPost2010PropOp56
 70
     1
102
RTVSPost2010Prop57
140
1.0
102
RTVSPost2010PropOp57
 70
     1
102
RTVSPropertyOp0
 70
     1
102
RTVSPropertyOp1
 70
     1
102
RTVSPropertyOp2
 70
     1
102
RTVSPropertyOp3
 70
     1
102
RTVSPropertyOp4
 70
     1
102
RTVSPropertyOp5
 70
     1
102
RTVSPropertyOp6
 70
     1
102
RTVSPropertyOp7
 70
     1
102
RTVSPropertyOp8
 70
     1
102
RTVSPropertyOp9
 70
     1
102
RTVSPropertyOp10
 70
     1
102
RTVSPropertyOp11
 70
     1
102
RTVSPropertyOp12
 70
     1
102
RTVSPropertyOp13
 70
     1
102
RTVSPropertyOp14
 70
     1
102
RTVSPropertyOp15
 70
     1
102
RTVSPropertyOp16
 70
     1
102
RTVSPropertyOp17
 70
     1
102
RTVSPropertyOp18
 70
     1
102
RTVSPropertyOp19
 70
     1
102
RTVSPropertyOp20
 70
     1
102
RTVSPropertyOp21
 70
     1
102
RTVSPropertyOp22
 70
     1
102
RTVSPropertyOp23
 70
     1
102
RTVSPropertyOp24
 70
     1
102
RTVSPropertyOp25
 70
     1
102
RTVSPropertyOp26
 70
     1
102
RTVSPropertyOp27
 70
     1
102
RTVSPropertyOp28
 70
     1
102
RTVSPropertyOp29
 70
     1
102
RTVSPropertyOp30
 70
     1
102
RTVSPropertyOp31
 70
     1
102
RTVSPropertyOp32
 70
     1
102
RTVSPropertyOp33
 70
     1
102
RTVSPropertyOp34
 70
     1
102
RTVSPropertyOp35
 70
     1
102
RTVSPropertyOp36
 70
     1
102
RTVSPropertyOp37
 70
     1
102
RTVSPropertyOp38
 70
     1
102
RTVSPropertyOp39
 70
     1
102
RTVSPropertyOp40
 70
     1
102
RTVSPropertyOp41
 70
     1
102
RTVSPropertyOp42
 70
     1
102
RTVSPropertyOp43
 70
     1
102
RTVSPropertyOp44
 70
     1
102
RTVSPropertyOp45
 70
     1
102
RTVSPropertyOp46
 70
     1
102
RTVSPropertyOp47
 70
     1
102
RTVSPropertyOp48
 70
     1
102
RTVSPropertyOp49
 70
     1
102
RTVSPropertyOp50
 70
     1
102
RTVSPropertyOp51
 70
     0
102
RTVSPropertyOp52
 70
     0
102
RTVSPropertyOp53
 70
     1
102
RTVSPropertyOp54
 70
     1
102
RTVSPropertyOp55
 70
     1
102
RTVSPropertyOp56
 70
     1
102
RTVSPropertyOp57
 70
     1
102
RTVSPropertyOp58
 70
     1
102
RTVSPropertyOp59
 70
     1
102
RTVSPropertyOp60
 70
     1
102
RTVSPropertyOp61
 70
     1
102
RTVSPropertyOp62
 70
     1
  0
XRECORD
  5
3FF
102
{ACAD_REACTORS
330
3FE
102
}
330
3FE
100
AcDbXrecord
280
     1
102
RTVSPost2010Prop28
280
     0
102
RTVSPost2010PropOp28
 70
     1
102
RTVSPost2010Prop29
280
     1
102
RTVSPost2010PropOp29
 70
     1
102
RTVSPost2010Prop30
280
     1
102
RTVSPost2010PropOp30
 70
     1
102
RTVSPost2010Prop31
280
     0
102
RTVSPost2010PropOp31
 70
     1
102
RTVSPost2010Prop32
280
     0
102
RTVSPost2010PropOp32
 70
     1
102
RTVSPost2010Prop33
280
     0
102
RTVSPost2010PropOp33
 70
     1
102
RTVSPost2010Prop34
280
     0
102
RTVSPost2010PropOp34
 70
     1
102
RTVSPost2010Prop35
280
     0
102
RTVSPost2010PropOp35
 70
     1
102
RTVSPost2010Prop36
280
     0
102
RTVSPost2010PropOp36
 70
     1
102
RTVSPost2010Prop37
 90
       50
102
RTVSPost2010PropOp37
 70
     1
102
RTVSPost2010Prop38
140
0.0
102
RTVSPost2010PropOp38
 70
     1
102
RTVSPost2010Prop39
140
1.0
102
RTVSPost2010PropOp39
 70
     1
102
RTVSPost2010Prop40
 90
        0
102
RTVSPost2010PropOp40
 70
     1
102
RTVSPost2010Prop41ColorIndex
 90
       18
102
RTVSPost2010Prop41ColorRGB
 90
        0
102
RTVSPost2010PropOp41
 70
     1
102
RTVSPost2010Prop42
 90
       50
102
RTVSPost2010PropOp42
 70
     1
102
RTVSPost2010Prop43
 90
        3
102
RTVSPost2010PropOp43
 70
     1
102
RTVSPost2010Prop44ColorIndex
 90
        5
102
RTVSPost2010Prop44ColorRGB
 90
      255
102
RTVSPost2010PropOp44
 70
     1
102
RTVSPost2010Prop45
280
     0
102
RTVSPost2010PropOp45
 70
     1
102
RTVSPost2010Prop46
 90
       50
102
RTVSPost2010PropOp46
 70
     1
102
RTVSPost2010Prop47
 90
       50
102
RTVSPost2010PropOp47
 70
     1
102
RTVSPost2010Prop48
 90
       50
102
RTVSPost2010PropOp48
 70
     1
102
RTVSPost2010Prop49
280
     0
102
RTVSPost2010PropOp49
 70
     1
102
RTVSPost2010Prop50
 90
       50
102
RTVSPost2010PropOp50
 70
     1
102
RTVSPost2010Prop51ColorIndex
 90
      256
102
RTVSPost2010Prop51ColorRGB
 90
-16777216
102
RTVSPost2010PropOp51
 70
     0
102
RTVSPost2010Prop52
140
1.0
102
RTVSPost2010PropOp52
 70
     0
102
RTVSPost2010Prop53
 90
        2
102
RTVSPost2010PropOp53
 70
     1
102
RTVSPost2010Prop54
  1
strokes_ogs.tif
102
RTVSPost2010PropOp54
 70
     1
102
RTVSPost2010Prop55
280
     0
102
RTVSPost2010PropOp55
 70
     1
102
RTVSPost2010Prop56
140
1.0
102
RTVSPost2010PropOp56
 70
     1
102
RTVSPost2010Prop57
140
1.0
102
RTVSPost2010PropOp57
 70
     1
102
RTVSPropertyOp0
 70
     1
102
RTVSPropertyOp1
 70
     1
102
RTVSPropertyOp2
 70
     1
102
RTVSPropertyOp3
 70
     1
102
RTVSPropertyOp4
 70
     1
102
RTVSPropertyOp5
 70
     1
102
RTVSPropertyOp6
 70
     1
102
RTVSPropertyOp7
 70
     1
102
RTVSPropertyOp8
 70
     1
102
RTVSPropertyOp9
 70
     1
102
RTVSPropertyOp10
 70
     1
102
RTVSPropertyOp11
 70
     1
102
RTVSPropertyOp12
 70
     1
102
RTVSPropertyOp13
 70
     1
102
RTVSPropertyOp14
 70
     1
102
RTVSPropertyOp15
 70
     1
102
RTVSPropertyOp16
 70
     1
102
RTVSPropertyOp17
 70
     1
102
RTVSPropertyOp18
 70
     1
102
RTVSPropertyOp19
 70
     1
102
RTVSPropertyOp20
 70
     1
102
RTVSPropertyOp21
 70
     1
102
RTVSPropertyOp22
 70
     1
102
RTVSPropertyOp23
 70
     1
102
RTVSPropertyOp24
 70
     1
102
RTVSPropertyOp25
 70
     1
102
RTVSPropertyOp26
 70
     1
102
RTVSPropertyOp27
 70
     1
102
RTVSPropertyOp28
 70
     1
102
RTVSPropertyOp29
 70
     1
102
RTVSPropertyOp30
 70
     1
102
RTVSPropertyOp31
 70
     1
102
RTVSPropertyOp32
 70
     1
102
RTVSPropertyOp33
 70
     1
102
RTVSPropertyOp34
 70
     1
102
RTVSPropertyOp35
 70
     1
102
RTVSPropertyOp36
 70
     1
102
RTVSPropertyOp37
 70
     1
102
RTVSPropertyOp38
 70
     1
102
RTVSPropertyOp39
 70
     1
102
RTVSPropertyOp40
 70
     1
102
RTVSPropertyOp41
 70
     1
102
RTVSPropertyOp42
 70
     1
102
RTVSPropertyOp43
 70
     1
102
RTVSPropertyOp44
 70
     1
102
RTVSPropertyOp45
 70
     1
102
RTVSPropertyOp46
 70
     1
102
RTVSPropertyOp47
 70
     1
102
RTVSPropertyOp48
 70
     1
102
RTVSPropertyOp49
 70
     1
102
RTVSPropertyOp50
 70
     1
102
RTVSPropertyOp51
 70
     0
102
RTVSPropertyOp52
 70
     0
102
RTVSPropertyOp53
 70
     1
102
RTVSPropertyOp54
 70
     1
102
RTVSPropertyOp55
 70
     1
102
RTVSPropertyOp56
 70
     1
102
RTVSPropertyOp57
 70
     1
102
RTVSPropertyOp58
 70
     1
102
RTVSPropertyOp59
 70
     1
102
RTVSPropertyOp60
 70
     1
102
RTVSPropertyOp61
 70
     1
102
RTVSPropertyOp62
 70
     1
  0
XRECORD
  5
403
102
{ACAD_REACTORS
330
402
102
}
330
402
100
AcDbXrecord
280
     1
102
RTVSPost2010Prop28
280
     0
102
RTVSPost2010PropOp28
 70
     1
102
RTVSPost2010Prop29
280
     1
102
RTVSPost2010PropOp29
 70
     1
102
RTVSPost2010Prop30
280
     1
102
RTVSPost2010PropOp30
 70
     1
102
RTVSPost2010Prop31
280
     0
102
RTVSPost2010PropOp31
 70
     1
102
RTVSPost2010Prop32
280
     0
102
RTVSPost2010PropOp32
 70
     1
102
RTVSPost2010Prop33
280
     0
102
RTVSPost2010PropOp33
 70
     1
102
RTVSPost2010Prop34
280
     0
102
RTVSPost2010PropOp34
 70
     1
102
RTVSPost2010Prop35
280
     0
102
RTVSPost2010PropOp35
 70
     1
102
RTVSPost2010Prop36
280
     0
102
RTVSPost2010PropOp36
 70
     1
102
RTVSPost2010Prop37
 90
       50
102
RTVSPost2010PropOp37
 70
     1
102
RTVSPost2010Prop38
140
0.0
102
RTVSPost2010PropOp38
 70
     1
102
RTVSPost2010Prop39
140
1.0
102
RTVSPost2010PropOp39
 70
     1
102
RTVSPost2010Prop40
 90
        0
102
RTVSPost2010PropOp40
 70
     1
102
RTVSPost2010Prop41ColorIndex
 90
       18
102
RTVSPost2010Prop41ColorRGB
 90
        0
102
RTVSPost2010PropOp41
 70
     1
102
RTVSPost2010Prop42
 90
       50
102
RTVSPost2010PropOp42
 70
     1
102
RTVSPost2010Prop43
 90
        3
102
RTVSPost2010PropOp43
 70
     1
102
RTVSPost2010Prop44ColorIndex
 90
        5
102
RTVSPost2010Prop44ColorRGB
 90
      255
102
RTVSPost2010PropOp44
 70
     1
102
RTVSPost2010Prop45
280
     0
102
RTVSPost2010PropOp45
 70
     1
102
RTVSPost2010Prop46
 90
       50
102
RTVSPost2010PropOp46
 70
     1
102
RTVSPost2010Prop47
 90
       50
102
RTVSPost2010PropOp47
 70
     1
102
RTVSPost2010Prop48
 90
       50
102
RTVSPost2010PropOp48
 70
     1
102
RTVSPost2010Prop49
280
     0
102
RTVSPost2010PropOp49
 70
     1
102
RTVSPost2010Prop50
 90
       50
102
RTVSPost2010PropOp50
 70
     1
102
RTVSPost2010Prop51ColorIndex
 90
      256
102
RTVSPost2010Prop51ColorRGB
 90
-16777216
102
RTVSPost2010PropOp51
 70
     0
102
RTVSPost2010Prop52
140
1.0
102
RTVSPost2010PropOp52
 70
     0
102
RTVSPost2010Prop53
 90
        2
102
RTVSPost2010PropOp53
 70
     1
102
RTVSPost2010Prop54
  1
strokes_ogs.tif
102
RTVSPost2010PropOp54
 70
     1
102
RTVSPost2010Prop55
280
     0
102
RTVSPost2010PropOp55
 70
     1
102
RTVSPost2010Prop56
140
1.0
102
RTVSPost2010PropOp56
 70
     1
102
RTVSPost2010Prop57
140
1.0
102
RTVSPost2010PropOp57
 70
     1
102
RTVSPropertyOp0
 70
     1
102
RTVSPropertyOp1
 70
     1
102
RTVSPropertyOp2
 70
     1
102
RTVSPropertyOp3
 70
     1
102
RTVSPropertyOp4
 70
     1
102
RTVSPropertyOp5
 70
     1
102
RTVSPropertyOp6
 70
     1
102
RTVSPropertyOp7
 70
     1
102
RTVSPropertyOp8
 70
     1
102
RTVSPropertyOp9
 70
     1
102
RTVSPropertyOp10
 70
     1
102
RTVSPropertyOp11
 70
     1
102
RTVSPropertyOp12
 70
     1
102
RTVSPropertyOp13
 70
     1
102
RTVSPropertyOp14
 70
     1
102
RTVSPropertyOp15
 70
     1
102
RTVSPropertyOp16
 70
     1
102
RTVSPropertyOp17
 70
     1
102
RTVSPropertyOp18
 70
     1
102
RTVSPropertyOp19
 70
     1
102
RTVSPropertyOp20
 70
     1
102
RTVSPropertyOp21
 70
     1
102
RTVSPropertyOp22
 70
     1
102
RTVSPropertyOp23
 70
     1
102
RTVSPropertyOp24
 70
     1
102
RTVSPropertyOp25
 70
     1
102
RTVSPropertyOp26
 70
     1
102
RTVSPropertyOp27
 70
     1
102
RTVSPropertyOp28
 70
     1
102
RTVSPropertyOp29
 70
     1
102
RTVSPropertyOp30
 70
     1
102
RTVSPropertyOp31
 70
     1
102
RTVSPropertyOp32
 70
     1
102
RTVSPropertyOp33
 70
     1
102
RTVSPropertyOp34
 70
     1
102
RTVSPropertyOp35
 70
     1
102
RTVSPropertyOp36
 70
     1
102
RTVSPropertyOp37
 70
     1
102
RTVSPropertyOp38
 70
     1
102
RTVSPropertyOp39
 70
     1
102
RTVSPropertyOp40
 70
     1
102
RTVSPropertyOp41
 70
     1
102
RTVSPropertyOp42
 70
     1
102
RTVSPropertyOp43
 70
     1
102
RTVSPropertyOp44
 70
     1
102
RTVSPropertyOp45
 70
     1
102
RTVSPropertyOp46
 70
     1
102
RTVSPropertyOp47
 70
     1
102
RTVSPropertyOp48
 70
     1
102
RTVSPropertyOp49
 70
     1
102
RTVSPropertyOp50
 70
     1
102
RTVSPropertyOp51
 70
     0
102
RTVSPropertyOp52
 70
     0
102
RTVSPropertyOp53
 70
     1
102
RTVSPropertyOp54
 70
     1
102
RTVSPropertyOp55
 70
     1
102
RTVSPropertyOp56
 70
     1
102
RTVSPropertyOp57
 70
     1
102
RTVSPropertyOp58
 70
     1
102
RTVSPropertyOp59
 70
     1
102
RTVSPropertyOp60
 70
     1
102
RTVSPropertyOp61
 70
     1
102
RTVSPropertyOp62
 70
     1
  0
XRECORD
  5
41D
102
{ACAD_REACTORS
330
41C
102
}
330
41C
100
AcDbXrecord
280
     1
102
RTVSPost2010Prop28
280
     0
102
RTVSPost2010PropOp28
 70
     1
102
RTVSPost2010Prop29
280
     1
102
RTVSPost2010PropOp29
 70
     1
102
RTVSPost2010Prop30
280
     1
102
RTVSPost2010PropOp30
 70
     1
102
RTVSPost2010Prop31
280
     0
102
RTVSPost2010PropOp31
 70
     1
102
RTVSPost2010Prop32
280
     0
102
RTVSPost2010PropOp32
 70
     1
102
RTVSPost2010Prop33
280
     0
102
RTVSPost2010PropOp33
 70
     1
102
RTVSPost2010Prop34
280
     0
102
RTVSPost2010PropOp34
 70
     1
102
RTVSPost2010Prop35
280
     0
102
RTVSPost2010PropOp35
 70
     1
102
RTVSPost2010Prop36
280
     0
102
RTVSPost2010PropOp36
 70
     1
102
RTVSPost2010Prop37
 90
       50
102
RTVSPost2010PropOp37
 70
     0
102
RTVSPost2010Prop38
140
0.0
102
RTVSPost2010PropOp38
 70
     0
102
RTVSPost2010Prop39
140
1.0
102
RTVSPost2010PropOp39
 70
     0
102
RTVSPost2010Prop40
 90
        0
102
RTVSPost2010PropOp40
 70
     0
102
RTVSPost2010Prop41ColorIndex
 90
       18
102
RTVSPost2010Prop41ColorRGB
 90
        0
102
RTVSPost2010PropOp41
 70
     0
102
RTVSPost2010Prop42
 90
       50
102
RTVSPost2010PropOp42
 70
     0
102
RTVSPost2010Prop43
 90
        3
102
RTVSPost2010PropOp43
 70
     0
102
RTVSPost2010Prop44ColorIndex
 90
        5
102
RTVSPost2010Prop44ColorRGB
 90
      255
102
RTVSPost2010PropOp44
 70
     0
102
RTVSPost2010Prop45
280
     0
102
RTVSPost2010PropOp45
 70
     1
102
RTVSPost2010Prop46
 90
       50
102
RTVSPost2010PropOp46
 70
     0
102
RTVSPost2010Prop47
 90
       50
102
RTVSPost2010PropOp47
 70
     0
102
RTVSPost2010Prop48
 90
       50
102
RTVSPost2010PropOp48
 70
     0
102
RTVSPost2010Prop49
280
     0
102
RTVSPost2010PropOp49
 70
     1
102
RTVSPost2010Prop50
 90
       50
102
RTVSPost2010PropOp50
 70
     0
102
RTVSPost2010Prop51ColorIndex
 90
      256
102
RTVSPost2010Prop51ColorRGB
 90
-16777216
102
RTVSPost2010PropOp51
 70
     0
102
RTVSPost2010Prop52
140
1.0
102
RTVSPost2010PropOp52
 70
     0
102
RTVSPost2010Prop53
 90
        2
102
RTVSPost2010PropOp53
 70
     0
102
RTVSPost2010Prop54
  1
strokes_ogs.tif
102
RTVSPost2010PropOp54
 70
     0
102
RTVSPost2010Prop55
280
     0
102
RTVSPost2010PropOp55
 70
     1
102
RTVSPost2010Prop56
140
1.0
102
RTVSPost2010PropOp56
 70
     0
102
RTVSPost2010Prop57
140
1.0
102
RTVSPost2010PropOp57
 70
     0
102
RTVSPropertyOp0
 70
     0
102
RTVSPropertyOp1
 70
     0
102
RTVSPropertyOp2
 70
     0
102
RTVSPropertyOp3
 70
     0
102
RTVSPropertyOp4
 70
     0
102
RTVSPropertyOp5
 70
     0
102
RTVSPropertyOp6
 70
     0
102
RTVSPropertyOp7
 70
     0
102
RTVSPropertyOp8
 70
     0
102
RTVSPropertyOp9
 70
     0
102
RTVSPropertyOp10
 70
     0
102
RTVSPropertyOp11
 70
     0
102
RTVSPropertyOp12
 70
     0
102
RTVSPropertyOp13
 70
     0
102
RTVSPropertyOp14
 70
     2
102
RTVSPropertyOp15
 70
     0
102
RTVSPropertyOp16
 70
     0
102
RTVSPropertyOp17
 70
     0
102
RTVSPropertyOp18
 70
     0
102
RTVSPropertyOp19
 70
     0
102
RTVSPropertyOp20
 70
     0
102
RTVSPropertyOp21
 70
     0
102
RTVSPropertyOp22
 70
     0
102
RTVSPropertyOp23
 70
     0
102
RTVSPropertyOp24
 70
     0
102
RTVSPropertyOp25
 70
     0
102
RTVSPropertyOp26
 70
     0
102
RTVSPropertyOp27
 70
     0
102
RTVSPropertyOp28
 70
     1
102
RTVSPropertyOp29
 70
     1
102
RTVSPropertyOp30
 70
     1
102
RTVSPropertyOp31
 70
     1
102
RTVSPropertyOp32
 70
     1
102
RTVSPropertyOp33
 70
     1
102
RTVSPropertyOp34
 70
     1
102
RTVSPropertyOp35
 70
     1
102
RTVSPropertyOp36
 70
     1
102
RTVSPropertyOp37
 70
     0
102
RTVSPropertyOp38
 70
     0
102
RTVSPropertyOp39
 70
     0
102
RTVSPropertyOp40
 70
     0
102
RTVSPropertyOp41
 70
     0
102
RTVSPropertyOp42
 70
     0
102
RTVSPropertyOp43
 70
     0
102
RTVSPropertyOp44
 70
     0
102
RTVSPropertyOp45
 70
     1
102
RTVSPropertyOp46
 70
     0
102
RTVSPropertyOp47
 70
     0
102
RTVSPropertyOp48
 70
     0
102
RTVSPropertyOp49
 70
     1
102
RTVSPropertyOp50
 70
     0
102
RTVSPropertyOp51
 70
     0
102
RTVSPropertyOp52
 70
     0
102
RTVSPropertyOp53
 70
     0
102
RTVSPropertyOp54
 70
     0
102
RTVSPropertyOp55
 70
     1
102
RTVSPropertyOp56
 70
     0
102
RTVSPropertyOp57
 70
     0
102
RTVSPropertyOp58
 70
     0
102
RTVSPropertyOp59
 70
     0
102
RTVSPropertyOp60
 70
     0
102
RTVSPropertyOp61
 70
     0
102
RTVSPropertyOp62
 70
     0
  0
XRECORD
  5
40B
102
{ACAD_REACTORS
330
40A
102
}
330
40A
100
AcDbXrecord
280
     1
102
RTVSPost2010Prop28
280
     0
102
RTVSPost2010PropOp28
 70
     1
102
RTVSPost2010Prop29
280
     1
102
RTVSPost2010PropOp29
 70
     1
102
RTVSPost2010Prop30
280
     1
102
RTVSPost2010PropOp30
 70
     1
102
RTVSPost2010Prop31
280
     0
102
RTVSPost2010PropOp31
 70
     1
102
RTVSPost2010Prop32
280
     0
102
RTVSPost2010PropOp32
 70
     1
102
RTVSPost2010Prop33
280
     0
102
RTVSPost2010PropOp33
 70
     1
102
RTVSPost2010Prop34
280
     0
102
RTVSPost2010PropOp34
 70
     1
102
RTVSPost2010Prop35
280
     0
102
RTVSPost2010PropOp35
 70
     1
102
RTVSPost2010Prop36
280
     0
102
RTVSPost2010PropOp36
 70
     1
102
RTVSPost2010Prop37
 90
       50
102
RTVSPost2010PropOp37
 70
     1
102
RTVSPost2010Prop38
140
0.0
102
RTVSPost2010PropOp38
 70
     1
102
RTVSPost2010Prop39
140
1.0
102
RTVSPost2010PropOp39
 70
     1
102
RTVSPost2010Prop40
 90
        0
102
RTVSPost2010PropOp40
 70
     1
102
RTVSPost2010Prop41ColorIndex
 90
       18
102
RTVSPost2010Prop41ColorRGB
 90
        0
102
RTVSPost2010PropOp41
 70
     1
102
RTVSPost2010Prop42
 90
       50
102
RTVSPost2010PropOp42
 70
     1
102
RTVSPost2010Prop43
 90
        3
102
RTVSPost2010PropOp43
 70
     1
102
RTVSPost2010Prop44ColorIndex
 90
        5
102
RTVSPost2010Prop44ColorRGB
 90
      255
102
RTVSPost2010PropOp44
 70
     1
102
RTVSPost2010Prop45
280
     0
102
RTVSPost2010PropOp45
 70
     1
102
RTVSPost2010Prop46
 90
       50
102
RTVSPost2010PropOp46
 70
     1
102
RTVSPost2010Prop47
 90
       50
102
RTVSPost2010PropOp47
 70
     1
102
RTVSPost2010Prop48
 90
       50
102
RTVSPost2010PropOp48
 70
     1
102
RTVSPost2010Prop49
280
     0
102
RTVSPost2010PropOp49
 70
     1
102
RTVSPost2010Prop50
 90
       50
102
RTVSPost2010PropOp50
 70
     1
102
RTVSPost2010Prop51ColorIndex
 90
      256
102
RTVSPost2010Prop51ColorRGB
 90
-16777216
102
RTVSPost2010PropOp51
 70
     0
102
RTVSPost2010Prop52
140
1.0
102
RTVSPost2010PropOp52
 70
     0
102
RTVSPost2010Prop53
 90
        2
102
RTVSPost2010PropOp53
 70
     1
102
RTVSPost2010Prop54
  1
strokes_ogs.tif
102
RTVSPost2010PropOp54
 70
     1
102
RTVSPost2010Prop55
280
     0
102
RTVSPost2010PropOp55
 70
     1
102
RTVSPost2010Prop56
140
1.0
102
RTVSPost2010PropOp56
 70
     1
102
RTVSPost2010Prop57
140
1.0
102
RTVSPost2010PropOp57
 70
     1
102
RTVSPropertyOp0
 70
     1
102
RTVSPropertyOp1
 70
     1
102
RTVSPropertyOp2
 70
     1
102
RTVSPropertyOp3
 70
     1
102
RTVSPropertyOp4
 70
     1
102
RTVSPropertyOp5
 70
     1
102
RTVSPropertyOp6
 70
     1
102
RTVSPropertyOp7
 70
     1
102
RTVSPropertyOp8
 70
     1
102
RTVSPropertyOp9
 70
     1
102
RTVSPropertyOp10
 70
     1
102
RTVSPropertyOp11
 70
     1
102
RTVSPropertyOp12
 70
     1
102
RTVSPropertyOp13
 70
     1
102
RTVSPropertyOp14
 70
     1
102
RTVSPropertyOp15
 70
     1
102
RTVSPropertyOp16
 70
     1
102
RTVSPropertyOp17
 70
     1
102
RTVSPropertyOp18
 70
     1
102
RTVSPropertyOp19
 70
     1
102
RTVSPropertyOp20
 70
     1
102
RTVSPropertyOp21
 70
     1
102
RTVSPropertyOp22
 70
     1
102
RTVSPropertyOp23
 70
     1
102
RTVSPropertyOp24
 70
     1
102
RTVSPropertyOp25
 70
     1
102
RTVSPropertyOp26
 70
     1
102
RTVSPropertyOp27
 70
     1
102
RTVSPropertyOp28
 70
     1
102
RTVSPropertyOp29
 70
     1
102
RTVSPropertyOp30
 70
     1
102
RTVSPropertyOp31
 70
     1
102
RTVSPropertyOp32
 70
     1
102
RTVSPropertyOp33
 70
     1
102
RTVSPropertyOp34
 70
     1
102
RTVSPropertyOp35
 70
     1
102
RTVSPropertyOp36
 70
     1
102
RTVSPropertyOp37
 70
     1
102
RTVSPropertyOp38
 70
     1
102
RTVSPropertyOp39
 70
     1
102
RTVSPropertyOp40
 70
     1
102
RTVSPropertyOp41
 70
     1
102
RTVSPropertyOp42
 70
     1
102
RTVSPropertyOp43
 70
     1
102
RTVSPropertyOp44
 70
     1
102
RTVSPropertyOp45
 70
     1
102
RTVSPropertyOp46
 70
     1
102
RTVSPropertyOp47
 70
     1
102
RTVSPropertyOp48
 70
     1
102
RTVSPropertyOp49
 70
     1
102
RTVSPropertyOp50
 70
     1
102
RTVSPropertyOp51
 70
     0
102
RTVSPropertyOp52
 70
     0
102
RTVSPropertyOp53
 70
     1
102
RTVSPropertyOp54
 70
     1
102
RTVSPropertyOp55
 70
     1
102
RTVSPropertyOp56
 70
     1
102
RTVSPropertyOp57
 70
     1
102
RTVSPropertyOp58
 70
     1
102
RTVSPropertyOp59
 70
     1
102
RTVSPropertyOp60
 70
     1
102
RTVSPropertyOp61
 70
     1
102
RTVSPropertyOp62
 70
     1
  0
XRECORD
  5
3EF
102
{ACAD_REACTORS
330
3EE
102
}
330
3EE
100
AcDbXrecord
280
     1
102
RTVSPost2010Prop28
280
     0
102
RTVSPost2010PropOp28
 70
     1
102
RTVSPost2010Prop29
280
     1
102
RTVSPost2010PropOp29
 70
     1
102
RTVSPost2010Prop30
280
     1
102
RTVSPost2010PropOp30
 70
     1
102
RTVSPost2010Prop31
280
     0
102
RTVSPost2010PropOp31
 70
     1
102
RTVSPost2010Prop32
280
     0
102
RTVSPost2010PropOp32
 70
     1
102
RTVSPost2010Prop33
280
     0
102
RTVSPost2010PropOp33
 70
     1
102
RTVSPost2010Prop34
280
     0
102
RTVSPost2010PropOp34
 70
     1
102
RTVSPost2010Prop35
280
     0
102
RTVSPost2010PropOp35
 70
     1
102
RTVSPost2010Prop36
280
     0
102
RTVSPost2010PropOp36
 70
     1
102
RTVSPost2010Prop37
 90
       50
102
RTVSPost2010PropOp37
 70
     1
102
RTVSPost2010Prop38
140
0.0
102
RTVSPost2010PropOp38
 70
     1
102
RTVSPost2010Prop39
140
1.0
102
RTVSPost2010PropOp39
 70
     1
102
RTVSPost2010Prop40
 90
        0
102
RTVSPost2010PropOp40
 70
     1
102
RTVSPost2010Prop41ColorIndex
 90
       18
102
RTVSPost2010Prop41ColorRGB
 90
        0
102
RTVSPost2010PropOp41
 70
     1
102
RTVSPost2010Prop42
 90
       50
102
RTVSPost2010PropOp42
 70
     1
102
RTVSPost2010Prop43
 90
        3
102
RTVSPost2010PropOp43
 70
     1
102
RTVSPost2010Prop44ColorIndex
 90
        5
102
RTVSPost2010Prop44ColorRGB
 90
      255
102
RTVSPost2010PropOp44
 70
     1
102
RTVSPost2010Prop45
280
     0
102
RTVSPost2010PropOp45
 70
     1
102
RTVSPost2010Prop46
 90
       50
102
RTVSPost2010PropOp46
 70
     1
102
RTVSPost2010Prop47
 90
       50
102
RTVSPost2010PropOp47
 70
     1
102
RTVSPost2010Prop48
 90
       50
102
RTVSPost2010PropOp48
 70
     1
102
RTVSPost2010Prop49
280
     0
102
RTVSPost2010PropOp49
 70
     1
102
RTVSPost2010Prop50
 90
       50
102
RTVSPost2010PropOp50
 70
     1
102
RTVSPost2010Prop51ColorIndex
 90
      256
102
RTVSPost2010Prop51ColorRGB
 90
-16777216
102
RTVSPost2010PropOp51
 70
     0
102
RTVSPost2010Prop52
140
1.0
102
RTVSPost2010PropOp52
 70
     0
102
RTVSPost2010Prop53
 90
        2
102
RTVSPost2010PropOp53
 70
     1
102
RTVSPost2010Prop54
  1
strokes_ogs.tif
102
RTVSPost2010PropOp54
 70
     1
102
RTVSPost2010Prop55
280
     0
102
RTVSPost2010PropOp55
 70
     1
102
RTVSPost2010Prop56
140
1.0
102
RTVSPost2010PropOp56
 70
     1
102
RTVSPost2010Prop57
140
1.0
102
RTVSPost2010PropOp57
 70
     1
102
RTVSPropertyOp0
 70
     1
102
RTVSPropertyOp1
 70
     1
102
RTVSPropertyOp2
 70
     1
102
RTVSPropertyOp3
 70
     1
102
RTVSPropertyOp4
 70
     1
102
RTVSPropertyOp5
 70
     1
102
RTVSPropertyOp6
 70
     1
102
RTVSPropertyOp7
 70
     1
102
RTVSPropertyOp8
 70
     1
102
RTVSPropertyOp9
 70
     1
102
RTVSPropertyOp10
 70
     1
102
RTVSPropertyOp11
 70
     1
102
RTVSPropertyOp12
 70
     1
102
RTVSPropertyOp13
 70
     1
102
RTVSPropertyOp14
 70
     1
102
RTVSPropertyOp15
 70
     1
102
RTVSPropertyOp16
 70
     1
102
RTVSPropertyOp17
 70
     1
102
RTVSPropertyOp18
 70
     1
102
RTVSPropertyOp19
 70
     1
102
RTVSPropertyOp20
 70
     1
102
RTVSPropertyOp21
 70
     1
102
RTVSPropertyOp22
 70
     1
102
RTVSPropertyOp23
 70
     1
102
RTVSPropertyOp24
 70
     1
102
RTVSPropertyOp25
 70
     1
102
RTVSPropertyOp26
 70
     1
102
RTVSPropertyOp27
 70
     1
102
RTVSPropertyOp28
 70
     1
102
RTVSPropertyOp29
 70
     1
102
RTVSPropertyOp30
 70
     1
102
RTVSPropertyOp31
 70
     1
102
RTVSPropertyOp32
 70
     1
102
RTVSPropertyOp33
 70
     1
102
RTVSPropertyOp34
 70
     1
102
RTVSPropertyOp35
 70
     1
102
RTVSPropertyOp36
 70
     1
102
RTVSPropertyOp37
 70
     1
102
RTVSPropertyOp38
 70
     1
102
RTVSPropertyOp39
 70
     1
102
RTVSPropertyOp40
 70
     1
102
RTVSPropertyOp41
 70
     1
102
RTVSPropertyOp42
 70
     1
102
RTVSPropertyOp43
 70
     1
102
RTVSPropertyOp44
 70
     1
102
RTVSPropertyOp45
 70
     1
102
RTVSPropertyOp46
 70
     1
102
RTVSPropertyOp47
 70
     1
102
RTVSPropertyOp48
 70
     1
102
RTVSPropertyOp49
 70
     1
102
RTVSPropertyOp50
 70
     1
102
RTVSPropertyOp51
 70
     0
102
RTVSPropertyOp52
 70
     0
102
RTVSPropertyOp53
 70
     1
102
RTVSPropertyOp54
 70
     1
102
RTVSPropertyOp55
 70
     1
102
RTVSPropertyOp56
 70
     1
102
RTVSPropertyOp57
 70
     1
102
RTVSPropertyOp58
 70
     1
102
RTVSPropertyOp59
 70
     1
102
RTVSPropertyOp60
 70
     1
102
RTVSPropertyOp61
 70
     1
102
RTVSPropertyOp62
 70
     1
  0
XRECORD
  5
3F1
102
{ACAD_REACTORS
330
3F0
102
}
330
3F0
100
AcDbXrecord
280
     1
102
RTVSPost2010Prop28
280
     0
102
RTVSPost2010PropOp28
 70
     1
102
RTVSPost2010Prop29
280
     1
102
RTVSPost2010PropOp29
 70
     1
102
RTVSPost2010Prop30
280
     1
102
RTVSPost2010PropOp30
 70
     1
102
RTVSPost2010Prop31
280
     0
102
RTVSPost2010PropOp31
 70
     1
102
RTVSPost2010Prop32
280
     0
102
RTVSPost2010PropOp32
 70
     1
102
RTVSPost2010Prop33
280
     0
102
RTVSPost2010PropOp33
 70
     1
102
RTVSPost2010Prop34
280
     0
102
RTVSPost2010PropOp34
 70
     1
102
RTVSPost2010Prop35
280
     0
102
RTVSPost2010PropOp35
 70
     1
102
RTVSPost2010Prop36
280
     0
102
RTVSPost2010PropOp36
 70
     1
102
RTVSPost2010Prop37
 90
       50
102
RTVSPost2010PropOp37
 70
     1
102
RTVSPost2010Prop38
140
0.0
102
RTVSPost2010PropOp38
 70
     1
102
RTVSPost2010Prop39
140
1.0
102
RTVSPost2010PropOp39
 70
     1
102
RTVSPost2010Prop40
 90
        0
102
RTVSPost2010PropOp40
 70
     1
102
RTVSPost2010Prop41ColorIndex
 90
       18
102
RTVSPost2010Prop41ColorRGB
 90
        0
102
RTVSPost2010PropOp41
 70
     1
102
RTVSPost2010Prop42
 90
       50
102
RTVSPost2010PropOp42
 70
     1
102
RTVSPost2010Prop43
 90
        3
102
RTVSPost2010PropOp43
 70
     1
102
RTVSPost2010Prop44ColorIndex
 90
        5
102
RTVSPost2010Prop44ColorRGB
 90
      255
102
RTVSPost2010PropOp44
 70
     1
102
RTVSPost2010Prop45
280
     0
102
RTVSPost2010PropOp45
 70
     1
102
RTVSPost2010Prop46
 90
       50
102
RTVSPost2010PropOp46
 70
     1
102
RTVSPost2010Prop47
 90
       50
102
RTVSPost2010PropOp47
 70
     1
102
RTVSPost2010Prop48
 90
       50
102
RTVSPost2010PropOp48
 70
     1
102
RTVSPost2010Prop49
280
     0
102
RTVSPost2010PropOp49
 70
     1
102
RTVSPost2010Prop50
 90
       50
102
RTVSPost2010PropOp50
 70
     1
102
RTVSPost2010Prop51ColorIndex
 90
      256
102
RTVSPost2010Prop51ColorRGB
 90
-16777216
102
RTVSPost2010PropOp51
 70
     0
102
RTVSPost2010Prop52
140
1.0
102
RTVSPost2010PropOp52
 70
     0
102
RTVSPost2010Prop53
 90
        2
102
RTVSPost2010PropOp53
 70
     1
102
RTVSPost2010Prop54
  1
strokes_ogs.tif
102
RTVSPost2010PropOp54
 70
     1
102
RTVSPost2010Prop55
280
     0
102
RTVSPost2010PropOp55
 70
     1
102
RTVSPost2010Prop56
140
1.0
102
RTVSPost2010PropOp56
 70
     1
102
RTVSPost2010Prop57
140
1.0
102
RTVSPost2010PropOp57
 70
     1
102
RTVSPropertyOp0
 70
     1
102
RTVSPropertyOp1
 70
     1
102
RTVSPropertyOp2
 70
     1
102
RTVSPropertyOp3
 70
     1
102
RTVSPropertyOp4
 70
     1
102
RTVSPropertyOp5
 70
     1
102
RTVSPropertyOp6
 70
     1
102
RTVSPropertyOp7
 70
     1
102
RTVSPropertyOp8
 70
     1
102
RTVSPropertyOp9
 70
     1
102
RTVSPropertyOp10
 70
     1
102
RTVSPropertyOp11
 70
     1
102
RTVSPropertyOp12
 70
     1
102
RTVSPropertyOp13
 70
     1
102
RTVSPropertyOp14
 70
     1
102
RTVSPropertyOp15
 70
     1
102
RTVSPropertyOp16
 70
     1
102
RTVSPropertyOp17
 70
     1
102
RTVSPropertyOp18
 70
     1
102
RTVSPropertyOp19
 70
     1
102
RTVSPropertyOp20
 70
     1
102
RTVSPropertyOp21
 70
     1
102
RTVSPropertyOp22
 70
     1
102
RTVSPropertyOp23
 70
     1
102
RTVSPropertyOp24
 70
     1
102
RTVSPropertyOp25
 70
     1
102
RTVSPropertyOp26
 70
     1
102
RTVSPropertyOp27
 70
     1
102
RTVSPropertyOp28
 70
     1
102
RTVSPropertyOp29
 70
     1
102
RTVSPropertyOp30
 70
     1
102
RTVSPropertyOp31
 70
     1
102
RTVSPropertyOp32
 70
     1
102
RTVSPropertyOp33
 70
     1
102
RTVSPropertyOp34
 70
     1
102
RTVSPropertyOp35
 70
     1
102
RTVSPropertyOp36
 70
     1
102
RTVSPropertyOp37
 70
     1
102
RTVSPropertyOp38
 70
     1
102
RTVSPropertyOp39
 70
     1
102
RTVSPropertyOp40
 70
     1
102
RTVSPropertyOp41
 70
     1
102
RTVSPropertyOp42
 70
     1
102
RTVSPropertyOp43
 70
     1
102
RTVSPropertyOp44
 70
     1
102
RTVSPropertyOp45
 70
     1
102
RTVSPropertyOp46
 70
     1
102
RTVSPropertyOp47
 70
     1
102
RTVSPropertyOp48
 70
     1
102
RTVSPropertyOp49
 70
     1
102
RTVSPropertyOp50
 70
     1
102
RTVSPropertyOp51
 70
     0
102
RTVSPropertyOp52
 70
     0
102
RTVSPropertyOp53
 70
     1
102
RTVSPropertyOp54
 70
     1
102
RTVSPropertyOp55
 70
     1
102
RTVSPropertyOp56
 70
     1
102
RTVSPropertyOp57
 70
     1
102
RTVSPropertyOp58
 70
     1
102
RTVSPropertyOp59
 70
     1
102
RTVSPropertyOp60
 70
     1
102
RTVSPropertyOp61
 70
     1
102
RTVSPropertyOp62
 70
     1
  0
XRECORD
  5
3F3
102
{ACAD_REACTORS
330
3F2
102
}
330
3F2
100
AcDbXrecord
280
     1
102
RTVSPost2010Prop28
280
     0
102
RTVSPost2010PropOp28
 70
     1
102
RTVSPost2010Prop29
280
     1
102
RTVSPost2010PropOp29
 70
     1
102
RTVSPost2010Prop30
280
     1
102
RTVSPost2010PropOp30
 70
     1
102
RTVSPost2010Prop31
280
     0
102
RTVSPost2010PropOp31
 70
     1
102
RTVSPost2010Prop32
280
     0
102
RTVSPost2010PropOp32
 70
     1
102
RTVSPost2010Prop33
280
     0
102
RTVSPost2010PropOp33
 70
     1
102
RTVSPost2010Prop34
280
     0
102
RTVSPost2010PropOp34
 70
     1
102
RTVSPost2010Prop35
280
     0
102
RTVSPost2010PropOp35
 70
     1
102
RTVSPost2010Prop36
280
     0
102
RTVSPost2010PropOp36
 70
     1
102
RTVSPost2010Prop37
 90
       50
102
RTVSPost2010PropOp37
 70
     1
102
RTVSPost2010Prop38
140
0.0
102
RTVSPost2010PropOp38
 70
     1
102
RTVSPost2010Prop39
140
1.0
102
RTVSPost2010PropOp39
 70
     1
102
RTVSPost2010Prop40
 90
        0
102
RTVSPost2010PropOp40
 70
     1
102
RTVSPost2010Prop41ColorIndex
 90
       18
102
RTVSPost2010Prop41ColorRGB
 90
        0
102
RTVSPost2010PropOp41
 70
     1
102
RTVSPost2010Prop42
 90
       50
102
RTVSPost2010PropOp42
 70
     1
102
RTVSPost2010Prop43
 90
        3
102
RTVSPost2010PropOp43
 70
     1
102
RTVSPost2010Prop44ColorIndex
 90
        5
102
RTVSPost2010Prop44ColorRGB
 90
      255
102
RTVSPost2010PropOp44
 70
     1
102
RTVSPost2010Prop45
280
     0
102
RTVSPost2010PropOp45
 70
     1
102
RTVSPost2010Prop46
 90
       50
102
RTVSPost2010PropOp46
 70
     1
102
RTVSPost2010Prop47
 90
       50
102
RTVSPost2010PropOp47
 70
     1
102
RTVSPost2010Prop48
 90
       50
102
RTVSPost2010PropOp48
 70
     1
102
RTVSPost2010Prop49
280
     0
102
RTVSPost2010PropOp49
 70
     1
102
RTVSPost2010Prop50
 90
       50
102
RTVSPost2010PropOp50
 70
     1
102
RTVSPost2010Prop51ColorIndex
 90
      256
102
RTVSPost2010Prop51ColorRGB
 90
-16777216
102
RTVSPost2010PropOp51
 70
     0
102
RTVSPost2010Prop52
140
1.0
102
RTVSPost2010PropOp52
 70
     0
102
RTVSPost2010Prop53
 90
        2
102
RTVSPost2010PropOp53
 70
     1
102
RTVSPost2010Prop54
  1
strokes_ogs.tif
102
RTVSPost2010PropOp54
 70
     1
102
RTVSPost2010Prop55
280
     0
102
RTVSPost2010PropOp55
 70
     1
102
RTVSPost2010Prop56
140
1.0
102
RTVSPost2010PropOp56
 70
     1
102
RTVSPost2010Prop57
140
1.0
102
RTVSPost2010PropOp57
 70
     1
102
RTVSPropertyOp0
 70
     1
102
RTVSPropertyOp1
 70
     1
102
RTVSPropertyOp2
 70
     1
102
RTVSPropertyOp3
 70
     1
102
RTVSPropertyOp4
 70
     1
102
RTVSPropertyOp5
 70
     1
102
RTVSPropertyOp6
 70
     1
102
RTVSPropertyOp7
 70
     1
102
RTVSPropertyOp8
 70
     1
102
RTVSPropertyOp9
 70
     1
102
RTVSPropertyOp10
 70
     1
102
RTVSPropertyOp11
 70
     1
102
RTVSPropertyOp12
 70
     1
102
RTVSPropertyOp13
 70
     1
102
RTVSPropertyOp14
 70
     1
102
RTVSPropertyOp15
 70
     1
102
RTVSPropertyOp16
 70
     1
102
RTVSPropertyOp17
 70
     1
102
RTVSPropertyOp18
 70
     1
102
RTVSPropertyOp19
 70
     1
102
RTVSPropertyOp20
 70
     1
102
RTVSPropertyOp21
 70
     1
102
RTVSPropertyOp22
 70
     1
102
RTVSPropertyOp23
 70
     1
102
RTVSPropertyOp24
 70
     1
102
RTVSPropertyOp25
 70
     1
102
RTVSPropertyOp26
 70
     1
102
RTVSPropertyOp27
 70
     1
102
RTVSPropertyOp28
 70
     1
102
RTVSPropertyOp29
 70
     1
102
RTVSPropertyOp30
 70
     1
102
RTVSPropertyOp31
 70
     1
102
RTVSPropertyOp32
 70
     1
102
RTVSPropertyOp33
 70
     1
102
RTVSPropertyOp34
 70
     1
102
RTVSPropertyOp35
 70
     1
102
RTVSPropertyOp36
 70
     1
102
RTVSPropertyOp37
 70
     1
102
RTVSPropertyOp38
 70
     1
102
RTVSPropertyOp39
 70
     1
102
RTVSPropertyOp40
 70
     1
102
RTVSPropertyOp41
 70
     1
102
RTVSPropertyOp42
 70
     1
102
RTVSPropertyOp43
 70
     1
102
RTVSPropertyOp44
 70
     1
102
RTVSPropertyOp45
 70
     1
102
RTVSPropertyOp46
 70
     1
102
RTVSPropertyOp47
 70
     1
102
RTVSPropertyOp48
 70
     1
102
RTVSPropertyOp49
 70
     1
102
RTVSPropertyOp50
 70
     1
102
RTVSPropertyOp51
 70
     0
102
RTVSPropertyOp52
 70
     0
102
RTVSPropertyOp53
 70
     1
102
RTVSPropertyOp54
 70
     1
102
RTVSPropertyOp55
 70
     1
102
RTVSPropertyOp56
 70
     1
102
RTVSPropertyOp57
 70
     1
102
RTVSPropertyOp58
 70
     1
102
RTVSPropertyOp59
 70
     1
102
RTVSPropertyOp60
 70
     1
102
RTVSPropertyOp61
 70
     1
102
RTVSPropertyOp62
 70
     1
  0
XRECORD
  5
3F5
102
{ACAD_REACTORS
330
3F4
102
}
330
3F4
100
AcDbXrecord
280
     1
102
RTVSPost2010Prop28
280
     0
102
RTVSPost2010PropOp28
 70
     1
102
RTVSPost2010Prop29
280
     1
102
RTVSPost2010PropOp29
 70
     1
102
RTVSPost2010Prop30
280
     1
102
RTVSPost2010PropOp30
 70
     1
102
RTVSPost2010Prop31
280
     0
102
RTVSPost2010PropOp31
 70
     1
102
RTVSPost2010Prop32
280
     0
102
RTVSPost2010PropOp32
 70
     1
102
RTVSPost2010Prop33
280
     0
102
RTVSPost2010PropOp33
 70
     1
102
RTVSPost2010Prop34
280
     0
102
RTVSPost2010PropOp34
 70
     1
102
RTVSPost2010Prop35
280
     0
102
RTVSPost2010PropOp35
 70
     1
102
RTVSPost2010Prop36
280
     0
102
RTVSPost2010PropOp36
 70
     1
102
RTVSPost2010Prop37
 90
       50
102
RTVSPost2010PropOp37
 70
     1
102
RTVSPost2010Prop38
140
0.0
102
RTVSPost2010PropOp38
 70
     1
102
RTVSPost2010Prop39
140
1.0
102
RTVSPost2010PropOp39
 70
     1
102
RTVSPost2010Prop40
 90
        0
102
RTVSPost2010PropOp40
 70
     1
102
RTVSPost2010Prop41ColorIndex
 90
       18
102
RTVSPost2010Prop41ColorRGB
 90
        0
102
RTVSPost2010PropOp41
 70
     1
102
RTVSPost2010Prop42
 90
       50
102
RTVSPost2010PropOp42
 70
     1
102
RTVSPost2010Prop43
 90
        3
102
RTVSPost2010PropOp43
 70
     1
102
RTVSPost2010Prop44ColorIndex
 90
        5
102
RTVSPost2010Prop44ColorRGB
 90
      255
102
RTVSPost2010PropOp44
 70
     1
102
RTVSPost2010Prop45
280
     0
102
RTVSPost2010PropOp45
 70
     1
102
RTVSPost2010Prop46
 90
       50
102
RTVSPost2010PropOp46
 70
     1
102
RTVSPost2010Prop47
 90
       50
102
RTVSPost2010PropOp47
 70
     1
102
RTVSPost2010Prop48
 90
       50
102
RTVSPost2010PropOp48
 70
     1
102
RTVSPost2010Prop49
280
     0
102
RTVSPost2010PropOp49
 70
     1
102
RTVSPost2010Prop50
 90
       50
102
RTVSPost2010PropOp50
 70
     1
102
RTVSPost2010Prop51ColorIndex
 90
      256
102
RTVSPost2010Prop51ColorRGB
 90
-16777216
102
RTVSPost2010PropOp51
 70
     0
102
RTVSPost2010Prop52
140
1.0
102
RTVSPost2010PropOp52
 70
     0
102
RTVSPost2010Prop53
 90
        2
102
RTVSPost2010PropOp53
 70
     1
102
RTVSPost2010Prop54
  1
strokes_ogs.tif
102
RTVSPost2010PropOp54
 70
     1
102
RTVSPost2010Prop55
280
     0
102
RTVSPost2010PropOp55
 70
     1
102
RTVSPost2010Prop56
140
1.0
102
RTVSPost2010PropOp56
 70
     1
102
RTVSPost2010Prop57
140
1.0
102
RTVSPost2010PropOp57
 70
     1
102
RTVSPropertyOp0
 70
     1
102
RTVSPropertyOp1
 70
     1
102
RTVSPropertyOp2
 70
     1
102
RTVSPropertyOp3
 70
     1
102
RTVSPropertyOp4
 70
     1
102
RTVSPropertyOp5
 70
     1
102
RTVSPropertyOp6
 70
     1
102
RTVSPropertyOp7
 70
     1
102
RTVSPropertyOp8
 70
     1
102
RTVSPropertyOp9
 70
     1
102
RTVSPropertyOp10
 70
     1
102
RTVSPropertyOp11
 70
     1
102
RTVSPropertyOp12
 70
     1
102
RTVSPropertyOp13
 70
     1
102
RTVSPropertyOp14
 70
     1
102
RTVSPropertyOp15
 70
     1
102
RTVSPropertyOp16
 70
     1
102
RTVSPropertyOp17
 70
     1
102
RTVSPropertyOp18
 70
     1
102
RTVSPropertyOp19
 70
     1
102
RTVSPropertyOp20
 70
     1
102
RTVSPropertyOp21
 70
     1
102
RTVSPropertyOp22
 70
     1
102
RTVSPropertyOp23
 70
     1
102
RTVSPropertyOp24
 70
     1
102
RTVSPropertyOp25
 70
     1
102
RTVSPropertyOp26
 70
     1
102
RTVSPropertyOp27
 70
     1
102
RTVSPropertyOp28
 70
     1
102
RTVSPropertyOp29
 70
     1
102
RTVSPropertyOp30
 70
     1
102
RTVSPropertyOp31
 70
     1
102
RTVSPropertyOp32
 70
     1
102
RTVSPropertyOp33
 70
     1
102
RTVSPropertyOp34
 70
     1
102
RTVSPropertyOp35
 70
     1
102
RTVSPropertyOp36
 70
     1
102
RTVSPropertyOp37
 70
     1
102
RTVSPropertyOp38
 70
     1
102
RTVSPropertyOp39
 70
     1
102
RTVSPropertyOp40
 70
     1
102
RTVSPropertyOp41
 70
     1
102
RTVSPropertyOp42
 70
     1
102
RTVSPropertyOp43
 70
     1
102
RTVSPropertyOp44
 70
     1
102
RTVSPropertyOp45
 70
     1
102
RTVSPropertyOp46
 70
     1
102
RTVSPropertyOp47
 70
     1
102
RTVSPropertyOp48
 70
     1
102
RTVSPropertyOp49
 70
     1
102
RTVSPropertyOp50
 70
     1
102
RTVSPropertyOp51
 70
     0
102
RTVSPropertyOp52
 70
     0
102
RTVSPropertyOp53
 70
     1
102
RTVSPropertyOp54
 70
     1
102
RTVSPropertyOp55
 70
     1
102
RTVSPropertyOp56
 70
     1
102
RTVSPropertyOp57
 70
     1
102
RTVSPropertyOp58
 70
     1
102
RTVSPropertyOp59
 70
     1
102
RTVSPropertyOp60
 70
     1
102
RTVSPropertyOp61
 70
     1
102
RTVSPropertyOp62
 70
     1
  0
XRECORD
  5
3FD
102
{ACAD_REACTORS
330
3FC
102
}
330
3FC
100
AcDbXrecord
280
     1
102
RTVSPost2010Prop28
280
     0
102
RTVSPost2010PropOp28
 70
     1
102
RTVSPost2010Prop29
280
     1
102
RTVSPost2010PropOp29
 70
     1
102
RTVSPost2010Prop30
280
     1
102
RTVSPost2010PropOp30
 70
     1
102
RTVSPost2010Prop31
280
     0
102
RTVSPost2010PropOp31
 70
     1
102
RTVSPost2010Prop32
280
     0
102
RTVSPost2010PropOp32
 70
     1
102
RTVSPost2010Prop33
280
     0
102
RTVSPost2010PropOp33
 70
     1
102
RTVSPost2010Prop34
280
     0
102
RTVSPost2010PropOp34
 70
     1
102
RTVSPost2010Prop35
280
     0
102
RTVSPost2010PropOp35
 70
     1
102
RTVSPost2010Prop36
280
     0
102
RTVSPost2010PropOp36
 70
     1
102
RTVSPost2010Prop37
 90
       50
102
RTVSPost2010PropOp37
 70
     1
102
RTVSPost2010Prop38
140
0.0
102
RTVSPost2010PropOp38
 70
     1
102
RTVSPost2010Prop39
140
1.0
102
RTVSPost2010PropOp39
 70
     1
102
RTVSPost2010Prop40
 90
        0
102
RTVSPost2010PropOp40
 70
     1
102
RTVSPost2010Prop41ColorIndex
 90
       18
102
RTVSPost2010Prop41ColorRGB
 90
        0
102
RTVSPost2010PropOp41
 70
     1
102
RTVSPost2010Prop42
 90
       50
102
RTVSPost2010PropOp42
 70
     1
102
RTVSPost2010Prop43
 90
        3
102
RTVSPost2010PropOp43
 70
     1
102
RTVSPost2010Prop44ColorIndex
 90
        5
102
RTVSPost2010Prop44ColorRGB
 90
      255
102
RTVSPost2010PropOp44
 70
     1
102
RTVSPost2010Prop45
280
     0
102
RTVSPost2010PropOp45
 70
     1
102
RTVSPost2010Prop46
 90
       50
102
RTVSPost2010PropOp46
 70
     1
102
RTVSPost2010Prop47
 90
       50
102
RTVSPost2010PropOp47
 70
     1
102
RTVSPost2010Prop48
 90
       50
102
RTVSPost2010PropOp48
 70
     1
102
RTVSPost2010Prop49
280
     0
102
RTVSPost2010PropOp49
 70
     1
102
RTVSPost2010Prop50
 90
       50
102
RTVSPost2010PropOp50
 70
     1
102
RTVSPost2010Prop51ColorIndex
 90
      256
102
RTVSPost2010Prop51ColorRGB
 90
-16777216
102
RTVSPost2010PropOp51
 70
     0
102
RTVSPost2010Prop52
140
1.0
102
RTVSPost2010PropOp52
 70
     0
102
RTVSPost2010Prop53
 90
        2
102
RTVSPost2010PropOp53
 70
     1
102
RTVSPost2010Prop54
  1
strokes_ogs.tif
102
RTVSPost2010PropOp54
 70
     1
102
RTVSPost2010Prop55
280
     0
102
RTVSPost2010PropOp55
 70
     1
102
RTVSPost2010Prop56
140
1.0
102
RTVSPost2010PropOp56
 70
     1
102
RTVSPost2010Prop57
140
1.0
102
RTVSPost2010PropOp57
 70
     1
102
RTVSPropertyOp0
 70
     1
102
RTVSPropertyOp1
 70
     1
102
RTVSPropertyOp2
 70
     1
102
RTVSPropertyOp3
 70
     1
102
RTVSPropertyOp4
 70
     1
102
RTVSPropertyOp5
 70
     1
102
RTVSPropertyOp6
 70
     1
102
RTVSPropertyOp7
 70
     1
102
RTVSPropertyOp8
 70
     1
102
RTVSPropertyOp9
 70
     1
102
RTVSPropertyOp10
 70
     1
102
RTVSPropertyOp11
 70
     1
102
RTVSPropertyOp12
 70
     1
102
RTVSPropertyOp13
 70
     1
102
RTVSPropertyOp14
 70
     1
102
RTVSPropertyOp15
 70
     1
102
RTVSPropertyOp16
 70
     1
102
RTVSPropertyOp17
 70
     1
102
RTVSPropertyOp18
 70
     1
102
RTVSPropertyOp19
 70
     1
102
RTVSPropertyOp20
 70
     1
102
RTVSPropertyOp21
 70
     1
102
RTVSPropertyOp22
 70
     1
102
RTVSPropertyOp23
 70
     1
102
RTVSPropertyOp24
 70
     1
102
RTVSPropertyOp25
 70
     1
102
RTVSPropertyOp26
 70
     1
102
RTVSPropertyOp27
 70
     1
102
RTVSPropertyOp28
 70
     1
102
RTVSPropertyOp29
 70
     1
102
RTVSPropertyOp30
 70
     1
102
RTVSPropertyOp31
 70
     1
102
RTVSPropertyOp32
 70
     1
102
RTVSPropertyOp33
 70
     1
102
RTVSPropertyOp34
 70
     1
102
RTVSPropertyOp35
 70
     1
102
RTVSPropertyOp36
 70
     1
102
RTVSPropertyOp37
 70
     1
102
RTVSPropertyOp38
 70
     1
102
RTVSPropertyOp39
 70
     1
102
RTVSPropertyOp40
 70
     1
102
RTVSPropertyOp41
 70
     1
102
RTVSPropertyOp42
 70
     1
102
RTVSPropertyOp43
 70
     1
102
RTVSPropertyOp44
 70
     1
102
RTVSPropertyOp45
 70
     1
102
RTVSPropertyOp46
 70
     1
102
RTVSPropertyOp47
 70
     1
102
RTVSPropertyOp48
 70
     1
102
RTVSPropertyOp49
 70
     1
102
RTVSPropertyOp50
 70
     1
102
RTVSPropertyOp51
 70
     0
102
RTVSPropertyOp52
 70
     0
102
RTVSPropertyOp53
 70
     1
102
RTVSPropertyOp54
 70
     1
102
RTVSPropertyOp55
 70
     1
102
RTVSPropertyOp56
 70
     1
102
RTVSPropertyOp57
 70
     1
102
RTVSPropertyOp58
 70
     1
102
RTVSPropertyOp59
 70
     1
102
RTVSPropertyOp60
 70
     1
102
RTVSPropertyOp61
 70
     1
102
RTVSPropertyOp62
 70
     1
  0
XRECORD
  5
419
102
{ACAD_REACTORS
330
418
102
}
330
418
100
AcDbXrecord
280
     1
102
RTVSPost2010Prop28
280
     0
102
RTVSPost2010PropOp28
 70
     1
102
RTVSPost2010Prop29
280
     1
102
RTVSPost2010PropOp29
 70
     1
102
RTVSPost2010Prop30
280
     1
102
RTVSPost2010PropOp30
 70
     1
102
RTVSPost2010Prop31
280
     0
102
RTVSPost2010PropOp31
 70
     1
102
RTVSPost2010Prop32
280
     0
102
RTVSPost2010PropOp32
 70
     1
102
RTVSPost2010Prop33
280
     0
102
RTVSPost2010PropOp33
 70
     1
102
RTVSPost2010Prop34
280
     0
102
RTVSPost2010PropOp34
 70
     1
102
RTVSPost2010Prop35
280
     0
102
RTVSPost2010PropOp35
 70
     1
102
RTVSPost2010Prop36
280
     0
102
RTVSPost2010PropOp36
 70
     1
102
RTVSPost2010Prop37
 90
       50
102
RTVSPost2010PropOp37
 70
     0
102
RTVSPost2010Prop38
140
0.0
102
RTVSPost2010PropOp38
 70
     0
102
RTVSPost2010Prop39
140
1.0
102
RTVSPost2010PropOp39
 70
     0
102
RTVSPost2010Prop40
 90
        0
102
RTVSPost2010PropOp40
 70
     0
102
RTVSPost2010Prop41ColorIndex
 90
       18
102
RTVSPost2010Prop41ColorRGB
 90
        0
102
RTVSPost2010PropOp41
 70
     0
102
RTVSPost2010Prop42
 90
       50
102
RTVSPost2010PropOp42
 70
     0
102
RTVSPost2010Prop43
 90
        3
102
RTVSPost2010PropOp43
 70
     0
102
RTVSPost2010Prop44ColorIndex
 90
        5
102
RTVSPost2010Prop44ColorRGB
 90
      255
102
RTVSPost2010PropOp44
 70
     0
102
RTVSPost2010Prop45
280
     0
102
RTVSPost2010PropOp45
 70
     1
102
RTVSPost2010Prop46
 90
       50
102
RTVSPost2010PropOp46
 70
     0
102
RTVSPost2010Prop47
 90
       50
102
RTVSPost2010PropOp47
 70
     0
102
RTVSPost2010Prop48
 90
       50
102
RTVSPost2010PropOp48
 70
     0
102
RTVSPost2010Prop49
280
     0
102
RTVSPost2010PropOp49
 70
     1
102
RTVSPost2010Prop50
 90
       50
102
RTVSPost2010PropOp50
 70
     0
102
RTVSPost2010Prop51ColorIndex
 90
      256
102
RTVSPost2010Prop51ColorRGB
 90
-16777216
102
RTVSPost2010PropOp51
 70
     0
102
RTVSPost2010Prop52
140
1.0
102
RTVSPost2010PropOp52
 70
     0
102
RTVSPost2010Prop53
 90
        2
102
RTVSPost2010PropOp53
 70
     0
102
RTVSPost2010Prop54
  1
strokes_ogs.tif
102
RTVSPost2010PropOp54
 70
     0
102
RTVSPost2010Prop55
280
     0
102
RTVSPost2010PropOp55
 70
     1
102
RTVSPost2010Prop56
140
1.0
102
RTVSPost2010PropOp56
 70
     0
102
RTVSPost2010Prop57
140
1.0
102
RTVSPost2010PropOp57
 70
     0
102
RTVSPropertyOp0
 70
     0
102
RTVSPropertyOp1
 70
     0
102
RTVSPropertyOp2
 70
     0
102
RTVSPropertyOp3
 70
     0
102
RTVSPropertyOp4
 70
     0
102
RTVSPropertyOp5
 70
     0
102
RTVSPropertyOp6
 70
     0
102
RTVSPropertyOp7
 70
     0
102
RTVSPropertyOp8
 70
     0
102
RTVSPropertyOp9
 70
     0
102
RTVSPropertyOp10
 70
     0
102
RTVSPropertyOp11
 70
     0
102
RTVSPropertyOp12
 70
     0
102
RTVSPropertyOp13
 70
     0
102
RTVSPropertyOp14
 70
     2
102
RTVSPropertyOp15
 70
     0
102
RTVSPropertyOp16
 70
     0
102
RTVSPropertyOp17
 70
     0
102
RTVSPropertyOp18
 70
     0
102
RTVSPropertyOp19
 70
     0
102
RTVSPropertyOp20
 70
     0
102
RTVSPropertyOp21
 70
     0
102
RTVSPropertyOp22
 70
     0
102
RTVSPropertyOp23
 70
     0
102
RTVSPropertyOp24
 70
     0
102
RTVSPropertyOp25
 70
     0
102
RTVSPropertyOp26
 70
     0
102
RTVSPropertyOp27
 70
     0
102
RTVSPropertyOp28
 70
     1
102
RTVSPropertyOp29
 70
     1
102
RTVSPropertyOp30
 70
     1
102
RTVSPropertyOp31
 70
     1
102
RTVSPropertyOp32
 70
     1
102
RTVSPropertyOp33
 70
     1
102
RTVSPropertyOp34
 70
     1
102
RTVSPropertyOp35
 70
     1
102
RTVSPropertyOp36
 70
     1
102
RTVSPropertyOp37
 70
     0
102
RTVSPropertyOp38
 70
     0
102
RTVSPropertyOp39
 70
     0
102
RTVSPropertyOp40
 70
     0
102
RTVSPropertyOp41
 70
     0
102
RTVSPropertyOp42
 70
     0
102
RTVSPropertyOp43
 70
     0
102
RTVSPropertyOp44
 70
     0
102
RTVSPropertyOp45
 70
     1
102
RTVSPropertyOp46
 70
     0
102
RTVSPropertyOp47
 70
     0
102
RTVSPropertyOp48
 70
     0
102
RTVSPropertyOp49
 70
     1
102
RTVSPropertyOp50
 70
     0
102
RTVSPropertyOp51
 70
     0
102
RTVSPropertyOp52
 70
     0
102
RTVSPropertyOp53
 70
     0
102
RTVSPropertyOp54
 70
     0
102
RTVSPropertyOp55
 70
     1
102
RTVSPropertyOp56
 70
     0
102
RTVSPropertyOp57
 70
     0
102
RTVSPropertyOp58
 70
     0
102
RTVSPropertyOp59
 70
     0
102
RTVSPropertyOp60
 70
     0
102
RTVSPropertyOp61
 70
     0
102
RTVSPropertyOp62
 70
     0
  0
XRECORD
  5
409
102
{ACAD_REACTORS
330
408
102
}
330
408
100
AcDbXrecord
280
     1
102
RTVSPost2010Prop28
280
     0
102
RTVSPost2010PropOp28
 70
     1
102
RTVSPost2010Prop29
280
     1
102
RTVSPost2010PropOp29
 70
     1
102
RTVSPost2010Prop30
280
     1
102
RTVSPost2010PropOp30
 70
     1
102
RTVSPost2010Prop31
280
     0
102
RTVSPost2010PropOp31
 70
     1
102
RTVSPost2010Prop32
280
     0
102
RTVSPost2010PropOp32
 70
     1
102
RTVSPost2010Prop33
280
     0
102
RTVSPost2010PropOp33
 70
     1
102
RTVSPost2010Prop34
280
     0
102
RTVSPost2010PropOp34
 70
     1
102
RTVSPost2010Prop35
280
     0
102
RTVSPost2010PropOp35
 70
     1
102
RTVSPost2010Prop36
280
     0
102
RTVSPost2010PropOp36
 70
     1
102
RTVSPost2010Prop37
 90
       50
102
RTVSPost2010PropOp37
 70
     1
102
RTVSPost2010Prop38
140
0.0
102
RTVSPost2010PropOp38
 70
     1
102
RTVSPost2010Prop39
140
1.0
102
RTVSPost2010PropOp39
 70
     1
102
RTVSPost2010Prop40
 90
        0
102
RTVSPost2010PropOp40
 70
     1
102
RTVSPost2010Prop41ColorIndex
 90
       18
102
RTVSPost2010Prop41ColorRGB
 90
        0
102
RTVSPost2010PropOp41
 70
     1
102
RTVSPost2010Prop42
 90
       50
102
RTVSPost2010PropOp42
 70
     1
102
RTVSPost2010Prop43
 90
        3
102
RTVSPost2010PropOp43
 70
     1
102
RTVSPost2010Prop44ColorIndex
 90
        5
102
RTVSPost2010Prop44ColorRGB
 90
      255
102
RTVSPost2010PropOp44
 70
     1
102
RTVSPost2010Prop45
280
     0
102
RTVSPost2010PropOp45
 70
     1
102
RTVSPost2010Prop46
 90
       50
102
RTVSPost2010PropOp46
 70
     1
102
RTVSPost2010Prop47
 90
       50
102
RTVSPost2010PropOp47
 70
     1
102
RTVSPost2010Prop48
 90
       50
102
RTVSPost2010PropOp48
 70
     1
102
RTVSPost2010Prop49
280
     0
102
RTVSPost2010PropOp49
 70
     1
102
RTVSPost2010Prop50
 90
       50
102
RTVSPost2010PropOp50
 70
     1
102
RTVSPost2010Prop51ColorIndex
 90
      256
102
RTVSPost2010Prop51ColorRGB
 90
-16777216
102
RTVSPost2010PropOp51
 70
     0
102
RTVSPost2010Prop52
140
1.0
102
RTVSPost2010PropOp52
 70
     0
102
RTVSPost2010Prop53
 90
        2
102
RTVSPost2010PropOp53
 70
     1
102
RTVSPost2010Prop54
  1
strokes_ogs.tif
102
RTVSPost2010PropOp54
 70
     1
102
RTVSPost2010Prop55
280
     0
102
RTVSPost2010PropOp55
 70
     1
102
RTVSPost2010Prop56
140
1.0
102
RTVSPost2010PropOp56
 70
     1
102
RTVSPost2010Prop57
140
1.0
102
RTVSPost2010PropOp57
 70
     1
102
RTVSPropertyOp0
 70
     1
102
RTVSPropertyOp1
 70
     1
102
RTVSPropertyOp2
 70
     1
102
RTVSPropertyOp3
 70
     1
102
RTVSPropertyOp4
 70
     1
102
RTVSPropertyOp5
 70
     1
102
RTVSPropertyOp6
 70
     1
102
RTVSPropertyOp7
 70
     1
102
RTVSPropertyOp8
 70
     1
102
RTVSPropertyOp9
 70
     1
102
RTVSPropertyOp10
 70
     1
102
RTVSPropertyOp11
 70
     1
102
RTVSPropertyOp12
 70
     1
102
RTVSPropertyOp13
 70
     1
102
RTVSPropertyOp14
 70
     1
102
RTVSPropertyOp15
 70
     1
102
RTVSPropertyOp16
 70
     1
102
RTVSPropertyOp17
 70
     1
102
RTVSPropertyOp18
 70
     1
102
RTVSPropertyOp19
 70
     1
102
RTVSPropertyOp20
 70
     1
102
RTVSPropertyOp21
 70
     1
102
RTVSPropertyOp22
 70
     1
102
RTVSPropertyOp23
 70
     1
102
RTVSPropertyOp24
 70
     1
102
RTVSPropertyOp25
 70
     1
102
RTVSPropertyOp26
 70
     1
102
RTVSPropertyOp27
 70
     1
102
RTVSPropertyOp28
 70
     1
102
RTVSPropertyOp29
 70
     1
102
RTVSPropertyOp30
 70
     1
102
RTVSPropertyOp31
 70
     1
102
RTVSPropertyOp32
 70
     1
102
RTVSPropertyOp33
 70
     1
102
RTVSPropertyOp34
 70
     1
102
RTVSPropertyOp35
 70
     1
102
RTVSPropertyOp36
 70
     1
102
RTVSPropertyOp37
 70
     1
102
RTVSPropertyOp38
 70
     1
102
RTVSPropertyOp39
 70
     1
102
RTVSPropertyOp40
 70
     1
102
RTVSPropertyOp41
 70
     1
102
RTVSPropertyOp42
 70
     1
102
RTVSPropertyOp43
 70
     1
102
RTVSPropertyOp44
 70
     1
102
RTVSPropertyOp45
 70
     1
102
RTVSPropertyOp46
 70
     1
102
RTVSPropertyOp47
 70
     1
102
RTVSPropertyOp48
 70
     1
102
RTVSPropertyOp49
 70
     1
102
RTVSPropertyOp50
 70
     1
102
RTVSPropertyOp51
 70
     0
102
RTVSPropertyOp52
 70
     0
102
RTVSPropertyOp53
 70
     1
102
RTVSPropertyOp54
 70
     1
102
RTVSPropertyOp55
 70
     1
102
RTVSPropertyOp56
 70
     1
102
RTVSPropertyOp57
 70
     1
102
RTVSPropertyOp58
 70
     1
102
RTVSPropertyOp59
 70
     1
102
RTVSPropertyOp60
 70
     1
102
RTVSPropertyOp61
 70
     1
102
RTVSPropertyOp62
 70
     1
  0
XRECORD
  5
41B
102
{ACAD_REACTORS
330
41A
102
}
330
41A
100
AcDbXrecord
280
     1
102
RTVSPost2010Prop28
280
     0
102
RTVSPost2010PropOp28
 70
     1
102
RTVSPost2010Prop29
280
     1
102
RTVSPost2010PropOp29
 70
     1
102
RTVSPost2010Prop30
280
     1
102
RTVSPost2010PropOp30
 70
     1
102
RTVSPost2010Prop31
280
     0
102
RTVSPost2010PropOp31
 70
     1
102
RTVSPost2010Prop32
280
     0
102
RTVSPost2010PropOp32
 70
     1
102
RTVSPost2010Prop33
280
     0
102
RTVSPost2010PropOp33
 70
     1
102
RTVSPost2010Prop34
280
     0
102
RTVSPost2010PropOp34
 70
     1
102
RTVSPost2010Prop35
280
     0
102
RTVSPost2010PropOp35
 70
     1
102
RTVSPost2010Prop36
280
     0
102
RTVSPost2010PropOp36
 70
     1
102
RTVSPost2010Prop37
 90
       50
102
RTVSPost2010PropOp37
 70
     0
102
RTVSPost2010Prop38
140
0.0
102
RTVSPost2010PropOp38
 70
     0
102
RTVSPost2010Prop39
140
1.0
102
RTVSPost2010PropOp39
 70
     0
102
RTVSPost2010Prop40
 90
        0
102
RTVSPost2010PropOp40
 70
     0
102
RTVSPost2010Prop41ColorIndex
 90
       18
102
RTVSPost2010Prop41ColorRGB
 90
        0
102
RTVSPost2010PropOp41
 70
     0
102
RTVSPost2010Prop42
 90
       50
102
RTVSPost2010PropOp42
 70
     0
102
RTVSPost2010Prop43
 90
        3
102
RTVSPost2010PropOp43
 70
     0
102
RTVSPost2010Prop44ColorIndex
 90
        5
102
RTVSPost2010Prop44ColorRGB
 90
      255
102
RTVSPost2010PropOp44
 70
     0
102
RTVSPost2010Prop45
280
     0
102
RTVSPost2010PropOp45
 70
     1
102
RTVSPost2010Prop46
 90
       50
102
RTVSPost2010PropOp46
 70
     0
102
RTVSPost2010Prop47
 90
       50
102
RTVSPost2010PropOp47
 70
     0
102
RTVSPost2010Prop48
 90
       50
102
RTVSPost2010PropOp48
 70
     0
102
RTVSPost2010Prop49
280
     0
102
RTVSPost2010PropOp49
 70
     1
102
RTVSPost2010Prop50
 90
       50
102
RTVSPost2010PropOp50
 70
     0
102
RTVSPost2010Prop51ColorIndex
 90
      256
102
RTVSPost2010Prop51ColorRGB
 90
-16777216
102
RTVSPost2010PropOp51
 70
     0
102
RTVSPost2010Prop52
140
1.0
102
RTVSPost2010PropOp52
 70
     0
102
RTVSPost2010Prop53
 90
        2
102
RTVSPost2010PropOp53
 70
     0
102
RTVSPost2010Prop54
  1
strokes_ogs.tif
102
RTVSPost2010PropOp54
 70
     0
102
RTVSPost2010Prop55
280
     0
102
RTVSPost2010PropOp55
 70
     1
102
RTVSPost2010Prop56
140
1.0
102
RTVSPost2010PropOp56
 70
     0
102
RTVSPost2010Prop57
140
1.0
102
RTVSPost2010PropOp57
 70
     0
102
RTVSPropertyOp0
 70
     0
102
RTVSPropertyOp1
 70
     0
102
RTVSPropertyOp2
 70
     0
102
RTVSPropertyOp3
 70
     0
102
RTVSPropertyOp4
 70
     0
102
RTVSPropertyOp5
 70
     0
102
RTVSPropertyOp6
 70
     0
102
RTVSPropertyOp7
 70
     0
102
RTVSPropertyOp8
 70
     0
102
RTVSPropertyOp9
 70
     0
102
RTVSPropertyOp10
 70
     0
102
RTVSPropertyOp11
 70
     0
102
RTVSPropertyOp12
 70
     0
102
RTVSPropertyOp13
 70
     0
102
RTVSPropertyOp14
 70
     2
102
RTVSPropertyOp15
 70
     0
102
RTVSPropertyOp16
 70
     0
102
RTVSPropertyOp17
 70
     0
102
RTVSPropertyOp18
 70
     0
102
RTVSPropertyOp19
 70
     0
102
RTVSPropertyOp20
 70
     0
102
RTVSPropertyOp21
 70
     0
102
RTVSPropertyOp22
 70
     0
102
RTVSPropertyOp23
 70
     0
102
RTVSPropertyOp24
 70
     0
102
RTVSPropertyOp25
 70
     0
102
RTVSPropertyOp26
 70
     0
102
RTVSPropertyOp27
 70
     0
102
RTVSPropertyOp28
 70
     1
102
RTVSPropertyOp29
 70
     1
102
RTVSPropertyOp30
 70
     1
102
RTVSPropertyOp31
 70
     1
102
RTVSPropertyOp32
 70
     1
102
RTVSPropertyOp33
 70
     1
102
RTVSPropertyOp34
 70
     1
102
RTVSPropertyOp35
 70
     1
102
RTVSPropertyOp36
 70
     1
102
RTVSPropertyOp37
 70
     0
102
RTVSPropertyOp38
 70
     0
102
RTVSPropertyOp39
 70
     0
102
RTVSPropertyOp40
 70
     0
102
RTVSPropertyOp41
 70
     0
102
RTVSPropertyOp42
 70
     0
102
RTVSPropertyOp43
 70
     0
102
RTVSPropertyOp44
 70
     0
102
RTVSPropertyOp45
 70
     1
102
RTVSPropertyOp46
 70
     0
102
RTVSPropertyOp47
 70
     0
102
RTVSPropertyOp48
 70
     0
102
RTVSPropertyOp49
 70
     1
102
RTVSPropertyOp50
 70
     0
102
RTVSPropertyOp51
 70
     0
102
RTVSPropertyOp52
 70
     0
102
RTVSPropertyOp53
 70
     0
102
RTVSPropertyOp54
 70
     0
102
RTVSPropertyOp55
 70
     1
102
RTVSPropertyOp56
 70
     0
102
RTVSPropertyOp57
 70
     0
102
RTVSPropertyOp58
 70
     0
102
RTVSPropertyOp59
 70
     0
102
RTVSPropertyOp60
 70
     0
102
RTVSPropertyOp61
 70
     0
102
RTVSPropertyOp62
 70
     0
  0
XRECORD
  5
401
102
{ACAD_REACTORS
330
400
102
}
330
400
100
AcDbXrecord
280
     1
102
RTVSPost2010Prop28
280
     0
102
RTVSPost2010PropOp28
 70
     1
102
RTVSPost2010Prop29
280
     1
102
RTVSPost2010PropOp29
 70
     1
102
RTVSPost2010Prop30
280
     1
102
RTVSPost2010PropOp30
 70
     1
102
RTVSPost2010Prop31
280
     0
102
RTVSPost2010PropOp31
 70
     1
102
RTVSPost2010Prop32
280
     0
102
RTVSPost2010PropOp32
 70
     1
102
RTVSPost2010Prop33
280
     0
102
RTVSPost2010PropOp33
 70
     1
102
RTVSPost2010Prop34
280
     0
102
RTVSPost2010PropOp34
 70
     1
102
RTVSPost2010Prop35
280
     0
102
RTVSPost2010PropOp35
 70
     1
102
RTVSPost2010Prop36
280
     0
102
RTVSPost2010PropOp36
 70
     1
102
RTVSPost2010Prop37
 90
       50
102
RTVSPost2010PropOp37
 70
     1
102
RTVSPost2010Prop38
140
0.0
102
RTVSPost2010PropOp38
 70
     1
102
RTVSPost2010Prop39
140
1.0
102
RTVSPost2010PropOp39
 70
     1
102
RTVSPost2010Prop40
 90
        0
102
RTVSPost2010PropOp40
 70
     1
102
RTVSPost2010Prop41ColorIndex
 90
       18
102
RTVSPost2010Prop41ColorRGB
 90
        0
102
RTVSPost2010PropOp41
 70
     1
102
RTVSPost2010Prop42
 90
       50
102
RTVSPost2010PropOp42
 70
     1
102
RTVSPost2010Prop43
 90
        3
102
RTVSPost2010PropOp43
 70
     1
102
RTVSPost2010Prop44ColorIndex
 90
        5
102
RTVSPost2010Prop44ColorRGB
 90
      255
102
RTVSPost2010PropOp44
 70
     1
102
RTVSPost2010Prop45
280
     0
102
RTVSPost2010PropOp45
 70
     1
102
RTVSPost2010Prop46
 90
       50
102
RTVSPost2010PropOp46
 70
     1
102
RTVSPost2010Prop47
 90
       50
102
RTVSPost2010PropOp47
 70
     1
102
RTVSPost2010Prop48
 90
       50
102
RTVSPost2010PropOp48
 70
     1
102
RTVSPost2010Prop49
280
     0
102
RTVSPost2010PropOp49
 70
     1
102
RTVSPost2010Prop50
 90
       50
102
RTVSPost2010PropOp50
 70
     1
102
RTVSPost2010Prop51ColorIndex
 90
      256
102
RTVSPost2010Prop51ColorRGB
 90
-16777216
102
RTVSPost2010PropOp51
 70
     0
102
RTVSPost2010Prop52
140
1.0
102
RTVSPost2010PropOp52
 70
     0
102
RTVSPost2010Prop53
 90
        2
102
RTVSPost2010PropOp53
 70
     1
102
RTVSPost2010Prop54
  1
strokes_ogs.tif
102
RTVSPost2010PropOp54
 70
     1
102
RTVSPost2010Prop55
280
     0
102
RTVSPost2010PropOp55
 70
     1
102
RTVSPost2010Prop56
140
1.0
102
RTVSPost2010PropOp56
 70
     1
102
RTVSPost2010Prop57
140
1.0
102
RTVSPost2010PropOp57
 70
     1
102
RTVSPropertyOp0
 70
     1
102
RTVSPropertyOp1
 70
     1
102
RTVSPropertyOp2
 70
     1
102
RTVSPropertyOp3
 70
     1
102
RTVSPropertyOp4
 70
     1
102
RTVSPropertyOp5
 70
     1
102
RTVSPropertyOp6
 70
     1
102
RTVSPropertyOp7
 70
     1
102
RTVSPropertyOp8
 70
     1
102
RTVSPropertyOp9
 70
     1
102
RTVSPropertyOp10
 70
     1
102
RTVSPropertyOp11
 70
     1
102
RTVSPropertyOp12
 70
     1
102
RTVSPropertyOp13
 70
     1
102
RTVSPropertyOp14
 70
     1
102
RTVSPropertyOp15
 70
     1
102
RTVSPropertyOp16
 70
     1
102
RTVSPropertyOp17
 70
     1
102
RTVSPropertyOp18
 70
     1
102
RTVSPropertyOp19
 70
     1
102
RTVSPropertyOp20
 70
     1
102
RTVSPropertyOp21
 70
     1
102
RTVSPropertyOp22
 70
     1
102
RTVSPropertyOp23
 70
     1
102
RTVSPropertyOp24
 70
     1
102
RTVSPropertyOp25
 70
     1
102
RTVSPropertyOp26
 70
     1
102
RTVSPropertyOp27
 70
     1
102
RTVSPropertyOp28
 70
     1
102
RTVSPropertyOp29
 70
     1
102
RTVSPropertyOp30
 70
     1
102
RTVSPropertyOp31
 70
     1
102
RTVSPropertyOp32
 70
     1
102
RTVSPropertyOp33
 70
     1
102
RTVSPropertyOp34
 70
     1
102
RTVSPropertyOp35
 70
     1
102
RTVSPropertyOp36
 70
     1
102
RTVSPropertyOp37
 70
     1
102
RTVSPropertyOp38
 70
     1
102
RTVSPropertyOp39
 70
     1
102
RTVSPropertyOp40
 70
     1
102
RTVSPropertyOp41
 70
     1
102
RTVSPropertyOp42
 70
     1
102
RTVSPropertyOp43
 70
     1
102
RTVSPropertyOp44
 70
     1
102
RTVSPropertyOp45
 70
     1
102
RTVSPropertyOp46
 70
     1
102
RTVSPropertyOp47
 70
     1
102
RTVSPropertyOp48
 70
     1
102
RTVSPropertyOp49
 70
     1
102
RTVSPropertyOp50
 70
     1
102
RTVSPropertyOp51
 70
     0
102
RTVSPropertyOp52
 70
     0
102
RTVSPropertyOp53
 70
     1
102
RTVSPropertyOp54
 70
     1
102
RTVSPropertyOp55
 70
     1
102
RTVSPropertyOp56
 70
     1
102
RTVSPropertyOp57
 70
     1
102
RTVSPropertyOp58
 70
     1
102
RTVSPropertyOp59
 70
     1
102
RTVSPropertyOp60
 70
     1
102
RTVSPropertyOp61
 70
     1
102
RTVSPropertyOp62
 70
     1
  0
XRECORD
  5
417
102
{ACAD_REACTORS
330
416
102
}
330
416
100
AcDbXrecord
280
     1
102
RTVSPost2010Prop28
280
     0
102
RTVSPost2010PropOp28
 70
     1
102
RTVSPost2010Prop29
280
     1
102
RTVSPost2010PropOp29
 70
     1
102
RTVSPost2010Prop30
280
     1
102
RTVSPost2010PropOp30
 70
     1
102
RTVSPost2010Prop31
280
     0
102
RTVSPost2010PropOp31
 70
     1
102
RTVSPost2010Prop32
280
     0
102
RTVSPost2010PropOp32
 70
     1
102
RTVSPost2010Prop33
280
     0
102
RTVSPost2010PropOp33
 70
     1
102
RTVSPost2010Prop34
280
     0
102
RTVSPost2010PropOp34
 70
     1
102
RTVSPost2010Prop35
280
     0
102
RTVSPost2010PropOp35
 70
     1
102
RTVSPost2010Prop36
280
     0
102
RTVSPost2010PropOp36
 70
     1
102
RTVSPost2010Prop37
 90
       50
102
RTVSPost2010PropOp37
 70
     1
102
RTVSPost2010Prop38
140
0.0
102
RTVSPost2010PropOp38
 70
     1
102
RTVSPost2010Prop39
140
1.0
102
RTVSPost2010PropOp39
 70
     1
102
RTVSPost2010Prop40
 90
        0
102
RTVSPost2010PropOp40
 70
     1
102
RTVSPost2010Prop41ColorIndex
 90
       18
102
RTVSPost2010Prop41ColorRGB
 90
        0
102
RTVSPost2010PropOp41
 70
     1
102
RTVSPost2010Prop42
 90
       50
102
RTVSPost2010PropOp42
 70
     1
102
RTVSPost2010Prop43
 90
        3
102
RTVSPost2010PropOp43
 70
     1
102
RTVSPost2010Prop44ColorIndex
 90
        5
102
RTVSPost2010Prop44ColorRGB
 90
      255
102
RTVSPost2010PropOp44
 70
     1
102
RTVSPost2010Prop45
280
     0
102
RTVSPost2010PropOp45
 70
     1
102
RTVSPost2010Prop46
 90
       50
102
RTVSPost2010PropOp46
 70
     1
102
RTVSPost2010Prop47
 90
       50
102
RTVSPost2010PropOp47
 70
     1
102
RTVSPost2010Prop48
 90
       50
102
RTVSPost2010PropOp48
 70
     1
102
RTVSPost2010Prop49
280
     0
102
RTVSPost2010PropOp49
 70
     1
102
RTVSPost2010Prop50
 90
       50
102
RTVSPost2010PropOp50
 70
     1
102
RTVSPost2010Prop51ColorIndex
 90
      256
102
RTVSPost2010Prop51ColorRGB
 90
-16777216
102
RTVSPost2010PropOp51
 70
     0
102
RTVSPost2010Prop52
140
1.0
102
RTVSPost2010PropOp52
 70
     0
102
RTVSPost2010Prop53
 90
        2
102
RTVSPost2010PropOp53
 70
     1
102
RTVSPost2010Prop54
  1
strokes_ogs.tif
102
RTVSPost2010PropOp54
 70
     1
102
RTVSPost2010Prop55
280
     0
102
RTVSPost2010PropOp55
 70
     1
102
RTVSPost2010Prop56
140
1.0
102
RTVSPost2010PropOp56
 70
     1
102
RTVSPost2010Prop57
140
1.0
102
RTVSPost2010PropOp57
 70
     1
102
RTVSPropertyOp0
 70
     1
102
RTVSPropertyOp1
 70
     1
102
RTVSPropertyOp2
 70
     1
102
RTVSPropertyOp3
 70
     1
102
RTVSPropertyOp4
 70
     1
102
RTVSPropertyOp5
 70
     1
102
RTVSPropertyOp6
 70
     1
102
RTVSPropertyOp7
 70
     1
102
RTVSPropertyOp8
 70
     1
102
RTVSPropertyOp9
 70
     1
102
RTVSPropertyOp10
 70
     1
102
RTVSPropertyOp11
 70
     1
102
RTVSPropertyOp12
 70
     1
102
RTVSPropertyOp13
 70
     1
102
RTVSPropertyOp14
 70
     1
102
RTVSPropertyOp15
 70
     1
102
RTVSPropertyOp16
 70
     1
102
RTVSPropertyOp17
 70
     1
102
RTVSPropertyOp18
 70
     1
102
RTVSPropertyOp19
 70
     1
102
RTVSPropertyOp20
 70
     1
102
RTVSPropertyOp21
 70
     1
102
RTVSPropertyOp22
 70
     1
102
RTVSPropertyOp23
 70
     1
102
RTVSPropertyOp24
 70
     1
102
RTVSPropertyOp25
 70
     1
102
RTVSPropertyOp26
 70
     1
102
RTVSPropertyOp27
 70
     1
102
RTVSPropertyOp28
 70
     1
102
RTVSPropertyOp29
 70
     1
102
RTVSPropertyOp30
 70
     1
102
RTVSPropertyOp31
 70
     1
102
RTVSPropertyOp32
 70
     1
102
RTVSPropertyOp33
 70
     1
102
RTVSPropertyOp34
 70
     1
102
RTVSPropertyOp35
 70
     1
102
RTVSPropertyOp36
 70
     1
102
RTVSPropertyOp37
 70
     1
102
RTVSPropertyOp38
 70
     1
102
RTVSPropertyOp39
 70
     1
102
RTVSPropertyOp40
 70
     1
102
RTVSPropertyOp41
 70
     1
102
RTVSPropertyOp42
 70
     1
102
RTVSPropertyOp43
 70
     1
102
RTVSPropertyOp44
 70
     1
102
RTVSPropertyOp45
 70
     1
102
RTVSPropertyOp46
 70
     1
102
RTVSPropertyOp47
 70
     1
102
RTVSPropertyOp48
 70
     1
102
RTVSPropertyOp49
 70
     1
102
RTVSPropertyOp50
 70
     1
102
RTVSPropertyOp51
 70
     0
102
RTVSPropertyOp52
 70
     0
102
RTVSPropertyOp53
 70
     1
102
RTVSPropertyOp54
 70
     1
102
RTVSPropertyOp55
 70
     1
102
RTVSPropertyOp56
 70
     1
102
RTVSPropertyOp57
 70
     1
102
RTVSPropertyOp58
 70
     1
102
RTVSPropertyOp59
 70
     1
102
RTVSPropertyOp60
 70
     1
102
RTVSPropertyOp61
 70
     1
102
RTVSPropertyOp62
 70
     1
  0
XRECORD
  5
415
102
{ACAD_REACTORS
330
414
102
}
330
414
100
AcDbXrecord
280
     1
102
RTVSPost2010Prop28
280
     0
102
RTVSPost2010PropOp28
 70
     1
102
RTVSPost2010Prop29
280
     1
102
RTVSPost2010PropOp29
 70
     1
102
RTVSPost2010Prop30
280
     1
102
RTVSPost2010PropOp30
 70
     1
102
RTVSPost2010Prop31
280
     0
102
RTVSPost2010PropOp31
 70
     1
102
RTVSPost2010Prop32
280
     0
102
RTVSPost2010PropOp32
 70
     1
102
RTVSPost2010Prop33
280
     0
102
RTVSPost2010PropOp33
 70
     1
102
RTVSPost2010Prop34
280
     0
102
RTVSPost2010PropOp34
 70
     1
102
RTVSPost2010Prop35
280
     0
102
RTVSPost2010PropOp35
 70
     1
102
RTVSPost2010Prop36
280
     0
102
RTVSPost2010PropOp36
 70
     1
102
RTVSPost2010Prop37
 90
       50
102
RTVSPost2010PropOp37
 70
     1
102
RTVSPost2010Prop38
140
0.0
102
RTVSPost2010PropOp38
 70
     1
102
RTVSPost2010Prop39
140
1.0
102
RTVSPost2010PropOp39
 70
     1
102
RTVSPost2010Prop40
 90
        0
102
RTVSPost2010PropOp40
 70
     1
102
RTVSPost2010Prop41ColorIndex
 90
       18
102
RTVSPost2010Prop41ColorRGB
 90
        0
102
RTVSPost2010PropOp41
 70
     1
102
RTVSPost2010Prop42
 90
       50
102
RTVSPost2010PropOp42
 70
     1
102
RTVSPost2010Prop43
 90
        3
102
RTVSPost2010PropOp43
 70
     1
102
RTVSPost2010Prop44ColorIndex
 90
        5
102
RTVSPost2010Prop44ColorRGB
 90
      255
102
RTVSPost2010PropOp44
 70
     1
102
RTVSPost2010Prop45
280
     0
102
RTVSPost2010PropOp45
 70
     1
102
RTVSPost2010Prop46
 90
       50
102
RTVSPost2010PropOp46
 70
     1
102
RTVSPost2010Prop47
 90
       50
102
RTVSPost2010PropOp47
 70
     1
102
RTVSPost2010Prop48
 90
       50
102
RTVSPost2010PropOp48
 70
     1
102
RTVSPost2010Prop49
280
     0
102
RTVSPost2010PropOp49
 70
     1
102
RTVSPost2010Prop50
 90
       50
102
RTVSPost2010PropOp50
 70
     1
102
RTVSPost2010Prop51ColorIndex
 90
      256
102
RTVSPost2010Prop51ColorRGB
 90
-16777216
102
RTVSPost2010PropOp51
 70
     0
102
RTVSPost2010Prop52
140
1.0
102
RTVSPost2010PropOp52
 70
     0
102
RTVSPost2010Prop53
 90
        2
102
RTVSPost2010PropOp53
 70
     1
102
RTVSPost2010Prop54
  1
strokes_ogs.tif
102
RTVSPost2010PropOp54
 70
     1
102
RTVSPost2010Prop55
280
     0
102
RTVSPost2010PropOp55
 70
     1
102
RTVSPost2010Prop56
140
1.0
102
RTVSPost2010PropOp56
 70
     1
102
RTVSPost2010Prop57
140
1.0
102
RTVSPost2010PropOp57
 70
     1
102
RTVSPropertyOp0
 70
     1
102
RTVSPropertyOp1
 70
     1
102
RTVSPropertyOp2
 70
     1
102
RTVSPropertyOp3
 70
     1
102
RTVSPropertyOp4
 70
     1
102
RTVSPropertyOp5
 70
     1
102
RTVSPropertyOp6
 70
     1
102
RTVSPropertyOp7
 70
     1
102
RTVSPropertyOp8
 70
     1
102
RTVSPropertyOp9
 70
     1
102
RTVSPropertyOp10
 70
     1
102
RTVSPropertyOp11
 70
     1
102
RTVSPropertyOp12
 70
     1
102
RTVSPropertyOp13
 70
     1
102
RTVSPropertyOp14
 70
     1
102
RTVSPropertyOp15
 70
     1
102
RTVSPropertyOp16
 70
     1
102
RTVSPropertyOp17
 70
     1
102
RTVSPropertyOp18
 70
     1
102
RTVSPropertyOp19
 70
     1
102
RTVSPropertyOp20
 70
     1
102
RTVSPropertyOp21
 70
     1
102
RTVSPropertyOp22
 70
     1
102
RTVSPropertyOp23
 70
     1
102
RTVSPropertyOp24
 70
     1
102
RTVSPropertyOp25
 70
     1
102
RTVSPropertyOp26
 70
     1
102
RTVSPropertyOp27
 70
     1
102
RTVSPropertyOp28
 70
     1
102
RTVSPropertyOp29
 70
     1
102
RTVSPropertyOp30
 70
     1
102
RTVSPropertyOp31
 70
     1
102
RTVSPropertyOp32
 70
     1
102
RTVSPropertyOp33
 70
     1
102
RTVSPropertyOp34
 70
     1
102
RTVSPropertyOp35
 70
     1
102
RTVSPropertyOp36
 70
     1
102
RTVSPropertyOp37
 70
     1
102
RTVSPropertyOp38
 70
     1
102
RTVSPropertyOp39
 70
     1
102
RTVSPropertyOp40
 70
     1
102
RTVSPropertyOp41
 70
     1
102
RTVSPropertyOp42
 70
     1
102
RTVSPropertyOp43
 70
     1
102
RTVSPropertyOp44
 70
     1
102
RTVSPropertyOp45
 70
     1
102
RTVSPropertyOp46
 70
     1
102
RTVSPropertyOp47
 70
     1
102
RTVSPropertyOp48
 70
     1
102
RTVSPropertyOp49
 70
     1
102
RTVSPropertyOp50
 70
     1
102
RTVSPropertyOp51
 70
     0
102
RTVSPropertyOp52
 70
     0
102
RTVSPropertyOp53
 70
     1
102
RTVSPropertyOp54
 70
     1
102
RTVSPropertyOp55
 70
     1
102
RTVSPropertyOp56
 70
     1
102
RTVSPropertyOp57
 70
     1
102
RTVSPropertyOp58
 70
     1
102
RTVSPropertyOp59
 70
     1
102
RTVSPropertyOp60
 70
     1
102
RTVSPropertyOp61
 70
     1
102
RTVSPropertyOp62
 70
     1
  0
XRECORD
  5
40F
102
{ACAD_REACTORS
330
40E
102
}
330
40E
100
AcDbXrecord
280
     1
102
RTVSPost2010Prop28
280
     0
102
RTVSPost2010PropOp28
 70
     1
102
RTVSPost2010Prop29
280
     1
102
RTVSPost2010PropOp29
 70
     1
102
RTVSPost2010Prop30
280
     1
102
RTVSPost2010PropOp30
 70
     1
102
RTVSPost2010Prop31
280
     0
102
RTVSPost2010PropOp31
 70
     1
102
RTVSPost2010Prop32
280
     0
102
RTVSPost2010PropOp32
 70
     1
102
RTVSPost2010Prop33
280
     0
102
RTVSPost2010PropOp33
 70
     1
102
RTVSPost2010Prop34
280
     0
102
RTVSPost2010PropOp34
 70
     1
102
RTVSPost2010Prop35
280
     0
102
RTVSPost2010PropOp35
 70
     1
102
RTVSPost2010Prop36
280
     0
102
RTVSPost2010PropOp36
 70
     1
102
RTVSPost2010Prop37
 90
       50
102
RTVSPost2010PropOp37
 70
     1
102
RTVSPost2010Prop38
140
0.0
102
RTVSPost2010PropOp38
 70
     1
102
RTVSPost2010Prop39
140
1.0
102
RTVSPost2010PropOp39
 70
     1
102
RTVSPost2010Prop40
 90
        0
102
RTVSPost2010PropOp40
 70
     1
102
RTVSPost2010Prop41ColorIndex
 90
       18
102
RTVSPost2010Prop41ColorRGB
 90
        0
102
RTVSPost2010PropOp41
 70
     1
102
RTVSPost2010Prop42
 90
       50
102
RTVSPost2010PropOp42
 70
     1
102
RTVSPost2010Prop43
 90
        3
102
RTVSPost2010PropOp43
 70
     1
102
RTVSPost2010Prop44ColorIndex
 90
        5
102
RTVSPost2010Prop44ColorRGB
 90
      255
102
RTVSPost2010PropOp44
 70
     1
102
RTVSPost2010Prop45
280
     0
102
RTVSPost2010PropOp45
 70
     1
102
RTVSPost2010Prop46
 90
       50
102
RTVSPost2010PropOp46
 70
     1
102
RTVSPost2010Prop47
 90
       50
102
RTVSPost2010PropOp47
 70
     1
102
RTVSPost2010Prop48
 90
       50
102
RTVSPost2010PropOp48
 70
     1
102
RTVSPost2010Prop49
280
     0
102
RTVSPost2010PropOp49
 70
     1
102
RTVSPost2010Prop50
 90
       50
102
RTVSPost2010PropOp50
 70
     1
102
RTVSPost2010Prop51ColorIndex
 90
      256
102
RTVSPost2010Prop51ColorRGB
 90
-16777216
102
RTVSPost2010PropOp51
 70
     0
102
RTVSPost2010Prop52
140
1.0
102
RTVSPost2010PropOp52
 70
     0
102
RTVSPost2010Prop53
 90
        2
102
RTVSPost2010PropOp53
 70
     1
102
RTVSPost2010Prop54
  1
strokes_ogs.tif
102
RTVSPost2010PropOp54
 70
     1
102
RTVSPost2010Prop55
280
     0
102
RTVSPost2010PropOp55
 70
     1
102
RTVSPost2010Prop56
140
1.0
102
RTVSPost2010PropOp56
 70
     1
102
RTVSPost2010Prop57
140
1.0
102
RTVSPost2010PropOp57
 70
     1
102
RTVSPropertyOp0
 70
     1
102
RTVSPropertyOp1
 70
     1
102
RTVSPropertyOp2
 70
     1
102
RTVSPropertyOp3
 70
     1
102
RTVSPropertyOp4
 70
     1
102
RTVSPropertyOp5
 70
     1
102
RTVSPropertyOp6
 70
     1
102
RTVSPropertyOp7
 70
     1
102
RTVSPropertyOp8
 70
     1
102
RTVSPropertyOp9
 70
     1
102
RTVSPropertyOp10
 70
     1
102
RTVSPropertyOp11
 70
     1
102
RTVSPropertyOp12
 70
     1
102
RTVSPropertyOp13
 70
     1
102
RTVSPropertyOp14
 70
     1
102
RTVSPropertyOp15
 70
     1
102
RTVSPropertyOp16
 70
     1
102
RTVSPropertyOp17
 70
     1
102
RTVSPropertyOp18
 70
     1
102
RTVSPropertyOp19
 70
     1
102
RTVSPropertyOp20
 70
     1
102
RTVSPropertyOp21
 70
     1
102
RTVSPropertyOp22
 70
     1
102
RTVSPropertyOp23
 70
     1
102
RTVSPropertyOp24
 70
     1
102
RTVSPropertyOp25
 70
     1
102
RTVSPropertyOp26
 70
     1
102
RTVSPropertyOp27
 70
     1
102
RTVSPropertyOp28
 70
     1
102
RTVSPropertyOp29
 70
     1
102
RTVSPropertyOp30
 70
     1
102
RTVSPropertyOp31
 70
     1
102
RTVSPropertyOp32
 70
     1
102
RTVSPropertyOp33
 70
     1
102
RTVSPropertyOp34
 70
     1
102
RTVSPropertyOp35
 70
     1
102
RTVSPropertyOp36
 70
     1
102
RTVSPropertyOp37
 70
     1
102
RTVSPropertyOp38
 70
     1
102
RTVSPropertyOp39
 70
     1
102
RTVSPropertyOp40
 70
     1
102
RTVSPropertyOp41
 70
     1
102
RTVSPropertyOp42
 70
     1
102
RTVSPropertyOp43
 70
     1
102
RTVSPropertyOp44
 70
     1
102
RTVSPropertyOp45
 70
     1
102
RTVSPropertyOp46
 70
     1
102
RTVSPropertyOp47
 70
     1
102
RTVSPropertyOp48
 70
     1
102
RTVSPropertyOp49
 70
     1
102
RTVSPropertyOp50
 70
     1
102
RTVSPropertyOp51
 70
     0
102
RTVSPropertyOp52
 70
     0
102
RTVSPropertyOp53
 70
     1
102
RTVSPropertyOp54
 70
     1
102
RTVSPropertyOp55
 70
     1
102
RTVSPropertyOp56
 70
     1
102
RTVSPropertyOp57
 70
     1
102
RTVSPropertyOp58
 70
     1
102
RTVSPropertyOp59
 70
     1
102
RTVSPropertyOp60
 70
     1
102
RTVSPropertyOp61
 70
     1
102
RTVSPropertyOp62
 70
     1
  0
XRECORD
  5
411
102
{ACAD_REACTORS
330
410
102
}
330
410
100
AcDbXrecord
280
     1
102
RTVSPost2010Prop28
280
     0
102
RTVSPost2010PropOp28
 70
     1
102
RTVSPost2010Prop29
280
     1
102
RTVSPost2010PropOp29
 70
     1
102
RTVSPost2010Prop30
280
     1
102
RTVSPost2010PropOp30
 70
     1
102
RTVSPost2010Prop31
280
     0
102
RTVSPost2010PropOp31
 70
     1
102
RTVSPost2010Prop32
280
     0
102
RTVSPost2010PropOp32
 70
     1
102
RTVSPost2010Prop33
280
     0
102
RTVSPost2010PropOp33
 70
     1
102
RTVSPost2010Prop34
280
     0
102
RTVSPost2010PropOp34
 70
     1
102
RTVSPost2010Prop35
280
     0
102
RTVSPost2010PropOp35
 70
     1
102
RTVSPost2010Prop36
280
     0
102
RTVSPost2010PropOp36
 70
     1
102
RTVSPost2010Prop37
 90
       50
102
RTVSPost2010PropOp37
 70
     1
102
RTVSPost2010Prop38
140
0.0
102
RTVSPost2010PropOp38
 70
     1
102
RTVSPost2010Prop39
140
1.0
102
RTVSPost2010PropOp39
 70
     1
102
RTVSPost2010Prop40
 90
        0
102
RTVSPost2010PropOp40
 70
     1
102
RTVSPost2010Prop41ColorIndex
 90
       18
102
RTVSPost2010Prop41ColorRGB
 90
        0
102
RTVSPost2010PropOp41
 70
     1
102
RTVSPost2010Prop42
 90
       50
102
RTVSPost2010PropOp42
 70
     1
102
RTVSPost2010Prop43
 90
        3
102
RTVSPost2010PropOp43
 70
     1
102
RTVSPost2010Prop44ColorIndex
 90
        5
102
RTVSPost2010Prop44ColorRGB
 90
      255
102
RTVSPost2010PropOp44
 70
     1
102
RTVSPost2010Prop45
280
     0
102
RTVSPost2010PropOp45
 70
     1
102
RTVSPost2010Prop46
 90
       50
102
RTVSPost2010PropOp46
 70
     1
102
RTVSPost2010Prop47
 90
       50
102
RTVSPost2010PropOp47
 70
     1
102
RTVSPost2010Prop48
 90
       50
102
RTVSPost2010PropOp48
 70
     1
102
RTVSPost2010Prop49
280
     0
102
RTVSPost2010PropOp49
 70
     1
102
RTVSPost2010Prop50
 90
       50
102
RTVSPost2010PropOp50
 70
     1
102
RTVSPost2010Prop51ColorIndex
 90
      256
102
RTVSPost2010Prop51ColorRGB
 90
-16777216
102
RTVSPost2010PropOp51
 70
     0
102
RTVSPost2010Prop52
140
1.0
102
RTVSPost2010PropOp52
 70
     0
102
RTVSPost2010Prop53
 90
        2
102
RTVSPost2010PropOp53
 70
     1
102
RTVSPost2010Prop54
  1
strokes_ogs.tif
102
RTVSPost2010PropOp54
 70
     1
102
RTVSPost2010Prop55
280
     0
102
RTVSPost2010PropOp55
 70
     1
102
RTVSPost2010Prop56
140
1.0
102
RTVSPost2010PropOp56
 70
     1
102
RTVSPost2010Prop57
140
1.0
102
RTVSPost2010PropOp57
 70
     1
102
RTVSPropertyOp0
 70
     1
102
RTVSPropertyOp1
 70
     1
102
RTVSPropertyOp2
 70
     1
102
RTVSPropertyOp3
 70
     1
102
RTVSPropertyOp4
 70
     1
102
RTVSPropertyOp5
 70
     1
102
RTVSPropertyOp6
 70
     1
102
RTVSPropertyOp7
 70
     1
102
RTVSPropertyOp8
 70
     1
102
RTVSPropertyOp9
 70
     1
102
RTVSPropertyOp10
 70
     1
102
RTVSPropertyOp11
 70
     1
102
RTVSPropertyOp12
 70
     1
102
RTVSPropertyOp13
 70
     1
102
RTVSPropertyOp14
 70
     1
102
RTVSPropertyOp15
 70
     1
102
RTVSPropertyOp16
 70
     1
102
RTVSPropertyOp17
 70
     1
102
RTVSPropertyOp18
 70
     1
102
RTVSPropertyOp19
 70
     1
102
RTVSPropertyOp20
 70
     1
102
RTVSPropertyOp21
 70
     1
102
RTVSPropertyOp22
 70
     1
102
RTVSPropertyOp23
 70
     1
102
RTVSPropertyOp24
 70
     1
102
RTVSPropertyOp25
 70
     1
102
RTVSPropertyOp26
 70
     1
102
RTVSPropertyOp27
 70
     1
102
RTVSPropertyOp28
 70
     1
102
RTVSPropertyOp29
 70
     1
102
RTVSPropertyOp30
 70
     1
102
RTVSPropertyOp31
 70
     1
102
RTVSPropertyOp32
 70
     1
102
RTVSPropertyOp33
 70
     1
102
RTVSPropertyOp34
 70
     1
102
RTVSPropertyOp35
 70
     1
102
RTVSPropertyOp36
 70
     1
102
RTVSPropertyOp37
 70
     1
102
RTVSPropertyOp38
 70
     1
102
RTVSPropertyOp39
 70
     1
102
RTVSPropertyOp40
 70
     1
102
RTVSPropertyOp41
 70
     1
102
RTVSPropertyOp42
 70
     1
102
RTVSPropertyOp43
 70
     1
102
RTVSPropertyOp44
 70
     1
102
RTVSPropertyOp45
 70
     1
102
RTVSPropertyOp46
 70
     1
102
RTVSPropertyOp47
 70
     1
102
RTVSPropertyOp48
 70
     1
102
RTVSPropertyOp49
 70
     1
102
RTVSPropertyOp50
 70
     1
102
RTVSPropertyOp51
 70
     0
102
RTVSPropertyOp52
 70
     0
102
RTVSPropertyOp53
 70
     1
102
RTVSPropertyOp54
 70
     1
102
RTVSPropertyOp55
 70
     1
102
RTVSPropertyOp56
 70
     1
102
RTVSPropertyOp57
 70
     1
102
RTVSPropertyOp58
 70
     1
102
RTVSPropertyOp59
 70
     1
102
RTVSPropertyOp60
 70
     1
102
RTVSPropertyOp61
 70
     1
102
RTVSPropertyOp62
 70
     1
  0
XRECORD
  5
407
102
{ACAD_REACTORS
330
406
102
}
330
406
100
AcDbXrecord
280
     1
102
RTVSPost2010Prop28
280
     0
102
RTVSPost2010PropOp28
 70
     1
102
RTVSPost2010Prop29
280
     1
102
RTVSPost2010PropOp29
 70
     1
102
RTVSPost2010Prop30
280
     1
102
RTVSPost2010PropOp30
 70
     1
102
RTVSPost2010Prop31
280
     0
102
RTVSPost2010PropOp31
 70
     1
102
RTVSPost2010Prop32
280
     0
102
RTVSPost2010PropOp32
 70
     1
102
RTVSPost2010Prop33
280
     0
102
RTVSPost2010PropOp33
 70
     1
102
RTVSPost2010Prop34
280
     0
102
RTVSPost2010PropOp34
 70
     1
102
RTVSPost2010Prop35
280
     0
102
RTVSPost2010PropOp35
 70
     1
102
RTVSPost2010Prop36
280
     0
102
RTVSPost2010PropOp36
 70
     1
102
RTVSPost2010Prop37
 90
       50
102
RTVSPost2010PropOp37
 70
     1
102
RTVSPost2010Prop38
140
0.0
102
RTVSPost2010PropOp38
 70
     1
102
RTVSPost2010Prop39
140
1.0
102
RTVSPost2010PropOp39
 70
     1
102
RTVSPost2010Prop40
 90
        0
102
RTVSPost2010PropOp40
 70
     1
102
RTVSPost2010Prop41ColorIndex
 90
       18
102
RTVSPost2010Prop41ColorRGB
 90
        0
102
RTVSPost2010PropOp41
 70
     1
102
RTVSPost2010Prop42
 90
       50
102
RTVSPost2010PropOp42
 70
     1
102
RTVSPost2010Prop43
 90
        3
102
RTVSPost2010PropOp43
 70
     1
102
RTVSPost2010Prop44ColorIndex
 90
        5
102
RTVSPost2010Prop44ColorRGB
 90
      255
102
RTVSPost2010PropOp44
 70
     1
102
RTVSPost2010Prop45
280
     0
102
RTVSPost2010PropOp45
 70
     1
102
RTVSPost2010Prop46
 90
       50
102
RTVSPost2010PropOp46
 70
     1
102
RTVSPost2010Prop47
 90
       50
102
RTVSPost2010PropOp47
 70
     1
102
RTVSPost2010Prop48
 90
       50
102
RTVSPost2010PropOp48
 70
     1
102
RTVSPost2010Prop49
280
     0
102
RTVSPost2010PropOp49
 70
     1
102
RTVSPost2010Prop50
 90
       50
102
RTVSPost2010PropOp50
 70
     1
102
RTVSPost2010Prop51ColorIndex
 90
      256
102
RTVSPost2010Prop51ColorRGB
 90
-16777216
102
RTVSPost2010PropOp51
 70
     0
102
RTVSPost2010Prop52
140
1.0
102
RTVSPost2010PropOp52
 70
     0
102
RTVSPost2010Prop53
 90
        2
102
RTVSPost2010PropOp53
 70
     1
102
RTVSPost2010Prop54
  1
strokes_ogs.tif
102
RTVSPost2010PropOp54
 70
     1
102
RTVSPost2010Prop55
280
     0
102
RTVSPost2010PropOp55
 70
     1
102
RTVSPost2010Prop56
140
1.0
102
RTVSPost2010PropOp56
 70
     1
102
RTVSPost2010Prop57
140
1.0
102
RTVSPost2010PropOp57
 70
     1
102
RTVSPropertyOp0
 70
     1
102
RTVSPropertyOp1
 70
     1
102
RTVSPropertyOp2
 70
     1
102
RTVSPropertyOp3
 70
     1
102
RTVSPropertyOp4
 70
     1
102
RTVSPropertyOp5
 70
     1
102
RTVSPropertyOp6
 70
     1
102
RTVSPropertyOp7
 70
     1
102
RTVSPropertyOp8
 70
     1
102
RTVSPropertyOp9
 70
     1
102
RTVSPropertyOp10
 70
     1
102
RTVSPropertyOp11
 70
     1
102
RTVSPropertyOp12
 70
     1
102
RTVSPropertyOp13
 70
     1
102
RTVSPropertyOp14
 70
     1
102
RTVSPropertyOp15
 70
     1
102
RTVSPropertyOp16
 70
     1
102
RTVSPropertyOp17
 70
     1
102
RTVSPropertyOp18
 70
     1
102
RTVSPropertyOp19
 70
     1
102
RTVSPropertyOp20
 70
     1
102
RTVSPropertyOp21
 70
     1
102
RTVSPropertyOp22
 70
     1
102
RTVSPropertyOp23
 70
     1
102
RTVSPropertyOp24
 70
     1
102
RTVSPropertyOp25
 70
     1
102
RTVSPropertyOp26
 70
     1
102
RTVSPropertyOp27
 70
     1
102
RTVSPropertyOp28
 70
     1
102
RTVSPropertyOp29
 70
     1
102
RTVSPropertyOp30
 70
     1
102
RTVSPropertyOp31
 70
     1
102
RTVSPropertyOp32
 70
     1
102
RTVSPropertyOp33
 70
     1
102
RTVSPropertyOp34
 70
     1
102
RTVSPropertyOp35
 70
     1
102
RTVSPropertyOp36
 70
     1
102
RTVSPropertyOp37
 70
     1
102
RTVSPropertyOp38
 70
     1
102
RTVSPropertyOp39
 70
     1
102
RTVSPropertyOp40
 70
     1
102
RTVSPropertyOp41
 70
     1
102
RTVSPropertyOp42
 70
     1
102
RTVSPropertyOp43
 70
     1
102
RTVSPropertyOp44
 70
     1
102
RTVSPropertyOp45
 70
     1
102
RTVSPropertyOp46
 70
     1
102
RTVSPropertyOp47
 70
     1
102
RTVSPropertyOp48
 70
     1
102
RTVSPropertyOp49
 70
     1
102
RTVSPropertyOp50
 70
     1
102
RTVSPropertyOp51
 70
     0
102
RTVSPropertyOp52
 70
     0
102
RTVSPropertyOp53
 70
     1
102
RTVSPropertyOp54
 70
     1
102
RTVSPropertyOp55
 70
     1
102
RTVSPropertyOp56
 70
     1
102
RTVSPropertyOp57
 70
     1
102
RTVSPropertyOp58
 70
     1
102
RTVSPropertyOp59
 70
     1
102
RTVSPropertyOp60
 70
     1
102
RTVSPropertyOp61
 70
     1
102
RTVSPropertyOp62
 70
     1
  0
XRECORD
  5
3FB
102
{ACAD_REACTORS
330
3FA
102
}
330
3FA
100
AcDbXrecord
280
     1
102
RTVSPost2010Prop28
280
     0
102
RTVSPost2010PropOp28
 70
     1
102
RTVSPost2010Prop29
280
     1
102
RTVSPost2010PropOp29
 70
     1
102
RTVSPost2010Prop30
280
     1
102
RTVSPost2010PropOp30
 70
     1
102
RTVSPost2010Prop31
280
     0
102
RTVSPost2010PropOp31
 70
     1
102
RTVSPost2010Prop32
280
     0
102
RTVSPost2010PropOp32
 70
     1
102
RTVSPost2010Prop33
280
     0
102
RTVSPost2010PropOp33
 70
     1
102
RTVSPost2010Prop34
280
     0
102
RTVSPost2010PropOp34
 70
     1
102
RTVSPost2010Prop35
280
     0
102
RTVSPost2010PropOp35
 70
     1
102
RTVSPost2010Prop36
280
     0
102
RTVSPost2010PropOp36
 70
     1
102
RTVSPost2010Prop37
 90
       50
102
RTVSPost2010PropOp37
 70
     1
102
RTVSPost2010Prop38
140
0.0
102
RTVSPost2010PropOp38
 70
     1
102
RTVSPost2010Prop39
140
1.0
102
RTVSPost2010PropOp39
 70
     1
102
RTVSPost2010Prop40
 90
        0
102
RTVSPost2010PropOp40
 70
     1
102
RTVSPost2010Prop41ColorIndex
 90
       18
102
RTVSPost2010Prop41ColorRGB
 90
        0
102
RTVSPost2010PropOp41
 70
     1
102
RTVSPost2010Prop42
 90
       50
102
RTVSPost2010PropOp42
 70
     1
102
RTVSPost2010Prop43
 90
        3
102
RTVSPost2010PropOp43
 70
     1
102
RTVSPost2010Prop44ColorIndex
 90
        5
102
RTVSPost2010Prop44ColorRGB
 90
      255
102
RTVSPost2010PropOp44
 70
     1
102
RTVSPost2010Prop45
280
     0
102
RTVSPost2010PropOp45
 70
     1
102
RTVSPost2010Prop46
 90
       50
102
RTVSPost2010PropOp46
 70
     1
102
RTVSPost2010Prop47
 90
       50
102
RTVSPost2010PropOp47
 70
     1
102
RTVSPost2010Prop48
 90
       50
102
RTVSPost2010PropOp48
 70
     1
102
RTVSPost2010Prop49
280
     0
102
RTVSPost2010PropOp49
 70
     1
102
RTVSPost2010Prop50
 90
       50
102
RTVSPost2010PropOp50
 70
     1
102
RTVSPost2010Prop51ColorIndex
 90
      256
102
RTVSPost2010Prop51ColorRGB
 90
-16777216
102
RTVSPost2010PropOp51
 70
     0
102
RTVSPost2010Prop52
140
1.0
102
RTVSPost2010PropOp52
 70
     0
102
RTVSPost2010Prop53
 90
        2
102
RTVSPost2010PropOp53
 70
     1
102
RTVSPost2010Prop54
  1
strokes_ogs.tif
102
RTVSPost2010PropOp54
 70
     1
102
RTVSPost2010Prop55
280
     0
102
RTVSPost2010PropOp55
 70
     1
102
RTVSPost2010Prop56
140
1.0
102
RTVSPost2010PropOp56
 70
     1
102
RTVSPost2010Prop57
140
1.0
102
RTVSPost2010PropOp57
 70
     1
102
RTVSPropertyOp0
 70
     1
102
RTVSPropertyOp1
 70
     1
102
RTVSPropertyOp2
 70
     1
102
RTVSPropertyOp3
 70
     1
102
RTVSPropertyOp4
 70
     1
102
RTVSPropertyOp5
 70
     1
102
RTVSPropertyOp6
 70
     1
102
RTVSPropertyOp7
 70
     1
102
RTVSPropertyOp8
 70
     1
102
RTVSPropertyOp9
 70
     1
102
RTVSPropertyOp10
 70
     1
102
RTVSPropertyOp11
 70
     1
102
RTVSPropertyOp12
 70
     1
102
RTVSPropertyOp13
 70
     1
102
RTVSPropertyOp14
 70
     1
102
RTVSPropertyOp15
 70
     1
102
RTVSPropertyOp16
 70
     1
102
RTVSPropertyOp17
 70
     1
102
RTVSPropertyOp18
 70
     1
102
RTVSPropertyOp19
 70
     1
102
RTVSPropertyOp20
 70
     1
102
RTVSPropertyOp21
 70
     1
102
RTVSPropertyOp22
 70
     1
102
RTVSPropertyOp23
 70
     1
102
RTVSPropertyOp24
 70
     1
102
RTVSPropertyOp25
 70
     1
102
RTVSPropertyOp26
 70
     1
102
RTVSPropertyOp27
 70
     1
102
RTVSPropertyOp28
 70
     1
102
RTVSPropertyOp29
 70
     1
102
RTVSPropertyOp30
 70
     1
102
RTVSPropertyOp31
 70
     1
102
RTVSPropertyOp32
 70
     1
102
RTVSPropertyOp33
 70
     1
102
RTVSPropertyOp34
 70
     1
102
RTVSPropertyOp35
 70
     1
102
RTVSPropertyOp36
 70
     1
102
RTVSPropertyOp37
 70
     1
102
RTVSPropertyOp38
 70
     1
102
RTVSPropertyOp39
 70
     1
102
RTVSPropertyOp40
 70
     1
102
RTVSPropertyOp41
 70
     1
102
RTVSPropertyOp42
 70
     1
102
RTVSPropertyOp43
 70
     1
102
RTVSPropertyOp44
 70
     1
102
RTVSPropertyOp45
 70
     1
102
RTVSPropertyOp46
 70
     1
102
RTVSPropertyOp47
 70
     1
102
RTVSPropertyOp48
 70
     1
102
RTVSPropertyOp49
 70
     1
102
RTVSPropertyOp50
 70
     1
102
RTVSPropertyOp51
 70
     0
102
RTVSPropertyOp52
 70
     0
102
RTVSPropertyOp53
 70
     1
102
RTVSPropertyOp54
 70
     1
102
RTVSPropertyOp55
 70
     1
102
RTVSPropertyOp56
 70
     1
102
RTVSPropertyOp57
 70
     1
102
RTVSPropertyOp58
 70
     1
102
RTVSPropertyOp59
 70
     1
102
RTVSPropertyOp60
 70
     1
102
RTVSPropertyOp61
 70
     1
102
RTVSPropertyOp62
 70
     1
  0
XRECORD
  5
413
102
{ACAD_REACTORS
330
412
102
}
330
412
100
AcDbXrecord
280
     1
102
RTVSPost2010Prop28
280
     0
102
RTVSPost2010PropOp28
 70
     1
102
RTVSPost2010Prop29
280
     1
102
RTVSPost2010PropOp29
 70
     1
102
RTVSPost2010Prop30
280
     1
102
RTVSPost2010PropOp30
 70
     1
102
RTVSPost2010Prop31
280
     0
102
RTVSPost2010PropOp31
 70
     1
102
RTVSPost2010Prop32
280
     0
102
RTVSPost2010PropOp32
 70
     1
102
RTVSPost2010Prop33
280
     0
102
RTVSPost2010PropOp33
 70
     1
102
RTVSPost2010Prop34
280
     0
102
RTVSPost2010PropOp34
 70
     1
102
RTVSPost2010Prop35
280
     0
102
RTVSPost2010PropOp35
 70
     1
102
RTVSPost2010Prop36
280
     0
102
RTVSPost2010PropOp36
 70
     1
102
RTVSPost2010Prop37
 90
       50
102
RTVSPost2010PropOp37
 70
     1
102
RTVSPost2010Prop38
140
0.0
102
RTVSPost2010PropOp38
 70
     1
102
RTVSPost2010Prop39
140
1.0
102
RTVSPost2010PropOp39
 70
     1
102
RTVSPost2010Prop40
 90
        0
102
RTVSPost2010PropOp40
 70
     1
102
RTVSPost2010Prop41ColorIndex
 90
       18
102
RTVSPost2010Prop41ColorRGB
 90
        0
102
RTVSPost2010PropOp41
 70
     1
102
RTVSPost2010Prop42
 90
       50
102
RTVSPost2010PropOp42
 70
     1
102
RTVSPost2010Prop43
 90
        3
102
RTVSPost2010PropOp43
 70
     1
102
RTVSPost2010Prop44ColorIndex
 90
        5
102
RTVSPost2010Prop44ColorRGB
 90
      255
102
RTVSPost2010PropOp44
 70
     1
102
RTVSPost2010Prop45
280
     0
102
RTVSPost2010PropOp45
 70
     1
102
RTVSPost2010Prop46
 90
       50
102
RTVSPost2010PropOp46
 70
     1
102
RTVSPost2010Prop47
 90
       50
102
RTVSPost2010PropOp47
 70
     1
102
RTVSPost2010Prop48
 90
       50
102
RTVSPost2010PropOp48
 70
     1
102
RTVSPost2010Prop49
280
     0
102
RTVSPost2010PropOp49
 70
     1
102
RTVSPost2010Prop50
 90
       50
102
RTVSPost2010PropOp50
 70
     1
102
RTVSPost2010Prop51ColorIndex
 90
      256
102
RTVSPost2010Prop51ColorRGB
 90
-16777216
102
RTVSPost2010PropOp51
 70
     0
102
RTVSPost2010Prop52
140
1.0
102
RTVSPost2010PropOp52
 70
     0
102
RTVSPost2010Prop53
 90
        2
102
RTVSPost2010PropOp53
 70
     1
102
RTVSPost2010Prop54
  1
strokes_ogs.tif
102
RTVSPost2010PropOp54
 70
     1
102
RTVSPost2010Prop55
280
     0
102
RTVSPost2010PropOp55
 70
     1
102
RTVSPost2010Prop56
140
1.0
102
RTVSPost2010PropOp56
 70
     1
102
RTVSPost2010Prop57
140
1.0
102
RTVSPost2010PropOp57
 70
     1
102
RTVSPropertyOp0
 70
     1
102
RTVSPropertyOp1
 70
     1
102
RTVSPropertyOp2
 70
     1
102
RTVSPropertyOp3
 70
     1
102
RTVSPropertyOp4
 70
     1
102
RTVSPropertyOp5
 70
     1
102
RTVSPropertyOp6
 70
     1
102
RTVSPropertyOp7
 70
     1
102
RTVSPropertyOp8
 70
     1
102
RTVSPropertyOp9
 70
     1
102
RTVSPropertyOp10
 70
     1
102
RTVSPropertyOp11
 70
     1
102
RTVSPropertyOp12
 70
     1
102
RTVSPropertyOp13
 70
     1
102
RTVSPropertyOp14
 70
     1
102
RTVSPropertyOp15
 70
     1
102
RTVSPropertyOp16
 70
     1
102
RTVSPropertyOp17
 70
     1
102
RTVSPropertyOp18
 70
     1
102
RTVSPropertyOp19
 70
     1
102
RTVSPropertyOp20
 70
     1
102
RTVSPropertyOp21
 70
     1
102
RTVSPropertyOp22
 70
     1
102
RTVSPropertyOp23
 70
     1
102
RTVSPropertyOp24
 70
     1
102
RTVSPropertyOp25
 70
     1
102
RTVSPropertyOp26
 70
     1
102
RTVSPropertyOp27
 70
     1
102
RTVSPropertyOp28
 70
     1
102
RTVSPropertyOp29
 70
     1
102
RTVSPropertyOp30
 70
     1
102
RTVSPropertyOp31
 70
     1
102
RTVSPropertyOp32
 70
     1
102
RTVSPropertyOp33
 70
     1
102
RTVSPropertyOp34
 70
     1
102
RTVSPropertyOp35
 70
     1
102
RTVSPropertyOp36
 70
     1
102
RTVSPropertyOp37
 70
     1
102
RTVSPropertyOp38
 70
     1
102
RTVSPropertyOp39
 70
     1
102
RTVSPropertyOp40
 70
     1
102
RTVSPropertyOp41
 70
     1
102
RTVSPropertyOp42
 70
     1
102
RTVSPropertyOp43
 70
     1
102
RTVSPropertyOp44
 70
     1
102
RTVSPropertyOp45
 70
     1
102
RTVSPropertyOp46
 70
     1
102
RTVSPropertyOp47
 70
     1
102
RTVSPropertyOp48
 70
     1
102
RTVSPropertyOp49
 70
     1
102
RTVSPropertyOp50
 70
     1
102
RTVSPropertyOp51
 70
     0
102
RTVSPropertyOp52
 70
     0
102
RTVSPropertyOp53
 70
     1
102
RTVSPropertyOp54
 70
     1
102
RTVSPropertyOp55
 70
     1
102
RTVSPropertyOp56
 70
     1
102
RTVSPropertyOp57
 70
     1
102
RTVSPropertyOp58
 70
     1
102
RTVSPropertyOp59
 70
     1
102
RTVSPropertyOp60
 70
     1
102
RTVSPropertyOp61
 70
     1
102
RTVSPropertyOp62
 70
     1
  0
ENDSEC
  0
EOF
