  0
SECTION
  2
HEADER
  9
$ACADVER
  1
AC1015
  9
$ACADMAINTVER
 70
    20
  9
$DWGCODEPAGE
  3
ANSI_932
  9
$INSBASE
 10
0.0
 20
0.0
 30
0.0
  9
$EXTMIN
 10
-1350.082391174606
 20
-2014.684977898438
 30
-0.0015258207003583
  9
$EXTMAX
 10
1591.396875
 20
1999.567671355127
 30
0.0000000349246037
  9
$LIMMIN
 10
0.0
 20
0.0
  9
$LIMMAX
 10
0.0
 20
0.0
  9
$ORTHOMODE
 70
     0
  9
$REGENMODE
 70
     1
  9
$FILLMODE
 70
     1
  9
$QTEXTMODE
 70
     0
  9
$MIRRTEXT
 70
     1
  9
$LTSCALE
 40
190.5
  9
$ATTMODE
 70
     1
  9
$TEXTSIZE
 40
0.0
  9
$TRACEWID
 40
1.0
  9
$TEXTSTYLE
  7
STANDARD
  9
$CLAYER
  8
DATA
  9
$CELTYPE
  6
ByLayer
  9
$CECOLOR
 62
   256
  9
$CELTSCALE
 40
1.0
  9
$DISPSILH
 70
     0
  9
$DIMSCALE
 40
1.0
  9
$DIMASZ
 40
0.18
  9
$DIMEXO
 40
0.0625
  9
$DIMDLI
 40
0.38
  9
$DIMRND
 40
0.0
  9
$DIMDLE
 40
0.0
  9
$DIMEXE
 40
0.18
  9
$DIMTP
 40
0.0
  9
$DIMTM
 40
0.0
  9
$DIMTXT
 40
0.18
  9
$DIMCEN
 40
0.09
  9
$DIMTSZ
 40
0.0
  9
$DIMTOL
 70
     0
  9
$DIMLIM
 70
     0
  9
$DIMTIH
 70
     1
  9
$DIMTOH
 70
     1
  9
$DIMSE1
 70
     0
  9
$DIMSE2
 70
     0
  9
$DIMTAD
 70
     0
  9
$DIMZIN
 70
     0
  9
$DIMBLK
  1

  9
$DIMASO
 70
     1
  9
$DIMSHO
 70
     1
  9
$DIMPOST
  1

  9
$DIMAPOST
  1

  9
$DIMALT
 70
     0
  9
$DIMALTD
 70
     2
  9
$DIMALTF
 40
25.4
  9
$DIMLFAC
 40
1.0
  9
$DIMTOFL
 70
     0
  9
$DIMTVP
 40
0.0
  9
$DIMTIX
 70
     0
  9
$DIMSOXD
 70
     0
  9
$DIMSAH
 70
     0
  9
$DIMBLK1
  1

  9
$DIMBLK2
  1

  9
$DIMSTYLE
  2
STANDARD
  9
$DIMCLRD
 70
     0
  9
$DIMCLRE
 70
     0
  9
$DIMCLRT
 70
     0
  9
$DIMTFAC
 40
1.0
  9
$DIMGAP
 40
0.09
  9
$DIMJUST
 70
     0
  9
$DIMSD1
 70
     0
  9
$DIMSD2
 70
     0
  9
$DIMTOLJ
 70
     1
  9
$DIMTZIN
 70
     0
  9
$DIMALTZ
 70
     0
  9
$DIMALTTZ
 70
     0
  9
$DIMUPT
 70
     0
  9
$DIMDEC
 70
     4
  9
$DIMTDEC
 70
     4
  9
$DIMALTU
 70
     2
  9
$DIMALTTD
 70
     2
  9
$DIMTXSTY
  7
STANDARD
  9
$DIMAUNIT
 70
     0
  9
$DIMADEC
 70
     0
  9
$DIMALTRND
 40
0.0
  9
$DIMAZIN
 70
     0
  9
$DIMDSEP
 70
    46
  9
$DIMATFIT
 70
     3
  9
$DIMFRAC
 70
     0
  9
$DIMLDRBLK
  1

  9
$DIMLUNIT
 70
     2
  9
$DIMLWD
 70
    -2
  9
$DIMLWE
 70
    -2
  9
$DIMTMOVE
 70
     0
  9
$LUNITS
 70
     2
  9
$LUPREC
 70
     4
  9
$SKETCHINC
 40
0.1
  9
$FILLETRAD
 40
0.0
  9
$AUNITS
 70
     0
  9
$AUPREC
 70
     0
  9
$MENU
  1
acad
  9
$ELEVATION
 40
0.0
  9
$PELEVATION
 40
0.0
  9
$THICKNESS
 40
0.0
  9
$LIMCHECK
 70
     0
  9
$CHAMFERA
 40
0.0
  9
$CHAMFERB
 40
0.0
  9
$CHAMFERC
 40
0.0
  9
$CHAMFERD
 40
0.0
  9
$SKPOLY
 70
     0
  9
$TDCREATE
 40
2457812.431192130
  9
$TDUCREATE
 40
2457812.056192130
  9
$TDUPDATE
 40
2457812.452453704
  9
$TDUUPDATE
 40
2457812.077453704
  9
$TDINDWG
 40
0.0004861111
  9
$TDUSRTIMER
 40
0.0004861111
  9
$USRTIMER
 70
     1
  9
$ANGBASE
 50
0.0
  9
$ANGDIR
 70
     0
  9
$PDMODE
 70
     1
  9
$PDSIZE
 40
-2.0
  9
$PLINEWID
 40
0.0
  9
$SPLFRAME
 70
     0
  9
$SPLINETYPE
 70
     6
  9
$SPLINESEGS
 70
     8
  9
$HANDSEED
  5
4A4
  9
$SURFTAB1
 70
     6
  9
$SURFTAB2
 70
     6
  9
$SURFTYPE
 70
     6
  9
$SURFU
 70
     6
  9
$SURFV
 70
     6
  9
$UCSBASE
  2

  9
$UCSNAME
  2

  9
$UCSORG
 10
0.0
 20
0.0
 30
0.0
  9
$UCSXDIR
 10
1.0
 20
0.0
 30
0.0
  9
$UCSYDIR
 10
0.0
 20
1.0
 30
0.0
  9
$UCSORTHOREF
  2

  9
$UCSORTHOVIEW
 70
     0
  9
$UCSORGTOP
 10
0.0
 20
0.0
 30
0.0
  9
$UCSORGBOTTOM
 10
0.0
 20
0.0
 30
0.0
  9
$UCSORGLEFT
 10
0.0
 20
0.0
 30
0.0
  9
$UCSORGRIGHT
 10
0.0
 20
0.0
 30
0.0
  9
$UCSORGFRONT
 10
0.0
 20
0.0
 30
0.0
  9
$UCSORGBACK
 10
0.0
 20
0.0
 30
0.0
  9
$PUCSBASE
  2

  9
$PUCSNAME
  2

  9
$PUCSORG
 10
0.0
 20
0.0
 30
0.0
  9
$PUCSXDIR
 10
1.0
 20
0.0
 30
0.0
  9
$PUCSYDIR
 10
0.0
 20
1.0
 30
0.0
  9
$PUCSORTHOREF
  2

  9
$PUCSORTHOVIEW
 70
     0
  9
$PUCSORGTOP
 10
0.0
 20
0.0
 30
0.0
  9
$PUCSORGBOTTOM
 10
0.0
 20
0.0
 30
0.0
  9
$PUCSORGLEFT
 10
0.0
 20
0.0
 30
0.0
  9
$PUCSORGRIGHT
 10
0.0
 20
0.0
 30
0.0
  9
$PUCSORGFRONT
 10
0.0
 20
0.0
 30
0.0
  9
$PUCSORGBACK
 10
0.0
 20
0.0
 30
0.0
  9
$USERI1
 70
     0
  9
$USERI2
 70
     0
  9
$USERI3
 70
     0
  9
$USERI4
 70
     0
  9
$USERI5
 70
     0
  9
$USERR1
 40
0.0
  9
$USERR2
 40
0.0
  9
$USERR3
 40
0.0
  9
$USERR4
 40
0.0
  9
$USERR5
 40
0.0
  9
$WORLDVIEW
 70
     1
  9
$SHADEDGE
 70
     3
  9
$SHADEDIF
 70
    70
  9
$TILEMODE
 70
     1
  9
$MAXACTVP
 70
    64
  9
$PINSBASE
 10
0.0
 20
0.0
 30
0.0
  9
$PLIMCHECK
 70
     0
  9
$PEXTMIN
 10
1.000000000000000E+20
 20
1.000000000000000E+20
 30
1.000000000000000E+20
  9
$PEXTMAX
 10
-1.000000000000000E+20
 20
-1.000000000000000E+20
 30
-1.000000000000000E+20
  9
$PLIMMIN
 10
0.0
 20
0.0
  9
$PLIMMAX
 10
12.0
 20
9.0
  9
$UNITMODE
 70
     0
  9
$VISRETAIN
 70
     0
  9
$PLINEGEN
 70
     1
  9
$PSLTSCALE
 70
     0
  9
$TREEDEPTH
 70
  3020
  9
$CMLSTYLE
  2
Standard
  9
$CMLJUST
 70
     0
  9
$CMLSCALE
 40
1.0
  9
$PROXYGRAPHICS
 70
     1
  9
$MEASUREMENT
 70
     0
  9
$CELWEIGHT
370
    -1
  9
$ENDCAPS
280
     0
  9
$JOINSTYLE
280
     0
  9
$LWDISPLAY
290
     0
  9
$INSUNITS
 70
     0
  9
$HYPERLINKBASE
  1

  9
$STYLESHEET
  1

  9
$XEDIT
290
     1
  9
$CEPSNTYPE
380
     0
  9
$PSTYLEMODE
290
     1
  9
$FINGERPRINTGUID
  2
{53A2A936-7DCC-C24C-8BC4-1EFD1277D6A2}
  9
$VERSIONGUID
  2
{7FECE5A3-00AA-C249-80E6-29C0F85019CA}
  9
$EXTNAMES
290
     1
  9
$PSVPSCALE
 40
0.0
  9
$OLESTARTUP
290
     0
  0
ENDSEC
  0
SECTION
  2
CLASSES
  0
CLASS
  1
ACDBDICTIONARYWDFLT
  2
AcDbDictionaryWithDefault
  3
ObjectDBX Classes
 90
        0
280
     0
281
     0
  0
CLASS
  1
MATERIAL
  2
AcDbMaterial
  3
ObjectDBX Classes
 90
     1153
280
     0
281
     0
  0
CLASS
  1
VISUALSTYLE
  2
AcDbVisualStyle
  3
ObjectDBX Classes
 90
     4095
280
     0
281
     0
  0
CLASS
  1
SCALE
  2
AcDbScale
  3
ObjectDBX Classes
 90
     1153
280
     0
281
     0
  0
CLASS
  1
TABLESTYLE
  2
AcDbTableStyle
  3
ObjectDBX Classes
 90
     4095
280
     0
281
     0
  0
CLASS
  1
MLEADERSTYLE
  2
AcDbMLeaderStyle
  3
ACDB_MLEADERSTYLE_CLASS
 90
     4095
280
     0
281
     0
  0
CLASS
  1
ACDBSECTIONVIEWSTYLE
  2
AcDbSectionViewStyle
  3
ObjectDBX Classes
 90
     1025
280
     0
281
     0
  0
CLASS
  1
ACDBDETAILVIEWSTYLE
  2
AcDbDetailViewStyle
  3
ObjectDBX Classes
 90
     1025
280
     0
281
     0
  0
CLASS
  1
DICTIONARYVAR
  2
AcDbDictionaryVar
  3
ObjectDBX Classes
 90
        0
280
     0
281
     0
  0
CLASS
  1
CELLSTYLEMAP
  2
AcDbCellStyleMap
  3
ObjectDBX Classes
 90
     1152
280
     0
281
     0
  0
CLASS
  1
ACDBPLACEHOLDER
  2
AcDbPlaceHolder
  3
ObjectDBX Classes
 90
        0
280
     0
281
     0
  0
CLASS
  1
LAYOUT
  2
AcDbLayout
  3
ObjectDBX Classes
 90
        0
280
     0
281
     0
  0
ENDSEC
  0
SECTION
  2
TABLES
  0
TABLE
  2
VPORT
  5
3CD
330
0
100
AcDbSymbolTable
 70
     1
  0
VPORT
  5
439
330
3CD
100
AcDbSymbolTableRecord
100
AcDbViewportTableRecord
  2
*ACTIVE
 70
     0
 10
0.0
 20
0.0
 11
1.0
 21
1.0
 12
0.0000062864278334
 22
-3.531805672908376
 13
0.0
 23
0.0
 14
1.0
 24
1.0
 15
0.0
 25
0.0
 16
0.0
 26
0.0
 36
1.0
 17
0.0
 27
0.0
 37
0.0
 40
4028.496907418165
 41
2.358402971216341
 42
50.0
 43
0.0
 44
0.0
 50
0.0
 51
0.0
 71
     0
 72
  2000
 73
     1
 74
     1
 75
     0
 76
     0
 77
     0
 78
     0
281
     0
 65
     1
110
0.0
120
0.0
130
0.0
111
1.0
121
0.0
131
0.0
112
0.0
122
1.0
132
0.0
 79
     0
146
0.0
1001
ACAD_NAV_VCDISPLAY
1070
     3
  0
ENDTAB
  0
TABLE
  2
LTYPE
  5
3CA
330
0
100
AcDbSymbolTable
 70
    12
  0
LTYPE
  5
41F
330
3CA
100
AcDbSymbolTableRecord
100
AcDbLinetypeTableRecord
  2
ByBlock
 70
     0
  3

 72
    65
 73
     0
 40
0.0
  0
LTYPE
  5
420
330
3CA
100
AcDbSymbolTableRecord
100
AcDbLinetypeTableRecord
  2
ByLayer
 70
     0
  3

 72
    65
 73
     0
 40
0.0
  0
LTYPE
  5
421
330
3CA
100
AcDbSymbolTableRecord
100
AcDbLinetypeTableRecord
  2
CONTINUOUS
 70
     0
  3
Solid line
 72
    65
 73
     0
 40
0.0
  0
LTYPE
  5
43A
330
3CA
100
AcDbSymbolTableRecord
100
AcDbLinetypeTableRecord
  2
STYLE_01
 70
     0
  3

 72
    65
 73
     2
 40
0.166656494140625
 49
0.08331298828125
 74
     0
 49
-0.083343505859375
 74
     0
  0
ENDTAB
  0
TABLE
  2
LAYER
  5
3C7
330
0
100
AcDbSymbolTable
 70
     5
  0
LAYER
  5
419
102
{ACAD_XDICTIONARY
360
44E
102
}
330
3C7
100
AcDbSymbolTableRecord
100
AcDbLayerTableRecord
  2
0
 70
     0
 62
     7
  6
CONTINUOUS
370
    -3
390
3D4
  0
LAYER
  5
438
102
{ACAD_XDICTIONARY
360
450
102
}
330
3C7
100
AcDbSymbolTableRecord
100
AcDbLayerTableRecord
  2
DATA
 70
     0
 62
     7
  6
CONTINUOUS
370
    -3
390
3D4
  0
LAYER
  5
445
102
{ACAD_XDICTIONARY
360
452
102
}
330
3C7
100
AcDbSymbolTableRecord
100
AcDbLayerTableRecord
  2
HIBINO-BASE
 70
     0
 62
     7
  6
CONTINUOUS
370
    -3
390
3D4
  0
LAYER
  5
446
102
{ACAD_XDICTIONARY
360
454
102
}
330
3C7
100
AcDbSymbolTableRecord
100
AcDbLayerTableRecord
  2
SPEC
 70
     0
 62
     7
  6
CONTINUOUS
370
    -3
390
3D4
  0
LAYER
  5
447
102
{ACAD_XDICTIONARY
360
456
102
}
330
3C7
100
AcDbSymbolTableRecord
100
AcDbLayerTableRecord
  2
DIMNSIONS
 70
     0
 62
     7
  6
CONTINUOUS
370
    -3
390
3D4
  0
ENDTAB
  0
TABLE
  2
STYLE
  5
3C8
330
0
100
AcDbSymbolTable
 70
     3
  0
STYLE
  5
41A
330
3C8
100
AcDbSymbolTableRecord
100
AcDbTextStyleTableRecord
  2
STANDARD
 70
     0
 40
0.0
 41
1.0
 50
0.0
 71
     0
 42
0.0
  3
txt
  4
BIGFONT.SHX
  0
ENDTAB
  0
TABLE
  2
VIEW
  5
3CB
330
0
100
AcDbSymbolTable
 70
     0
  0
ENDTAB
  0
TABLE
  2
UCS
  5
3CC
330
0
100
AcDbSymbolTable
 70
     0
  0
ENDTAB
  0
TABLE
  2
APPID
  5
3CE
330
0
100
AcDbSymbolTable
 70
     4
  0
APPID
  5
41B
330
3CE
100
AcDbSymbolTableRecord
100
AcDbRegAppTableRecord
  2
ACAD
 70
     0
  0
APPID
  5
422
330
3CE
100
AcDbSymbolTableRecord
100
AcDbRegAppTableRecord
  2
AcadAnnotative
 70
     0
  0
APPID
  5
462
330
3CE
100
AcDbSymbolTableRecord
100
AcDbRegAppTableRecord
  2
ACAD_NAV_VCDISPLAY
 70
     0
  0
APPID
  5
49B
330
3CE
100
AcDbSymbolTableRecord
100
AcDbRegAppTableRecord
  2
ACAD_MLEADERVER
 70
     0
  0
ENDTAB
  0
TABLE
  2
DIMSTYLE
  5
3CF
330
0
100
AcDbSymbolTable
 70
     2
100
AcDbDimStyleTable
 71
     0
  0
DIMSTYLE
105
41C
330
3CF
100
AcDbSymbolTableRecord
100
AcDbDimStyleTableRecord
  2
STANDARD
 70
     0
279
     2
340
41A
  0
ENDTAB
  0
TABLE
  2
BLOCK_RECORD
  5
3C6
330
0
100
AcDbSymbolTable
 70
     0
  0
BLOCK_RECORD
  5
434
330
3C6
100
AcDbSymbolTableRecord
100
AcDbBlockTableRecord
  2
*Model_Space
340
437
  0
BLOCK_RECORD
  5
430
330
3C6
100
AcDbSymbolTableRecord
100
AcDbBlockTableRecord
  2
*Paper_Space
340
433
  0
ENDTAB
  0
ENDSEC
  0
SECTION
  2
BLOCKS
  0
BLOCK
  5
435
330
434
100
AcDbEntity
  8
0
100
AcDbBlockBegin
  2
*Model_Space
 70
     0
 10
0.0
 20
0.0
 30
0.0
  3
*Model_Space
  1

  0
ENDBLK
  5
436
330
434
100
AcDbEntity
  8
0
100
AcDbBlockEnd
  0
BLOCK
  5
431
330
430
100
AcDbEntity
 67
     1
  8
0
100
AcDbBlockBegin
  2
*Paper_Space
 70
     0
 10
0.0
 20
0.0
 30
0.0
  3
*Paper_Space
  1

  0
ENDBLK
  5
432
330
430
100
AcDbEntity
 67
     1
  8
0
100
AcDbBlockEnd
  0
ENDSEC
  0
SECTION
  2
ENTITIES
  0
LINE
  5
2D
330
434
100
AcDbEntity
  8
HIBINO-BASE
  6
Continuous
 62
     7
100
AcDbLine
 10
-1350.0
 20
1999.44541
 30
0.0
 11
1350.0
 21
1999.44541
 31
0.0
  0
LINE
  5
2E
330
434
100
AcDbEntity
  8
HIBINO-BASE
  6
Continuous
 62
     7
100
AcDbLine
 10
1350.0
 20
-1900.554590000001
 30
0.0
 11
-1350.0
 21
-1900.554590000001
 31
0.0
  0
LINE
  5
2F
330
434
100
AcDbEntity
  8
HIBINO-BASE
  6
Continuous
 62
     7
100
AcDbLine
 10
-1350.0
 20
-1900.554590000001
 30
0.0
 11
-1350.0
 21
1999.44541
 31
0.0
  0
LINE
  5
30
330
434
100
AcDbEntity
  8
HIBINO-BASE
  6
Continuous
 62
     7
100
AcDbLine
 10
1350.0
 20
1999.44541
 30
0.0
 11
1350.0
 21
-1900.554590000001
 31
0.0
  0
LINE
  5
31
330
434
100
AcDbEntity
  8
HIBINO-BASE
  6
Continuous
 62
     7
100
AcDbLine
 10
0.0000000000001066
 20
-1563.054590000001
 30
0.0
 11
1350.0
 21
-1563.054590000001
 31
0.0
  0
LINE
  5
32
330
434
100
AcDbEntity
  8
HIBINO-BASE
  6
Continuous
 62
     7
100
AcDbLine
 10
0.0000000000001066
 20
-1900.554590000001
 30
0.0
 11
0.0000000000001066
 21
-1563.054590000001
 31
0.0
  0
TEXT
  5
33
330
434
100
AcDbEntity
  8
HIBINO-BASE
 62
     7
100
AcDbText
 10
13.50000000000019
 20
-1600.68499
 30
0.0
 40
24.4326171875
  1
NOTE
 41
0.7
 11
13.50000000000019
 21
-1576.2523728125
 31
0.0
100
AcDbText
 73
     3
  0
LINE
  5
34
330
434
100
AcDbEntity
  8
HIBINO-BASE
  6
Continuous
 62
     7
100
AcDbLine
 10
525.0000000000003
 20
-1900.554590000001
 30
0.0
 11
525.0000000000003
 21
-1563.054590000001
 31
0.0
  0
TEXT
  5
35
330
434
100
AcDbEntity
  8
HIBINO-BASE
 62
     7
100
AcDbText
 10
538.4999999999999
 20
-1600.68499
 30
0.0
 40
24.4326171875
  1
TITLE
 41
0.7
 11
538.4999999999999
 21
-1576.2523728125
 31
0.0
100
AcDbText
 73
     3
  0
LINE
  5
36
330
434
100
AcDbEntity
  8
HIBINO-BASE
  6
Continuous
 62
     7
100
AcDbLine
 10
0.0000000000001066
 20
-1750.554590000001
 30
0.0
 11
1350.0
 21
-1750.554590000001
 31
0.0
  0
TEXT
  5
37
330
434
100
AcDbEntity
  8
HIBINO-BASE
 62
     7
100
AcDbText
 10
726.0
 20
-1787.34019
 30
0.0
 40
24.4326171875
  1
DRAWN
 41
0.7
 11
726.0
 21
-1762.9075728125
 31
0.0
100
AcDbText
 73
     3
  0
TEXT
  5
38
330
434
100
AcDbEntity
  8
HIBINO-BASE
 62
     7
100
AcDbText
 10
351.0
 20
-1787.34019
 30
0.0
 40
24.4326171875
  1
DATE
 41
0.7
 11
351.0
 21
-1762.9075728125
 31
0.0
100
AcDbText
 73
     3
  0
TEXT
  5
39
330
434
100
AcDbEntity
  8
HIBINO-BASE
 62
     7
100
AcDbText
 10
201.0
 20
-1787.34019
 30
0.0
 40
24.4326171875
  1
SCALE
 41
0.7
 11
201.0
 21
-1762.9075728125
 31
0.0
100
AcDbText
 73
     3
  0
TEXT
  5
3A
330
434
100
AcDbEntity
  8
HIBINO-BASE
 62
     7
100
AcDbText
 10
538.4999999999999
 20
-1787.34019
 30
0.0
 40
24.4326171875
  1
DESIGN
 41
0.7
 11
538.4999999999999
 21
-1762.9075728125
 31
0.0
100
AcDbText
 73
     3
  0
TEXT
  5
3B
330
434
100
AcDbEntity
  8
HIBINO-BASE
 62
     7
100
AcDbText
 10
1100.999999999999
 20
-1787.34019
 30
0.0
 40
24.4326171875
  1
DRAWING NO.
 41
0.7
 11
1100.999999999999
 21
-1762.9075728125
 31
0.0
100
AcDbText
 73
     3
  0
TEXT
  5
3C
330
434
100
AcDbEntity
  8
HIBINO-BASE
 62
     7
100
AcDbText
 10
913.4999999999999
 20
-1787.34019
 30
0.0
 40
24.4326171875
  1
CHECK
 41
0.7
 11
913.4999999999999
 21
-1762.9075728125
 31
0.0
100
AcDbText
 73
     3
  0
LINE
  5
3D
330
434
100
AcDbEntity
  8
HIBINO-BASE
  6
Continuous
 62
     7
100
AcDbLine
 10
215.6250000000001
 20
-1881.804590000001
 30
0.0
 11
271.8750000000004
 21
-1825.554590000001
 31
0.0
  0
TEXT
  5
3E
330
434
100
AcDbEntity
  8
HIBINO-BASE
 62
     7
100
AcDbText
 10
206.2500000000001
 20
-1842.18874
 30
0.0
 40
24.4326171875
  1
1
 41
0.7
 11
206.2500000000001
 21
-1817.7561228125
 31
0.0
100
AcDbText
 73
     3
  0
LINE
  5
3F
330
434
100
AcDbEntity
  8
HIBINO-BASE
  6
Continuous
 62
     7
100
AcDbLine
 10
187.5000000000001
 20
-1900.554590000001
 30
0.0
 11
187.5000000000001
 21
-1750.554590000001
 31
0.0
  0
LINE
  5
40
330
434
100
AcDbEntity
  8
HIBINO-BASE
  6
Continuous
 62
     7
100
AcDbLine
 10
337.4999999999999
 20
-1900.554590000001
 30
0.0
 11
337.4999999999999
 21
-1750.554590000001
 31
0.0
  0
LINE
  5
41
330
434
100
AcDbEntity
  8
HIBINO-BASE
  6
Continuous
 62
     7
100
AcDbLine
 10
712.4999999999996
 20
-1750.554590000001
 30
0.0
 11
712.4999999999996
 21
-1900.554590000001
 31
0.0
  0
LINE
  5
42
330
434
100
AcDbEntity
  8
HIBINO-BASE
  6
Continuous
 62
     7
100
AcDbLine
 10
1087.5
 20
-1750.554590000001
 30
0.0
 11
1087.5
 21
-1900.554590000001
 31
0.0
  0
LINE
  5
43
330
434
100
AcDbEntity
  8
HIBINO-BASE
  6
Continuous
 62
     7
100
AcDbLine
 10
899.9999999999996
 20
-1900.554590000001
 30
0.0
 11
899.9999999999996
 21
-1750.554590000001
 31
0.0
  0
TEXT
  5
44
330
434
100
AcDbEntity
  8
HIBINO-BASE
 62
     7
100
AcDbText
 10
350.3481000000002
 20
-1857.59989
 30
0.0
 40
24.4326171875
  1
'17.01.
 41
0.7
 11
350.3481000000002
 21
-1833.1672728125
 31
0.0
100
AcDbText
 73
     3
  0
TEXT
  5
45
330
434
100
AcDbEntity
  8
HIBINO-BASE
 62
     7
100
AcDbText
 10
262.5
 20
-1870.31374
 30
0.0
 40
24.4326171875
  1
15
 41
0.7
 11
262.5
 21
-1845.8811228125
 31
0.0
100
AcDbText
 73
     3
  0
TEXT
  5
46
330
434
100
AcDbEntity
  8
HIBINO-BASE
 62
     7
100
AcDbText
 10
735.0871501655194
 20
-1857.59989
 30
0.0
 40
24.4326171875
  1
N.Sasaki
 41
0.7
 11
735.0871501655194
 21
-1833.1672728125
 31
0.0
100
AcDbText
 73
     3
  0
TEXT
  5
47
330
434
100
AcDbEntity
  8
HIBINO-BASE
 62
     7
100
AcDbText
 10
58.25000000000041
 20
-1870.91459
 30
0.0
 40
48.86523437499999
  1
A4
 41
0.7
 11
58.25000000000041
 21
-1822.049355625
 31
0.0
100
AcDbText
 73
     3
  0
TEXT
  5
48
330
434
100
AcDbEntity
  8
HIBINO-BASE
 62
     7
100
AcDbText
 10
14.37500000000003
 20
-1789.846415
 30
0.0
 40
24.4326171875
  1
PAPER SIZE
 41
0.7
 11
14.37500000000003
 21
-1765.4137978125
 31
0.0
100
AcDbText
 73
     3
  0
TEXT
  5
49
330
434
100
AcDbEntity
  8
HIBINO-BASE
 62
     7
100
AcDbText
 10
-1242.24
 20
-1996.684757
 30
0.0
 40
54.00066269531249
  1
Hibino Corporation
 41
0.7
 11
-1242.24
 21
-1942.684094304688
 31
0.0
100
AcDbText
 73
     3
  0
TEXT
  5
4A
330
434
100
AcDbEntity
  8
HIBINO-BASE
 62
     7
100
AcDbText
 10
751.02585
 20
-1996.684757
 30
0.0
 40
54.00066269531249
  1
ヒビノ株式会社
 41
0.7
 11
751.02585
 21
-1942.684094304688
 31
0.0
100
AcDbText
 73
     3
  0
LINE
  5
4B
330
434
100
AcDbEntity
  8
SPEC
  6
Continuous
 62
     7
100
AcDbLine
 10
-125.0
 20
1793.195409999999
 30
0.0
 11
-125.0
 21
1849.44541
 31
0.0
  0
LINE
  5
4C
330
434
100
AcDbEntity
  8
SPEC
  6
Continuous
 62
     7
100
AcDbLine
 10
375.0
 20
1793.195409999999
 30
0.0
 11
375.0
 21
1849.44541
 31
0.0
  0
TEXT
  5
4D
330
434
100
AcDbEntity
  8
SPEC
 62
     7
100
AcDbText
 10
-1224.0
 20
1748.764176666665
 30
0.0
 40
28.50472005208333
  1
周波数レンジ(-10dB)
 41
0.7
 11
-1224.0
 21
1777.268896718749
 31
0.0
100
AcDbText
 73
     3
  0
TEXT
  5
4E
330
434
100
AcDbEntity
  8
SPEC
 62
     7
100
AcDbText
 10
29.88925075954866
 20
1747.846816640624
 30
0.0
 40
28.50472005208333
  1
42Hz～19kHz
 41
0.7
 72
     1
 11
125.0
 21
1762.099176666666
 31
0.0
100
AcDbText
 73
     2
  0
TEXT
  5
4F
330
434
100
AcDbEntity
  8
SPEC
 62
     7
100
AcDbText
 10
-1224.0
 20
1692.514176666665
 30
0.0
 40
28.50472005208333
  1
カバレージ角(水平×垂直)
 41
0.7
 11
-1224.0
 21
1721.018896718749
 31
0.0
100
AcDbText
 73
     3
  0
TEXT
  5
50
330
434
100
AcDbEntity
  8
SPEC
 62
     7
100
AcDbText
 10
66.47030815972224
 20
1691.596816640624
 30
0.0
 40
28.50472005208333
  1
90°×50°
 41
0.7
 72
     1
 11
125.0
 21
1705.849176666665
 31
0.0
100
AcDbText
 73
     2
  0
TEXT
  5
51
330
434
100
AcDbEntity
  8
SPEC
 62
     7
100
AcDbText
 10
-1224.0
 20
1636.264176666665
 30
0.0
 40
28.50472005208333
  1
許容入力
 41
0.7
 11
-1224.0
 21
1664.768896718749
 31
0.0
100
AcDbText
 73
     3
  0
TEXT
  5
52
330
434
100
AcDbEntity
  8
SPEC
 62
     7
100
AcDbText
 10
-936.5
 20
1636.264176666665
 30
0.0
 40
28.50472005208333
  1
パッシブ※1
 41
0.7
 11
-936.5
 21
1664.768896718749
 31
0.0
100
AcDbText
 73
     3
  0
TEXT
  5
53
330
434
100
AcDbEntity
  8
SPEC
 62
     7
100
AcDbText
 10
-48.26119004991307
 20
1635.346816640624
 30
0.0
 40
28.50472005208333
  1
275W(2h)、250W(100h)
 41
0.7
 72
     1
 11
125.0
 21
1649.599176666665
 31
0.0
100
AcDbText
 73
     2
  0
TEXT
  5
54
330
434
100
AcDbEntity
  8
SPEC
 62
     7
100
AcDbText
 10
-936.5
 20
1580.014176666665
 30
0.0
 40
28.50472005208333
  1
バイアンプ※2
 41
0.7
 11
-936.5
 21
1608.518896718749
 31
0.0
100
AcDbText
 73
     3
  0
TEXT
  5
55
330
434
100
AcDbEntity
  8
SPEC
 62
     7
100
AcDbText
 10
-71.54004475911446
 20
1579.096816640624
 30
0.0
 40
28.50472005208333
  1
LF:275W(2h)、250W(100h)
 41
0.7
 72
     1
 11
125.0
 21
1593.349176666666
 31
0.0
100
AcDbText
 73
     2
  0
TEXT
  5
56
330
434
100
AcDbEntity
  8
SPEC
 62
     7
100
AcDbText
 10
40.19845784505214
 20
1522.846816640624
 30
0.0
 40
28.50472005208333
  1
HF:30W(2h)
 41
0.7
 72
     1
 11
125.0
 21
1537.099176666665
 31
0.0
100
AcDbText
 73
     2
  0
TEXT
  5
57
330
434
100
AcDbEntity
  8
SPEC
 62
     7
100
AcDbText
 10
-1224.0
 20
1467.514176666665
 30
0.0
 40
28.50472005208333
  1
感度(1W、1m)
 41
0.7
 11
-1224.0
 21
1496.018896718749
 31
0.0
100
AcDbText
 73
     3
  0
TEXT
  5
58
330
434
100
AcDbEntity
  8
SPEC
 62
     7
100
AcDbText
 10
-936.5
 20
1467.514176666665
 30
0.0
 40
28.50472005208333
  1
パッシブ
 41
0.7
 11
-936.5
 21
1496.018896718749
 31
0.0
100
AcDbText
 73
     3
  0
TEXT
  5
59
330
434
100
AcDbEntity
  8
SPEC
 62
     7
100
AcDbText
 10
52.50299533420141
 20
1466.596816640624
 30
0.0
 40
28.50472005208333
  1
97dB SPL
 41
0.7
 72
     1
 11
125.0
 21
1480.849176666666
 31
0.0
100
AcDbText
 73
     2
  0
TEXT
  5
5A
330
434
100
AcDbEntity
  8
SPEC
 62
     7
100
AcDbText
 10
-936.5
 20
1411.264176666666
 30
0.0
 40
28.50472005208333
  1
バイアンプ
 41
0.7
 11
-936.5
 21
1439.768896718749
 31
0.0
100
AcDbText
 73
     3
  0
TEXT
  5
5B
330
434
100
AcDbEntity
  8
SPEC
 62
     7
100
AcDbText
 10
29.22414062500006
 20
1410.346816640624
 30
0.0
 40
28.50472005208333
  1
LF:97dB SPL
 41
0.7
 72
     1
 11
125.0
 21
1424.599176666666
 31
0.0
100
AcDbText
 73
     2
  0
TEXT
  5
5C
330
434
100
AcDbEntity
  8
SPEC
 62
     7
100
AcDbText
 10
25.898589952257
 20
1354.096816640623
 30
0.0
 40
28.50472005208333
  1
HF:112dB SPL
 41
0.7
 72
     1
 11
125.0
 21
1368.349176666665
 31
0.0
100
AcDbText
 73
     2
  0
TEXT
  5
5D
330
434
100
AcDbEntity
  8
SPEC
 62
     7
100
AcDbText
 10
529.224140625
 20
1410.346816640624
 30
0.0
 40
28.50472005208333
  1
LF:97dB SPL
 41
0.7
 72
     1
 11
625.0
 21
1424.599176666666
 31
0.0
100
AcDbText
 73
     2
  0
TEXT
  5
5E
330
434
100
AcDbEntity
  8
SPEC
 62
     7
100
AcDbText
 10
524.2358146158855
 20
1354.096816640623
 30
0.0
 40
28.50472005208333
  1
HF:109dB SPL
 41
0.7
 72
     1
 11
625.0
 21
1368.349176666665
 31
0.0
100
AcDbText
 73
     2
  0
TEXT
  5
5F
330
434
100
AcDbEntity
  8
SPEC
 62
     7
100
AcDbText
 10
-1224.0
 20
1298.764176666666
 30
0.0
 40
28.50472005208333
  1
公称インピー
 41
0.7
 11
-1224.0
 21
1327.268896718749
 31
0.0
100
AcDbText
 73
     3
  0
TEXT
  5
60
330
434
100
AcDbEntity
  8
SPEC
 62
     7
100
AcDbText
 10
-936.5
 20
1298.764176666665
 30
0.0
 40
28.50472005208333
  1
パッシブ
 41
0.7
 11
-936.5
 21
1327.268896718749
 31
0.0
100
AcDbText
 73
     3
  0
TEXT
  5
61
330
434
100
AcDbEntity
  8
SPEC
 62
     7
100
AcDbText
 10
106.3769162326389
 20
1297.846816640624
 30
0.0
 40
28.50472005208333
  1
8Ω
 41
0.7
 72
     1
 11
125.0
 21
1312.099176666665
 31
0.0
100
AcDbText
 73
     2
  0
TEXT
  5
62
330
434
100
AcDbEntity
  8
SPEC
 62
     7
100
AcDbText
 10
-936.5
 20
1242.514176666665
 30
0.0
 40
28.50472005208333
  1
バイアンプ
 41
0.7
 11
-936.5
 21
1271.018896718749
 31
0.0
100
AcDbText
 73
     3
  0
TEXT
  5
63
330
434
100
AcDbEntity
  8
SPEC
 62
     7
100
AcDbText
 10
25.89858995225699
 20
1241.596816640624
 30
0.0
 40
28.50472005208333
  1
LF:8Ω、HF:8Ω
 41
0.7
 72
     1
 11
125.0
 21
1255.849176666665
 31
0.0
100
AcDbText
 73
     2
  0
TEXT
  5
64
330
434
100
AcDbEntity
  8
SPEC
 62
     7
100
AcDbText
 10
-1224.0
 20
1186.264176666665
 30
0.0
 40
28.50472005208333
  1
最大音圧(1m)
 41
0.7
 11
-1224.0
 21
1214.768896718749
 31
0.0
100
AcDbText
 73
     3
  0
TEXT
  5
65
330
434
100
AcDbEntity
  8
SPEC
 62
     7
100
AcDbText
 10
-936.5
 20
1186.264176666665
 30
0.0
 40
28.50472005208333
  1
パッシブ
 41
0.7
 11
-936.5
 21
1214.768896718749
 31
0.0
100
AcDbText
 73
     3
  0
TEXT
  5
66
330
434
100
AcDbEntity
  8
SPEC
 62
     7
100
AcDbText
 10
49.17744466145837
 20
1185.346816640624
 30
0.0
 40
28.50472005208333
  1
121dB SPL
 41
0.7
 72
     1
 11
125.0
 21
1199.599176666665
 31
0.0
100
AcDbText
 73
     2
  0
TEXT
  5
67
330
434
100
AcDbEntity
  8
SPEC
 62
     7
100
AcDbText
 10
-936.5
 20
1130.014176666665
 30
0.0
 40
28.50472005208333
  1
バイアンプ
 41
0.7
 11
-936.5
 21
1158.518896718748
 31
0.0
100
AcDbText
 73
     3
  0
TEXT
  5
68
330
434
100
AcDbEntity
  8
SPEC
 62
     7
100
AcDbText
 10
25.89858995225701
 20
1129.096816640624
 30
0.0
 40
28.50472005208333
  1
LF:121dB SPL
 41
0.7
 72
     1
 11
125.0
 21
1143.349176666665
 31
0.0
100
AcDbText
 73
     2
  0
TEXT
  5
69
330
434
100
AcDbEntity
  8
SPEC
 62
     7
100
AcDbText
 10
22.57303927951394
 20
1072.846816640624
 30
0.0
 40
28.50472005208333
  1
HF:127dB SPL
 41
0.7
 72
     1
 11
125.0
 21
1087.099176666666
 31
0.0
100
AcDbText
 73
     2
  0
TEXT
  5
6A
330
434
100
AcDbEntity
  8
SPEC
 62
     7
100
AcDbText
 10
525.898589952257
 20
1129.096816640624
 30
0.0
 40
28.50472005208333
  1
LF:121dB SPL
 41
0.7
 72
     1
 11
625.0
 21
1143.349176666665
 31
0.0
100
AcDbText
 73
     2
  0
TEXT
  5
6B
330
434
100
AcDbEntity
  8
SPEC
 62
     7
100
AcDbText
 10
522.5730392795139
 20
1072.846816640624
 30
0.0
 40
28.50472005208333
  1
HF:126dB SPL
 41
0.7
 72
     1
 11
625.0
 21
1087.099176666666
 31
0.0
100
AcDbText
 73
     2
  0
TEXT
  5
6C
330
434
100
AcDbEntity
  8
SPEC
 62
     7
100
AcDbText
 10
-1224.0
 20
1017.514176666665
 30
0.0
 40
28.50472005208333
  1
クロスオーバー周波数
 41
0.7
 11
-1224.0
 21
1046.018896718749
 31
0.0
100
AcDbText
 73
     3
  0
TEXT
  5
6D
330
434
100
AcDbEntity
  8
SPEC
 62
     7
100
AcDbText
 10
485.3268717447916
 20
1016.596816640624
 30
0.0
 40
28.50472005208333
  1
1.3kHz(24dB/oct)
 41
0.7
 72
     1
 11
625.0
 21
1030.849176666666
 31
0.0
100
AcDbText
 73
     2
  0
TEXT
  5
6E
330
434
100
AcDbEntity
  8
SPEC
 62
     7
100
AcDbText
 10
-1224.0
 20
961.2641766666657
 30
0.0
 40
28.50472005208333
  1
ドライバー構成
 41
0.7
 11
-1224.0
 21
989.7688967187489
 31
0.0
100
AcDbText
 73
     3
  0
TEXT
  5
6F
330
434
100
AcDbEntity
  8
SPEC
 62
     7
100
AcDbText
 10
-18.3312339952256
 20
904.0968166406242
 30
0.0
 40
28.50472005208333
  1
HF;25mm(2412H)※3
 41
0.7
 72
     1
 11
125.0
 21
918.3491766666659
 31
0.0
100
AcDbText
 73
     2
  0
TEXT
  5
70
330
434
100
AcDbEntity
  8
SPEC
 62
     7
100
AcDbText
 10
480.3385457356772
 20
960.3468166406242
 30
0.0
 40
28.50472005208333
  1
LF:380mm(M115-8A)
 41
0.7
 72
     1
 11
625.0
 21
974.5991766666659
 31
0.0
100
AcDbText
 73
     2
  0
TEXT
  5
71
330
434
100
AcDbEntity
  8
SPEC
 62
     7
100
AcDbText
 10
426.7971799045141
 20
904.0968166406242
 30
0.0
 40
28.50472005208333
  1
HF:44mm(2418H-1/MTA)※3
 41
0.7
 72
     1
 11
625.0
 21
918.3491766666659
 31
0.0
100
AcDbText
 73
     2
  0
TEXT
  5
72
330
434
100
AcDbEntity
  8
SPEC
 62
     7
100
AcDbText
 10
-1224.0
 20
848.7641766666657
 30
0.0
 40
28.50472005208333
  1
入力端子
 41
0.7
 11
-1224.0
 21
877.2688967187489
 31
0.0
100
AcDbText
 73
     3
  0
TEXT
  5
73
330
434
100
AcDbEntity
  8
SPEC
 62
     7
100
AcDbText
 10
-23.31956000434025
 20
847.8468166406241
 30
0.0
 40
28.50472005208333
  1
ねじ止め端子、4Pスピコン
 41
0.7
 72
     1
 11
125.0
 21
862.0991766666659
 31
0.0
100
AcDbText
 73
     2
  0
TEXT
  5
74
330
434
100
AcDbEntity
  8
SPEC
 62
     7
100
AcDbText
 10
-1224.0
 20
792.5141766666655
 30
0.0
 40
28.50472005208333
  1
仕上げ/色
 41
0.7
 11
-1224.0
 21
821.0188967187489
 31
0.0
100
AcDbText
 73
     3
  0
TEXT
  5
75
330
434
100
AcDbEntity
  8
SPEC
 62
     7
100
AcDbText
 10
8.273171386718786
 20
791.5968166406242
 30
0.0
 40
28.50472005208333
  1
DuraFlex/黒、白
 41
0.7
 72
     1
 11
125.0
 21
805.8491766666659
 31
0.0
100
AcDbText
 73
     2
  0
TEXT
  5
76
330
434
100
AcDbEntity
  8
SPEC
 62
     7
100
AcDbText
 10
88.41894259982641
 20
679.0968166406247
 30
0.0
 40
28.50472005208333
  1
24kg
 41
0.7
 72
     1
 11
125.0
 21
693.3491766666663
 31
0.0
100
AcDbText
 73
     2
  0
TEXT
  5
77
330
434
100
AcDbEntity
  8
SPEC
 62
     7
100
AcDbText
 10
588.4189425998264
 20
679.0968166406247
 30
0.0
 40
28.50472005208333
  1
25kg
 41
0.7
 72
     1
 11
625.0
 21
693.3491766666663
 31
0.0
100
AcDbText
 73
     2
  0
TEXT
  5
78
330
434
100
AcDbEntity
  8
SPEC
 62
     7
100
AcDbText
 10
-1225.0
 20
611.6649999999996
 30
0.0
 40
28.50472005208333
  1
※1 IECピンクノイズ、クレストファクタ ー6dB　※2 AESピンクノイズ、クレストファクタ ー6dB　※3 ボイスコイル径
 41
0.7
 11
-1225.0
 21
640.1697200520829
 31
0.0
100
AcDbText
 73
     3
  0
TEXT
  5
79
330
434
100
AcDbEntity
  8
SPEC
 62
     7
100
AcDbText
 10
-458.1387668185763
 20
1804.096816640624
 30
0.0
 40
28.50472005208333
  1
AC2215/64
 41
0.7
 72
     1
 11
-375.0
 21
1818.349176666666
 31
0.0
100
AcDbText
 73
     2
  0
TEXT
  5
7A
330
434
100
AcDbEntity
  8
SPEC
 62
     7
100
AcDbText
 10
41.86123318142364
 20
1804.096816640624
 30
0.0
 40
28.50472005208333
  1
AC2215/95
 41
0.7
 72
     1
 11
125.0
 21
1818.349176666666
 31
0.0
100
AcDbText
 73
     2
  0
TEXT
  5
7B
330
434
100
AcDbEntity
  8
SPEC
 62
     7
100
AcDbText
 10
545.1867838541667
 20
1804.096816640624
 30
0.0
 40
28.50472005208333
  1
AC2215/00
 41
0.7
 72
     1
 11
625.0
 21
1818.349176666666
 31
0.0
100
AcDbText
 73
     2
  0
TEXT
  5
7C
330
434
100
AcDbEntity
  8
SPEC
 62
     7
100
AcDbText
 10
-433.5296918402777
 20
1691.596816640624
 30
0.0
 40
28.50472005208333
  1
60°×40°
 41
0.7
 72
     1
 11
-375.0
 21
1705.849176666665
 31
0.0
100
AcDbText
 73
     2
  0
TEXT
  5
7D
330
434
100
AcDbEntity
  8
SPEC
 62
     7
100
AcDbText
 10
556.4936561414931
 20
1691.596816640624
 30
0.0
 40
28.50472005208333
  1
100°×100°
 41
0.7
 72
     1
 11
625.0
 21
1705.849176666665
 31
0.0
100
AcDbText
 73
     2
  0
TEXT
  5
7E
330
434
100
AcDbEntity
  8
SPEC
 62
     7
100
AcDbText
 10
-470.7758593749999
 20
1410.346816640624
 30
0.0
 40
28.50472005208333
  1
LF:97dB SPL
 41
0.7
 72
     1
 11
-375.0
 21
1424.599176666666
 31
0.0
100
AcDbText
 73
     2
  0
TEXT
  5
7F
330
434
100
AcDbEntity
  8
SPEC
 62
     7
100
AcDbText
 10
-474.1014100477429
 20
1354.096816640623
 30
0.0
 40
28.50472005208333
  1
HF:114dB SPL
 41
0.7
 72
     1
 11
-375.0
 21
1368.349176666665
 31
0.0
100
AcDbText
 73
     2
  0
TEXT
  5
80
330
434
100
AcDbEntity
  8
SPEC
 62
     7
100
AcDbText
 10
-474.1014100477429
 20
1129.096816640624
 30
0.0
 40
28.50472005208333
  1
LF:121dB SPL
 41
0.7
 72
     1
 11
-375.0
 21
1143.349176666665
 31
0.0
100
AcDbText
 73
     2
  0
TEXT
  5
81
330
434
100
AcDbEntity
  8
SPEC
 62
     7
100
AcDbText
 10
-477.426960720486
 20
1072.846816640624
 30
0.0
 40
28.50472005208333
  1
HF:129dB SPL
 41
0.7
 72
     1
 11
-375.0
 21
1087.099176666666
 31
0.0
100
AcDbText
 73
     2
  0
TEXT
  5
82
330
434
100
AcDbEntity
  8
SPEC
 62
     7
100
AcDbText
 10
-267.9986789279514
 20
1016.596816640624
 30
0.0
 40
28.50472005208333
  1
2.2kHz(24dB/oct)
 41
0.7
 72
     1
 11
-125.0
 21
1030.849176666666
 31
0.0
100
AcDbText
 73
     2
  0
TEXT
  5
83
330
434
100
AcDbEntity
  8
SPEC
 62
     7
100
AcDbText
 10
-519.6614542643227
 20
960.3468166406242
 30
0.0
 40
28.50472005208333
  1
LF:380mm(M115-8A)
 41
0.7
 72
     1
 11
-375.0
 21
974.5991766666659
 31
0.0
100
AcDbText
 73
     2
  0
TEXT
  5
84
330
434
100
AcDbEntity
  8
SPEC
 62
     7
100
AcDbText
 10
-556.5750667317707
 20
904.0968166406242
 30
0.0
 40
28.50472005208333
  1
HF:25mm(2412H/MTA)※3
 41
0.7
 72
     1
 11
-375.0
 21
918.3491766666659
 31
0.0
100
AcDbText
 73
     2
  0
TEXT
  5
85
330
434
100
AcDbEntity
  8
SPEC
 62
     7
100
AcDbText
 10
-19.66145426432274
 20
960.3468166406242
 30
0.0
 40
28.50472005208333
  1
LF:380mm(M115-8A)
 41
0.7
 72
     1
 11
125.0
 21
974.5991766666659
 31
0.0
100
AcDbText
 73
     2
  0
TEXT
  5
86
330
434
100
AcDbEntity
  8
SPEC
 62
     7
100
AcDbText
 10
-3.698811035156183
 20
735.3468166406242
 30
0.0
 40
28.50472005208333
  1
422×637×504mm
 41
0.7
 72
     1
 11
125.0
 21
749.5991766666658
 31
0.0
100
AcDbText
 73
     2
  0
TEXT
  5
87
330
434
100
AcDbEntity
  8
SPEC
 62
     7
100
AcDbText
 10
-411.5810574001736
 20
679.0968166406247
 30
0.0
 40
28.50472005208333
  1
24kg
 41
0.7
 72
     1
 11
-375.0
 21
693.3491766666663
 31
0.0
100
AcDbText
 73
     2
  0
LINE
  5
88
330
434
100
AcDbEntity
  8
SPEC
  6
Continuous
 62
     7
100
AcDbLine
 10
-1237.5
 20
1849.44541
 30
0.0
 11
975.0000000000001
 21
1849.44541
 31
0.0
  0
LINE
  5
89
330
434
100
AcDbEntity
  8
SPEC
  6
Continuous
 62
     7
100
AcDbLine
 10
-1237.5
 20
1793.195409999999
 30
0.0
 11
975.0000000000001
 21
1793.195409999999
 31
0.0
  0
LINE
  5
8A
330
434
100
AcDbEntity
  8
SPEC
  6
Continuous
 62
     7
100
AcDbLine
 10
-1237.5
 20
668.1954099999998
 30
0.0
 11
975.0000000000001
 21
668.1954099999998
 31
0.0
  0
LINE
  5
8B
330
434
100
AcDbEntity
  8
SPEC
  6
Continuous
 62
     7
100
AcDbLine
 10
-1237.5
 20
1849.44541
 30
0.0
 11
-1237.5
 21
668.1954099999998
 31
0.0
  0
TEXT
  5
8C
330
434
100
AcDbEntity
  8
SPEC
 62
     7
100
AcDbText
 10
-1218.75
 20
1870.344459999999
 30
0.0
 40
36.64892578125
  1
仕様
 41
0.7
 11
-1218.75
 21
1906.993385781249
 31
0.0
100
AcDbText
 73
     3
  0
LINE
  5
8D
330
434
100
AcDbEntity
  8
SPEC
  6
Continuous
 62
     7
100
AcDbLine
 10
-625.0
 20
1849.44541
 30
0.0
 11
-625.0
 21
668.1954099999998
 31
0.0
  0
LINE
  5
8E
330
434
100
AcDbEntity
  8
SPEC
  6
Continuous
 62
     7
100
AcDbLine
 10
975.0000000000001
 20
1849.44541
 30
0.0
 11
975.0000000000001
 21
668.1954099999998
 31
0.0
  0
TEXT
  5
8F
330
434
100
AcDbEntity
  8
SPEC
 62
     7
100
AcDbText
 10
-1224.0
 20
736.2641766666656
 30
0.0
 40
28.50472005208334
  1
寸法(W×H×D)
 41
0.7
 11
-1224.0
 21
764.768896718749
 31
0.0
100
AcDbText
 73
     3
  0
TEXT
  5
90
330
434
100
AcDbEntity
  8
SPEC
 62
     7
100
AcDbText
 10
-1224.0
 20
680.0141766666659
 30
0.0
 40
28.50472005208334
  1
質量
 41
0.7
 11
-1224.0
 21
708.5188967187492
 31
0.0
100
AcDbText
 73
     3
  0
LINE
  5
91
330
434
100
AcDbEntity
  8
SPEC
  6
Continuous
 62
     7
100
AcDbLine
 10
-1237.5
 20
1736.945409999999
 30
0.0
 11
975.0000000000001
 21
1736.945409999999
 31
0.0
  0
LINE
  5
92
330
434
100
AcDbEntity
  8
SPEC
  6
Continuous
 62
     7
100
AcDbLine
 10
-1237.5
 20
1680.695409999999
 30
0.0
 11
975.0000000000001
 21
1680.695409999999
 31
0.0
  0
LINE
  5
93
330
434
100
AcDbEntity
  8
SPEC
  6
Continuous
 62
     7
100
AcDbLine
 10
-950.0
 20
1624.445409999999
 30
0.0
 11
975.0000000000001
 21
1624.445409999999
 31
0.0
  0
LINE
  5
94
330
434
100
AcDbEntity
  8
SPEC
  6
Continuous
 62
     7
100
AcDbLine
 10
-1237.5
 20
1511.945409999999
 30
0.0
 11
975.0000000000001
 21
1511.945409999999
 31
0.0
  0
LINE
  5
95
330
434
100
AcDbEntity
  8
SPEC
  6
Continuous
 62
     7
100
AcDbLine
 10
-950.0
 20
1455.695409999999
 30
0.0
 11
975.0000000000001
 21
1455.695409999999
 31
0.0
  0
LINE
  5
96
330
434
100
AcDbEntity
  8
SPEC
  6
Continuous
 62
     7
100
AcDbLine
 10
-1237.5
 20
1343.19541
 30
0.0
 11
975.0000000000001
 21
1343.19541
 31
0.0
  0
LINE
  5
97
330
434
100
AcDbEntity
  8
SPEC
  6
Continuous
 62
     7
100
AcDbLine
 10
-950.0
 20
1286.945409999999
 30
0.0
 11
975.0000000000001
 21
1286.945409999999
 31
0.0
  0
LINE
  5
98
330
434
100
AcDbEntity
  8
SPEC
  6
Continuous
 62
     7
100
AcDbLine
 10
-1237.5
 20
1230.69541
 30
0.0
 11
975.0000000000001
 21
1230.69541
 31
0.0
  0
LINE
  5
99
330
434
100
AcDbEntity
  8
SPEC
  6
Continuous
 62
     7
100
AcDbLine
 10
-950.0
 20
1174.445409999999
 30
0.0
 11
975.0000000000001
 21
1174.445409999999
 31
0.0
  0
LINE
  5
9A
330
434
100
AcDbEntity
  8
SPEC
  6
Continuous
 62
     7
100
AcDbLine
 10
-1237.5
 20
1061.945409999999
 30
0.0
 11
975.0000000000001
 21
1061.945409999999
 31
0.0
  0
LINE
  5
9B
330
434
100
AcDbEntity
  8
SPEC
  6
Continuous
 62
     7
100
AcDbLine
 10
-1237.5
 20
1005.695409999999
 30
0.0
 11
975.0000000000001
 21
1005.695409999999
 31
0.0
  0
LINE
  5
9C
330
434
100
AcDbEntity
  8
SPEC
  6
Continuous
 62
     7
100
AcDbLine
 10
-1237.5
 20
893.1954099999998
 30
0.0
 11
975.0000000000001
 21
893.1954099999998
 31
0.0
  0
LINE
  5
9D
330
434
100
AcDbEntity
  8
SPEC
  6
Continuous
 62
     7
100
AcDbLine
 10
-1237.5
 20
836.9454099999998
 30
0.0
 11
975.0000000000001
 21
836.9454099999998
 31
0.0
  0
LINE
  5
9E
330
434
100
AcDbEntity
  8
SPEC
  6
Continuous
 62
     7
100
AcDbLine
 10
-1237.5
 20
780.6954099999998
 30
0.0
 11
975.0000000000001
 21
780.6954099999998
 31
0.0
  0
LINE
  5
9F
330
434
100
AcDbEntity
  8
SPEC
  6
Continuous
 62
     7
100
AcDbLine
 10
-1237.5
 20
724.4454099999998
 30
0.0
 11
975.0000000000001
 21
724.4454099999998
 31
0.0
  0
LINE
  5
A0
330
434
100
AcDbEntity
  8
SPEC
  6
Continuous
 62
     7
100
AcDbLine
 10
-125.0
 20
1680.695409999999
 30
0.0
 11
-125.0
 21
1736.945409999999
 31
0.0
  0
LINE
  5
A1
330
434
100
AcDbEntity
  8
SPEC
  6
Continuous
 62
     7
100
AcDbLine
 10
375.0
 20
1680.695409999999
 30
0.0
 11
375.0
 21
1736.945409999999
 31
0.0
  0
LINE
  5
A2
330
434
100
AcDbEntity
  8
SPEC
  6
Continuous
 62
     7
100
AcDbLine
 10
-950.0
 20
1680.695409999999
 30
0.0
 11
-950.0
 21
1061.945409999999
 31
0.0
  0
LINE
  5
A3
330
434
100
AcDbEntity
  8
SPEC
  6
Continuous
 62
     7
100
AcDbLine
 10
-125.0
 20
1343.19541
 30
0.0
 11
-125.0
 21
1455.695409999999
 31
0.0
  0
LINE
  5
A4
330
434
100
AcDbEntity
  8
SPEC
  6
Continuous
 62
     7
100
AcDbLine
 10
375.0
 20
1343.19541
 30
0.0
 11
375.0
 21
1455.695409999999
 31
0.0
  0
TEXT
  5
A5
330
434
100
AcDbEntity
  8
SPEC
 62
     7
100
AcDbText
 10
-1224.0
 20
1242.514176666666
 30
0.0
 40
28.50472005208333
  1
ダンス
 41
0.7
 11
-1224.0
 21
1271.018896718749
 31
0.0
100
AcDbText
 73
     3
  0
LINE
  5
A6
330
434
100
AcDbEntity
  8
SPEC
  6
Continuous
 62
     7
100
AcDbLine
 10
375.0
 20
1174.445409999999
 30
0.0
 11
375.0
 21
893.1954099999998
 31
0.0
  0
LINE
  5
A7
330
434
100
AcDbEntity
  8
SPEC
  6
Continuous
 62
     7
100
AcDbLine
 10
-125.0
 20
893.1954099999998
 30
0.0
 11
-125.0
 21
1005.695409999999
 31
0.0
  0
LINE
  5
A8
330
434
100
AcDbEntity
  8
SPEC
  6
Continuous
 62
     7
100
AcDbLine
 10
-125.0
 20
1061.945409999999
 30
0.0
 11
-125.0
 21
1174.445409999999
 31
0.0
  0
LINE
  5
A9
330
434
100
AcDbEntity
  8
SPEC
  6
Continuous
 62
     7
100
AcDbLine
 10
-125.0
 20
724.4454099999998
 30
0.0
 11
-125.0
 21
668.1954099999998
 31
0.0
  0
LINE
  5
AA
330
434
100
AcDbEntity
  8
SPEC
  6
Continuous
 62
     7
100
AcDbLine
 10
375.0
 20
724.4454099999998
 30
0.0
 11
375.0
 21
668.1954099999998
 31
0.0
  0
TEXT
  5
AB
330
434
100
AcDbEntity
  8
DIMNSIONS
 62
     7
100
AcDbText
 10
-299.9999999999999
 20
-1716.51224
 30
0.0
 40
36.64892578125
  1
(単位：mm)
 41
0.7
 11
-299.9999999999999
 21
-1679.86331421875
 31
0.0
100
AcDbText
 73
     3
  0
LINE
  5
AC
330
434
100
AcDbEntity
  8
DIMNSIONS
  6
Continuous
 62
     7
100
AcDbLine
 10
-1010.38573986409
 20
-95.80999999999994
 30
0.0
 11
-1190.0
 21
-95.80999999999994
 31
0.0
  0
LINE
  5
AD
330
434
100
AcDbEntity
  8
DIMNSIONS
  6
Continuous
 62
     7
100
AcDbLine
 10
-929.9999999999997
 20
-600.0
 30
0.0
 11
-1190.0
 21
-600.0
 31
0.0
  0
LINE
  5
AE
330
434
100
AcDbEntity
  8
DIMNSIONS
  6
Continuous
 62
     7
100
AcDbLine
 10
-1175.0
 20
-95.80999999999994
 30
0.0
 11
-1175.0
 21
-600.0
 31
0.0
  0
LINE
  5
AF
330
434
100
AcDbEntity
  8
DIMNSIONS
  6
Continuous
 62
     7
100
AcDbLine
 10
-1175.0
 20
-95.80999999999994
 30
0.0
 11
-1164.949403072746
 21
-133.3193383789062
 31
0.0
  0
LINE
  5
B0
330
434
100
AcDbEntity
  8
DIMNSIONS
  6
Continuous
 62
     7
100
AcDbLine
 10
-1175.0
 20
-95.80999999999994
 30
0.0
 11
-1185.050596927253
 21
-133.3193383789062
 31
0.0
  0
LINE
  5
B1
330
434
100
AcDbEntity
  8
DIMNSIONS
  6
Continuous
 62
     7
100
AcDbLine
 10
-1175.0
 20
-600.0
 30
0.0
 11
-1185.050596927253
 21
-562.4906616210937
 31
0.0
  0
LINE
  5
B2
330
434
100
AcDbEntity
  8
DIMNSIONS
  6
Continuous
 62
     7
100
AcDbLine
 10
-1175.0
 20
-600.0
 30
0.0
 11
-1164.949403072746
 21
-562.4906616210937
 31
0.0
  0
TEXT
  5
B3
330
434
100
AcDbEntity
  8
DIMNSIONS
 62
     7
100
AcDbText
 10
-1189.908333333333
 20
-387.5925
 30
0.0
 40
40.72102864583334
  1
504
 50
90.0
 41
0.7
 11
-1230.629361979166
 21
-387.5925
 31
0.0
100
AcDbText
 73
     3
  0
LINE
  5
B4
330
434
100
AcDbEntity
  8
DIMNSIONS
  6
Continuous
 62
     7
100
AcDbLine
 10
-690.0887587234424
 20
-503.03717940304
 30
0.0
 11
-690.0887587234424
 21
-31.37329194492878
 31
0.0
  0
LINE
  5
B5
330
434
100
AcDbEntity
  8
DIMNSIONS
  6
Continuous
 62
     7
100
AcDbLine
 10
-815.1791883029545
 20
-76.19334067168306
 30
0.0
 11
-822.5171174887943
 21
-48.80781612778708
 31
0.0
  0
ARC
  5
B6
330
434
100
AcDbEntity
  8
DIMNSIONS
  6
Continuous
 62
     7
100
AcDbCircle
 10
-690.0887587234424
 20
-543.0371794030399
 30
0.0
 40
496.6638874581112
100
AcDbArc
 50
90.0
 51
105.0
  0
LINE
  5
B7
330
434
100
AcDbEntity
  8
DIMNSIONS
  6
Continuous
 62
     7
100
AcDbLine
 10
-818.6348318122563
 20
-63.29670352212303
 30
0.0
 11
-784.6711405483127
 21
-44.47032203377179
 31
0.0
  0
LINE
  5
B8
330
434
100
AcDbEntity
  8
DIMNSIONS
  6
Continuous
 62
     7
100
AcDbLine
 10
-818.6348318122563
 20
-63.29670352212303
 30
0.0
 11
-779.808221627214
 21
-63.97442452384554
 31
0.0
  0
LINE
  5
B9
330
434
100
AcDbEntity
  8
DIMNSIONS
  6
Continuous
 62
     7
100
AcDbLine
 10
-690.0887587234424
 20
-46.37329194492878
 30
0.0
 11
-727.5980971023487
 21
-56.42388887218242
 31
0.0
  0
LINE
  5
BA
330
434
100
AcDbEntity
  8
DIMNSIONS
  6
Continuous
 62
     7
100
AcDbLine
 10
-690.0887587234424
 20
-46.37329194492878
 30
0.0
 11
-727.5980971023487
 21
-36.32269501767512
 31
0.0
  0
TEXT
  5
BB
330
434
100
AcDbEntity
  8
DIMNSIONS
 62
     7
100
AcDbText
 10
-798.0073670960471
 20
-40.18542722997461
 30
0.0
 40
40.72102864583334
  1
15°
 50
6.207062349169935
 41
0.7
 11
-802.4102018865777
 21
0.2968802608549259
 31
0.0
100
AcDbText
 73
     3
  0
LINE
  5
BC
330
434
100
AcDbEntity
  8
DIMNSIONS
  6
Continuous
 62
     7
100
AcDbLine
 10
-1127.36
 20
-731.4839999999998
 30
0.0
 11
-1165.0
 21
-731.4839999999998
 31
0.0
  0
LINE
  5
BD
330
434
100
AcDbEntity
  8
DIMNSIONS
  6
Continuous
 62
     7
100
AcDbLine
 10
-1127.36
 20
-1368.516
 30
0.0
 11
-1165.0
 21
-1368.516
 31
0.0
  0
LINE
  5
BE
330
434
100
AcDbEntity
  8
DIMNSIONS
  6
Continuous
 62
     7
100
AcDbLine
 10
-1150.0
 20
-731.4839999999998
 30
0.0
 11
-1150.0
 21
-1368.516
 31
0.0
  0
LINE
  5
BF
330
434
100
AcDbEntity
  8
DIMNSIONS
  6
Continuous
 62
     7
100
AcDbLine
 10
-1150.0
 20
-731.4839999999998
 30
0.0
 11
-1139.949403072746
 21
-768.993338378906
 31
0.0
  0
LINE
  5
C0
330
434
100
AcDbEntity
  8
DIMNSIONS
  6
Continuous
 62
     7
100
AcDbLine
 10
-1150.0
 20
-731.4839999999998
 30
0.0
 11
-1160.050596927253
 21
-768.993338378906
 31
0.0
  0
LINE
  5
C1
330
434
100
AcDbEntity
  8
DIMNSIONS
  6
Continuous
 62
     7
100
AcDbLine
 10
-1150.0
 20
-1368.516
 30
0.0
 11
-1160.050596927253
 21
-1331.006661621094
 31
0.0
  0
LINE
  5
C2
330
434
100
AcDbEntity
  8
DIMNSIONS
  6
Continuous
 62
     7
100
AcDbLine
 10
-1150.0
 20
-1368.516
 30
0.0
 11
-1139.949403072746
 21
-1331.006661621094
 31
0.0
  0
TEXT
  5
C3
330
434
100
AcDbEntity
  8
DIMNSIONS
 62
     7
100
AcDbText
 10
-1164.908333333333
 20
-1089.6875
 30
0.0
 40
40.72102864583334
  1
637
 50
90.0
 41
0.7
 11
-1205.629361979166
 21
-1089.6875
 31
0.0
100
AcDbText
 73
     3
  0
LINE
  5
C4
330
434
100
AcDbEntity
  8
DIMNSIONS
  6
Continuous
 62
     7
100
AcDbLine
 10
-689.1799999999998
 20
-1385.056
 30
0.0
 11
-689.1799999999998
 21
-1465.0
 31
0.0
  0
LINE
  5
C5
330
434
100
AcDbEntity
  8
DIMNSIONS
  6
Continuous
 62
     7
100
AcDbLine
 10
-1110.82
 20
-1385.056
 30
0.0
 11
-1110.82
 21
-1465.0
 31
0.0
  0
LINE
  5
C6
330
434
100
AcDbEntity
  8
DIMNSIONS
  6
Continuous
 62
     7
100
AcDbLine
 10
-689.1799999999998
 20
-1450.0
 30
0.0
 11
-1110.82
 21
-1450.0
 31
0.0
  0
LINE
  5
C7
330
434
100
AcDbEntity
  8
DIMNSIONS
  6
Continuous
 62
     7
100
AcDbLine
 10
-689.1799999999998
 20
-1450.0
 30
0.0
 11
-726.689338378906
 21
-1460.050596927254
 31
0.0
  0
LINE
  5
C8
330
434
100
AcDbEntity
  8
DIMNSIONS
  6
Continuous
 62
     7
100
AcDbLine
 10
-689.1799999999998
 20
-1450.0
 30
0.0
 11
-726.689338378906
 21
-1439.949403072747
 31
0.0
  0
LINE
  5
C9
330
434
100
AcDbEntity
  8
DIMNSIONS
  6
Continuous
 62
     7
100
AcDbLine
 10
-1110.82
 20
-1450.0
 30
0.0
 11
-1073.310661621094
 21
-1439.949403072747
 31
0.0
  0
LINE
  5
CA
330
434
100
AcDbEntity
  8
DIMNSIONS
  6
Continuous
 62
     7
100
AcDbLine
 10
-1110.82
 20
-1450.0
 30
0.0
 11
-1073.310661621094
 21
-1460.050596927253
 31
0.0
  0
TEXT
  5
CB
330
434
100
AcDbEntity
  8
DIMNSIONS
 62
     7
100
AcDbText
 10
-939.6874999999999
 20
-1435.091666666666
 30
0.0
 40
40.72102864583334
  1
422
 41
0.7
 11
-939.6874999999999
 21
-1394.370638020833
 31
0.0
100
AcDbText
 73
     3
  0
LINE
  5
CC
330
434
100
AcDbEntity
  8
DIMNSIONS
  6
Continuous
 62
     7
100
AcDbLine
 10
-741.5503842152211
 20
-474.7760949139939
 30
0.0
 11
-675.0
 21
-425.0
 31
0.0
  0
LINE
  5
CD
330
434
100
AcDbEntity
  8
DIMNSIONS
  6
Continuous
 62
     7
100
AcDbLine
 10
-741.5503842152211
 20
-474.7760949139939
 30
0.0
 11
-717.1122846695014
 21
-444.5975552738639
 31
0.0
  0
LINE
  5
CE
330
434
100
AcDbEntity
  8
DIMNSIONS
  6
Continuous
 62
     7
100
AcDbLine
 10
-741.5503842152211
 20
-474.7760949139939
 30
0.0
 11
-705.2970993683499
 21
-460.8597627093856
 31
0.0
  0
LINE
  5
CF
330
434
100
AcDbEntity
  8
DIMNSIONS
  6
Continuous
 62
     7
100
AcDbLine
 10
-675.0
 20
-425.0
 30
0.0
 11
-645.0
 21
-425.0
 31
0.0
  0
TEXT
  5
D0
330
434
100
AcDbEntity
  8
DIMNSIONS
 62
     7
100
AcDbText
 10
-645.0
 20
-444.0499999999999
 30
0.0
 40
40.72102864583334
  1
M10(8ヵ所)
 41
0.7
 11
-645.0
 21
-403.3289713541665
 31
0.0
100
AcDbText
 73
     3
  0
LINE
  5
D1
330
434
100
AcDbEntity
  8
DIMNSIONS
  6
Continuous
 62
     7
100
AcDbLine
 10
-900.0
 20
-397.082
 30
0.0
 11
-900.0
 21
-689.1109999999989
 31
0.0
  0
LINE
  5
D2
330
434
100
AcDbEntity
  8
DIMNSIONS
  6
Continuous
 62
     7
100
AcDbLine
 10
-750.4999999999999
 20
-511.469924408746
 30
0.0
 11
-750.4999999999999
 21
-689.1109999999989
 31
0.0
  0
LINE
  5
D3
330
434
100
AcDbEntity
  8
DIMNSIONS
  6
Continuous
 62
     7
100
AcDbLine
 10
-900.0
 20
-674.110999999999
 30
0.0
 11
-750.4999999999999
 21
-674.110999999999
 31
0.0
  0
LINE
  5
D4
330
434
100
AcDbEntity
  8
DIMNSIONS
  6
Continuous
 62
     7
100
AcDbLine
 10
-900.0
 20
-674.110999999999
 30
0.0
 11
-862.4906616210937
 21
-664.0604030727453
 31
0.0
  0
LINE
  5
D5
330
434
100
AcDbEntity
  8
DIMNSIONS
  6
Continuous
 62
     7
100
AcDbLine
 10
-900.0
 20
-674.110999999999
 30
0.0
 11
-862.4906616210937
 21
-684.1615969272526
 31
0.0
  0
LINE
  5
D6
330
434
100
AcDbEntity
  8
DIMNSIONS
  6
Continuous
 62
     7
100
AcDbLine
 10
-750.4999999999999
 20
-674.110999999999
 30
0.0
 11
-788.0093383789062
 21
-684.1615969272526
 31
0.0
  0
LINE
  5
D7
330
434
100
AcDbEntity
  8
DIMNSIONS
  6
Continuous
 62
     7
100
AcDbLine
 10
-750.4999999999999
 20
-674.110999999999
 30
0.0
 11
-788.0093383789062
 21
-664.0604030727453
 31
0.0
  0
TEXT
  5
D8
330
434
100
AcDbEntity
  8
DIMNSIONS
 62
     7
100
AcDbText
 10
-864.9375
 20
-659.2026666666655
 30
0.0
 40
40.72102864583334
  1
150
 41
0.7
 11
-864.9375
 21
-618.4816380208322
 31
0.0
100
AcDbText
 73
     3
  0
LINE
  5
D9
330
434
100
AcDbEntity
  8
DIMNSIONS
  6
Continuous
 62
     7
100
AcDbLine
 10
-900.0
 20
-397.082
 30
0.0
 11
-900.0
 21
-689.1109999999989
 31
0.0
  0
LINE
  5
DA
330
434
100
AcDbEntity
  8
DIMNSIONS
  6
Continuous
 62
     7
100
AcDbLine
 10
-1049.5
 20
-511.469924408746
 30
0.0
 11
-1049.5
 21
-689.1109999999989
 31
0.0
  0
LINE
  5
DB
330
434
100
AcDbEntity
  8
DIMNSIONS
  6
Continuous
 62
     7
100
AcDbLine
 10
-900.0
 20
-674.110999999999
 30
0.0
 11
-1049.5
 21
-674.110999999999
 31
0.0
  0
LINE
  5
DC
330
434
100
AcDbEntity
  8
DIMNSIONS
  6
Continuous
 62
     7
100
AcDbLine
 10
-900.0
 20
-674.110999999999
 30
0.0
 11
-937.5093383789062
 21
-684.1615969272526
 31
0.0
  0
LINE
  5
DD
330
434
100
AcDbEntity
  8
DIMNSIONS
  6
Continuous
 62
     7
100
AcDbLine
 10
-900.0
 20
-674.110999999999
 30
0.0
 11
-937.5093383789062
 21
-664.0604030727453
 31
0.0
  0
LINE
  5
DE
330
434
100
AcDbEntity
  8
DIMNSIONS
  6
Continuous
 62
     7
100
AcDbLine
 10
-1049.5
 20
-674.110999999999
 30
0.0
 11
-1011.990661621093
 21
-664.0604030727453
 31
0.0
  0
LINE
  5
DF
330
434
100
AcDbEntity
  8
DIMNSIONS
  6
Continuous
 62
     7
100
AcDbLine
 10
-1049.5
 20
-674.110999999999
 30
0.0
 11
-1011.990661621093
 21
-684.1615969272526
 31
0.0
  0
TEXT
  5
E0
330
434
100
AcDbEntity
  8
DIMNSIONS
 62
     7
100
AcDbText
 10
-1014.4375
 20
-659.2026666666655
 30
0.0
 40
40.72102864583334
  1
150
 41
0.7
 11
-1014.4375
 21
-618.4816380208322
 31
0.0
100
AcDbText
 73
     3
  0
LINE
  5
E1
330
434
100
AcDbEntity
  8
DIMNSIONS
  6
Continuous
 62
     7
100
AcDbLine
 10
-1079.5
 20
-481.469924408746
 30
0.0
 11
-1115.0
 21
-481.469924408746
 31
0.0
  0
LINE
  5
E2
330
434
100
AcDbEntity
  8
DIMNSIONS
  6
Continuous
 62
     7
100
AcDbLine
 10
-930.0
 20
-367.082
 30
0.0
 11
-1115.0
 21
-367.082
 31
0.0
  0
LINE
  5
E3
330
434
100
AcDbEntity
  8
DIMNSIONS
  6
Continuous
 62
     7
100
AcDbLine
 10
-1100.0
 20
-481.469924408746
 30
0.0
 11
-1100.0
 21
-367.082
 31
0.0
  0
LINE
  5
E4
330
434
100
AcDbEntity
  8
DIMNSIONS
  6
Continuous
 62
     7
100
AcDbLine
 10
-1100.0
 20
-481.469924408746
 30
0.0
 11
-1110.050596927253
 21
-443.9605860298398
 31
0.0
  0
LINE
  5
E5
330
434
100
AcDbEntity
  8
DIMNSIONS
  6
Continuous
 62
     7
100
AcDbLine
 10
-1100.0
 20
-481.469924408746
 30
0.0
 11
-1089.949403072746
 21
-443.9605860298398
 31
0.0
  0
LINE
  5
E6
330
434
100
AcDbEntity
  8
DIMNSIONS
  6
Continuous
 62
     7
100
AcDbLine
 10
-1100.0
 20
-367.082
 30
0.0
 11
-1089.949403072746
 21
-404.5913383789062
 31
0.0
  0
LINE
  5
E7
330
434
100
AcDbEntity
  8
DIMNSIONS
  6
Continuous
 62
     7
100
AcDbLine
 10
-1100.0
 20
-367.082
 30
0.0
 11
-1110.050596927253
 21
-404.5913383789062
 31
0.0
  0
TEXT
  5
E8
330
434
100
AcDbEntity
  8
DIMNSIONS
 62
     7
100
AcDbText
 10
-1114.908333333333
 20
-463.963462204373
 30
0.0
 40
40.72102864583334
  1
114
 50
90.0
 41
0.7
 11
-1155.629361979166
 21
-463.963462204373
 31
0.0
100
AcDbText
 73
     3
  0
LINE
  5
E9
330
434
100
AcDbEntity
  8
DIMNSIONS
  6
Continuous
 62
     7
100
AcDbLine
 10
-930.0
 20
-367.082
 30
0.0
 11
-1115.0
 21
-367.082
 31
0.0
  0
LINE
  5
EA
330
434
100
AcDbEntity
  8
DIMNSIONS
  6
Continuous
 62
     7
100
AcDbLine
 10
-930.0
 20
-138.2279999999999
 30
0.0
 11
-1115.0
 21
-138.2279999999999
 31
0.0
  0
LINE
  5
EB
330
434
100
AcDbEntity
  8
DIMNSIONS
  6
Continuous
 62
     7
100
AcDbLine
 10
-1100.0
 20
-367.082
 30
0.0
 11
-1100.0
 21
-138.2279999999999
 31
0.0
  0
LINE
  5
EC
330
434
100
AcDbEntity
  8
DIMNSIONS
  6
Continuous
 62
     7
100
AcDbLine
 10
-1100.0
 20
-367.082
 30
0.0
 11
-1110.050596927253
 21
-329.5726616210937
 31
0.0
  0
LINE
  5
ED
330
434
100
AcDbEntity
  8
DIMNSIONS
  6
Continuous
 62
     7
100
AcDbLine
 10
-1100.0
 20
-367.082
 30
0.0
 11
-1089.949403072746
 21
-329.5726616210937
 31
0.0
  0
LINE
  5
EE
330
434
100
AcDbEntity
  8
DIMNSIONS
  6
Continuous
 62
     7
100
AcDbLine
 10
-1100.0
 20
-138.2279999999999
 30
0.0
 11
-1089.949403072746
 21
-175.7373383789061
 31
0.0
  0
LINE
  5
EF
330
434
100
AcDbEntity
  8
DIMNSIONS
  6
Continuous
 62
     7
100
AcDbLine
 10
-1100.0
 20
-138.2279999999999
 30
0.0
 11
-1110.050596927253
 21
-175.7373383789061
 31
0.0
  0
TEXT
  5
F0
330
434
100
AcDbEntity
  8
DIMNSIONS
 62
     7
100
AcDbText
 10
-1114.908333333333
 20
-292.3425
 30
0.0
 40
40.72102864583334
  1
229
 50
90.0
 41
0.7
 11
-1155.629361979166
 21
-292.3425
 31
0.0
100
AcDbText
 73
     3
  0
LINE
  5
F1
330
434
100
AcDbEntity
  8
DIMNSIONS
  6
Continuous
 62
     7
100
AcDbLine
 10
-930.0
 20
-138.2279999999999
 30
0.0
 11
-1115.0
 21
-138.2279999999999
 31
0.0
  0
LINE
  5
F2
330
434
100
AcDbEntity
  8
DIMNSIONS
  6
Continuous
 62
     7
100
AcDbLine
 10
-1010.38573986409
 20
-95.80999999999994
 30
0.0
 11
-1115.0
 21
-95.80999999999994
 31
0.0
  0
LINE
  5
F3
330
434
100
AcDbEntity
  8
DIMNSIONS
  6
Continuous
 62
     7
100
AcDbLine
 10
-1100.0
 20
-95.80999999999994
 30
0.0
 11
-1100.0
 21
-138.2279999999999
 31
0.0
  0
LINE
  5
F4
330
434
100
AcDbEntity
  8
DIMNSIONS
  6
Continuous
 62
     7
100
AcDbLine
 10
-1100.0
 20
-138.2279999999999
 30
0.0
 11
-1100.0
 21
-213.228
 31
0.0
  0
LINE
  5
F5
330
434
100
AcDbEntity
  8
DIMNSIONS
  6
Continuous
 62
     7
100
AcDbLine
 10
-1100.0
 20
-138.2279999999999
 30
0.0
 11
-1089.949403072746
 21
-175.7373383789061
 31
0.0
  0
LINE
  5
F6
330
434
100
AcDbEntity
  8
DIMNSIONS
  6
Continuous
 62
     7
100
AcDbLine
 10
-1100.0
 20
-138.2279999999999
 30
0.0
 11
-1110.050596927253
 21
-175.7373383789061
 31
0.0
  0
LINE
  5
F7
330
434
100
AcDbEntity
  8
DIMNSIONS
  6
Continuous
 62
     7
100
AcDbLine
 10
-1100.0
 20
-95.80999999999994
 30
0.0
 11
-1100.0
 21
25.340360252296
 31
0.0
  0
LINE
  5
F8
330
434
100
AcDbEntity
  8
DIMNSIONS
  6
Continuous
 62
     7
100
AcDbLine
 10
-1100.0
 20
-95.80999999999994
 30
0.0
 11
-1110.050596927253
 21
-58.3006616210937
 31
0.0
  0
LINE
  5
F9
330
434
100
AcDbEntity
  8
DIMNSIONS
  6
Continuous
 62
     7
100
AcDbLine
 10
-1100.0
 20
-95.80999999999994
 30
0.0
 11
-1089.949403072746
 21
-58.3006616210937
 31
0.0
  0
TEXT
  5
FA
330
434
100
AcDbEntity
  8
DIMNSIONS
 62
     7
100
AcDbText
 10
-1114.908333333333
 20
-80.49297308103733
 30
0.0
 40
40.72102864583334
  1
42.4
 50
90.0
 41
0.7
 11
-1155.629361979167
 21
-80.49297308103733
 31
0.0
100
AcDbText
 73
     3
  0
LINE
  5
FB
330
434
100
AcDbEntity
  8
DIMNSIONS
  6
Continuous
 62
     7
100
AcDbLine
 10
-479.6953721581399
 20
-1326.098
 30
0.0
 11
-60.0
 21
-1326.098
 31
0.0
  0
LINE
  5
FC
330
434
100
AcDbEntity
  8
DIMNSIONS
  6
Continuous
 62
     7
100
AcDbLine
 10
-129.2699999999999
 20
-1368.516
 30
0.0
 11
-60.0
 21
-1368.516
 31
0.0
  0
LINE
  5
FD
330
434
100
AcDbEntity
  8
DIMNSIONS
  6
Continuous
 62
     7
100
AcDbLine
 10
-75.0
 20
-1368.516
 30
0.0
 11
-75.0
 21
-1326.098
 31
0.0
  0
LINE
  5
FE
330
434
100
AcDbEntity
  8
DIMNSIONS
  6
Continuous
 62
     7
100
AcDbLine
 10
-75.0
 20
-1326.098
 30
0.0
 11
-75.0
 21
-1194.166666666667
 31
0.0
  0
LINE
  5
FF
330
434
100
AcDbEntity
  8
DIMNSIONS
  6
Continuous
 62
     7
100
AcDbLine
 10
-75.0
 20
-1326.098
 30
0.0
 11
-85.05059692725366
 21
-1288.588661621094
 31
0.0
  0
LINE
  5
100
330
434
100
AcDbEntity
  8
DIMNSIONS
  6
Continuous
 62
     7
100
AcDbLine
 10
-75.0
 20
-1326.098
 30
0.0
 11
-64.94940307274635
 21
-1288.588661621094
 31
0.0
  0
LINE
  5
101
330
434
100
AcDbEntity
  8
DIMNSIONS
  6
Continuous
 62
     7
100
AcDbLine
 10
-75.0
 20
-1368.516
 30
0.0
 11
-75.0
 21
-1443.516
 31
0.0
  0
LINE
  5
102
330
434
100
AcDbEntity
  8
DIMNSIONS
  6
Continuous
 62
     7
100
AcDbLine
 10
-75.0
 20
-1368.516
 30
0.0
 11
-64.94940307274635
 21
-1406.025338378906
 31
0.0
  0
LINE
  5
103
330
434
100
AcDbEntity
  8
DIMNSIONS
  6
Continuous
 62
     7
100
AcDbLine
 10
-75.0
 20
-1368.516
 30
0.0
 11
-85.05059692725366
 21
-1406.025338378906
 31
0.0
  0
TEXT
  5
104
330
434
100
AcDbEntity
  8
DIMNSIONS
 62
     7
100
AcDbText
 10
-89.90833333333336
 20
-1300.0
 30
0.0
 40
40.72102864583334
  1
42.4
 50
90.0
 41
0.7
 11
-130.6293619791667
 21
-1300.0
 31
0.0
100
AcDbText
 73
     3
  0
LINE
  5
105
330
434
100
AcDbEntity
  8
DIMNSIONS
  6
Continuous
 62
     7
100
AcDbLine
 10
-129.2699999999999
 20
-1368.516
 30
0.0
 11
-35.0
 21
-1368.516
 31
0.0
  0
LINE
  5
106
330
434
100
AcDbEntity
  8
DIMNSIONS
  6
Continuous
 62
     7
100
AcDbLine
 10
-479.6953721581399
 20
-773.9019999999998
 30
0.0
 11
-35.0
 21
-773.9019999999998
 31
0.0
  0
LINE
  5
107
330
434
100
AcDbEntity
  8
DIMNSIONS
  6
Continuous
 62
     7
100
AcDbLine
 10
-50.0
 20
-1368.516
 30
0.0
 11
-50.0
 21
-773.9019999999998
 31
0.0
  0
LINE
  5
108
330
434
100
AcDbEntity
  8
DIMNSIONS
  6
Continuous
 62
     7
100
AcDbLine
 10
-50.0
 20
-1368.516
 30
0.0
 11
-60.05059692725365
 21
-1331.006661621094
 31
0.0
  0
LINE
  5
109
330
434
100
AcDbEntity
  8
DIMNSIONS
  6
Continuous
 62
     7
100
AcDbLine
 10
-50.0
 20
-1368.516
 30
0.0
 11
-39.94940307274635
 21
-1331.006661621094
 31
0.0
  0
LINE
  5
10A
330
434
100
AcDbEntity
  8
DIMNSIONS
  6
Continuous
 62
     7
100
AcDbLine
 10
-50.0
 20
-773.9019999999998
 30
0.0
 11
-39.94940307274635
 21
-811.4113383789058
 31
0.0
  0
LINE
  5
10B
330
434
100
AcDbEntity
  8
DIMNSIONS
  6
Continuous
 62
     7
100
AcDbLine
 10
-50.0
 20
-773.9019999999998
 30
0.0
 11
-60.05059692725365
 21
-811.4113383789058
 31
0.0
  0
TEXT
  5
10C
330
434
100
AcDbEntity
  8
DIMNSIONS
 62
     7
100
AcDbText
 10
-64.90833333333333
 20
-1110.896499999999
 30
0.0
 40
40.72102864583334
  1
595
 50
90.0
 41
0.7
 11
-105.6293619791667
 21
-1110.896499999999
 31
0.0
100
AcDbText
 73
     3
  0
LINE
  5
10D
330
434
100
AcDbEntity
  8
DIMNSIONS
  6
Continuous
 62
     7
100
AcDbLine
 10
241.1760000000004
 20
-1326.098
 30
0.0
 11
490.0
 21
-1326.098
 31
0.0
  0
LINE
  5
10E
330
434
100
AcDbEntity
  8
DIMNSIONS
  6
Continuous
 62
     7
100
AcDbLine
 10
427.36
 20
-1368.516
 30
0.0
 11
490.0
 21
-1368.516
 31
0.0
  0
LINE
  5
10F
330
434
100
AcDbEntity
  8
DIMNSIONS
  6
Continuous
 62
     7
100
AcDbLine
 10
475.0
 20
-1368.516
 30
0.0
 11
475.0
 21
-1326.098
 31
0.0
  0
LINE
  5
110
330
434
100
AcDbEntity
  8
DIMNSIONS
  6
Continuous
 62
     7
100
AcDbLine
 10
475.0
 20
-1326.098
 30
0.0
 11
475.0
 21
-1194.166666666667
 31
0.0
  0
LINE
  5
111
330
434
100
AcDbEntity
  8
DIMNSIONS
  6
Continuous
 62
     7
100
AcDbLine
 10
475.0
 20
-1326.098
 30
0.0
 11
464.9494030727463
 21
-1288.588661621094
 31
0.0
  0
LINE
  5
112
330
434
100
AcDbEntity
  8
DIMNSIONS
  6
Continuous
 62
     7
100
AcDbLine
 10
475.0
 20
-1326.098
 30
0.0
 11
485.0505969272536
 21
-1288.588661621094
 31
0.0
  0
LINE
  5
113
330
434
100
AcDbEntity
  8
DIMNSIONS
  6
Continuous
 62
     7
100
AcDbLine
 10
475.0
 20
-1368.516
 30
0.0
 11
475.0
 21
-1443.516
 31
0.0
  0
LINE
  5
114
330
434
100
AcDbEntity
  8
DIMNSIONS
  6
Continuous
 62
     7
100
AcDbLine
 10
475.0
 20
-1368.516
 30
0.0
 11
485.0505969272536
 21
-1406.025338378906
 31
0.0
  0
LINE
  5
115
330
434
100
AcDbEntity
  8
DIMNSIONS
  6
Continuous
 62
     7
100
AcDbLine
 10
475.0
 20
-1368.516
 30
0.0
 11
464.9494030727463
 21
-1406.025338378906
 31
0.0
  0
TEXT
  5
116
330
434
100
AcDbEntity
  8
DIMNSIONS
 62
     7
100
AcDbText
 10
460.0916666666665
 20
-1300.0
 30
0.0
 40
40.72102864583334
  1
42.4
 50
90.0
 41
0.7
 11
419.3706380208332
 21
-1300.0
 31
0.0
100
AcDbText
 73
     3
  0
LINE
  5
117
330
434
100
AcDbEntity
  8
DIMNSIONS
  6
Continuous
 62
     7
100
AcDbLine
 10
193.2470400518
 20
-764.9969167360413
 30
0.0
 11
125.0
 21
-675.0
 31
0.0
  0
LINE
  5
118
330
434
100
AcDbEntity
  8
DIMNSIONS
  6
Continuous
 62
     7
100
AcDbLine
 10
193.2470400518
 20
-764.9969167360413
 30
0.0
 11
162.6465931036035
 21
-741.0892273707343
 31
0.0
  0
LINE
  5
119
330
434
100
AcDbEntity
  8
DIMNSIONS
  6
Continuous
 62
     7
100
AcDbLine
 10
193.2470400518
 20
-764.9969167360413
 30
0.0
 11
178.7001203101574
 21
-728.9920269258
 31
0.0
  0
LINE
  5
11A
330
434
100
AcDbEntity
  8
DIMNSIONS
  6
Continuous
 62
     7
100
AcDbLine
 10
125.0
 20
-675.0
 30
0.0
 11
155.0
 21
-675.0
 31
0.0
  0
TEXT
  5
11B
330
434
100
AcDbEntity
  8
DIMNSIONS
 62
     7
100
AcDbText
 10
155.0
 20
-694.0500000000001
 30
0.0
 40
40.72102864583334
  1
M10(2ヵ所)
 41
0.7
 11
155.0
 21
-653.3289713541667
 31
0.0
100
AcDbText
 73
     3
  0
LINE
  5
11C
330
434
100
AcDbEntity
  8
DIMNSIONS
  6
Continuous
 62
     7
100
AcDbLine
 10
241.1760000000004
 20
-773.9019999999998
 30
0.0
 11
515.0
 21
-773.9019999999998
 31
0.0
  0
LINE
  5
11D
330
434
100
AcDbEntity
  8
DIMNSIONS
  6
Continuous
 62
     7
100
AcDbLine
 10
427.36
 20
-1368.516
 30
0.0
 11
515.0
 21
-1368.516
 31
0.0
  0
LINE
  5
11E
330
434
100
AcDbEntity
  8
DIMNSIONS
  6
Continuous
 62
     7
100
AcDbLine
 10
500.0
 20
-773.9019999999998
 30
0.0
 11
500.0
 21
-1368.516
 31
0.0
  0
LINE
  5
11F
330
434
100
AcDbEntity
  8
DIMNSIONS
  6
Continuous
 62
     7
100
AcDbLine
 10
500.0
 20
-773.9019999999998
 30
0.0
 11
510.0505969272536
 21
-811.4113383789058
 31
0.0
  0
LINE
  5
120
330
434
100
AcDbEntity
  8
DIMNSIONS
  6
Continuous
 62
     7
100
AcDbLine
 10
500.0
 20
-773.9019999999998
 30
0.0
 11
489.9494030727463
 21
-811.4113383789058
 31
0.0
  0
LINE
  5
121
330
434
100
AcDbEntity
  8
DIMNSIONS
  6
Continuous
 62
     7
100
AcDbLine
 10
500.0
 20
-1368.516
 30
0.0
 11
489.9494030727463
 21
-1331.006661621094
 31
0.0
  0
LINE
  5
122
330
434
100
AcDbEntity
  8
DIMNSIONS
  6
Continuous
 62
     7
100
AcDbLine
 10
500.0
 20
-1368.516
 30
0.0
 11
510.0505969272536
 21
-1331.006661621094
 31
0.0
  0
TEXT
  5
123
330
434
100
AcDbEntity
  8
DIMNSIONS
 62
     7
100
AcDbText
 10
485.0916666666667
 20
-1110.896499999999
 30
0.0
 40
40.72102864583334
  1
595
 50
90.0
 41
0.7
 11
444.3706380208333
 21
-1110.896499999999
 31
0.0
100
AcDbText
 73
     3
  0
LINE
  5
124
330
434
100
AcDbEntity
  8
DIMNSIONS
  6
Continuous
 62
     7
100
AcDbLine
 10
-518.7080441184242
 20
-762.7243233011415
 30
0.0
 11
-500.0
 21
-675.0
 31
0.0
  0
LINE
  5
125
330
434
100
AcDbEntity
  8
DIMNSIONS
  6
Continuous
 62
     7
100
AcDbLine
 10
-518.7080441184242
 20
-762.7243233011415
 30
0.0
 11
-520.0632796814869
 21
-723.9154544592643
 31
0.0
  0
LINE
  5
126
330
434
100
AcDbEntity
  8
DIMNSIONS
  6
Continuous
 62
     7
100
AcDbLine
 10
-518.7080441184242
 20
-762.7243233011415
 30
0.0
 11
-500.47727812321
 21
-728.4372392104062
 31
0.0
  0
LINE
  5
127
330
434
100
AcDbEntity
  8
DIMNSIONS
  6
Continuous
 62
     7
100
AcDbLine
 10
-500.0
 20
-675.0
 30
0.0
 11
-470.0
 21
-675.0
 31
0.0
  0
TEXT
  5
128
330
434
100
AcDbEntity
  8
DIMNSIONS
 62
     7
100
AcDbText
 10
-470.0
 20
-694.0500000000001
 30
0.0
 40
40.72102864583334
  1
M10(4ヵ所)
 41
0.7
 11
-470.0
 21
-653.3289713541667
 31
0.0
100
AcDbText
 73
     3
  0
TEXT
  5
129
330
434
100
AcDbEntity
  8
DATA
 62
     7
100
AcDbText
 10
-1312.5
 20
-1782.410423333334
 30
0.0
 40
28.50472005208334
  1
※仕様及び外観は予告なく変更されることがあります。
 41
0.7
 11
-1312.5
 21
-1753.905703281251
 31
0.0
100
AcDbText
 73
     3
  0
TEXT
  5
12A
330
434
100
AcDbEntity
  8
DATA
 62
     7
100
AcDbText
 10
-1312.5
 20
-1819.45209
 30
0.0
 40
28.50472005208334
  1
　また、同一商品でも若干の個体差があることがあります。ご了承ください。
 41
0.7
 11
-1312.5
 21
-1790.947369947917
 31
0.0
100
AcDbText
 73
     3
  0
TEXT
  5
12B
330
434
100
AcDbEntity
  8
DATA
 62
     7
100
AcDbText
 10
575.0
 20
-1733.59124
 30
0.0
 40
36.64892578125
  1
AC2215/64、AC2215/95、AC2215/00
 41
0.7
 11
575.0
 21
-1696.94231421875
 31
0.0
100
AcDbText
 73
     3
  0
TEXT
  5
12C
330
434
100
AcDbEntity
  8
DATA
 62
     7
100
AcDbText
 10
712.4999999999996
 20
-1673.448278563268
 30
0.0
 40
28.50472005208333
  1
2-Wayフルレンジ・スピーカー
 41
0.7
 11
712.4999999999996
 21
-1644.943558511185
 31
0.0
100
AcDbText
 73
     3
  0
TEXT
  5
12D
330
434
100
AcDbEntity
  8
DATA
 62
     7
100
AcDbText
 10
915.5270875933128
 20
-1420.360514322917
 30
0.0
 40
40.72102864583334
  1
端子拡大図
 41
0.7
 72
     1
 11
996.2904610742157
 21
-1400.0
 31
0.0
100
AcDbText
 73
     2
  0
LINE
  5
12E
330
434
100
AcDbEntity
  8
DATA
  6
Continuous
 62
     7
100
AcDbLine
 10
850.0
 20
-1450.0
 30
0.0
 11
1150.0
 21
-1450.0
 31
0.0
  0
TEXT
  5
12F
330
434
100
AcDbEntity
  8
DATA
 62
     7
100
AcDbText
 10
749.9999999999996
 20
-1624.84124
 30
0.0
 40
36.64892578125
  1
JBL PROFESSIONAL
 41
0.7
 11
749.9999999999996
 21
-1588.19231421875
 31
0.0
100
AcDbText
 73
     3
  0
ARC
  5
130
330
434
100
AcDbEntity
  8
DATA
  6
Continuous
 62
     7
100
AcDbCircle
 10
-1012.520617418351
 20
-818.7683545878689
 30
0.0
 40
24.45228555048098
100
AcDbArc
 50
87.02608284523618
 51
134.9437128265268
  0
ARC
  5
131
330
434
100
AcDbEntity
  8
DATA
  6
Continuous
 62
     7
100
AcDbCircle
 10
-1014.253977064221
 20
-813.869715596329
 30
0.0
 40
19.88639071312661
100
AcDbArc
 50
141.3926183852985
 51
189.666793414571
  0
ARC
  5
132
330
434
100
AcDbEntity
  8
DATA
  6
Continuous
 62
     7
100
AcDbCircle
 10
-845.1359999994579
 20
-782.3474999998818
 30
0.0
 40
191.9148703630406
100
AcDbArc
 50
190.4659321364913
 51
194.3489049183089
  0
ARC
  5
133
330
434
100
AcDbEntity
  8
DATA
  6
Continuous
 62
     7
100
AcDbCircle
 10
-1761.640571428596
 20
-1046.280714285722
 30
0.0
 40
761.9441222709869
100
AcDbArc
 50
15.16729136014968
 51
16.497481880695
  0
ARC
  5
134
330
434
100
AcDbEntity
  8
DATA
  6
Continuous
 62
     7
100
AcDbCircle
 10
-1057.448710144921
 20
-856.0176231884044
 30
0.0
 40
32.50765844695523
100
AcDbArc
 50
357.6668616310438
 51
16.23905330530369
  0
LINE
  5
135
330
434
100
AcDbEntity
  8
DATA
  6
Continuous
 62
     7
100
AcDbLine
 10
-1109.911241276557
 20
-543.0371794030377
 30
0.0
 11
-992.5853830501209
 21
-105.1711154603551
 31
0.0
  0
LINE
  5
136
330
434
100
AcDbEntity
  8
DATA
  6
STYLE_01
 62
     7
100
AcDbLine
 10
-619.0120000000002
 20
-1351.751000000004
 30
0.0
 11
-619.0120000000002
 21
-1339.051000000004
 31
0.0
  0
LINE
  5
137
330
434
100
AcDbEntity
  8
DATA
  6
STYLE_01
 62
     7
100
AcDbLine
 10
-642.634
 20
-1351.751000000004
 30
0.0
 11
-642.634
 21
-1339.051000000004
 31
0.0
  0
LINE
  5
138
330
434
100
AcDbEntity
  8
DATA
  6
STYLE_01
 62
     7
100
AcDbLine
 10
-642.634
 20
-1339.051000000004
 30
0.0
 11
-595.1360000000004
 21
-1339.051000000004
 31
0.0
  0
LINE
  5
139
330
434
100
AcDbEntity
  8
DATA
  6
STYLE_01
 62
     7
100
AcDbLine
 10
-619.0120000000002
 20
-760.9489999999961
 30
0.0
 11
-619.0120000000002
 21
-748.2489999999962
 31
0.0
  0
LINE
  5
13A
330
434
100
AcDbEntity
  8
DATA
  6
STYLE_01
 62
     7
100
AcDbLine
 10
-642.634
 20
-760.9489999999961
 30
0.0
 11
-642.634
 21
-748.2489999999962
 31
0.0
  0
LINE
  5
13B
330
434
100
AcDbEntity
  8
DATA
  6
STYLE_01
 62
     7
100
AcDbLine
 10
-642.634
 20
-760.9489999999961
 30
0.0
 11
-595.1360000000004
 21
-760.9489999999961
 31
0.0
  0
LINE
  5
13C
330
434
100
AcDbEntity
  8
DATA
  6
STYLE_01
 62
     7
100
AcDbLine
 10
-598.4380000000001
 20
-939.8909999999993
 30
0.0
 11
-595.1360000000004
 21
-939.8909999999993
 31
0.0
  0
LINE
  5
13D
330
434
100
AcDbEntity
  8
DATA
  6
STYLE_01
 62
     7
100
AcDbLine
 10
-598.4380000000001
 20
-774.7909999999996
 30
0.0
 11
-595.1360000000004
 21
-774.7909999999996
 31
0.0
  0
LINE
  5
13E
330
434
100
AcDbEntity
  8
DATA
  6
STYLE_01
 62
     7
100
AcDbLine
 10
-599.4540000000001
 20
-938.6209999999994
 30
0.0
 11
-599.4540000000001
 21
-776.0609999999993
 31
0.0
  0
LINE
  5
13F
330
434
100
AcDbEntity
  8
DATA
  6
STYLE_01
 62
     7
100
AcDbLine
 10
-599.4540000000001
 20
-938.6209999999994
 30
0.0
 11
-598.4380000000001
 21
-939.8909999999993
 31
0.0
  0
LINE
  5
140
330
434
100
AcDbEntity
  8
DATA
  6
STYLE_01
 62
     7
100
AcDbLine
 10
-599.4540000000001
 20
-776.0609999999993
 30
0.0
 11
-598.4380000000001
 21
-774.7909999999996
 31
0.0
  0
LINE
  5
141
330
434
100
AcDbEntity
  8
DATA
  6
STYLE_01
 62
     7
100
AcDbLine
 10
-613.9464054980058
 20
-950.2592799999996
 30
0.0
 11
-607.3424054980063
 21
-950.2592799999996
 31
0.0
  0
LINE
  5
142
330
434
100
AcDbEntity
  8
DATA
  6
STYLE_01
 62
     7
100
AcDbLine
 10
-607.3424054980063
 20
-945.3519999999997
 30
0.0
 11
-595.1504054980063
 21
-945.3519999999997
 31
0.0
  0
LINE
  5
143
330
434
100
AcDbEntity
  8
DATA
  6
STYLE_01
 62
     7
100
AcDbLine
 10
-607.3424054980063
 20
-945.3519999999997
 30
0.0
 11
-607.3424054980063
 21
-1334.734000000001
 31
0.0
  0
LINE
  5
144
330
434
100
AcDbEntity
  8
DATA
  6
STYLE_01
 62
     7
100
AcDbLine
 10
-613.9464054980058
 20
-950.2592799999996
 30
0.0
 11
-614.2004054980056
 21
-1329.826720000001
 31
0.0
  0
LINE
  5
145
330
434
100
AcDbEntity
  8
DATA
  6
STYLE_01
 62
     7
100
AcDbLine
 10
-614.2004054980056
 20
-1329.826720000001
 30
0.0
 11
-607.3424054980063
 21
-1329.826720000001
 31
0.0
  0
LINE
  5
146
330
434
100
AcDbEntity
  8
DATA
  6
STYLE_01
 62
     7
100
AcDbLine
 10
-607.3424054980063
 20
-1334.734000000001
 30
0.0
 11
-595.1504054980063
 21
-1334.520640000001
 31
0.0
  0
LINE
  5
147
330
434
100
AcDbEntity
  8
DATA
  6
Continuous
 62
     7
100
AcDbLine
 10
-595.1360000000004
 20
-748.2489999999962
 30
0.0
 11
-595.1360000000004
 21
-1351.751000000004
 31
0.0
  0
LINE
  5
148
330
434
100
AcDbEntity
  8
DATA
  6
Continuous
 62
     7
100
AcDbLine
 10
-636.54
 20
-1368.516
 30
0.0
 11
-159.2699999999999
 21
-1368.516
 31
0.0
  0
LINE
  5
149
330
434
100
AcDbEntity
  8
DATA
  6
Continuous
 62
     7
100
AcDbLine
 10
-650.0
 20
-1355.056
 30
0.0
 11
-650.0
 21
-744.9439999999998
 31
0.0
  0
LINE
  5
14A
330
434
100
AcDbEntity
  8
DATA
  6
Continuous
 62
     7
100
AcDbLine
 10
-145.8099999999999
 20
-744.9439999999998
 30
0.0
 11
-145.8099999999999
 21
-1355.056
 31
0.0
  0
LINE
  5
14B
330
434
100
AcDbEntity
  8
DATA
  6
Continuous
 62
     7
100
AcDbLine
 10
-650.0
 20
-748.2489999999962
 30
0.0
 11
-595.1360000000004
 21
-748.2489999999962
 31
0.0
  0
LINE
  5
14C
330
434
100
AcDbEntity
  8
DATA
  6
Continuous
 62
     7
100
AcDbLine
 10
-650.0
 20
-1351.751000000004
 30
0.0
 11
-595.1360000000004
 21
-1351.751000000004
 31
0.0
  0
LINE
  5
14D
330
434
100
AcDbEntity
  8
DATA
  6
Continuous
 62
     7
100
AcDbLine
 10
-988.1379999999992
 20
-1327.749000000001
 30
0.0
 11
-1077.037999999999
 21
-1238.849000000001
 31
0.0
  0
LINE
  5
14E
330
434
100
AcDbEntity
  8
DATA
  6
Continuous
 62
     7
100
AcDbLine
 10
-1087.959999999999
 20
-1243.167000000001
 30
0.0
 11
-1087.959999999999
 21
-1332.067000000001
 31
0.0
  0
ARC
  5
14F
330
434
100
AcDbEntity
  8
DATA
  6
Continuous
 62
     7
100
AcDbCircle
 10
-992.7099999999997
 20
-1332.067000000001
 30
0.0
 40
6.349999999999909
100
AcDbArc
 50
270.0
 51
45.00000000000436
  0
ARC
  5
150
330
434
100
AcDbEntity
  8
DATA
  6
Continuous
 62
     7
100
AcDbCircle
 10
-1081.609999999999
 20
-1332.067000000001
 30
0.0
 40
6.349999999999909
100
AcDbArc
 50
180.0
 51
270.0
  0
LINE
  5
151
330
434
100
AcDbEntity
  8
DATA
  6
Continuous
 62
     7
100
AcDbLine
 10
-1081.609999999999
 20
-1338.417000000001
 30
0.0
 11
-992.7099999999997
 21
-1338.417000000001
 31
0.0
  0
ARC
  5
152
330
434
100
AcDbEntity
  8
DATA
  6
Continuous
 62
     7
100
AcDbCircle
 10
-1081.609999999999
 20
-1243.167000000001
 30
0.0
 40
6.349999999999913
100
AcDbArc
 50
45.0
 51
180.0
  0
LINE
  5
153
330
434
100
AcDbEntity
  8
DATA
  6
Continuous
 62
     7
100
AcDbLine
 10
-883.2359999999999
 20
-866.4849999999992
 30
0.0
 11
-770.46
 21
-913.4749999999993
 31
0.0
  0
LINE
  5
154
330
434
100
AcDbEntity
  8
DATA
  6
Continuous
 62
     7
100
AcDbLine
 10
-883.2359999999999
 20
-848.1969999999991
 30
0.0
 11
-780.5119565672662
 21
-805.39531523636
 31
0.0
  0
LINE
  5
155
330
434
100
AcDbEntity
  8
DATA
  6
Continuous
 62
     7
100
AcDbLine
 10
-916.7639999999996
 20
-866.4849999999992
 30
0.0
 11
-1029.54
 21
-913.4749999999993
 31
0.0
  0
LINE
  5
156
330
434
100
AcDbEntity
  8
DATA
  6
Continuous
 62
     7
100
AcDbLine
 10
-916.7639999999996
 20
-848.1969999999991
 30
0.0
 11
-1029.54
 21
-801.2069999999994
 31
0.0
  0
LINE
  5
157
330
434
100
AcDbEntity
  8
DATA
  6
Continuous
 62
     7
100
AcDbLine
 10
-788.7479999999997
 20
-920.3329999999992
 30
0.0
 11
-899.9999999999996
 21
-922.3649999999992
 31
0.0
  0
LINE
  5
158
330
434
100
AcDbEntity
  8
DATA
  6
Continuous
 62
     7
100
AcDbLine
 10
-1011.252
 20
-920.3329999999992
 30
0.0
 11
-899.9999999999996
 21
-922.3649999999992
 31
0.0
  0
LINE
  5
159
330
434
100
AcDbEntity
  8
DATA
  6
Continuous
 62
     7
100
AcDbLine
 10
-788.7479999999997
 20
-794.3489999999992
 30
0.0
 11
-899.9999999999996
 21
-792.3169999999992
 31
0.0
  0
LINE
  5
15A
330
434
100
AcDbEntity
  8
DATA
  6
Continuous
 62
     7
100
AcDbLine
 10
-1011.252
 20
-794.3489999999992
 30
0.0
 11
-899.9999999999996
 21
-792.3169999999992
 31
0.0
  0
CIRCLE
  5
15B
330
434
100
AcDbEntity
  8
DATA
  6
Continuous
 62
     7
100
AcDbCircle
 10
-899.9999999999996
 20
-857.3409999999993
 30
0.0
 40
19.04999999999972
  0
ARC
  5
15C
330
434
100
AcDbEntity
  8
DATA
  6
Continuous
 62
     7
100
AcDbCircle
 10
-1027.0
 20
-800.1909999999991
 30
0.0
 40
25.39999999999998
100
AcDbArc
 50
90.0
 51
180.0
  0
LINE
  5
15D
330
434
100
AcDbEntity
  8
DATA
  6
Continuous
 62
     7
100
AcDbLine
 10
-1052.4
 20
-800.1909999999991
 30
0.0
 11
-1052.4
 21
-914.4909999999992
 31
0.0
  0
ARC
  5
15E
330
434
100
AcDbEntity
  8
DATA
  6
Continuous
 62
     7
100
AcDbCircle
 10
-1027.0
 20
-914.4909999999992
 30
0.0
 40
25.39999999999964
100
AcDbArc
 50
180.0
 51
270.0
  0
LINE
  5
15F
330
434
100
AcDbEntity
  8
DATA
  6
Continuous
 62
     7
100
AcDbLine
 10
-773.0
 20
-939.8909999999993
 30
0.0
 11
-1027.0
 21
-939.8909999999993
 31
0.0
  0
LINE
  5
160
330
434
100
AcDbEntity
  8
DATA
  6
Continuous
 62
     7
100
AcDbLine
 10
-1027.0
 20
-774.7909999999992
 30
0.0
 11
-797.0527389383211
 21
-774.7909999999992
 31
0.0
  0
CIRCLE
  5
161
330
434
100
AcDbEntity
  8
DATA
  6
Continuous
 62
     7
100
AcDbCircle
 10
-1043.001999999999
 20
-887.566999999999
 30
0.0
 40
2.793999999999869
  0
CIRCLE
  5
162
330
434
100
AcDbEntity
  8
DATA
  6
Continuous
 62
     7
100
AcDbCircle
 10
-1043.001999999999
 20
-887.566999999999
 30
0.0
 40
5.079999999999927
  0
CIRCLE
  5
163
330
434
100
AcDbEntity
  8
DATA
  6
Continuous
 62
     7
100
AcDbCircle
 10
-1043.001999999999
 20
-827.1149999999995
 30
0.0
 40
2.793999999999869
  0
CIRCLE
  5
164
330
434
100
AcDbEntity
  8
DATA
  6
Continuous
 62
     7
100
AcDbCircle
 10
-1043.001999999999
 20
-827.1149999999995
 30
0.0
 40
5.079999999999927
  0
CIRCLE
  5
165
330
434
100
AcDbEntity
  8
DATA
  6
Continuous
 62
     7
100
AcDbCircle
 10
-998.5519999999997
 20
-930.4929999999993
 30
0.0
 40
2.793999999999869
  0
CIRCLE
  5
166
330
434
100
AcDbEntity
  8
DATA
  6
Continuous
 62
     7
100
AcDbCircle
 10
-998.5519999999997
 20
-930.4929999999993
 30
0.0
 40
5.079999999999927
  0
CIRCLE
  5
167
330
434
100
AcDbEntity
  8
DATA
  6
Continuous
 62
     7
100
AcDbCircle
 10
-899.9999999999996
 20
-930.4929999999993
 30
0.0
 40
2.793999999999869
  0
CIRCLE
  5
168
330
434
100
AcDbEntity
  8
DATA
  6
Continuous
 62
     7
100
AcDbCircle
 10
-899.9999999999996
 20
-930.4929999999993
 30
0.0
 40
5.079999999999927
  0
CIRCLE
  5
169
330
434
100
AcDbEntity
  8
DATA
  6
Continuous
 62
     7
100
AcDbCircle
 10
-801.4479999999998
 20
-930.4929999999993
 30
0.0
 40
2.793999999999869
  0
CIRCLE
  5
16A
330
434
100
AcDbEntity
  8
DATA
  6
Continuous
 62
     7
100
AcDbCircle
 10
-801.4479999999998
 20
-930.4929999999993
 30
0.0
 40
5.079999999999927
  0
CIRCLE
  5
16B
330
434
100
AcDbEntity
  8
DATA
  6
Continuous
 62
     7
100
AcDbCircle
 10
-998.5519999999997
 20
-784.1889999999994
 30
0.0
 40
2.793999999999869
  0
CIRCLE
  5
16C
330
434
100
AcDbEntity
  8
DATA
  6
Continuous
 62
     7
100
AcDbCircle
 10
-998.5519999999997
 20
-784.1889999999994
 30
0.0
 40
5.079999999999927
  0
CIRCLE
  5
16D
330
434
100
AcDbEntity
  8
DATA
  6
Continuous
 62
     7
100
AcDbCircle
 10
-899.9999999999996
 20
-784.1889999999994
 30
0.0
 40
2.793999999999869
  0
CIRCLE
  5
16E
330
434
100
AcDbEntity
  8
DATA
  6
Continuous
 62
     7
100
AcDbCircle
 10
-899.9999999999996
 20
-784.1889999999994
 30
0.0
 40
5.079999999999927
  0
CIRCLE
  5
16F
330
434
100
AcDbEntity
  8
DATA
  6
Continuous
 62
     7
100
AcDbCircle
 10
-970.7938618601238
 20
-1310.95450143548
 30
0.0
 40
4.063999999999986
  0
CIRCLE
  5
170
330
434
100
AcDbEntity
  8
DATA
  6
Continuous
 62
     7
100
AcDbCircle
 10
-970.7938618601238
 20
-1310.95450143548
 30
0.0
 40
3.301999999999833
  0
ARC
  5
171
330
434
100
AcDbEntity
  8
DATA
  6
Continuous
 62
     7
100
AcDbCircle
 10
-899.9999999999996
 20
-1140.043
 30
0.0
 40
55.88000000000011
100
AcDbArc
 50
68.47954276527615
 51
222.2869461145204
  0
ARC
  5
172
330
434
100
AcDbEntity
  8
DATA
  6
Continuous
 62
     7
100
AcDbCircle
 10
-899.9999999999996
 20
-1140.043
 30
0.0
 40
161.7980000000003
100
AcDbArc
 50
51.11788107195746
 51
254.995041146941
  0
ARC
  5
173
330
434
100
AcDbEntity
  8
DATA
  6
Continuous
 62
     7
100
AcDbCircle
 10
-899.9999999999996
 20
-1140.043
 30
0.0
 40
166.8780000000003
100
AcDbArc
 50
51.29881018804264
 51
256.1454093605744
  0
ARC
  5
174
330
434
100
AcDbEntity
  8
DATA
  6
Continuous
 62
     7
100
AcDbCircle
 10
-899.9999999999996
 20
-1140.043
 30
0.0
 40
171.9580000000004
100
AcDbArc
 50
51.50918205027232
 51
257.2896834036322
  0
CIRCLE
  5
175
330
434
100
AcDbEntity
  8
DATA
  6
Continuous
 62
     7
100
AcDbCircle
 10
-1070.911501435478
 20
-1069.249138139875
 30
0.0
 40
4.064000000000161
  0
CIRCLE
  5
176
330
434
100
AcDbEntity
  8
DATA
  6
Continuous
 62
     7
100
AcDbCircle
 10
-1070.911501435478
 20
-1069.249138139875
 30
0.0
 40
3.301999999999833
  0
CIRCLE
  5
177
330
434
100
AcDbEntity
  8
DATA
  6
Continuous
 62
     7
100
AcDbCircle
 10
-829.2061381398756
 20
-969.1314985645204
 30
0.0
 40
4.063999999999986
  0
CIRCLE
  5
178
330
434
100
AcDbEntity
  8
DATA
  6
Continuous
 62
     7
100
AcDbCircle
 10
-829.2061381398756
 20
-969.1314985645204
 30
0.0
 40
3.302000000000254
  0
CIRCLE
  5
179
330
434
100
AcDbEntity
  8
DATA
  6
Continuous
 62
     7
100
AcDbCircle
 10
-970.7627588454935
 20
-969.2065878842722
 30
0.0
 40
4.064000000000073
  0
CIRCLE
  5
17A
330
434
100
AcDbEntity
  8
DATA
  6
Continuous
 62
     7
100
AcDbCircle
 10
-970.7627588454935
 20
-969.2065878842722
 30
0.0
 40
3.302000000000254
  0
CIRCLE
  5
17B
330
434
100
AcDbEntity
  8
DATA
  6
Continuous
 62
     7
100
AcDbCircle
 10
-1070.836412115726
 20
-1210.805758845494
 30
0.0
 40
4.063999999999986
  0
CIRCLE
  5
17C
330
434
100
AcDbEntity
  8
DATA
  6
Continuous
 62
     7
100
AcDbCircle
 10
-1070.836412115726
 20
-1210.805758845494
 30
0.0
 40
3.301999999999833
  0
ARC
  5
17D
330
434
100
AcDbEntity
  8
DATA
  6
Continuous
 62
     7
100
AcDbCircle
 10
-899.9999999999996
 20
-1140.043
 30
0.0
 40
177.0379999999998
100
AcDbArc
 50
51.74670526283076
 51
258.4294757696047
  0
ARC
  5
17E
330
434
100
AcDbEntity
  8
DATA
  6
Continuous
 62
     7
100
AcDbCircle
 10
-899.9999999999996
 20
-1140.043
 30
0.0
 40
193.2939999999998
100
AcDbArc
 50
52.66738891446881
 51
262.063703354064
  0
LINE
  5
17F
330
434
100
AcDbEntity
  8
DATA
  6
Continuous
 62
     7
100
AcDbLine
 10
-1110.82
 20
-744.9439999999998
 30
0.0
 11
-1110.82
 21
-1355.056
 31
0.0
  0
LINE
  5
180
330
434
100
AcDbEntity
  8
DATA
  6
Continuous
 62
     7
100
AcDbLine
 10
-689.1799999999998
 20
-1355.056
 30
0.0
 11
-689.1799999999998
 21
-744.9439999999998
 31
0.0
  0
LINE
  5
181
330
434
100
AcDbEntity
  8
DATA
  6
Continuous
 62
     7
100
AcDbLine
 10
-689.1800000000003
 20
-748.2489999999962
 30
0.0
 11
-1110.82
 21
-748.2489999999962
 31
0.0
  0
LINE
  5
182
330
434
100
AcDbEntity
  8
DATA
  6
Continuous
 62
     7
100
AcDbLine
 10
-1087.96
 20
-760.9489999999961
 30
0.0
 11
-1087.96
 21
-748.2489999999962
 31
0.0
  0
LINE
  5
183
330
434
100
AcDbEntity
  8
DATA
  6
Continuous
 62
     7
100
AcDbLine
 10
-712.0400000000003
 20
-760.9489999999961
 30
0.0
 11
-712.0400000000003
 21
-748.2489999999962
 31
0.0
  0
LINE
  5
184
330
434
100
AcDbEntity
  8
DATA
  6
Continuous
 62
     7
100
AcDbLine
 10
-1087.96
 20
-760.9489999999961
 30
0.0
 11
-712.0400000000003
 21
-760.9489999999961
 31
0.0
  0
LINE
  5
185
330
434
100
AcDbEntity
  8
DATA
  6
Continuous
 62
     7
100
AcDbLine
 10
-702.6399999999998
 20
-731.4839999999998
 30
0.0
 11
-1097.36
 21
-731.4839999999998
 31
0.0
  0
LINE
  5
186
330
434
100
AcDbEntity
  8
DATA
  6
Continuous
 62
     7
100
AcDbLine
 10
-1110.819999999999
 20
-1351.751000000004
 30
0.0
 11
-689.1799999999998
 21
-1351.751000000004
 31
0.0
  0
LINE
  5
187
330
434
100
AcDbEntity
  8
DATA
  6
Continuous
 62
     7
100
AcDbLine
 10
-1087.959999999999
 20
-1339.051000000004
 30
0.0
 11
-922.2516177869648
 21
-1339.051000000004
 31
0.0
  0
LINE
  5
188
330
434
100
AcDbEntity
  8
DATA
  6
Continuous
 62
     7
100
AcDbLine
 10
-1087.959999999999
 20
-1351.751000000004
 30
0.0
 11
-1087.959999999999
 21
-1339.051000000004
 31
0.0
  0
LINE
  5
189
330
434
100
AcDbEntity
  8
DATA
  6
Continuous
 62
     7
100
AcDbLine
 10
-702.6399999999998
 20
-1368.516
 30
0.0
 11
-1097.36
 21
-1368.516
 31
0.0
  0
ARC
  5
18A
330
434
100
AcDbEntity
  8
DATA
  6
Continuous
 62
     7
100
AcDbCircle
 10
-1097.36
 20
-744.9439999999998
 30
0.0
 40
13.46000000000003
100
AcDbArc
 50
90.0
 51
180.0
  0
ARC
  5
18B
330
434
100
AcDbEntity
  8
DATA
  6
Continuous
 62
     7
100
AcDbCircle
 10
-1097.36
 20
-1355.056
 30
0.0
 40
13.46000000000003
100
AcDbArc
 50
180.0
 51
270.0
  0
ARC
  5
18C
330
434
100
AcDbEntity
  8
DATA
  6
Continuous
 62
     7
100
AcDbCircle
 10
-702.6399999999998
 20
-1355.056
 30
0.0
 40
13.46000000000003
100
AcDbArc
 50
270.0
 51
0.0
  0
ARC
  5
18D
330
434
100
AcDbEntity
  8
DATA
  6
Continuous
 62
     7
100
AcDbCircle
 10
-702.6399999999998
 20
-744.9439999999998
 30
0.0
 40
13.46000000000003
100
AcDbArc
 50
0.0
 51
90.0
  0
ARC
  5
18E
330
434
100
AcDbEntity
  8
DATA
  6
Continuous
 62
     7
100
AcDbCircle
 10
-899.9999999999996
 20
163.2699999999999
 30
0.0
 40
763.2699999999999
100
AcDbArc
 50
255.5216536050701
 51
284.4775121449131
  0
ARC
  5
18F
330
434
100
AcDbEntity
  8
DATA
  6
Continuous
 62
     7
100
AcDbCircle
 10
-1084.149999489425
 20
-549.9398833359227
 30
0.0
 40
26.67000000000255
100
AcDbArc
 50
164.9999999999998
 51
255.5224878550816
  0
LINE
  5
190
330
434
100
AcDbEntity
  8
DATA
  6
Continuous
 62
     7
100
AcDbLine
 10
-690.0887587234424
 20
-543.0371794030401
 30
0.0
 11
-807.414616949879
 21
-105.1711154603551
 31
0.0
  0
ARC
  5
191
330
434
100
AcDbEntity
  8
DATA
  6
Continuous
 62
     7
100
AcDbCircle
 10
-715.850000510572
 20
-549.9398833359244
 30
0.0
 40
26.6700000000004
100
AcDbArc
 50
284.4775121449135
 51
15.00000000000023
  0
ARC
  5
192
330
434
100
AcDbEntity
  8
DATA
  6
Continuous
 62
     7
100
AcDbCircle
 10
-980.3857398640898
 20
-108.4399999999999
 30
0.0
 40
12.62999999999999
100
AcDbArc
 50
90.0
 51
165.0000000000003
  0
ARC
  5
193
330
434
100
AcDbEntity
  8
DATA
  6
Continuous
 62
     7
100
AcDbCircle
 10
-819.6142601359101
 20
-108.4399999999999
 30
0.0
 40
12.63000000000021
100
AcDbArc
 50
14.9999999999997
 51
90.0
  0
CIRCLE
  5
194
330
434
100
AcDbEntity
  8
DATA
  6
Continuous
 62
     7
100
AcDbCircle
 10
-750.4999999999999
 20
-481.469924408746
 30
0.0
 40
11.17600000000038
  0
LINE
  5
195
330
434
100
AcDbEntity
  8
DATA
  6
Continuous
 62
     7
100
AcDbLine
 10
-747.7060000000001
 20
-479.6919244087463
 30
0.0
 11
-750.4999999999999
 21
-477.913924408746
 31
0.0
  0
LINE
  5
196
330
434
100
AcDbEntity
  8
DATA
  6
Continuous
 62
     7
100
AcDbLine
 10
-753.2939999999999
 20
-482.9939244087459
 30
0.0
 11
-750.4999999999999
 21
-484.7719244087456
 31
0.0
  0
LINE
  5
197
330
434
100
AcDbEntity
  8
DATA
  6
Continuous
 62
     7
100
AcDbLine
 10
-747.7060000000001
 20
-482.9939244087459
 30
0.0
 11
-747.7060000000001
 21
-479.6919244087463
 31
0.0
  0
LINE
  5
198
330
434
100
AcDbEntity
  8
DATA
  6
Continuous
 62
     7
100
AcDbLine
 10
-753.2939999999999
 20
-479.6919244087463
 30
0.0
 11
-753.2939999999999
 21
-482.9939244087459
 31
0.0
  0
LINE
  5
199
330
434
100
AcDbEntity
  8
DATA
  6
Continuous
 62
     7
100
AcDbLine
 10
-750.4999999999999
 20
-484.7719244087456
 30
0.0
 11
-747.7060000000001
 21
-482.9939244087459
 31
0.0
  0
LINE
  5
19A
330
434
100
AcDbEntity
  8
DATA
  6
Continuous
 62
     7
100
AcDbLine
 10
-750.4999999999999
 20
-477.913924408746
 30
0.0
 11
-753.2939999999999
 21
-479.6919244087463
 31
0.0
  0
LINE
  5
19B
330
434
100
AcDbEntity
  8
DATA
  6
Continuous
 62
     7
100
AcDbLine
 10
-980.3857398640898
 20
-95.80999999999994
 30
0.0
 11
-819.6142601359101
 21
-95.80999999999994
 31
0.0
  0
CIRCLE
  5
19C
330
434
100
AcDbEntity
  8
DATA
  6
Continuous
 62
     7
100
AcDbCircle
 10
-1049.5
 20
-481.469924408746
 30
0.0
 40
11.17600000000038
  0
LINE
  5
19D
330
434
100
AcDbEntity
  8
DATA
  6
Continuous
 62
     7
100
AcDbLine
 10
-1052.294
 20
-479.6919244087463
 30
0.0
 11
-1049.5
 21
-477.913924408746
 31
0.0
  0
LINE
  5
19E
330
434
100
AcDbEntity
  8
DATA
  6
Continuous
 62
     7
100
AcDbLine
 10
-1046.706
 20
-482.9939244087459
 30
0.0
 11
-1049.5
 21
-484.7719244087456
 31
0.0
  0
LINE
  5
19F
330
434
100
AcDbEntity
  8
DATA
  6
Continuous
 62
     7
100
AcDbLine
 10
-1052.294
 20
-482.9939244087459
 30
0.0
 11
-1052.294
 21
-479.6919244087463
 31
0.0
  0
LINE
  5
1A0
330
434
100
AcDbEntity
  8
DATA
  6
Continuous
 62
     7
100
AcDbLine
 10
-1046.706
 20
-479.6919244087463
 30
0.0
 11
-1046.706
 21
-482.9939244087459
 31
0.0
  0
LINE
  5
1A1
330
434
100
AcDbEntity
  8
DATA
  6
Continuous
 62
     7
100
AcDbLine
 10
-1049.5
 20
-484.7719244087456
 30
0.0
 11
-1052.294
 21
-482.9939244087459
 31
0.0
  0
LINE
  5
1A2
330
434
100
AcDbEntity
  8
DATA
  6
Continuous
 62
     7
100
AcDbLine
 10
-1049.5
 20
-477.913924408746
 30
0.0
 11
-1046.706
 21
-479.6919244087463
 31
0.0
  0
CIRCLE
  5
1A3
330
434
100
AcDbEntity
  8
DATA
  6
Continuous
 62
     7
100
AcDbCircle
 10
-900.0
 20
-138.2279999999999
 30
0.0
 40
11.17600000000038
  0
LINE
  5
1A4
330
434
100
AcDbEntity
  8
DATA
  6
Continuous
 62
     7
100
AcDbLine
 10
-897.206
 20
-136.4500000000001
 30
0.0
 11
-900.0
 21
-134.6719999999999
 31
0.0
  0
LINE
  5
1A5
330
434
100
AcDbEntity
  8
DATA
  6
Continuous
 62
     7
100
AcDbLine
 10
-902.7939999999999
 20
-139.7519999999998
 30
0.0
 11
-900.0
 21
-141.5299999999996
 31
0.0
  0
LINE
  5
1A6
330
434
100
AcDbEntity
  8
DATA
  6
Continuous
 62
     7
100
AcDbLine
 10
-897.206
 20
-139.7519999999998
 30
0.0
 11
-897.206
 21
-136.4500000000001
 31
0.0
  0
LINE
  5
1A7
330
434
100
AcDbEntity
  8
DATA
  6
Continuous
 62
     7
100
AcDbLine
 10
-902.7939999999999
 20
-136.4500000000001
 30
0.0
 11
-902.7939999999999
 21
-139.7519999999998
 31
0.0
  0
LINE
  5
1A8
330
434
100
AcDbEntity
  8
DATA
  6
Continuous
 62
     7
100
AcDbLine
 10
-900.0
 20
-141.5299999999996
 30
0.0
 11
-897.206
 21
-139.7519999999998
 31
0.0
  0
LINE
  5
1A9
330
434
100
AcDbEntity
  8
DATA
  6
Continuous
 62
     7
100
AcDbLine
 10
-900.0
 20
-134.6719999999999
 30
0.0
 11
-902.7939999999999
 21
-136.4500000000001
 31
0.0
  0
CIRCLE
  5
1AA
330
434
100
AcDbEntity
  8
DATA
  6
Continuous
 62
     7
100
AcDbCircle
 10
-900.0
 20
-367.082
 30
0.0
 40
11.17600000000038
  0
LINE
  5
1AB
330
434
100
AcDbEntity
  8
DATA
  6
Continuous
 62
     7
100
AcDbLine
 10
-897.206
 20
-365.3040000000002
 30
0.0
 11
-900.0
 21
-363.526
 31
0.0
  0
LINE
  5
1AC
330
434
100
AcDbEntity
  8
DATA
  6
Continuous
 62
     7
100
AcDbLine
 10
-902.7939999999999
 20
-368.6059999999999
 30
0.0
 11
-900.0
 21
-370.3839999999997
 31
0.0
  0
LINE
  5
1AD
330
434
100
AcDbEntity
  8
DATA
  6
Continuous
 62
     7
100
AcDbLine
 10
-897.206
 20
-368.6059999999999
 30
0.0
 11
-897.206
 21
-365.3040000000002
 31
0.0
  0
LINE
  5
1AE
330
434
100
AcDbEntity
  8
DATA
  6
Continuous
 62
     7
100
AcDbLine
 10
-902.7939999999999
 20
-365.3040000000002
 30
0.0
 11
-902.7939999999999
 21
-368.6059999999999
 31
0.0
  0
LINE
  5
1AF
330
434
100
AcDbEntity
  8
DATA
  6
Continuous
 62
     7
100
AcDbLine
 10
-900.0
 20
-370.3839999999997
 30
0.0
 11
-897.206
 21
-368.6059999999999
 31
0.0
  0
LINE
  5
1B0
330
434
100
AcDbEntity
  8
DATA
  6
Continuous
 62
     7
100
AcDbLine
 10
-900.0
 20
-363.526
 30
0.0
 11
-902.7939999999999
 21
-365.3040000000002
 31
0.0
  0
ARC
  5
1B1
330
434
100
AcDbEntity
  8
DATA
  6
Continuous
 62
     7
100
AcDbCircle
 10
-636.54
 20
-1355.056
 30
0.0
 40
13.46000000000003
100
AcDbArc
 50
180.0
 51
270.0
  0
LINE
  5
1B2
330
434
100
AcDbEntity
  8
DATA
  6
Continuous
 62
     7
100
AcDbLine
 10
-10.82000000000016
 20
-744.9439999999998
 30
0.0
 11
-10.82000000000016
 21
-1355.056
 31
0.0
  0
LINE
  5
1B3
330
434
100
AcDbEntity
  8
DATA
  6
Continuous
 62
     7
100
AcDbLine
 10
410.8199999999997
 20
-1355.056
 30
0.0
 11
410.8199999999997
 21
-744.9439999999998
 31
0.0
  0
LINE
  5
1B4
330
434
100
AcDbEntity
  8
DATA
  6
Continuous
 62
     7
100
AcDbLine
 10
397.3600000000001
 20
-731.4839999999998
 30
0.0
 11
2.639999999999872
 21
-731.4839999999998
 31
0.0
  0
LINE
  5
1B5
330
434
100
AcDbEntity
  8
DATA
  6
Continuous
 62
     7
100
AcDbLine
 10
397.3600000000001
 20
-1368.516
 30
0.0
 11
2.639999999999872
 21
-1368.516
 31
0.0
  0
ARC
  5
1B6
330
434
100
AcDbEntity
  8
DATA
  6
Continuous
 62
     7
100
AcDbCircle
 10
2.639999999999872
 20
-744.9439999999998
 30
0.0
 40
13.46000000000003
100
AcDbArc
 50
90.0
 51
180.0
  0
ARC
  5
1B7
330
434
100
AcDbEntity
  8
DATA
  6
Continuous
 62
     7
100
AcDbCircle
 10
2.639999999999872
 20
-1355.056
 30
0.0
 40
13.46000000000003
100
AcDbArc
 50
180.0
 51
270.0
  0
ARC
  5
1B8
330
434
100
AcDbEntity
  8
DATA
  6
Continuous
 62
     7
100
AcDbCircle
 10
397.3600000000001
 20
-1355.056
 30
0.0
 40
13.46000000000003
100
AcDbArc
 50
270.0
 51
0.0
  0
ARC
  5
1B9
330
434
100
AcDbEntity
  8
DATA
  6
Continuous
 62
     7
100
AcDbCircle
 10
397.3600000000001
 20
-744.9439999999998
 30
0.0
 40
13.45999999999958
100
AcDbArc
 50
0.0
 51
90.0
  0
LINE
  5
1BA
330
434
100
AcDbEntity
  8
DATA
  6
Continuous
 62
     7
100
AcDbLine
 10
109.9229202777355
 20
-731.4839999999998
 30
0.0
 11
109.9229202777355
 21
-1368.516
 31
0.0
  0
LINE
  5
1BB
330
434
100
AcDbEntity
  8
DATA
  6
Continuous
 62
     7
100
AcDbLine
 10
290.0770797222644
 20
-731.4839999999998
 30
0.0
 11
290.0770797222644
 21
-1368.516
 31
0.0
  0
ARC
  5
1BC
330
434
100
AcDbEntity
  8
DATA
  6
Continuous
 62
     7
100
AcDbCircle
 10
-1012.520617418351
 20
-895.9136454121297
 30
0.0
 40
24.45228555048081
100
AcDbArc
 50
225.056287173473
 51
272.9739171547638
  0
ARC
  5
1BD
330
434
100
AcDbEntity
  8
DATA
  6
Continuous
 62
     7
100
AcDbCircle
 10
-1014.253977064221
 20
-900.8122844036694
 30
0.0
 40
19.88639071312665
100
AcDbArc
 50
170.3332065854289
 51
218.6073816147016
  0
ARC
  5
1BE
330
434
100
AcDbEntity
  8
DATA
  6
Continuous
 62
     7
100
AcDbCircle
 10
-845.1359999994579
 20
-932.3345000001166
 30
0.0
 40
191.9148703630406
100
AcDbArc
 50
165.6510950816911
 51
169.5340678635085
  0
ARC
  5
1BF
330
434
100
AcDbEntity
  8
DATA
  6
Continuous
 62
     7
100
AcDbCircle
 10
-1761.640571428596
 20
-668.4012857142764
 30
0.0
 40
761.9441222709869
100
AcDbArc
 50
343.5025181193049
 51
344.8327086398504
  0
ARC
  5
1C0
330
434
100
AcDbEntity
  8
DATA
  6
Continuous
 62
     7
100
AcDbCircle
 10
-1057.448710144921
 20
-858.6643768115946
 30
0.0
 40
32.50765844695521
100
AcDbArc
 50
343.7609466946964
 51
2.333138368956384
  0
ARC
  5
1C1
330
434
100
AcDbEntity
  8
DATA
  6
Continuous
 62
     7
100
AcDbCircle
 10
-758.333333333333
 20
-1237.833444444446
 30
0.0
 40
192.6504542711078
100
AcDbArc
 50
118.4126614430726
 51
216.2505469837672
  0
ARC
  5
1C2
330
434
100
AcDbEntity
  8
DATA
  6
Continuous
 62
     7
100
AcDbCircle
 10
-979.9038105676659
 20
-893.389000000001
 30
0.0
 40
217.9449471770337
100
AcDbArc
 50
306.5867755536295
 51
41.75509393345903
  0
CIRCLE
  5
1C3
330
434
100
AcDbEntity
  8
DATA
  6
Continuous
 62
     7
100
AcDbCircle
 10
-801.4480000000002
 20
-784.1889999999994
 30
0.0
 40
2.793999999999869
  0
CIRCLE
  5
1C4
330
434
100
AcDbEntity
  8
DATA
  6
Continuous
 62
     7
100
AcDbCircle
 10
-801.4480000000002
 20
-784.1889999999994
 30
0.0
 40
5.079999999999927
  0
ARC
  5
1C5
330
434
100
AcDbEntity
  8
DATA
  6
Continuous
 62
     7
100
AcDbCircle
 10
-787.4793825816476
 20
-818.7683545878689
 30
0.0
 40
24.45228555048102
100
AcDbArc
 50
85.93822364985383
 51
92.97391715476377
  0
ARC
  5
1C6
330
434
100
AcDbEntity
  8
DATA
  6
Continuous
 62
     7
100
AcDbCircle
 10
-38.35942857140344
 20
-1046.280714285722
 30
0.0
 40
761.9441222709869
100
AcDbArc
 50
163.8328453033866
 51
164.8327086398501
  0
ARC
  5
1C7
330
434
100
AcDbEntity
  8
DATA
  6
Continuous
 62
     7
100
AcDbCircle
 10
-742.5512898550772
 20
-856.0176231884044
 30
0.0
 40
32.50765844695521
100
AcDbArc
 50
163.7609466946964
 51
182.3331383689564
  0
ARC
  5
1C8
330
434
100
AcDbEntity
  8
DATA
  6
Continuous
 62
     7
100
AcDbCircle
 10
-787.4793825816476
 20
-895.9136454121297
 30
0.0
 40
24.45228555048098
100
AcDbArc
 50
267.0260828452363
 51
314.943712826527
  0
ARC
  5
1C9
330
434
100
AcDbEntity
  8
DATA
  6
Continuous
 62
     7
100
AcDbCircle
 10
-785.746022935778
 20
-900.8122844036694
 30
0.0
 40
19.88639071312661
100
AcDbArc
 50
321.3926183852985
 51
9.666793414571033
  0
ARC
  5
1CA
330
434
100
AcDbEntity
  8
DATA
  6
Continuous
 62
     7
100
AcDbCircle
 10
-954.8640000005411
 20
-932.3345000001166
 30
0.0
 40
191.9148703630406
100
AcDbArc
 50
10.46593213649142
 51
14.3489049183089
  0
ARC
  5
1CB
330
434
100
AcDbEntity
  8
DATA
  6
Continuous
 62
     7
100
AcDbCircle
 10
-38.35942857140344
 20
-668.4012857142764
 30
0.0
 40
761.9441222709869
100
AcDbArc
 50
195.1672913601497
 51
196.497481880695
  0
ARC
  5
1CC
330
434
100
AcDbEntity
  8
DATA
  6
Continuous
 62
     7
100
AcDbCircle
 10
-742.5512898550772
 20
-858.6643768115946
 30
0.0
 40
32.50765844695523
100
AcDbArc
 50
177.6668616310437
 51
196.2390533053036
  0
ARC
  5
1CD
330
434
100
AcDbEntity
  8
DATA
  6
Continuous
 62
     7
100
AcDbCircle
 10
-773.0
 20
-914.4909999999992
 30
0.0
 40
25.39999999999964
100
AcDbArc
 50
270.0
 51
284.1006126042592
  0
LWPOLYLINE
  5
1CE
330
434
100
AcDbEntity
  8
DATA
  6
Continuous
 62
     7
100
AcDbPolyline
 90
        4
 70
     1
 43
0.0
 10
-920.0
 20
-1233.516
 10
-880.0
 20
-1233.516
 10
-880.0
 20
-1273.516
 10
-920.0
 20
-1273.516
  0
LINE
  5
1D5
330
434
100
AcDbEntity
  8
DATA
  6
Continuous
 62
     7
100
AcDbLine
 10
-880.0
 20
-1267.516
 30
0.0
 11
-920.0
 21
-1267.516
 31
0.0
  0
TEXT
  5
1D6
330
434
100
AcDbEntity
  8
DATA
 62
     7
100
AcDbText
 10
-916.02548828125
 20
-1272.53601953125
 30
0.0
 40
4.0400390625
  1
PROFESSIONAL
 41
0.7
 72
     1
 11
-900.0
 21
-1270.516
 31
0.0
100
AcDbText
 73
     2
  0
ARC
  5
1D7
330
434
100
AcDbEntity
  8
DATA
  6
Continuous
 62
     7
100
AcDbCircle
 10
-899.3269060909975
 20
-1255.526398336711
 30
0.0
 40
0.4462963607459113
100
AcDbArc
 50
307.6419024975729
 51
354.2670192893826
  0
LINE
  5
1D8
330
434
100
AcDbEntity
  8
DATA
  6
Continuous
 62
     7
100
AcDbLine
 10
-910.7905699999999
 20
-1248.49349
 30
0.0
 11
-908.698326
 21
-1243.508258
 31
0.0
  0
LINE
  5
1D9
330
434
100
AcDbEntity
  8
DATA
  6
Continuous
 62
     7
100
AcDbLine
 10
-910.7905699999999
 20
-1248.49349
 30
0.0
 11
-912.8569980000003
 21
-1243.508258
 31
0.0
  0
LINE
  5
1DA
330
434
100
AcDbEntity
  8
DATA
  6
Continuous
 62
     7
100
AcDbLine
 10
-894.9308099999997
 20
-1257.508258
 30
0.0
 11
-894.9308099999997
 21
-1243.508258
 31
0.0
  0
LINE
  5
1DB
330
434
100
AcDbEntity
  8
DATA
  6
Continuous
 62
     7
100
AcDbLine
 10
-892.2444620000002
 20
-1243.508258
 30
0.0
 11
-892.2444620000002
 21
-1255.364354
 31
0.0
  0
LINE
  5
1DC
330
434
100
AcDbEntity
  8
DATA
  6
Continuous
 62
     7
100
AcDbLine
 10
-907.7167720000002
 20
-1243.508258
 30
0.0
 11
-907.7167720000002
 21
-1255.364354
 31
0.0
  0
LINE
  5
1DD
330
434
100
AcDbEntity
  8
DATA
  6
Continuous
 62
     7
100
AcDbLine
 10
-905.1337440000002
 20
-1243.508258
 30
0.0
 11
-905.1337440000002
 21
-1255.364354
 31
0.0
  0
LINE
  5
1DE
330
434
100
AcDbEntity
  8
DATA
  6
Continuous
 62
     7
100
AcDbLine
 10
-903.7905699999999
 20
-1243.508258
 30
0.0
 11
-903.7905699999999
 21
-1257.508258
 31
0.0
  0
LINE
  5
1DF
330
434
100
AcDbEntity
  8
DATA
  6
Continuous
 62
     7
100
AcDbLine
 10
-901.4400120000001
 20
-1244.825588
 30
0.0
 11
-901.4400120000001
 21
-1249.320064
 31
0.0
  0
LINE
  5
1E0
330
434
100
AcDbEntity
  8
DATA
  6
Continuous
 62
     7
100
AcDbLine
 10
-896.4020000000001
 20
-1249.06
 30
0.0
 11
-896.4020000000001
 21
-1245.781326
 31
0.0
  0
LINE
  5
1E1
330
434
100
AcDbEntity
  8
DATA
  6
Continuous
 62
     7
100
AcDbLine
 10
-898.882842
 20
-1245.445522
 30
0.0
 11
-898.882842
 21
-1248.700144
 31
0.0
  0
ARC
  5
1E2
330
434
100
AcDbEntity
  8
DATA
  6
Continuous
 62
     7
100
AcDbCircle
 10
-908.2351079999998
 20
-1253.913338
 30
0.0
 40
3.610394795234824
100
AcDbArc
 50
264.6908562215333
 51
323.9911991542417
  0
LINE
  5
1E3
330
434
100
AcDbEntity
  8
DATA
  6
Continuous
 62
     7
100
AcDbLine
 10
-909.6798659999999
 20
-1253.117102
 30
0.0
 11
-909.6798659999999
 21
-1255.364326
 31
0.0
  0
LINE
  5
1E4
330
434
100
AcDbEntity
  8
DATA
  6
Continuous
 62
     7
100
AcDbLine
 10
-909.6798659999999
 20
-1253.117102
 30
0.0
 11
-912.004594
 21
-1253.117102
 31
0.0
  0
LINE
  5
1E5
330
434
100
AcDbEntity
  8
DATA
  6
Continuous
 62
     7
100
AcDbLine
 10
-912.004594
 20
-1253.117102
 30
0.0
 11
-912.004594
 21
-1255.364326
 31
0.0
  0
ARC
  5
1E6
330
434
100
AcDbEntity
  8
DATA
  6
Continuous
 62
     7
100
AcDbCircle
 10
-908.6933979999999
 20
-1255.394622
 30
0.0
 40
0.9771003567393602
100
AcDbArc
 50
269.711848792745
 51
1.775987005692627
  0
ARC
  5
1E7
330
434
100
AcDbEntity
  8
DATA
  6
Continuous
 62
     7
100
AcDbCircle
 10
-908.7032399999998
 20
-1255.394622
 30
0.0
 40
0.9770953604435129
100
AcDbArc
 50
178.2240129943172
 51
270.2881512072365
  0
ARC
  5
1E8
330
434
100
AcDbEntity
  8
DATA
  6
Continuous
 62
     7
100
AcDbCircle
 10
-908.9032299999999
 20
-1253.913338
 30
0.0
 40
3.610388931725263
100
AcDbArc
 50
216.0088008457567
 51
275.3091437784647
  0
ARC
  5
1E9
330
434
100
AcDbEntity
  8
DATA
  6
Continuous
 62
     7
100
AcDbCircle
 10
-910.372978
 20
-1255.285184
 30
0.0
 40
1.633520291447063
100
AcDbArc
 50
182.7769954500026
 51
207.35960666715
  0
CIRCLE
  5
1EA
330
434
100
AcDbEntity
  8
DATA
  6
Continuous
 62
     7
100
AcDbCircle
 10
-910.6484980000001
 20
-1250.430768
 30
0.0
 40
1.330251999999745
  0
LINE
  5
1EB
330
434
100
AcDbEntity
  8
DATA
  6
Continuous
 62
     7
100
AcDbLine
 10
-887.9308099999999
 20
-1257.508244
 30
0.0
 11
-894.9308099999997
 21
-1257.508244
 31
0.0
  0
LINE
  5
1EC
330
434
100
AcDbEntity
  8
DATA
  6
Continuous
 62
     7
100
AcDbLine
 10
-887.9308099999999
 20
-1257.508244
 30
0.0
 11
-887.9308099999999
 21
-1253.117088
 31
0.0
  0
LINE
  5
1ED
330
434
100
AcDbEntity
  8
DATA
  6
Continuous
 62
     7
100
AcDbLine
 10
-887.9308099999999
 20
-1253.117102
 30
0.0
 11
-890.2813540000003
 21
-1253.117102
 31
0.0
  0
LINE
  5
1EE
330
434
100
AcDbEntity
  8
DATA
  6
Continuous
 62
     7
100
AcDbLine
 10
-890.2813540000003
 20
-1253.117102
 30
0.0
 11
-890.2813540000003
 21
-1255.364326
 31
0.0
  0
LINE
  5
1EF
330
434
100
AcDbEntity
  8
DATA
  6
Continuous
 62
     7
100
AcDbLine
 10
-903.7905699999999
 20
-1257.508244
 30
0.0
 11
-898.882842
 21
-1257.50823
 31
0.0
  0
LINE
  5
1F0
330
434
100
AcDbEntity
  8
DATA
  6
Continuous
 62
     7
100
AcDbLine
 10
-901.4400259999996
 20
-1256.1909
 30
0.0
 11
-900.1743419999996
 21
-1256.1909
 31
0.0
  0
LINE
  5
1F1
330
434
100
AcDbEntity
  8
DATA
  6
Continuous
 62
     7
100
AcDbLine
 10
-901.4400120000001
 20
-1256.1909
 30
0.0
 11
-901.4400120000001
 21
-1250.663224
 31
0.0
  0
LINE
  5
1F2
330
434
100
AcDbEntity
  8
DATA
  6
Continuous
 62
     7
100
AcDbLine
 10
-901.4400259999996
 20
-1250.663224
 30
0.0
 11
-900.1743419999996
 21
-1250.663224
 31
0.0
  0
LINE
  5
1F3
330
434
100
AcDbEntity
  8
DATA
  6
Continuous
 62
     7
100
AcDbLine
 10
-898.882842
 20
-1255.57098
 30
0.0
 11
-898.882842
 21
-1251.283144
 31
0.0
  0
ARC
  5
1F4
330
434
100
AcDbEntity
  8
DATA
  6
Continuous
 62
     7
100
AcDbCircle
 10
-906.7653599999998
 20
-1255.285184
 30
0.0
 40
1.633517967010857
100
AcDbArc
 50
332.6403933328381
 51
357.2230045500024
  0
ARC
  5
1F5
330
434
100
AcDbEntity
  8
DATA
  6
Continuous
 62
     7
100
AcDbCircle
 10
-891.257994
 20
-1255.394622
 30
0.0
 40
0.9771003567393602
100
AcDbArc
 50
269.711848792745
 51
1.775987005692627
  0
ARC
  5
1F6
330
434
100
AcDbEntity
  8
DATA
  6
Continuous
 62
     7
100
AcDbCircle
 10
-891.2678220000001
 20
-1255.394622
 30
0.0
 40
0.9770953604430584
100
AcDbArc
 50
178.2240129943164
 51
270.2881512072631
  0
LINE
  5
1F7
330
434
100
AcDbEntity
  8
DATA
  6
Continuous
 62
     7
100
AcDbLine
 10
-896.4031339999996
 20
-1255.261006
 30
0.0
 11
-896.4031339999996
 21
-1251.541458
 31
0.0
  0
LINE
  5
1F8
330
434
100
AcDbEntity
  8
DATA
  6
Continuous
 62
     7
100
AcDbLine
 10
-901.4400259999996
 20
-1249.320064
 30
0.0
 11
-900.1743419999996
 21
-1249.320064
 31
0.0
  0
ARC
  5
1F9
330
434
100
AcDbEntity
  8
DATA
  6
Continuous
 62
     7
100
AcDbCircle
 10
-899.0608099999999
 20
-1254.850526
 30
0.0
 40
2.663655976405099
100
AcDbArc
 50
273.8309816091145
 51
351.1351473098017
  0
LINE
  5
1FA
330
434
100
AcDbEntity
  8
DATA
  6
Continuous
 62
     7
100
AcDbLine
 10
-907.7167720000002
 20
-1243.508258
 30
0.0
 11
-905.1337440000002
 21
-1243.508258
 31
0.0
  0
LINE
  5
1FB
330
434
100
AcDbEntity
  8
DATA
  6
Continuous
 62
     7
100
AcDbLine
 10
-912.8569980000003
 20
-1243.508258
 30
0.0
 11
-908.698326
 21
-1243.508258
 31
0.0
  0
LINE
  5
1FC
330
434
100
AcDbEntity
  8
DATA
  6
Continuous
 62
     7
100
AcDbLine
 10
-894.9308099999997
 20
-1243.508258
 30
0.0
 11
-892.2444620000002
 21
-1243.508258
 31
0.0
  0
LINE
  5
1FD
330
434
100
AcDbEntity
  8
DATA
  6
Continuous
 62
     7
100
AcDbLine
 10
-903.7905699999999
 20
-1243.508258
 30
0.0
 11
-898.8558638205944
 21
-1243.508269331236
 31
0.0
  0
LINE
  5
1FE
330
434
100
AcDbEntity
  8
DATA
  6
Continuous
 62
     7
100
AcDbLine
 10
-901.4400259999996
 20
-1244.825602
 30
0.0
 11
-900.1743419999996
 21
-1244.825602
 31
0.0
  0
ARC
  5
1FF
330
434
100
AcDbEntity
  8
DATA
  6
Continuous
 62
     7
100
AcDbCircle
 10
-899.0342519999998
 20
-1246.161902
 30
0.0
 40
2.659621906076009
100
AcDbArc
 50
8.226923859016581
 51
86.15412669215196
  0
ARC
  5
200
330
434
100
AcDbEntity
  8
DATA
  6
Continuous
 62
     7
100
AcDbCircle
 10
-900.1593963523555
 20
-1253.735736855178
 30
0.0
 40
2.455208634734566
100
AcDbArc
 50
269.6512199376235
 51
282.8264828068773
  0
ARC
  5
201
330
434
100
AcDbEntity
  8
DATA
  6
Continuous
 62
     7
100
AcDbCircle
 10
-899.883637561547
 20
-1254.773750435718
 30
0.0
 40
1.382413065170727
100
AcDbArc
 50
281.2331036226757
 51
306.8620088940732
  0
ARC
  5
202
330
434
100
AcDbEntity
  8
DATA
  6
Continuous
 62
     7
100
AcDbCircle
 10
-899.3269060909975
 20
-1251.327725663288
 30
0.0
 40
0.4462963607457663
100
AcDbArc
 50
5.732980710559374
 51
52.35809750240933
  0
ARC
  5
203
330
434
100
AcDbEntity
  8
DATA
  6
Continuous
 62
     7
100
AcDbCircle
 10
-900.1593963523555
 20
-1253.118387144822
 30
0.0
 40
2.455208634734332
100
AcDbArc
 50
77.17351719312145
 51
90.34878006237656
  0
ARC
  5
204
330
434
100
AcDbEntity
  8
DATA
  6
Continuous
 62
     7
100
AcDbCircle
 10
-899.883637561547
 20
-1252.080373564282
 30
0.0
 40
1.38241306517064
100
AcDbArc
 50
53.13799110592125
 51
78.76689637732238
  0
ARC
  5
205
330
434
100
AcDbEntity
  8
DATA
  6
Continuous
 62
     7
100
AcDbCircle
 10
-897.7578859999999
 20
-1251.633032
 30
0.0
 40
1.357843429479467
100
AcDbArc
 50
3.867006359832556
 51
88.36163456789822
  0
ARC
  5
206
330
434
100
AcDbEntity
  8
DATA
  6
Continuous
 62
     7
100
AcDbCircle
 10
-897.7591319999996
 20
-1248.917144
 30
0.0
 40
1.359192715926412
100
AcDbArc
 50
271.6892821046399
 51
356.0782829826706
  0
ARC
  5
207
330
434
100
AcDbEntity
  8
DATA
  6
Continuous
 62
     7
100
AcDbCircle
 10
-899.3269060909975
 20
-1248.655562336712
 30
0.0
 40
0.4462963607459113
100
AcDbArc
 50
307.6419024975729
 51
354.2670192893826
  0
ARC
  5
208
330
434
100
AcDbEntity
  8
DATA
  6
Continuous
 62
     7
100
AcDbCircle
 10
-900.1593963523555
 20
-1246.864900855178
 30
0.0
 40
2.455208634734566
100
AcDbArc
 50
269.6512199376235
 51
282.8264828068773
  0
ARC
  5
209
330
434
100
AcDbEntity
  8
DATA
  6
Continuous
 62
     7
100
AcDbCircle
 10
-899.883637561547
 20
-1247.902914435718
 30
0.0
 40
1.382413065170504
100
AcDbArc
 50
281.2331036226776
 51
306.8620088940788
  0
ARC
  5
20A
330
434
100
AcDbEntity
  8
DATA
  6
Continuous
 62
     7
100
AcDbCircle
 10
-899.3269060909975
 20
-1245.490103663288
 30
0.0
 40
0.4462963607457891
100
AcDbArc
 50
5.732980710588419
 51
52.35809750240933
  0
ARC
  5
20B
330
434
100
AcDbEntity
  8
DATA
  6
Continuous
 62
     7
100
AcDbCircle
 10
-900.1593963523555
 20
-1247.280765144822
 30
0.0
 40
2.455208634734776
100
AcDbArc
 50
77.17351719312381
 51
90.34878006237653
  0
ARC
  5
20C
330
434
100
AcDbEntity
  8
DATA
  6
Continuous
 62
     7
100
AcDbCircle
 10
-899.883637561547
 20
-1246.242751564282
 30
0.0
 40
1.38241306517064
100
AcDbArc
 50
53.13799110592125
 51
78.76689637732238
  0
LINE
  5
20D
330
434
100
AcDbEntity
  8
DATA
  6
Continuous
 62
     7
100
AcDbLine
 10
10.25117306365746
 20
-772.3779999999993
 30
0.0
 11
9.527358300469584
 21
-770.5999999999992
 31
0.0
  0
LINE
  5
20E
330
434
100
AcDbEntity
  8
DATA
  6
Continuous
 62
     7
100
AcDbLine
 10
8.803543537281711
 20
-775.6799999999989
 30
0.0
 11
9.527358300469584
 21
-777.4579999999989
 31
0.0
  0
LINE
  5
20F
330
434
100
AcDbEntity
  8
DATA
  6
Continuous
 62
     7
100
AcDbLine
 10
10.25117306365746
 20
-775.6799999999989
 30
0.0
 11
10.25117306365746
 21
-772.3779999999993
 31
0.0
  0
LINE
  5
210
330
434
100
AcDbEntity
  8
DATA
  6
Continuous
 62
     7
100
AcDbLine
 10
8.803543537281711
 20
-772.3779999999993
 30
0.0
 11
8.803543537281711
 21
-775.6799999999989
 31
0.0
  0
LINE
  5
211
330
434
100
AcDbEntity
  8
DATA
  6
Continuous
 62
     7
100
AcDbLine
 10
9.527358300469584
 20
-777.4579999999989
 30
0.0
 11
10.25117306365746
 21
-775.6799999999989
 31
0.0
  0
LINE
  5
212
330
434
100
AcDbEntity
  8
DATA
  6
Continuous
 62
     7
100
AcDbLine
 10
9.527358300469584
 20
-770.5999999999992
 30
0.0
 11
8.803543537281711
 21
-772.3779999999993
 31
0.0
  0
ARC
  5
213
330
434
100
AcDbEntity
  8
DATA
  6
Continuous
 62
     7
100
AcDbCircle
 10
9.53037998097534
 20
-763.8199446234023
 30
0.0
 40
0.839950058596154
100
AcDbArc
 50
90.20611929444818
 51
119.0473409452174
  0
ARC
  5
214
330
434
100
AcDbEntity
  8
DATA
  6
Continuous
 62
     7
100
AcDbCircle
 10
10.35847429362138
 20
-764.9801624231896
 30
0.0
 40
2.262009997156326
100
AcDbArc
 50
123.1190190790347
 51
153.4318679617541
  0
ARC
  5
215
330
434
100
AcDbEntity
  8
DATA
  6
Continuous
 62
     7
100
AcDbCircle
 10
17.49372070714935
 20
-768.7903881296696
 30
0.0
 40
10.35023051602995
100
AcDbArc
 50
152.2329941255041
 51
170.3431386315171
  0
ARC
  5
216
330
434
100
AcDbEntity
  8
DATA
  6
Continuous
 62
     7
100
AcDbCircle
 10
39.2416079088307
 20
-773.5961802065101
 30
0.0
 40
32.61431362638766
100
AcDbArc
 50
168.4287005563904
 51
180.9835217475481
  0
ARC
  5
217
330
434
100
AcDbEntity
  8
DATA
  6
Continuous
 62
     7
100
AcDbCircle
 10
9.53037998097534
 20
-784.4920553765963
 30
0.0
 40
0.8399500585961803
100
AcDbArc
 50
240.9526590547826
 51
269.7938807055518
  0
ARC
  5
218
330
434
100
AcDbEntity
  8
DATA
  6
Continuous
 62
     7
100
AcDbCircle
 10
10.35847429362138
 20
-783.3318375768088
 30
0.0
 40
2.262009997156147
100
AcDbArc
 50
206.5681320382459
 51
236.8809809209653
  0
ARC
  5
219
330
434
100
AcDbEntity
  8
DATA
  6
Continuous
 62
     7
100
AcDbCircle
 10
17.49372070714935
 20
-779.521611870329
 30
0.0
 40
10.35023051602999
100
AcDbArc
 50
189.6568613684829
 51
207.7670058744957
  0
ARC
  5
21A
330
434
100
AcDbEntity
  8
DATA
  6
Continuous
 62
     7
100
AcDbCircle
 10
39.2416079088307
 20
-774.7158197934884
 30
0.0
 40
32.61431362638789
100
AcDbArc
 50
179.0164782524518
 51
191.5712994436096
  0
ARC
  5
21B
330
434
100
AcDbEntity
  8
DATA
  6
Continuous
 62
     7
100
AcDbCircle
 10
9.524336619964287
 20
-763.8199446234023
 30
0.0
 40
0.8399500585959595
100
AcDbArc
 50
60.95265905480967
 51
89.79388070558281
  0
ARC
  5
21C
330
434
100
AcDbEntity
  8
DATA
  6
Continuous
 62
     7
100
AcDbCircle
 10
8.696242307317788
 20
-764.9801624231896
 30
0.0
 40
2.262009997156553
100
AcDbArc
 50
26.56813203824071
 51
56.88098092096531
  0
ARC
  5
21D
330
434
100
AcDbEntity
  8
DATA
  6
Continuous
 62
     7
100
AcDbCircle
 10
1.560995893789822
 20
-768.7903881296696
 30
0.0
 40
10.35023051602999
100
AcDbArc
 50
9.656861368482903
 51
27.76700587449464
  0
ARC
  5
21E
330
434
100
AcDbEntity
  8
DATA
  6
Continuous
 62
     7
100
AcDbCircle
 10
-20.18689130789107
 20
-773.5961802065101
 30
0.0
 40
32.61431362638743
100
AcDbArc
 50
359.0164782524518
 51
11.5712994436098
  0
ARC
  5
21F
330
434
100
AcDbEntity
  8
DATA
  6
Continuous
 62
     7
100
AcDbCircle
 10
9.524336619964287
 20
-784.4920553765963
 30
0.0
 40
0.8399500585961524
100
AcDbArc
 50
270.2061192944171
 51
299.0473409451902
  0
ARC
  5
220
330
434
100
AcDbEntity
  8
DATA
  6
Continuous
 62
     7
100
AcDbCircle
 10
8.696242307317788
 20
-783.3318375768088
 30
0.0
 40
2.262009997156326
100
AcDbArc
 50
303.1190190790347
 51
333.4318679617593
  0
ARC
  5
221
330
434
100
AcDbEntity
  8
DATA
  6
Continuous
 62
     7
100
AcDbCircle
 10
1.560995893789822
 20
-779.521611870329
 30
0.0
 40
10.35023051603035
100
AcDbArc
 50
332.2329941255055
 51
350.343138631517
  0
ARC
  5
222
330
434
100
AcDbEntity
  8
DATA
  6
Continuous
 62
     7
100
AcDbCircle
 10
-20.18689130789107
 20
-774.7158197934884
 30
0.0
 40
32.61431362638721
100
AcDbArc
 50
348.4287005563903
 51
0.9835217475481385
  0
LINE
  5
223
330
434
100
AcDbEntity
  8
DATA
  6
Continuous
 62
     7
100
AcDbLine
 10
389.7488269363425
 20
-772.3779999999993
 30
0.0
 11
390.4726416995304
 21
-770.5999999999992
 31
0.0
  0
LINE
  5
224
330
434
100
AcDbEntity
  8
DATA
  6
Continuous
 62
     7
100
AcDbLine
 10
391.1964564627183
 20
-775.6799999999989
 30
0.0
 11
390.4726416995304
 21
-777.4579999999989
 31
0.0
  0
LINE
  5
225
330
434
100
AcDbEntity
  8
DATA
  6
Continuous
 62
     7
100
AcDbLine
 10
389.7488269363425
 20
-775.6799999999989
 30
0.0
 11
389.7488269363425
 21
-772.3779999999993
 31
0.0
  0
LINE
  5
226
330
434
100
AcDbEntity
  8
DATA
  6
Continuous
 62
     7
100
AcDbLine
 10
391.1964564627183
 20
-772.3779999999993
 30
0.0
 11
391.1964564627183
 21
-775.6799999999989
 31
0.0
  0
LINE
  5
227
330
434
100
AcDbEntity
  8
DATA
  6
Continuous
 62
     7
100
AcDbLine
 10
390.4726416995304
 20
-777.4579999999989
 30
0.0
 11
389.7488269363425
 21
-775.6799999999989
 31
0.0
  0
LINE
  5
228
330
434
100
AcDbEntity
  8
DATA
  6
Continuous
 62
     7
100
AcDbLine
 10
390.4726416995304
 20
-770.5999999999992
 30
0.0
 11
391.1964564627183
 21
-772.3779999999993
 31
0.0
  0
ARC
  5
229
330
434
100
AcDbEntity
  8
DATA
  6
Continuous
 62
     7
100
AcDbCircle
 10
390.4696200190247
 20
-763.8199446234023
 30
0.0
 40
0.8399500585961803
100
AcDbArc
 50
60.95265905478254
 51
89.79388070555181
  0
ARC
  5
22A
330
434
100
AcDbEntity
  8
DATA
  6
Continuous
 62
     7
100
AcDbCircle
 10
389.6415257063786
 20
-764.9801624231896
 30
0.0
 40
2.262009997156147
100
AcDbArc
 50
26.56813203824585
 51
56.88098092096531
  0
ARC
  5
22B
330
434
100
AcDbEntity
  8
DATA
  6
Continuous
 62
     7
100
AcDbCircle
 10
382.5062792928502
 20
-768.7903881296696
 30
0.0
 40
10.35023051603044
100
AcDbArc
 50
9.656861368482482
 51
27.76700587449464
  0
ARC
  5
22C
330
434
100
AcDbEntity
  8
DATA
  6
Continuous
 62
     7
100
AcDbCircle
 10
360.7583920911693
 20
-773.5961802065101
 30
0.0
 40
32.61431362638789
100
AcDbArc
 50
359.0164782524518
 51
11.57129944360957
  0
ARC
  5
22D
330
434
100
AcDbEntity
  8
DATA
  6
Continuous
 62
     7
100
AcDbCircle
 10
390.4696200190247
 20
-784.4920553765963
 30
0.0
 40
0.839950058596154
100
AcDbArc
 50
270.2061192944483
 51
299.0473409452174
  0
ARC
  5
22E
330
434
100
AcDbEntity
  8
DATA
  6
Continuous
 62
     7
100
AcDbCircle
 10
389.6415257063786
 20
-783.3318375768088
 30
0.0
 40
2.262009997156326
100
AcDbArc
 50
303.1190190790347
 51
333.4318679617541
  0
ARC
  5
22F
330
434
100
AcDbEntity
  8
DATA
  6
Continuous
 62
     7
100
AcDbCircle
 10
382.5062792928502
 20
-779.521611870329
 30
0.0
 40
10.35023051603035
100
AcDbArc
 50
332.2329941255055
 51
350.3431386315175
  0
ARC
  5
230
330
434
100
AcDbEntity
  8
DATA
  6
Continuous
 62
     7
100
AcDbCircle
 10
360.7583920911693
 20
-774.7158197934884
 30
0.0
 40
32.61431362638766
100
AcDbArc
 50
348.4287005563904
 51
0.9835217475481385
  0
ARC
  5
231
330
434
100
AcDbEntity
  8
DATA
  6
Continuous
 62
     7
100
AcDbCircle
 10
390.4756633800357
 20
-763.8199446234023
 30
0.0
 40
0.8399500585961524
100
AcDbArc
 50
90.20611929441715
 51
119.0473409451903
  0
ARC
  5
232
330
434
100
AcDbEntity
  8
DATA
  6
Continuous
 62
     7
100
AcDbCircle
 10
391.3037576926818
 20
-764.9801624231896
 30
0.0
 40
2.262009997156078
100
AcDbArc
 50
123.119019079025
 51
153.4318679617541
  0
ARC
  5
233
330
434
100
AcDbEntity
  8
DATA
  6
Continuous
 62
     7
100
AcDbCircle
 10
398.4390041062102
 20
-768.7903881296696
 30
0.0
 40
10.35023051603035
100
AcDbArc
 50
152.2329941255053
 51
170.3431386315171
  0
ARC
  5
234
330
434
100
AcDbEntity
  8
DATA
  6
Continuous
 62
     7
100
AcDbCircle
 10
420.1868913078912
 20
-773.5961802065101
 30
0.0
 40
32.61431362638721
100
AcDbArc
 50
168.4287005563902
 51
180.9835217475481
  0
ARC
  5
235
330
434
100
AcDbEntity
  8
DATA
  6
Continuous
 62
     7
100
AcDbCircle
 10
390.4756633800357
 20
-784.4920553765963
 30
0.0
 40
0.8399500585959595
100
AcDbArc
 50
240.9526590548097
 51
269.7938807055828
  0
ARC
  5
236
330
434
100
AcDbEntity
  8
DATA
  6
Continuous
 62
     7
100
AcDbCircle
 10
391.3037576926818
 20
-783.3318375768088
 30
0.0
 40
2.262009997156147
100
AcDbArc
 50
206.5681320382459
 51
236.880980920975
  0
ARC
  5
237
330
434
100
AcDbEntity
  8
DATA
  6
Continuous
 62
     7
100
AcDbCircle
 10
398.4390041062102
 20
-779.521611870329
 30
0.0
 40
10.35023051602999
100
AcDbArc
 50
189.6568613684829
 51
207.7670058744946
  0
ARC
  5
238
330
434
100
AcDbEntity
  8
DATA
  6
Continuous
 62
     7
100
AcDbCircle
 10
420.1868913078912
 20
-774.7158197934884
 30
0.0
 40
32.61431362638743
100
AcDbArc
 50
179.0164782524518
 51
191.5712994436097
  0
LINE
  5
239
330
434
100
AcDbEntity
  8
DATA
  6
Continuous
 62
     7
100
AcDbLine
 10
10.25117306365746
 20
-1327.622
 30
0.0
 11
9.527358300469584
 21
-1329.400000000001
 31
0.0
  0
LINE
  5
23A
330
434
100
AcDbEntity
  8
DATA
  6
Continuous
 62
     7
100
AcDbLine
 10
8.803543537281711
 20
-1324.320000000001
 30
0.0
 11
9.527358300469584
 21
-1322.542000000001
 31
0.0
  0
LINE
  5
23B
330
434
100
AcDbEntity
  8
DATA
  6
Continuous
 62
     7
100
AcDbLine
 10
10.25117306365746
 20
-1324.320000000001
 30
0.0
 11
10.25117306365746
 21
-1327.622
 31
0.0
  0
LINE
  5
23C
330
434
100
AcDbEntity
  8
DATA
  6
Continuous
 62
     7
100
AcDbLine
 10
8.803543537281711
 20
-1327.622
 30
0.0
 11
8.803543537281711
 21
-1324.320000000001
 31
0.0
  0
LINE
  5
23D
330
434
100
AcDbEntity
  8
DATA
  6
Continuous
 62
     7
100
AcDbLine
 10
9.527358300469584
 20
-1322.542000000001
 30
0.0
 11
10.25117306365746
 21
-1324.320000000001
 31
0.0
  0
LINE
  5
23E
330
434
100
AcDbEntity
  8
DATA
  6
Continuous
 62
     7
100
AcDbLine
 10
9.527358300469584
 20
-1329.400000000001
 30
0.0
 11
8.803543537281711
 21
-1327.622
 31
0.0
  0
ARC
  5
23F
330
434
100
AcDbEntity
  8
DATA
  6
Continuous
 62
     7
100
AcDbCircle
 10
9.53037998097534
 20
-1336.180055376598
 30
0.0
 40
0.8399500585960808
100
AcDbArc
 50
240.9526590547788
 51
269.7938807055518
  0
ARC
  5
240
330
434
100
AcDbEntity
  8
DATA
  6
Continuous
 62
     7
100
AcDbCircle
 10
10.35847429362138
 20
-1335.01983757681
 30
0.0
 40
2.262009997156096
100
AcDbArc
 50
206.5681320382434
 51
236.8809809209637
  0
ARC
  5
241
330
434
100
AcDbEntity
  8
DATA
  6
Continuous
 62
     7
100
AcDbCircle
 10
17.49372070714935
 20
-1331.20961187033
 30
0.0
 40
10.35023051603001
100
AcDbArc
 50
189.6568613684834
 51
207.7670058744964
  0
ARC
  5
242
330
434
100
AcDbEntity
  8
DATA
  6
Continuous
 62
     7
100
AcDbCircle
 10
39.2416079088307
 20
-1326.40381979349
 30
0.0
 40
32.61431362638789
100
AcDbArc
 50
179.0164782524516
 51
191.5712994436094
  0
ARC
  5
243
330
434
100
AcDbEntity
  8
DATA
  6
Continuous
 62
     7
100
AcDbCircle
 10
9.53037998097534
 20
-1315.507944623403
 30
0.0
 40
0.8399500585960403
100
AcDbArc
 50
90.20611929444825
 51
119.0473409452212
  0
ARC
  5
244
330
434
100
AcDbEntity
  8
DATA
  6
Continuous
 62
     7
100
AcDbCircle
 10
10.35847429362138
 20
-1316.668162423191
 30
0.0
 40
2.262009997156231
100
AcDbArc
 50
123.1190190790363
 51
153.4318679617567
  0
ARC
  5
245
330
434
100
AcDbEntity
  8
DATA
  6
Continuous
 62
     7
100
AcDbCircle
 10
17.49372070714935
 20
-1320.478388129671
 30
0.0
 40
10.35023051603
100
AcDbArc
 50
152.2329941255036
 51
170.3431386315164
  0
ARC
  5
246
330
434
100
AcDbEntity
  8
DATA
  6
Continuous
 62
     7
100
AcDbCircle
 10
39.2416079088307
 20
-1325.284180206511
 30
0.0
 40
32.61431362638764
100
AcDbArc
 50
168.4287005563906
 51
180.9835217475482
  0
ARC
  5
247
330
434
100
AcDbEntity
  8
DATA
  6
Continuous
 62
     7
100
AcDbCircle
 10
9.524336619964287
 20
-1336.180055376598
 30
0.0
 40
0.8399500585960387
100
AcDbArc
 50
270.2061192944172
 51
299.047340945194
  0
ARC
  5
248
330
434
100
AcDbEntity
  8
DATA
  6
Continuous
 62
     7
100
AcDbCircle
 10
8.696242307317788
 20
-1335.01983757681
 30
0.0
 40
2.262009997156231
100
AcDbArc
 50
303.1190190790363
 51
333.4318679617618
  0
ARC
  5
249
330
434
100
AcDbEntity
  8
DATA
  6
Continuous
 62
     7
100
AcDbCircle
 10
1.560995893789822
 20
-1331.20961187033
 30
0.0
 40
10.3502305160304
100
AcDbArc
 50
332.2329941255048
 51
350.3431386315164
  0
ARC
  5
24A
330
434
100
AcDbEntity
  8
DATA
  6
Continuous
 62
     7
100
AcDbCircle
 10
-20.18689130789107
 20
-1326.40381979349
 30
0.0
 40
32.61431362638719
100
AcDbArc
 50
348.4287005563904
 51
0.9835217475483661
  0
ARC
  5
24B
330
434
100
AcDbEntity
  8
DATA
  6
Continuous
 62
     7
100
AcDbCircle
 10
9.524336619964287
 20
-1315.507944623403
 30
0.0
 40
0.8399500585958602
100
AcDbArc
 50
60.95265905480591
 51
89.79388070558281
  0
ARC
  5
24C
330
434
100
AcDbEntity
  8
DATA
  6
Continuous
 62
     7
100
AcDbCircle
 10
8.696242307317788
 20
-1316.668162423191
 30
0.0
 40
2.262009997156503
100
AcDbArc
 50
26.56813203823813
 51
56.88098092096371
  0
ARC
  5
24D
330
434
100
AcDbEntity
  8
DATA
  6
Continuous
 62
     7
100
AcDbCircle
 10
1.560995893789822
 20
-1320.478388129671
 30
0.0
 40
10.35023051603001
100
AcDbArc
 50
9.656861368483523
 51
27.7670058744952
  0
ARC
  5
24E
330
434
100
AcDbEntity
  8
DATA
  6
Continuous
 62
     7
100
AcDbCircle
 10
-20.18689130789107
 20
-1325.284180206511
 30
0.0
 40
32.61431362638744
100
AcDbArc
 50
359.0164782524516
 51
11.57129944360957
  0
LINE
  5
24F
330
434
100
AcDbEntity
  8
DATA
  6
Continuous
 62
     7
100
AcDbLine
 10
389.7488269363425
 20
-1327.622
 30
0.0
 11
390.4726416995304
 21
-1329.400000000001
 31
0.0
  0
LINE
  5
250
330
434
100
AcDbEntity
  8
DATA
  6
Continuous
 62
     7
100
AcDbLine
 10
391.1964564627183
 20
-1324.320000000001
 30
0.0
 11
390.4726416995304
 21
-1322.542000000001
 31
0.0
  0
LINE
  5
251
330
434
100
AcDbEntity
  8
DATA
  6
Continuous
 62
     7
100
AcDbLine
 10
389.7488269363425
 20
-1324.320000000001
 30
0.0
 11
389.7488269363425
 21
-1327.622
 31
0.0
  0
LINE
  5
252
330
434
100
AcDbEntity
  8
DATA
  6
Continuous
 62
     7
100
AcDbLine
 10
391.1964564627183
 20
-1327.622
 30
0.0
 11
391.1964564627183
 21
-1324.320000000001
 31
0.0
  0
LINE
  5
253
330
434
100
AcDbEntity
  8
DATA
  6
Continuous
 62
     7
100
AcDbLine
 10
390.4726416995304
 20
-1322.542000000001
 30
0.0
 11
389.7488269363425
 21
-1324.320000000001
 31
0.0
  0
LINE
  5
254
330
434
100
AcDbEntity
  8
DATA
  6
Continuous
 62
     7
100
AcDbLine
 10
390.4726416995304
 20
-1329.400000000001
 30
0.0
 11
391.1964564627183
 21
-1327.622
 31
0.0
  0
ARC
  5
255
330
434
100
AcDbEntity
  8
DATA
  6
Continuous
 62
     7
100
AcDbCircle
 10
390.4696200190247
 20
-1336.180055376598
 30
0.0
 40
0.8399500585960403
100
AcDbArc
 50
270.2061192944483
 51
299.0473409452211
  0
ARC
  5
256
330
434
100
AcDbEntity
  8
DATA
  6
Continuous
 62
     7
100
AcDbCircle
 10
389.6415257063786
 20
-1335.01983757681
 30
0.0
 40
2.262009997156231
100
AcDbArc
 50
303.1190190790363
 51
333.4318679617567
  0
ARC
  5
257
330
434
100
AcDbEntity
  8
DATA
  6
Continuous
 62
     7
100
AcDbCircle
 10
382.5062792928502
 20
-1331.20961187033
 30
0.0
 40
10.3502305160304
100
AcDbArc
 50
332.2329941255048
 51
350.3431386315169
  0
ARC
  5
258
330
434
100
AcDbEntity
  8
DATA
  6
Continuous
 62
     7
100
AcDbCircle
 10
360.7583920911693
 20
-1326.40381979349
 30
0.0
 40
32.61431362638764
100
AcDbArc
 50
348.4287005563906
 51
0.9835217475483661
  0
ARC
  5
259
330
434
100
AcDbEntity
  8
DATA
  6
Continuous
 62
     7
100
AcDbCircle
 10
390.4696200190247
 20
-1315.507944623403
 30
0.0
 40
0.8399500585960808
100
AcDbArc
 50
60.95265905477878
 51
89.79388070555177
  0
ARC
  5
25A
330
434
100
AcDbEntity
  8
DATA
  6
Continuous
 62
     7
100
AcDbCircle
 10
389.6415257063786
 20
-1316.668162423191
 30
0.0
 40
2.262009997156096
100
AcDbArc
 50
26.56813203824328
 51
56.88098092096371
  0
ARC
  5
25B
330
434
100
AcDbEntity
  8
DATA
  6
Continuous
 62
     7
100
AcDbCircle
 10
382.5062792928502
 20
-1320.478388129671
 30
0.0
 40
10.35023051603046
100
AcDbArc
 50
9.656861368483104
 51
27.7670058744952
  0
ARC
  5
25C
330
434
100
AcDbEntity
  8
DATA
  6
Continuous
 62
     7
100
AcDbCircle
 10
360.7583920911693
 20
-1325.284180206511
 30
0.0
 40
32.61431362638789
100
AcDbArc
 50
359.0164782524516
 51
11.57129944360941
  0
ARC
  5
25D
330
434
100
AcDbEntity
  8
DATA
  6
Continuous
 62
     7
100
AcDbCircle
 10
390.4756633800357
 20
-1336.180055376598
 30
0.0
 40
0.8399500585958602
100
AcDbArc
 50
240.9526590548059
 51
269.7938807055828
  0
ARC
  5
25E
330
434
100
AcDbEntity
  8
DATA
  6
Continuous
 62
     7
100
AcDbCircle
 10
391.3037576926818
 20
-1335.01983757681
 30
0.0
 40
2.262009997156096
100
AcDbArc
 50
206.5681320382434
 51
236.8809809209734
  0
ARC
  5
25F
330
434
100
AcDbEntity
  8
DATA
  6
Continuous
 62
     7
100
AcDbCircle
 10
398.4390041062102
 20
-1331.20961187033
 30
0.0
 40
10.35023051603001
100
AcDbArc
 50
189.6568613684834
 51
207.7670058744952
  0
ARC
  5
260
330
434
100
AcDbEntity
  8
DATA
  6
Continuous
 62
     7
100
AcDbCircle
 10
420.1868913078912
 20
-1326.40381979349
 30
0.0
 40
32.61431362638744
100
AcDbArc
 50
179.0164782524516
 51
191.5712994436096
  0
ARC
  5
261
330
434
100
AcDbEntity
  8
DATA
  6
Continuous
 62
     7
100
AcDbCircle
 10
390.4756633800357
 20
-1315.507944623403
 30
0.0
 40
0.8399500585960387
100
AcDbArc
 50
90.2061192944172
 51
119.0473409451941
  0
ARC
  5
262
330
434
100
AcDbEntity
  8
DATA
  6
Continuous
 62
     7
100
AcDbCircle
 10
391.3037576926818
 20
-1316.668162423191
 30
0.0
 40
2.262009997155983
100
AcDbArc
 50
123.1190190790266
 51
153.4318679617567
  0
ARC
  5
263
330
434
100
AcDbEntity
  8
DATA
  6
Continuous
 62
     7
100
AcDbCircle
 10
398.4390041062102
 20
-1320.478388129671
 30
0.0
 40
10.3502305160304
100
AcDbArc
 50
152.2329941255049
 51
170.3431386315165
  0
ARC
  5
264
330
434
100
AcDbEntity
  8
DATA
  6
Continuous
 62
     7
100
AcDbCircle
 10
420.1868913078912
 20
-1325.284180206511
 30
0.0
 40
32.61431362638719
100
AcDbArc
 50
168.4287005563905
 51
180.9835217475484
  0
LINE
  5
265
330
434
100
AcDbEntity
  8
DATA
  6
Continuous
 62
     7
100
AcDbLine
 10
138.5
 20
-1277.516
 30
0.0
 11
138.5
 21
-1087.516
 31
0.0
  0
LINE
  5
266
330
434
100
AcDbEntity
  8
DATA
  6
Continuous
 62
     7
100
AcDbLine
 10
256.5
 20
-1282.516
 30
0.0
 11
143.5
 21
-1282.516
 31
0.0
  0
LINE
  5
267
330
434
100
AcDbEntity
  8
DATA
  6
Continuous
 62
     7
100
AcDbLine
 10
261.5
 20
-1087.516
 30
0.0
 11
261.5
 21
-1277.516
 31
0.0
  0
LINE
  5
268
330
434
100
AcDbEntity
  8
DATA
  6
Continuous
 62
     7
100
AcDbLine
 10
143.5
 20
-1082.516
 30
0.0
 11
256.5
 21
-1082.516
 31
0.0
  0
LINE
  5
269
330
434
100
AcDbEntity
  8
DATA
  6
Continuous
 62
     7
100
AcDbLine
 10
153.5
 20
-1268.016
 30
0.0
 11
153.5
 21
-1097.016
 31
0.0
  0
LINE
  5
26A
330
434
100
AcDbEntity
  8
DATA
  6
Continuous
 62
     7
100
AcDbLine
 10
246.5
 20
-1268.016
 30
0.0
 11
153.5
 21
-1268.016
 31
0.0
  0
LINE
  5
26B
330
434
100
AcDbEntity
  8
DATA
  6
Continuous
 62
     7
100
AcDbLine
 10
246.5
 20
-1097.016
 30
0.0
 11
246.5
 21
-1268.016
 31
0.0
  0
LINE
  5
26C
330
434
100
AcDbEntity
  8
DATA
  6
Continuous
 62
     7
100
AcDbLine
 10
153.5
 20
-1097.016
 30
0.0
 11
246.5
 21
-1097.016
 31
0.0
  0
LWPOLYLINE
  5
26D
330
434
100
AcDbEntity
  8
DATA
  6
Continuous
 62
     7
100
AcDbPolyline
 90
        4
 70
     1
 43
0.0
 10
159.5
 20
-1220.016
 10
240.5
 20
-1220.016
 10
240.5
 20
-1238.016
 10
159.5
 20
-1238.016
  0
LWPOLYLINE
  5
274
330
434
100
AcDbEntity
  8
DATA
  6
Continuous
 62
     7
100
AcDbPolyline
 90
        5
 70
   129
 43
0.0
 10
188.25
 20
-1179.016
 42
-0.4142135623730951
 10
200.0
 20
-1167.266
 42
-0.4142135623730951
 10
211.75
 20
-1179.016
 42
-0.4142135623730951
 10
200.0
 20
-1190.766
 42
-0.4142135623730951
 10
188.25
 20
-1179.016
  0
LINE
  5
27B
330
434
100
AcDbEntity
  8
DATA
  6
Continuous
 62
     7
100
AcDbLine
 10
197.0
 20
-1169.016
 30
0.0
 11
203.0
 21
-1169.016
 31
0.0
  0
LINE
  5
27C
330
434
100
AcDbEntity
  8
DATA
  6
Continuous
 62
     7
100
AcDbLine
 10
198.0
 20
-1189.016
 30
0.0
 11
202.0
 21
-1189.016
 31
0.0
  0
LINE
  5
27D
330
434
100
AcDbEntity
  8
DATA
  6
Continuous
 62
     7
100
AcDbLine
 10
198.0
 20
-1189.016
 30
0.0
 11
198.0
 21
-1187.816
 31
0.0
  0
LINE
  5
27E
330
434
100
AcDbEntity
  8
DATA
  6
Continuous
 62
     7
100
AcDbLine
 10
202.0
 20
-1189.016
 30
0.0
 11
202.0
 21
-1187.816
 31
0.0
  0
LINE
  5
27F
330
434
100
AcDbEntity
  8
DATA
  6
Continuous
 62
     7
100
AcDbLine
 10
197.0
 20
-1169.016
 30
0.0
 11
197.0
 21
-1170.74315
 31
0.0
  0
LINE
  5
280
330
434
100
AcDbEntity
  8
DATA
  6
Continuous
 62
     7
100
AcDbLine
 10
203.0
 20
-1169.016
 30
0.0
 11
203.0
 21
-1170.74315
 31
0.0
  0
ARC
  5
281
330
434
100
AcDbEntity
  8
DATA
  6
Continuous
 62
     7
100
AcDbCircle
 10
200.0
 20
-1179.016
 30
0.0
 40
8.800002677414209
100
AcDbArc
 50
109.9322641506793
 51
257.1961668196986
  0
ARC
  5
282
330
434
100
AcDbEntity
  8
DATA
  6
Continuous
 62
     7
100
AcDbCircle
 10
200.0
 20
-1179.016
 30
0.0
 40
8.800003504345928
100
AcDbArc
 50
282.9999995554212
 51
69.99999423796154
  0
ARC
  5
283
330
434
100
AcDbEntity
  8
DATA
  6
Continuous
 62
     7
100
AcDbCircle
 10
200.0
 20
-1179.016
 30
0.0
 40
6.20000216206402
100
AcDbArc
 50
60.00001153556115
 51
150.0000115355622
  0
LINE
  5
284
330
434
100
AcDbEntity
  8
DATA
  6
Continuous
 62
     7
100
AcDbLine
 10
194.6306600000002
 20
-1175.91597
 30
0.0
 11
195.12862
 21
-1176.20347
 31
0.0
  0
LINE
  5
285
330
434
100
AcDbEntity
  8
DATA
  6
Continuous
 62
     7
100
AcDbLine
 10
203.0999699999997
 20
-1173.64662
 30
0.0
 11
202.8124699999998
 21
-1174.14459
 31
0.0
  0
ARC
  5
286
330
434
100
AcDbEntity
  8
DATA
  6
Continuous
 62
     7
100
AcDbCircle
 10
200.0
 20
-1179.016
 30
0.0
 40
6.200002162064216
100
AcDbArc
 50
240.0000115355621
 51
330.0000115355623
  0
LINE
  5
287
330
434
100
AcDbEntity
  8
DATA
  6
Continuous
 62
     7
100
AcDbLine
 10
196.9000000000001
 20
-1184.38536
 30
0.0
 11
197.1875
 21
-1183.88739
 31
0.0
  0
LINE
  5
288
330
434
100
AcDbEntity
  8
DATA
  6
Continuous
 62
     7
100
AcDbLine
 10
205.3693699999999
 20
-1182.11598
 30
0.0
 11
204.8714
 21
-1181.82848
 31
0.0
  0
ARC
  5
289
330
434
100
AcDbEntity
  8
DATA
  6
Continuous
 62
     7
100
AcDbCircle
 10
200.0
 20
-1179.016
 30
0.0
 40
5.625003831580918
100
AcDbArc
 50
149.9996696821033
 51
240.0002126043052
  0
ARC
  5
28A
330
434
100
AcDbEntity
  8
DATA
  6
Continuous
 62
     7
100
AcDbCircle
 10
200.0
 20
-1179.016
 30
0.0
 40
5.624996152034259
100
AcDbArc
 50
330.0002126043024
 51
60.00071824312165
  0
ARC
  5
28B
330
434
100
AcDbEntity
  8
DATA
  6
Continuous
 62
     7
100
AcDbCircle
 10
200.0
 20
-1179.016
 30
0.0
 40
3.599990080875142
100
AcDbArc
 50
59.9999088547095
 51
149.9999088547045
  0
ARC
  5
28C
330
434
100
AcDbEntity
  8
DATA
  6
Continuous
 62
     7
100
AcDbCircle
 10
200.0
 20
-1179.016
 30
0.0
 40
3.599990080875142
100
AcDbArc
 50
239.9999088547095
 51
329.9999088547045
  0
LINE
  5
28D
330
434
100
AcDbEntity
  8
DATA
  6
Continuous
 62
     7
100
AcDbLine
 10
201.7999800000003
 20
-1175.89831
 30
0.0
 11
201.4499900000001
 21
-1176.50452
 31
0.0
  0
LINE
  5
28E
330
434
100
AcDbEntity
  8
DATA
  6
Continuous
 62
     7
100
AcDbLine
 10
196.8823299999999
 20
-1177.21599
 30
0.0
 11
197.4885300000001
 21
-1177.56599
 31
0.0
  0
LINE
  5
28F
330
434
100
AcDbEntity
  8
DATA
  6
Continuous
 62
     7
100
AcDbLine
 10
198.2000000000003
 20
-1182.13368
 30
0.0
 11
198.5499999999997
 21
-1181.52747
 31
0.0
  0
LINE
  5
290
330
434
100
AcDbEntity
  8
DATA
  6
Continuous
 62
     7
100
AcDbLine
 10
203.1176900000001
 20
-1180.81598
 30
0.0
 11
202.5114800000001
 21
-1180.46599
 31
0.0
  0
ARC
  5
291
330
434
100
AcDbEntity
  8
DATA
  6
Continuous
 62
     7
100
AcDbCircle
 10
200.0
 20
-1179.016
 30
0.0
 40
2.900001820861436
100
AcDbArc
 50
149.9997926340292
 51
240.0002336238304
  0
ARC
  5
292
330
434
100
AcDbEntity
  8
DATA
  6
Continuous
 62
     7
100
AcDbCircle
 10
200.0
 20
-1179.016
 30
0.0
 40
2.900000481120788
100
AcDbArc
 50
330.0002336238303
 51
59.99979263403043
  0
LINE
  5
293
330
434
100
AcDbEntity
  8
DATA
  6
Continuous
 62
     7
100
AcDbLine
 10
172.5000000000004
 20
-1238.016
 30
0.0
 11
172.5000000000004
 21
-1220.016
 31
0.0
  0
LINE
  5
294
330
434
100
AcDbEntity
  8
DATA
  6
Continuous
 62
     7
100
AcDbLine
 10
175.5000000000004
 20
-1238.016
 30
0.0
 11
175.5000000000004
 21
-1220.016
 31
0.0
  0
LINE
  5
295
330
434
100
AcDbEntity
  8
DATA
  6
Continuous
 62
     7
100
AcDbLine
 10
185.5000000000004
 20
-1238.016
 30
0.0
 11
185.5000000000004
 21
-1220.016
 31
0.0
  0
LINE
  5
296
330
434
100
AcDbEntity
  8
DATA
  6
Continuous
 62
     7
100
AcDbLine
 10
188.5000000000004
 20
-1238.016
 30
0.0
 11
188.5000000000004
 21
-1220.016
 31
0.0
  0
LINE
  5
297
330
434
100
AcDbEntity
  8
DATA
  6
Continuous
 62
     7
100
AcDbLine
 10
198.5000000000004
 20
-1238.016
 30
0.0
 11
198.5000000000004
 21
-1220.016
 31
0.0
  0
LINE
  5
298
330
434
100
AcDbEntity
  8
DATA
  6
Continuous
 62
     7
100
AcDbLine
 10
201.5000000000004
 20
-1238.016
 30
0.0
 11
201.5000000000004
 21
-1220.016
 31
0.0
  0
LINE
  5
299
330
434
100
AcDbEntity
  8
DATA
  6
Continuous
 62
     7
100
AcDbLine
 10
211.5000000000004
 20
-1238.016
 30
0.0
 11
211.5000000000004
 21
-1220.016
 31
0.0
  0
LINE
  5
29A
330
434
100
AcDbEntity
  8
DATA
  6
Continuous
 62
     7
100
AcDbLine
 10
214.5000000000004
 20
-1238.016
 30
0.0
 11
214.5000000000004
 21
-1220.016
 31
0.0
  0
LINE
  5
29B
330
434
100
AcDbEntity
  8
DATA
  6
Continuous
 62
     7
100
AcDbLine
 10
224.5000000000004
 20
-1238.016
 30
0.0
 11
224.5000000000004
 21
-1220.016
 31
0.0
  0
LINE
  5
29C
330
434
100
AcDbEntity
  8
DATA
  6
Continuous
 62
     7
100
AcDbLine
 10
227.5000000000004
 20
-1238.016
 30
0.0
 11
227.5000000000004
 21
-1220.016
 31
0.0
  0
LINE
  5
29D
330
434
100
AcDbEntity
  8
DATA
  6
Continuous
 62
     7
100
AcDbLine
 10
162.5
 20
-1238.016
 30
0.0
 11
162.5
 21
-1220.016
 31
0.0
  0
LINE
  5
29E
330
434
100
AcDbEntity
  8
DATA
  6
Continuous
 62
     7
100
AcDbLine
 10
237.5
 20
-1220.016
 30
0.0
 11
237.5
 21
-1238.016
 31
0.0
  0
CIRCLE
  5
29F
330
434
100
AcDbEntity
  8
DATA
  6
Continuous
 62
     7
100
AcDbCircle
 10
180.5000000000004
 20
-1229.016
 30
0.0
 40
3.999999999999881
  0
LWPOLYLINE
  5
2A0
330
434
100
AcDbEntity
  8
DATA
  6
Continuous
 62
     7
100
AcDbPolyline
 90
        4
 70
     1
 43
0.0
 10
177.6951219512198
 20
-1223.259902439024
 10
185.5000000000004
 20
-1225.015999999999
 10
183.3048780487806
 20
-1234.772097560975
 10
175.5000000000004
 20
-1233.015999999999
  0
LINE
  5
2A7
330
434
100
AcDbEntity
  8
DATA
  6
Continuous
 62
     7
100
AcDbLine
 10
176.7412295168564
 20
-1227.647919426697
 30
0.0
 11
184.258770483144
 21
-1230.384080573303
 31
0.0
  0
CIRCLE
  5
2A8
330
434
100
AcDbEntity
  8
DATA
  6
Continuous
 62
     7
100
AcDbCircle
 10
193.5000000000004
 20
-1229.016
 30
0.0
 40
3.999999999999881
  0
LWPOLYLINE
  5
2A9
330
434
100
AcDbEntity
  8
DATA
  6
Continuous
 62
     7
100
AcDbPolyline
 90
        4
 70
     1
 43
0.0
 10
190.6951219512197
 20
-1223.259902439024
 10
198.5000000000004
 20
-1225.015999999999
 10
196.3048780487806
 20
-1234.772097560975
 10
188.5000000000004
 20
-1233.015999999999
  0
CIRCLE
  5
2B0
330
434
100
AcDbEntity
  8
DATA
  6
Continuous
 62
     7
100
AcDbCircle
 10
206.5000000000004
 20
-1229.016
 30
0.0
 40
3.999999999999881
  0
LWPOLYLINE
  5
2B1
330
434
100
AcDbEntity
  8
DATA
  6
Continuous
 62
     7
100
AcDbPolyline
 90
        4
 70
     1
 43
0.0
 10
203.6951219512197
 20
-1223.259902439024
 10
211.5000000000004
 20
-1225.015999999999
 10
209.3048780487807
 20
-1234.772097560975
 10
201.5000000000004
 20
-1233.015999999999
  0
CIRCLE
  5
2B8
330
434
100
AcDbEntity
  8
DATA
  6
Continuous
 62
     7
100
AcDbCircle
 10
219.5000000000004
 20
-1229.016
 30
0.0
 40
3.999999999999881
  0
LWPOLYLINE
  5
2B9
330
434
100
AcDbEntity
  8
DATA
  6
Continuous
 62
     7
100
AcDbPolyline
 90
        4
 70
     1
 43
0.0
 10
216.6951219512198
 20
-1223.259902439024
 10
224.5
 20
-1225.015999999999
 10
222.3048780487807
 20
-1234.772097560975
 10
214.5
 20
-1233.015999999999
  0
CIRCLE
  5
2C0
330
434
100
AcDbEntity
  8
DATA
  6
Continuous
 62
     7
100
AcDbCircle
 10
232.5
 20
-1229.016
 30
0.0
 40
3.999999999999804
  0
CIRCLE
  5
2C1
330
434
100
AcDbEntity
  8
DATA
  6
Continuous
 62
     7
100
AcDbCircle
 10
167.5000000000004
 20
-1229.016
 30
0.0
 40
3.999999999999455
  0
CIRCLE
  5
2C2
330
434
100
AcDbEntity
  8
DATA
  6
Continuous
 62
     7
100
AcDbCircle
 10
170.0
 20
-1157.016
 30
0.0
 40
3.0
  0
CIRCLE
  5
2C3
330
434
100
AcDbEntity
  8
DATA
  6
Continuous
 62
     7
100
AcDbCircle
 10
230.0
 20
-1157.016
 30
0.0
 40
3.0
  0
LWPOLYLINE
  5
2C4
330
434
100
AcDbEntity
  8
DATA
  6
Continuous
 62
     7
100
AcDbPolyline
 90
        4
 70
     1
 43
0.0
 10
160.0
 20
-1114.016
 10
240.0
 20
-1114.016
 10
240.0
 20
-1152.016
 10
160.0
 20
-1152.016
  0
TEXT
  5
2CB
330
434
100
AcDbEntity
  8
DATA
 62
     7
100
AcDbText
 10
160.75
 20
-1149.316
 30
0.0
 40
3.84765625
  1
(Passive)
 41
0.7
 11
160.75
 21
-1145.46834375
 31
0.0
100
AcDbText
 73
     3
  0
TEXT
  5
2CC
330
434
100
AcDbEntity
  8
DATA
 62
     7
100
AcDbText
 10
218.0
 20
-1149.316
 30
0.0
 40
3.84765625
  1
(Bi-Amp)
 41
0.7
 11
218.0
 21
-1145.46834375
 31
0.0
100
AcDbText
 73
     3
  0
TEXT
  5
2CD
330
434
100
AcDbEntity
  8
DATA
 62
     7
100
AcDbText
 10
163.0
 20
-1121.316
 30
0.0
 40
3.84765625
  1
Model: AC2215/
 41
0.7
 11
163.0
 21
-1117.46834375
 31
0.0
100
AcDbText
 73
     3
  0
ARC
  5
2CE
330
434
100
AcDbEntity
  8
DATA
  6
Continuous
 62
     7
100
AcDbCircle
 10
143.5
 20
-1087.516
 30
0.0
 40
5.0
100
AcDbArc
 50
90.0
 51
180.0
  0
ARC
  5
2CF
330
434
100
AcDbEntity
  8
DATA
  6
Continuous
 62
     7
100
AcDbCircle
 10
143.5
 20
-1277.516
 30
0.0
 40
5.0
100
AcDbArc
 50
180.0
 51
270.0
  0
ARC
  5
2D0
330
434
100
AcDbEntity
  8
DATA
  6
Continuous
 62
     7
100
AcDbCircle
 10
256.5
 20
-1277.516
 30
0.0
 40
5.0
100
AcDbArc
 50
270.0
 51
0.0
  0
ARC
  5
2D1
330
434
100
AcDbEntity
  8
DATA
  6
Continuous
 62
     7
100
AcDbCircle
 10
256.5
 20
-1087.516
 30
0.0
 40
5.0
100
AcDbArc
 50
0.0
 51
90.0
  0
CIRCLE
  5
2D2
330
434
100
AcDbEntity
  8
DATA
  6
Continuous
 62
     7
100
AcDbCircle
 10
145.0
 20
-1089.516
 30
0.0
 40
3.25
  0
LINE
  5
2D3
330
434
100
AcDbEntity
  8
DATA
  6
Continuous
 62
     7
100
AcDbLine
 10
181.0985352508201
 20
-1227.371537913624
 30
0.0
 11
179.9014647491804
 21
-1230.660462086375
 31
0.0
  0
LINE
  5
2D4
330
434
100
AcDbEntity
  8
DATA
  6
Continuous
 62
     7
100
AcDbLine
 10
168.0985352508201
 20
-1230.660462086375
 30
0.0
 11
166.9014647491799
 21
-1227.371537913624
 31
0.0
  0
LINE
  5
2D5
330
434
100
AcDbEntity
  8
DATA
  6
Continuous
 62
     7
100
AcDbLine
 10
165.8555379136246
 20
-1229.61453525082
 30
0.0
 11
169.1444620863753
 21
-1228.41746474918
 31
0.0
  0
LINE
  5
2D6
330
434
100
AcDbEntity
  8
DATA
  6
Continuous
 62
     7
100
AcDbLine
 10
189.7412295168564
 20
-1227.647919426697
 30
0.0
 11
197.258770483144
 21
-1230.384080573303
 31
0.0
  0
LINE
  5
2D7
330
434
100
AcDbEntity
  8
DATA
  6
Continuous
 62
     7
100
AcDbLine
 10
194.09853525082
 20
-1227.371537913624
 30
0.0
 11
192.9014647491804
 21
-1230.660462086375
 31
0.0
  0
LINE
  5
2D8
330
434
100
AcDbEntity
  8
DATA
  6
Continuous
 62
     7
100
AcDbLine
 10
202.7412295168565
 20
-1227.647919426697
 30
0.0
 11
210.258770483144
 21
-1230.384080573303
 31
0.0
  0
LINE
  5
2D9
330
434
100
AcDbEntity
  8
DATA
  6
Continuous
 62
     7
100
AcDbLine
 10
207.0985352508201
 20
-1227.371537913624
 30
0.0
 11
205.9014647491804
 21
-1230.660462086375
 31
0.0
  0
LINE
  5
2DA
330
434
100
AcDbEntity
  8
DATA
  6
Continuous
 62
     7
100
AcDbLine
 10
215.7412295168565
 20
-1227.647919426697
 30
0.0
 11
223.258770483144
 21
-1230.384080573303
 31
0.0
  0
LINE
  5
2DB
330
434
100
AcDbEntity
  8
DATA
  6
Continuous
 62
     7
100
AcDbLine
 10
220.0985352508201
 20
-1227.371537913624
 30
0.0
 11
218.9014647491804
 21
-1230.660462086375
 31
0.0
  0
LINE
  5
2DC
330
434
100
AcDbEntity
  8
DATA
  6
Continuous
 62
     7
100
AcDbLine
 10
230.8555379136246
 20
-1229.61453525082
 30
0.0
 11
234.1444620863754
 21
-1228.41746474918
 31
0.0
  0
LINE
  5
2DD
330
434
100
AcDbEntity
  8
DATA
  6
Continuous
 62
     7
100
AcDbLine
 10
233.0985352508201
 20
-1230.660462086375
 30
0.0
 11
231.9014647491799
 21
-1227.371537913624
 31
0.0
  0
LINE
  5
2DE
330
434
100
AcDbEntity
  8
DATA
  6
Continuous
 62
     7
100
AcDbLine
 10
145.0
 20
-1091.016
 30
0.0
 11
145.0
 21
-1088.016
 31
0.0
  0
LINE
  5
2DF
330
434
100
AcDbEntity
  8
DATA
  6
Continuous
 62
     7
100
AcDbLine
 10
146.5
 20
-1089.516
 30
0.0
 11
143.5
 21
-1089.516
 31
0.0
  0
CIRCLE
  5
2E0
330
434
100
AcDbEntity
  8
DATA
  6
Continuous
 62
     7
100
AcDbCircle
 10
255.0
 20
-1089.516
 30
0.0
 40
3.25
  0
LINE
  5
2E1
330
434
100
AcDbEntity
  8
DATA
  6
Continuous
 62
     7
100
AcDbLine
 10
255.0
 20
-1091.016
 30
0.0
 11
255.0
 21
-1088.016
 31
0.0
  0
LINE
  5
2E2
330
434
100
AcDbEntity
  8
DATA
  6
Continuous
 62
     7
100
AcDbLine
 10
256.5
 20
-1089.516
 30
0.0
 11
253.5
 21
-1089.516
 31
0.0
  0
CIRCLE
  5
2E3
330
434
100
AcDbEntity
  8
DATA
  6
Continuous
 62
     7
100
AcDbCircle
 10
145.0
 20
-1182.516
 30
0.0
 40
3.25
  0
LINE
  5
2E4
330
434
100
AcDbEntity
  8
DATA
  6
Continuous
 62
     7
100
AcDbLine
 10
145.0
 20
-1184.016
 30
0.0
 11
145.0
 21
-1181.016
 31
0.0
  0
LINE
  5
2E5
330
434
100
AcDbEntity
  8
DATA
  6
Continuous
 62
     7
100
AcDbLine
 10
146.5
 20
-1182.516
 30
0.0
 11
143.5
 21
-1182.516
 31
0.0
  0
CIRCLE
  5
2E6
330
434
100
AcDbEntity
  8
DATA
  6
Continuous
 62
     7
100
AcDbCircle
 10
255.0
 20
-1182.516
 30
0.0
 40
3.25
  0
LINE
  5
2E7
330
434
100
AcDbEntity
  8
DATA
  6
Continuous
 62
     7
100
AcDbLine
 10
255.0
 20
-1184.016
 30
0.0
 11
255.0
 21
-1181.016
 31
0.0
  0
LINE
  5
2E8
330
434
100
AcDbEntity
  8
DATA
  6
Continuous
 62
     7
100
AcDbLine
 10
256.5
 20
-1182.516
 30
0.0
 11
253.5
 21
-1182.516
 31
0.0
  0
CIRCLE
  5
2E9
330
434
100
AcDbEntity
  8
DATA
  6
Continuous
 62
     7
100
AcDbCircle
 10
145.0
 20
-1275.516
 30
0.0
 40
3.25
  0
LINE
  5
2EA
330
434
100
AcDbEntity
  8
DATA
  6
Continuous
 62
     7
100
AcDbLine
 10
145.0
 20
-1277.016
 30
0.0
 11
145.0
 21
-1274.016
 31
0.0
  0
LINE
  5
2EB
330
434
100
AcDbEntity
  8
DATA
  6
Continuous
 62
     7
100
AcDbLine
 10
146.5
 20
-1275.516
 30
0.0
 11
143.5
 21
-1275.516
 31
0.0
  0
CIRCLE
  5
2EC
330
434
100
AcDbEntity
  8
DATA
  6
Continuous
 62
     7
100
AcDbCircle
 10
255.0
 20
-1275.516
 30
0.0
 40
3.25
  0
LINE
  5
2ED
330
434
100
AcDbEntity
  8
DATA
  6
Continuous
 62
     7
100
AcDbLine
 10
255.0
 20
-1277.016
 30
0.0
 11
255.0
 21
-1274.016
 31
0.0
  0
LINE
  5
2EE
330
434
100
AcDbEntity
  8
DATA
  6
Continuous
 62
     7
100
AcDbLine
 10
256.5
 20
-1275.516
 30
0.0
 11
253.5
 21
-1275.516
 31
0.0
  0
CIRCLE
  5
2EF
330
434
100
AcDbEntity
  8
DATA
  6
Continuous
 62
     7
100
AcDbCircle
 10
200.0
 20
-1050.098
 30
0.0
 40
11.17600000000038
  0
LINE
  5
2F0
330
434
100
AcDbEntity
  8
DATA
  6
Continuous
 62
     7
100
AcDbLine
 10
197.2060000000001
 20
-1051.876
 30
0.0
 11
200.0
 21
-1053.654
 31
0.0
  0
LINE
  5
2F1
330
434
100
AcDbEntity
  8
DATA
  6
Continuous
 62
     7
100
AcDbLine
 10
202.7939999999999
 20
-1048.574
 30
0.0
 11
200.0
 21
-1046.796
 31
0.0
  0
LINE
  5
2F2
330
434
100
AcDbEntity
  8
DATA
  6
Continuous
 62
     7
100
AcDbLine
 10
197.2060000000001
 20
-1048.574
 30
0.0
 11
197.2060000000001
 21
-1051.876
 31
0.0
  0
LINE
  5
2F3
330
434
100
AcDbEntity
  8
DATA
  6
Continuous
 62
     7
100
AcDbLine
 10
202.7939999999999
 20
-1051.876
 30
0.0
 11
202.7939999999999
 21
-1048.574
 31
0.0
  0
LINE
  5
2F4
330
434
100
AcDbEntity
  8
DATA
  6
Continuous
 62
     7
100
AcDbLine
 10
200.0
 20
-1046.796
 30
0.0
 11
197.2060000000001
 21
-1048.574
 31
0.0
  0
LINE
  5
2F5
330
434
100
AcDbEntity
  8
DATA
  6
Continuous
 62
     7
100
AcDbLine
 10
200.0
 20
-1053.654
 30
0.0
 11
202.7939999999999
 21
-1051.876
 31
0.0
  0
CIRCLE
  5
2F6
330
434
100
AcDbEntity
  8
DATA
  6
Continuous
 62
     7
100
AcDbCircle
 10
200.0
 20
-773.9019999999998
 30
0.0
 40
11.17600000000038
  0
LINE
  5
2F7
330
434
100
AcDbEntity
  8
DATA
  6
Continuous
 62
     7
100
AcDbLine
 10
197.2060000000001
 20
-772.124
 30
0.0
 11
200.0
 21
-770.3459999999997
 31
0.0
  0
LINE
  5
2F8
330
434
100
AcDbEntity
  8
DATA
  6
Continuous
 62
     7
100
AcDbLine
 10
202.7939999999999
 20
-775.4259999999996
 30
0.0
 11
200.0
 21
-777.2039999999995
 31
0.0
  0
LINE
  5
2F9
330
434
100
AcDbEntity
  8
DATA
  6
Continuous
 62
     7
100
AcDbLine
 10
197.2060000000001
 20
-775.4259999999996
 30
0.0
 11
197.2060000000001
 21
-772.124
 31
0.0
  0
LINE
  5
2FA
330
434
100
AcDbEntity
  8
DATA
  6
Continuous
 62
     7
100
AcDbLine
 10
202.7939999999999
 20
-772.124
 30
0.0
 11
202.7939999999999
 21
-775.4259999999996
 31
0.0
  0
LINE
  5
2FB
330
434
100
AcDbEntity
  8
DATA
  6
Continuous
 62
     7
100
AcDbLine
 10
200.0
 20
-777.2039999999995
 30
0.0
 11
197.2060000000001
 21
-775.4259999999996
 31
0.0
  0
LINE
  5
2FC
330
434
100
AcDbEntity
  8
DATA
  6
Continuous
 62
     7
100
AcDbLine
 10
200.0
 20
-770.3459999999997
 30
0.0
 11
202.7939999999999
 21
-772.124
 31
0.0
  0
LWPOLYLINE
  5
2FD
330
434
100
AcDbEntity
  8
DATA
  6
Continuous
 62
     7
100
AcDbPolyline
 90
        4
 70
     1
 43
0.0
 10
176.5
 20
-1124.016
 10
229.5
 20
-1124.016
 10
229.5
 20
-1144.016
 10
176.5
 20
-1144.016
  0
LINE
  5
304
330
434
100
AcDbEntity
  8
DATA
  6
Continuous
 62
     7
100
AcDbLine
 10
176.5
 20
-1130.682666666666
 30
0.0
 11
229.5
 21
-1130.682666666666
 31
0.0
  0
LINE
  5
305
330
434
100
AcDbEntity
  8
DATA
  6
Continuous
 62
     7
100
AcDbLine
 10
176.5
 20
-1137.349333333333
 30
0.0
 11
229.5
 21
-1137.349333333333
 31
0.0
  0
LINE
  5
306
330
434
100
AcDbEntity
  8
DATA
  6
Continuous
 62
     7
100
AcDbLine
 10
192.5
 20
-1124.016
 30
0.0
 11
192.5
 21
-1144.016
 31
0.0
  0
LINE
  5
307
330
434
100
AcDbEntity
  8
DATA
  6
Continuous
 62
     7
100
AcDbLine
 10
212.5
 20
-1144.016
 30
0.0
 11
212.5
 21
-1124.016
 31
0.0
  0
TEXT
  5
308
330
434
100
AcDbEntity
  8
DATA
 62
     7
100
AcDbText
 10
196.43994140625
 20
-1128.792204427083
 30
0.0
 40
2.8857421875
  1
Passive
 41
0.7
 72
     1
 11
202.5
 21
-1127.349333333333
 31
0.0
100
AcDbText
 73
     2
  0
TEXT
  5
309
330
434
100
AcDbEntity
  8
DATA
 62
     7
100
AcDbText
 10
215.949951171875
 20
-1128.792204427083
 30
0.0
 40
2.8857421875
  1
Bi-Amp
 41
0.7
 72
     1
 11
221.0
 21
-1127.349333333333
 31
0.0
100
AcDbText
 73
     2
  0
TEXT
  5
30A
330
434
100
AcDbEntity
  8
DATA
 62
     7
100
AcDbText
 10
180.4599609375
 20
-1135.45887109375
 30
0.0
 40
2.8857421875
  1
1+/1-
 41
0.7
 72
     1
 11
184.5
 21
-1134.016
 31
0.0
100
AcDbText
 73
     2
  0
TEXT
  5
30B
330
434
100
AcDbEntity
  8
DATA
 62
     7
100
AcDbText
 10
194.1505859375
 20
-1135.45887109375
 30
0.0
 40
2.8857421875
  1
Full Renge
 41
0.7
 72
     1
 11
202.5
 21
-1134.016
 31
0.0
100
AcDbText
 73
     2
  0
TEXT
  5
30C
330
434
100
AcDbEntity
  8
DATA
 62
     7
100
AcDbText
 10
218.306640625
 20
-1135.45887109375
 30
0.0
 40
2.8857421875
  1
Low
 41
0.7
 72
     1
 11
221.0
 21
-1134.016
 31
0.0
100
AcDbText
 73
     2
  0
TEXT
  5
30D
330
434
100
AcDbEntity
  8
DATA
 62
     7
100
AcDbText
 10
179.78662109375
 20
-1142.125537760417
 30
0.0
 40
2.8857421875
  1
2+/2-
 41
0.7
 72
     1
 11
184.5
 21
-1140.682666666667
 31
0.0
100
AcDbText
 73
     2
  0
TEXT
  5
30E
330
434
100
AcDbEntity
  8
DATA
 62
     7
100
AcDbText
 10
199.806640625
 20
-1142.125537760416
 30
0.0
 40
2.8857421875
  1
n/c
 41
0.7
 72
     1
 11
202.5
 21
-1140.682666666666
 31
0.0
100
AcDbText
 73
     2
  0
TEXT
  5
30F
330
434
100
AcDbEntity
  8
DATA
 62
     7
100
AcDbText
 10
217.969970703125
 20
-1142.125537760416
 30
0.0
 40
2.8857421875
  1
High
 41
0.7
 72
     1
 11
221.0
 21
-1140.682666666666
 31
0.0
100
AcDbText
 73
     2
  0
TEXT
  5
310
330
434
100
AcDbEntity
  8
DATA
 62
     7
100
AcDbText
 10
179.78662109375
 20
-1128.792204427083
 30
0.0
 40
2.8857421875
  1
Wiring
 41
0.7
 72
     1
 11
184.5
 21
-1127.349333333333
 31
0.0
100
AcDbText
 73
     2
  0
TEXT
  5
311
330
434
100
AcDbEntity
  8
DATA
 62
     7
100
AcDbText
 10
178.614648507039
 20
-1214.03601953125
 30
0.0
 40
4.0400390625
  1
1+
 41
0.7
 72
     1
 11
180.500000069539
 21
-1212.016
 31
0.0
100
AcDbText
 73
     2
  0
TEXT
  5
312
330
434
100
AcDbEntity
  8
DATA
 62
     7
100
AcDbText
 10
191.614648507039
 20
-1214.03601953125
 30
0.0
 40
4.0400390625
  1
1-
 41
0.7
 72
     1
 11
193.500000069539
 21
-1212.016
 31
0.0
100
AcDbText
 73
     2
  0
TEXT
  5
313
330
434
100
AcDbEntity
  8
DATA
 62
     7
100
AcDbText
 10
204.143310616414
 20
-1214.03601953125
 30
0.0
 40
4.0400390625
  1
2+
 41
0.7
 72
     1
 11
206.500000069539
 21
-1212.016
 31
0.0
100
AcDbText
 73
     2
  0
TEXT
  5
314
330
434
100
AcDbEntity
  8
DATA
 62
     7
100
AcDbText
 10
217.143310616414
 20
-1214.03601953125
 30
0.0
 40
4.0400390625
  1
2-
 41
0.7
 72
     1
 11
219.500000069539
 21
-1212.016
 31
0.0
100
AcDbText
 73
     2
  0
CIRCLE
  5
315
330
434
100
AcDbEntity
  8
DATA
  6
Continuous
 62
     7
100
AcDbCircle
 10
200.0
 20
-1326.098
 30
0.0
 40
11.17600000000038
  0
LINE
  5
316
330
434
100
AcDbEntity
  8
DATA
  6
Continuous
 62
     7
100
AcDbLine
 10
197.2060000000001
 20
-1327.876
 30
0.0
 11
200.0
 21
-1329.654
 31
0.0
  0
LINE
  5
317
330
434
100
AcDbEntity
  8
DATA
  6
Continuous
 62
     7
100
AcDbLine
 10
202.7939999999999
 20
-1324.574
 30
0.0
 11
200.0
 21
-1322.796
 31
0.0
  0
LINE
  5
318
330
434
100
AcDbEntity
  8
DATA
  6
Continuous
 62
     7
100
AcDbLine
 10
197.2060000000001
 20
-1324.574
 30
0.0
 11
197.2060000000001
 21
-1327.876
 31
0.0
  0
LINE
  5
319
330
434
100
AcDbEntity
  8
DATA
  6
Continuous
 62
     7
100
AcDbLine
 10
202.7939999999999
 20
-1327.876
 30
0.0
 11
202.7939999999999
 21
-1324.574
 31
0.0
  0
LINE
  5
31A
330
434
100
AcDbEntity
  8
DATA
  6
Continuous
 62
     7
100
AcDbLine
 10
200.0
 20
-1322.796
 30
0.0
 11
197.2060000000001
 21
-1324.574
 31
0.0
  0
LINE
  5
31B
330
434
100
AcDbEntity
  8
DATA
  6
Continuous
 62
     7
100
AcDbLine
 10
200.0
 20
-1329.654
 30
0.0
 11
202.7939999999999
 21
-1327.876
 31
0.0
  0
LINE
  5
31C
330
434
100
AcDbEntity
  8
DATA
  6
Continuous
 62
     7
100
AcDbLine
 10
674.5000000000005
 20
-1350.0
 30
0.0
 11
674.5000000000005
 21
-153.0
 31
0.0
  0
LINE
  5
31D
330
434
100
AcDbEntity
  8
DATA
  6
Continuous
 62
     7
100
AcDbLine
 10
1325.499999999999
 20
-1350.0
 30
0.0
 11
674.5000000000005
 21
-1350.0
 31
0.0
  0
LINE
  5
31E
330
434
100
AcDbEntity
  8
DATA
  6
Continuous
 62
     7
100
AcDbLine
 10
1325.499999999999
 20
-153.0
 30
0.0
 11
1325.499999999999
 21
-1350.0
 31
0.0
  0
LINE
  5
31F
330
434
100
AcDbEntity
  8
DATA
  6
Continuous
 62
     7
100
AcDbLine
 10
674.5000000000005
 20
-153.0
 30
0.0
 11
1325.499999999999
 21
-153.0
 31
0.0
  0
LWPOLYLINE
  5
320
330
434
100
AcDbEntity
  8
DATA
  6
Continuous
 62
     7
100
AcDbPolyline
 90
        4
 70
     1
 43
0.0
 10
716.5000000000004
 20
-1014.0
 10
1283.499999999999
 20
-1014.0
 10
1283.499999999999
 20
-1140.0
 10
716.5000000000004
 20
-1140.0
  0
LWPOLYLINE
  5
327
330
434
100
AcDbEntity
  8
DATA
  6
Continuous
 62
     7
100
AcDbPolyline
 90
        5
 70
   129
 43
0.0
 10
917.7500000000003
 20
-727.0
 42
-0.4142135623730951
 10
1000.0
 20
-644.7499999999999
 42
-0.4142135623730951
 10
1082.25
 20
-727.0
 42
-0.4142135623730951
 10
1000.0
 20
-809.2499999999999
 42
-0.4142135623730951
 10
917.7500000000003
 20
-727.0
  0
LINE
  5
32E
330
434
100
AcDbEntity
  8
DATA
  6
Continuous
 62
     7
100
AcDbLine
 10
979.0000000000004
 20
-657.0
 30
0.0
 11
1021.0
 21
-657.0
 31
0.0
  0
LINE
  5
32F
330
434
100
AcDbEntity
  8
DATA
  6
Continuous
 62
     7
100
AcDbLine
 10
986.0000000000002
 20
-797.0
 30
0.0
 11
1014.0
 21
-797.0
 31
0.0
  0
LINE
  5
330
330
434
100
AcDbEntity
  8
DATA
  6
Continuous
 62
     7
100
AcDbLine
 10
986.0000000000002
 20
-797.0
 30
0.0
 11
986.0000000000002
 21
-788.5999999999996
 31
0.0
  0
LINE
  5
331
330
434
100
AcDbEntity
  8
DATA
  6
Continuous
 62
     7
100
AcDbLine
 10
1014.0
 20
-797.0
 30
0.0
 11
1014.0
 21
-788.5999999999996
 31
0.0
  0
LINE
  5
332
330
434
100
AcDbEntity
  8
DATA
  6
Continuous
 62
     7
100
AcDbLine
 10
979.0000000000004
 20
-657.0
 30
0.0
 11
979.0000000000004
 21
-669.0900500000013
 31
0.0
  0
LINE
  5
333
330
434
100
AcDbEntity
  8
DATA
  6
Continuous
 62
     7
100
AcDbLine
 10
1021.0
 20
-657.0
 30
0.0
 11
1021.0
 21
-669.0900500000013
 31
0.0
  0
ARC
  5
334
330
434
100
AcDbEntity
  8
DATA
  6
Continuous
 62
     7
100
AcDbCircle
 10
1000.0
 20
-727.0
 30
0.0
 40
61.60001874189946
100
AcDbArc
 50
109.9322641506793
 51
257.1961668196997
  0
ARC
  5
335
330
434
100
AcDbEntity
  8
DATA
  6
Continuous
 62
     7
100
AcDbCircle
 10
1000.0
 20
-727.0
 30
0.0
 40
61.6000245304214
100
AcDbArc
 50
282.9999995554207
 51
69.99999423796293
  0
ARC
  5
336
330
434
100
AcDbEntity
  8
DATA
  6
Continuous
 62
     7
100
AcDbCircle
 10
1000.0
 20
-727.0
 30
0.0
 40
43.40001513444836
100
AcDbArc
 50
60.00001153556062
 51
150.0000115355619
  0
LINE
  5
337
330
434
100
AcDbEntity
  8
DATA
  6
Continuous
 62
     7
100
AcDbLine
 10
962.4146200000009
 20
-705.2997899999996
 30
0.0
 11
965.9003399999997
 21
-707.3122900000003
 31
0.0
  0
LINE
  5
338
330
434
100
AcDbEntity
  8
DATA
  6
Continuous
 62
     7
100
AcDbLine
 10
1021.69979
 20
-689.4143399999993
 30
0.0
 11
1019.687289999999
 21
-692.9001300000001
 31
0.0
  0
ARC
  5
339
330
434
100
AcDbEntity
  8
DATA
  6
Continuous
 62
     7
100
AcDbCircle
 10
1000.0
 20
-727.0
 30
0.0
 40
43.4000151344502
100
AcDbArc
 50
240.0000115355606
 51
330.0000115355623
  0
LINE
  5
33A
330
434
100
AcDbEntity
  8
DATA
  6
Continuous
 62
     7
100
AcDbLine
 10
978.2999999999997
 20
-764.5855200000011
 30
0.0
 11
980.3125000000003
 21
-761.0997300000001
 31
0.0
  0
LINE
  5
33B
330
434
100
AcDbEntity
  8
DATA
  6
Continuous
 62
     7
100
AcDbLine
 10
1037.58559
 20
-748.6998599999997
 30
0.0
 11
1034.0998
 21
-746.6873600000003
 31
0.0
  0
ARC
  5
33C
330
434
100
AcDbEntity
  8
DATA
  6
Continuous
 62
     7
100
AcDbCircle
 10
1000.0
 20
-727.0
 30
0.0
 40
39.37502682106681
100
AcDbArc
 50
149.9996696821037
 51
240.0002126043032
  0
ARC
  5
33D
330
434
100
AcDbEntity
  8
DATA
  6
Continuous
 62
     7
100
AcDbCircle
 10
1000.0
 20
-727.0
 30
0.0
 40
39.37497306423981
100
AcDbArc
 50
330.0002126043024
 51
60.00071824312368
  0
ARC
  5
33E
330
434
100
AcDbEntity
  8
DATA
  6
Continuous
 62
     7
100
AcDbCircle
 10
1000.0
 20
-727.0
 30
0.0
 40
25.19993056612668
100
AcDbArc
 50
59.99990885470682
 51
149.9999088547061
  0
ARC
  5
33F
330
434
100
AcDbEntity
  8
DATA
  6
Continuous
 62
     7
100
AcDbCircle
 10
1000.0
 20
-727.0
 30
0.0
 40
25.19993056612668
100
AcDbArc
 50
239.9999088547069
 51
329.9999088547061
  0
LINE
  5
340
330
434
100
AcDbEntity
  8
DATA
  6
Continuous
 62
     7
100
AcDbLine
 10
1012.599859999999
 20
-705.1761699999997
 30
0.0
 11
1010.14993
 21
-709.4196400000007
 31
0.0
  0
LINE
  5
341
330
434
100
AcDbEntity
  8
DATA
  6
Continuous
 62
     7
100
AcDbLine
 10
978.1763100000002
 20
-714.3999300000005
 30
0.0
 11
982.4197099999997
 21
-716.8499299999998
 31
0.0
  0
LINE
  5
342
330
434
100
AcDbEntity
  8
DATA
  6
Continuous
 62
     7
100
AcDbLine
 10
987.4000000000011
 20
-748.8237600000003
 30
0.0
 11
989.85
 21
-744.5802899999994
 31
0.0
  0
LINE
  5
343
330
434
100
AcDbEntity
  8
DATA
  6
Continuous
 62
     7
100
AcDbLine
 10
1021.823830000001
 20
-739.59986
 30
0.0
 11
1017.58036
 21
-737.1499300000005
 31
0.0
  0
ARC
  5
344
330
434
100
AcDbEntity
  8
DATA
  6
Continuous
 62
     7
100
AcDbCircle
 10
1000.0
 20
-727.0
 30
0.0
 40
20.30001274603124
100
AcDbArc
 50
149.9997926340312
 51
240.0002336238284
  0
ARC
  5
345
330
434
100
AcDbEntity
  8
DATA
  6
Continuous
 62
     7
100
AcDbCircle
 10
1000.0
 20
-727.0
 30
0.0
 40
20.30000336784473
100
AcDbArc
 50
330.0002336238289
 51
59.99979263403032
  0
LINE
  5
346
330
434
100
AcDbEntity
  8
DATA
  6
Continuous
 62
     7
100
AcDbLine
 10
807.5000000000022
 20
-1140.0
 30
0.0
 11
807.5000000000022
 21
-1014.0
 31
0.0
  0
LINE
  5
347
330
434
100
AcDbEntity
  8
DATA
  6
Continuous
 62
     7
100
AcDbLine
 10
828.5000000000023
 20
-1140.0
 30
0.0
 11
828.5000000000023
 21
-1014.0
 31
0.0
  0
LINE
  5
348
330
434
100
AcDbEntity
  8
DATA
  6
Continuous
 62
     7
100
AcDbLine
 10
898.5000000000022
 20
-1140.0
 30
0.0
 11
898.5000000000022
 21
-1014.0
 31
0.0
  0
LINE
  5
349
330
434
100
AcDbEntity
  8
DATA
  6
Continuous
 62
     7
100
AcDbLine
 10
919.5000000000023
 20
-1140.0
 30
0.0
 11
919.5000000000023
 21
-1014.0
 31
0.0
  0
LINE
  5
34A
330
434
100
AcDbEntity
  8
DATA
  6
Continuous
 62
     7
100
AcDbLine
 10
989.5000000000022
 20
-1140.0
 30
0.0
 11
989.5000000000022
 21
-1014.0
 31
0.0
  0
LINE
  5
34B
330
434
100
AcDbEntity
  8
DATA
  6
Continuous
 62
     7
100
AcDbLine
 10
1010.500000000002
 20
-1140.0
 30
0.0
 11
1010.500000000002
 21
-1014.0
 31
0.0
  0
LINE
  5
34C
330
434
100
AcDbEntity
  8
DATA
  6
Continuous
 62
     7
100
AcDbLine
 10
1080.500000000002
 20
-1140.0
 30
0.0
 11
1080.500000000002
 21
-1014.0
 31
0.0
  0
LINE
  5
34D
330
434
100
AcDbEntity
  8
DATA
  6
Continuous
 62
     7
100
AcDbLine
 10
1101.500000000003
 20
-1140.0
 30
0.0
 11
1101.500000000003
 21
-1014.0
 31
0.0
  0
LINE
  5
34E
330
434
100
AcDbEntity
  8
DATA
  6
Continuous
 62
     7
100
AcDbLine
 10
1171.500000000003
 20
-1140.0
 30
0.0
 11
1171.500000000003
 21
-1014.0
 31
0.0
  0
LINE
  5
34F
330
434
100
AcDbEntity
  8
DATA
  6
Continuous
 62
     7
100
AcDbLine
 10
1192.500000000003
 20
-1140.0
 30
0.0
 11
1192.500000000003
 21
-1014.0
 31
0.0
  0
LINE
  5
350
330
434
100
AcDbEntity
  8
DATA
  6
Continuous
 62
     7
100
AcDbLine
 10
737.5000000000003
 20
-1140.0
 30
0.0
 11
737.5000000000003
 21
-1014.0
 31
0.0
  0
LINE
  5
351
330
434
100
AcDbEntity
  8
DATA
  6
Continuous
 62
     7
100
AcDbLine
 10
1262.499999999999
 20
-1014.0
 30
0.0
 11
1262.499999999999
 21
-1140.0
 31
0.0
  0
CIRCLE
  5
352
330
434
100
AcDbEntity
  8
DATA
  6
Continuous
 62
     7
100
AcDbCircle
 10
863.5000000000022
 20
-1077.0
 30
0.0
 40
28.00000000000046
  0
LWPOLYLINE
  5
353
330
434
100
AcDbEntity
  8
DATA
  6
Continuous
 62
     7
100
AcDbPolyline
 90
        4
 70
     1
 43
0.0
 10
843.8658536585386
 20
-1036.707317073169
 10
898.5000000000011
 20
-1048.999999999998
 10
883.1341463414659
 20
-1117.292682926827
 10
828.5000000000012
 20
-1104.999999999998
  0
LINE
  5
35A
330
434
100
AcDbEntity
  8
DATA
  6
Continuous
 62
     7
100
AcDbLine
 10
837.1886066179971
 20
-1067.423435986879
 30
0.0
 11
889.8113933820084
 21
-1086.576564013118
 31
0.0
  0
CIRCLE
  5
35B
330
434
100
AcDbEntity
  8
DATA
  6
Continuous
 62
     7
100
AcDbCircle
 10
954.5000000000023
 20
-1077.0
 30
0.0
 40
28.00000000000046
  0
LWPOLYLINE
  5
35C
330
434
100
AcDbEntity
  8
DATA
  6
Continuous
 62
     7
100
AcDbPolyline
 90
        4
 70
     1
 43
0.0
 10
934.8658536585384
 20
-1036.707317073169
 10
989.5000000000012
 20
-1048.999999999998
 10
974.1341463414659
 20
-1117.292682926827
 10
919.5000000000012
 20
-1104.999999999998
  0
CIRCLE
  5
363
330
434
100
AcDbEntity
  8
DATA
  6
Continuous
 62
     7
100
AcDbCircle
 10
1045.500000000002
 20
-1077.0
 30
0.0
 40
28.00000000000046
  0
LWPOLYLINE
  5
364
330
434
100
AcDbEntity
  8
DATA
  6
Continuous
 62
     7
100
AcDbPolyline
 90
        4
 70
     1
 43
0.0
 10
1025.865853658538
 20
-1036.707317073169
 10
1080.500000000001
 20
-1048.999999999998
 10
1065.134146341466
 20
-1117.292682926827
 10
1010.500000000001
 20
-1104.999999999998
  0
CIRCLE
  5
36B
330
434
100
AcDbEntity
  8
DATA
  6
Continuous
 62
     7
100
AcDbCircle
 10
1136.500000000003
 20
-1077.0
 30
0.0
 40
27.99999999999875
  0
LWPOLYLINE
  5
36C
330
434
100
AcDbEntity
  8
DATA
  6
Continuous
 62
     7
100
AcDbPolyline
 90
        4
 70
     1
 43
0.0
 10
1116.865853658538
 20
-1036.707317073169
 10
1171.500000000001
 20
-1048.999999999998
 10
1156.134146341466
 20
-1117.292682926827
 10
1101.500000000001
 20
-1104.999999999998
  0
CIRCLE
  5
373
330
434
100
AcDbEntity
  8
DATA
  6
Continuous
 62
     7
100
AcDbCircle
 10
1227.500000000002
 20
-1077.0
 30
0.0
 40
27.99999999999821
  0
CIRCLE
  5
374
330
434
100
AcDbEntity
  8
DATA
  6
Continuous
 62
     7
100
AcDbCircle
 10
772.5000000000012
 20
-1077.0
 30
0.0
 40
27.99999999999961
  0
CIRCLE
  5
375
330
434
100
AcDbEntity
  8
DATA
  6
Continuous
 62
     7
100
AcDbCircle
 10
790.0000000000003
 20
-573.0
 30
0.0
 40
21.0
  0
CIRCLE
  5
376
330
434
100
AcDbEntity
  8
DATA
  6
Continuous
 62
     7
100
AcDbCircle
 10
1209.999999999999
 20
-573.0
 30
0.0
 40
21.0
  0
LWPOLYLINE
  5
377
330
434
100
AcDbEntity
  8
DATA
  6
Continuous
 62
     7
100
AcDbPolyline
 90
        4
 70
     1
 43
0.0
 10
720.0000000000004
 20
-272.0
 10
1279.999999999999
 20
-272.0
 10
1279.999999999999
 20
-538.0
 10
720.0000000000004
 20
-538.0
  0
TEXT
  5
37E
330
434
100
AcDbEntity
  8
DATA
 62
     7
100
AcDbText
 10
725.2500000000003
 20
-519.1
 30
0.0
 40
26.93359375
  1
(Passive)
 41
0.7
 11
725.2500000000003
 21
-492.16640625
 31
0.0
100
AcDbText
 73
     3
  0
TEXT
  5
37F
330
434
100
AcDbEntity
  8
DATA
 62
     7
100
AcDbText
 10
1125.999999999999
 20
-519.1
 30
0.0
 40
26.93359375
  1
(Bi-Amp)
 41
0.7
 11
1125.999999999999
 21
-492.16640625
 31
0.0
100
AcDbText
 73
     3
  0
TEXT
  5
380
330
434
100
AcDbEntity
  8
DATA
 62
     7
100
AcDbText
 10
741.0000000000003
 20
-323.1
 30
0.0
 40
26.93359375
  1
Model: AC2215/
 41
0.7
 11
741.0000000000003
 21
-296.16640625
 31
0.0
100
AcDbText
 73
     3
  0
LINE
  5
381
330
434
100
AcDbEntity
  8
DATA
  6
Continuous
 62
     7
100
AcDbLine
 10
867.6897467557422
 20
-1065.488765395372
 30
0.0
 11
859.3102532442641
 21
-1088.511234604627
 31
0.0
  0
LINE
  5
382
330
434
100
AcDbEntity
  8
DATA
  6
Continuous
 62
     7
100
AcDbLine
 10
776.6897467557405
 20
-1088.511234604627
 30
0.0
 11
768.3102532442611
 21
-1065.488765395372
 31
0.0
  0
LINE
  5
383
330
434
100
AcDbEntity
  8
DATA
  6
Continuous
 62
     7
100
AcDbLine
 10
760.9887653953743
 20
-1081.18974675574
 30
0.0
 11
784.0112346046277
 21
-1072.810253244261
 31
0.0
  0
LINE
  5
384
330
434
100
AcDbEntity
  8
DATA
  6
Continuous
 62
     7
100
AcDbLine
 10
928.1886066179971
 20
-1067.423435986879
 30
0.0
 11
980.8113933820081
 21
-1086.576564013118
 31
0.0
  0
LINE
  5
385
330
434
100
AcDbEntity
  8
DATA
  6
Continuous
 62
     7
100
AcDbLine
 10
958.6897467557424
 20
-1065.488765395372
 30
0.0
 11
950.3102532442641
 21
-1088.511234604627
 31
0.0
  0
LINE
  5
386
330
434
100
AcDbEntity
  8
DATA
  6
Continuous
 62
     7
100
AcDbLine
 10
1019.188606617997
 20
-1067.423435986879
 30
0.0
 11
1071.811393382008
 21
-1086.576564013118
 31
0.0
  0
LINE
  5
387
330
434
100
AcDbEntity
  8
DATA
  6
Continuous
 62
     7
100
AcDbLine
 10
1049.689746755742
 20
-1065.488765395372
 30
0.0
 11
1041.310253244264
 21
-1088.511234604627
 31
0.0
  0
LINE
  5
388
330
434
100
AcDbEntity
  8
DATA
  6
Continuous
 62
     7
100
AcDbLine
 10
1110.188606617997
 20
-1067.423435986879
 30
0.0
 11
1162.811393382007
 21
-1086.576564013118
 31
0.0
  0
LINE
  5
389
330
434
100
AcDbEntity
  8
DATA
  6
Continuous
 62
     7
100
AcDbLine
 10
1140.689746755742
 20
-1065.488765395372
 30
0.0
 11
1132.310253244264
 21
-1088.511234604627
 31
0.0
  0
LINE
  5
38A
330
434
100
AcDbEntity
  8
DATA
  6
Continuous
 62
     7
100
AcDbLine
 10
1215.988765395373
 20
-1081.18974675574
 30
0.0
 11
1239.011234604628
 21
-1072.810253244261
 31
0.0
  0
LINE
  5
38B
330
434
100
AcDbEntity
  8
DATA
  6
Continuous
 62
     7
100
AcDbLine
 10
1231.68974675574
 20
-1088.511234604627
 30
0.0
 11
1223.310253244261
 21
-1065.488765395372
 31
0.0
  0
LWPOLYLINE
  5
38C
330
434
100
AcDbEntity
  8
DATA
  6
Continuous
 62
     7
100
AcDbPolyline
 90
        4
 70
     1
 43
0.0
 10
835.4999999999995
 20
-342.0
 10
1206.499999999999
 20
-342.0
 10
1206.499999999999
 20
-482.0
 10
835.4999999999995
 20
-482.0
  0
LINE
  5
393
330
434
100
AcDbEntity
  8
DATA
  6
Continuous
 62
     7
100
AcDbLine
 10
835.4999999999995
 20
-388.6666666666656
 30
0.0
 11
1206.499999999999
 21
-388.6666666666656
 31
0.0
  0
LINE
  5
394
330
434
100
AcDbEntity
  8
DATA
  6
Continuous
 62
     7
100
AcDbLine
 10
835.4999999999995
 20
-435.3333333333343
 30
0.0
 11
1206.499999999999
 21
-435.3333333333343
 31
0.0
  0
LINE
  5
395
330
434
100
AcDbEntity
  8
DATA
  6
Continuous
 62
     7
100
AcDbLine
 10
947.4999999999996
 20
-342.0
 30
0.0
 11
947.4999999999996
 21
-482.0
 31
0.0
  0
LINE
  5
396
330
434
100
AcDbEntity
  8
DATA
  6
Continuous
 62
     7
100
AcDbLine
 10
1087.5
 20
-482.0
 30
0.0
 11
1087.5
 21
-342.0
 31
0.0
  0
TEXT
  5
397
330
434
100
AcDbEntity
  8
DATA
 62
     7
100
AcDbText
 10
975.0795898437496
 20
-375.4334309895828
 30
0.0
 40
20.2001953125
  1
Passive
 41
0.7
 72
     1
 11
1017.5
 21
-365.3333333333328
 31
0.0
100
AcDbText
 73
     2
  0
TEXT
  5
398
330
434
100
AcDbEntity
  8
DATA
 62
     7
100
AcDbText
 10
1111.649658203124
 20
-375.4334309895828
 30
0.0
 40
20.2001953125
  1
Bi-Amp
 41
0.7
 72
     1
 11
1146.999999999999
 21
-365.3333333333328
 31
0.0
100
AcDbText
 73
     2
  0
TEXT
  5
399
330
434
100
AcDbEntity
  8
DATA
 62
     7
100
AcDbText
 10
863.2197265624995
 20
-422.10009765625
 30
0.0
 40
20.2001953125
  1
1+/1-
 41
0.7
 72
     1
 11
891.4999999999995
 21
-412.0
 31
0.0
100
AcDbText
 73
     2
  0
TEXT
  5
39A
330
434
100
AcDbEntity
  8
DATA
 62
     7
100
AcDbText
 10
959.0541015624996
 20
-422.10009765625
 30
0.0
 40
20.2001953125
  1
Full Renge
 41
0.7
 72
     1
 11
1017.5
 21
-412.0
 31
0.0
100
AcDbText
 73
     2
  0
TEXT
  5
39B
330
434
100
AcDbEntity
  8
DATA
 62
     7
100
AcDbText
 10
1128.146484374999
 20
-422.10009765625
 30
0.0
 40
20.2001953125
  1
Low
 41
0.7
 72
     1
 11
1146.999999999999
 21
-412.0
 31
0.0
100
AcDbText
 73
     2
  0
TEXT
  5
39C
330
434
100
AcDbEntity
  8
DATA
 62
     7
100
AcDbText
 10
858.5063476562496
 20
-468.7667643229172
 30
0.0
 40
20.2001953125
  1
2+/2-
 41
0.7
 72
     1
 11
891.4999999999995
 21
-458.6666666666672
 31
0.0
100
AcDbText
 73
     2
  0
TEXT
  5
39D
330
434
100
AcDbEntity
  8
DATA
 62
     7
100
AcDbText
 10
998.6464843749997
 20
-468.7667643229156
 30
0.0
 40
20.2001953125
  1
n/c
 41
0.7
 72
     1
 11
1017.5
 21
-458.6666666666657
 31
0.0
100
AcDbText
 73
     2
  0
TEXT
  5
39E
330
434
100
AcDbEntity
  8
DATA
 62
     7
100
AcDbText
 10
1125.789794921874
 20
-468.7667643229156
 30
0.0
 40
20.2001953125
  1
High
 41
0.7
 72
     1
 11
1146.999999999999
 21
-458.6666666666657
 31
0.0
100
AcDbText
 73
     2
  0
TEXT
  5
39F
330
434
100
AcDbEntity
  8
DATA
 62
     7
100
AcDbText
 10
858.5063476562496
 20
-375.4334309895828
 30
0.0
 40
20.2001953125
  1
Wiring
 41
0.7
 72
     1
 11
891.4999999999995
 21
-365.3333333333328
 31
0.0
100
AcDbText
 73
     2
  0
TEXT
  5
3A0
330
434
100
AcDbEntity
  8
DATA
 62
     7
100
AcDbText
 10
850.3025395492738
 20
-972.14013671875
 30
0.0
 40
28.28027343750001
  1
1+
 41
0.7
 72
     1
 11
863.5000004867737
 21
-958.0
 31
0.0
100
AcDbText
 73
     2
  0
TEXT
  5
3A1
330
434
100
AcDbEntity
  8
DATA
 62
     7
100
AcDbText
 10
941.3025395492738
 20
-972.14013671875
 30
0.0
 40
28.28027343750001
  1
1-
 41
0.7
 72
     1
 11
954.5000004867738
 21
-958.0
 31
0.0
100
AcDbText
 73
     2
  0
TEXT
  5
3A2
330
434
100
AcDbEntity
  8
DATA
 62
     7
100
AcDbText
 10
1029.003174314898
 20
-972.14013671875
 30
0.0
 40
28.28027343750001
  1
2+
 41
0.7
 72
     1
 11
1045.500000486773
 21
-958.0
 31
0.0
100
AcDbText
 73
     2
  0
TEXT
  5
3A3
330
434
100
AcDbEntity
  8
DATA
 62
     7
100
AcDbText
 10
1120.003174314899
 20
-972.14013671875
 30
0.0
 40
28.28027343750001
  1
2-
 41
0.7
 72
     1
 11
1136.500000486774
 21
-958.0
 31
0.0
100
AcDbText
 73
     2
  0
ARC
  5
3A4
330
434
100
AcDbEntity
  8
DATA
  6
Continuous
 62
     7
100
AcDbCircle
 10
-159.2699999999999
 20
-1355.056
 30
0.0
 40
13.46000000000003
100
AcDbArc
 50
270.0
 51
0.0
  0
LINE
  5
3A5
330
434
100
AcDbEntity
  8
DATA
  6
Continuous
 62
     7
100
AcDbLine
 10
-159.2699999999999
 20
-731.4839999999998
 30
0.0
 11
-636.54
 21
-731.4839999999998
 31
0.0
  0
ARC
  5
3A6
330
434
100
AcDbEntity
  8
DATA
  6
Continuous
 62
     7
100
AcDbCircle
 10
-159.2699999999999
 20
-744.9439999999998
 30
0.0
 40
13.46000000000003
100
AcDbArc
 50
0.0
 51
90.0
  0
ARC
  5
3A7
330
434
100
AcDbEntity
  8
DATA
  6
Continuous
 62
     7
100
AcDbCircle
 10
-636.54
 20
-744.9439999999998
 30
0.0
 40
13.46000000000003
100
AcDbArc
 50
90.0
 51
180.0
  0
LINE
  5
3A8
330
434
100
AcDbEntity
  8
DATA
  6
Continuous
 62
     7
100
AcDbLine
 10
-517.7923466547253
 20
-1327.749
 30
0.0
 11
-520.491338153587
 21
-1329.527
 31
0.0
  0
LINE
  5
3A9
330
434
100
AcDbEntity
  8
DATA
  6
Continuous
 62
     7
100
AcDbLine
 10
-523.1903296524487
 20
-1324.447000000001
 30
0.0
 11
-520.491338153587
 21
-1322.669
 31
0.0
  0
LINE
  5
3AA
330
434
100
AcDbEntity
  8
DATA
  6
Continuous
 62
     7
100
AcDbLine
 10
-517.7923466547253
 20
-1324.447000000001
 30
0.0
 11
-517.7923466547253
 21
-1327.749
 31
0.0
  0
LINE
  5
3AB
330
434
100
AcDbEntity
  8
DATA
  6
Continuous
 62
     7
100
AcDbLine
 10
-523.1903296524487
 20
-1327.749
 30
0.0
 11
-523.1903296524487
 21
-1324.447000000001
 31
0.0
  0
LINE
  5
3AC
330
434
100
AcDbEntity
  8
DATA
  6
Continuous
 62
     7
100
AcDbLine
 10
-520.491338153587
 20
-1322.669
 30
0.0
 11
-517.7923466547253
 21
-1324.447000000001
 31
0.0
  0
LINE
  5
3AD
330
434
100
AcDbEntity
  8
DATA
  6
Continuous
 62
     7
100
AcDbLine
 10
-520.491338153587
 20
-1329.527
 30
0.0
 11
-523.1903296524487
 21
-1327.749
 31
0.0
  0
ARC
  5
3AE
330
434
100
AcDbEntity
  8
DATA
  6
Continuous
 62
     7
100
AcDbCircle
 10
-520.5112226040568
 20
-1326.740720148381
 30
0.0
 40
10.53329862027572
100
AcDbArc
 50
218.7896539513865
 51
270.1081613469446
  0
ARC
  5
3AF
330
434
100
AcDbEntity
  8
DATA
  6
Continuous
 62
     7
100
AcDbCircle
 10
-519.8994620845346
 20
-1326.138211510169
 30
0.0
 40
11.38791305953542
100
AcDbArc
 50
179.7976842116456
 51
219.2242633328978
  0
ARC
  5
3B0
330
434
100
AcDbEntity
  8
DATA
  6
Continuous
 62
     7
100
AcDbCircle
 10
-520.4714537031171
 20
-1326.740720148381
 30
0.0
 40
10.53329862027574
100
AcDbArc
 50
269.8918386530554
 51
321.2103460486135
  0
ARC
  5
3B1
330
434
100
AcDbEntity
  8
DATA
  6
Continuous
 62
     7
100
AcDbCircle
 10
-521.0832142226394
 20
-1326.138211510169
 30
0.0
 40
11.38791305953513
100
AcDbArc
 50
320.7757366671022
 51
0.20231578835444
  0
ARC
  5
3B2
330
434
100
AcDbEntity
  8
DATA
  6
Continuous
 62
     7
100
AcDbCircle
 10
-520.5112226040568
 20
-1325.455279851619
 30
0.0
 40
10.53329862027574
100
AcDbArc
 50
89.89183865305539
 51
141.2103460486134
  0
ARC
  5
3B3
330
434
100
AcDbEntity
  8
DATA
  6
Continuous
 62
     7
100
AcDbCircle
 10
-519.8994620845346
 20
-1326.057788489831
 30
0.0
 40
11.38791305953513
100
AcDbArc
 50
140.7757366671021
 51
180.2023157883544
  0
ARC
  5
3B4
330
434
100
AcDbEntity
  8
DATA
  6
Continuous
 62
     7
100
AcDbCircle
 10
-520.4714537031171
 20
-1325.455279851619
 30
0.0
 40
10.53329862027572
100
AcDbArc
 50
38.78965395138657
 51
90.1081613469446
  0
ARC
  5
3B5
330
434
100
AcDbEntity
  8
DATA
  6
Continuous
 62
     7
100
AcDbCircle
 10
-521.0832142226394
 20
-1326.057788489831
 30
0.0
 40
11.38791305953542
100
AcDbArc
 50
359.7976842116457
 51
39.22426333289781
  0
LINE
  5
3B6
330
434
100
AcDbEntity
  8
DATA
  6
Continuous
 62
     7
100
AcDbLine
 10
-517.7923466547253
 20
-772.2509999999999
 30
0.0
 11
-520.491338153587
 21
-770.4729999999997
 31
0.0
  0
LINE
  5
3B7
330
434
100
AcDbEntity
  8
DATA
  6
Continuous
 62
     7
100
AcDbLine
 10
-523.1903296524487
 20
-775.5529999999996
 30
0.0
 11
-520.491338153587
 21
-777.3309999999993
 31
0.0
  0
LINE
  5
3B8
330
434
100
AcDbEntity
  8
DATA
  6
Continuous
 62
     7
100
AcDbLine
 10
-517.7923466547253
 20
-775.5529999999996
 30
0.0
 11
-517.7923466547253
 21
-772.2509999999999
 31
0.0
  0
LINE
  5
3B9
330
434
100
AcDbEntity
  8
DATA
  6
Continuous
 62
     7
100
AcDbLine
 10
-523.1903296524487
 20
-772.2509999999999
 30
0.0
 11
-523.1903296524487
 21
-775.5529999999996
 31
0.0
  0
LINE
  5
3BA
330
434
100
AcDbEntity
  8
DATA
  6
Continuous
 62
     7
100
AcDbLine
 10
-520.491338153587
 20
-777.3309999999993
 30
0.0
 11
-517.7923466547253
 21
-775.5529999999996
 31
0.0
  0
LINE
  5
3BB
330
434
100
AcDbEntity
  8
DATA
  6
Continuous
 62
     7
100
AcDbLine
 10
-520.491338153587
 20
-770.4729999999997
 30
0.0
 11
-523.1903296524487
 21
-772.2509999999999
 31
0.0
  0
ARC
  5
3BC
330
434
100
AcDbEntity
  8
DATA
  6
Continuous
 62
     7
100
AcDbCircle
 10
-520.5112226040568
 20
-773.259279851619
 30
0.0
 40
10.53329862027574
100
AcDbArc
 50
89.89183865305539
 51
141.2103460486134
  0
ARC
  5
3BD
330
434
100
AcDbEntity
  8
DATA
  6
Continuous
 62
     7
100
AcDbCircle
 10
-519.8994620845346
 20
-773.8617884898308
 30
0.0
 40
11.38791305953513
100
AcDbArc
 50
140.7757366671021
 51
180.2023157883544
  0
ARC
  5
3BE
330
434
100
AcDbEntity
  8
DATA
  6
Continuous
 62
     7
100
AcDbCircle
 10
-520.4714537031171
 20
-773.259279851619
 30
0.0
 40
10.53329862027572
100
AcDbArc
 50
38.78965395138657
 51
90.1081613469446
  0
ARC
  5
3BF
330
434
100
AcDbEntity
  8
DATA
  6
Continuous
 62
     7
100
AcDbCircle
 10
-521.0832142226394
 20
-773.8617884898308
 30
0.0
 40
11.38791305953542
100
AcDbArc
 50
359.7976842116457
 51
39.22426333289781
  0
ARC
  5
3C0
330
434
100
AcDbEntity
  8
DATA
  6
Continuous
 62
     7
100
AcDbCircle
 10
-520.5112226040568
 20
-774.5447201483806
 30
0.0
 40
10.53329862027572
100
AcDbArc
 50
218.7896539513865
 51
270.1081613469446
  0
ARC
  5
3C1
330
434
100
AcDbEntity
  8
DATA
  6
Continuous
 62
     7
100
AcDbCircle
 10
-519.8994620845346
 20
-773.942211510169
 30
0.0
 40
11.38791305953542
100
AcDbArc
 50
179.7976842116456
 51
219.2242633328978
  0
ARC
  5
3C2
330
434
100
AcDbEntity
  8
DATA
  6
Continuous
 62
     7
100
AcDbCircle
 10
-520.4714537031171
 20
-774.5447201483806
 30
0.0
 40
10.53329862027574
100
AcDbArc
 50
269.8918386530554
 51
321.2103460486135
  0
ARC
  5
3C3
330
434
100
AcDbEntity
  8
DATA
  6
Continuous
 62
     7
100
AcDbCircle
 10
-521.0832142226394
 20
-773.942211510169
 30
0.0
 40
11.38791305953513
100
AcDbArc
 50
320.7757366671022
 51
0.20231578835444
  0
ENDSEC
  0
SECTION
  2
OBJECTS
  0
DICTIONARY
  5
3D1
330
0
100
AcDbDictionary
281
     1
  3
ACAD_CIP_PREVIOUS_PRODUCT_INFO
350
44D
  3
ACAD_COLOR
350
427
  3
ACAD_DETAILVIEWSTYLE
350
42E
  3
ACAD_GROUP
350
3D2
  3
ACAD_LAYOUT
350
426
  3
ACAD_MATERIAL
350
3D5
  3
ACAD_MLEADERSTYLE
350
42A
  3
ACAD_MLINESTYLE
350
423
  3
ACAD_PLOTSETTINGS
350
425
  3
ACAD_PLOTSTYLENAME
350
3D3
  3
ACAD_SCALELIST
350
407
  3
ACAD_SECTIONVIEWSTYLE
350
42C
  3
ACAD_TABLESTYLE
350
428
  3
ACAD_VISUALSTYLE
350
3EE
  3
ACDB_RECOMPOSE_DATA
350
465
  3
AcDbVariableDictionary
350
458
  3
DWGPROPS
350
466
  0
DICTIONARY
  5
44E
330
419
100
AcDbDictionary
280
     1
281
     1
  3
ADSK_XREC_LAYER_RECONCILED
360
44F
  0
DICTIONARY
  5
450
330
438
100
AcDbDictionary
280
     1
281
     1
  3
ADSK_XREC_LAYER_RECONCILED
360
451
  0
DICTIONARY
  5
452
330
445
100
AcDbDictionary
280
     1
281
     1
  3
ADSK_XREC_LAYER_RECONCILED
360
453
  0
DICTIONARY
  5
454
330
446
100
AcDbDictionary
280
     1
281
     1
  3
ADSK_XREC_LAYER_RECONCILED
360
455
  0
DICTIONARY
  5
456
330
447
100
AcDbDictionary
280
     1
281
     1
  3
ADSK_XREC_LAYER_RECONCILED
360
457
  0
XRECORD
  5
44D
102
{ACAD_REACTORS
330
3D1
102
}
330
3D1
100
AcDbXrecord
280
     1
300
ACDLT
300
2017
300
ACDLT_F_S
  0
DICTIONARY
  5
427
102
{ACAD_REACTORS
330
3D1
102
}
330
3D1
100
AcDbDictionary
281
     1
  0
DICTIONARY
  5
42E
102
{ACAD_REACTORS
330
3D1
102
}
330
3D1
100
AcDbDictionary
281
     1
  3
Imperial24
350
42F
  0
DICTIONARY
  5
3D2
102
{ACAD_REACTORS
330
3D1
102
}
330
3D1
100
AcDbDictionary
281
     1
  0
DICTIONARY
  5
426
102
{ACAD_REACTORS
330
3D1
102
}
330
3D1
100
AcDbDictionary
281
     1
  3
Model
350
437
  3
レイアウト1
350
433
  0
DICTIONARY
  5
3D5
102
{ACAD_REACTORS
330
3D1
102
}
330
3D1
100
AcDbDictionary
281
     1
  3
ByBlock
350
3DE
  3
ByLayer
350
3D6
  3
Global
350
3E6
  0
DICTIONARY
  5
42A
102
{ACAD_REACTORS
330
3D1
102
}
330
3D1
100
AcDbDictionary
281
     1
  3
Standard
350
42B
  0
DICTIONARY
  5
423
102
{ACAD_REACTORS
330
3D1
102
}
330
3D1
100
AcDbDictionary
281
     1
  3
Standard
350
424
  0
DICTIONARY
  5
425
102
{ACAD_REACTORS
330
3D1
102
}
330
3D1
100
AcDbDictionary
281
     1
  0
ACDBDICTIONARYWDFLT
  5
3D3
102
{ACAD_REACTORS
330
3D1
102
}
330
3D1
100
AcDbDictionary
281
     1
  3
Normal
350
3D4
100
AcDbDictionaryWithDefault
340
3D4
  0
DICTIONARY
  5
407
102
{ACAD_REACTORS
330
3D1
102
}
330
3D1
100
AcDbDictionary
281
     1
  3
A0
350
408
  3
A1
350
409
  3
A2
350
40A
  3
A3
350
40B
  3
A4
350
40C
  3
A5
350
40D
  3
A6
350
40E
  3
A7
350
40F
  3
A8
350
410
  3
A9
350
411
  3
B0
350
412
  3
B1
350
413
  3
B2
350
414
  3
B3
350
415
  3
B4
350
416
  3
B5
350
417
  3
B6
350
418
  0
DICTIONARY
  5
42C
102
{ACAD_REACTORS
330
3D1
102
}
330
3D1
100
AcDbDictionary
281
     1
  3
Imperial24
350
42D
  0
DICTIONARY
  5
428
102
{ACAD_REACTORS
330
3D1
102
}
330
3D1
100
AcDbDictionary
281
     1
  3
Standard
350
429
  0
DICTIONARY
  5
3EE
102
{ACAD_REACTORS
330
3D1
102
}
330
3D1
100
AcDbDictionary
281
     1
  3
2dWireframe
350
3F4
  3
Basic
350
3F3
  3
Brighten
350
3FA
  3
ColorChange
350
3FE
  3
Conceptual
350
3F7
  3
Dim
350
3F9
  3
EdgeColorOff
350
406
  3
Facepattern
350
3FD
  3
Flat
350
3EF
  3
FlatWithEdges
350
3F0
  3
Gouraud
350
3F1
  3
GouraudWithEdges
350
3F2
  3
Hidden
350
3F6
  3
JitterOff
350
404
  3
Linepattern
350
3FC
  3
OverhangOff
350
405
  3
Realistic
350
3F8
  3
Shaded
350
403
  3
Shaded with edges
350
402
  3
Shades of Gray
350
3FF
  3
Sketchy
350
400
  3
Thicken
350
3FB
  3
Wireframe
350
3F5
  3
X-Ray
350
401
  0
XRECORD
  5
465
102
{ACAD_REACTORS
330
3D1
102
}
330
3D1
100
AcDbXrecord
280
     1
 90
        1
330
429
  0
DICTIONARY
  5
458
102
{ACAD_REACTORS
330
3D1
102
}
330
3D1
100
AcDbDictionary
281
     1
  3
CANNOSCALE
350
45D
  3
CMLEADERSTYLE
350
45A
  3
CTABLESTYLE
350
459
  3
CVIEWDETAILSTYLE
350
45B
  3
CVIEWSECTIONSTYLE
350
45C
  3
DIMASSOC
350
460
  3
INDEXCTL
350
45F
  3
SORTENTS
350
45E
  3
XCLIPFRAME
350
461
  0
XRECORD
  5
466
102
{ACAD_REACTORS
330
3D1
102
}
330
3D1
100
AcDbXrecord
280
     1
  1
DWGPROPS COOKIE
  2

  3

  4

  6

  7

  8
sasaki_n
  9

300
=
301
=
302
=
303
=
304
=
305
=
306
=
307
=
308
=
309
=
 40
0.0004861111111111
 41
2457812.43119213
 42
2457812.452453704
  1

 90
        0
  0
XRECORD
  5
44F
102
{ACAD_REACTORS
330
44E
102
}
330
44E
100
AcDbXrecord
280
     1
290
     1
  0
XRECORD
  5
451
102
{ACAD_REACTORS
330
450
102
}
330
450
100
AcDbXrecord
280
     1
290
     1
  0
XRECORD
  5
453
102
{ACAD_REACTORS
330
452
102
}
330
452
100
AcDbXrecord
280
     1
290
     1
  0
XRECORD
  5
455
102
{ACAD_REACTORS
330
454
102
}
330
454
100
AcDbXrecord
280
     1
290
     1
  0
XRECORD
  5
457
102
{ACAD_REACTORS
330
456
102
}
330
456
100
AcDbXrecord
280
     1
290
     1
  0
ACDBDETAILVIEWSTYLE
  5
42F
102
{ACAD_XDICTIONARY
360
49E
102
}
102
{ACAD_REACTORS
330
42E
102
}
330
42E
100
AcDbModelDocViewStyle
 70
     0
  3
Imperial24
290
     0
100
AcDbDetailViewStyle
 70
     0
 71
     0
 90
        3
 71
     1
340
41A
 40
0.24
340
0
 40
0.24
300

 40
0.36
280
     3
 71
     2
340
421
 90
       25
 71
     3
340
41A
 40
0.24
 90
        1
 40
0.75
 90
        1
300
%<\AcVar ViewType \f "%tc1">% %<\AcVar ViewDetailId>%\PSCALE %<\AcVar ViewScale \f "%sn">%
 71
     4
340
421
 90
       25
340
421
 90
       25
280
     0
  0
LAYOUT
  5
437
102
{ACAD_XDICTIONARY
360
4A2
102
}
102
{ACAD_REACTORS
330
426
102
}
330
426
100
AcDbPlotSettings
  1

  2
DocuPrint 3000-2
  4

  6

 40
0.0
 41
0.0
 42
0.0
 43
0.0
 44
0.0
 45
0.0
 46
0.0
 47
0.0
 48
0.0
 49
0.0
140
0.0
141
0.0
142
1.0
143
1.0
 70
  1712
 72
     0
 73
     0
 74
     0
  7

 75
     0
147
1.0
148
0.0
149
0.0
100
AcDbLayout
  1
Model
 70
     1
 71
     0
 10
0.0
 20
0.0
 11
12.0
 21
9.0
 12
0.0
 22
0.0
 32
0.0
 14
0.0
 24
0.0
 34
0.0
 15
0.0
 25
0.0
 35
0.0
146
0.0
 13
0.0
 23
0.0
 33
0.0
 16
1.0
 26
0.0
 36
0.0
 17
0.0
 27
1.0
 37
0.0
 76
     0
330
434
331
439
  0
LAYOUT
  5
433
102
{ACAD_XDICTIONARY
360
4A0
102
}
102
{ACAD_REACTORS
330
426
102
}
330
426
100
AcDbPlotSettings
  1

  2
DocuPrint 3000-2
  4

  6

 40
0.0
 41
0.0
 42
0.0
 43
0.0
 44
0.0
 45
0.0
 46
0.0
 47
0.0
 48
0.0
 49
0.0
140
0.0
141
0.0
142
1.0
143
1.0
 70
   688
 72
     0
 73
     0
 74
     5
  7

 75
    16
147
1.0
148
0.0
149
0.0
100
AcDbLayout
  1
レイアウト1
 70
     0
 71
     1
 10
0.0
 20
0.0
 11
12.0
 21
9.0
 12
0.0
 22
0.0
 32
0.0
 14
1.000000000000000E+20
 24
1.000000000000000E+20
 34
1.000000000000000E+20
 15
-1.000000000000000E+20
 25
-1.000000000000000E+20
 35
-1.000000000000000E+20
146
0.0
 13
0.0
 23
0.0
 33
0.0
 16
1.0
 26
0.0
 36
0.0
 17
0.0
 27
1.0
 37
0.0
 76
     0
330
430
  0
MATERIAL
  5
3DE
102
{ACAD_XDICTIONARY
360
3DF
102
}
102
{ACAD_REACTORS
330
3D5
102
}
330
3D5
100
AcDbMaterial
  1
ByBlock
 72
     0
 43
0.0208333333333333
 43
0.0
 43
0.0
 43
0.0
 43
0.0
 43
0.0208333333333333
 43
0.0
 43
0.0
 43
0.0
 43
0.0
 43
1.0
 43
0.0
 43
0.0
 43
0.0
 43
0.0
 43
1.0
 77
     0
 47
0.0208333333333333
 47
0.0
 47
0.0
 47
0.0
 47
0.0
 47
0.0208333333333333
 47
0.0
 47
0.0
 47
0.0
 47
0.0
 47
1.0
 47
0.0
 47
0.0
 47
0.0
 47
0.0
 47
1.0
171
     0
 49
0.0208333333333333
 49
0.0
 49
0.0
 49
0.0
 49
0.0
 49
0.0208333333333333
 49
0.0
 49
0.0
 49
0.0
 49
0.0
 49
1.0
 49
0.0
 49
0.0
 49
0.0
 49
0.0
 49
1.0
175
     0
142
0.0208333333333333
142
0.0
142
0.0
142
0.0
142
0.0
142
0.0208333333333333
142
0.0
142
0.0
142
0.0
142
0.0
142
1.0
142
0.0
142
0.0
142
0.0
142
0.0
142
1.0
179
     0
144
0.0208333333333333
144
0.0
144
0.0
144
0.0
144
0.0
144
0.0208333333333333
144
0.0
144
0.0
144
0.0
144
0.0
144
1.0
144
0.0
144
0.0
144
0.0
144
0.0
144
1.0
147
0.0208333333333333
147
0.0
147
0.0
147
0.0
147
0.0
147
0.0208333333333333
147
0.0
147
0.0
147
0.0
147
0.0
147
1.0
147
0.0
147
0.0
147
0.0
147
0.0
147
1.0
  0
MATERIAL
  5
3D6
102
{ACAD_XDICTIONARY
360
3D7
102
}
102
{ACAD_REACTORS
330
3D5
102
}
330
3D5
100
AcDbMaterial
  1
ByLayer
 72
     0
 43
0.0208333333333333
 43
0.0
 43
0.0
 43
0.0
 43
0.0
 43
0.0208333333333333
 43
0.0
 43
0.0
 43
0.0
 43
0.0
 43
1.0
 43
0.0
 43
0.0
 43
0.0
 43
0.0
 43
1.0
 77
     0
 47
0.0208333333333333
 47
0.0
 47
0.0
 47
0.0
 47
0.0
 47
0.0208333333333333
 47
0.0
 47
0.0
 47
0.0
 47
0.0
 47
1.0
 47
0.0
 47
0.0
 47
0.0
 47
0.0
 47
1.0
171
     0
 49
0.0208333333333333
 49
0.0
 49
0.0
 49
0.0
 49
0.0
 49
0.0208333333333333
 49
0.0
 49
0.0
 49
0.0
 49
0.0
 49
1.0
 49
0.0
 49
0.0
 49
0.0
 49
0.0
 49
1.0
175
     0
142
0.0208333333333333
142
0.0
142
0.0
142
0.0
142
0.0
142
0.0208333333333333
142
0.0
142
0.0
142
0.0
142
0.0
142
1.0
142
0.0
142
0.0
142
0.0
142
0.0
142
1.0
179
     0
144
0.0208333333333333
144
0.0
144
0.0
144
0.0
144
0.0
144
0.0208333333333333
144
0.0
144
0.0
144
0.0
144
0.0
144
1.0
144
0.0
144
0.0
144
0.0
144
0.0
144
1.0
147
0.0208333333333333
147
0.0
147
0.0
147
0.0
147
0.0
147
0.0208333333333333
147
0.0
147
0.0
147
0.0
147
0.0
147
1.0
147
0.0
147
0.0
147
0.0
147
0.0
147
1.0
  0
MATERIAL
  5
3E6
102
{ACAD_XDICTIONARY
360
3E7
102
}
102
{ACAD_REACTORS
330
3D5
102
}
330
3D5
100
AcDbMaterial
  1
Global
 72
     0
 43
0.0208333333333333
 43
0.0
 43
0.0
 43
0.0
 43
0.0
 43
0.0208333333333333
 43
0.0
 43
0.0
 43
0.0
 43
0.0
 43
1.0
 43
0.0
 43
0.0
 43
0.0
 43
0.0
 43
1.0
 77
     0
 47
0.0208333333333333
 47
0.0
 47
0.0
 47
0.0
 47
0.0
 47
0.0208333333333333
 47
0.0
 47
0.0
 47
0.0
 47
0.0
 47
1.0
 47
0.0
 47
0.0
 47
0.0
 47
0.0
 47
1.0
171
     0
 49
0.0208333333333333
 49
0.0
 49
0.0
 49
0.0
 49
0.0
 49
0.0208333333333333
 49
0.0
 49
0.0
 49
0.0
 49
0.0
 49
1.0
 49
0.0
 49
0.0
 49
0.0
 49
0.0
 49
1.0
175
     0
142
0.0208333333333333
142
0.0
142
0.0
142
0.0
142
0.0
142
0.0208333333333333
142
0.0
142
0.0
142
0.0
142
0.0
142
1.0
142
0.0
142
0.0
142
0.0
142
0.0
142
1.0
179
     0
144
0.0208333333333333
144
0.0
144
0.0
144
0.0
144
0.0
144
0.0208333333333333
144
0.0
144
0.0
144
0.0
144
0.0
144
1.0
144
0.0
144
0.0
144
0.0
144
0.0
144
1.0
147
0.0208333333333333
147
0.0
147
0.0
147
0.0
147
0.0
147
0.0208333333333333
147
0.0
147
0.0
147
0.0
147
0.0
147
1.0
147
0.0
147
0.0
147
0.0
147
0.0
147
1.0
  0
MLEADERSTYLE
  5
42B
102
{ACAD_REACTORS
330
42A
102
}
330
42A
100
AcDbMLeaderStyle
170
     2
171
     1
172
     0
 90
        2
 40
0.0
 41
0.0
173
     1
 91
-1056964608
340
41F
 92
       -2
290
     1
 42
0.09
291
     1
 43
0.36
  3
Standard
 44
0.18
300

342
41A
174
     1
178
     6
175
     1
176
     0
 93
-1056964608
 45
0.18
292
     0
297
     0
 46
0.18
 94
-1056964608
 47
1.0
 49
1.0
140
1.0
293
     1
141
0.0
294
     1
177
     0
142
1.0
295
     0
296
     0
143
0.125
1001
ACAD_MLEADERVER
1070
     2
  0
MLINESTYLE
  5
424
102
{ACAD_REACTORS
330
423
102
}
330
423
100
AcDbMlineStyle
  2
STANDARD
 70
     0
  3

 62
   256
 51
90.0
 52
90.0
 71
     2
 49
0.5
 62
   256
  6
BYLAYER
 49
-0.5
 62
   256
  6
BYLAYER
  0
ACDBPLACEHOLDER
  5
3D4
102
{ACAD_REACTORS
330
3D3
102
}
330
3D3
  0
SCALE
  5
408
102
{ACAD_REACTORS
330
407
102
}
330
407
100
AcDbScale
 70
     0
300
1:1
140
1.0
141
1.0
290
     1
  0
SCALE
  5
409
102
{ACAD_REACTORS
330
407
102
}
330
407
100
AcDbScale
 70
     0
300
1/128" = 1'-0"
140
0.0078125
141
12.0
290
     0
  0
SCALE
  5
40A
102
{ACAD_REACTORS
330
407
102
}
330
407
100
AcDbScale
 70
     0
300
1/64" = 1'-0"
140
0.015625
141
12.0
290
     0
  0
SCALE
  5
40B
102
{ACAD_REACTORS
330
407
102
}
330
407
100
AcDbScale
 70
     0
300
1/32" = 1'-0"
140
0.03125
141
12.0
290
     0
  0
SCALE
  5
40C
102
{ACAD_REACTORS
330
407
102
}
330
407
100
AcDbScale
 70
     0
300
1/16" = 1'-0"
140
0.0625
141
12.0
290
     0
  0
SCALE
  5
40D
102
{ACAD_REACTORS
330
407
102
}
330
407
100
AcDbScale
 70
     0
300
3/32" = 1'-0"
140
0.09375
141
12.0
290
     0
  0
SCALE
  5
40E
102
{ACAD_REACTORS
330
407
102
}
330
407
100
AcDbScale
 70
     0
300
1/8" = 1'-0"
140
0.125
141
12.0
290
     0
  0
SCALE
  5
40F
102
{ACAD_REACTORS
330
407
102
}
330
407
100
AcDbScale
 70
     0
300
3/16" = 1'-0"
140
0.1875
141
12.0
290
     0
  0
SCALE
  5
410
102
{ACAD_REACTORS
330
407
102
}
330
407
100
AcDbScale
 70
     0
300
1/4" = 1'-0"
140
0.25
141
12.0
290
     0
  0
SCALE
  5
411
102
{ACAD_REACTORS
330
407
102
}
330
407
100
AcDbScale
 70
     0
300
3/8" = 1'-0"
140
0.375
141
12.0
290
     0
  0
SCALE
  5
412
102
{ACAD_REACTORS
330
407
102
}
330
407
100
AcDbScale
 70
     0
300
1/2" = 1'-0"
140
0.5
141
12.0
290
     0
  0
SCALE
  5
413
102
{ACAD_REACTORS
330
407
102
}
330
407
100
AcDbScale
 70
     0
300
3/4" = 1'-0"
140
0.75
141
12.0
290
     0
  0
SCALE
  5
414
102
{ACAD_REACTORS
330
407
102
}
330
407
100
AcDbScale
 70
     0
300
1" = 1'-0"
140
1.0
141
12.0
290
     0
  0
SCALE
  5
415
102
{ACAD_REACTORS
330
407
102
}
330
407
100
AcDbScale
 70
     0
300
1-1/2" = 1'-0"
140
1.5
141
12.0
290
     0
  0
SCALE
  5
416
102
{ACAD_REACTORS
330
407
102
}
330
407
100
AcDbScale
 70
     0
300
3" = 1'-0"
140
3.0
141
12.0
290
     0
  0
SCALE
  5
417
102
{ACAD_REACTORS
330
407
102
}
330
407
100
AcDbScale
 70
     0
300
6" = 1'-0"
140
6.0
141
12.0
290
     0
  0
SCALE
  5
418
102
{ACAD_REACTORS
330
407
102
}
330
407
100
AcDbScale
 70
     0
300
1'-0" = 1'-0"
140
12.0
141
12.0
290
     0
  0
ACDBSECTIONVIEWSTYLE
  5
42D
102
{ACAD_XDICTIONARY
360
49C
102
}
102
{ACAD_REACTORS
330
42C
102
}
330
42C
100
AcDbModelDocViewStyle
 70
     0
  3
Imperial24
290
     0
100
AcDbSectionViewStyle
 70
     0
 71
     0
 90
       78
 71
     1
340
41A
 40
0.24
340
0
340
0
 40
0.24
300
I, O, Q, S, X, Z
 40
0.48
 90
        3
 40
0.18
 90
        1
 71
     2
340
421
 90
       25
340
421
 90
       50
 40
0.24
 40
0.0
 40
0.24
 71
     3
340
41A
 40
0.24
 90
        1
 40
0.75
 90
        1
300
%<\AcVar ViewType \f "%tc1">% %<\AcVar ViewSectionStartId>%-%<\AcVar ViewSectionEndId>%\PSCALE %<\AcVar ViewScale \f "%sn">%
 71
     4
300
ANSI31
 40
1.0
 90
        0
290
     0
290
     0
 90
        6
 40
0.0
 40
1.570796326794896
 40
0.2617993877991494
 40
1.308996938995747
 40
-0.2617993877991494
 40
1.832595714594046
  0
TABLESTYLE
  5
429
102
{ACAD_XDICTIONARY
360
463
102
}
102
{ACAD_REACTORS
330
428
102
}
330
428
100
AcDbTableStyle
  3
Standard
 70
     0
 71
     0
 40
0.06
 41
0.06
280
     0
281
     0
  7
STANDARD
140
0.18
170
     2
 62
     0
 63
     7
283
     0
274
    -2
284
     1
 64
     0
275
    -2
285
     1
 65
     0
276
    -2
286
     1
 66
     0
277
    -2
287
     1
 67
     0
278
    -2
288
     1
 68
     0
279
    -2
289
     1
 69
     0
  7
STANDARD
140
0.25
170
     5
 62
     0
 63
     7
283
     0
274
    -2
284
     1
 64
     0
275
    -2
285
     1
 65
     0
276
    -2
286
     1
 66
     0
277
    -2
287
     1
 67
     0
278
    -2
288
     1
 68
     0
279
    -2
289
     1
 69
     0
  7
STANDARD
140
0.18
170
     5
 62
     0
 63
     7
283
     0
274
    -2
284
     1
 64
     0
275
    -2
285
     1
 65
     0
276
    -2
286
     1
 66
     0
277
    -2
287
     1
 67
     0
278
    -2
288
     1
 68
     0
279
    -2
289
     1
 69
     0
  0
VISUALSTYLE
  5
3F4
102
{ACAD_XDICTIONARY
360
474
102
}
102
{ACAD_REACTORS
330
3EE
102
}
330
3EE
100
AcDbVisualStyle
  2
2dWireframe
 70
     4
 71
     0
 72
     2
 73
     0
 90
        0
 40
-0.6
 41
-30.0
 62
     5
 63
     7
 74
     1
 91
        4
 64
     7
 65
   257
 75
     1
175
     1
 42
1.0
 92
        0
 66
   257
 43
1.0
 76
     1
 77
     6
 78
     2
 67
     7
 79
     5
170
     0
171
     0
290
     0
174
     0
 93
        1
 44
0.0
173
     0
291
     0
 45
0.0
1001
ACAD
1000
AcDbSavedByObjectVersion
1070
     0
  0
VISUALSTYLE
  5
3F3
102
{ACAD_XDICTIONARY
360
472
102
}
102
{ACAD_REACTORS
330
3EE
102
}
330
3EE
100
AcDbVisualStyle
  2
Basic
 70
     7
 71
     1
 72
     0
 73
     1
 90
        0
 40
-0.6
 41
-30.0
 62
     5
 63
     7
 74
     0
 91
        4
 64
     7
 65
   257
 75
     1
175
     1
 42
1.0
 92
        8
 66
     7
 43
1.0
 76
     1
 77
     6
 78
     2
 67
     7
 79
     5
170
     0
171
     0
290
     0
174
     0
 93
        1
 44
0.0
173
     0
291
     1
 45
0.0
1001
ACAD
1000
AcDbSavedByObjectVersion
1070
     0
  0
VISUALSTYLE
  5
3FA
102
{ACAD_XDICTIONARY
360
480
102
}
102
{ACAD_REACTORS
330
3EE
102
}
330
3EE
100
AcDbVisualStyle
  2
Brighten
 70
    12
 71
     2
 72
     2
 73
     0
 90
        0
 40
-0.6
 41
-30.0
 62
     5
 63
     7
 74
     1
 91
        4
 64
     7
 65
   257
 75
     1
175
     1
 42
1.0
 92
        8
 66
     7
 43
1.0
 76
     1
 77
     6
 78
     2
 67
     7
 79
     5
170
     0
171
     0
290
     0
174
     0
 93
        1
 44
50.0
173
     0
291
     1
 45
0.0
1001
ACAD
1000
AcDbSavedByObjectVersion
1070
     0
  0
VISUALSTYLE
  5
3FE
102
{ACAD_XDICTIONARY
360
488
102
}
102
{ACAD_REACTORS
330
3EE
102
}
330
3EE
100
AcDbVisualStyle
  2
ColorChange
 70
    16
 71
     2
 72
     2
 73
     3
 90
        0
 40
-0.6
 41
-30.0
 62
     5
 63
     8
 74
     1
 91
        4
 64
     7
 65
   257
 75
     1
175
     1
 42
1.0
 92
        8
 66
     8
 43
1.0
 76
     1
 77
     6
 78
     2
 67
     7
 79
     5
170
     0
171
     0
290
     0
174
     0
 93
        1
 44
0.0
173
     0
291
     1
 45
0.0
1001
ACAD
1000
AcDbSavedByObjectVersion
1070
     0
  0
VISUALSTYLE
  5
3F7
102
{ACAD_XDICTIONARY
360
47A
102
}
102
{ACAD_REACTORS
330
3EE
102
}
330
3EE
100
AcDbVisualStyle
  2
Conceptual
 70
     9
 71
     3
 72
     2
 73
     0
 90
        0
 40
-0.6
 41
-30.0
 62
     5
 63
     7
 74
     2
 91
        2
 64
     7
 65
   257
 75
     1
175
     1
 42
179.0
 92
        8
 66
     7
 43
1.0
 76
     1
 77
     6
 78
     2
 67
     7
 79
     3
170
     0
171
     0
290
     0
174
     0
 93
        1
 44
0.0
173
     0
291
     0
 45
0.0
1001
ACAD
1000
AcDbSavedByObjectVersion
1070
     0
  0
VISUALSTYLE
  5
3F9
102
{ACAD_XDICTIONARY
360
47E
102
}
102
{ACAD_REACTORS
330
3EE
102
}
330
3EE
100
AcDbVisualStyle
  2
Dim
 70
    11
 71
     2
 72
     2
 73
     0
 90
        0
 40
-0.6
 41
-30.0
 62
     5
 63
     7
 74
     1
 91
        4
 64
     7
 65
   257
 75
     1
175
     1
 42
1.0
 92
        8
 66
     7
 43
1.0
 76
     1
 77
     6
 78
     2
 67
     7
 79
     5
170
     0
171
     0
290
     0
174
     0
 93
        1
 44
-50.0
173
     0
291
     1
 45
0.0
1001
ACAD
1000
AcDbSavedByObjectVersion
1070
     0
  0
VISUALSTYLE
  5
406
102
{ACAD_XDICTIONARY
360
498
102
}
102
{ACAD_REACTORS
330
3EE
102
}
330
3EE
100
AcDbVisualStyle
  2
EdgeColorOff
 70
    22
 71
     2
 72
     2
 73
     0
 90
        0
 40
-0.6
 41
-30.0
 62
     5
 63
     7
 74
     1
 91
        4
 64
     7
 65
   257
 75
     1
175
     1
 42
1.0
 92
        8
 66
     7
 43
1.0
 76
     1
 77
     6
 78
     2
 67
     7
 79
     5
170
     0
171
     0
290
     0
174
     0
 93
        1
 44
0.0
173
     0
291
     1
 45
0.0
1001
ACAD
1000
AcDbSavedByObjectVersion
1070
     0
  0
VISUALSTYLE
  5
3FD
102
{ACAD_XDICTIONARY
360
486
102
}
102
{ACAD_REACTORS
330
3EE
102
}
330
3EE
100
AcDbVisualStyle
  2
Facepattern
 70
    15
 71
     2
 72
     2
 73
     0
 90
        0
 40
-0.6
 41
-30.0
 62
     5
 63
     7
 74
     1
 91
        4
 64
     7
 65
   257
 75
     1
175
     1
 42
1.0
 92
        8
 66
     7
 43
1.0
 76
     1
 77
     6
 78
     2
 67
     7
 79
     5
170
     0
171
     0
290
     0
174
     0
 93
        1
 44
0.0
173
     0
291
     1
 45
0.0
1001
ACAD
1000
AcDbSavedByObjectVersion
1070
     0
  0
VISUALSTYLE
  5
3EF
102
{ACAD_XDICTIONARY
360
46A
102
}
102
{ACAD_REACTORS
330
3EE
102
}
330
3EE
100
AcDbVisualStyle
  2
Flat
 70
     0
 71
     2
 72
     1
 73
     1
 90
        2
 40
-0.6
 41
30.0
 62
     5
 63
     7
 74
     0
 91
        0
 64
     7
 65
   257
 75
     1
175
     1
 42
1.0
 92
        8
 66
     7
 43
1.0
 76
     1
 77
     6
 78
     2
 67
     7
 79
     5
170
     0
171
     0
290
     0
174
     0
 93
       13
 44
0.0
173
     0
291
     1
 45
0.0
1001
ACAD
1000
AcDbSavedByObjectVersion
1070
     0
  0
VISUALSTYLE
  5
3F0
102
{ACAD_XDICTIONARY
360
46C
102
}
102
{ACAD_REACTORS
330
3EE
102
}
330
3EE
100
AcDbVisualStyle
  2
FlatWithEdges
 70
     1
 71
     2
 72
     1
 73
     1
 90
        2
 40
-0.6
 41
30.0
 62
     5
 63
     7
 74
     1
 91
        0
 64
     7
 65
   257
 75
     1
175
     1
 42
1.0
 92
        0
 66
   257
 43
1.0
 76
     1
 77
     6
 78
     2
 67
     7
 79
     5
170
     0
171
     0
290
     0
174
     0
 93
       13
 44
0.0
173
     0
291
     1
 45
0.0
1001
ACAD
1000
AcDbSavedByObjectVersion
1070
     0
  0
VISUALSTYLE
  5
3F1
102
{ACAD_XDICTIONARY
360
46E
102
}
102
{ACAD_REACTORS
330
3EE
102
}
330
3EE
100
AcDbVisualStyle
  2
Gouraud
 70
     2
 71
     2
 72
     2
 73
     1
 90
        2
 40
-0.6
 41
30.0
 62
     5
 63
     7
 74
     0
 91
        0
 64
     7
 65
   257
 75
     1
175
     1
 42
1.0
 92
        0
 66
     7
 43
1.0
 76
     1
 77
     6
 78
     2
 67
     7
 79
     5
170
     0
171
     0
290
     0
174
     0
 93
       13
 44
0.0
173
     0
291
     1
 45
0.0
1001
ACAD
1000
AcDbSavedByObjectVersion
1070
     0
  0
VISUALSTYLE
  5
3F2
102
{ACAD_XDICTIONARY
360
470
102
}
102
{ACAD_REACTORS
330
3EE
102
}
330
3EE
100
AcDbVisualStyle
  2
GouraudWithEdges
 70
     3
 71
     2
 72
     2
 73
     1
 90
        2
 40
-0.6
 41
30.0
 62
     5
 63
     7
 74
     1
 91
        0
 64
     7
 65
   257
 75
     1
175
     1
 42
1.0
 92
        0
 66
   257
 43
1.0
 76
     1
 77
     6
 78
     2
 67
     7
 79
     5
170
     0
171
     0
290
     0
174
     0
 93
       13
 44
0.0
173
     0
291
     1
 45
0.0
1001
ACAD
1000
AcDbSavedByObjectVersion
1070
     0
  0
VISUALSTYLE
  5
3F6
102
{ACAD_XDICTIONARY
360
478
102
}
102
{ACAD_REACTORS
330
3EE
102
}
330
3EE
100
AcDbVisualStyle
  2
Hidden
 70
     6
 71
     1
 72
     2
 73
     2
 90
        0
 40
-0.6
 41
-30.0
 62
     5
 63
     7
 74
     2
 91
        2
 64
     7
 65
   257
 75
     2
175
     1
 42
40.0
 92
        0
 66
   257
 43
1.0
 76
     1
 77
     6
 78
     2
 67
     7
 79
     3
170
     0
171
     0
290
     0
174
     0
 93
        1
 44
0.0
173
     0
291
     0
 45
0.0
1001
ACAD
1000
AcDbSavedByObjectVersion
1070
     0
  0
VISUALSTYLE
  5
404
102
{ACAD_XDICTIONARY
360
494
102
}
102
{ACAD_REACTORS
330
3EE
102
}
330
3EE
100
AcDbVisualStyle
  2
JitterOff
 70
    20
 71
     2
 72
     2
 73
     0
 90
        0
 40
-0.6
 41
-30.0
 62
     5
 63
     7
 74
     1
 91
        4
 64
     7
 65
   257
 75
     1
175
     1
 42
1.0
 92
       10
 66
     7
 43
1.0
 76
     1
 77
     6
 78
     2
 67
     7
 79
     5
170
     0
171
     0
290
     0
174
     0
 93
        1
 44
0.0
173
     0
291
     1
 45
0.0
1001
ACAD
1000
AcDbSavedByObjectVersion
1070
     0
  0
VISUALSTYLE
  5
3FC
102
{ACAD_XDICTIONARY
360
484
102
}
102
{ACAD_REACTORS
330
3EE
102
}
330
3EE
100
AcDbVisualStyle
  2
Linepattern
 70
    14
 71
     2
 72
     2
 73
     0
 90
        0
 40
-0.6
 41
-30.0
 62
     5
 63
     7
 74
     1
 91
        4
 64
     7
 65
   257
 75
     7
175
     7
 42
1.0
 92
        8
 66
     7
 43
1.0
 76
     1
 77
     6
 78
     2
 67
     7
 79
     5
170
     0
171
     0
290
     0
174
     0
 93
        1
 44
0.0
173
     0
291
     1
 45
0.0
1001
ACAD
1000
AcDbSavedByObjectVersion
1070
     0
  0
VISUALSTYLE
  5
405
102
{ACAD_XDICTIONARY
360
496
102
}
102
{ACAD_REACTORS
330
3EE
102
}
330
3EE
100
AcDbVisualStyle
  2
OverhangOff
 70
    21
 71
     2
 72
     2
 73
     0
 90
        0
 40
-0.6
 41
-30.0
 62
     5
 63
     7
 74
     1
 91
        4
 64
     7
 65
   257
 75
     1
175
     1
 42
1.0
 92
        9
 66
     7
 43
1.0
 76
     1
 77
     6
 78
     2
 67
     7
 79
     5
170
     0
171
     0
290
     0
174
     0
 93
        1
 44
0.0
173
     0
291
     1
 45
0.0
1001
ACAD
1000
AcDbSavedByObjectVersion
1070
     0
  0
VISUALSTYLE
  5
3F8
102
{ACAD_XDICTIONARY
360
47C
102
}
102
{ACAD_REACTORS
330
3EE
102
}
330
3EE
100
AcDbVisualStyle
  2
Realistic
 70
     8
 71
     2
 72
     3
 73
     0
 90
        2
 40
-0.6
 41
30.0
 62
     5
 63
     7
 74
     0
 91
        0
 64
     7
 65
   257
 75
     1
175
     1
 42
1.0
 92
        8
 66
   257
 43
1.0
 76
     1
 77
     6
 78
     2
 67
     7
 79
     3
170
     0
171
     0
290
     0
174
     0
 93
       13
 44
0.0
173
     0
291
     0
 45
0.0
1001
ACAD
1000
AcDbSavedByObjectVersion
1070
     0
  0
VISUALSTYLE
  5
403
102
{ACAD_XDICTIONARY
360
492
102
}
102
{ACAD_REACTORS
330
3EE
102
}
330
3EE
100
AcDbVisualStyle
  2
Shaded
 70
    27
 71
     2
 72
     2
 73
     1
 90
        2
 40
-0.6
 41
30.0
 62
     5
 63
     7
 74
     0
 91
        4
 64
     7
 65
   257
 75
     1
175
     1
 42
1.0
 92
        8
 66
   257
 43
1.0
 76
     1
 77
     6
 78
     2
 67
     8
 79
     3
170
     0
171
     0
290
     0
174
     0
 93
        5
 44
0.0
173
     0
291
     0
 45
0.0
1001
ACAD
1000
AcDbSavedByObjectVersion
1070
     0
  0
VISUALSTYLE
  5
402
102
{ACAD_XDICTIONARY
360
490
102
}
102
{ACAD_REACTORS
330
3EE
102
}
330
3EE
100
AcDbVisualStyle
  2
Shaded with edges
 70
    26
 71
     2
 72
     2
 73
     1
 90
        2
 40
-0.6
 41
30.0
 62
     5
 63
     7
 74
     1
 91
        2
 64
     7
 65
   257
 75
     2
175
     1
 42
1.0
 92
        8
 66
   257
 43
1.0
 76
     1
 77
     6
 78
     2
 67
     7
 79
     3
170
     0
171
     0
290
     0
174
     0
 93
        5
 44
0.0
173
     0
291
     0
 45
0.0
1001
ACAD
1000
AcDbSavedByObjectVersion
1070
     0
  0
VISUALSTYLE
  5
3FF
102
{ACAD_XDICTIONARY
360
48A
102
}
102
{ACAD_REACTORS
330
3EE
102
}
330
3EE
100
AcDbVisualStyle
  2
Shades of Gray
 70
    23
 71
     2
 72
     2
 73
     3
 90
        0
 40
-0.6
 41
-30.0
 62
     5
 63
     7
 74
     2
 91
        2
 64
     7
 65
     7
 75
     1
175
     1
 42
40.0
 92
        8
 66
     7
 43
1.0
 76
     1
 77
     6
 78
     2
 67
     7
 79
     3
170
     0
171
     0
290
     0
174
     0
 93
        1
 44
0.0
173
     0
291
     0
 45
0.0
1001
ACAD
1000
AcDbSavedByObjectVersion
1070
     0
  0
VISUALSTYLE
  5
400
102
{ACAD_XDICTIONARY
360
48C
102
}
102
{ACAD_REACTORS
330
3EE
102
}
330
3EE
100
AcDbVisualStyle
  2
Sketchy
 70
    24
 71
     1
 72
     2
 73
     2
 90
        0
 40
-0.6
 41
-30.0
 62
     5
 63
     7
 74
     2
 91
        2
 64
     7
 65
     7
 75
     1
175
     1
 42
40.0
 92
       11
 66
     7
 43
1.0
 76
     1
 77
     6
 78
     2
 67
     7
 79
     6
170
     0
171
     0
290
     0
174
     0
 93
        1
 44
0.0
173
     0
291
     0
 45
0.0
1001
ACAD
1000
AcDbSavedByObjectVersion
1070
     0
  0
VISUALSTYLE
  5
3FB
102
{ACAD_XDICTIONARY
360
482
102
}
102
{ACAD_REACTORS
330
3EE
102
}
330
3EE
100
AcDbVisualStyle
  2
Thicken
 70
    13
 71
     2
 72
     2
 73
     0
 90
        0
 40
-0.6
 41
-30.0
 62
     5
 63
     7
 74
     1
 91
        4
 64
     7
 65
   257
 75
     1
175
     1
 42
1.0
 92
       12
 66
     7
 43
1.0
 76
     1
 77
     6
 78
     2
 67
     7
 79
     5
170
     0
171
     0
290
     0
174
     0
 93
        1
 44
0.0
173
     0
291
     1
 45
0.0
1001
ACAD
1000
AcDbSavedByObjectVersion
1070
     0
  0
VISUALSTYLE
  5
3F5
102
{ACAD_XDICTIONARY
360
476
102
}
102
{ACAD_REACTORS
330
3EE
102
}
330
3EE
100
AcDbVisualStyle
  2
Wireframe
 70
     5
 71
     0
 72
     2
 73
     0
 90
        0
 40
-0.6
 41
-30.0
 62
     5
 63
     7
 74
     1
 91
        4
 64
     7
 65
   257
 75
     1
175
     1
 42
1.0
 92
        0
 66
   257
 43
1.0
 76
     1
 77
     6
 78
     2
 67
     7
 79
     3
170
     0
171
     0
290
     0
174
     0
 93
        1
 44
0.0
173
     0
291
     0
 45
0.0
1001
ACAD
1000
AcDbSavedByObjectVersion
1070
     0
  0
VISUALSTYLE
  5
401
102
{ACAD_XDICTIONARY
360
48E
102
}
102
{ACAD_REACTORS
330
3EE
102
}
330
3EE
100
AcDbVisualStyle
  2
X-Ray
 70
    25
 71
     2
 72
     2
 73
     1
 90
        1
 40
0.5
 41
-30.0
 62
     5
 63
     7
 74
     1
 91
        0
 64
     7
 65
   257
 75
     1
175
     1
 42
1.0
 92
        8
 66
     7
 43
1.0
 76
     1
 77
     6
 78
     2
 67
     7
 79
     3
170
     0
171
     0
290
     0
174
     0
 93
       13
 44
0.0
173
     0
291
     0
 45
0.0
1001
ACAD
1000
AcDbSavedByObjectVersion
1070
     0
  0
DICTIONARYVAR
  5
45D
102
{ACAD_REACTORS
330
458
102
}
330
458
100
DictionaryVariables
280
     0
  1
1:1
  0
DICTIONARYVAR
  5
45A
102
{ACAD_REACTORS
330
458
102
}
330
458
100
DictionaryVariables
280
     0
  1
STANDARD
  0
DICTIONARYVAR
  5
459
102
{ACAD_REACTORS
330
458
102
}
330
458
100
DictionaryVariables
280
     0
  1
STANDARD
  0
DICTIONARYVAR
  5
45B
102
{ACAD_REACTORS
330
458
102
}
330
458
100
DictionaryVariables
280
     0
  1
Imperial24
  0
DICTIONARYVAR
  5
45C
102
{ACAD_REACTORS
330
458
102
}
330
458
100
DictionaryVariables
280
     0
  1
Imperial24
  0
DICTIONARYVAR
  5
460
102
{ACAD_REACTORS
330
458
102
}
330
458
100
DictionaryVariables
280
     0
  1
1
  0
DICTIONARYVAR
  5
45F
102
{ACAD_REACTORS
330
458
102
}
330
458
100
DictionaryVariables
280
     0
  1
0
  0
DICTIONARYVAR
  5
45E
102
{ACAD_REACTORS
330
458
102
}
330
458
100
DictionaryVariables
280
     0
  1
127
  0
DICTIONARYVAR
  5
461
102
{ACAD_REACTORS
330
458
102
}
330
458
100
DictionaryVariables
280
     0
  1
2
  0
DICTIONARY
  5
49E
330
42F
100
AcDbDictionary
280
     1
281
     1
  3
ACAD_XREC_ROUNDTRIP
360
49F
  0
DICTIONARY
  5
4A2
330
437
100
AcDbDictionary
280
     1
281
     1
  3
ACAD_XREC_ROUNDTRIP
360
4A3
  0
DICTIONARY
  5
4A0
330
433
100
AcDbDictionary
280
     1
281
     1
  3
ACAD_XREC_ROUNDTRIP
360
4A1
  0
DICTIONARY
  5
3DF
330
3DE
100
AcDbDictionary
280
     1
281
     1
  3
ACAD_XREC_ROUNDTRIP
360
468
  3
BUMPTILE
360
3E1
  3
DIFFUSETILE
360
3E0
  3
OPACITYTILE
360
3E4
  3
REFLECTIONTILE
360
3E3
  3
REFRACTIONTILE
360
3E5
  3
SPECULARTILE
360
3E2
  0
DICTIONARY
  5
3D7
330
3D6
100
AcDbDictionary
280
     1
281
     1
  3
ACAD_XREC_ROUNDTRIP
360
467
  3
BUMPTILE
360
3D9
  3
DIFFUSETILE
360
3D8
  3
OPACITYTILE
360
3DC
  3
REFLECTIONTILE
360
3DB
  3
REFRACTIONTILE
360
3DD
  3
SPECULARTILE
360
3DA
  0
DICTIONARY
  5
3E7
330
3E6
100
AcDbDictionary
280
     1
281
     1
  3
ACAD_XREC_ROUNDTRIP
360
469
  3
BUMPTILE
360
3E9
  3
DIFFUSETILE
360
3E8
  3
OPACITYTILE
360
3EC
  3
REFLECTIONTILE
360
3EB
  3
REFRACTIONTILE
360
3ED
  3
SPECULARTILE
360
3EA
  0
DICTIONARY
  5
49C
330
42D
100
AcDbDictionary
280
     1
281
     1
  3
ACAD_XREC_ROUNDTRIP
360
49D
  0
DICTIONARY
  5
463
330
429
100
AcDbDictionary
280
     1
281
     1
  3
ACAD_ROUNDTRIP_2008_TABLESTYLE_CELLSTYLEMAP
360
464
  3
ACAD_XREC_ROUNDTRIP
360
49A
  0
DICTIONARY
  5
474
330
3F4
100
AcDbDictionary
280
     1
281
     1
  3
ACAD_XREC_ROUNDTRIP
360
475
  0
DICTIONARY
  5
472
330
3F3
100
AcDbDictionary
280
     1
281
     1
  3
ACAD_XREC_ROUNDTRIP
360
473
  0
DICTIONARY
  5
480
330
3FA
100
AcDbDictionary
280
     1
281
     1
  3
ACAD_XREC_ROUNDTRIP
360
481
  0
DICTIONARY
  5
488
330
3FE
100
AcDbDictionary
280
     1
281
     1
  3
ACAD_XREC_ROUNDTRIP
360
489
  0
DICTIONARY
  5
47A
330
3F7
100
AcDbDictionary
280
     1
281
     1
  3
ACAD_XREC_ROUNDTRIP
360
47B
  0
DICTIONARY
  5
47E
330
3F9
100
AcDbDictionary
280
     1
281
     1
  3
ACAD_XREC_ROUNDTRIP
360
47F
  0
DICTIONARY
  5
498
330
406
100
AcDbDictionary
280
     1
281
     1
  3
ACAD_XREC_ROUNDTRIP
360
499
  0
DICTIONARY
  5
486
330
3FD
100
AcDbDictionary
280
     1
281
     1
  3
ACAD_XREC_ROUNDTRIP
360
487
  0
DICTIONARY
  5
46A
330
3EF
100
AcDbDictionary
280
     1
281
     1
  3
ACAD_XREC_ROUNDTRIP
360
46B
  0
DICTIONARY
  5
46C
330
3F0
100
AcDbDictionary
280
     1
281
     1
  3
ACAD_XREC_ROUNDTRIP
360
46D
  0
DICTIONARY
  5
46E
330
3F1
100
AcDbDictionary
280
     1
281
     1
  3
ACAD_XREC_ROUNDTRIP
360
46F
  0
DICTIONARY
  5
470
330
3F2
100
AcDbDictionary
280
     1
281
     1
  3
ACAD_XREC_ROUNDTRIP
360
471
  0
DICTIONARY
  5
478
330
3F6
100
AcDbDictionary
280
     1
281
     1
  3
ACAD_XREC_ROUNDTRIP
360
479
  0
DICTIONARY
  5
494
330
404
100
AcDbDictionary
280
     1
281
     1
  3
ACAD_XREC_ROUNDTRIP
360
495
  0
DICTIONARY
  5
484
330
3FC
100
AcDbDictionary
280
     1
281
     1
  3
ACAD_XREC_ROUNDTRIP
360
485
  0
DICTIONARY
  5
496
330
405
100
AcDbDictionary
280
     1
281
     1
  3
ACAD_XREC_ROUNDTRIP
360
497
  0
DICTIONARY
  5
47C
330
3F8
100
AcDbDictionary
280
     1
281
     1
  3
ACAD_XREC_ROUNDTRIP
360
47D
  0
DICTIONARY
  5
492
330
403
100
AcDbDictionary
280
     1
281
     1
  3
ACAD_XREC_ROUNDTRIP
360
493
  0
DICTIONARY
  5
490
330
402
100
AcDbDictionary
280
     1
281
     1
  3
ACAD_XREC_ROUNDTRIP
360
491
  0
DICTIONARY
  5
48A
330
3FF
100
AcDbDictionary
280
     1
281
     1
  3
ACAD_XREC_ROUNDTRIP
360
48B
  0
DICTIONARY
  5
48C
330
400
100
AcDbDictionary
280
     1
281
     1
  3
ACAD_XREC_ROUNDTRIP
360
48D
  0
DICTIONARY
  5
482
330
3FB
100
AcDbDictionary
280
     1
281
     1
  3
ACAD_XREC_ROUNDTRIP
360
483
  0
DICTIONARY
  5
476
330
3F5
100
AcDbDictionary
280
     1
281
     1
  3
ACAD_XREC_ROUNDTRIP
360
477
  0
DICTIONARY
  5
48E
330
401
100
AcDbDictionary
280
     1
281
     1
  3
ACAD_XREC_ROUNDTRIP
360
48F
  0
XRECORD
  5
49F
102
{ACAD_REACTORS
330
49E
102
}
330
49E
100
AcDbXrecord
280
     1
102
DISPLAYNAME
  1
Imperial24
102
FLAGS
 90
        0
  0
XRECORD
  5
4A3
102
{ACAD_REACTORS
330
4A2
102
}
330
4A2
100
AcDbXrecord
280
     1
102
SHADEPLOT
 70
     0
102
SHADEPLOTRESLEVEL
 70
     2
102
SHADEPLOTCUSTOMDPI
 70
   300
  0
XRECORD
  5
4A1
102
{ACAD_REACTORS
330
4A0
102
}
330
4A0
100
AcDbXrecord
280
     1
102
SHADEPLOT
 70
     0
102
SHADEPLOTRESLEVEL
 70
     2
102
SHADEPLOTCUSTOMDPI
 70
   300
  0
XRECORD
  5
468
102
{ACAD_REACTORS
330
3DF
102
}
330
3DF
100
AcDbXrecord
280
     1
102
MATERIAL
148
0.0
149
0.0
149
0.0
 93
        0
 94
      127
282
     0
 72
     0
 77
     0
171
     0
175
     0
179
     0
273
     0
  0
XRECORD
  5
3E1
102
{ACAD_REACTORS
330
3DF
102
}
330
3DF
100
AcDbXrecord
280
     1
270
     1
271
     1
  0
XRECORD
  5
3E0
102
{ACAD_REACTORS
330
3DF
102
}
330
3DF
100
AcDbXrecord
280
     1
270
     1
271
     1
  0
XRECORD
  5
3E4
102
{ACAD_REACTORS
330
3DF
102
}
330
3DF
100
AcDbXrecord
280
     1
270
     1
271
     1
  0
XRECORD
  5
3E3
102
{ACAD_REACTORS
330
3DF
102
}
330
3DF
100
AcDbXrecord
280
     1
270
     1
271
     1
  0
XRECORD
  5
3E5
102
{ACAD_REACTORS
330
3DF
102
}
330
3DF
100
AcDbXrecord
280
     1
270
     1
271
     1
  0
XRECORD
  5
3E2
102
{ACAD_REACTORS
330
3DF
102
}
330
3DF
100
AcDbXrecord
280
     1
270
     1
271
     1
  0
XRECORD
  5
467
102
{ACAD_REACTORS
330
3D7
102
}
330
3D7
100
AcDbXrecord
280
     1
102
MATERIAL
148
0.0
149
0.0
149
0.0
 93
        0
 94
      127
282
     0
 72
     0
 77
     0
171
     0
175
     0
179
     0
273
     0
  0
XRECORD
  5
3D9
102
{ACAD_REACTORS
330
3D7
102
}
330
3D7
100
AcDbXrecord
280
     1
270
     1
271
     1
  0
XRECORD
  5
3D8
102
{ACAD_REACTORS
330
3D7
102
}
330
3D7
100
AcDbXrecord
280
     1
270
     1
271
     1
  0
XRECORD
  5
3DC
102
{ACAD_REACTORS
330
3D7
102
}
330
3D7
100
AcDbXrecord
280
     1
270
     1
271
     1
  0
XRECORD
  5
3DB
102
{ACAD_REACTORS
330
3D7
102
}
330
3D7
100
AcDbXrecord
280
     1
270
     1
271
     1
  0
XRECORD
  5
3DD
102
{ACAD_REACTORS
330
3D7
102
}
330
3D7
100
AcDbXrecord
280
     1
270
     1
271
     1
  0
XRECORD
  5
3DA
102
{ACAD_REACTORS
330
3D7
102
}
330
3D7
100
AcDbXrecord
280
     1
270
     1
271
     1
  0
XRECORD
  5
469
102
{ACAD_REACTORS
330
3E7
102
}
330
3E7
100
AcDbXrecord
280
     1
102
MATERIAL
148
0.0
149
0.0
149
0.0
 93
        0
 94
      127
282
     0
 72
     0
 77
     0
171
     0
175
     0
179
     0
273
     0
  0
XRECORD
  5
3E9
102
{ACAD_REACTORS
330
3E7
102
}
330
3E7
100
AcDbXrecord
280
     1
270
     1
271
     1
  0
XRECORD
  5
3E8
102
{ACAD_REACTORS
330
3E7
102
}
330
3E7
100
AcDbXrecord
280
     1
270
     1
271
     1
  0
XRECORD
  5
3EC
102
{ACAD_REACTORS
330
3E7
102
}
330
3E7
100
AcDbXrecord
280
     1
270
     1
271
     1
  0
XRECORD
  5
3EB
102
{ACAD_REACTORS
330
3E7
102
}
330
3E7
100
AcDbXrecord
280
     1
270
     1
271
     1
  0
XRECORD
  5
3ED
102
{ACAD_REACTORS
330
3E7
102
}
330
3E7
100
AcDbXrecord
280
     1
270
     1
271
     1
  0
XRECORD
  5
3EA
102
{ACAD_REACTORS
330
3E7
102
}
330
3E7
100
AcDbXrecord
280
     1
270
     1
271
     1
  0
XRECORD
  5
49D
102
{ACAD_REACTORS
330
49C
102
}
330
49C
100
AcDbXrecord
280
     1
102
DISPLAYNAME
  1
Imperial24
102
FLAGS
 90
        0
  0
CELLSTYLEMAP
  5
464
102
{ACAD_REACTORS
330
463
102
}
330
463
100
AcDbCellStyleMap
 90
        3
300
CELLSTYLE
  1
TABLEFORMAT_BEGIN
 90
        5
170
     1
 91
        0
 92
    32768
 62
   257
 93
        1
300
CONTENTFORMAT
  1
CONTENTFORMAT_BEGIN
 90
        0
 91
        0
 92
      512
 93
        0
300

 40
0.0
140
1.0
 94
        5
 62
     0
340
41A
144
0.25
309
CONTENTFORMAT_END
171
     0
 94
        0
309
TABLEFORMAT_END
  1
CELLSTYLE_BEGIN
 90
        1
 91
        1
300
_TITLE
309
CELLSTYLE_END
300
CELLSTYLE
  1
TABLEFORMAT_BEGIN
 90
        5
170
     1
 91
        0
 92
        0
 62
   257
 93
        1
300
CONTENTFORMAT
  1
CONTENTFORMAT_BEGIN
 90
        0
 91
        0
 92
      512
 93
        0
300

 40
0.0
140
1.0
 94
        5
 62
     0
340
41A
144
0.18
309
CONTENTFORMAT_END
171
     0
 94
        0
309
TABLEFORMAT_END
  1
CELLSTYLE_BEGIN
 90
        2
 91
        1
300
_HEADER
309
CELLSTYLE_END
300
CELLSTYLE
  1
TABLEFORMAT_BEGIN
 90
        5
170
     1
 91
        0
 92
        0
 62
   257
 93
        1
300
CONTENTFORMAT
  1
CONTENTFORMAT_BEGIN
 90
        0
 91
        0
 92
      512
 93
        0
300

 40
0.0
140
1.0
 94
        2
 62
     0
340
41A
144
0.18
309
CONTENTFORMAT_END
171
     0
 94
        0
309
TABLEFORMAT_END
  1
CELLSTYLE_BEGIN
 90
        3
 91
        2
300
_DATA
309
CELLSTYLE_END
  0
XRECORD
  5
49A
102
{ACAD_REACTORS
330
463
102
}
330
463
100
AcDbXrecord
280
     1
102
ACAD_ROUNDTRIP_PRE2007_TABLESTYLE
 90
      512
 91
        0
  1

 92
      512
 93
        0
  2

 94
      512
 95
        0
  3

  0
XRECORD
  5
475
102
{ACAD_REACTORS
330
474
102
}
330
474
100
AcDbXrecord
280
     1
102
RTVSPost2010Prop28
280
     1
102
RTVSPost2010PropOp28
 70
     1
102
RTVSPost2010Prop29
280
     1
102
RTVSPost2010PropOp29
 70
     1
102
RTVSPost2010Prop30
280
     0
102
RTVSPost2010PropOp30
 70
     1
102
RTVSPost2010Prop31
280
     0
102
RTVSPost2010PropOp31
 70
     1
102
RTVSPost2010Prop32
280
     0
102
RTVSPost2010PropOp32
 70
     1
102
RTVSPost2010Prop33
280
     0
102
RTVSPost2010PropOp33
 70
     1
102
RTVSPost2010Prop34
280
     0
102
RTVSPost2010PropOp34
 70
     1
102
RTVSPost2010Prop35
280
     0
102
RTVSPost2010PropOp35
 70
     1
102
RTVSPost2010Prop36
280
     0
102
RTVSPost2010PropOp36
 70
     1
102
RTVSPost2010Prop37
 90
       50
102
RTVSPost2010PropOp37
 70
     1
102
RTVSPost2010Prop38
140
0.0
102
RTVSPost2010PropOp38
 70
     1
102
RTVSPost2010Prop39
140
1.0
102
RTVSPost2010PropOp39
 70
     1
102
RTVSPost2010Prop40
 90
        0
102
RTVSPost2010PropOp40
 70
     1
102
RTVSPost2010Prop41ColorIndex
 90
       18
102
RTVSPost2010Prop41ColorRGB
 90
        0
102
RTVSPost2010PropOp41
 70
     1
102
RTVSPost2010Prop42
 90
       50
102
RTVSPost2010PropOp42
 70
     1
102
RTVSPost2010Prop43
 90
        3
102
RTVSPost2010PropOp43
 70
     1
102
RTVSPost2010Prop44ColorIndex
 90
        5
102
RTVSPost2010Prop44ColorRGB
 90
      255
102
RTVSPost2010PropOp44
 70
     1
102
RTVSPost2010Prop45
280
     0
102
RTVSPost2010PropOp45
 70
     1
102
RTVSPost2010Prop46
 90
       50
102
RTVSPost2010PropOp46
 70
     1
102
RTVSPost2010Prop47
 90
       50
102
RTVSPost2010PropOp47
 70
     1
102
RTVSPost2010Prop48
 90
       50
102
RTVSPost2010PropOp48
 70
     1
102
RTVSPost2010Prop49
280
     0
102
RTVSPost2010PropOp49
 70
     1
102
RTVSPost2010Prop50
 90
       50
102
RTVSPost2010PropOp50
 70
     1
102
RTVSPost2010Prop51ColorIndex
 90
      256
102
RTVSPost2010Prop51ColorRGB
 90
-16777216
102
RTVSPost2010PropOp51
 70
     0
102
RTVSPost2010Prop52
140
1.0
102
RTVSPost2010PropOp52
 70
     0
102
RTVSPost2010Prop53
 90
        2
102
RTVSPost2010PropOp53
 70
     1
102
RTVSPost2010Prop54
  1
strokes_ogs.tif
102
RTVSPost2010PropOp54
 70
     1
102
RTVSPost2010Prop55
280
     0
102
RTVSPost2010PropOp55
 70
     1
102
RTVSPost2010Prop56
140
1.0
102
RTVSPost2010PropOp56
 70
     1
102
RTVSPost2010Prop57
140
1.0
102
RTVSPost2010PropOp57
 70
     1
102
RTVSPropertyOp0
 70
     1
102
RTVSPropertyOp1
 70
     1
102
RTVSPropertyOp2
 70
     1
102
RTVSPropertyOp3
 70
     1
102
RTVSPropertyOp4
 70
     1
102
RTVSPropertyOp5
 70
     1
102
RTVSPropertyOp6
 70
     1
102
RTVSPropertyOp7
 70
     1
102
RTVSPropertyOp8
 70
     1
102
RTVSPropertyOp9
 70
     1
102
RTVSPropertyOp10
 70
     1
102
RTVSPropertyOp11
 70
     1
102
RTVSPropertyOp12
 70
     1
102
RTVSPropertyOp13
 70
     1
102
RTVSPropertyOp14
 70
     1
102
RTVSPropertyOp15
 70
     1
102
RTVSPropertyOp16
 70
     1
102
RTVSPropertyOp17
 70
     1
102
RTVSPropertyOp18
 70
     1
102
RTVSPropertyOp19
 70
     1
102
RTVSPropertyOp20
 70
     1
102
RTVSPropertyOp21
 70
     1
102
RTVSPropertyOp22
 70
     1
102
RTVSPropertyOp23
 70
     1
102
RTVSPropertyOp24
 70
     1
102
RTVSPropertyOp25
 70
     1
102
RTVSPropertyOp26
 70
     1
102
RTVSPropertyOp27
 70
     1
102
RTVSPropertyOp28
 70
     1
102
RTVSPropertyOp29
 70
     1
102
RTVSPropertyOp30
 70
     1
102
RTVSPropertyOp31
 70
     1
102
RTVSPropertyOp32
 70
     1
102
RTVSPropertyOp33
 70
     1
102
RTVSPropertyOp34
 70
     1
102
RTVSPropertyOp35
 70
     1
102
RTVSPropertyOp36
 70
     1
102
RTVSPropertyOp37
 70
     1
102
RTVSPropertyOp38
 70
     1
102
RTVSPropertyOp39
 70
     1
102
RTVSPropertyOp40
 70
     1
102
RTVSPropertyOp41
 70
     1
102
RTVSPropertyOp42
 70
     1
102
RTVSPropertyOp43
 70
     1
102
RTVSPropertyOp44
 70
     1
102
RTVSPropertyOp45
 70
     1
102
RTVSPropertyOp46
 70
     1
102
RTVSPropertyOp47
 70
     1
102
RTVSPropertyOp48
 70
     1
102
RTVSPropertyOp49
 70
     1
102
RTVSPropertyOp50
 70
     1
102
RTVSPropertyOp51
 70
     0
102
RTVSPropertyOp52
 70
     0
102
RTVSPropertyOp53
 70
     1
102
RTVSPropertyOp54
 70
     1
102
RTVSPropertyOp55
 70
     1
102
RTVSPropertyOp56
 70
     1
102
RTVSPropertyOp57
 70
     1
102
RTVSPropertyOp58
 70
     1
102
RTVSPropertyOp59
 70
     1
102
RTVSPropertyOp60
 70
     1
102
RTVSPropertyOp61
 70
     1
102
RTVSPropertyOp62
 70
     1
  0
XRECORD
  5
473
102
{ACAD_REACTORS
330
472
102
}
330
472
100
AcDbXrecord
280
     1
102
RTVSPost2010Prop28
280
     0
102
RTVSPost2010PropOp28
 70
     1
102
RTVSPost2010Prop29
280
     1
102
RTVSPost2010PropOp29
 70
     1
102
RTVSPost2010Prop30
280
     1
102
RTVSPost2010PropOp30
 70
     1
102
RTVSPost2010Prop31
280
     0
102
RTVSPost2010PropOp31
 70
     1
102
RTVSPost2010Prop32
280
     0
102
RTVSPost2010PropOp32
 70
     1
102
RTVSPost2010Prop33
280
     0
102
RTVSPost2010PropOp33
 70
     1
102
RTVSPost2010Prop34
280
     0
102
RTVSPost2010PropOp34
 70
     1
102
RTVSPost2010Prop35
280
     0
102
RTVSPost2010PropOp35
 70
     1
102
RTVSPost2010Prop36
280
     0
102
RTVSPost2010PropOp36
 70
     1
102
RTVSPost2010Prop37
 90
       50
102
RTVSPost2010PropOp37
 70
     1
102
RTVSPost2010Prop38
140
0.0
102
RTVSPost2010PropOp38
 70
     1
102
RTVSPost2010Prop39
140
1.0
102
RTVSPost2010PropOp39
 70
     1
102
RTVSPost2010Prop40
 90
        0
102
RTVSPost2010PropOp40
 70
     1
102
RTVSPost2010Prop41ColorIndex
 90
       18
102
RTVSPost2010Prop41ColorRGB
 90
        0
102
RTVSPost2010PropOp41
 70
     1
102
RTVSPost2010Prop42
 90
       50
102
RTVSPost2010PropOp42
 70
     1
102
RTVSPost2010Prop43
 90
        3
102
RTVSPost2010PropOp43
 70
     1
102
RTVSPost2010Prop44ColorIndex
 90
        5
102
RTVSPost2010Prop44ColorRGB
 90
      255
102
RTVSPost2010PropOp44
 70
     1
102
RTVSPost2010Prop45
280
     0
102
RTVSPost2010PropOp45
 70
     1
102
RTVSPost2010Prop46
 90
       50
102
RTVSPost2010PropOp46
 70
     1
102
RTVSPost2010Prop47
 90
       50
102
RTVSPost2010PropOp47
 70
     1
102
RTVSPost2010Prop48
 90
       50
102
RTVSPost2010PropOp48
 70
     1
102
RTVSPost2010Prop49
280
     0
102
RTVSPost2010PropOp49
 70
     1
102
RTVSPost2010Prop50
 90
       50
102
RTVSPost2010PropOp50
 70
     1
102
RTVSPost2010Prop51ColorIndex
 90
      256
102
RTVSPost2010Prop51ColorRGB
 90
-16777216
102
RTVSPost2010PropOp51
 70
     0
102
RTVSPost2010Prop52
140
1.0
102
RTVSPost2010PropOp52
 70
     0
102
RTVSPost2010Prop53
 90
        2
102
RTVSPost2010PropOp53
 70
     1
102
RTVSPost2010Prop54
  1
strokes_ogs.tif
102
RTVSPost2010PropOp54
 70
     1
102
RTVSPost2010Prop55
280
     0
102
RTVSPost2010PropOp55
 70
     1
102
RTVSPost2010Prop56
140
1.0
102
RTVSPost2010PropOp56
 70
     1
102
RTVSPost2010Prop57
140
1.0
102
RTVSPost2010PropOp57
 70
     1
102
RTVSPropertyOp0
 70
     1
102
RTVSPropertyOp1
 70
     1
102
RTVSPropertyOp2
 70
     1
102
RTVSPropertyOp3
 70
     1
102
RTVSPropertyOp4
 70
     1
102
RTVSPropertyOp5
 70
     1
102
RTVSPropertyOp6
 70
     1
102
RTVSPropertyOp7
 70
     1
102
RTVSPropertyOp8
 70
     1
102
RTVSPropertyOp9
 70
     1
102
RTVSPropertyOp10
 70
     1
102
RTVSPropertyOp11
 70
     1
102
RTVSPropertyOp12
 70
     1
102
RTVSPropertyOp13
 70
     1
102
RTVSPropertyOp14
 70
     1
102
RTVSPropertyOp15
 70
     1
102
RTVSPropertyOp16
 70
     1
102
RTVSPropertyOp17
 70
     1
102
RTVSPropertyOp18
 70
     1
102
RTVSPropertyOp19
 70
     1
102
RTVSPropertyOp20
 70
     1
102
RTVSPropertyOp21
 70
     1
102
RTVSPropertyOp22
 70
     1
102
RTVSPropertyOp23
 70
     1
102
RTVSPropertyOp24
 70
     1
102
RTVSPropertyOp25
 70
     1
102
RTVSPropertyOp26
 70
     1
102
RTVSPropertyOp27
 70
     1
102
RTVSPropertyOp28
 70
     1
102
RTVSPropertyOp29
 70
     1
102
RTVSPropertyOp30
 70
     1
102
RTVSPropertyOp31
 70
     1
102
RTVSPropertyOp32
 70
     1
102
RTVSPropertyOp33
 70
     1
102
RTVSPropertyOp34
 70
     1
102
RTVSPropertyOp35
 70
     1
102
RTVSPropertyOp36
 70
     1
102
RTVSPropertyOp37
 70
     1
102
RTVSPropertyOp38
 70
     1
102
RTVSPropertyOp39
 70
     1
102
RTVSPropertyOp40
 70
     1
102
RTVSPropertyOp41
 70
     1
102
RTVSPropertyOp42
 70
     1
102
RTVSPropertyOp43
 70
     1
102
RTVSPropertyOp44
 70
     1
102
RTVSPropertyOp45
 70
     1
102
RTVSPropertyOp46
 70
     1
102
RTVSPropertyOp47
 70
     1
102
RTVSPropertyOp48
 70
     1
102
RTVSPropertyOp49
 70
     1
102
RTVSPropertyOp50
 70
     1
102
RTVSPropertyOp51
 70
     0
102
RTVSPropertyOp52
 70
     0
102
RTVSPropertyOp53
 70
     1
102
RTVSPropertyOp54
 70
     1
102
RTVSPropertyOp55
 70
     1
102
RTVSPropertyOp56
 70
     1
102
RTVSPropertyOp57
 70
     1
102
RTVSPropertyOp58
 70
     1
102
RTVSPropertyOp59
 70
     1
102
RTVSPropertyOp60
 70
     1
102
RTVSPropertyOp61
 70
     1
102
RTVSPropertyOp62
 70
     1
  0
XRECORD
  5
481
102
{ACAD_REACTORS
330
480
102
}
330
480
100
AcDbXrecord
280
     1
102
RTVSPost2010Prop28
280
     0
102
RTVSPost2010PropOp28
 70
     1
102
RTVSPost2010Prop29
280
     1
102
RTVSPost2010PropOp29
 70
     1
102
RTVSPost2010Prop30
280
     1
102
RTVSPost2010PropOp30
 70
     1
102
RTVSPost2010Prop31
280
     0
102
RTVSPost2010PropOp31
 70
     1
102
RTVSPost2010Prop32
280
     0
102
RTVSPost2010PropOp32
 70
     1
102
RTVSPost2010Prop33
280
     0
102
RTVSPost2010PropOp33
 70
     1
102
RTVSPost2010Prop34
280
     0
102
RTVSPost2010PropOp34
 70
     1
102
RTVSPost2010Prop35
280
     0
102
RTVSPost2010PropOp35
 70
     1
102
RTVSPost2010Prop36
280
     0
102
RTVSPost2010PropOp36
 70
     1
102
RTVSPost2010Prop37
 90
       50
102
RTVSPost2010PropOp37
 70
     1
102
RTVSPost2010Prop38
140
0.0
102
RTVSPost2010PropOp38
 70
     1
102
RTVSPost2010Prop39
140
1.0
102
RTVSPost2010PropOp39
 70
     1
102
RTVSPost2010Prop40
 90
        0
102
RTVSPost2010PropOp40
 70
     1
102
RTVSPost2010Prop41ColorIndex
 90
       18
102
RTVSPost2010Prop41ColorRGB
 90
        0
102
RTVSPost2010PropOp41
 70
     1
102
RTVSPost2010Prop42
 90
       50
102
RTVSPost2010PropOp42
 70
     1
102
RTVSPost2010Prop43
 90
        3
102
RTVSPost2010PropOp43
 70
     1
102
RTVSPost2010Prop44ColorIndex
 90
        5
102
RTVSPost2010Prop44ColorRGB
 90
      255
102
RTVSPost2010PropOp44
 70
     1
102
RTVSPost2010Prop45
280
     0
102
RTVSPost2010PropOp45
 70
     1
102
RTVSPost2010Prop46
 90
       50
102
RTVSPost2010PropOp46
 70
     1
102
RTVSPost2010Prop47
 90
       50
102
RTVSPost2010PropOp47
 70
     1
102
RTVSPost2010Prop48
 90
       50
102
RTVSPost2010PropOp48
 70
     1
102
RTVSPost2010Prop49
280
     0
102
RTVSPost2010PropOp49
 70
     1
102
RTVSPost2010Prop50
 90
       50
102
RTVSPost2010PropOp50
 70
     1
102
RTVSPost2010Prop51ColorIndex
 90
      256
102
RTVSPost2010Prop51ColorRGB
 90
-16777216
102
RTVSPost2010PropOp51
 70
     0
102
RTVSPost2010Prop52
140
1.0
102
RTVSPost2010PropOp52
 70
     0
102
RTVSPost2010Prop53
 90
        2
102
RTVSPost2010PropOp53
 70
     1
102
RTVSPost2010Prop54
  1
strokes_ogs.tif
102
RTVSPost2010PropOp54
 70
     1
102
RTVSPost2010Prop55
280
     0
102
RTVSPost2010PropOp55
 70
     1
102
RTVSPost2010Prop56
140
1.0
102
RTVSPost2010PropOp56
 70
     1
102
RTVSPost2010Prop57
140
1.0
102
RTVSPost2010PropOp57
 70
     1
102
RTVSPropertyOp0
 70
     1
102
RTVSPropertyOp1
 70
     1
102
RTVSPropertyOp2
 70
     1
102
RTVSPropertyOp3
 70
     1
102
RTVSPropertyOp4
 70
     1
102
RTVSPropertyOp5
 70
     1
102
RTVSPropertyOp6
 70
     1
102
RTVSPropertyOp7
 70
     1
102
RTVSPropertyOp8
 70
     1
102
RTVSPropertyOp9
 70
     1
102
RTVSPropertyOp10
 70
     1
102
RTVSPropertyOp11
 70
     1
102
RTVSPropertyOp12
 70
     1
102
RTVSPropertyOp13
 70
     1
102
RTVSPropertyOp14
 70
     1
102
RTVSPropertyOp15
 70
     1
102
RTVSPropertyOp16
 70
     1
102
RTVSPropertyOp17
 70
     1
102
RTVSPropertyOp18
 70
     1
102
RTVSPropertyOp19
 70
     1
102
RTVSPropertyOp20
 70
     1
102
RTVSPropertyOp21
 70
     1
102
RTVSPropertyOp22
 70
     1
102
RTVSPropertyOp23
 70
     1
102
RTVSPropertyOp24
 70
     1
102
RTVSPropertyOp25
 70
     1
102
RTVSPropertyOp26
 70
     1
102
RTVSPropertyOp27
 70
     1
102
RTVSPropertyOp28
 70
     1
102
RTVSPropertyOp29
 70
     1
102
RTVSPropertyOp30
 70
     1
102
RTVSPropertyOp31
 70
     1
102
RTVSPropertyOp32
 70
     1
102
RTVSPropertyOp33
 70
     1
102
RTVSPropertyOp34
 70
     1
102
RTVSPropertyOp35
 70
     1
102
RTVSPropertyOp36
 70
     1
102
RTVSPropertyOp37
 70
     1
102
RTVSPropertyOp38
 70
     1
102
RTVSPropertyOp39
 70
     1
102
RTVSPropertyOp40
 70
     1
102
RTVSPropertyOp41
 70
     1
102
RTVSPropertyOp42
 70
     1
102
RTVSPropertyOp43
 70
     1
102
RTVSPropertyOp44
 70
     1
102
RTVSPropertyOp45
 70
     1
102
RTVSPropertyOp46
 70
     1
102
RTVSPropertyOp47
 70
     1
102
RTVSPropertyOp48
 70
     1
102
RTVSPropertyOp49
 70
     1
102
RTVSPropertyOp50
 70
     1
102
RTVSPropertyOp51
 70
     0
102
RTVSPropertyOp52
 70
     0
102
RTVSPropertyOp53
 70
     1
102
RTVSPropertyOp54
 70
     1
102
RTVSPropertyOp55
 70
     1
102
RTVSPropertyOp56
 70
     1
102
RTVSPropertyOp57
 70
     1
102
RTVSPropertyOp58
 70
     1
102
RTVSPropertyOp59
 70
     1
102
RTVSPropertyOp60
 70
     1
102
RTVSPropertyOp61
 70
     1
102
RTVSPropertyOp62
 70
     1
  0
XRECORD
  5
489
102
{ACAD_REACTORS
330
488
102
}
330
488
100
AcDbXrecord
280
     1
102
RTVSPost2010Prop28
280
     0
102
RTVSPost2010PropOp28
 70
     1
102
RTVSPost2010Prop29
280
     1
102
RTVSPost2010PropOp29
 70
     1
102
RTVSPost2010Prop30
280
     1
102
RTVSPost2010PropOp30
 70
     1
102
RTVSPost2010Prop31
280
     0
102
RTVSPost2010PropOp31
 70
     1
102
RTVSPost2010Prop32
280
     0
102
RTVSPost2010PropOp32
 70
     1
102
RTVSPost2010Prop33
280
     0
102
RTVSPost2010PropOp33
 70
     1
102
RTVSPost2010Prop34
280
     0
102
RTVSPost2010PropOp34
 70
     1
102
RTVSPost2010Prop35
280
     0
102
RTVSPost2010PropOp35
 70
     1
102
RTVSPost2010Prop36
280
     0
102
RTVSPost2010PropOp36
 70
     1
102
RTVSPost2010Prop37
 90
       50
102
RTVSPost2010PropOp37
 70
     1
102
RTVSPost2010Prop38
140
0.0
102
RTVSPost2010PropOp38
 70
     1
102
RTVSPost2010Prop39
140
1.0
102
RTVSPost2010PropOp39
 70
     1
102
RTVSPost2010Prop40
 90
        0
102
RTVSPost2010PropOp40
 70
     1
102
RTVSPost2010Prop41ColorIndex
 90
       18
102
RTVSPost2010Prop41ColorRGB
 90
        0
102
RTVSPost2010PropOp41
 70
     1
102
RTVSPost2010Prop42
 90
       50
102
RTVSPost2010PropOp42
 70
     1
102
RTVSPost2010Prop43
 90
        3
102
RTVSPost2010PropOp43
 70
     1
102
RTVSPost2010Prop44ColorIndex
 90
        5
102
RTVSPost2010Prop44ColorRGB
 90
      255
102
RTVSPost2010PropOp44
 70
     1
102
RTVSPost2010Prop45
280
     0
102
RTVSPost2010PropOp45
 70
     1
102
RTVSPost2010Prop46
 90
       50
102
RTVSPost2010PropOp46
 70
     1
102
RTVSPost2010Prop47
 90
       50
102
RTVSPost2010PropOp47
 70
     1
102
RTVSPost2010Prop48
 90
       50
102
RTVSPost2010PropOp48
 70
     1
102
RTVSPost2010Prop49
280
     0
102
RTVSPost2010PropOp49
 70
     1
102
RTVSPost2010Prop50
 90
       50
102
RTVSPost2010PropOp50
 70
     1
102
RTVSPost2010Prop51ColorIndex
 90
      256
102
RTVSPost2010Prop51ColorRGB
 90
-16777216
102
RTVSPost2010PropOp51
 70
     0
102
RTVSPost2010Prop52
140
1.0
102
RTVSPost2010PropOp52
 70
     0
102
RTVSPost2010Prop53
 90
        2
102
RTVSPost2010PropOp53
 70
     1
102
RTVSPost2010Prop54
  1
strokes_ogs.tif
102
RTVSPost2010PropOp54
 70
     1
102
RTVSPost2010Prop55
280
     0
102
RTVSPost2010PropOp55
 70
     1
102
RTVSPost2010Prop56
140
1.0
102
RTVSPost2010PropOp56
 70
     1
102
RTVSPost2010Prop57
140
1.0
102
RTVSPost2010PropOp57
 70
     1
102
RTVSPropertyOp0
 70
     1
102
RTVSPropertyOp1
 70
     1
102
RTVSPropertyOp2
 70
     1
102
RTVSPropertyOp3
 70
     1
102
RTVSPropertyOp4
 70
     1
102
RTVSPropertyOp5
 70
     1
102
RTVSPropertyOp6
 70
     1
102
RTVSPropertyOp7
 70
     1
102
RTVSPropertyOp8
 70
     1
102
RTVSPropertyOp9
 70
     1
102
RTVSPropertyOp10
 70
     1
102
RTVSPropertyOp11
 70
     1
102
RTVSPropertyOp12
 70
     1
102
RTVSPropertyOp13
 70
     1
102
RTVSPropertyOp14
 70
     1
102
RTVSPropertyOp15
 70
     1
102
RTVSPropertyOp16
 70
     1
102
RTVSPropertyOp17
 70
     1
102
RTVSPropertyOp18
 70
     1
102
RTVSPropertyOp19
 70
     1
102
RTVSPropertyOp20
 70
     1
102
RTVSPropertyOp21
 70
     1
102
RTVSPropertyOp22
 70
     1
102
RTVSPropertyOp23
 70
     1
102
RTVSPropertyOp24
 70
     1
102
RTVSPropertyOp25
 70
     1
102
RTVSPropertyOp26
 70
     1
102
RTVSPropertyOp27
 70
     1
102
RTVSPropertyOp28
 70
     1
102
RTVSPropertyOp29
 70
     1
102
RTVSPropertyOp30
 70
     1
102
RTVSPropertyOp31
 70
     1
102
RTVSPropertyOp32
 70
     1
102
RTVSPropertyOp33
 70
     1
102
RTVSPropertyOp34
 70
     1
102
RTVSPropertyOp35
 70
     1
102
RTVSPropertyOp36
 70
     1
102
RTVSPropertyOp37
 70
     1
102
RTVSPropertyOp38
 70
     1
102
RTVSPropertyOp39
 70
     1
102
RTVSPropertyOp40
 70
     1
102
RTVSPropertyOp41
 70
     1
102
RTVSPropertyOp42
 70
     1
102
RTVSPropertyOp43
 70
     1
102
RTVSPropertyOp44
 70
     1
102
RTVSPropertyOp45
 70
     1
102
RTVSPropertyOp46
 70
     1
102
RTVSPropertyOp47
 70
     1
102
RTVSPropertyOp48
 70
     1
102
RTVSPropertyOp49
 70
     1
102
RTVSPropertyOp50
 70
     1
102
RTVSPropertyOp51
 70
     0
102
RTVSPropertyOp52
 70
     0
102
RTVSPropertyOp53
 70
     1
102
RTVSPropertyOp54
 70
     1
102
RTVSPropertyOp55
 70
     1
102
RTVSPropertyOp56
 70
     1
102
RTVSPropertyOp57
 70
     1
102
RTVSPropertyOp58
 70
     1
102
RTVSPropertyOp59
 70
     1
102
RTVSPropertyOp60
 70
     1
102
RTVSPropertyOp61
 70
     1
102
RTVSPropertyOp62
 70
     1
  0
XRECORD
  5
47B
102
{ACAD_REACTORS
330
47A
102
}
330
47A
100
AcDbXrecord
280
     1
102
RTVSPost2010Prop28
280
     0
102
RTVSPost2010PropOp28
 70
     1
102
RTVSPost2010Prop29
280
     1
102
RTVSPost2010PropOp29
 70
     1
102
RTVSPost2010Prop30
280
     1
102
RTVSPost2010PropOp30
 70
     1
102
RTVSPost2010Prop31
280
     0
102
RTVSPost2010PropOp31
 70
     1
102
RTVSPost2010Prop32
280
     0
102
RTVSPost2010PropOp32
 70
     1
102
RTVSPost2010Prop33
280
     0
102
RTVSPost2010PropOp33
 70
     1
102
RTVSPost2010Prop34
280
     0
102
RTVSPost2010PropOp34
 70
     1
102
RTVSPost2010Prop35
280
     0
102
RTVSPost2010PropOp35
 70
     1
102
RTVSPost2010Prop36
280
     0
102
RTVSPost2010PropOp36
 70
     1
102
RTVSPost2010Prop37
 90
       50
102
RTVSPost2010PropOp37
 70
     1
102
RTVSPost2010Prop38
140
0.0
102
RTVSPost2010PropOp38
 70
     1
102
RTVSPost2010Prop39
140
1.0
102
RTVSPost2010PropOp39
 70
     1
102
RTVSPost2010Prop40
 90
        0
102
RTVSPost2010PropOp40
 70
     1
102
RTVSPost2010Prop41ColorIndex
 90
       18
102
RTVSPost2010Prop41ColorRGB
 90
        0
102
RTVSPost2010PropOp41
 70
     1
102
RTVSPost2010Prop42
 90
       50
102
RTVSPost2010PropOp42
 70
     1
102
RTVSPost2010Prop43
 90
        3
102
RTVSPost2010PropOp43
 70
     1
102
RTVSPost2010Prop44ColorIndex
 90
        5
102
RTVSPost2010Prop44ColorRGB
 90
      255
102
RTVSPost2010PropOp44
 70
     1
102
RTVSPost2010Prop45
280
     0
102
RTVSPost2010PropOp45
 70
     1
102
RTVSPost2010Prop46
 90
       50
102
RTVSPost2010PropOp46
 70
     1
102
RTVSPost2010Prop47
 90
       50
102
RTVSPost2010PropOp47
 70
     1
102
RTVSPost2010Prop48
 90
       50
102
RTVSPost2010PropOp48
 70
     1
102
RTVSPost2010Prop49
280
     0
102
RTVSPost2010PropOp49
 70
     1
102
RTVSPost2010Prop50
 90
       50
102
RTVSPost2010PropOp50
 70
     1
102
RTVSPost2010Prop51ColorIndex
 90
      256
102
RTVSPost2010Prop51ColorRGB
 90
-16777216
102
RTVSPost2010PropOp51
 70
     0
102
RTVSPost2010Prop52
140
1.0
102
RTVSPost2010PropOp52
 70
     0
102
RTVSPost2010Prop53
 90
        2
102
RTVSPost2010PropOp53
 70
     1
102
RTVSPost2010Prop54
  1
strokes_ogs.tif
102
RTVSPost2010PropOp54
 70
     1
102
RTVSPost2010Prop55
280
     0
102
RTVSPost2010PropOp55
 70
     1
102
RTVSPost2010Prop56
140
1.0
102
RTVSPost2010PropOp56
 70
     1
102
RTVSPost2010Prop57
140
1.0
102
RTVSPost2010PropOp57
 70
     1
102
RTVSPropertyOp0
 70
     1
102
RTVSPropertyOp1
 70
     1
102
RTVSPropertyOp2
 70
     1
102
RTVSPropertyOp3
 70
     1
102
RTVSPropertyOp4
 70
     1
102
RTVSPropertyOp5
 70
     1
102
RTVSPropertyOp6
 70
     1
102
RTVSPropertyOp7
 70
     1
102
RTVSPropertyOp8
 70
     1
102
RTVSPropertyOp9
 70
     1
102
RTVSPropertyOp10
 70
     1
102
RTVSPropertyOp11
 70
     1
102
RTVSPropertyOp12
 70
     1
102
RTVSPropertyOp13
 70
     1
102
RTVSPropertyOp14
 70
     1
102
RTVSPropertyOp15
 70
     1
102
RTVSPropertyOp16
 70
     1
102
RTVSPropertyOp17
 70
     1
102
RTVSPropertyOp18
 70
     1
102
RTVSPropertyOp19
 70
     1
102
RTVSPropertyOp20
 70
     1
102
RTVSPropertyOp21
 70
     1
102
RTVSPropertyOp22
 70
     1
102
RTVSPropertyOp23
 70
     1
102
RTVSPropertyOp24
 70
     1
102
RTVSPropertyOp25
 70
     1
102
RTVSPropertyOp26
 70
     1
102
RTVSPropertyOp27
 70
     1
102
RTVSPropertyOp28
 70
     1
102
RTVSPropertyOp29
 70
     1
102
RTVSPropertyOp30
 70
     1
102
RTVSPropertyOp31
 70
     1
102
RTVSPropertyOp32
 70
     1
102
RTVSPropertyOp33
 70
     1
102
RTVSPropertyOp34
 70
     1
102
RTVSPropertyOp35
 70
     1
102
RTVSPropertyOp36
 70
     1
102
RTVSPropertyOp37
 70
     1
102
RTVSPropertyOp38
 70
     1
102
RTVSPropertyOp39
 70
     1
102
RTVSPropertyOp40
 70
     1
102
RTVSPropertyOp41
 70
     1
102
RTVSPropertyOp42
 70
     1
102
RTVSPropertyOp43
 70
     1
102
RTVSPropertyOp44
 70
     1
102
RTVSPropertyOp45
 70
     1
102
RTVSPropertyOp46
 70
     1
102
RTVSPropertyOp47
 70
     1
102
RTVSPropertyOp48
 70
     1
102
RTVSPropertyOp49
 70
     1
102
RTVSPropertyOp50
 70
     1
102
RTVSPropertyOp51
 70
     0
102
RTVSPropertyOp52
 70
     0
102
RTVSPropertyOp53
 70
     1
102
RTVSPropertyOp54
 70
     1
102
RTVSPropertyOp55
 70
     1
102
RTVSPropertyOp56
 70
     1
102
RTVSPropertyOp57
 70
     1
102
RTVSPropertyOp58
 70
     1
102
RTVSPropertyOp59
 70
     1
102
RTVSPropertyOp60
 70
     1
102
RTVSPropertyOp61
 70
     1
102
RTVSPropertyOp62
 70
     1
  0
XRECORD
  5
47F
102
{ACAD_REACTORS
330
47E
102
}
330
47E
100
AcDbXrecord
280
     1
102
RTVSPost2010Prop28
280
     0
102
RTVSPost2010PropOp28
 70
     1
102
RTVSPost2010Prop29
280
     1
102
RTVSPost2010PropOp29
 70
     1
102
RTVSPost2010Prop30
280
     1
102
RTVSPost2010PropOp30
 70
     1
102
RTVSPost2010Prop31
280
     0
102
RTVSPost2010PropOp31
 70
     1
102
RTVSPost2010Prop32
280
     0
102
RTVSPost2010PropOp32
 70
     1
102
RTVSPost2010Prop33
280
     0
102
RTVSPost2010PropOp33
 70
     1
102
RTVSPost2010Prop34
280
     0
102
RTVSPost2010PropOp34
 70
     1
102
RTVSPost2010Prop35
280
     0
102
RTVSPost2010PropOp35
 70
     1
102
RTVSPost2010Prop36
280
     0
102
RTVSPost2010PropOp36
 70
     1
102
RTVSPost2010Prop37
 90
       50
102
RTVSPost2010PropOp37
 70
     1
102
RTVSPost2010Prop38
140
0.0
102
RTVSPost2010PropOp38
 70
     1
102
RTVSPost2010Prop39
140
1.0
102
RTVSPost2010PropOp39
 70
     1
102
RTVSPost2010Prop40
 90
        0
102
RTVSPost2010PropOp40
 70
     1
102
RTVSPost2010Prop41ColorIndex
 90
       18
102
RTVSPost2010Prop41ColorRGB
 90
        0
102
RTVSPost2010PropOp41
 70
     1
102
RTVSPost2010Prop42
 90
       50
102
RTVSPost2010PropOp42
 70
     1
102
RTVSPost2010Prop43
 90
        3
102
RTVSPost2010PropOp43
 70
     1
102
RTVSPost2010Prop44ColorIndex
 90
        5
102
RTVSPost2010Prop44ColorRGB
 90
      255
102
RTVSPost2010PropOp44
 70
     1
102
RTVSPost2010Prop45
280
     0
102
RTVSPost2010PropOp45
 70
     1
102
RTVSPost2010Prop46
 90
       50
102
RTVSPost2010PropOp46
 70
     1
102
RTVSPost2010Prop47
 90
       50
102
RTVSPost2010PropOp47
 70
     1
102
RTVSPost2010Prop48
 90
       50
102
RTVSPost2010PropOp48
 70
     1
102
RTVSPost2010Prop49
280
     0
102
RTVSPost2010PropOp49
 70
     1
102
RTVSPost2010Prop50
 90
       50
102
RTVSPost2010PropOp50
 70
     1
102
RTVSPost2010Prop51ColorIndex
 90
      256
102
RTVSPost2010Prop51ColorRGB
 90
-16777216
102
RTVSPost2010PropOp51
 70
     0
102
RTVSPost2010Prop52
140
1.0
102
RTVSPost2010PropOp52
 70
     0
102
RTVSPost2010Prop53
 90
        2
102
RTVSPost2010PropOp53
 70
     1
102
RTVSPost2010Prop54
  1
strokes_ogs.tif
102
RTVSPost2010PropOp54
 70
     1
102
RTVSPost2010Prop55
280
     0
102
RTVSPost2010PropOp55
 70
     1
102
RTVSPost2010Prop56
140
1.0
102
RTVSPost2010PropOp56
 70
     1
102
RTVSPost2010Prop57
140
1.0
102
RTVSPost2010PropOp57
 70
     1
102
RTVSPropertyOp0
 70
     1
102
RTVSPropertyOp1
 70
     1
102
RTVSPropertyOp2
 70
     1
102
RTVSPropertyOp3
 70
     1
102
RTVSPropertyOp4
 70
     1
102
RTVSPropertyOp5
 70
     1
102
RTVSPropertyOp6
 70
     1
102
RTVSPropertyOp7
 70
     1
102
RTVSPropertyOp8
 70
     1
102
RTVSPropertyOp9
 70
     1
102
RTVSPropertyOp10
 70
     1
102
RTVSPropertyOp11
 70
     1
102
RTVSPropertyOp12
 70
     1
102
RTVSPropertyOp13
 70
     1
102
RTVSPropertyOp14
 70
     1
102
RTVSPropertyOp15
 70
     1
102
RTVSPropertyOp16
 70
     1
102
RTVSPropertyOp17
 70
     1
102
RTVSPropertyOp18
 70
     1
102
RTVSPropertyOp19
 70
     1
102
RTVSPropertyOp20
 70
     1
102
RTVSPropertyOp21
 70
     1
102
RTVSPropertyOp22
 70
     1
102
RTVSPropertyOp23
 70
     1
102
RTVSPropertyOp24
 70
     1
102
RTVSPropertyOp25
 70
     1
102
RTVSPropertyOp26
 70
     1
102
RTVSPropertyOp27
 70
     1
102
RTVSPropertyOp28
 70
     1
102
RTVSPropertyOp29
 70
     1
102
RTVSPropertyOp30
 70
     1
102
RTVSPropertyOp31
 70
     1
102
RTVSPropertyOp32
 70
     1
102
RTVSPropertyOp33
 70
     1
102
RTVSPropertyOp34
 70
     1
102
RTVSPropertyOp35
 70
     1
102
RTVSPropertyOp36
 70
     1
102
RTVSPropertyOp37
 70
     1
102
RTVSPropertyOp38
 70
     1
102
RTVSPropertyOp39
 70
     1
102
RTVSPropertyOp40
 70
     1
102
RTVSPropertyOp41
 70
     1
102
RTVSPropertyOp42
 70
     1
102
RTVSPropertyOp43
 70
     1
102
RTVSPropertyOp44
 70
     1
102
RTVSPropertyOp45
 70
     1
102
RTVSPropertyOp46
 70
     1
102
RTVSPropertyOp47
 70
     1
102
RTVSPropertyOp48
 70
     1
102
RTVSPropertyOp49
 70
     1
102
RTVSPropertyOp50
 70
     1
102
RTVSPropertyOp51
 70
     0
102
RTVSPropertyOp52
 70
     0
102
RTVSPropertyOp53
 70
     1
102
RTVSPropertyOp54
 70
     1
102
RTVSPropertyOp55
 70
     1
102
RTVSPropertyOp56
 70
     1
102
RTVSPropertyOp57
 70
     1
102
RTVSPropertyOp58
 70
     1
102
RTVSPropertyOp59
 70
     1
102
RTVSPropertyOp60
 70
     1
102
RTVSPropertyOp61
 70
     1
102
RTVSPropertyOp62
 70
     1
  0
XRECORD
  5
499
102
{ACAD_REACTORS
330
498
102
}
330
498
100
AcDbXrecord
280
     1
102
RTVSPost2010Prop28
280
     0
102
RTVSPost2010PropOp28
 70
     1
102
RTVSPost2010Prop29
280
     1
102
RTVSPost2010PropOp29
 70
     1
102
RTVSPost2010Prop30
280
     1
102
RTVSPost2010PropOp30
 70
     1
102
RTVSPost2010Prop31
280
     0
102
RTVSPost2010PropOp31
 70
     1
102
RTVSPost2010Prop32
280
     0
102
RTVSPost2010PropOp32
 70
     1
102
RTVSPost2010Prop33
280
     0
102
RTVSPost2010PropOp33
 70
     1
102
RTVSPost2010Prop34
280
     0
102
RTVSPost2010PropOp34
 70
     1
102
RTVSPost2010Prop35
280
     0
102
RTVSPost2010PropOp35
 70
     1
102
RTVSPost2010Prop36
280
     0
102
RTVSPost2010PropOp36
 70
     1
102
RTVSPost2010Prop37
 90
       50
102
RTVSPost2010PropOp37
 70
     0
102
RTVSPost2010Prop38
140
0.0
102
RTVSPost2010PropOp38
 70
     0
102
RTVSPost2010Prop39
140
1.0
102
RTVSPost2010PropOp39
 70
     0
102
RTVSPost2010Prop40
 90
        0
102
RTVSPost2010PropOp40
 70
     0
102
RTVSPost2010Prop41ColorIndex
 90
       18
102
RTVSPost2010Prop41ColorRGB
 90
        0
102
RTVSPost2010PropOp41
 70
     0
102
RTVSPost2010Prop42
 90
       50
102
RTVSPost2010PropOp42
 70
     0
102
RTVSPost2010Prop43
 90
        3
102
RTVSPost2010PropOp43
 70
     0
102
RTVSPost2010Prop44ColorIndex
 90
        5
102
RTVSPost2010Prop44ColorRGB
 90
      255
102
RTVSPost2010PropOp44
 70
     0
102
RTVSPost2010Prop45
280
     0
102
RTVSPost2010PropOp45
 70
     1
102
RTVSPost2010Prop46
 90
       50
102
RTVSPost2010PropOp46
 70
     0
102
RTVSPost2010Prop47
 90
       50
102
RTVSPost2010PropOp47
 70
     0
102
RTVSPost2010Prop48
 90
       50
102
RTVSPost2010PropOp48
 70
     0
102
RTVSPost2010Prop49
280
     0
102
RTVSPost2010PropOp49
 70
     1
102
RTVSPost2010Prop50
 90
       50
102
RTVSPost2010PropOp50
 70
     0
102
RTVSPost2010Prop51ColorIndex
 90
      256
102
RTVSPost2010Prop51ColorRGB
 90
-16777216
102
RTVSPost2010PropOp51
 70
     0
102
RTVSPost2010Prop52
140
1.0
102
RTVSPost2010PropOp52
 70
     0
102
RTVSPost2010Prop53
 90
        2
102
RTVSPost2010PropOp53
 70
     0
102
RTVSPost2010Prop54
  1
strokes_ogs.tif
102
RTVSPost2010PropOp54
 70
     0
102
RTVSPost2010Prop55
280
     0
102
RTVSPost2010PropOp55
 70
     1
102
RTVSPost2010Prop56
140
1.0
102
RTVSPost2010PropOp56
 70
     0
102
RTVSPost2010Prop57
140
1.0
102
RTVSPost2010PropOp57
 70
     0
102
RTVSPropertyOp0
 70
     0
102
RTVSPropertyOp1
 70
     0
102
RTVSPropertyOp2
 70
     0
102
RTVSPropertyOp3
 70
     0
102
RTVSPropertyOp4
 70
     0
102
RTVSPropertyOp5
 70
     0
102
RTVSPropertyOp6
 70
     0
102
RTVSPropertyOp7
 70
     0
102
RTVSPropertyOp8
 70
     0
102
RTVSPropertyOp9
 70
     0
102
RTVSPropertyOp10
 70
     0
102
RTVSPropertyOp11
 70
     0
102
RTVSPropertyOp12
 70
     0
102
RTVSPropertyOp13
 70
     0
102
RTVSPropertyOp14
 70
     2
102
RTVSPropertyOp15
 70
     0
102
RTVSPropertyOp16
 70
     0
102
RTVSPropertyOp17
 70
     0
102
RTVSPropertyOp18
 70
     0
102
RTVSPropertyOp19
 70
     0
102
RTVSPropertyOp20
 70
     0
102
RTVSPropertyOp21
 70
     0
102
RTVSPropertyOp22
 70
     0
102
RTVSPropertyOp23
 70
     0
102
RTVSPropertyOp24
 70
     0
102
RTVSPropertyOp25
 70
     0
102
RTVSPropertyOp26
 70
     0
102
RTVSPropertyOp27
 70
     0
102
RTVSPropertyOp28
 70
     1
102
RTVSPropertyOp29
 70
     1
102
RTVSPropertyOp30
 70
     1
102
RTVSPropertyOp31
 70
     1
102
RTVSPropertyOp32
 70
     1
102
RTVSPropertyOp33
 70
     1
102
RTVSPropertyOp34
 70
     1
102
RTVSPropertyOp35
 70
     1
102
RTVSPropertyOp36
 70
     1
102
RTVSPropertyOp37
 70
     0
102
RTVSPropertyOp38
 70
     0
102
RTVSPropertyOp39
 70
     0
102
RTVSPropertyOp40
 70
     0
102
RTVSPropertyOp41
 70
     0
102
RTVSPropertyOp42
 70
     0
102
RTVSPropertyOp43
 70
     0
102
RTVSPropertyOp44
 70
     0
102
RTVSPropertyOp45
 70
     1
102
RTVSPropertyOp46
 70
     0
102
RTVSPropertyOp47
 70
     0
102
RTVSPropertyOp48
 70
     0
102
RTVSPropertyOp49
 70
     1
102
RTVSPropertyOp50
 70
     0
102
RTVSPropertyOp51
 70
     0
102
RTVSPropertyOp52
 70
     0
102
RTVSPropertyOp53
 70
     0
102
RTVSPropertyOp54
 70
     0
102
RTVSPropertyOp55
 70
     1
102
RTVSPropertyOp56
 70
     0
102
RTVSPropertyOp57
 70
     0
102
RTVSPropertyOp58
 70
     0
102
RTVSPropertyOp59
 70
     0
102
RTVSPropertyOp60
 70
     0
102
RTVSPropertyOp61
 70
     0
102
RTVSPropertyOp62
 70
     0
  0
XRECORD
  5
487
102
{ACAD_REACTORS
330
486
102
}
330
486
100
AcDbXrecord
280
     1
102
RTVSPost2010Prop28
280
     0
102
RTVSPost2010PropOp28
 70
     1
102
RTVSPost2010Prop29
280
     1
102
RTVSPost2010PropOp29
 70
     1
102
RTVSPost2010Prop30
280
     1
102
RTVSPost2010PropOp30
 70
     1
102
RTVSPost2010Prop31
280
     0
102
RTVSPost2010PropOp31
 70
     1
102
RTVSPost2010Prop32
280
     0
102
RTVSPost2010PropOp32
 70
     1
102
RTVSPost2010Prop33
280
     0
102
RTVSPost2010PropOp33
 70
     1
102
RTVSPost2010Prop34
280
     0
102
RTVSPost2010PropOp34
 70
     1
102
RTVSPost2010Prop35
280
     0
102
RTVSPost2010PropOp35
 70
     1
102
RTVSPost2010Prop36
280
     0
102
RTVSPost2010PropOp36
 70
     1
102
RTVSPost2010Prop37
 90
       50
102
RTVSPost2010PropOp37
 70
     1
102
RTVSPost2010Prop38
140
0.0
102
RTVSPost2010PropOp38
 70
     1
102
RTVSPost2010Prop39
140
1.0
102
RTVSPost2010PropOp39
 70
     1
102
RTVSPost2010Prop40
 90
        0
102
RTVSPost2010PropOp40
 70
     1
102
RTVSPost2010Prop41ColorIndex
 90
       18
102
RTVSPost2010Prop41ColorRGB
 90
        0
102
RTVSPost2010PropOp41
 70
     1
102
RTVSPost2010Prop42
 90
       50
102
RTVSPost2010PropOp42
 70
     1
102
RTVSPost2010Prop43
 90
        3
102
RTVSPost2010PropOp43
 70
     1
102
RTVSPost2010Prop44ColorIndex
 90
        5
102
RTVSPost2010Prop44ColorRGB
 90
      255
102
RTVSPost2010PropOp44
 70
     1
102
RTVSPost2010Prop45
280
     0
102
RTVSPost2010PropOp45
 70
     1
102
RTVSPost2010Prop46
 90
       50
102
RTVSPost2010PropOp46
 70
     1
102
RTVSPost2010Prop47
 90
       50
102
RTVSPost2010PropOp47
 70
     1
102
RTVSPost2010Prop48
 90
       50
102
RTVSPost2010PropOp48
 70
     1
102
RTVSPost2010Prop49
280
     0
102
RTVSPost2010PropOp49
 70
     1
102
RTVSPost2010Prop50
 90
       50
102
RTVSPost2010PropOp50
 70
     1
102
RTVSPost2010Prop51ColorIndex
 90
      256
102
RTVSPost2010Prop51ColorRGB
 90
-16777216
102
RTVSPost2010PropOp51
 70
     0
102
RTVSPost2010Prop52
140
1.0
102
RTVSPost2010PropOp52
 70
     0
102
RTVSPost2010Prop53
 90
        2
102
RTVSPost2010PropOp53
 70
     1
102
RTVSPost2010Prop54
  1
strokes_ogs.tif
102
RTVSPost2010PropOp54
 70
     1
102
RTVSPost2010Prop55
280
     0
102
RTVSPost2010PropOp55
 70
     1
102
RTVSPost2010Prop56
140
1.0
102
RTVSPost2010PropOp56
 70
     1
102
RTVSPost2010Prop57
140
1.0
102
RTVSPost2010PropOp57
 70
     1
102
RTVSPropertyOp0
 70
     1
102
RTVSPropertyOp1
 70
     1
102
RTVSPropertyOp2
 70
     1
102
RTVSPropertyOp3
 70
     1
102
RTVSPropertyOp4
 70
     1
102
RTVSPropertyOp5
 70
     1
102
RTVSPropertyOp6
 70
     1
102
RTVSPropertyOp7
 70
     1
102
RTVSPropertyOp8
 70
     1
102
RTVSPropertyOp9
 70
     1
102
RTVSPropertyOp10
 70
     1
102
RTVSPropertyOp11
 70
     1
102
RTVSPropertyOp12
 70
     1
102
RTVSPropertyOp13
 70
     1
102
RTVSPropertyOp14
 70
     1
102
RTVSPropertyOp15
 70
     1
102
RTVSPropertyOp16
 70
     1
102
RTVSPropertyOp17
 70
     1
102
RTVSPropertyOp18
 70
     1
102
RTVSPropertyOp19
 70
     1
102
RTVSPropertyOp20
 70
     1
102
RTVSPropertyOp21
 70
     1
102
RTVSPropertyOp22
 70
     1
102
RTVSPropertyOp23
 70
     1
102
RTVSPropertyOp24
 70
     1
102
RTVSPropertyOp25
 70
     1
102
RTVSPropertyOp26
 70
     1
102
RTVSPropertyOp27
 70
     1
102
RTVSPropertyOp28
 70
     1
102
RTVSPropertyOp29
 70
     1
102
RTVSPropertyOp30
 70
     1
102
RTVSPropertyOp31
 70
     1
102
RTVSPropertyOp32
 70
     1
102
RTVSPropertyOp33
 70
     1
102
RTVSPropertyOp34
 70
     1
102
RTVSPropertyOp35
 70
     1
102
RTVSPropertyOp36
 70
     1
102
RTVSPropertyOp37
 70
     1
102
RTVSPropertyOp38
 70
     1
102
RTVSPropertyOp39
 70
     1
102
RTVSPropertyOp40
 70
     1
102
RTVSPropertyOp41
 70
     1
102
RTVSPropertyOp42
 70
     1
102
RTVSPropertyOp43
 70
     1
102
RTVSPropertyOp44
 70
     1
102
RTVSPropertyOp45
 70
     1
102
RTVSPropertyOp46
 70
     1
102
RTVSPropertyOp47
 70
     1
102
RTVSPropertyOp48
 70
     1
102
RTVSPropertyOp49
 70
     1
102
RTVSPropertyOp50
 70
     1
102
RTVSPropertyOp51
 70
     0
102
RTVSPropertyOp52
 70
     0
102
RTVSPropertyOp53
 70
     1
102
RTVSPropertyOp54
 70
     1
102
RTVSPropertyOp55
 70
     1
102
RTVSPropertyOp56
 70
     1
102
RTVSPropertyOp57
 70
     1
102
RTVSPropertyOp58
 70
     1
102
RTVSPropertyOp59
 70
     1
102
RTVSPropertyOp60
 70
     1
102
RTVSPropertyOp61
 70
     1
102
RTVSPropertyOp62
 70
     1
  0
XRECORD
  5
46B
102
{ACAD_REACTORS
330
46A
102
}
330
46A
100
AcDbXrecord
280
     1
102
RTVSPost2010Prop28
280
     0
102
RTVSPost2010PropOp28
 70
     1
102
RTVSPost2010Prop29
280
     1
102
RTVSPost2010PropOp29
 70
     1
102
RTVSPost2010Prop30
280
     1
102
RTVSPost2010PropOp30
 70
     1
102
RTVSPost2010Prop31
280
     0
102
RTVSPost2010PropOp31
 70
     1
102
RTVSPost2010Prop32
280
     0
102
RTVSPost2010PropOp32
 70
     1
102
RTVSPost2010Prop33
280
     0
102
RTVSPost2010PropOp33
 70
     1
102
RTVSPost2010Prop34
280
     0
102
RTVSPost2010PropOp34
 70
     1
102
RTVSPost2010Prop35
280
     0
102
RTVSPost2010PropOp35
 70
     1
102
RTVSPost2010Prop36
280
     0
102
RTVSPost2010PropOp36
 70
     1
102
RTVSPost2010Prop37
 90
       50
102
RTVSPost2010PropOp37
 70
     1
102
RTVSPost2010Prop38
140
0.0
102
RTVSPost2010PropOp38
 70
     1
102
RTVSPost2010Prop39
140
1.0
102
RTVSPost2010PropOp39
 70
     1
102
RTVSPost2010Prop40
 90
        0
102
RTVSPost2010PropOp40
 70
     1
102
RTVSPost2010Prop41ColorIndex
 90
       18
102
RTVSPost2010Prop41ColorRGB
 90
        0
102
RTVSPost2010PropOp41
 70
     1
102
RTVSPost2010Prop42
 90
       50
102
RTVSPost2010PropOp42
 70
     1
102
RTVSPost2010Prop43
 90
        3
102
RTVSPost2010PropOp43
 70
     1
102
RTVSPost2010Prop44ColorIndex
 90
        5
102
RTVSPost2010Prop44ColorRGB
 90
      255
102
RTVSPost2010PropOp44
 70
     1
102
RTVSPost2010Prop45
280
     0
102
RTVSPost2010PropOp45
 70
     1
102
RTVSPost2010Prop46
 90
       50
102
RTVSPost2010PropOp46
 70
     1
102
RTVSPost2010Prop47
 90
       50
102
RTVSPost2010PropOp47
 70
     1
102
RTVSPost2010Prop48
 90
       50
102
RTVSPost2010PropOp48
 70
     1
102
RTVSPost2010Prop49
280
     0
102
RTVSPost2010PropOp49
 70
     1
102
RTVSPost2010Prop50
 90
       50
102
RTVSPost2010PropOp50
 70
     1
102
RTVSPost2010Prop51ColorIndex
 90
      256
102
RTVSPost2010Prop51ColorRGB
 90
-16777216
102
RTVSPost2010PropOp51
 70
     0
102
RTVSPost2010Prop52
140
1.0
102
RTVSPost2010PropOp52
 70
     0
102
RTVSPost2010Prop53
 90
        2
102
RTVSPost2010PropOp53
 70
     1
102
RTVSPost2010Prop54
  1
strokes_ogs.tif
102
RTVSPost2010PropOp54
 70
     1
102
RTVSPost2010Prop55
280
     0
102
RTVSPost2010PropOp55
 70
     1
102
RTVSPost2010Prop56
140
1.0
102
RTVSPost2010PropOp56
 70
     1
102
RTVSPost2010Prop57
140
1.0
102
RTVSPost2010PropOp57
 70
     1
102
RTVSPropertyOp0
 70
     1
102
RTVSPropertyOp1
 70
     1
102
RTVSPropertyOp2
 70
     1
102
RTVSPropertyOp3
 70
     1
102
RTVSPropertyOp4
 70
     1
102
RTVSPropertyOp5
 70
     1
102
RTVSPropertyOp6
 70
     1
102
RTVSPropertyOp7
 70
     1
102
RTVSPropertyOp8
 70
     1
102
RTVSPropertyOp9
 70
     1
102
RTVSPropertyOp10
 70
     1
102
RTVSPropertyOp11
 70
     1
102
RTVSPropertyOp12
 70
     1
102
RTVSPropertyOp13
 70
     1
102
RTVSPropertyOp14
 70
     1
102
RTVSPropertyOp15
 70
     1
102
RTVSPropertyOp16
 70
     1
102
RTVSPropertyOp17
 70
     1
102
RTVSPropertyOp18
 70
     1
102
RTVSPropertyOp19
 70
     1
102
RTVSPropertyOp20
 70
     1
102
RTVSPropertyOp21
 70
     1
102
RTVSPropertyOp22
 70
     1
102
RTVSPropertyOp23
 70
     1
102
RTVSPropertyOp24
 70
     1
102
RTVSPropertyOp25
 70
     1
102
RTVSPropertyOp26
 70
     1
102
RTVSPropertyOp27
 70
     1
102
RTVSPropertyOp28
 70
     1
102
RTVSPropertyOp29
 70
     1
102
RTVSPropertyOp30
 70
     1
102
RTVSPropertyOp31
 70
     1
102
RTVSPropertyOp32
 70
     1
102
RTVSPropertyOp33
 70
     1
102
RTVSPropertyOp34
 70
     1
102
RTVSPropertyOp35
 70
     1
102
RTVSPropertyOp36
 70
     1
102
RTVSPropertyOp37
 70
     1
102
RTVSPropertyOp38
 70
     1
102
RTVSPropertyOp39
 70
     1
102
RTVSPropertyOp40
 70
     1
102
RTVSPropertyOp41
 70
     1
102
RTVSPropertyOp42
 70
     1
102
RTVSPropertyOp43
 70
     1
102
RTVSPropertyOp44
 70
     1
102
RTVSPropertyOp45
 70
     1
102
RTVSPropertyOp46
 70
     1
102
RTVSPropertyOp47
 70
     1
102
RTVSPropertyOp48
 70
     1
102
RTVSPropertyOp49
 70
     1
102
RTVSPropertyOp50
 70
     1
102
RTVSPropertyOp51
 70
     0
102
RTVSPropertyOp52
 70
     0
102
RTVSPropertyOp53
 70
     1
102
RTVSPropertyOp54
 70
     1
102
RTVSPropertyOp55
 70
     1
102
RTVSPropertyOp56
 70
     1
102
RTVSPropertyOp57
 70
     1
102
RTVSPropertyOp58
 70
     1
102
RTVSPropertyOp59
 70
     1
102
RTVSPropertyOp60
 70
     1
102
RTVSPropertyOp61
 70
     1
102
RTVSPropertyOp62
 70
     1
  0
XRECORD
  5
46D
102
{ACAD_REACTORS
330
46C
102
}
330
46C
100
AcDbXrecord
280
     1
102
RTVSPost2010Prop28
280
     0
102
RTVSPost2010PropOp28
 70
     1
102
RTVSPost2010Prop29
280
     1
102
RTVSPost2010PropOp29
 70
     1
102
RTVSPost2010Prop30
280
     1
102
RTVSPost2010PropOp30
 70
     1
102
RTVSPost2010Prop31
280
     0
102
RTVSPost2010PropOp31
 70
     1
102
RTVSPost2010Prop32
280
     0
102
RTVSPost2010PropOp32
 70
     1
102
RTVSPost2010Prop33
280
     0
102
RTVSPost2010PropOp33
 70
     1
102
RTVSPost2010Prop34
280
     0
102
RTVSPost2010PropOp34
 70
     1
102
RTVSPost2010Prop35
280
     0
102
RTVSPost2010PropOp35
 70
     1
102
RTVSPost2010Prop36
280
     0
102
RTVSPost2010PropOp36
 70
     1
102
RTVSPost2010Prop37
 90
       50
102
RTVSPost2010PropOp37
 70
     1
102
RTVSPost2010Prop38
140
0.0
102
RTVSPost2010PropOp38
 70
     1
102
RTVSPost2010Prop39
140
1.0
102
RTVSPost2010PropOp39
 70
     1
102
RTVSPost2010Prop40
 90
        0
102
RTVSPost2010PropOp40
 70
     1
102
RTVSPost2010Prop41ColorIndex
 90
       18
102
RTVSPost2010Prop41ColorRGB
 90
        0
102
RTVSPost2010PropOp41
 70
     1
102
RTVSPost2010Prop42
 90
       50
102
RTVSPost2010PropOp42
 70
     1
102
RTVSPost2010Prop43
 90
        3
102
RTVSPost2010PropOp43
 70
     1
102
RTVSPost2010Prop44ColorIndex
 90
        5
102
RTVSPost2010Prop44ColorRGB
 90
      255
102
RTVSPost2010PropOp44
 70
     1
102
RTVSPost2010Prop45
280
     0
102
RTVSPost2010PropOp45
 70
     1
102
RTVSPost2010Prop46
 90
       50
102
RTVSPost2010PropOp46
 70
     1
102
RTVSPost2010Prop47
 90
       50
102
RTVSPost2010PropOp47
 70
     1
102
RTVSPost2010Prop48
 90
       50
102
RTVSPost2010PropOp48
 70
     1
102
RTVSPost2010Prop49
280
     0
102
RTVSPost2010PropOp49
 70
     1
102
RTVSPost2010Prop50
 90
       50
102
RTVSPost2010PropOp50
 70
     1
102
RTVSPost2010Prop51ColorIndex
 90
      256
102
RTVSPost2010Prop51ColorRGB
 90
-16777216
102
RTVSPost2010PropOp51
 70
     0
102
RTVSPost2010Prop52
140
1.0
102
RTVSPost2010PropOp52
 70
     0
102
RTVSPost2010Prop53
 90
        2
102
RTVSPost2010PropOp53
 70
     1
102
RTVSPost2010Prop54
  1
strokes_ogs.tif
102
RTVSPost2010PropOp54
 70
     1
102
RTVSPost2010Prop55
280
     0
102
RTVSPost2010PropOp55
 70
     1
102
RTVSPost2010Prop56
140
1.0
102
RTVSPost2010PropOp56
 70
     1
102
RTVSPost2010Prop57
140
1.0
102
RTVSPost2010PropOp57
 70
     1
102
RTVSPropertyOp0
 70
     1
102
RTVSPropertyOp1
 70
     1
102
RTVSPropertyOp2
 70
     1
102
RTVSPropertyOp3
 70
     1
102
RTVSPropertyOp4
 70
     1
102
RTVSPropertyOp5
 70
     1
102
RTVSPropertyOp6
 70
     1
102
RTVSPropertyOp7
 70
     1
102
RTVSPropertyOp8
 70
     1
102
RTVSPropertyOp9
 70
     1
102
RTVSPropertyOp10
 70
     1
102
RTVSPropertyOp11
 70
     1
102
RTVSPropertyOp12
 70
     1
102
RTVSPropertyOp13
 70
     1
102
RTVSPropertyOp14
 70
     1
102
RTVSPropertyOp15
 70
     1
102
RTVSPropertyOp16
 70
     1
102
RTVSPropertyOp17
 70
     1
102
RTVSPropertyOp18
 70
     1
102
RTVSPropertyOp19
 70
     1
102
RTVSPropertyOp20
 70
     1
102
RTVSPropertyOp21
 70
     1
102
RTVSPropertyOp22
 70
     1
102
RTVSPropertyOp23
 70
     1
102
RTVSPropertyOp24
 70
     1
102
RTVSPropertyOp25
 70
     1
102
RTVSPropertyOp26
 70
     1
102
RTVSPropertyOp27
 70
     1
102
RTVSPropertyOp28
 70
     1
102
RTVSPropertyOp29
 70
     1
102
RTVSPropertyOp30
 70
     1
102
RTVSPropertyOp31
 70
     1
102
RTVSPropertyOp32
 70
     1
102
RTVSPropertyOp33
 70
     1
102
RTVSPropertyOp34
 70
     1
102
RTVSPropertyOp35
 70
     1
102
RTVSPropertyOp36
 70
     1
102
RTVSPropertyOp37
 70
     1
102
RTVSPropertyOp38
 70
     1
102
RTVSPropertyOp39
 70
     1
102
RTVSPropertyOp40
 70
     1
102
RTVSPropertyOp41
 70
     1
102
RTVSPropertyOp42
 70
     1
102
RTVSPropertyOp43
 70
     1
102
RTVSPropertyOp44
 70
     1
102
RTVSPropertyOp45
 70
     1
102
RTVSPropertyOp46
 70
     1
102
RTVSPropertyOp47
 70
     1
102
RTVSPropertyOp48
 70
     1
102
RTVSPropertyOp49
 70
     1
102
RTVSPropertyOp50
 70
     1
102
RTVSPropertyOp51
 70
     0
102
RTVSPropertyOp52
 70
     0
102
RTVSPropertyOp53
 70
     1
102
RTVSPropertyOp54
 70
     1
102
RTVSPropertyOp55
 70
     1
102
RTVSPropertyOp56
 70
     1
102
RTVSPropertyOp57
 70
     1
102
RTVSPropertyOp58
 70
     1
102
RTVSPropertyOp59
 70
     1
102
RTVSPropertyOp60
 70
     1
102
RTVSPropertyOp61
 70
     1
102
RTVSPropertyOp62
 70
     1
  0
XRECORD
  5
46F
102
{ACAD_REACTORS
330
46E
102
}
330
46E
100
AcDbXrecord
280
     1
102
RTVSPost2010Prop28
280
     0
102
RTVSPost2010PropOp28
 70
     1
102
RTVSPost2010Prop29
280
     1
102
RTVSPost2010PropOp29
 70
     1
102
RTVSPost2010Prop30
280
     1
102
RTVSPost2010PropOp30
 70
     1
102
RTVSPost2010Prop31
280
     0
102
RTVSPost2010PropOp31
 70
     1
102
RTVSPost2010Prop32
280
     0
102
RTVSPost2010PropOp32
 70
     1
102
RTVSPost2010Prop33
280
     0
102
RTVSPost2010PropOp33
 70
     1
102
RTVSPost2010Prop34
280
     0
102
RTVSPost2010PropOp34
 70
     1
102
RTVSPost2010Prop35
280
     0
102
RTVSPost2010PropOp35
 70
     1
102
RTVSPost2010Prop36
280
     0
102
RTVSPost2010PropOp36
 70
     1
102
RTVSPost2010Prop37
 90
       50
102
RTVSPost2010PropOp37
 70
     1
102
RTVSPost2010Prop38
140
0.0
102
RTVSPost2010PropOp38
 70
     1
102
RTVSPost2010Prop39
140
1.0
102
RTVSPost2010PropOp39
 70
     1
102
RTVSPost2010Prop40
 90
        0
102
RTVSPost2010PropOp40
 70
     1
102
RTVSPost2010Prop41ColorIndex
 90
       18
102
RTVSPost2010Prop41ColorRGB
 90
        0
102
RTVSPost2010PropOp41
 70
     1
102
RTVSPost2010Prop42
 90
       50
102
RTVSPost2010PropOp42
 70
     1
102
RTVSPost2010Prop43
 90
        3
102
RTVSPost2010PropOp43
 70
     1
102
RTVSPost2010Prop44ColorIndex
 90
        5
102
RTVSPost2010Prop44ColorRGB
 90
      255
102
RTVSPost2010PropOp44
 70
     1
102
RTVSPost2010Prop45
280
     0
102
RTVSPost2010PropOp45
 70
     1
102
RTVSPost2010Prop46
 90
       50
102
RTVSPost2010PropOp46
 70
     1
102
RTVSPost2010Prop47
 90
       50
102
RTVSPost2010PropOp47
 70
     1
102
RTVSPost2010Prop48
 90
       50
102
RTVSPost2010PropOp48
 70
     1
102
RTVSPost2010Prop49
280
     0
102
RTVSPost2010PropOp49
 70
     1
102
RTVSPost2010Prop50
 90
       50
102
RTVSPost2010PropOp50
 70
     1
102
RTVSPost2010Prop51ColorIndex
 90
      256
102
RTVSPost2010Prop51ColorRGB
 90
-16777216
102
RTVSPost2010PropOp51
 70
     0
102
RTVSPost2010Prop52
140
1.0
102
RTVSPost2010PropOp52
 70
     0
102
RTVSPost2010Prop53
 90
        2
102
RTVSPost2010PropOp53
 70
     1
102
RTVSPost2010Prop54
  1
strokes_ogs.tif
102
RTVSPost2010PropOp54
 70
     1
102
RTVSPost2010Prop55
280
     0
102
RTVSPost2010PropOp55
 70
     1
102
RTVSPost2010Prop56
140
1.0
102
RTVSPost2010PropOp56
 70
     1
102
RTVSPost2010Prop57
140
1.0
102
RTVSPost2010PropOp57
 70
     1
102
RTVSPropertyOp0
 70
     1
102
RTVSPropertyOp1
 70
     1
102
RTVSPropertyOp2
 70
     1
102
RTVSPropertyOp3
 70
     1
102
RTVSPropertyOp4
 70
     1
102
RTVSPropertyOp5
 70
     1
102
RTVSPropertyOp6
 70
     1
102
RTVSPropertyOp7
 70
     1
102
RTVSPropertyOp8
 70
     1
102
RTVSPropertyOp9
 70
     1
102
RTVSPropertyOp10
 70
     1
102
RTVSPropertyOp11
 70
     1
102
RTVSPropertyOp12
 70
     1
102
RTVSPropertyOp13
 70
     1
102
RTVSPropertyOp14
 70
     1
102
RTVSPropertyOp15
 70
     1
102
RTVSPropertyOp16
 70
     1
102
RTVSPropertyOp17
 70
     1
102
RTVSPropertyOp18
 70
     1
102
RTVSPropertyOp19
 70
     1
102
RTVSPropertyOp20
 70
     1
102
RTVSPropertyOp21
 70
     1
102
RTVSPropertyOp22
 70
     1
102
RTVSPropertyOp23
 70
     1
102
RTVSPropertyOp24
 70
     1
102
RTVSPropertyOp25
 70
     1
102
RTVSPropertyOp26
 70
     1
102
RTVSPropertyOp27
 70
     1
102
RTVSPropertyOp28
 70
     1
102
RTVSPropertyOp29
 70
     1
102
RTVSPropertyOp30
 70
     1
102
RTVSPropertyOp31
 70
     1
102
RTVSPropertyOp32
 70
     1
102
RTVSPropertyOp33
 70
     1
102
RTVSPropertyOp34
 70
     1
102
RTVSPropertyOp35
 70
     1
102
RTVSPropertyOp36
 70
     1
102
RTVSPropertyOp37
 70
     1
102
RTVSPropertyOp38
 70
     1
102
RTVSPropertyOp39
 70
     1
102
RTVSPropertyOp40
 70
     1
102
RTVSPropertyOp41
 70
     1
102
RTVSPropertyOp42
 70
     1
102
RTVSPropertyOp43
 70
     1
102
RTVSPropertyOp44
 70
     1
102
RTVSPropertyOp45
 70
     1
102
RTVSPropertyOp46
 70
     1
102
RTVSPropertyOp47
 70
     1
102
RTVSPropertyOp48
 70
     1
102
RTVSPropertyOp49
 70
     1
102
RTVSPropertyOp50
 70
     1
102
RTVSPropertyOp51
 70
     0
102
RTVSPropertyOp52
 70
     0
102
RTVSPropertyOp53
 70
     1
102
RTVSPropertyOp54
 70
     1
102
RTVSPropertyOp55
 70
     1
102
RTVSPropertyOp56
 70
     1
102
RTVSPropertyOp57
 70
     1
102
RTVSPropertyOp58
 70
     1
102
RTVSPropertyOp59
 70
     1
102
RTVSPropertyOp60
 70
     1
102
RTVSPropertyOp61
 70
     1
102
RTVSPropertyOp62
 70
     1
  0
XRECORD
  5
471
102
{ACAD_REACTORS
330
470
102
}
330
470
100
AcDbXrecord
280
     1
102
RTVSPost2010Prop28
280
     0
102
RTVSPost2010PropOp28
 70
     1
102
RTVSPost2010Prop29
280
     1
102
RTVSPost2010PropOp29
 70
     1
102
RTVSPost2010Prop30
280
     1
102
RTVSPost2010PropOp30
 70
     1
102
RTVSPost2010Prop31
280
     0
102
RTVSPost2010PropOp31
 70
     1
102
RTVSPost2010Prop32
280
     0
102
RTVSPost2010PropOp32
 70
     1
102
RTVSPost2010Prop33
280
     0
102
RTVSPost2010PropOp33
 70
     1
102
RTVSPost2010Prop34
280
     0
102
RTVSPost2010PropOp34
 70
     1
102
RTVSPost2010Prop35
280
     0
102
RTVSPost2010PropOp35
 70
     1
102
RTVSPost2010Prop36
280
     0
102
RTVSPost2010PropOp36
 70
     1
102
RTVSPost2010Prop37
 90
       50
102
RTVSPost2010PropOp37
 70
     1
102
RTVSPost2010Prop38
140
0.0
102
RTVSPost2010PropOp38
 70
     1
102
RTVSPost2010Prop39
140
1.0
102
RTVSPost2010PropOp39
 70
     1
102
RTVSPost2010Prop40
 90
        0
102
RTVSPost2010PropOp40
 70
     1
102
RTVSPost2010Prop41ColorIndex
 90
       18
102
RTVSPost2010Prop41ColorRGB
 90
        0
102
RTVSPost2010PropOp41
 70
     1
102
RTVSPost2010Prop42
 90
       50
102
RTVSPost2010PropOp42
 70
     1
102
RTVSPost2010Prop43
 90
        3
102
RTVSPost2010PropOp43
 70
     1
102
RTVSPost2010Prop44ColorIndex
 90
        5
102
RTVSPost2010Prop44ColorRGB
 90
      255
102
RTVSPost2010PropOp44
 70
     1
102
RTVSPost2010Prop45
280
     0
102
RTVSPost2010PropOp45
 70
     1
102
RTVSPost2010Prop46
 90
       50
102
RTVSPost2010PropOp46
 70
     1
102
RTVSPost2010Prop47
 90
       50
102
RTVSPost2010PropOp47
 70
     1
102
RTVSPost2010Prop48
 90
       50
102
RTVSPost2010PropOp48
 70
     1
102
RTVSPost2010Prop49
280
     0
102
RTVSPost2010PropOp49
 70
     1
102
RTVSPost2010Prop50
 90
       50
102
RTVSPost2010PropOp50
 70
     1
102
RTVSPost2010Prop51ColorIndex
 90
      256
102
RTVSPost2010Prop51ColorRGB
 90
-16777216
102
RTVSPost2010PropOp51
 70
     0
102
RTVSPost2010Prop52
140
1.0
102
RTVSPost2010PropOp52
 70
     0
102
RTVSPost2010Prop53
 90
        2
102
RTVSPost2010PropOp53
 70
     1
102
RTVSPost2010Prop54
  1
strokes_ogs.tif
102
RTVSPost2010PropOp54
 70
     1
102
RTVSPost2010Prop55
280
     0
102
RTVSPost2010PropOp55
 70
     1
102
RTVSPost2010Prop56
140
1.0
102
RTVSPost2010PropOp56
 70
     1
102
RTVSPost2010Prop57
140
1.0
102
RTVSPost2010PropOp57
 70
     1
102
RTVSPropertyOp0
 70
     1
102
RTVSPropertyOp1
 70
     1
102
RTVSPropertyOp2
 70
     1
102
RTVSPropertyOp3
 70
     1
102
RTVSPropertyOp4
 70
     1
102
RTVSPropertyOp5
 70
     1
102
RTVSPropertyOp6
 70
     1
102
RTVSPropertyOp7
 70
     1
102
RTVSPropertyOp8
 70
     1
102
RTVSPropertyOp9
 70
     1
102
RTVSPropertyOp10
 70
     1
102
RTVSPropertyOp11
 70
     1
102
RTVSPropertyOp12
 70
     1
102
RTVSPropertyOp13
 70
     1
102
RTVSPropertyOp14
 70
     1
102
RTVSPropertyOp15
 70
     1
102
RTVSPropertyOp16
 70
     1
102
RTVSPropertyOp17
 70
     1
102
RTVSPropertyOp18
 70
     1
102
RTVSPropertyOp19
 70
     1
102
RTVSPropertyOp20
 70
     1
102
RTVSPropertyOp21
 70
     1
102
RTVSPropertyOp22
 70
     1
102
RTVSPropertyOp23
 70
     1
102
RTVSPropertyOp24
 70
     1
102
RTVSPropertyOp25
 70
     1
102
RTVSPropertyOp26
 70
     1
102
RTVSPropertyOp27
 70
     1
102
RTVSPropertyOp28
 70
     1
102
RTVSPropertyOp29
 70
     1
102
RTVSPropertyOp30
 70
     1
102
RTVSPropertyOp31
 70
     1
102
RTVSPropertyOp32
 70
     1
102
RTVSPropertyOp33
 70
     1
102
RTVSPropertyOp34
 70
     1
102
RTVSPropertyOp35
 70
     1
102
RTVSPropertyOp36
 70
     1
102
RTVSPropertyOp37
 70
     1
102
RTVSPropertyOp38
 70
     1
102
RTVSPropertyOp39
 70
     1
102
RTVSPropertyOp40
 70
     1
102
RTVSPropertyOp41
 70
     1
102
RTVSPropertyOp42
 70
     1
102
RTVSPropertyOp43
 70
     1
102
RTVSPropertyOp44
 70
     1
102
RTVSPropertyOp45
 70
     1
102
RTVSPropertyOp46
 70
     1
102
RTVSPropertyOp47
 70
     1
102
RTVSPropertyOp48
 70
     1
102
RTVSPropertyOp49
 70
     1
102
RTVSPropertyOp50
 70
     1
102
RTVSPropertyOp51
 70
     0
102
RTVSPropertyOp52
 70
     0
102
RTVSPropertyOp53
 70
     1
102
RTVSPropertyOp54
 70
     1
102
RTVSPropertyOp55
 70
     1
102
RTVSPropertyOp56
 70
     1
102
RTVSPropertyOp57
 70
     1
102
RTVSPropertyOp58
 70
     1
102
RTVSPropertyOp59
 70
     1
102
RTVSPropertyOp60
 70
     1
102
RTVSPropertyOp61
 70
     1
102
RTVSPropertyOp62
 70
     1
  0
XRECORD
  5
479
102
{ACAD_REACTORS
330
478
102
}
330
478
100
AcDbXrecord
280
     1
102
RTVSPost2010Prop28
280
     0
102
RTVSPost2010PropOp28
 70
     1
102
RTVSPost2010Prop29
280
     1
102
RTVSPost2010PropOp29
 70
     1
102
RTVSPost2010Prop30
280
     1
102
RTVSPost2010PropOp30
 70
     1
102
RTVSPost2010Prop31
280
     0
102
RTVSPost2010PropOp31
 70
     1
102
RTVSPost2010Prop32
280
     0
102
RTVSPost2010PropOp32
 70
     1
102
RTVSPost2010Prop33
280
     0
102
RTVSPost2010PropOp33
 70
     1
102
RTVSPost2010Prop34
280
     0
102
RTVSPost2010PropOp34
 70
     1
102
RTVSPost2010Prop35
280
     0
102
RTVSPost2010PropOp35
 70
     1
102
RTVSPost2010Prop36
280
     0
102
RTVSPost2010PropOp36
 70
     1
102
RTVSPost2010Prop37
 90
       50
102
RTVSPost2010PropOp37
 70
     1
102
RTVSPost2010Prop38
140
0.0
102
RTVSPost2010PropOp38
 70
     1
102
RTVSPost2010Prop39
140
1.0
102
RTVSPost2010PropOp39
 70
     1
102
RTVSPost2010Prop40
 90
        0
102
RTVSPost2010PropOp40
 70
     1
102
RTVSPost2010Prop41ColorIndex
 90
       18
102
RTVSPost2010Prop41ColorRGB
 90
        0
102
RTVSPost2010PropOp41
 70
     1
102
RTVSPost2010Prop42
 90
       50
102
RTVSPost2010PropOp42
 70
     1
102
RTVSPost2010Prop43
 90
        3
102
RTVSPost2010PropOp43
 70
     1
102
RTVSPost2010Prop44ColorIndex
 90
        5
102
RTVSPost2010Prop44ColorRGB
 90
      255
102
RTVSPost2010PropOp44
 70
     1
102
RTVSPost2010Prop45
280
     0
102
RTVSPost2010PropOp45
 70
     1
102
RTVSPost2010Prop46
 90
       50
102
RTVSPost2010PropOp46
 70
     1
102
RTVSPost2010Prop47
 90
       50
102
RTVSPost2010PropOp47
 70
     1
102
RTVSPost2010Prop48
 90
       50
102
RTVSPost2010PropOp48
 70
     1
102
RTVSPost2010Prop49
280
     0
102
RTVSPost2010PropOp49
 70
     1
102
RTVSPost2010Prop50
 90
       50
102
RTVSPost2010PropOp50
 70
     1
102
RTVSPost2010Prop51ColorIndex
 90
      256
102
RTVSPost2010Prop51ColorRGB
 90
-16777216
102
RTVSPost2010PropOp51
 70
     0
102
RTVSPost2010Prop52
140
1.0
102
RTVSPost2010PropOp52
 70
     0
102
RTVSPost2010Prop53
 90
        2
102
RTVSPost2010PropOp53
 70
     1
102
RTVSPost2010Prop54
  1
strokes_ogs.tif
102
RTVSPost2010PropOp54
 70
     1
102
RTVSPost2010Prop55
280
     0
102
RTVSPost2010PropOp55
 70
     1
102
RTVSPost2010Prop56
140
1.0
102
RTVSPost2010PropOp56
 70
     1
102
RTVSPost2010Prop57
140
1.0
102
RTVSPost2010PropOp57
 70
     1
102
RTVSPropertyOp0
 70
     1
102
RTVSPropertyOp1
 70
     1
102
RTVSPropertyOp2
 70
     1
102
RTVSPropertyOp3
 70
     1
102
RTVSPropertyOp4
 70
     1
102
RTVSPropertyOp5
 70
     1
102
RTVSPropertyOp6
 70
     1
102
RTVSPropertyOp7
 70
     1
102
RTVSPropertyOp8
 70
     1
102
RTVSPropertyOp9
 70
     1
102
RTVSPropertyOp10
 70
     1
102
RTVSPropertyOp11
 70
     1
102
RTVSPropertyOp12
 70
     1
102
RTVSPropertyOp13
 70
     1
102
RTVSPropertyOp14
 70
     1
102
RTVSPropertyOp15
 70
     1
102
RTVSPropertyOp16
 70
     1
102
RTVSPropertyOp17
 70
     1
102
RTVSPropertyOp18
 70
     1
102
RTVSPropertyOp19
 70
     1
102
RTVSPropertyOp20
 70
     1
102
RTVSPropertyOp21
 70
     1
102
RTVSPropertyOp22
 70
     1
102
RTVSPropertyOp23
 70
     1
102
RTVSPropertyOp24
 70
     1
102
RTVSPropertyOp25
 70
     1
102
RTVSPropertyOp26
 70
     1
102
RTVSPropertyOp27
 70
     1
102
RTVSPropertyOp28
 70
     1
102
RTVSPropertyOp29
 70
     1
102
RTVSPropertyOp30
 70
     1
102
RTVSPropertyOp31
 70
     1
102
RTVSPropertyOp32
 70
     1
102
RTVSPropertyOp33
 70
     1
102
RTVSPropertyOp34
 70
     1
102
RTVSPropertyOp35
 70
     1
102
RTVSPropertyOp36
 70
     1
102
RTVSPropertyOp37
 70
     1
102
RTVSPropertyOp38
 70
     1
102
RTVSPropertyOp39
 70
     1
102
RTVSPropertyOp40
 70
     1
102
RTVSPropertyOp41
 70
     1
102
RTVSPropertyOp42
 70
     1
102
RTVSPropertyOp43
 70
     1
102
RTVSPropertyOp44
 70
     1
102
RTVSPropertyOp45
 70
     1
102
RTVSPropertyOp46
 70
     1
102
RTVSPropertyOp47
 70
     1
102
RTVSPropertyOp48
 70
     1
102
RTVSPropertyOp49
 70
     1
102
RTVSPropertyOp50
 70
     1
102
RTVSPropertyOp51
 70
     0
102
RTVSPropertyOp52
 70
     0
102
RTVSPropertyOp53
 70
     1
102
RTVSPropertyOp54
 70
     1
102
RTVSPropertyOp55
 70
     1
102
RTVSPropertyOp56
 70
     1
102
RTVSPropertyOp57
 70
     1
102
RTVSPropertyOp58
 70
     1
102
RTVSPropertyOp59
 70
     1
102
RTVSPropertyOp60
 70
     1
102
RTVSPropertyOp61
 70
     1
102
RTVSPropertyOp62
 70
     1
  0
XRECORD
  5
495
102
{ACAD_REACTORS
330
494
102
}
330
494
100
AcDbXrecord
280
     1
102
RTVSPost2010Prop28
280
     0
102
RTVSPost2010PropOp28
 70
     1
102
RTVSPost2010Prop29
280
     1
102
RTVSPost2010PropOp29
 70
     1
102
RTVSPost2010Prop30
280
     1
102
RTVSPost2010PropOp30
 70
     1
102
RTVSPost2010Prop31
280
     0
102
RTVSPost2010PropOp31
 70
     1
102
RTVSPost2010Prop32
280
     0
102
RTVSPost2010PropOp32
 70
     1
102
RTVSPost2010Prop33
280
     0
102
RTVSPost2010PropOp33
 70
     1
102
RTVSPost2010Prop34
280
     0
102
RTVSPost2010PropOp34
 70
     1
102
RTVSPost2010Prop35
280
     0
102
RTVSPost2010PropOp35
 70
     1
102
RTVSPost2010Prop36
280
     0
102
RTVSPost2010PropOp36
 70
     1
102
RTVSPost2010Prop37
 90
       50
102
RTVSPost2010PropOp37
 70
     0
102
RTVSPost2010Prop38
140
0.0
102
RTVSPost2010PropOp38
 70
     0
102
RTVSPost2010Prop39
140
1.0
102
RTVSPost2010PropOp39
 70
     0
102
RTVSPost2010Prop40
 90
        0
102
RTVSPost2010PropOp40
 70
     0
102
RTVSPost2010Prop41ColorIndex
 90
       18
102
RTVSPost2010Prop41ColorRGB
 90
        0
102
RTVSPost2010PropOp41
 70
     0
102
RTVSPost2010Prop42
 90
       50
102
RTVSPost2010PropOp42
 70
     0
102
RTVSPost2010Prop43
 90
        3
102
RTVSPost2010PropOp43
 70
     0
102
RTVSPost2010Prop44ColorIndex
 90
        5
102
RTVSPost2010Prop44ColorRGB
 90
      255
102
RTVSPost2010PropOp44
 70
     0
102
RTVSPost2010Prop45
280
     0
102
RTVSPost2010PropOp45
 70
     1
102
RTVSPost2010Prop46
 90
       50
102
RTVSPost2010PropOp46
 70
     0
102
RTVSPost2010Prop47
 90
       50
102
RTVSPost2010PropOp47
 70
     0
102
RTVSPost2010Prop48
 90
       50
102
RTVSPost2010PropOp48
 70
     0
102
RTVSPost2010Prop49
280
     0
102
RTVSPost2010PropOp49
 70
     1
102
RTVSPost2010Prop50
 90
       50
102
RTVSPost2010PropOp50
 70
     0
102
RTVSPost2010Prop51ColorIndex
 90
      256
102
RTVSPost2010Prop51ColorRGB
 90
-16777216
102
RTVSPost2010PropOp51
 70
     0
102
RTVSPost2010Prop52
140
1.0
102
RTVSPost2010PropOp52
 70
     0
102
RTVSPost2010Prop53
 90
        2
102
RTVSPost2010PropOp53
 70
     0
102
RTVSPost2010Prop54
  1
strokes_ogs.tif
102
RTVSPost2010PropOp54
 70
     0
102
RTVSPost2010Prop55
280
     0
102
RTVSPost2010PropOp55
 70
     1
102
RTVSPost2010Prop56
140
1.0
102
RTVSPost2010PropOp56
 70
     0
102
RTVSPost2010Prop57
140
1.0
102
RTVSPost2010PropOp57
 70
     0
102
RTVSPropertyOp0
 70
     0
102
RTVSPropertyOp1
 70
     0
102
RTVSPropertyOp2
 70
     0
102
RTVSPropertyOp3
 70
     0
102
RTVSPropertyOp4
 70
     0
102
RTVSPropertyOp5
 70
     0
102
RTVSPropertyOp6
 70
     0
102
RTVSPropertyOp7
 70
     0
102
RTVSPropertyOp8
 70
     0
102
RTVSPropertyOp9
 70
     0
102
RTVSPropertyOp10
 70
     0
102
RTVSPropertyOp11
 70
     0
102
RTVSPropertyOp12
 70
     0
102
RTVSPropertyOp13
 70
     0
102
RTVSPropertyOp14
 70
     2
102
RTVSPropertyOp15
 70
     0
102
RTVSPropertyOp16
 70
     0
102
RTVSPropertyOp17
 70
     0
102
RTVSPropertyOp18
 70
     0
102
RTVSPropertyOp19
 70
     0
102
RTVSPropertyOp20
 70
     0
102
RTVSPropertyOp21
 70
     0
102
RTVSPropertyOp22
 70
     0
102
RTVSPropertyOp23
 70
     0
102
RTVSPropertyOp24
 70
     0
102
RTVSPropertyOp25
 70
     0
102
RTVSPropertyOp26
 70
     0
102
RTVSPropertyOp27
 70
     0
102
RTVSPropertyOp28
 70
     1
102
RTVSPropertyOp29
 70
     1
102
RTVSPropertyOp30
 70
     1
102
RTVSPropertyOp31
 70
     1
102
RTVSPropertyOp32
 70
     1
102
RTVSPropertyOp33
 70
     1
102
RTVSPropertyOp34
 70
     1
102
RTVSPropertyOp35
 70
     1
102
RTVSPropertyOp36
 70
     1
102
RTVSPropertyOp37
 70
     0
102
RTVSPropertyOp38
 70
     0
102
RTVSPropertyOp39
 70
     0
102
RTVSPropertyOp40
 70
     0
102
RTVSPropertyOp41
 70
     0
102
RTVSPropertyOp42
 70
     0
102
RTVSPropertyOp43
 70
     0
102
RTVSPropertyOp44
 70
     0
102
RTVSPropertyOp45
 70
     1
102
RTVSPropertyOp46
 70
     0
102
RTVSPropertyOp47
 70
     0
102
RTVSPropertyOp48
 70
     0
102
RTVSPropertyOp49
 70
     1
102
RTVSPropertyOp50
 70
     0
102
RTVSPropertyOp51
 70
     0
102
RTVSPropertyOp52
 70
     0
102
RTVSPropertyOp53
 70
     0
102
RTVSPropertyOp54
 70
     0
102
RTVSPropertyOp55
 70
     1
102
RTVSPropertyOp56
 70
     0
102
RTVSPropertyOp57
 70
     0
102
RTVSPropertyOp58
 70
     0
102
RTVSPropertyOp59
 70
     0
102
RTVSPropertyOp60
 70
     0
102
RTVSPropertyOp61
 70
     0
102
RTVSPropertyOp62
 70
     0
  0
XRECORD
  5
485
102
{ACAD_REACTORS
330
484
102
}
330
484
100
AcDbXrecord
280
     1
102
RTVSPost2010Prop28
280
     0
102
RTVSPost2010PropOp28
 70
     1
102
RTVSPost2010Prop29
280
     1
102
RTVSPost2010PropOp29
 70
     1
102
RTVSPost2010Prop30
280
     1
102
RTVSPost2010PropOp30
 70
     1
102
RTVSPost2010Prop31
280
     0
102
RTVSPost2010PropOp31
 70
     1
102
RTVSPost2010Prop32
280
     0
102
RTVSPost2010PropOp32
 70
     1
102
RTVSPost2010Prop33
280
     0
102
RTVSPost2010PropOp33
 70
     1
102
RTVSPost2010Prop34
280
     0
102
RTVSPost2010PropOp34
 70
     1
102
RTVSPost2010Prop35
280
     0
102
RTVSPost2010PropOp35
 70
     1
102
RTVSPost2010Prop36
280
     0
102
RTVSPost2010PropOp36
 70
     1
102
RTVSPost2010Prop37
 90
       50
102
RTVSPost2010PropOp37
 70
     1
102
RTVSPost2010Prop38
140
0.0
102
RTVSPost2010PropOp38
 70
     1
102
RTVSPost2010Prop39
140
1.0
102
RTVSPost2010PropOp39
 70
     1
102
RTVSPost2010Prop40
 90
        0
102
RTVSPost2010PropOp40
 70
     1
102
RTVSPost2010Prop41ColorIndex
 90
       18
102
RTVSPost2010Prop41ColorRGB
 90
        0
102
RTVSPost2010PropOp41
 70
     1
102
RTVSPost2010Prop42
 90
       50
102
RTVSPost2010PropOp42
 70
     1
102
RTVSPost2010Prop43
 90
        3
102
RTVSPost2010PropOp43
 70
     1
102
RTVSPost2010Prop44ColorIndex
 90
        5
102
RTVSPost2010Prop44ColorRGB
 90
      255
102
RTVSPost2010PropOp44
 70
     1
102
RTVSPost2010Prop45
280
     0
102
RTVSPost2010PropOp45
 70
     1
102
RTVSPost2010Prop46
 90
       50
102
RTVSPost2010PropOp46
 70
     1
102
RTVSPost2010Prop47
 90
       50
102
RTVSPost2010PropOp47
 70
     1
102
RTVSPost2010Prop48
 90
       50
102
RTVSPost2010PropOp48
 70
     1
102
RTVSPost2010Prop49
280
     0
102
RTVSPost2010PropOp49
 70
     1
102
RTVSPost2010Prop50
 90
       50
102
RTVSPost2010PropOp50
 70
     1
102
RTVSPost2010Prop51ColorIndex
 90
      256
102
RTVSPost2010Prop51ColorRGB
 90
-16777216
102
RTVSPost2010PropOp51
 70
     0
102
RTVSPost2010Prop52
140
1.0
102
RTVSPost2010PropOp52
 70
     0
102
RTVSPost2010Prop53
 90
        2
102
RTVSPost2010PropOp53
 70
     1
102
RTVSPost2010Prop54
  1
strokes_ogs.tif
102
RTVSPost2010PropOp54
 70
     1
102
RTVSPost2010Prop55
280
     0
102
RTVSPost2010PropOp55
 70
     1
102
RTVSPost2010Prop56
140
1.0
102
RTVSPost2010PropOp56
 70
     1
102
RTVSPost2010Prop57
140
1.0
102
RTVSPost2010PropOp57
 70
     1
102
RTVSPropertyOp0
 70
     1
102
RTVSPropertyOp1
 70
     1
102
RTVSPropertyOp2
 70
     1
102
RTVSPropertyOp3
 70
     1
102
RTVSPropertyOp4
 70
     1
102
RTVSPropertyOp5
 70
     1
102
RTVSPropertyOp6
 70
     1
102
RTVSPropertyOp7
 70
     1
102
RTVSPropertyOp8
 70
     1
102
RTVSPropertyOp9
 70
     1
102
RTVSPropertyOp10
 70
     1
102
RTVSPropertyOp11
 70
     1
102
RTVSPropertyOp12
 70
     1
102
RTVSPropertyOp13
 70
     1
102
RTVSPropertyOp14
 70
     1
102
RTVSPropertyOp15
 70
     1
102
RTVSPropertyOp16
 70
     1
102
RTVSPropertyOp17
 70
     1
102
RTVSPropertyOp18
 70
     1
102
RTVSPropertyOp19
 70
     1
102
RTVSPropertyOp20
 70
     1
102
RTVSPropertyOp21
 70
     1
102
RTVSPropertyOp22
 70
     1
102
RTVSPropertyOp23
 70
     1
102
RTVSPropertyOp24
 70
     1
102
RTVSPropertyOp25
 70
     1
102
RTVSPropertyOp26
 70
     1
102
RTVSPropertyOp27
 70
     1
102
RTVSPropertyOp28
 70
     1
102
RTVSPropertyOp29
 70
     1
102
RTVSPropertyOp30
 70
     1
102
RTVSPropertyOp31
 70
     1
102
RTVSPropertyOp32
 70
     1
102
RTVSPropertyOp33
 70
     1
102
RTVSPropertyOp34
 70
     1
102
RTVSPropertyOp35
 70
     1
102
RTVSPropertyOp36
 70
     1
102
RTVSPropertyOp37
 70
     1
102
RTVSPropertyOp38
 70
     1
102
RTVSPropertyOp39
 70
     1
102
RTVSPropertyOp40
 70
     1
102
RTVSPropertyOp41
 70
     1
102
RTVSPropertyOp42
 70
     1
102
RTVSPropertyOp43
 70
     1
102
RTVSPropertyOp44
 70
     1
102
RTVSPropertyOp45
 70
     1
102
RTVSPropertyOp46
 70
     1
102
RTVSPropertyOp47
 70
     1
102
RTVSPropertyOp48
 70
     1
102
RTVSPropertyOp49
 70
     1
102
RTVSPropertyOp50
 70
     1
102
RTVSPropertyOp51
 70
     0
102
RTVSPropertyOp52
 70
     0
102
RTVSPropertyOp53
 70
     1
102
RTVSPropertyOp54
 70
     1
102
RTVSPropertyOp55
 70
     1
102
RTVSPropertyOp56
 70
     1
102
RTVSPropertyOp57
 70
     1
102
RTVSPropertyOp58
 70
     1
102
RTVSPropertyOp59
 70
     1
102
RTVSPropertyOp60
 70
     1
102
RTVSPropertyOp61
 70
     1
102
RTVSPropertyOp62
 70
     1
  0
XRECORD
  5
497
102
{ACAD_REACTORS
330
496
102
}
330
496
100
AcDbXrecord
280
     1
102
RTVSPost2010Prop28
280
     0
102
RTVSPost2010PropOp28
 70
     1
102
RTVSPost2010Prop29
280
     1
102
RTVSPost2010PropOp29
 70
     1
102
RTVSPost2010Prop30
280
     1
102
RTVSPost2010PropOp30
 70
     1
102
RTVSPost2010Prop31
280
     0
102
RTVSPost2010PropOp31
 70
     1
102
RTVSPost2010Prop32
280
     0
102
RTVSPost2010PropOp32
 70
     1
102
RTVSPost2010Prop33
280
     0
102
RTVSPost2010PropOp33
 70
     1
102
RTVSPost2010Prop34
280
     0
102
RTVSPost2010PropOp34
 70
     1
102
RTVSPost2010Prop35
280
     0
102
RTVSPost2010PropOp35
 70
     1
102
RTVSPost2010Prop36
280
     0
102
RTVSPost2010PropOp36
 70
     1
102
RTVSPost2010Prop37
 90
       50
102
RTVSPost2010PropOp37
 70
     0
102
RTVSPost2010Prop38
140
0.0
102
RTVSPost2010PropOp38
 70
     0
102
RTVSPost2010Prop39
140
1.0
102
RTVSPost2010PropOp39
 70
     0
102
RTVSPost2010Prop40
 90
        0
102
RTVSPost2010PropOp40
 70
     0
102
RTVSPost2010Prop41ColorIndex
 90
       18
102
RTVSPost2010Prop41ColorRGB
 90
        0
102
RTVSPost2010PropOp41
 70
     0
102
RTVSPost2010Prop42
 90
       50
102
RTVSPost2010PropOp42
 70
     0
102
RTVSPost2010Prop43
 90
        3
102
RTVSPost2010PropOp43
 70
     0
102
RTVSPost2010Prop44ColorIndex
 90
        5
102
RTVSPost2010Prop44ColorRGB
 90
      255
102
RTVSPost2010PropOp44
 70
     0
102
RTVSPost2010Prop45
280
     0
102
RTVSPost2010PropOp45
 70
     1
102
RTVSPost2010Prop46
 90
       50
102
RTVSPost2010PropOp46
 70
     0
102
RTVSPost2010Prop47
 90
       50
102
RTVSPost2010PropOp47
 70
     0
102
RTVSPost2010Prop48
 90
       50
102
RTVSPost2010PropOp48
 70
     0
102
RTVSPost2010Prop49
280
     0
102
RTVSPost2010PropOp49
 70
     1
102
RTVSPost2010Prop50
 90
       50
102
RTVSPost2010PropOp50
 70
     0
102
RTVSPost2010Prop51ColorIndex
 90
      256
102
RTVSPost2010Prop51ColorRGB
 90
-16777216
102
RTVSPost2010PropOp51
 70
     0
102
RTVSPost2010Prop52
140
1.0
102
RTVSPost2010PropOp52
 70
     0
102
RTVSPost2010Prop53
 90
        2
102
RTVSPost2010PropOp53
 70
     0
102
RTVSPost2010Prop54
  1
strokes_ogs.tif
102
RTVSPost2010PropOp54
 70
     0
102
RTVSPost2010Prop55
280
     0
102
RTVSPost2010PropOp55
 70
     1
102
RTVSPost2010Prop56
140
1.0
102
RTVSPost2010PropOp56
 70
     0
102
RTVSPost2010Prop57
140
1.0
102
RTVSPost2010PropOp57
 70
     0
102
RTVSPropertyOp0
 70
     0
102
RTVSPropertyOp1
 70
     0
102
RTVSPropertyOp2
 70
     0
102
RTVSPropertyOp3
 70
     0
102
RTVSPropertyOp4
 70
     0
102
RTVSPropertyOp5
 70
     0
102
RTVSPropertyOp6
 70
     0
102
RTVSPropertyOp7
 70
     0
102
RTVSPropertyOp8
 70
     0
102
RTVSPropertyOp9
 70
     0
102
RTVSPropertyOp10
 70
     0
102
RTVSPropertyOp11
 70
     0
102
RTVSPropertyOp12
 70
     0
102
RTVSPropertyOp13
 70
     0
102
RTVSPropertyOp14
 70
     2
102
RTVSPropertyOp15
 70
     0
102
RTVSPropertyOp16
 70
     0
102
RTVSPropertyOp17
 70
     0
102
RTVSPropertyOp18
 70
     0
102
RTVSPropertyOp19
 70
     0
102
RTVSPropertyOp20
 70
     0
102
RTVSPropertyOp21
 70
     0
102
RTVSPropertyOp22
 70
     0
102
RTVSPropertyOp23
 70
     0
102
RTVSPropertyOp24
 70
     0
102
RTVSPropertyOp25
 70
     0
102
RTVSPropertyOp26
 70
     0
102
RTVSPropertyOp27
 70
     0
102
RTVSPropertyOp28
 70
     1
102
RTVSPropertyOp29
 70
     1
102
RTVSPropertyOp30
 70
     1
102
RTVSPropertyOp31
 70
     1
102
RTVSPropertyOp32
 70
     1
102
RTVSPropertyOp33
 70
     1
102
RTVSPropertyOp34
 70
     1
102
RTVSPropertyOp35
 70
     1
102
RTVSPropertyOp36
 70
     1
102
RTVSPropertyOp37
 70
     0
102
RTVSPropertyOp38
 70
     0
102
RTVSPropertyOp39
 70
     0
102
RTVSPropertyOp40
 70
     0
102
RTVSPropertyOp41
 70
     0
102
RTVSPropertyOp42
 70
     0
102
RTVSPropertyOp43
 70
     0
102
RTVSPropertyOp44
 70
     0
102
RTVSPropertyOp45
 70
     1
102
RTVSPropertyOp46
 70
     0
102
RTVSPropertyOp47
 70
     0
102
RTVSPropertyOp48
 70
     0
102
RTVSPropertyOp49
 70
     1
102
RTVSPropertyOp50
 70
     0
102
RTVSPropertyOp51
 70
     0
102
RTVSPropertyOp52
 70
     0
102
RTVSPropertyOp53
 70
     0
102
RTVSPropertyOp54
 70
     0
102
RTVSPropertyOp55
 70
     1
102
RTVSPropertyOp56
 70
     0
102
RTVSPropertyOp57
 70
     0
102
RTVSPropertyOp58
 70
     0
102
RTVSPropertyOp59
 70
     0
102
RTVSPropertyOp60
 70
     0
102
RTVSPropertyOp61
 70
     0
102
RTVSPropertyOp62
 70
     0
  0
XRECORD
  5
47D
102
{ACAD_REACTORS
330
47C
102
}
330
47C
100
AcDbXrecord
280
     1
102
RTVSPost2010Prop28
280
     0
102
RTVSPost2010PropOp28
 70
     1
102
RTVSPost2010Prop29
280
     1
102
RTVSPost2010PropOp29
 70
     1
102
RTVSPost2010Prop30
280
     1
102
RTVSPost2010PropOp30
 70
     1
102
RTVSPost2010Prop31
280
     0
102
RTVSPost2010PropOp31
 70
     1
102
RTVSPost2010Prop32
280
     0
102
RTVSPost2010PropOp32
 70
     1
102
RTVSPost2010Prop33
280
     0
102
RTVSPost2010PropOp33
 70
     1
102
RTVSPost2010Prop34
280
     0
102
RTVSPost2010PropOp34
 70
     1
102
RTVSPost2010Prop35
280
     0
102
RTVSPost2010PropOp35
 70
     1
102
RTVSPost2010Prop36
280
     0
102
RTVSPost2010PropOp36
 70
     1
102
RTVSPost2010Prop37
 90
       50
102
RTVSPost2010PropOp37
 70
     1
102
RTVSPost2010Prop38
140
0.0
102
RTVSPost2010PropOp38
 70
     1
102
RTVSPost2010Prop39
140
1.0
102
RTVSPost2010PropOp39
 70
     1
102
RTVSPost2010Prop40
 90
        0
102
RTVSPost2010PropOp40
 70
     1
102
RTVSPost2010Prop41ColorIndex
 90
       18
102
RTVSPost2010Prop41ColorRGB
 90
        0
102
RTVSPost2010PropOp41
 70
     1
102
RTVSPost2010Prop42
 90
       50
102
RTVSPost2010PropOp42
 70
     1
102
RTVSPost2010Prop43
 90
        3
102
RTVSPost2010PropOp43
 70
     1
102
RTVSPost2010Prop44ColorIndex
 90
        5
102
RTVSPost2010Prop44ColorRGB
 90
      255
102
RTVSPost2010PropOp44
 70
     1
102
RTVSPost2010Prop45
280
     0
102
RTVSPost2010PropOp45
 70
     1
102
RTVSPost2010Prop46
 90
       50
102
RTVSPost2010PropOp46
 70
     1
102
RTVSPost2010Prop47
 90
       50
102
RTVSPost2010PropOp47
 70
     1
102
RTVSPost2010Prop48
 90
       50
102
RTVSPost2010PropOp48
 70
     1
102
RTVSPost2010Prop49
280
     0
102
RTVSPost2010PropOp49
 70
     1
102
RTVSPost2010Prop50
 90
       50
102
RTVSPost2010PropOp50
 70
     1
102
RTVSPost2010Prop51ColorIndex
 90
      256
102
RTVSPost2010Prop51ColorRGB
 90
-16777216
102
RTVSPost2010PropOp51
 70
     0
102
RTVSPost2010Prop52
140
1.0
102
RTVSPost2010PropOp52
 70
     0
102
RTVSPost2010Prop53
 90
        2
102
RTVSPost2010PropOp53
 70
     1
102
RTVSPost2010Prop54
  1
strokes_ogs.tif
102
RTVSPost2010PropOp54
 70
     1
102
RTVSPost2010Prop55
280
     0
102
RTVSPost2010PropOp55
 70
     1
102
RTVSPost2010Prop56
140
1.0
102
RTVSPost2010PropOp56
 70
     1
102
RTVSPost2010Prop57
140
1.0
102
RTVSPost2010PropOp57
 70
     1
102
RTVSPropertyOp0
 70
     1
102
RTVSPropertyOp1
 70
     1
102
RTVSPropertyOp2
 70
     1
102
RTVSPropertyOp3
 70
     1
102
RTVSPropertyOp4
 70
     1
102
RTVSPropertyOp5
 70
     1
102
RTVSPropertyOp6
 70
     1
102
RTVSPropertyOp7
 70
     1
102
RTVSPropertyOp8
 70
     1
102
RTVSPropertyOp9
 70
     1
102
RTVSPropertyOp10
 70
     1
102
RTVSPropertyOp11
 70
     1
102
RTVSPropertyOp12
 70
     1
102
RTVSPropertyOp13
 70
     1
102
RTVSPropertyOp14
 70
     1
102
RTVSPropertyOp15
 70
     1
102
RTVSPropertyOp16
 70
     1
102
RTVSPropertyOp17
 70
     1
102
RTVSPropertyOp18
 70
     1
102
RTVSPropertyOp19
 70
     1
102
RTVSPropertyOp20
 70
     1
102
RTVSPropertyOp21
 70
     1
102
RTVSPropertyOp22
 70
     1
102
RTVSPropertyOp23
 70
     1
102
RTVSPropertyOp24
 70
     1
102
RTVSPropertyOp25
 70
     1
102
RTVSPropertyOp26
 70
     1
102
RTVSPropertyOp27
 70
     1
102
RTVSPropertyOp28
 70
     1
102
RTVSPropertyOp29
 70
     1
102
RTVSPropertyOp30
 70
     1
102
RTVSPropertyOp31
 70
     1
102
RTVSPropertyOp32
 70
     1
102
RTVSPropertyOp33
 70
     1
102
RTVSPropertyOp34
 70
     1
102
RTVSPropertyOp35
 70
     1
102
RTVSPropertyOp36
 70
     1
102
RTVSPropertyOp37
 70
     1
102
RTVSPropertyOp38
 70
     1
102
RTVSPropertyOp39
 70
     1
102
RTVSPropertyOp40
 70
     1
102
RTVSPropertyOp41
 70
     1
102
RTVSPropertyOp42
 70
     1
102
RTVSPropertyOp43
 70
     1
102
RTVSPropertyOp44
 70
     1
102
RTVSPropertyOp45
 70
     1
102
RTVSPropertyOp46
 70
     1
102
RTVSPropertyOp47
 70
     1
102
RTVSPropertyOp48
 70
     1
102
RTVSPropertyOp49
 70
     1
102
RTVSPropertyOp50
 70
     1
102
RTVSPropertyOp51
 70
     0
102
RTVSPropertyOp52
 70
     0
102
RTVSPropertyOp53
 70
     1
102
RTVSPropertyOp54
 70
     1
102
RTVSPropertyOp55
 70
     1
102
RTVSPropertyOp56
 70
     1
102
RTVSPropertyOp57
 70
     1
102
RTVSPropertyOp58
 70
     1
102
RTVSPropertyOp59
 70
     1
102
RTVSPropertyOp60
 70
     1
102
RTVSPropertyOp61
 70
     1
102
RTVSPropertyOp62
 70
     1
  0
XRECORD
  5
493
102
{ACAD_REACTORS
330
492
102
}
330
492
100
AcDbXrecord
280
     1
102
RTVSPost2010Prop28
280
     0
102
RTVSPost2010PropOp28
 70
     1
102
RTVSPost2010Prop29
280
     1
102
RTVSPost2010PropOp29
 70
     1
102
RTVSPost2010Prop30
280
     1
102
RTVSPost2010PropOp30
 70
     1
102
RTVSPost2010Prop31
280
     0
102
RTVSPost2010PropOp31
 70
     1
102
RTVSPost2010Prop32
280
     0
102
RTVSPost2010PropOp32
 70
     1
102
RTVSPost2010Prop33
280
     0
102
RTVSPost2010PropOp33
 70
     1
102
RTVSPost2010Prop34
280
     0
102
RTVSPost2010PropOp34
 70
     1
102
RTVSPost2010Prop35
280
     0
102
RTVSPost2010PropOp35
 70
     1
102
RTVSPost2010Prop36
280
     0
102
RTVSPost2010PropOp36
 70
     1
102
RTVSPost2010Prop37
 90
       50
102
RTVSPost2010PropOp37
 70
     1
102
RTVSPost2010Prop38
140
0.0
102
RTVSPost2010PropOp38
 70
     1
102
RTVSPost2010Prop39
140
1.0
102
RTVSPost2010PropOp39
 70
     1
102
RTVSPost2010Prop40
 90
        0
102
RTVSPost2010PropOp40
 70
     1
102
RTVSPost2010Prop41ColorIndex
 90
       18
102
RTVSPost2010Prop41ColorRGB
 90
        0
102
RTVSPost2010PropOp41
 70
     1
102
RTVSPost2010Prop42
 90
       50
102
RTVSPost2010PropOp42
 70
     1
102
RTVSPost2010Prop43
 90
        3
102
RTVSPost2010PropOp43
 70
     1
102
RTVSPost2010Prop44ColorIndex
 90
        5
102
RTVSPost2010Prop44ColorRGB
 90
      255
102
RTVSPost2010PropOp44
 70
     1
102
RTVSPost2010Prop45
280
     0
102
RTVSPost2010PropOp45
 70
     1
102
RTVSPost2010Prop46
 90
       50
102
RTVSPost2010PropOp46
 70
     1
102
RTVSPost2010Prop47
 90
       50
102
RTVSPost2010PropOp47
 70
     1
102
RTVSPost2010Prop48
 90
       50
102
RTVSPost2010PropOp48
 70
     1
102
RTVSPost2010Prop49
280
     0
102
RTVSPost2010PropOp49
 70
     1
102
RTVSPost2010Prop50
 90
       50
102
RTVSPost2010PropOp50
 70
     1
102
RTVSPost2010Prop51ColorIndex
 90
      256
102
RTVSPost2010Prop51ColorRGB
 90
-16777216
102
RTVSPost2010PropOp51
 70
     0
102
RTVSPost2010Prop52
140
1.0
102
RTVSPost2010PropOp52
 70
     0
102
RTVSPost2010Prop53
 90
        2
102
RTVSPost2010PropOp53
 70
     1
102
RTVSPost2010Prop54
  1
strokes_ogs.tif
102
RTVSPost2010PropOp54
 70
     1
102
RTVSPost2010Prop55
280
     0
102
RTVSPost2010PropOp55
 70
     1
102
RTVSPost2010Prop56
140
1.0
102
RTVSPost2010PropOp56
 70
     1
102
RTVSPost2010Prop57
140
1.0
102
RTVSPost2010PropOp57
 70
     1
102
RTVSPropertyOp0
 70
     1
102
RTVSPropertyOp1
 70
     1
102
RTVSPropertyOp2
 70
     1
102
RTVSPropertyOp3
 70
     1
102
RTVSPropertyOp4
 70
     1
102
RTVSPropertyOp5
 70
     1
102
RTVSPropertyOp6
 70
     1
102
RTVSPropertyOp7
 70
     1
102
RTVSPropertyOp8
 70
     1
102
RTVSPropertyOp9
 70
     1
102
RTVSPropertyOp10
 70
     1
102
RTVSPropertyOp11
 70
     1
102
RTVSPropertyOp12
 70
     1
102
RTVSPropertyOp13
 70
     1
102
RTVSPropertyOp14
 70
     1
102
RTVSPropertyOp15
 70
     1
102
RTVSPropertyOp16
 70
     1
102
RTVSPropertyOp17
 70
     1
102
RTVSPropertyOp18
 70
     1
102
RTVSPropertyOp19
 70
     1
102
RTVSPropertyOp20
 70
     1
102
RTVSPropertyOp21
 70
     1
102
RTVSPropertyOp22
 70
     1
102
RTVSPropertyOp23
 70
     1
102
RTVSPropertyOp24
 70
     1
102
RTVSPropertyOp25
 70
     1
102
RTVSPropertyOp26
 70
     1
102
RTVSPropertyOp27
 70
     1
102
RTVSPropertyOp28
 70
     1
102
RTVSPropertyOp29
 70
     1
102
RTVSPropertyOp30
 70
     1
102
RTVSPropertyOp31
 70
     1
102
RTVSPropertyOp32
 70
     1
102
RTVSPropertyOp33
 70
     1
102
RTVSPropertyOp34
 70
     1
102
RTVSPropertyOp35
 70
     1
102
RTVSPropertyOp36
 70
     1
102
RTVSPropertyOp37
 70
     1
102
RTVSPropertyOp38
 70
     1
102
RTVSPropertyOp39
 70
     1
102
RTVSPropertyOp40
 70
     1
102
RTVSPropertyOp41
 70
     1
102
RTVSPropertyOp42
 70
     1
102
RTVSPropertyOp43
 70
     1
102
RTVSPropertyOp44
 70
     1
102
RTVSPropertyOp45
 70
     1
102
RTVSPropertyOp46
 70
     1
102
RTVSPropertyOp47
 70
     1
102
RTVSPropertyOp48
 70
     1
102
RTVSPropertyOp49
 70
     1
102
RTVSPropertyOp50
 70
     1
102
RTVSPropertyOp51
 70
     0
102
RTVSPropertyOp52
 70
     0
102
RTVSPropertyOp53
 70
     1
102
RTVSPropertyOp54
 70
     1
102
RTVSPropertyOp55
 70
     1
102
RTVSPropertyOp56
 70
     1
102
RTVSPropertyOp57
 70
     1
102
RTVSPropertyOp58
 70
     1
102
RTVSPropertyOp59
 70
     1
102
RTVSPropertyOp60
 70
     1
102
RTVSPropertyOp61
 70
     1
102
RTVSPropertyOp62
 70
     1
  0
XRECORD
  5
491
102
{ACAD_REACTORS
330
490
102
}
330
490
100
AcDbXrecord
280
     1
102
RTVSPost2010Prop28
280
     0
102
RTVSPost2010PropOp28
 70
     1
102
RTVSPost2010Prop29
280
     1
102
RTVSPost2010PropOp29
 70
     1
102
RTVSPost2010Prop30
280
     1
102
RTVSPost2010PropOp30
 70
     1
102
RTVSPost2010Prop31
280
     0
102
RTVSPost2010PropOp31
 70
     1
102
RTVSPost2010Prop32
280
     0
102
RTVSPost2010PropOp32
 70
     1
102
RTVSPost2010Prop33
280
     0
102
RTVSPost2010PropOp33
 70
     1
102
RTVSPost2010Prop34
280
     0
102
RTVSPost2010PropOp34
 70
     1
102
RTVSPost2010Prop35
280
     0
102
RTVSPost2010PropOp35
 70
     1
102
RTVSPost2010Prop36
280
     0
102
RTVSPost2010PropOp36
 70
     1
102
RTVSPost2010Prop37
 90
       50
102
RTVSPost2010PropOp37
 70
     1
102
RTVSPost2010Prop38
140
0.0
102
RTVSPost2010PropOp38
 70
     1
102
RTVSPost2010Prop39
140
1.0
102
RTVSPost2010PropOp39
 70
     1
102
RTVSPost2010Prop40
 90
        0
102
RTVSPost2010PropOp40
 70
     1
102
RTVSPost2010Prop41ColorIndex
 90
       18
102
RTVSPost2010Prop41ColorRGB
 90
        0
102
RTVSPost2010PropOp41
 70
     1
102
RTVSPost2010Prop42
 90
       50
102
RTVSPost2010PropOp42
 70
     1
102
RTVSPost2010Prop43
 90
        3
102
RTVSPost2010PropOp43
 70
     1
102
RTVSPost2010Prop44ColorIndex
 90
        5
102
RTVSPost2010Prop44ColorRGB
 90
      255
102
RTVSPost2010PropOp44
 70
     1
102
RTVSPost2010Prop45
280
     0
102
RTVSPost2010PropOp45
 70
     1
102
RTVSPost2010Prop46
 90
       50
102
RTVSPost2010PropOp46
 70
     1
102
RTVSPost2010Prop47
 90
       50
102
RTVSPost2010PropOp47
 70
     1
102
RTVSPost2010Prop48
 90
       50
102
RTVSPost2010PropOp48
 70
     1
102
RTVSPost2010Prop49
280
     0
102
RTVSPost2010PropOp49
 70
     1
102
RTVSPost2010Prop50
 90
       50
102
RTVSPost2010PropOp50
 70
     1
102
RTVSPost2010Prop51ColorIndex
 90
      256
102
RTVSPost2010Prop51ColorRGB
 90
-16777216
102
RTVSPost2010PropOp51
 70
     0
102
RTVSPost2010Prop52
140
1.0
102
RTVSPost2010PropOp52
 70
     0
102
RTVSPost2010Prop53
 90
        2
102
RTVSPost2010PropOp53
 70
     1
102
RTVSPost2010Prop54
  1
strokes_ogs.tif
102
RTVSPost2010PropOp54
 70
     1
102
RTVSPost2010Prop55
280
     0
102
RTVSPost2010PropOp55
 70
     1
102
RTVSPost2010Prop56
140
1.0
102
RTVSPost2010PropOp56
 70
     1
102
RTVSPost2010Prop57
140
1.0
102
RTVSPost2010PropOp57
 70
     1
102
RTVSPropertyOp0
 70
     1
102
RTVSPropertyOp1
 70
     1
102
RTVSPropertyOp2
 70
     1
102
RTVSPropertyOp3
 70
     1
102
RTVSPropertyOp4
 70
     1
102
RTVSPropertyOp5
 70
     1
102
RTVSPropertyOp6
 70
     1
102
RTVSPropertyOp7
 70
     1
102
RTVSPropertyOp8
 70
     1
102
RTVSPropertyOp9
 70
     1
102
RTVSPropertyOp10
 70
     1
102
RTVSPropertyOp11
 70
     1
102
RTVSPropertyOp12
 70
     1
102
RTVSPropertyOp13
 70
     1
102
RTVSPropertyOp14
 70
     1
102
RTVSPropertyOp15
 70
     1
102
RTVSPropertyOp16
 70
     1
102
RTVSPropertyOp17
 70
     1
102
RTVSPropertyOp18
 70
     1
102
RTVSPropertyOp19
 70
     1
102
RTVSPropertyOp20
 70
     1
102
RTVSPropertyOp21
 70
     1
102
RTVSPropertyOp22
 70
     1
102
RTVSPropertyOp23
 70
     1
102
RTVSPropertyOp24
 70
     1
102
RTVSPropertyOp25
 70
     1
102
RTVSPropertyOp26
 70
     1
102
RTVSPropertyOp27
 70
     1
102
RTVSPropertyOp28
 70
     1
102
RTVSPropertyOp29
 70
     1
102
RTVSPropertyOp30
 70
     1
102
RTVSPropertyOp31
 70
     1
102
RTVSPropertyOp32
 70
     1
102
RTVSPropertyOp33
 70
     1
102
RTVSPropertyOp34
 70
     1
102
RTVSPropertyOp35
 70
     1
102
RTVSPropertyOp36
 70
     1
102
RTVSPropertyOp37
 70
     1
102
RTVSPropertyOp38
 70
     1
102
RTVSPropertyOp39
 70
     1
102
RTVSPropertyOp40
 70
     1
102
RTVSPropertyOp41
 70
     1
102
RTVSPropertyOp42
 70
     1
102
RTVSPropertyOp43
 70
     1
102
RTVSPropertyOp44
 70
     1
102
RTVSPropertyOp45
 70
     1
102
RTVSPropertyOp46
 70
     1
102
RTVSPropertyOp47
 70
     1
102
RTVSPropertyOp48
 70
     1
102
RTVSPropertyOp49
 70
     1
102
RTVSPropertyOp50
 70
     1
102
RTVSPropertyOp51
 70
     0
102
RTVSPropertyOp52
 70
     0
102
RTVSPropertyOp53
 70
     1
102
RTVSPropertyOp54
 70
     1
102
RTVSPropertyOp55
 70
     1
102
RTVSPropertyOp56
 70
     1
102
RTVSPropertyOp57
 70
     1
102
RTVSPropertyOp58
 70
     1
102
RTVSPropertyOp59
 70
     1
102
RTVSPropertyOp60
 70
     1
102
RTVSPropertyOp61
 70
     1
102
RTVSPropertyOp62
 70
     1
  0
XRECORD
  5
48B
102
{ACAD_REACTORS
330
48A
102
}
330
48A
100
AcDbXrecord
280
     1
102
RTVSPost2010Prop28
280
     0
102
RTVSPost2010PropOp28
 70
     1
102
RTVSPost2010Prop29
280
     1
102
RTVSPost2010PropOp29
 70
     1
102
RTVSPost2010Prop30
280
     1
102
RTVSPost2010PropOp30
 70
     1
102
RTVSPost2010Prop31
280
     0
102
RTVSPost2010PropOp31
 70
     1
102
RTVSPost2010Prop32
280
     0
102
RTVSPost2010PropOp32
 70
     1
102
RTVSPost2010Prop33
280
     0
102
RTVSPost2010PropOp33
 70
     1
102
RTVSPost2010Prop34
280
     0
102
RTVSPost2010PropOp34
 70
     1
102
RTVSPost2010Prop35
280
     0
102
RTVSPost2010PropOp35
 70
     1
102
RTVSPost2010Prop36
280
     0
102
RTVSPost2010PropOp36
 70
     1
102
RTVSPost2010Prop37
 90
       50
102
RTVSPost2010PropOp37
 70
     1
102
RTVSPost2010Prop38
140
0.0
102
RTVSPost2010PropOp38
 70
     1
102
RTVSPost2010Prop39
140
1.0
102
RTVSPost2010PropOp39
 70
     1
102
RTVSPost2010Prop40
 90
        0
102
RTVSPost2010PropOp40
 70
     1
102
RTVSPost2010Prop41ColorIndex
 90
       18
102
RTVSPost2010Prop41ColorRGB
 90
        0
102
RTVSPost2010PropOp41
 70
     1
102
RTVSPost2010Prop42
 90
       50
102
RTVSPost2010PropOp42
 70
     1
102
RTVSPost2010Prop43
 90
        3
102
RTVSPost2010PropOp43
 70
     1
102
RTVSPost2010Prop44ColorIndex
 90
        5
102
RTVSPost2010Prop44ColorRGB
 90
      255
102
RTVSPost2010PropOp44
 70
     1
102
RTVSPost2010Prop45
280
     0
102
RTVSPost2010PropOp45
 70
     1
102
RTVSPost2010Prop46
 90
       50
102
RTVSPost2010PropOp46
 70
     1
102
RTVSPost2010Prop47
 90
       50
102
RTVSPost2010PropOp47
 70
     1
102
RTVSPost2010Prop48
 90
       50
102
RTVSPost2010PropOp48
 70
     1
102
RTVSPost2010Prop49
280
     0
102
RTVSPost2010PropOp49
 70
     1
102
RTVSPost2010Prop50
 90
       50
102
RTVSPost2010PropOp50
 70
     1
102
RTVSPost2010Prop51ColorIndex
 90
      256
102
RTVSPost2010Prop51ColorRGB
 90
-16777216
102
RTVSPost2010PropOp51
 70
     0
102
RTVSPost2010Prop52
140
1.0
102
RTVSPost2010PropOp52
 70
     0
102
RTVSPost2010Prop53
 90
        2
102
RTVSPost2010PropOp53
 70
     1
102
RTVSPost2010Prop54
  1
strokes_ogs.tif
102
RTVSPost2010PropOp54
 70
     1
102
RTVSPost2010Prop55
280
     0
102
RTVSPost2010PropOp55
 70
     1
102
RTVSPost2010Prop56
140
1.0
102
RTVSPost2010PropOp56
 70
     1
102
RTVSPost2010Prop57
140
1.0
102
RTVSPost2010PropOp57
 70
     1
102
RTVSPropertyOp0
 70
     1
102
RTVSPropertyOp1
 70
     1
102
RTVSPropertyOp2
 70
     1
102
RTVSPropertyOp3
 70
     1
102
RTVSPropertyOp4
 70
     1
102
RTVSPropertyOp5
 70
     1
102
RTVSPropertyOp6
 70
     1
102
RTVSPropertyOp7
 70
     1
102
RTVSPropertyOp8
 70
     1
102
RTVSPropertyOp9
 70
     1
102
RTVSPropertyOp10
 70
     1
102
RTVSPropertyOp11
 70
     1
102
RTVSPropertyOp12
 70
     1
102
RTVSPropertyOp13
 70
     1
102
RTVSPropertyOp14
 70
     1
102
RTVSPropertyOp15
 70
     1
102
RTVSPropertyOp16
 70
     1
102
RTVSPropertyOp17
 70
     1
102
RTVSPropertyOp18
 70
     1
102
RTVSPropertyOp19
 70
     1
102
RTVSPropertyOp20
 70
     1
102
RTVSPropertyOp21
 70
     1
102
RTVSPropertyOp22
 70
     1
102
RTVSPropertyOp23
 70
     1
102
RTVSPropertyOp24
 70
     1
102
RTVSPropertyOp25
 70
     1
102
RTVSPropertyOp26
 70
     1
102
RTVSPropertyOp27
 70
     1
102
RTVSPropertyOp28
 70
     1
102
RTVSPropertyOp29
 70
     1
102
RTVSPropertyOp30
 70
     1
102
RTVSPropertyOp31
 70
     1
102
RTVSPropertyOp32
 70
     1
102
RTVSPropertyOp33
 70
     1
102
RTVSPropertyOp34
 70
     1
102
RTVSPropertyOp35
 70
     1
102
RTVSPropertyOp36
 70
     1
102
RTVSPropertyOp37
 70
     1
102
RTVSPropertyOp38
 70
     1
102
RTVSPropertyOp39
 70
     1
102
RTVSPropertyOp40
 70
     1
102
RTVSPropertyOp41
 70
     1
102
RTVSPropertyOp42
 70
     1
102
RTVSPropertyOp43
 70
     1
102
RTVSPropertyOp44
 70
     1
102
RTVSPropertyOp45
 70
     1
102
RTVSPropertyOp46
 70
     1
102
RTVSPropertyOp47
 70
     1
102
RTVSPropertyOp48
 70
     1
102
RTVSPropertyOp49
 70
     1
102
RTVSPropertyOp50
 70
     1
102
RTVSPropertyOp51
 70
     0
102
RTVSPropertyOp52
 70
     0
102
RTVSPropertyOp53
 70
     1
102
RTVSPropertyOp54
 70
     1
102
RTVSPropertyOp55
 70
     1
102
RTVSPropertyOp56
 70
     1
102
RTVSPropertyOp57
 70
     1
102
RTVSPropertyOp58
 70
     1
102
RTVSPropertyOp59
 70
     1
102
RTVSPropertyOp60
 70
     1
102
RTVSPropertyOp61
 70
     1
102
RTVSPropertyOp62
 70
     1
  0
XRECORD
  5
48D
102
{ACAD_REACTORS
330
48C
102
}
330
48C
100
AcDbXrecord
280
     1
102
RTVSPost2010Prop28
280
     0
102
RTVSPost2010PropOp28
 70
     1
102
RTVSPost2010Prop29
280
     1
102
RTVSPost2010PropOp29
 70
     1
102
RTVSPost2010Prop30
280
     1
102
RTVSPost2010PropOp30
 70
     1
102
RTVSPost2010Prop31
280
     0
102
RTVSPost2010PropOp31
 70
     1
102
RTVSPost2010Prop32
280
     0
102
RTVSPost2010PropOp32
 70
     1
102
RTVSPost2010Prop33
280
     0
102
RTVSPost2010PropOp33
 70
     1
102
RTVSPost2010Prop34
280
     0
102
RTVSPost2010PropOp34
 70
     1
102
RTVSPost2010Prop35
280
     0
102
RTVSPost2010PropOp35
 70
     1
102
RTVSPost2010Prop36
280
     0
102
RTVSPost2010PropOp36
 70
     1
102
RTVSPost2010Prop37
 90
       50
102
RTVSPost2010PropOp37
 70
     1
102
RTVSPost2010Prop38
140
0.0
102
RTVSPost2010PropOp38
 70
     1
102
RTVSPost2010Prop39
140
1.0
102
RTVSPost2010PropOp39
 70
     1
102
RTVSPost2010Prop40
 90
        0
102
RTVSPost2010PropOp40
 70
     1
102
RTVSPost2010Prop41ColorIndex
 90
       18
102
RTVSPost2010Prop41ColorRGB
 90
        0
102
RTVSPost2010PropOp41
 70
     1
102
RTVSPost2010Prop42
 90
       50
102
RTVSPost2010PropOp42
 70
     1
102
RTVSPost2010Prop43
 90
        3
102
RTVSPost2010PropOp43
 70
     1
102
RTVSPost2010Prop44ColorIndex
 90
        5
102
RTVSPost2010Prop44ColorRGB
 90
      255
102
RTVSPost2010PropOp44
 70
     1
102
RTVSPost2010Prop45
280
     0
102
RTVSPost2010PropOp45
 70
     1
102
RTVSPost2010Prop46
 90
       50
102
RTVSPost2010PropOp46
 70
     1
102
RTVSPost2010Prop47
 90
       50
102
RTVSPost2010PropOp47
 70
     1
102
RTVSPost2010Prop48
 90
       50
102
RTVSPost2010PropOp48
 70
     1
102
RTVSPost2010Prop49
280
     0
102
RTVSPost2010PropOp49
 70
     1
102
RTVSPost2010Prop50
 90
       50
102
RTVSPost2010PropOp50
 70
     1
102
RTVSPost2010Prop51ColorIndex
 90
      256
102
RTVSPost2010Prop51ColorRGB
 90
-16777216
102
RTVSPost2010PropOp51
 70
     0
102
RTVSPost2010Prop52
140
1.0
102
RTVSPost2010PropOp52
 70
     0
102
RTVSPost2010Prop53
 90
        2
102
RTVSPost2010PropOp53
 70
     1
102
RTVSPost2010Prop54
  1
strokes_ogs.tif
102
RTVSPost2010PropOp54
 70
     1
102
RTVSPost2010Prop55
280
     0
102
RTVSPost2010PropOp55
 70
     1
102
RTVSPost2010Prop56
140
1.0
102
RTVSPost2010PropOp56
 70
     1
102
RTVSPost2010Prop57
140
1.0
102
RTVSPost2010PropOp57
 70
     1
102
RTVSPropertyOp0
 70
     1
102
RTVSPropertyOp1
 70
     1
102
RTVSPropertyOp2
 70
     1
102
RTVSPropertyOp3
 70
     1
102
RTVSPropertyOp4
 70
     1
102
RTVSPropertyOp5
 70
     1
102
RTVSPropertyOp6
 70
     1
102
RTVSPropertyOp7
 70
     1
102
RTVSPropertyOp8
 70
     1
102
RTVSPropertyOp9
 70
     1
102
RTVSPropertyOp10
 70
     1
102
RTVSPropertyOp11
 70
     1
102
RTVSPropertyOp12
 70
     1
102
RTVSPropertyOp13
 70
     1
102
RTVSPropertyOp14
 70
     1
102
RTVSPropertyOp15
 70
     1
102
RTVSPropertyOp16
 70
     1
102
RTVSPropertyOp17
 70
     1
102
RTVSPropertyOp18
 70
     1
102
RTVSPropertyOp19
 70
     1
102
RTVSPropertyOp20
 70
     1
102
RTVSPropertyOp21
 70
     1
102
RTVSPropertyOp22
 70
     1
102
RTVSPropertyOp23
 70
     1
102
RTVSPropertyOp24
 70
     1
102
RTVSPropertyOp25
 70
     1
102
RTVSPropertyOp26
 70
     1
102
RTVSPropertyOp27
 70
     1
102
RTVSPropertyOp28
 70
     1
102
RTVSPropertyOp29
 70
     1
102
RTVSPropertyOp30
 70
     1
102
RTVSPropertyOp31
 70
     1
102
RTVSPropertyOp32
 70
     1
102
RTVSPropertyOp33
 70
     1
102
RTVSPropertyOp34
 70
     1
102
RTVSPropertyOp35
 70
     1
102
RTVSPropertyOp36
 70
     1
102
RTVSPropertyOp37
 70
     1
102
RTVSPropertyOp38
 70
     1
102
RTVSPropertyOp39
 70
     1
102
RTVSPropertyOp40
 70
     1
102
RTVSPropertyOp41
 70
     1
102
RTVSPropertyOp42
 70
     1
102
RTVSPropertyOp43
 70
     1
102
RTVSPropertyOp44
 70
     1
102
RTVSPropertyOp45
 70
     1
102
RTVSPropertyOp46
 70
     1
102
RTVSPropertyOp47
 70
     1
102
RTVSPropertyOp48
 70
     1
102
RTVSPropertyOp49
 70
     1
102
RTVSPropertyOp50
 70
     1
102
RTVSPropertyOp51
 70
     0
102
RTVSPropertyOp52
 70
     0
102
RTVSPropertyOp53
 70
     1
102
RTVSPropertyOp54
 70
     1
102
RTVSPropertyOp55
 70
     1
102
RTVSPropertyOp56
 70
     1
102
RTVSPropertyOp57
 70
     1
102
RTVSPropertyOp58
 70
     1
102
RTVSPropertyOp59
 70
     1
102
RTVSPropertyOp60
 70
     1
102
RTVSPropertyOp61
 70
     1
102
RTVSPropertyOp62
 70
     1
  0
XRECORD
  5
483
102
{ACAD_REACTORS
330
482
102
}
330
482
100
AcDbXrecord
280
     1
102
RTVSPost2010Prop28
280
     0
102
RTVSPost2010PropOp28
 70
     1
102
RTVSPost2010Prop29
280
     1
102
RTVSPost2010PropOp29
 70
     1
102
RTVSPost2010Prop30
280
     1
102
RTVSPost2010PropOp30
 70
     1
102
RTVSPost2010Prop31
280
     0
102
RTVSPost2010PropOp31
 70
     1
102
RTVSPost2010Prop32
280
     0
102
RTVSPost2010PropOp32
 70
     1
102
RTVSPost2010Prop33
280
     0
102
RTVSPost2010PropOp33
 70
     1
102
RTVSPost2010Prop34
280
     0
102
RTVSPost2010PropOp34
 70
     1
102
RTVSPost2010Prop35
280
     0
102
RTVSPost2010PropOp35
 70
     1
102
RTVSPost2010Prop36
280
     0
102
RTVSPost2010PropOp36
 70
     1
102
RTVSPost2010Prop37
 90
       50
102
RTVSPost2010PropOp37
 70
     1
102
RTVSPost2010Prop38
140
0.0
102
RTVSPost2010PropOp38
 70
     1
102
RTVSPost2010Prop39
140
1.0
102
RTVSPost2010PropOp39
 70
     1
102
RTVSPost2010Prop40
 90
        0
102
RTVSPost2010PropOp40
 70
     1
102
RTVSPost2010Prop41ColorIndex
 90
       18
102
RTVSPost2010Prop41ColorRGB
 90
        0
102
RTVSPost2010PropOp41
 70
     1
102
RTVSPost2010Prop42
 90
       50
102
RTVSPost2010PropOp42
 70
     1
102
RTVSPost2010Prop43
 90
        3
102
RTVSPost2010PropOp43
 70
     1
102
RTVSPost2010Prop44ColorIndex
 90
        5
102
RTVSPost2010Prop44ColorRGB
 90
      255
102
RTVSPost2010PropOp44
 70
     1
102
RTVSPost2010Prop45
280
     0
102
RTVSPost2010PropOp45
 70
     1
102
RTVSPost2010Prop46
 90
       50
102
RTVSPost2010PropOp46
 70
     1
102
RTVSPost2010Prop47
 90
       50
102
RTVSPost2010PropOp47
 70
     1
102
RTVSPost2010Prop48
 90
       50
102
RTVSPost2010PropOp48
 70
     1
102
RTVSPost2010Prop49
280
     0
102
RTVSPost2010PropOp49
 70
     1
102
RTVSPost2010Prop50
 90
       50
102
RTVSPost2010PropOp50
 70
     1
102
RTVSPost2010Prop51ColorIndex
 90
      256
102
RTVSPost2010Prop51ColorRGB
 90
-16777216
102
RTVSPost2010PropOp51
 70
     0
102
RTVSPost2010Prop52
140
1.0
102
RTVSPost2010PropOp52
 70
     0
102
RTVSPost2010Prop53
 90
        2
102
RTVSPost2010PropOp53
 70
     1
102
RTVSPost2010Prop54
  1
strokes_ogs.tif
102
RTVSPost2010PropOp54
 70
     1
102
RTVSPost2010Prop55
280
     0
102
RTVSPost2010PropOp55
 70
     1
102
RTVSPost2010Prop56
140
1.0
102
RTVSPost2010PropOp56
 70
     1
102
RTVSPost2010Prop57
140
1.0
102
RTVSPost2010PropOp57
 70
     1
102
RTVSPropertyOp0
 70
     1
102
RTVSPropertyOp1
 70
     1
102
RTVSPropertyOp2
 70
     1
102
RTVSPropertyOp3
 70
     1
102
RTVSPropertyOp4
 70
     1
102
RTVSPropertyOp5
 70
     1
102
RTVSPropertyOp6
 70
     1
102
RTVSPropertyOp7
 70
     1
102
RTVSPropertyOp8
 70
     1
102
RTVSPropertyOp9
 70
     1
102
RTVSPropertyOp10
 70
     1
102
RTVSPropertyOp11
 70
     1
102
RTVSPropertyOp12
 70
     1
102
RTVSPropertyOp13
 70
     1
102
RTVSPropertyOp14
 70
     1
102
RTVSPropertyOp15
 70
     1
102
RTVSPropertyOp16
 70
     1
102
RTVSPropertyOp17
 70
     1
102
RTVSPropertyOp18
 70
     1
102
RTVSPropertyOp19
 70
     1
102
RTVSPropertyOp20
 70
     1
102
RTVSPropertyOp21
 70
     1
102
RTVSPropertyOp22
 70
     1
102
RTVSPropertyOp23
 70
     1
102
RTVSPropertyOp24
 70
     1
102
RTVSPropertyOp25
 70
     1
102
RTVSPropertyOp26
 70
     1
102
RTVSPropertyOp27
 70
     1
102
RTVSPropertyOp28
 70
     1
102
RTVSPropertyOp29
 70
     1
102
RTVSPropertyOp30
 70
     1
102
RTVSPropertyOp31
 70
     1
102
RTVSPropertyOp32
 70
     1
102
RTVSPropertyOp33
 70
     1
102
RTVSPropertyOp34
 70
     1
102
RTVSPropertyOp35
 70
     1
102
RTVSPropertyOp36
 70
     1
102
RTVSPropertyOp37
 70
     1
102
RTVSPropertyOp38
 70
     1
102
RTVSPropertyOp39
 70
     1
102
RTVSPropertyOp40
 70
     1
102
RTVSPropertyOp41
 70
     1
102
RTVSPropertyOp42
 70
     1
102
RTVSPropertyOp43
 70
     1
102
RTVSPropertyOp44
 70
     1
102
RTVSPropertyOp45
 70
     1
102
RTVSPropertyOp46
 70
     1
102
RTVSPropertyOp47
 70
     1
102
RTVSPropertyOp48
 70
     1
102
RTVSPropertyOp49
 70
     1
102
RTVSPropertyOp50
 70
     1
102
RTVSPropertyOp51
 70
     0
102
RTVSPropertyOp52
 70
     0
102
RTVSPropertyOp53
 70
     1
102
RTVSPropertyOp54
 70
     1
102
RTVSPropertyOp55
 70
     1
102
RTVSPropertyOp56
 70
     1
102
RTVSPropertyOp57
 70
     1
102
RTVSPropertyOp58
 70
     1
102
RTVSPropertyOp59
 70
     1
102
RTVSPropertyOp60
 70
     1
102
RTVSPropertyOp61
 70
     1
102
RTVSPropertyOp62
 70
     1
  0
XRECORD
  5
477
102
{ACAD_REACTORS
330
476
102
}
330
476
100
AcDbXrecord
280
     1
102
RTVSPost2010Prop28
280
     0
102
RTVSPost2010PropOp28
 70
     1
102
RTVSPost2010Prop29
280
     1
102
RTVSPost2010PropOp29
 70
     1
102
RTVSPost2010Prop30
280
     1
102
RTVSPost2010PropOp30
 70
     1
102
RTVSPost2010Prop31
280
     0
102
RTVSPost2010PropOp31
 70
     1
102
RTVSPost2010Prop32
280
     0
102
RTVSPost2010PropOp32
 70
     1
102
RTVSPost2010Prop33
280
     0
102
RTVSPost2010PropOp33
 70
     1
102
RTVSPost2010Prop34
280
     0
102
RTVSPost2010PropOp34
 70
     1
102
RTVSPost2010Prop35
280
     0
102
RTVSPost2010PropOp35
 70
     1
102
RTVSPost2010Prop36
280
     0
102
RTVSPost2010PropOp36
 70
     1
102
RTVSPost2010Prop37
 90
       50
102
RTVSPost2010PropOp37
 70
     1
102
RTVSPost2010Prop38
140
0.0
102
RTVSPost2010PropOp38
 70
     1
102
RTVSPost2010Prop39
140
1.0
102
RTVSPost2010PropOp39
 70
     1
102
RTVSPost2010Prop40
 90
        0
102
RTVSPost2010PropOp40
 70
     1
102
RTVSPost2010Prop41ColorIndex
 90
       18
102
RTVSPost2010Prop41ColorRGB
 90
        0
102
RTVSPost2010PropOp41
 70
     1
102
RTVSPost2010Prop42
 90
       50
102
RTVSPost2010PropOp42
 70
     1
102
RTVSPost2010Prop43
 90
        3
102
RTVSPost2010PropOp43
 70
     1
102
RTVSPost2010Prop44ColorIndex
 90
        5
102
RTVSPost2010Prop44ColorRGB
 90
      255
102
RTVSPost2010PropOp44
 70
     1
102
RTVSPost2010Prop45
280
     0
102
RTVSPost2010PropOp45
 70
     1
102
RTVSPost2010Prop46
 90
       50
102
RTVSPost2010PropOp46
 70
     1
102
RTVSPost2010Prop47
 90
       50
102
RTVSPost2010PropOp47
 70
     1
102
RTVSPost2010Prop48
 90
       50
102
RTVSPost2010PropOp48
 70
     1
102
RTVSPost2010Prop49
280
     0
102
RTVSPost2010PropOp49
 70
     1
102
RTVSPost2010Prop50
 90
       50
102
RTVSPost2010PropOp50
 70
     1
102
RTVSPost2010Prop51ColorIndex
 90
      256
102
RTVSPost2010Prop51ColorRGB
 90
-16777216
102
RTVSPost2010PropOp51
 70
     0
102
RTVSPost2010Prop52
140
1.0
102
RTVSPost2010PropOp52
 70
     0
102
RTVSPost2010Prop53
 90
        2
102
RTVSPost2010PropOp53
 70
     1
102
RTVSPost2010Prop54
  1
strokes_ogs.tif
102
RTVSPost2010PropOp54
 70
     1
102
RTVSPost2010Prop55
280
     0
102
RTVSPost2010PropOp55
 70
     1
102
RTVSPost2010Prop56
140
1.0
102
RTVSPost2010PropOp56
 70
     1
102
RTVSPost2010Prop57
140
1.0
102
RTVSPost2010PropOp57
 70
     1
102
RTVSPropertyOp0
 70
     1
102
RTVSPropertyOp1
 70
     1
102
RTVSPropertyOp2
 70
     1
102
RTVSPropertyOp3
 70
     1
102
RTVSPropertyOp4
 70
     1
102
RTVSPropertyOp5
 70
     1
102
RTVSPropertyOp6
 70
     1
102
RTVSPropertyOp7
 70
     1
102
RTVSPropertyOp8
 70
     1
102
RTVSPropertyOp9
 70
     1
102
RTVSPropertyOp10
 70
     1
102
RTVSPropertyOp11
 70
     1
102
RTVSPropertyOp12
 70
     1
102
RTVSPropertyOp13
 70
     1
102
RTVSPropertyOp14
 70
     1
102
RTVSPropertyOp15
 70
     1
102
RTVSPropertyOp16
 70
     1
102
RTVSPropertyOp17
 70
     1
102
RTVSPropertyOp18
 70
     1
102
RTVSPropertyOp19
 70
     1
102
RTVSPropertyOp20
 70
     1
102
RTVSPropertyOp21
 70
     1
102
RTVSPropertyOp22
 70
     1
102
RTVSPropertyOp23
 70
     1
102
RTVSPropertyOp24
 70
     1
102
RTVSPropertyOp25
 70
     1
102
RTVSPropertyOp26
 70
     1
102
RTVSPropertyOp27
 70
     1
102
RTVSPropertyOp28
 70
     1
102
RTVSPropertyOp29
 70
     1
102
RTVSPropertyOp30
 70
     1
102
RTVSPropertyOp31
 70
     1
102
RTVSPropertyOp32
 70
     1
102
RTVSPropertyOp33
 70
     1
102
RTVSPropertyOp34
 70
     1
102
RTVSPropertyOp35
 70
     1
102
RTVSPropertyOp36
 70
     1
102
RTVSPropertyOp37
 70
     1
102
RTVSPropertyOp38
 70
     1
102
RTVSPropertyOp39
 70
     1
102
RTVSPropertyOp40
 70
     1
102
RTVSPropertyOp41
 70
     1
102
RTVSPropertyOp42
 70
     1
102
RTVSPropertyOp43
 70
     1
102
RTVSPropertyOp44
 70
     1
102
RTVSPropertyOp45
 70
     1
102
RTVSPropertyOp46
 70
     1
102
RTVSPropertyOp47
 70
     1
102
RTVSPropertyOp48
 70
     1
102
RTVSPropertyOp49
 70
     1
102
RTVSPropertyOp50
 70
     1
102
RTVSPropertyOp51
 70
     0
102
RTVSPropertyOp52
 70
     0
102
RTVSPropertyOp53
 70
     1
102
RTVSPropertyOp54
 70
     1
102
RTVSPropertyOp55
 70
     1
102
RTVSPropertyOp56
 70
     1
102
RTVSPropertyOp57
 70
     1
102
RTVSPropertyOp58
 70
     1
102
RTVSPropertyOp59
 70
     1
102
RTVSPropertyOp60
 70
     1
102
RTVSPropertyOp61
 70
     1
102
RTVSPropertyOp62
 70
     1
  0
XRECORD
  5
48F
102
{ACAD_REACTORS
330
48E
102
}
330
48E
100
AcDbXrecord
280
     1
102
RTVSPost2010Prop28
280
     0
102
RTVSPost2010PropOp28
 70
     1
102
RTVSPost2010Prop29
280
     1
102
RTVSPost2010PropOp29
 70
     1
102
RTVSPost2010Prop30
280
     1
102
RTVSPost2010PropOp30
 70
     1
102
RTVSPost2010Prop31
280
     0
102
RTVSPost2010PropOp31
 70
     1
102
RTVSPost2010Prop32
280
     0
102
RTVSPost2010PropOp32
 70
     1
102
RTVSPost2010Prop33
280
     0
102
RTVSPost2010PropOp33
 70
     1
102
RTVSPost2010Prop34
280
     0
102
RTVSPost2010PropOp34
 70
     1
102
RTVSPost2010Prop35
280
     0
102
RTVSPost2010PropOp35
 70
     1
102
RTVSPost2010Prop36
280
     0
102
RTVSPost2010PropOp36
 70
     1
102
RTVSPost2010Prop37
 90
       50
102
RTVSPost2010PropOp37
 70
     1
102
RTVSPost2010Prop38
140
0.0
102
RTVSPost2010PropOp38
 70
     1
102
RTVSPost2010Prop39
140
1.0
102
RTVSPost2010PropOp39
 70
     1
102
RTVSPost2010Prop40
 90
        0
102
RTVSPost2010PropOp40
 70
     1
102
RTVSPost2010Prop41ColorIndex
 90
       18
102
RTVSPost2010Prop41ColorRGB
 90
        0
102
RTVSPost2010PropOp41
 70
     1
102
RTVSPost2010Prop42
 90
       50
102
RTVSPost2010PropOp42
 70
     1
102
RTVSPost2010Prop43
 90
        3
102
RTVSPost2010PropOp43
 70
     1
102
RTVSPost2010Prop44ColorIndex
 90
        5
102
RTVSPost2010Prop44ColorRGB
 90
      255
102
RTVSPost2010PropOp44
 70
     1
102
RTVSPost2010Prop45
280
     0
102
RTVSPost2010PropOp45
 70
     1
102
RTVSPost2010Prop46
 90
       50
102
RTVSPost2010PropOp46
 70
     1
102
RTVSPost2010Prop47
 90
       50
102
RTVSPost2010PropOp47
 70
     1
102
RTVSPost2010Prop48
 90
       50
102
RTVSPost2010PropOp48
 70
     1
102
RTVSPost2010Prop49
280
     0
102
RTVSPost2010PropOp49
 70
     1
102
RTVSPost2010Prop50
 90
       50
102
RTVSPost2010PropOp50
 70
     1
102
RTVSPost2010Prop51ColorIndex
 90
      256
102
RTVSPost2010Prop51ColorRGB
 90
-16777216
102
RTVSPost2010PropOp51
 70
     0
102
RTVSPost2010Prop52
140
1.0
102
RTVSPost2010PropOp52
 70
     0
102
RTVSPost2010Prop53
 90
        2
102
RTVSPost2010PropOp53
 70
     1
102
RTVSPost2010Prop54
  1
strokes_ogs.tif
102
RTVSPost2010PropOp54
 70
     1
102
RTVSPost2010Prop55
280
     0
102
RTVSPost2010PropOp55
 70
     1
102
RTVSPost2010Prop56
140
1.0
102
RTVSPost2010PropOp56
 70
     1
102
RTVSPost2010Prop57
140
1.0
102
RTVSPost2010PropOp57
 70
     1
102
RTVSPropertyOp0
 70
     1
102
RTVSPropertyOp1
 70
     1
102
RTVSPropertyOp2
 70
     1
102
RTVSPropertyOp3
 70
     1
102
RTVSPropertyOp4
 70
     1
102
RTVSPropertyOp5
 70
     1
102
RTVSPropertyOp6
 70
     1
102
RTVSPropertyOp7
 70
     1
102
RTVSPropertyOp8
 70
     1
102
RTVSPropertyOp9
 70
     1
102
RTVSPropertyOp10
 70
     1
102
RTVSPropertyOp11
 70
     1
102
RTVSPropertyOp12
 70
     1
102
RTVSPropertyOp13
 70
     1
102
RTVSPropertyOp14
 70
     1
102
RTVSPropertyOp15
 70
     1
102
RTVSPropertyOp16
 70
     1
102
RTVSPropertyOp17
 70
     1
102
RTVSPropertyOp18
 70
     1
102
RTVSPropertyOp19
 70
     1
102
RTVSPropertyOp20
 70
     1
102
RTVSPropertyOp21
 70
     1
102
RTVSPropertyOp22
 70
     1
102
RTVSPropertyOp23
 70
     1
102
RTVSPropertyOp24
 70
     1
102
RTVSPropertyOp25
 70
     1
102
RTVSPropertyOp26
 70
     1
102
RTVSPropertyOp27
 70
     1
102
RTVSPropertyOp28
 70
     1
102
RTVSPropertyOp29
 70
     1
102
RTVSPropertyOp30
 70
     1
102
RTVSPropertyOp31
 70
     1
102
RTVSPropertyOp32
 70
     1
102
RTVSPropertyOp33
 70
     1
102
RTVSPropertyOp34
 70
     1
102
RTVSPropertyOp35
 70
     1
102
RTVSPropertyOp36
 70
     1
102
RTVSPropertyOp37
 70
     1
102
RTVSPropertyOp38
 70
     1
102
RTVSPropertyOp39
 70
     1
102
RTVSPropertyOp40
 70
     1
102
RTVSPropertyOp41
 70
     1
102
RTVSPropertyOp42
 70
     1
102
RTVSPropertyOp43
 70
     1
102
RTVSPropertyOp44
 70
     1
102
RTVSPropertyOp45
 70
     1
102
RTVSPropertyOp46
 70
     1
102
RTVSPropertyOp47
 70
     1
102
RTVSPropertyOp48
 70
     1
102
RTVSPropertyOp49
 70
     1
102
RTVSPropertyOp50
 70
     1
102
RTVSPropertyOp51
 70
     0
102
RTVSPropertyOp52
 70
     0
102
RTVSPropertyOp53
 70
     1
102
RTVSPropertyOp54
 70
     1
102
RTVSPropertyOp55
 70
     1
102
RTVSPropertyOp56
 70
     1
102
RTVSPropertyOp57
 70
     1
102
RTVSPropertyOp58
 70
     1
102
RTVSPropertyOp59
 70
     1
102
RTVSPropertyOp60
 70
     1
102
RTVSPropertyOp61
 70
     1
102
RTVSPropertyOp62
 70
     1
  0
ENDSEC
  0
EOF
