  0
SECTION
  2
HEADER
  9
$ACADVER
  1
AC1015
  9
$ACADMAINTVER
 70
    20
  9
$DWGCODEPAGE
  3
ANSI_932
  9
$INSBASE
 10
0.0
 20
0.0
 30
0.0
  9
$EXTMIN
 10
-1350.082391174606
 20
-2014.883294593333
 30
-0.0015258207003583
  9
$EXTMAX
 10
1350.082403747461
 20
1999.567671355127
 30
0.0000000349246037
  9
$LIMMIN
 10
0.0
 20
0.0
  9
$LIMMAX
 10
0.0
 20
0.0
  9
$ORTHOMODE
 70
     0
  9
$REGENMODE
 70
     1
  9
$FILLMODE
 70
     1
  9
$QTEXTMODE
 70
     0
  9
$MIRRTEXT
 70
     1
  9
$LTSCALE
 40
190.5
  9
$ATTMODE
 70
     1
  9
$TEXTSIZE
 40
0.0
  9
$TRACEWID
 40
1.0
  9
$TEXTSTYLE
  7
STANDARD
  9
$CLAYER
  8
DATA
  9
$CELTYPE
  6
ByLayer
  9
$CECOLOR
 62
   256
  9
$CELTSCALE
 40
1.0
  9
$DISPSILH
 70
     0
  9
$DIMSCALE
 40
1.0
  9
$DIMASZ
 40
0.18
  9
$DIMEXO
 40
0.0625
  9
$DIMDLI
 40
0.38
  9
$DIMRND
 40
0.0
  9
$DIMDLE
 40
0.0
  9
$DIMEXE
 40
0.18
  9
$DIMTP
 40
0.0
  9
$DIMTM
 40
0.0
  9
$DIMTXT
 40
0.18
  9
$DIMCEN
 40
0.09
  9
$DIMTSZ
 40
0.0
  9
$DIMTOL
 70
     0
  9
$DIMLIM
 70
     0
  9
$DIMTIH
 70
     1
  9
$DIMTOH
 70
     1
  9
$DIMSE1
 70
     0
  9
$DIMSE2
 70
     0
  9
$DIMTAD
 70
     0
  9
$DIMZIN
 70
     0
  9
$DIMBLK
  1

  9
$DIMASO
 70
     1
  9
$DIMSHO
 70
     1
  9
$DIMPOST
  1

  9
$DIMAPOST
  1

  9
$DIMALT
 70
     0
  9
$DIMALTD
 70
     2
  9
$DIMALTF
 40
25.4
  9
$DIMLFAC
 40
1.0
  9
$DIMTOFL
 70
     0
  9
$DIMTVP
 40
0.0
  9
$DIMTIX
 70
     0
  9
$DIMSOXD
 70
     0
  9
$DIMSAH
 70
     0
  9
$DIMBLK1
  1

  9
$DIMBLK2
  1

  9
$DIMSTYLE
  2
STANDARD
  9
$DIMCLRD
 70
     0
  9
$DIMCLRE
 70
     0
  9
$DIMCLRT
 70
     0
  9
$DIMTFAC
 40
1.0
  9
$DIMGAP
 40
0.09
  9
$DIMJUST
 70
     0
  9
$DIMSD1
 70
     0
  9
$DIMSD2
 70
     0
  9
$DIMTOLJ
 70
     1
  9
$DIMTZIN
 70
     0
  9
$DIMALTZ
 70
     0
  9
$DIMALTTZ
 70
     0
  9
$DIMUPT
 70
     0
  9
$DIMDEC
 70
     4
  9
$DIMTDEC
 70
     4
  9
$DIMALTU
 70
     2
  9
$DIMALTTD
 70
     2
  9
$DIMTXSTY
  7
STANDARD
  9
$DIMAUNIT
 70
     0
  9
$DIMADEC
 70
     0
  9
$DIMALTRND
 40
0.0
  9
$DIMAZIN
 70
     0
  9
$DIMDSEP
 70
    46
  9
$DIMATFIT
 70
     3
  9
$DIMFRAC
 70
     0
  9
$DIMLDRBLK
  1

  9
$DIMLUNIT
 70
     2
  9
$DIMLWD
 70
    -2
  9
$DIMLWE
 70
    -2
  9
$DIMTMOVE
 70
     0
  9
$LUNITS
 70
     2
  9
$LUPREC
 70
     4
  9
$SKETCHINC
 40
0.1
  9
$FILLETRAD
 40
0.0
  9
$AUNITS
 70
     0
  9
$AUPREC
 70
     0
  9
$MENU
  1
acad
  9
$ELEVATION
 40
0.0
  9
$PELEVATION
 40
0.0
  9
$THICKNESS
 40
0.0
  9
$LIMCHECK
 70
     0
  9
$CHAMFERA
 40
0.0
  9
$CHAMFERB
 40
0.0
  9
$CHAMFERC
 40
0.0
  9
$CHAMFERD
 40
0.0
  9
$SKPOLY
 70
     0
  9
$TDCREATE
 40
2457812.435243056
  9
$TDUCREATE
 40
2457812.060243056
  9
$TDUPDATE
 40
2457812.488645834
  9
$TDUUPDATE
 40
2457812.113645834
  9
$TDINDWG
 40
0.0003125000
  9
$TDUSRTIMER
 40
0.0003125000
  9
$USRTIMER
 70
     1
  9
$ANGBASE
 50
0.0
  9
$ANGDIR
 70
     0
  9
$PDMODE
 70
     1
  9
$PDSIZE
 40
-2.0
  9
$PLINEWID
 40
0.0
  9
$SPLFRAME
 70
     0
  9
$SPLINETYPE
 70
     6
  9
$SPLINESEGS
 70
     8
  9
$HANDSEED
  5
3A3
  9
$SURFTAB1
 70
     6
  9
$SURFTAB2
 70
     6
  9
$SURFTYPE
 70
     6
  9
$SURFU
 70
     6
  9
$SURFV
 70
     6
  9
$UCSBASE
  2

  9
$UCSNAME
  2

  9
$UCSORG
 10
0.0
 20
0.0
 30
0.0
  9
$UCSXDIR
 10
1.0
 20
0.0
 30
0.0
  9
$UCSYDIR
 10
0.0
 20
1.0
 30
0.0
  9
$UCSORTHOREF
  2

  9
$UCSORTHOVIEW
 70
     0
  9
$UCSORGTOP
 10
0.0
 20
0.0
 30
0.0
  9
$UCSORGBOTTOM
 10
0.0
 20
0.0
 30
0.0
  9
$UCSORGLEFT
 10
0.0
 20
0.0
 30
0.0
  9
$UCSORGRIGHT
 10
0.0
 20
0.0
 30
0.0
  9
$UCSORGFRONT
 10
0.0
 20
0.0
 30
0.0
  9
$UCSORGBACK
 10
0.0
 20
0.0
 30
0.0
  9
$PUCSBASE
  2

  9
$PUCSNAME
  2

  9
$PUCSORG
 10
0.0
 20
0.0
 30
0.0
  9
$PUCSXDIR
 10
1.0
 20
0.0
 30
0.0
  9
$PUCSYDIR
 10
0.0
 20
1.0
 30
0.0
  9
$PUCSORTHOREF
  2

  9
$PUCSORTHOVIEW
 70
     0
  9
$PUCSORGTOP
 10
0.0
 20
0.0
 30
0.0
  9
$PUCSORGBOTTOM
 10
0.0
 20
0.0
 30
0.0
  9
$PUCSORGLEFT
 10
0.0
 20
0.0
 30
0.0
  9
$PUCSORGRIGHT
 10
0.0
 20
0.0
 30
0.0
  9
$PUCSORGFRONT
 10
0.0
 20
0.0
 30
0.0
  9
$PUCSORGBACK
 10
0.0
 20
0.0
 30
0.0
  9
$USERI1
 70
     0
  9
$USERI2
 70
     0
  9
$USERI3
 70
     0
  9
$USERI4
 70
     0
  9
$USERI5
 70
     0
  9
$USERR1
 40
0.0
  9
$USERR2
 40
0.0
  9
$USERR3
 40
0.0
  9
$USERR4
 40
0.0
  9
$USERR5
 40
0.0
  9
$WORLDVIEW
 70
     1
  9
$SHADEDGE
 70
     3
  9
$SHADEDIF
 70
    70
  9
$TILEMODE
 70
     1
  9
$MAXACTVP
 70
    64
  9
$PINSBASE
 10
0.0
 20
0.0
 30
0.0
  9
$PLIMCHECK
 70
     0
  9
$PEXTMIN
 10
1.000000000000000E+20
 20
1.000000000000000E+20
 30
1.000000000000000E+20
  9
$PEXTMAX
 10
-1.000000000000000E+20
 20
-1.000000000000000E+20
 30
-1.000000000000000E+20
  9
$PLIMMIN
 10
0.0
 20
0.0
  9
$PLIMMAX
 10
12.0
 20
9.0
  9
$UNITMODE
 70
     0
  9
$VISRETAIN
 70
     0
  9
$PLINEGEN
 70
     1
  9
$PSLTSCALE
 70
     0
  9
$TREEDEPTH
 70
  3020
  9
$CMLSTYLE
  2
Standard
  9
$CMLJUST
 70
     0
  9
$CMLSCALE
 40
1.0
  9
$PROXYGRAPHICS
 70
     1
  9
$MEASUREMENT
 70
     0
  9
$CELWEIGHT
370
    -1
  9
$ENDCAPS
280
     0
  9
$JOINSTYLE
280
     0
  9
$LWDISPLAY
290
     0
  9
$INSUNITS
 70
     0
  9
$HYPERLINKBASE
  1

  9
$STYLESHEET
  1

  9
$XEDIT
290
     1
  9
$CEPSNTYPE
380
     0
  9
$PSTYLEMODE
290
     1
  9
$FINGERPRINTGUID
  2
{E0A4FD2D-47E2-554F-9CF1-0E90685FE2DF}
  9
$VERSIONGUID
  2
{AAAE458C-3146-8E41-98E9-062F25F187C6}
  9
$EXTNAMES
290
     1
  9
$PSVPSCALE
 40
0.0
  9
$OLESTARTUP
290
     0
  0
ENDSEC
  0
SECTION
  2
CLASSES
  0
CLASS
  1
ACDBDICTIONARYWDFLT
  2
AcDbDictionaryWithDefault
  3
ObjectDBX Classes
 90
        0
280
     0
281
     0
  0
CLASS
  1
MATERIAL
  2
AcDbMaterial
  3
ObjectDBX Classes
 90
     1153
280
     0
281
     0
  0
CLASS
  1
VISUALSTYLE
  2
AcDbVisualStyle
  3
ObjectDBX Classes
 90
     4095
280
     0
281
     0
  0
CLASS
  1
SCALE
  2
AcDbScale
  3
ObjectDBX Classes
 90
     1153
280
     0
281
     0
  0
CLASS
  1
TABLESTYLE
  2
AcDbTableStyle
  3
ObjectDBX Classes
 90
     4095
280
     0
281
     0
  0
CLASS
  1
MLEADERSTYLE
  2
AcDbMLeaderStyle
  3
ACDB_MLEADERSTYLE_CLASS
 90
     4095
280
     0
281
     0
  0
CLASS
  1
ACDBSECTIONVIEWSTYLE
  2
AcDbSectionViewStyle
  3
ObjectDBX Classes
 90
     1025
280
     0
281
     0
  0
CLASS
  1
ACDBDETAILVIEWSTYLE
  2
AcDbDetailViewStyle
  3
ObjectDBX Classes
 90
     1025
280
     0
281
     0
  0
CLASS
  1
DICTIONARYVAR
  2
AcDbDictionaryVar
  3
ObjectDBX Classes
 90
        0
280
     0
281
     0
  0
CLASS
  1
CELLSTYLEMAP
  2
AcDbCellStyleMap
  3
ObjectDBX Classes
 90
     1152
280
     0
281
     0
  0
CLASS
  1
ACDBPLACEHOLDER
  2
AcDbPlaceHolder
  3
ObjectDBX Classes
 90
        0
280
     0
281
     0
  0
CLASS
  1
LAYOUT
  2
AcDbLayout
  3
ObjectDBX Classes
 90
        0
280
     0
281
     0
  0
ENDSEC
  0
SECTION
  2
TABLES
  0
TABLE
  2
VPORT
  5
2CC
330
0
100
AcDbSymbolTable
 70
     1
  0
VPORT
  5
338
330
2CC
100
AcDbSymbolTableRecord
100
AcDbViewportTableRecord
  2
*ACTIVE
 70
     0
 10
0.0
 20
0.0
 11
1.0
 21
1.0
 12
0.0000062864282881
 22
-7.657811619102631
 13
0.0
 23
0.0
 14
1.0
 24
1.0
 15
0.0
 25
0.0
 16
0.0
 26
0.0
 36
1.0
 17
0.0
 27
0.0
 37
0.0
 40
4036.794848875817
 41
2.358402971216341
 42
50.0
 43
0.0
 44
0.0
 50
0.0
 51
0.0
 71
     0
 72
  2000
 73
     1
 74
     1
 75
     0
 76
     0
 77
     0
 78
     0
281
     0
 65
     1
110
0.0
120
0.0
130
0.0
111
1.0
121
0.0
131
0.0
112
0.0
122
1.0
132
0.0
 79
     0
146
0.0
1001
ACAD_NAV_VCDISPLAY
1070
     3
  0
ENDTAB
  0
TABLE
  2
LTYPE
  5
2C9
330
0
100
AcDbSymbolTable
 70
    12
  0
LTYPE
  5
31E
330
2C9
100
AcDbSymbolTableRecord
100
AcDbLinetypeTableRecord
  2
ByBlock
 70
     0
  3

 72
    65
 73
     0
 40
0.0
  0
LTYPE
  5
31F
330
2C9
100
AcDbSymbolTableRecord
100
AcDbLinetypeTableRecord
  2
ByLayer
 70
     0
  3

 72
    65
 73
     0
 40
0.0
  0
LTYPE
  5
320
330
2C9
100
AcDbSymbolTableRecord
100
AcDbLinetypeTableRecord
  2
CONTINUOUS
 70
     0
  3
Solid line
 72
    65
 73
     0
 40
0.0
  0
LTYPE
  5
339
330
2C9
100
AcDbSymbolTableRecord
100
AcDbLinetypeTableRecord
  2
STYLE_01
 70
     0
  3

 72
    65
 73
     2
 40
0.166656494140625
 49
0.08331298828125
 74
     0
 49
-0.083343505859375
 74
     0
  0
LTYPE
  5
33E
330
2C9
100
AcDbSymbolTableRecord
100
AcDbLinetypeTableRecord
  2
STYLE_06
 70
     0
  3

 72
    65
 73
     4
 40
0.416656494140625
 49
0.25
 74
     0
 49
-0.08331298828125
 74
     0
 49
0.02777099609375
 74
     0
 49
-0.055572509765625
 74
     0
  0
ENDTAB
  0
TABLE
  2
LAYER
  5
2C6
330
0
100
AcDbSymbolTable
 70
     5
  0
LAYER
  5
318
102
{ACAD_XDICTIONARY
360
34D
102
}
330
2C6
100
AcDbSymbolTableRecord
100
AcDbLayerTableRecord
  2
0
 70
     0
 62
     7
  6
CONTINUOUS
370
    -3
390
2D3
  0
LAYER
  5
337
102
{ACAD_XDICTIONARY
360
34F
102
}
330
2C6
100
AcDbSymbolTableRecord
100
AcDbLayerTableRecord
  2
DATA
 70
     0
 62
     7
  6
CONTINUOUS
370
    -3
390
2D3
  0
LAYER
  5
344
102
{ACAD_XDICTIONARY
360
351
102
}
330
2C6
100
AcDbSymbolTableRecord
100
AcDbLayerTableRecord
  2
HIBINO-BASE
 70
     0
 62
     7
  6
CONTINUOUS
370
    -3
390
2D3
  0
LAYER
  5
345
102
{ACAD_XDICTIONARY
360
353
102
}
330
2C6
100
AcDbSymbolTableRecord
100
AcDbLayerTableRecord
  2
SPEC
 70
     0
 62
     7
  6
CONTINUOUS
370
    -3
390
2D3
  0
LAYER
  5
346
102
{ACAD_XDICTIONARY
360
355
102
}
330
2C6
100
AcDbSymbolTableRecord
100
AcDbLayerTableRecord
  2
DIMNSIONS
 70
     0
 62
     7
  6
CONTINUOUS
370
    -3
390
2D3
  0
ENDTAB
  0
TABLE
  2
STYLE
  5
2C7
330
0
100
AcDbSymbolTable
 70
     3
  0
STYLE
  5
319
330
2C7
100
AcDbSymbolTableRecord
100
AcDbTextStyleTableRecord
  2
STANDARD
 70
     0
 40
0.0
 41
1.0
 50
0.0
 71
     0
 42
0.0
  3
txt
  4
BIGFONT.SHX
  0
ENDTAB
  0
TABLE
  2
VIEW
  5
2CA
330
0
100
AcDbSymbolTable
 70
     0
  0
ENDTAB
  0
TABLE
  2
UCS
  5
2CB
330
0
100
AcDbSymbolTable
 70
     0
  0
ENDTAB
  0
TABLE
  2
APPID
  5
2CD
330
0
100
AcDbSymbolTable
 70
     4
  0
APPID
  5
31A
330
2CD
100
AcDbSymbolTableRecord
100
AcDbRegAppTableRecord
  2
ACAD
 70
     0
  0
APPID
  5
321
330
2CD
100
AcDbSymbolTableRecord
100
AcDbRegAppTableRecord
  2
AcadAnnotative
 70
     0
  0
APPID
  5
361
330
2CD
100
AcDbSymbolTableRecord
100
AcDbRegAppTableRecord
  2
ACAD_NAV_VCDISPLAY
 70
     0
  0
APPID
  5
39A
330
2CD
100
AcDbSymbolTableRecord
100
AcDbRegAppTableRecord
  2
ACAD_MLEADERVER
 70
     0
  0
ENDTAB
  0
TABLE
  2
DIMSTYLE
  5
2CE
330
0
100
AcDbSymbolTable
 70
     2
100
AcDbDimStyleTable
 71
     0
  0
DIMSTYLE
105
31B
330
2CE
100
AcDbSymbolTableRecord
100
AcDbDimStyleTableRecord
  2
STANDARD
 70
     0
279
     2
340
319
  0
ENDTAB
  0
TABLE
  2
BLOCK_RECORD
  5
2C5
330
0
100
AcDbSymbolTable
 70
     0
  0
BLOCK_RECORD
  5
333
330
2C5
100
AcDbSymbolTableRecord
100
AcDbBlockTableRecord
  2
*Model_Space
340
336
  0
BLOCK_RECORD
  5
32F
330
2C5
100
AcDbSymbolTableRecord
100
AcDbBlockTableRecord
  2
*Paper_Space
340
332
  0
ENDTAB
  0
ENDSEC
  0
SECTION
  2
BLOCKS
  0
BLOCK
  5
334
330
333
100
AcDbEntity
  8
0
100
AcDbBlockBegin
  2
*Model_Space
 70
     0
 10
0.0
 20
0.0
 30
0.0
  3
*Model_Space
  1

  0
ENDBLK
  5
335
330
333
100
AcDbEntity
  8
0
100
AcDbBlockEnd
  0
BLOCK
  5
330
330
32F
100
AcDbEntity
 67
     1
  8
0
100
AcDbBlockBegin
  2
*Paper_Space
 70
     0
 10
0.0
 20
0.0
 30
0.0
  3
*Paper_Space
  1

  0
ENDBLK
  5
331
330
32F
100
AcDbEntity
 67
     1
  8
0
100
AcDbBlockEnd
  0
ENDSEC
  0
SECTION
  2
ENTITIES
  0
LINE
  5
2D
330
333
100
AcDbEntity
  8
HIBINO-BASE
  6
Continuous
 62
     7
100
AcDbLine
 10
-1350.0
 20
1999.44541
 30
0.0
 11
1350.0
 21
1999.44541
 31
0.0
  0
LINE
  5
2E
330
333
100
AcDbEntity
  8
HIBINO-BASE
  6
Continuous
 62
     7
100
AcDbLine
 10
1350.0
 20
-1900.554590000001
 30
0.0
 11
-1350.0
 21
-1900.554590000001
 31
0.0
  0
LINE
  5
2F
330
333
100
AcDbEntity
  8
HIBINO-BASE
  6
Continuous
 62
     7
100
AcDbLine
 10
-1350.0
 20
-1900.554590000001
 30
0.0
 11
-1350.0
 21
1999.44541
 31
0.0
  0
LINE
  5
30
330
333
100
AcDbEntity
  8
HIBINO-BASE
  6
Continuous
 62
     7
100
AcDbLine
 10
1350.0
 20
1999.44541
 30
0.0
 11
1350.0
 21
-1900.554590000001
 31
0.0
  0
LINE
  5
31
330
333
100
AcDbEntity
  8
HIBINO-BASE
  6
Continuous
 62
     7
100
AcDbLine
 10
0.0000000000001066
 20
-1563.054590000001
 30
0.0
 11
1350.0
 21
-1563.054590000001
 31
0.0
  0
LINE
  5
32
330
333
100
AcDbEntity
  8
HIBINO-BASE
  6
Continuous
 62
     7
100
AcDbLine
 10
0.0000000000001066
 20
-1900.554590000001
 30
0.0
 11
0.0000000000001066
 21
-1563.054590000001
 31
0.0
  0
TEXT
  5
33
330
333
100
AcDbEntity
  8
HIBINO-BASE
 62
     7
100
AcDbText
 10
13.50000000000019
 20
-1600.68499
 30
0.0
 40
24.4326171875
  1
NOTE
 41
0.7
 11
13.50000000000019
 21
-1576.2523728125
 31
0.0
100
AcDbText
 73
     3
  0
LINE
  5
34
330
333
100
AcDbEntity
  8
HIBINO-BASE
  6
Continuous
 62
     7
100
AcDbLine
 10
525.0000000000003
 20
-1900.554590000001
 30
0.0
 11
525.0000000000003
 21
-1563.054590000001
 31
0.0
  0
TEXT
  5
35
330
333
100
AcDbEntity
  8
HIBINO-BASE
 62
     7
100
AcDbText
 10
538.4999999999999
 20
-1600.68499
 30
0.0
 40
24.4326171875
  1
TITLE
 41
0.7
 11
538.4999999999999
 21
-1576.2523728125
 31
0.0
100
AcDbText
 73
     3
  0
LINE
  5
36
330
333
100
AcDbEntity
  8
HIBINO-BASE
  6
Continuous
 62
     7
100
AcDbLine
 10
0.0000000000001066
 20
-1750.554590000001
 30
0.0
 11
1350.0
 21
-1750.554590000001
 31
0.0
  0
TEXT
  5
37
330
333
100
AcDbEntity
  8
HIBINO-BASE
 62
     7
100
AcDbText
 10
726.0
 20
-1787.34019
 30
0.0
 40
24.4326171875
  1
DRAWN
 41
0.7
 11
726.0
 21
-1762.9075728125
 31
0.0
100
AcDbText
 73
     3
  0
TEXT
  5
38
330
333
100
AcDbEntity
  8
HIBINO-BASE
 62
     7
100
AcDbText
 10
351.0
 20
-1787.34019
 30
0.0
 40
24.4326171875
  1
DATE
 41
0.7
 11
351.0
 21
-1762.9075728125
 31
0.0
100
AcDbText
 73
     3
  0
TEXT
  5
39
330
333
100
AcDbEntity
  8
HIBINO-BASE
 62
     7
100
AcDbText
 10
201.0
 20
-1787.34019
 30
0.0
 40
24.4326171875
  1
SCALE
 41
0.7
 11
201.0
 21
-1762.9075728125
 31
0.0
100
AcDbText
 73
     3
  0
TEXT
  5
3A
330
333
100
AcDbEntity
  8
HIBINO-BASE
 62
     7
100
AcDbText
 10
538.4999999999999
 20
-1787.34019
 30
0.0
 40
24.4326171875
  1
DESIGN
 41
0.7
 11
538.4999999999999
 21
-1762.9075728125
 31
0.0
100
AcDbText
 73
     3
  0
TEXT
  5
3B
330
333
100
AcDbEntity
  8
HIBINO-BASE
 62
     7
100
AcDbText
 10
1100.999999999999
 20
-1787.34019
 30
0.0
 40
24.4326171875
  1
DRAWING NO.
 41
0.7
 11
1100.999999999999
 21
-1762.9075728125
 31
0.0
100
AcDbText
 73
     3
  0
TEXT
  5
3C
330
333
100
AcDbEntity
  8
HIBINO-BASE
 62
     7
100
AcDbText
 10
913.4999999999999
 20
-1787.34019
 30
0.0
 40
24.4326171875
  1
CHECK
 41
0.7
 11
913.4999999999999
 21
-1762.9075728125
 31
0.0
100
AcDbText
 73
     3
  0
LINE
  5
3D
330
333
100
AcDbEntity
  8
HIBINO-BASE
  6
Continuous
 62
     7
100
AcDbLine
 10
215.6250000000001
 20
-1881.804590000001
 30
0.0
 11
271.8750000000004
 21
-1825.554590000001
 31
0.0
  0
TEXT
  5
3E
330
333
100
AcDbEntity
  8
HIBINO-BASE
 62
     7
100
AcDbText
 10
206.2500000000001
 20
-1842.18874
 30
0.0
 40
24.4326171875
  1
1
 41
0.7
 11
206.2500000000001
 21
-1817.7561228125
 31
0.0
100
AcDbText
 73
     3
  0
LINE
  5
3F
330
333
100
AcDbEntity
  8
HIBINO-BASE
  6
Continuous
 62
     7
100
AcDbLine
 10
187.5000000000001
 20
-1900.554590000001
 30
0.0
 11
187.5000000000001
 21
-1750.554590000001
 31
0.0
  0
LINE
  5
40
330
333
100
AcDbEntity
  8
HIBINO-BASE
  6
Continuous
 62
     7
100
AcDbLine
 10
337.4999999999999
 20
-1900.554590000001
 30
0.0
 11
337.4999999999999
 21
-1750.554590000001
 31
0.0
  0
LINE
  5
41
330
333
100
AcDbEntity
  8
HIBINO-BASE
  6
Continuous
 62
     7
100
AcDbLine
 10
712.4999999999996
 20
-1750.554590000001
 30
0.0
 11
712.4999999999996
 21
-1900.554590000001
 31
0.0
  0
LINE
  5
42
330
333
100
AcDbEntity
  8
HIBINO-BASE
  6
Continuous
 62
     7
100
AcDbLine
 10
1087.5
 20
-1750.554590000001
 30
0.0
 11
1087.5
 21
-1900.554590000001
 31
0.0
  0
LINE
  5
43
330
333
100
AcDbEntity
  8
HIBINO-BASE
  6
Continuous
 62
     7
100
AcDbLine
 10
899.9999999999996
 20
-1900.554590000001
 30
0.0
 11
899.9999999999996
 21
-1750.554590000001
 31
0.0
  0
TEXT
  5
44
330
333
100
AcDbEntity
  8
HIBINO-BASE
 62
     7
100
AcDbText
 10
350.3481000000002
 20
-1857.59989
 30
0.0
 40
24.4326171875
  1
'17.01.
 41
0.7
 11
350.3481000000002
 21
-1833.1672728125
 31
0.0
100
AcDbText
 73
     3
  0
TEXT
  5
45
330
333
100
AcDbEntity
  8
HIBINO-BASE
 62
     7
100
AcDbText
 10
262.5
 20
-1870.31374
 30
0.0
 40
24.4326171875
  1
15
 41
0.7
 11
262.5
 21
-1845.8811228125
 31
0.0
100
AcDbText
 73
     3
  0
TEXT
  5
46
330
333
100
AcDbEntity
  8
HIBINO-BASE
 62
     7
100
AcDbText
 10
735.0871501655194
 20
-1857.59989
 30
0.0
 40
24.4326171875
  1
N.Sasaki
 41
0.7
 11
735.0871501655194
 21
-1833.1672728125
 31
0.0
100
AcDbText
 73
     3
  0
TEXT
  5
47
330
333
100
AcDbEntity
  8
HIBINO-BASE
 62
     7
100
AcDbText
 10
58.25000000000041
 20
-1870.91459
 30
0.0
 40
48.86523437499999
  1
A4
 41
0.7
 11
58.25000000000041
 21
-1822.049355625
 31
0.0
100
AcDbText
 73
     3
  0
TEXT
  5
48
330
333
100
AcDbEntity
  8
HIBINO-BASE
 62
     7
100
AcDbText
 10
14.37500000000003
 20
-1789.846415
 30
0.0
 40
24.4326171875
  1
PAPER SIZE
 41
0.7
 11
14.37500000000003
 21
-1765.4137978125
 31
0.0
100
AcDbText
 73
     3
  0
TEXT
  5
49
330
333
100
AcDbEntity
  8
HIBINO-BASE
 62
     7
100
AcDbText
 10
-1242.24
 20
-1996.684757
 30
0.0
 40
54.00066269531249
  1
Hibino Corporation
 41
0.7
 11
-1242.24
 21
-1942.684094304688
 31
0.0
100
AcDbText
 73
     3
  0
TEXT
  5
4A
330
333
100
AcDbEntity
  8
HIBINO-BASE
 62
     7
100
AcDbText
 10
751.02585
 20
-1996.684757
 30
0.0
 40
54.00066269531249
  1
ヒビノ株式会社
 41
0.7
 11
751.02585
 21
-1942.684094304688
 31
0.0
100
AcDbText
 73
     3
  0
LINE
  5
4B
330
333
100
AcDbEntity
  8
SPEC
  6
Continuous
 62
     7
100
AcDbLine
 10
-1237.5
 20
1849.44541
 30
0.0
 11
975.0000000000001
 21
1849.44541
 31
0.0
  0
LINE
  5
4C
330
333
100
AcDbEntity
  8
SPEC
  6
Continuous
 62
     7
100
AcDbLine
 10
-1237.5
 20
1793.195409999999
 30
0.0
 11
975.0000000000001
 21
1793.195409999999
 31
0.0
  0
LINE
  5
4D
330
333
100
AcDbEntity
  8
SPEC
  6
Continuous
 62
     7
100
AcDbLine
 10
-1237.5
 20
1286.945409999999
 30
0.0
 11
975.0000000000001
 21
1286.945409999999
 31
0.0
  0
LINE
  5
4E
330
333
100
AcDbEntity
  8
SPEC
  6
Continuous
 62
     7
100
AcDbLine
 10
-1237.5
 20
1343.19541
 30
0.0
 11
975.0000000000001
 21
1343.19541
 31
0.0
  0
LINE
  5
4F
330
333
100
AcDbEntity
  8
SPEC
  6
Continuous
 62
     7
100
AcDbLine
 10
-1237.5
 20
1849.44541
 30
0.0
 11
-1237.5
 21
1286.945409999999
 31
0.0
  0
TEXT
  5
50
330
333
100
AcDbEntity
  8
SPEC
 62
     7
100
AcDbText
 10
-1218.75
 20
1870.344459999999
 30
0.0
 40
36.64892578125
  1
仕様
 41
0.7
 11
-1218.75
 21
1906.993385781249
 31
0.0
100
AcDbText
 73
     3
  0
LINE
  5
51
330
333
100
AcDbEntity
  8
SPEC
  6
Continuous
 62
     7
100
AcDbLine
 10
-749.9999999999996
 20
1849.44541
 30
0.0
 11
-749.9999999999996
 21
1286.945409999999
 31
0.0
  0
LINE
  5
52
330
333
100
AcDbEntity
  8
SPEC
  6
Continuous
 62
     7
100
AcDbLine
 10
975.0000000000001
 20
1849.44541
 30
0.0
 11
975.0000000000001
 21
1286.945409999999
 31
0.0
  0
TEXT
  5
53
330
333
100
AcDbEntity
  8
SPEC
 62
     7
100
AcDbText
 10
-1224.0
 20
1355.014176666666
 30
0.0
 40
28.50472005208333
  1
寸法(W×H×D)
 41
0.7
 11
-1224.0
 21
1383.518896718749
 31
0.0
100
AcDbText
 73
     3
  0
TEXT
  5
54
330
333
100
AcDbEntity
  8
SPEC
 62
     7
100
AcDbText
 10
-1224.0
 20
1298.764176666666
 30
0.0
 40
28.50472005208333
  1
質量
 41
0.7
 11
-1224.0
 21
1327.26889671875
 31
0.0
100
AcDbText
 73
     3
  0
TEXT
  5
55
330
333
100
AcDbEntity
  8
SPEC
 62
     7
100
AcDbText
 10
-736.4999999999996
 20
1355.014176666666
 30
0.0
 40
28.50472005208333
  1
561×551×815mm
 41
0.7
 11
-736.4999999999996
 21
1383.518896718749
 31
0.0
100
AcDbText
 73
     3
  0
TEXT
  5
56
330
333
100
AcDbEntity
  8
SPEC
 62
     7
100
AcDbText
 10
-736.4999999999996
 20
1298.764176666666
 30
0.0
 40
28.50472005208333
  1
44kg
 41
0.7
 11
-736.4999999999996
 21
1327.26889671875
 31
0.0
100
AcDbText
 73
     3
  0
LINE
  5
57
330
333
100
AcDbEntity
  8
SPEC
  6
Continuous
 62
     7
100
AcDbLine
 10
-1237.5
 20
1736.945409999999
 30
0.0
 11
975.0000000000001
 21
1736.945409999999
 31
0.0
  0
LINE
  5
58
330
333
100
AcDbEntity
  8
SPEC
  6
Continuous
 62
     7
100
AcDbLine
 10
-1237.5
 20
1680.695409999999
 30
0.0
 11
975.0000000000001
 21
1680.695409999999
 31
0.0
  0
LINE
  5
59
330
333
100
AcDbEntity
  8
SPEC
  6
Continuous
 62
     7
100
AcDbLine
 10
-1237.5
 20
1624.445409999999
 30
0.0
 11
975.0000000000001
 21
1624.445409999999
 31
0.0
  0
LINE
  5
5A
330
333
100
AcDbEntity
  8
SPEC
  6
Continuous
 62
     7
100
AcDbLine
 10
-1237.5
 20
1568.195409999999
 30
0.0
 11
975.0000000000001
 21
1568.195409999999
 31
0.0
  0
LINE
  5
5B
330
333
100
AcDbEntity
  8
SPEC
  6
Continuous
 62
     7
100
AcDbLine
 10
-1237.5
 20
1511.945409999999
 30
0.0
 11
975.0000000000001
 21
1511.945409999999
 31
0.0
  0
LINE
  5
5C
330
333
100
AcDbEntity
  8
SPEC
  6
Continuous
 62
     7
100
AcDbLine
 10
-1237.5
 20
1455.695409999999
 30
0.0
 11
975.0000000000001
 21
1455.695409999999
 31
0.0
  0
LINE
  5
5D
330
333
100
AcDbEntity
  8
SPEC
  6
Continuous
 62
     7
100
AcDbLine
 10
-1237.5
 20
1399.445409999999
 30
0.0
 11
975.0000000000001
 21
1399.445409999999
 31
0.0
  0
TEXT
  5
5E
330
333
100
AcDbEntity
  8
SPEC
 62
     7
100
AcDbText
 10
-736.4999999999996
 20
1805.014176666666
 30
0.0
 40
28.50472005208333
  1
22Hz～1kHz
 41
0.7
 11
-736.4999999999996
 21
1833.518896718749
 31
0.0
100
AcDbText
 73
     3
  0
TEXT
  5
5F
330
333
100
AcDbEntity
  8
SPEC
 62
     7
100
AcDbText
 10
-1224.0
 20
1805.014176666666
 30
0.0
 40
28.50472005208333
  1
周波数レンジ(-10dB)
 41
0.7
 11
-1224.0
 21
1833.518896718749
 31
0.0
100
AcDbText
 73
     3
  0
TEXT
  5
60
330
333
100
AcDbEntity
  8
SPEC
 62
     7
100
AcDbText
 10
-1224.0
 20
1748.764176666666
 30
0.0
 40
28.50472005208333
  1
許容入力※1
 41
0.7
 11
-1224.0
 21
1777.268896718749
 31
0.0
100
AcDbText
 73
     3
  0
TEXT
  5
61
330
333
100
AcDbEntity
  8
SPEC
 62
     7
100
AcDbText
 10
-736.4999999999996
 20
1748.764176666666
 30
0.0
 40
28.50472005208333
  1
2000W(2h)、1200W(100h)
 41
0.7
 11
-736.4999999999996
 21
1777.268896718749
 31
0.0
100
AcDbText
 73
     3
  0
TEXT
  5
62
330
333
100
AcDbEntity
  8
SPEC
 62
     7
100
AcDbText
 10
-736.4999999999996
 20
1692.514176666666
 30
0.0
 40
28.50472005208333
  1
96dB SPL(25Hz～200Hz)
 41
0.7
 11
-736.4999999999996
 21
1721.018896718749
 31
0.0
100
AcDbText
 73
     3
  0
TEXT
  5
63
330
333
100
AcDbEntity
  8
SPEC
 62
     7
100
AcDbText
 10
-1224.0
 20
1692.514176666666
 30
0.0
 40
28.50472005208333
  1
感度(1W、1m)
 41
0.7
 11
-1224.0
 21
1721.018896718749
 31
0.0
100
AcDbText
 73
     3
  0
TEXT
  5
64
330
333
100
AcDbEntity
  8
SPEC
 62
     7
100
AcDbText
 10
-1224.0
 20
1636.264176666666
 30
0.0
 40
28.50472005208333
  1
公称インピーダンス
 41
0.7
 11
-1224.0
 21
1664.768896718749
 31
0.0
100
AcDbText
 73
     3
  0
TEXT
  5
65
330
333
100
AcDbEntity
  8
SPEC
 62
     7
100
AcDbText
 10
-736.4999999999996
 20
1636.264176666666
 30
0.0
 40
28.50472005208333
  1
8Ω
 41
0.7
 11
-736.4999999999996
 21
1664.768896718749
 31
0.0
100
AcDbText
 73
     3
  0
TEXT
  5
66
330
333
100
AcDbEntity
  8
SPEC
 62
     7
100
AcDbText
 10
-1224.0
 20
1580.014176666666
 30
0.0
 40
28.50472005208333
  1
最大音圧(1m)
 41
0.7
 11
-1224.0
 21
1608.518896718749
 31
0.0
100
AcDbText
 73
     3
  0
TEXT
  5
67
330
333
100
AcDbEntity
  8
SPEC
 62
     7
100
AcDbText
 10
-736.4999999999996
 20
1580.014176666666
 30
0.0
 40
28.50472005208333
  1
129dB SPL(25Hz～200Hz)
 41
0.7
 11
-736.4999999999996
 21
1608.518896718749
 31
0.0
100
AcDbText
 73
     3
  0
TEXT
  5
68
330
333
100
AcDbEntity
  8
SPEC
 62
     7
100
AcDbText
 10
-736.4999999999996
 20
1523.764176666666
 30
0.0
 40
28.50472005208333
  1
460mm(2269H)
 41
0.7
 11
-736.4999999999996
 21
1552.268896718749
 31
0.0
100
AcDbText
 73
     3
  0
TEXT
  5
69
330
333
100
AcDbEntity
  8
SPEC
 62
     7
100
AcDbText
 10
-1224.0
 20
1523.764176666666
 30
0.0
 40
28.50472005208333
  1
ドライバー構成
 41
0.7
 11
-1224.0
 21
1552.268896718749
 31
0.0
100
AcDbText
 73
     3
  0
TEXT
  5
6A
330
333
100
AcDbEntity
  8
SPEC
 62
     7
100
AcDbText
 10
-736.4999999999996
 20
1467.514176666666
 30
0.0
 40
28.50472005208333
  1
ねじ止め端子、4Pスピコン
 41
0.7
 11
-736.4999999999996
 21
1496.018896718749
 31
0.0
100
AcDbText
 73
     3
  0
TEXT
  5
6B
330
333
100
AcDbEntity
  8
SPEC
 62
     7
100
AcDbText
 10
-1224.0
 20
1467.514176666666
 30
0.0
 40
28.50472005208333
  1
入力端子
 41
0.7
 11
-1224.0
 21
1496.018896718749
 31
0.0
100
AcDbText
 73
     3
  0
TEXT
  5
6C
330
333
100
AcDbEntity
  8
SPEC
 62
     7
100
AcDbText
 10
-736.4999999999996
 20
1411.264176666666
 30
0.0
 40
28.50472005208333
  1
DuraFlex/黒、白
 41
0.7
 11
-736.4999999999996
 21
1439.768896718749
 31
0.0
100
AcDbText
 73
     3
  0
TEXT
  5
6D
330
333
100
AcDbEntity
  8
SPEC
 62
     7
100
AcDbText
 10
-1224.0
 20
1411.264176666666
 30
0.0
 40
28.50472005208333
  1
仕上げ/色
 41
0.7
 11
-1224.0
 21
1439.768896718749
 31
0.0
100
AcDbText
 73
     3
  0
TEXT
  5
6E
330
333
100
AcDbEntity
  8
SPEC
 62
     7
100
AcDbText
 10
-1200.0
 20
1236.665
 30
0.0
 40
28.50472005208333
  1
※1 AESピンクノイズ、クレストファクタ ー6dB
 41
0.7
 11
-1200.0
 21
1265.169720052083
 31
0.0
100
AcDbText
 73
     3
  0
TEXT
  5
6F
330
333
100
AcDbEntity
  8
DIMNSIONS
 62
     7
100
AcDbText
 10
-299.9999999999999
 20
-1716.51224
 30
0.0
 40
36.64892578125
  1
(単位：mm)
 41
0.7
 11
-299.9999999999999
 21
-1679.86331421875
 31
0.0
100
AcDbText
 73
     3
  0
LINE
  5
70
330
333
100
AcDbEntity
  8
DIMNSIONS
  6
Continuous
 62
     7
100
AcDbLine
 10
-830.0
 20
-600.0
 30
0.0
 11
-1180.0
 21
-600.0
 31
0.0
  0
LINE
  5
71
330
333
100
AcDbEntity
  8
DIMNSIONS
  6
Continuous
 62
     7
100
AcDbLine
 10
-1097.8
 20
215.0
 30
0.0
 11
-1180.0
 21
215.0
 31
0.0
  0
LINE
  5
72
330
333
100
AcDbEntity
  8
DIMNSIONS
  6
Continuous
 62
     7
100
AcDbLine
 10
-1150.0
 20
-600.0
 30
0.0
 11
-1150.0
 21
215.0
 31
0.0
  0
LINE
  5
73
330
333
100
AcDbEntity
  8
DIMNSIONS
  6
Continuous
 62
     7
100
AcDbLine
 10
-1150.0
 20
-600.0
 30
0.0
 11
-1160.050596927253
 21
-562.4906616210937
 31
0.0
  0
LINE
  5
74
330
333
100
AcDbEntity
  8
DIMNSIONS
  6
Continuous
 62
     7
100
AcDbLine
 10
-1150.0
 20
-600.0
 30
0.0
 11
-1139.949403072746
 21
-562.4906616210937
 31
0.0
  0
LINE
  5
75
330
333
100
AcDbEntity
  8
DIMNSIONS
  6
Continuous
 62
     7
100
AcDbLine
 10
-1150.0
 20
215.0
 30
0.0
 11
-1139.949403072746
 21
177.4906616210937
 31
0.0
  0
LINE
  5
76
330
333
100
AcDbEntity
  8
DIMNSIONS
  6
Continuous
 62
     7
100
AcDbLine
 10
-1150.0
 20
215.0
 30
0.0
 11
-1160.050596927253
 21
177.4906616210937
 31
0.0
  0
TEXT
  5
77
330
333
100
AcDbEntity
  8
DIMNSIONS
 62
     7
100
AcDbText
 10
-1164.908333333333
 20
-232.1875
 30
0.0
 40
40.72102864583334
  1
815
 50
90.0
 41
0.7
 11
-1205.629361979166
 21
-232.1875
 31
0.0
100
AcDbText
 73
     3
  0
LINE
  5
78
330
333
100
AcDbEntity
  8
DIMNSIONS
  6
Continuous
 62
     7
100
AcDbLine
 10
-1097.8
 20
-749.0
 30
0.0
 11
-1180.0
 21
-749.0
 31
0.0
  0
LINE
  5
79
330
333
100
AcDbEntity
  8
DIMNSIONS
  6
Continuous
 62
     7
100
AcDbLine
 10
-1097.8
 20
-1300.0
 30
0.0
 11
-1180.0
 21
-1300.0
 31
0.0
  0
LINE
  5
7A
330
333
100
AcDbEntity
  8
DIMNSIONS
  6
Continuous
 62
     7
100
AcDbLine
 10
-1150.0
 20
-749.0
 30
0.0
 11
-1150.0
 21
-1300.0
 31
0.0
  0
LINE
  5
7B
330
333
100
AcDbEntity
  8
DIMNSIONS
  6
Continuous
 62
     7
100
AcDbLine
 10
-1150.0
 20
-749.0
 30
0.0
 11
-1139.949403072746
 21
-786.5093383789062
 31
0.0
  0
LINE
  5
7C
330
333
100
AcDbEntity
  8
DIMNSIONS
  6
Continuous
 62
     7
100
AcDbLine
 10
-1150.0
 20
-749.0
 30
0.0
 11
-1160.050596927253
 21
-786.5093383789062
 31
0.0
  0
LINE
  5
7D
330
333
100
AcDbEntity
  8
DIMNSIONS
  6
Continuous
 62
     7
100
AcDbLine
 10
-1150.0
 20
-1300.0
 30
0.0
 11
-1160.050596927253
 21
-1262.490661621093
 31
0.0
  0
LINE
  5
7E
330
333
100
AcDbEntity
  8
DIMNSIONS
  6
Continuous
 62
     7
100
AcDbLine
 10
-1150.0
 20
-1300.0
 30
0.0
 11
-1139.949403072746
 21
-1262.490661621093
 31
0.0
  0
TEXT
  5
7F
330
333
100
AcDbEntity
  8
DIMNSIONS
 62
     7
100
AcDbText
 10
-1164.908333333333
 20
-1064.1875
 30
0.0
 40
40.72102864583334
  1
551
 50
90.0
 41
0.7
 11
-1205.629361979166
 21
-1064.1875
 31
0.0
100
AcDbText
 73
     3
  0
LINE
  5
80
330
333
100
AcDbEntity
  8
DIMNSIONS
  6
Continuous
 62
     7
100
AcDbLine
 10
-1080.5
 20
-1316.55625
 30
0.0
 11
-1080.5
 21
-1430.0
 31
0.0
  0
LINE
  5
81
330
333
100
AcDbEntity
  8
DIMNSIONS
  6
Continuous
 62
     7
100
AcDbLine
 10
-519.5
 20
-1316.55625
 30
0.0
 11
-519.5
 21
-1430.0
 31
0.0
  0
LINE
  5
82
330
333
100
AcDbEntity
  8
DIMNSIONS
  6
Continuous
 62
     7
100
AcDbLine
 10
-1080.5
 20
-1400.0
 30
0.0
 11
-519.5
 21
-1400.0
 31
0.0
  0
LINE
  5
83
330
333
100
AcDbEntity
  8
DIMNSIONS
  6
Continuous
 62
     7
100
AcDbLine
 10
-1080.5
 20
-1400.0
 30
0.0
 11
-1042.990661621093
 21
-1389.949403072747
 31
0.0
  0
LINE
  5
84
330
333
100
AcDbEntity
  8
DIMNSIONS
  6
Continuous
 62
     7
100
AcDbLine
 10
-1080.5
 20
-1400.0
 30
0.0
 11
-1042.990661621093
 21
-1410.050596927253
 31
0.0
  0
LINE
  5
85
330
333
100
AcDbEntity
  8
DIMNSIONS
  6
Continuous
 62
     7
100
AcDbLine
 10
-519.5
 20
-1400.0
 30
0.0
 11
-557.0093383789063
 21
-1410.050596927254
 31
0.0
  0
LINE
  5
86
330
333
100
AcDbEntity
  8
DIMNSIONS
  6
Continuous
 62
     7
100
AcDbLine
 10
-519.5
 20
-1400.0
 30
0.0
 11
-557.0093383789063
 21
-1389.949403072747
 31
0.0
  0
TEXT
  5
87
330
333
100
AcDbEntity
  8
DIMNSIONS
 62
     7
100
AcDbText
 10
-839.6874999999999
 20
-1385.091666666666
 30
0.0
 40
40.72102864583334
  1
561
 41
0.7
 11
-839.6874999999999
 21
-1344.370638020833
 31
0.0
100
AcDbText
 73
     3
  0
LINE
  5
88
330
333
100
AcDbEntity
  8
DIMNSIONS
  6
Continuous
 62
     7
100
AcDbLine
 10
-1038.5
 20
-490.5
 30
0.0
 11
-1038.5
 21
-730.0
 31
0.0
  0
LINE
  5
89
330
333
100
AcDbEntity
  8
DIMNSIONS
  6
Continuous
 62
     7
100
AcDbLine
 10
-561.5000000000001
 20
-490.5
 30
0.0
 11
-561.5000000000001
 21
-730.0
 31
0.0
  0
LINE
  5
8A
330
333
100
AcDbEntity
  8
DIMNSIONS
  6
Continuous
 62
     7
100
AcDbLine
 10
-1038.5
 20
-700.0
 30
0.0
 11
-561.5000000000001
 21
-700.0
 31
0.0
  0
LINE
  5
8B
330
333
100
AcDbEntity
  8
DIMNSIONS
  6
Continuous
 62
     7
100
AcDbLine
 10
-1038.5
 20
-700.0
 30
0.0
 11
-1000.990661621094
 21
-689.9494030727464
 31
0.0
  0
LINE
  5
8C
330
333
100
AcDbEntity
  8
DIMNSIONS
  6
Continuous
 62
     7
100
AcDbLine
 10
-1038.5
 20
-700.0
 30
0.0
 11
-1000.990661621094
 21
-710.0505969272535
 31
0.0
  0
LINE
  5
8D
330
333
100
AcDbEntity
  8
DIMNSIONS
  6
Continuous
 62
     7
100
AcDbLine
 10
-561.5000000000001
 20
-700.0
 30
0.0
 11
-599.0093383789065
 21
-710.0505969272535
 31
0.0
  0
LINE
  5
8E
330
333
100
AcDbEntity
  8
DIMNSIONS
  6
Continuous
 62
     7
100
AcDbLine
 10
-561.5000000000001
 20
-700.0
 30
0.0
 11
-599.0093383789065
 21
-689.9494030727464
 31
0.0
  0
TEXT
  5
8F
330
333
100
AcDbEntity
  8
DIMNSIONS
 62
     7
100
AcDbText
 10
-852.9166666666668
 20
-685.0916666666667
 30
0.0
 40
40.72102864583334
  1
477 
 41
0.7
 11
-852.9166666666668
 21
-644.3706380208332
 31
0.0
100
AcDbText
 73
     3
  0
LINE
  5
90
330
333
100
AcDbEntity
  8
DIMNSIONS
  6
Continuous
 62
     7
100
AcDbLine
 10
299.4984697150428
 20
-791.0001754591079
 30
0.0
 11
454.9984697150428
 21
-791.0001754591079
 31
0.0
  0
LINE
  5
91
330
333
100
AcDbEntity
  8
DIMNSIONS
  6
Continuous
 62
     7
100
AcDbLine
 10
382.2993841581511
 20
-749.0001754591079
 30
0.0
 11
454.9984697150428
 21
-749.0001754591079
 31
0.0
  0
LINE
  5
92
330
333
100
AcDbEntity
  8
DIMNSIONS
  6
Continuous
 62
     7
100
AcDbLine
 10
424.9984697150428
 20
-749.0001754591079
 30
0.0
 11
424.9984697150428
 21
-791.0001754591079
 31
0.0
  0
LINE
  5
93
330
333
100
AcDbEntity
  8
DIMNSIONS
  6
Continuous
 62
     7
100
AcDbLine
 10
424.9984697150428
 20
-791.0001754591079
 30
0.0
 11
424.9984697150428
 21
-930.8335087924415
 31
0.0
  0
LINE
  5
94
330
333
100
AcDbEntity
  8
DIMNSIONS
  6
Continuous
 62
     7
100
AcDbLine
 10
424.9984697150428
 20
-791.0001754591079
 30
0.0
 11
435.0490666422965
 21
-828.5095138380141
 31
0.0
  0
LINE
  5
95
330
333
100
AcDbEntity
  8
DIMNSIONS
  6
Continuous
 62
     7
100
AcDbLine
 10
424.9984697150428
 20
-791.0001754591079
 30
0.0
 11
414.9478727877891
 21
-828.5095138380141
 31
0.0
  0
LINE
  5
96
330
333
100
AcDbEntity
  8
DIMNSIONS
  6
Continuous
 62
     7
100
AcDbLine
 10
424.9984697150428
 20
-749.0001754591079
 30
0.0
 11
424.9984697150428
 21
-674.0001754591081
 31
0.0
  0
LINE
  5
97
330
333
100
AcDbEntity
  8
DIMNSIONS
  6
Continuous
 62
     7
100
AcDbLine
 10
424.9984697150428
 20
-749.0001754591079
 30
0.0
 11
414.9478727877891
 21
-711.4908370802017
 31
0.0
  0
LINE
  5
98
330
333
100
AcDbEntity
  8
DIMNSIONS
  6
Continuous
 62
     7
100
AcDbLine
 10
424.9984697150428
 20
-749.0001754591079
 30
0.0
 11
435.0490666422965
 21
-711.4908370802017
 31
0.0
  0
TEXT
  5
99
330
333
100
AcDbEntity
  8
DIMNSIONS
 62
     7
100
AcDbText
 10
410.0901363817094
 20
-930.8335087924415
 30
0.0
 40
40.72102864583334
  1
42.0
 50
90.0
 41
0.7
 11
369.3691077358761
 21
-930.8335087924415
 31
0.0
100
AcDbText
 73
     3
  0
LINE
  5
9A
330
333
100
AcDbEntity
  8
DIMNSIONS
  6
Continuous
 62
     7
100
AcDbLine
 10
-502.2000000000002
 20
215.0
 30
0.0
 11
-420.0
 21
215.0
 31
0.0
  0
LINE
  5
9B
330
333
100
AcDbEntity
  8
DIMNSIONS
  6
Continuous
 62
     7
100
AcDbLine
 10
-531.5000000000001
 20
119.5
 30
0.0
 11
-420.0
 21
119.5
 31
0.0
  0
LINE
  5
9C
330
333
100
AcDbEntity
  8
DIMNSIONS
  6
Continuous
 62
     7
100
AcDbLine
 10
-450.0
 20
215.0
 30
0.0
 11
-450.0
 21
330.8333333333334
 31
0.0
  0
LINE
  5
9D
330
333
100
AcDbEntity
  8
DIMNSIONS
  6
Continuous
 62
     7
100
AcDbLine
 10
-450.0
 20
215.0
 30
0.0
 11
-450.0
 21
119.5
 31
0.0
  0
LINE
  5
9E
330
333
100
AcDbEntity
  8
DIMNSIONS
  6
Continuous
 62
     7
100
AcDbLine
 10
-450.0
 20
215.0
 30
0.0
 11
-439.9494030727463
 21
177.4906616210937
 31
0.0
  0
LINE
  5
9F
330
333
100
AcDbEntity
  8
DIMNSIONS
  6
Continuous
 62
     7
100
AcDbLine
 10
-450.0
 20
215.0
 30
0.0
 11
-460.0505969272536
 21
177.4906616210937
 31
0.0
  0
LINE
  5
A0
330
333
100
AcDbEntity
  8
DIMNSIONS
  6
Continuous
 62
     7
100
AcDbLine
 10
-450.0
 20
119.5
 30
0.0
 11
-460.0505969272536
 21
157.0093383789062
 31
0.0
  0
LINE
  5
A1
330
333
100
AcDbEntity
  8
DIMNSIONS
  6
Continuous
 62
     7
100
AcDbLine
 10
-450.0
 20
119.5
 30
0.0
 11
-439.9494030727463
 21
157.0093383789062
 31
0.0
  0
TEXT
  5
A2
330
333
100
AcDbEntity
  8
DIMNSIONS
 62
     7
100
AcDbText
 10
-464.9083333333333
 20
225.0
 30
0.0
 40
40.72102864583334
  1
95.5
 50
90.0
 41
0.7
 11
-505.6293619791666
 21
225.0
 31
0.0
100
AcDbText
 73
     3
  0
LINE
  5
A3
330
333
100
AcDbEntity
  8
DIMNSIONS
  6
Continuous
 62
     7
100
AcDbLine
 10
-531.5000000000001
 20
119.5
 30
0.0
 11
-420.0
 21
119.5
 31
0.0
  0
LINE
  5
A4
330
333
100
AcDbEntity
  8
DIMNSIONS
  6
Continuous
 62
     7
100
AcDbLine
 10
-531.5000000000001
 20
-460.5
 30
0.0
 11
-420.0
 21
-460.5
 31
0.0
  0
LINE
  5
A5
330
333
100
AcDbEntity
  8
DIMNSIONS
  6
Continuous
 62
     7
100
AcDbLine
 10
-450.0
 20
119.5
 30
0.0
 11
-450.0
 21
-460.5
 31
0.0
  0
LINE
  5
A6
330
333
100
AcDbEntity
  8
DIMNSIONS
  6
Continuous
 62
     7
100
AcDbLine
 10
-450.0
 20
119.5
 30
0.0
 11
-439.9494030727463
 21
81.99066162109375
 31
0.0
  0
LINE
  5
A7
330
333
100
AcDbEntity
  8
DIMNSIONS
  6
Continuous
 62
     7
100
AcDbLine
 10
-450.0
 20
119.5
 30
0.0
 11
-460.0505969272536
 21
81.99066162109375
 31
0.0
  0
LINE
  5
A8
330
333
100
AcDbEntity
  8
DIMNSIONS
  6
Continuous
 62
     7
100
AcDbLine
 10
-450.0
 20
-460.5
 30
0.0
 11
-460.0505969272536
 21
-422.9906616210937
 31
0.0
  0
LINE
  5
A9
330
333
100
AcDbEntity
  8
DIMNSIONS
  6
Continuous
 62
     7
100
AcDbLine
 10
-450.0
 20
-460.5
 30
0.0
 11
-439.9494030727463
 21
-422.9906616210937
 31
0.0
  0
TEXT
  5
AA
330
333
100
AcDbEntity
  8
DIMNSIONS
 62
     7
100
AcDbText
 10
-464.9083333333331
 20
-210.1875
 30
0.0
 40
40.72102864583334
  1
580
 50
90.0
 41
0.7
 11
-505.6293619791666
 21
-210.1875
 31
0.0
100
AcDbText
 73
     3
  0
LINE
  5
AB
330
333
100
AcDbEntity
  8
DIMNSIONS
  6
Continuous
 62
     7
100
AcDbLine
 10
-558.671045890657
 20
-471.3120300891336
 30
0.0
 11
-525.0
 21
-600.0
 31
0.0
  0
LINE
  5
AC
330
333
100
AcDbEntity
  8
DIMNSIONS
  6
Continuous
 62
     7
100
AcDbLine
 10
-558.671045890657
 20
-471.3120300891336
 30
0.0
 11
-539.2547836073454
 21
-504.9419828569128
 31
0.0
  0
LINE
  5
AD
330
333
100
AcDbEntity
  8
DIMNSIONS
  6
Continuous
 62
     7
100
AcDbLine
 10
-558.671045890657
 20
-471.3120300891336
 30
0.0
 11
-558.671045890657
 21
-510.1445546557571
 31
0.0
  0
LINE
  5
AE
330
333
100
AcDbEntity
  8
DIMNSIONS
  6
Continuous
 62
     7
100
AcDbLine
 10
-525.0
 20
-600.0
 30
0.0
 11
-495.0000000000001
 21
-600.0
 31
0.0
  0
TEXT
  5
AF
330
333
100
AcDbEntity
  8
DIMNSIONS
 62
     7
100
AcDbText
 10
-495.0000000000001
 20
-619.0500000000001
 30
0.0
 40
40.72102864583334
  1
M10(8ヵ所)
 41
0.7
 11
-495.0000000000001
 21
-578.3289713541667
 31
0.0
100
AcDbText
 73
     3
  0
LINE
  5
B0
330
333
100
AcDbEntity
  8
DIMNSIONS
  6
Continuous
 62
     7
100
AcDbLine
 10
299.4984697150428
 20
-1258.000175459108
 30
0.0
 11
454.9984697150428
 21
-1258.000175459108
 31
0.0
  0
LINE
  5
B1
330
333
100
AcDbEntity
  8
DIMNSIONS
  6
Continuous
 62
     7
100
AcDbLine
 10
382.2993841581511
 20
-1300.000175459108
 30
0.0
 11
454.9984697150428
 21
-1300.000175459108
 31
0.0
  0
LINE
  5
B2
330
333
100
AcDbEntity
  8
DIMNSIONS
  6
Continuous
 62
     7
100
AcDbLine
 10
424.9984697150428
 20
-1300.000175459108
 30
0.0
 11
424.9984697150428
 21
-1258.000175459108
 31
0.0
  0
LINE
  5
B3
330
333
100
AcDbEntity
  8
DIMNSIONS
  6
Continuous
 62
     7
100
AcDbLine
 10
424.9984697150428
 20
-1258.000175459108
 30
0.0
 11
424.9984697150428
 21
-1119.166842125775
 31
0.0
  0
LINE
  5
B4
330
333
100
AcDbEntity
  8
DIMNSIONS
  6
Continuous
 62
     7
100
AcDbLine
 10
424.9984697150428
 20
-1258.000175459108
 30
0.0
 11
414.9478727877891
 21
-1220.490837080202
 31
0.0
  0
LINE
  5
B5
330
333
100
AcDbEntity
  8
DIMNSIONS
  6
Continuous
 62
     7
100
AcDbLine
 10
424.9984697150428
 20
-1258.000175459108
 30
0.0
 11
435.0490666422965
 21
-1220.490837080202
 31
0.0
  0
LINE
  5
B6
330
333
100
AcDbEntity
  8
DIMNSIONS
  6
Continuous
 62
     7
100
AcDbLine
 10
424.9984697150428
 20
-1300.000175459108
 30
0.0
 11
424.9984697150428
 21
-1375.000175459108
 31
0.0
  0
LINE
  5
B7
330
333
100
AcDbEntity
  8
DIMNSIONS
  6
Continuous
 62
     7
100
AcDbLine
 10
424.9984697150428
 20
-1300.000175459108
 30
0.0
 11
435.0490666422965
 21
-1337.509513838014
 31
0.0
  0
LINE
  5
B8
330
333
100
AcDbEntity
  8
DIMNSIONS
  6
Continuous
 62
     7
100
AcDbLine
 10
424.9984697150428
 20
-1300.000175459108
 30
0.0
 11
414.9478727877891
 21
-1337.509513838014
 31
0.0
  0
TEXT
  5
B9
330
333
100
AcDbEntity
  8
DIMNSIONS
 62
     7
100
AcDbText
 10
410.0901363817094
 20
-1225.000175459108
 30
0.0
 40
40.72102864583334
  1
42.0
 50
90.0
 41
0.7
 11
369.3691077358761
 21
-1225.000175459108
 31
0.0
100
AcDbText
 73
     3
  0
TEXT
  5
BA
330
333
100
AcDbEntity
  8
DIMNSIONS
 62
     7
100
AcDbText
 10
100.0
 20
-1519.05
 30
0.0
 40
40.72102864583334
  1
※ センタ ー振り分け
 41
0.7
 11
100.0
 21
-1478.328971354167
 31
0.0
100
AcDbText
 73
     3
  0
TEXT
  5
BB
330
333
100
AcDbEntity
  8
DIMNSIONS
 62
     7
100
AcDbText
 10
-771.4317878336743
 20
-658.8747347920929
 30
0.0
 40
28.50472005208333
  1
※
 41
0.7
 11
-771.4317878336743
 21
-630.3700147400096
 31
0.0
100
AcDbText
 73
     3
  0
LINE
  5
BC
330
333
100
AcDbEntity
  8
DIMNSIONS
  6
Continuous
 62
     7
100
AcDbLine
 10
364.9993841581511
 20
-731.7001754591081
 30
0.0
 11
364.9993841581511
 21
-670.0001754591081
 31
0.0
  0
LINE
  5
BD
330
333
100
AcDbEntity
  8
DIMNSIONS
  6
Continuous
 62
     7
100
AcDbLine
 10
269.4984697150428
 20
-761.0001754591079
 30
0.0
 11
269.4984697150428
 21
-670.0001754591081
 31
0.0
  0
LINE
  5
BE
330
333
100
AcDbEntity
  8
DIMNSIONS
  6
Continuous
 62
     7
100
AcDbLine
 10
364.9993841581511
 20
-700.0001754591082
 30
0.0
 11
269.4984697150428
 21
-700.0001754591082
 31
0.0
  0
LINE
  5
BF
330
333
100
AcDbEntity
  8
DIMNSIONS
  6
Continuous
 62
     7
100
AcDbLine
 10
364.9993841581511
 20
-700.0001754591082
 30
0.0
 11
327.4900457792448
 21
-710.0507723863617
 31
0.0
  0
LINE
  5
C0
330
333
100
AcDbEntity
  8
DIMNSIONS
  6
Continuous
 62
     7
100
AcDbLine
 10
364.9993841581511
 20
-700.0001754591082
 30
0.0
 11
327.4900457792448
 21
-689.9495785318544
 31
0.0
  0
LINE
  5
C1
330
333
100
AcDbEntity
  8
DIMNSIONS
  6
Continuous
 62
     7
100
AcDbLine
 10
269.4984697150428
 20
-700.0001754591082
 30
0.0
 11
307.0078080939491
 21
-689.9495785318544
 31
0.0
  0
LINE
  5
C2
330
333
100
AcDbEntity
  8
DIMNSIONS
  6
Continuous
 62
     7
100
AcDbLine
 10
269.4984697150428
 20
-700.0001754591082
 30
0.0
 11
307.0078080939491
 21
-710.0507723863617
 31
0.0
  0
TEXT
  5
C3
330
333
100
AcDbEntity
  8
DIMNSIONS
 62
     7
100
AcDbText
 10
264.3322602699303
 20
-667.5918421257748
 30
0.0
 40
40.72102864583334
  1
95.5
 41
0.7
 11
264.3322602699303
 21
-626.8708134799413
 31
0.0
100
AcDbText
 73
     3
  0
LINE
  5
C4
330
333
100
AcDbEntity
  8
DIMNSIONS
  6
Continuous
 62
     7
100
AcDbLine
 10
269.4984697150428
 20
-761.0001754591079
 30
0.0
 11
269.4984697150428
 21
-670.0001754591081
 31
0.0
  0
LINE
  5
C5
330
333
100
AcDbEntity
  8
DIMNSIONS
  6
Continuous
 62
     7
100
AcDbLine
 10
-310.5015302849572
 20
-761.0001754591079
 30
0.0
 11
-310.5015302849572
 21
-670.0001754591081
 31
0.0
  0
LINE
  5
C6
330
333
100
AcDbEntity
  8
DIMNSIONS
  6
Continuous
 62
     7
100
AcDbLine
 10
269.4984697150428
 20
-700.0001754591082
 30
0.0
 11
-310.5015302849572
 21
-700.0001754591082
 31
0.0
  0
LINE
  5
C7
330
333
100
AcDbEntity
  8
DIMNSIONS
  6
Continuous
 62
     7
100
AcDbLine
 10
269.4984697150428
 20
-700.0001754591082
 30
0.0
 11
231.9891313361365
 21
-710.0507723863617
 31
0.0
  0
LINE
  5
C8
330
333
100
AcDbEntity
  8
DIMNSIONS
  6
Continuous
 62
     7
100
AcDbLine
 10
269.4984697150428
 20
-700.0001754591082
 30
0.0
 11
231.9891313361365
 21
-689.9495785318544
 31
0.0
  0
LINE
  5
C9
330
333
100
AcDbEntity
  8
DIMNSIONS
  6
Continuous
 62
     7
100
AcDbLine
 10
-310.5015302849572
 20
-700.0001754591082
 30
0.0
 11
-272.9921919060509
 21
-689.9495785318544
 31
0.0
  0
LINE
  5
CA
330
333
100
AcDbEntity
  8
DIMNSIONS
  6
Continuous
 62
     7
100
AcDbLine
 10
-310.5015302849572
 20
-700.0001754591082
 30
0.0
 11
-272.9921919060509
 21
-710.0507723863617
 31
0.0
  0
TEXT
  5
CB
330
333
100
AcDbEntity
  8
DIMNSIONS
 62
     7
100
AcDbText
 10
-60.1890302849572
 20
-685.0918421257747
 30
0.0
 40
40.72102864583334
  1
580
 41
0.7
 11
-60.1890302849572
 21
-644.3708134799414
 31
0.0
100
AcDbText
 73
     3
  0
LINE
  5
CC
330
333
100
AcDbEntity
  8
DIMNSIONS
  6
Continuous
 62
     7
100
AcDbLine
 10
-309.5025706252178
 20
-1269.131440239061
 30
0.0
 11
-300.0015302849572
 21
-1375.000175459108
 31
0.0
  0
LINE
  5
CD
330
333
100
AcDbEntity
  8
DIMNSIONS
  6
Continuous
 62
     7
100
AcDbLine
 10
-309.5025706252178
 20
-1269.131440239061
 30
0.0
 11
-295.5862384206095
 21
-1305.384725085932
 31
0.0
  0
LINE
  5
CE
330
333
100
AcDbEntity
  8
DIMNSIONS
  6
Continuous
 62
     7
100
AcDbLine
 10
-309.5025706252178
 20
-1269.131440239061
 30
0.0
 11
-315.5773158319592
 21
-1307.48587198939
 31
0.0
  0
LINE
  5
CF
330
333
100
AcDbEntity
  8
DIMNSIONS
  6
Continuous
 62
     7
100
AcDbLine
 10
-300.0015302849572
 20
-1375.000175459108
 30
0.0
 11
-270.0015302849573
 21
-1375.000175459108
 31
0.0
  0
TEXT
  5
D0
330
333
100
AcDbEntity
  8
DIMNSIONS
 62
     7
100
AcDbText
 10
-270.0015302849573
 20
-1394.050175459108
 30
0.0
 40
40.72102864583334
  1
M10(8ヵ所)
 41
0.7
 11
-270.0015302849573
 21
-1353.329146813274
 31
0.0
100
AcDbText
 73
     3
  0
TEXT
  5
D1
330
333
100
AcDbEntity
  8
DATA
 62
     7
100
AcDbText
 10
-1312.5
 20
-1782.410423333334
 30
0.0
 40
28.50472005208334
  1
※仕様及び外観は予告なく変更されることがあります。
 41
0.7
 11
-1312.5
 21
-1753.905703281251
 31
0.0
100
AcDbText
 73
     3
  0
TEXT
  5
D2
330
333
100
AcDbEntity
  8
DATA
 62
     7
100
AcDbText
 10
-1312.5
 20
-1819.45209
 30
0.0
 40
28.50472005208334
  1
　また、同一商品でも若干の個体差があることがあります。ご了承ください。
 41
0.7
 11
-1312.5
 21
-1790.947369947917
 31
0.0
100
AcDbText
 73
     3
  0
TEXT
  5
D3
330
333
100
AcDbEntity
  8
DATA
 62
     7
100
AcDbText
 10
749.9999999999996
 20
-1624.84124
 30
0.0
 40
36.64892578125
  1
JBL PROFESSIONAL
 41
0.7
 11
749.9999999999996
 21
-1588.19231421875
 31
0.0
100
AcDbText
 73
     3
  0
TEXT
  5
D4
330
333
100
AcDbEntity
  8
DATA
 62
     7
100
AcDbText
 10
749.9999999999996
 20
-1733.59124
 30
0.0
 40
36.64892578125
  1
ASB7118
 41
0.7
 11
749.9999999999996
 21
-1696.94231421875
 31
0.0
100
AcDbText
 73
     3
  0
TEXT
  5
D5
330
333
100
AcDbEntity
  8
DATA
 62
     7
100
AcDbText
 10
712.4999999999996
 20
-1681.546398333334
 30
0.0
 40
28.50472005208333
  1
サブウーファー 
 41
0.7
 11
712.4999999999996
 21
-1653.04167828125
 31
0.0
100
AcDbText
 73
     3
  0
TEXT
  5
D6
330
333
100
AcDbEntity
  8
DATA
 62
     7
100
AcDbText
 10
-816.02548828125
 20
-1191.02001953125
 30
0.0
 40
4.0400390625
  1
PROFESSIONAL
 41
0.7
 72
     1
 11
-800.0
 21
-1189.0
 31
0.0
100
AcDbText
 73
     2
  0
TEXT
  5
D7
330
333
100
AcDbEntity
  8
DATA
 62
     7
100
AcDbText
 10
727.6495280643311
 20
-1059.054077148437
 30
0.0
 40
6.108154296875
  1
1+
 41
0.7
 72
     1
 11
730.5000000695395
 21
-1056.0
 31
0.0
100
AcDbText
 73
     2
  0
TEXT
  5
D8
330
333
100
AcDbEntity
  8
DATA
 62
     7
100
AcDbText
 10
740.6495280643312
 20
-1059.054077148437
 30
0.0
 40
6.108154296875
  1
1-
 41
0.7
 72
     1
 11
743.5000000695395
 21
-1056.0
 31
0.0
100
AcDbText
 73
     2
  0
TEXT
  5
D9
330
333
100
AcDbEntity
  8
DATA
 62
     7
100
AcDbText
 10
752.9369100630291
 20
-1059.054077148437
 30
0.0
 40
6.108154296875
  1
2+
 41
0.7
 72
     1
 11
756.5000000695395
 21
-1056.0
 31
0.0
100
AcDbText
 73
     2
  0
TEXT
  5
DA
330
333
100
AcDbEntity
  8
DATA
 62
     7
100
AcDbText
 10
765.9369100630291
 20
-1059.054077148437
 30
0.0
 40
6.108154296875
  1
2-
 41
0.7
 72
     1
 11
769.5000000695395
 21
-1056.0
 31
0.0
100
AcDbText
 73
     2
  0
TEXT
  5
DB
330
333
100
AcDbEntity
  8
DATA
 62
     7
100
AcDbText
 10
773.7499998261529
 20
-994.8
 30
0.0
 40
3.84765625
  1
(N/A)
 41
0.7
 11
773.7499998261529
 21
-990.9523437499998
 31
0.0
100
AcDbText
 73
     3
  0
TEXT
  5
DC
330
333
100
AcDbEntity
  8
DATA
 62
     7
100
AcDbText
 10
713.0
 20
-966.7999999999999
 30
0.0
 40
3.84765625
  1
Model: ASB7118
 41
0.7
 11
713.0
 21
-962.9523437499999
 31
0.0
100
AcDbText
 73
     3
  0
TEXT
  5
DD
330
333
100
AcDbEntity
  8
DATA
 62
     7
100
AcDbText
 10
729.6238199869791
 20
-975.2027180989584
 30
0.0
 40
4.072102864583333
  1
Wiring:
 41
0.7
 72
     1
 11
736.7499999999999
 21
-973.1666666666669
 31
0.0
100
AcDbText
 73
     2
  0
TEXT
  5
DE
330
333
100
AcDbEntity
  8
DATA
 62
     7
100
AcDbText
 10
753.2733479817708
 20
-975.2027180989584
 30
0.0
 40
4.072102864583333
  1
Discrete
 41
0.7
 72
     1
 11
763.25
 21
-973.1666666666669
 31
0.0
100
AcDbText
 73
     2
  0
TEXT
  5
DF
330
333
100
AcDbEntity
  8
DATA
 62
     7
100
AcDbText
 10
731.0490559895832
 20
-981.5360514322916
 30
0.0
 40
4.072102864583333
  1
1+/1-
 41
0.7
 72
     1
 11
736.7499999999999
 21
-979.4999999999999
 31
0.0
100
AcDbText
 73
     2
  0
TEXT
  5
E0
330
333
100
AcDbEntity
  8
DATA
 62
     7
100
AcDbText
 10
760.8746066623264
 20
-981.5360514322916
 30
0.0
 40
4.072102864583333
  1
LF
 41
0.7
 72
     1
 11
763.25
 21
-979.4999999999999
 31
0.0
100
AcDbText
 73
     2
  0
TEXT
  5
E1
330
333
100
AcDbEntity
  8
DATA
 62
     7
100
AcDbText
 10
730.0988986545138
 20
-987.8693847656251
 30
0.0
 40
4.072102864583333
  1
2+/2-
 41
0.7
 72
     1
 11
736.7499999999999
 21
-985.8333333333334
 31
0.0
100
AcDbText
 73
     2
  0
TEXT
  5
E2
330
333
100
AcDbEntity
  8
DATA
 62
     7
100
AcDbText
 10
756.1238199869791
 20
-987.8693847656251
 30
0.0
 40
4.072102864583333
  1
(Thru)
 41
0.7
 72
     1
 11
763.25
 21
-985.8333333333334
 31
0.0
100
AcDbText
 73
     2
  0
TEXT
  5
E3
330
333
100
AcDbEntity
  8
DATA
 62
     7
100
AcDbText
 10
711.4999997549588
 20
-994.8
 30
0.0
 40
3.84765625
  1
(Discrete)
 41
0.7
 11
711.4999997549588
 21
-990.9523437499998
 31
0.0
100
AcDbText
 73
     3
  0
TEXT
  5
E4
330
333
100
AcDbEntity
  8
DATA
 62
     7
100
AcDbText
 10
743.5466964503181
 20
218.6214599609375
 30
0.0
 40
42.75708007812499
  1
1+
 41
0.7
 72
     1
 11
763.5000004867764
 21
240.0
 31
0.0
100
AcDbText
 73
     2
  0
TEXT
  5
E5
330
333
100
AcDbEntity
  8
DATA
 62
     7
100
AcDbText
 10
834.5466964503181
 20
218.6214599609375
 30
0.0
 40
42.75708007812499
  1
1-
 41
0.7
 72
     1
 11
854.5000004867764
 21
240.0
 31
0.0
100
AcDbText
 73
     2
  0
TEXT
  5
E6
330
333
100
AcDbEntity
  8
DATA
 62
     7
100
AcDbText
 10
920.5583704412035
 20
218.6214599609375
 30
0.0
 40
42.75708007812499
  1
2+
 41
0.7
 72
     1
 11
945.5000004867764
 21
240.0
 31
0.0
100
AcDbText
 73
     2
  0
TEXT
  5
E7
330
333
100
AcDbEntity
  8
DATA
 62
     7
100
AcDbText
 10
1011.558370441203
 20
218.6214599609375
 30
0.0
 40
42.75708007812499
  1
2-
 41
0.7
 72
     1
 11
1036.500000486776
 21
240.0
 31
0.0
100
AcDbText
 73
     2
  0
TEXT
  5
E8
330
333
100
AcDbEntity
  8
DATA
 62
     7
100
AcDbText
 10
1066.249998783071
 20
668.4
 30
0.0
 40
26.93359375
  1
(N/A)
 41
0.7
 11
1066.249998783071
 21
695.33359375
 31
0.0
100
AcDbText
 73
     3
  0
TEXT
  5
E9
330
333
100
AcDbEntity
  8
DATA
 62
     7
100
AcDbText
 10
641.0
 20
864.4
 30
0.0
 40
26.93359375
  1
Model: ASB7118
 41
0.7
 11
641.0
 21
891.3335937499999
 31
0.0
100
AcDbText
 73
     3
  0
TEXT
  5
EA
330
333
100
AcDbEntity
  8
DATA
 62
     7
100
AcDbText
 10
757.3667399088542
 20
805.5809733072912
 30
0.0
 40
28.50472005208333
  1
Wiring:
 41
0.7
 72
     1
 11
807.2499999999999
 21
819.8333333333328
 31
0.0
100
AcDbText
 73
     2
  0
TEXT
  5
EB
330
333
100
AcDbEntity
  8
DATA
 62
     7
100
AcDbText
 10
922.9134358723959
 20
805.5809733072912
 30
0.0
 40
28.50472005208333
  1
Discrete
 41
0.7
 72
     1
 11
992.75
 21
819.8333333333328
 31
0.0
100
AcDbText
 73
     2
  0
TEXT
  5
EC
330
333
100
AcDbEntity
  8
DATA
 62
     7
100
AcDbText
 10
767.3433919270832
 20
761.2476399739583
 30
0.0
 40
28.50472005208333
  1
1+/1-
 41
0.7
 72
     1
 11
807.2499999999999
 21
775.4999999999999
 31
0.0
100
AcDbText
 73
     2
  0
TEXT
  5
ED
330
333
100
AcDbEntity
  8
DATA
 62
     7
100
AcDbText
 10
976.1222466362847
 20
761.2476399739575
 30
0.0
 40
28.50472005208333
  1
LF
 41
0.7
 72
     1
 11
992.75
 21
775.4999999999991
 31
0.0
100
AcDbText
 73
     2
  0
TEXT
  5
EE
330
333
100
AcDbEntity
  8
DATA
 62
     7
100
AcDbText
 10
760.6922905815972
 20
716.9143066406247
 30
0.0
 40
28.50472005208333
  1
2+/2-
 41
0.7
 72
     1
 11
807.2499999999999
 21
731.1666666666663
 31
0.0
100
AcDbText
 73
     2
  0
TEXT
  5
EF
330
333
100
AcDbEntity
  8
DATA
 62
     7
100
AcDbText
 10
942.866739908854
 20
716.9143066406247
 30
0.0
 40
28.50472005208333
  1
(Thru)
 41
0.7
 72
     1
 11
992.75
 21
731.1666666666663
 31
0.0
100
AcDbText
 73
     2
  0
TEXT
  5
F0
330
333
100
AcDbEntity
  8
DATA
 62
     7
100
AcDbText
 10
630.4999982847111
 20
668.4
 30
0.0
 40
26.93359375
  1
(Discrete)
 41
0.7
 11
630.4999982847111
 21
695.33359375
 31
0.0
100
AcDbText
 73
     3
  0
LWPOLYLINE
  5
F1
330
333
100
AcDbEntity
  8
DATA
  6
Continuous
 62
     7
100
AcDbPolyline
 90
        4
 70
     1
 43
0.0
 10
-820.0
 20
-1152.0
 10
-780.0
 20
-1152.0
 10
-780.0
 20
-1192.0
 10
-820.0
 20
-1192.0
  0
LWPOLYLINE
  5
F8
330
333
100
AcDbEntity
  8
DATA
  6
Continuous
 62
     7
100
AcDbPolyline
 90
        4
 70
     1
 43
0.0
 10
709.4999999999999
 20
-1064.0
 10
790.5
 20
-1064.0
 10
790.5
 20
-1082.0
 10
709.4999999999999
 20
-1082.0
  0
LWPOLYLINE
  5
FF
330
333
100
AcDbEntity
  8
DATA
  6
Continuous
 62
     7
100
AcDbPolyline
 90
        4
 70
     1
 43
0.0
 10
710.0
 20
-960.0
 10
790.0
 20
-960.0
 10
790.0
 20
-997.4999999999999
 10
710.0
 20
-997.4999999999999
  0
LWPOLYLINE
  5
106
330
333
100
AcDbEntity
  8
DATA
  6
Continuous
 62
     7
100
AcDbPolyline
 90
        4
 70
     1
 43
0.0
 10
723.5
 20
-970.0
 10
776.5
 20
-970.0
 10
776.5
 20
-989.0
 10
723.5
 20
-989.0
  0
LWPOLYLINE
  5
10D
330
333
100
AcDbEntity
  8
DATA
  6
Continuous
 62
     7
100
AcDbPolyline
 90
        4
 70
     1
 43
0.0
 10
703.0
 20
-940.75
 10
797.0
 20
-940.75
 10
797.0
 20
-1111.75
 10
703.0
 20
-1111.75
  0
LWPOLYLINE
  5
114
330
333
100
AcDbEntity
  8
DATA
  6
Continuous
 62
     7
100
AcDbPolyline
 90
        4
 70
     1
 43
0.0
 10
616.5
 20
184.0
 10
1183.5
 20
184.0
 10
1183.5
 20
58.0
 10
616.5
 20
58.0
  0
LWPOLYLINE
  5
11B
330
333
100
AcDbEntity
  8
DATA
  6
Continuous
 62
     7
100
AcDbPolyline
 90
        4
 70
     1
 43
0.0
 10
620.0
 20
912.0
 10
1180.0
 20
912.0
 10
1180.0
 20
649.5
 10
620.0
 20
649.5
  0
LWPOLYLINE
  5
122
330
333
100
AcDbEntity
  8
DATA
  6
Continuous
 62
     7
100
AcDbPolyline
 90
        4
 70
     1
 43
0.0
 10
714.5
 20
842.0
 10
1085.5
 20
842.0
 10
1085.5
 20
709.0
 10
714.5
 20
709.0
  0
LWPOLYLINE
  5
129
330
333
100
AcDbEntity
  8
DATA
  6
Continuous
 62
     7
100
AcDbPolyline
 90
        4
 70
     1
 43
0.0
 10
571.0
 20
1046.75
 10
1229.0
 20
1046.75
 10
1229.0
 20
-150.25
 10
571.0
 20
-150.25
  0
CIRCLE
  5
130
330
333
100
AcDbEntity
  8
DATA
  6
Continuous
 62
     7
100
AcDbCircle
 10
900.0
 20
460.5
 30
0.0
 40
82.24999999999999
  0
CIRCLE
  5
131
330
333
100
AcDbEntity
  8
DATA
  6
Continuous
 62
     7
100
AcDbCircle
 10
750.0
 20
-1024.5
 30
0.0
 40
11.75
  0
ARC
  5
132
330
333
100
AcDbEntity
  8
DATA
  6
Continuous
 62
     7
100
AcDbCircle
 10
-799.9999999999994
 20
-1024.256249999999
 30
0.0
 40
200.9670244323233
100
AcDbArc
 50
0.7490597149961796
 51
237.4594698158948
  0
ARC
  5
133
330
333
100
AcDbEntity
  8
DATA
  6
Continuous
 62
     7
100
AcDbCircle
 10
-799.9999999999994
 20
-1024.256249999999
 30
0.0
 40
197.5661457055551
100
AcDbArc
 50
0.0423823769104922
 51
237.607451999374
  0
ARC
  5
134
330
333
100
AcDbEntity
  8
DATA
  6
Continuous
 62
     7
100
AcDbCircle
 10
-800.0000000406391
 20
-1024.2562499746
 30
0.0
 40
193.7399815515191
100
AcDbArc
 50
359.2314905471084
 51
237.7921856930558
  0
ARC
  5
135
330
333
100
AcDbEntity
  8
DATA
  6
Continuous
 62
     7
100
AcDbCircle
 10
-800.0000000406391
 20
-1024.2562499746
 30
0.0
 40
188.3181727990192
100
AcDbArc
 50
358.0514438598747
 51
238.0894996775746
  0
ARC
  5
136
330
333
100
AcDbEntity
  8
DATA
  6
Continuous
 62
     7
100
AcDbCircle
 10
-799.9999999999996
 20
-1024.256249999998
 30
0.0
 40
174.6353759127006
100
AcDbArc
 50
354.8869493221557
 51
239.0525028994864
  0
ARC
  5
137
330
333
100
AcDbEntity
  8
DATA
  6
Continuous
 62
     7
100
AcDbCircle
 10
-799.9999999999994
 20
-1024.256249999999
 30
0.0
 40
225.2091
100
AcDbArc
 50
5.464202364940014
 51
236.7804641919207
  0
ARC
  5
138
330
333
100
AcDbEntity
  8
DATA
  6
Continuous
 62
     7
100
AcDbCircle
 10
-799.9999999999994
 20
-1024.256249999999
 30
0.0
 40
214.86114
100
AcDbArc
 50
3.514108567153582
 51
236.9966085045933
  0
ARC
  5
139
330
333
100
AcDbEntity
  8
DATA
  6
Continuous
 62
     7
100
AcDbCircle
 10
-799.9999999999994
 20
-1024.256249999999
 30
0.0
 40
231.7750000000001
100
AcDbArc
 50
6.660763616479161
 51
236.6922864869966
  0
ARC
  5
13A
330
333
100
AcDbEntity
  8
DATA
  6
Continuous
 62
     7
100
AcDbCircle
 10
-799.9999999999994
 20
-1024.256249999999
 30
0.0
 40
226.1615424105798
100
AcDbArc
 50
5.639620308946583
 51
236.765438501382
  0
ARC
  5
13B
330
333
100
AcDbEntity
  8
DATA
  6
Continuous
 62
     7
100
AcDbCircle
 10
-1056.794
 20
-789.8142499999996
 30
0.0
 40
6.349999999999909
100
AcDbArc
 50
90.0
 51
180.0
  0
ARC
  5
13C
330
333
100
AcDbEntity
  8
DATA
  6
Continuous
 62
     7
100
AcDbCircle
 10
-913.3742561212395
 20
-789.8142499999996
 30
0.0
 40
6.349999999999913
100
AcDbArc
 50
315.0
 51
90.0
  0
ARC
  5
13D
330
333
100
AcDbEntity
  8
DATA
  6
Continuous
 62
     7
100
AcDbCircle
 10
-1056.794
 20
-933.2339938813005
 30
0.0
 40
6.349999999999909
100
AcDbArc
 50
180.0
 51
315.0
  0
ARC
  5
13E
330
333
100
AcDbEntity
  8
DATA
  6
STYLE_01
 62
     7
100
AcDbCircle
 10
-386.484320004417
 20
-816.7521546772679
 30
0.0
 40
2.743199997460264
100
AcDbArc
 50
149.8568921739992
 51
180.0002267326982
  0
ARC
  5
13F
330
333
100
AcDbEntity
  8
DATA
  6
STYLE_01
 62
     7
100
AcDbCircle
 10
-386.4844092269972
 20
-1231.760696428908
 30
0.0
 40
2.743199997459888
100
AcDbArc
 50
179.9997477033999
 51
210.1466981344029
  0
CIRCLE
  5
140
330
333
100
AcDbEntity
  8
DATA
  6
Continuous
 62
     7
100
AcDbCircle
 10
-800.0000000406391
 20
-1024.2562499746
 30
0.0
 40
55.9593126709401
  0
ARC
  5
141
330
333
100
AcDbEntity
  8
DATA
  6
Continuous
 62
     7
100
AcDbCircle
 10
-544.9
 20
-529.2681843974192
 30
0.0
 40
25.39999999999984
100
AcDbArc
 50
290.1527938209135
 51
0.0
  0
ARC
  5
142
330
333
100
AcDbEntity
  8
DATA
  6
Continuous
 62
     7
100
AcDbCircle
 10
-1055.1
 20
-529.2681843974192
 30
0.0
 40
25.39999999999964
100
AcDbArc
 50
180.0
 51
249.8472061790865
  0
ARC
  5
143
330
333
100
AcDbEntity
  8
DATA
  6
Continuous
 62
     7
100
AcDbCircle
 10
-800.0
 20
165.8400487105615
 30
0.0
 40
765.8400487105615
100
AcDbArc
 50
249.8472061790862
 51
290.1527938209138
  0
ARC
  5
144
330
333
100
AcDbEntity
  8
DATA
  6
Continuous
 62
     7
100
AcDbCircle
 10
-1067.8
 20
-761.7
 30
0.0
 40
12.70000000000004
100
AcDbArc
 50
90.0
 51
180.0
  0
ARC
  5
145
330
333
100
AcDbEntity
  8
DATA
  6
Continuous
 62
     7
100
AcDbCircle
 10
-1067.8
 20
-1287.3
 30
0.0
 40
12.70000000000027
100
AcDbArc
 50
180.0
 51
269.999999999999
  0
ARC
  5
146
330
333
100
AcDbEntity
  8
DATA
  6
Continuous
 62
     7
100
AcDbCircle
 10
-532.2
 20
-1287.3
 30
0.0
 40
12.69999999999982
100
AcDbArc
 50
270.0
 51
0.0000000000010232
  0
ARC
  5
147
330
333
100
AcDbEntity
  8
DATA
  6
Continuous
 62
     7
100
AcDbCircle
 10
-532.2
 20
-761.7
 30
0.0
 40
12.70000000000004
100
AcDbArc
 50
0.0
 51
90.0
  0
ARC
  5
148
330
333
100
AcDbEntity
  8
DATA
  6
Continuous
 62
     7
100
AcDbCircle
 10
-437.3015380267751
 20
-761.7001754591081
 30
0.0
 40
12.70000000000004
100
AcDbArc
 50
90.0
 51
180.0002010551738
  0
ARC
  5
149
330
333
100
AcDbEntity
  8
DATA
  6
Continuous
 62
     7
100
AcDbCircle
 10
-437.2996936570792
 20
-1287.300175459108
 30
0.0
 40
12.70000000000002
100
AcDbArc
 50
180.0002010551738
 51
270.0
  0
ARC
  5
14A
330
333
100
AcDbEntity
  8
DATA
  6
Continuous
 62
     7
100
AcDbCircle
 10
1016.7
 20
-1287.3
 30
0.0
 40
12.69999999999982
100
AcDbArc
 50
270.0
 51
0.0000000000010232
  0
ARC
  5
14B
330
333
100
AcDbEntity
  8
DATA
  6
Continuous
 62
     7
100
AcDbCircle
 10
483.3000000000001
 20
-1287.3
 30
0.0
 40
12.70000000000004
100
AcDbArc
 50
180.0
 51
270.0
  0
ARC
  5
14C
330
333
100
AcDbEntity
  8
DATA
  6
Continuous
 62
     7
100
AcDbCircle
 10
483.3000000000001
 20
-761.7
 30
0.0
 40
12.70000000000004
100
AcDbArc
 50
90.0
 51
180.0
  0
ARC
  5
14D
330
333
100
AcDbEntity
  8
DATA
  6
Continuous
 62
     7
100
AcDbCircle
 10
1016.7
 20
-761.7
 30
0.0
 40
12.69999999999982
100
AcDbArc
 50
0.0
 51
90.00000000000101
  0
ARC
  5
14E
330
333
100
AcDbEntity
  8
DATA
  6
Continuous
 62
     7
100
AcDbCircle
 10
-1067.8
 20
202.3
 30
0.0
 40
12.70000000000004
100
AcDbArc
 50
90.0
 51
179.9999999999997
  0
ARC
  5
14F
330
333
100
AcDbEntity
  8
DATA
  6
Continuous
 62
     7
100
AcDbCircle
 10
-532.2000000000002
 20
202.3
 30
0.0
 40
12.70000000000004
100
AcDbArc
 50
0.0
 51
90.0
  0
ARC
  5
150
330
333
100
AcDbEntity
  8
DATA
  6
Continuous
 62
     7
100
AcDbCircle
 10
352.2993841581511
 20
-1287.300175459108
 30
0.0
 40
12.69999999999982
100
AcDbArc
 50
270.0
 51
0.0000000000010232
  0
ARC
  5
151
330
333
100
AcDbEntity
  8
DATA
  6
Continuous
 62
     7
100
AcDbCircle
 10
352.2993841581511
 20
-761.7001754591081
 30
0.0
 40
12.70000000000004
100
AcDbArc
 50
0.0
 51
89.99999999999978
  0
CIRCLE
  5
152
330
333
100
AcDbEntity
  8
DATA
  6
Continuous
 62
     7
100
AcDbCircle
 10
-561.5000000000001
 20
119.5
 30
0.0
 40
11.17600000000038
  0
CIRCLE
  5
153
330
333
100
AcDbEntity
  8
DATA
  6
Continuous
 62
     7
100
AcDbCircle
 10
-1038.5
 20
119.5
 30
0.0
 40
11.17600000000061
  0
CIRCLE
  5
154
330
333
100
AcDbEntity
  8
DATA
  6
Continuous
 62
     7
100
AcDbCircle
 10
-561.5000000000001
 20
-460.5
 30
0.0
 40
11.17600000000038
  0
CIRCLE
  5
155
330
333
100
AcDbEntity
  8
DATA
  6
Continuous
 62
     7
100
AcDbCircle
 10
-1038.5
 20
-460.5
 30
0.0
 40
11.17600000000061
  0
CIRCLE
  5
156
330
333
100
AcDbEntity
  8
DATA
  6
Continuous
 62
     7
100
AcDbCircle
 10
-310.5015302849572
 20
-791.0001754591079
 30
0.0
 40
11.17600000000038
  0
CIRCLE
  5
157
330
333
100
AcDbEntity
  8
DATA
  6
Continuous
 62
     7
100
AcDbCircle
 10
269.4984697150428
 20
-791.0001754591079
 30
0.0
 40
11.17600000000038
  0
CIRCLE
  5
158
330
333
100
AcDbEntity
  8
DATA
  6
Continuous
 62
     7
100
AcDbCircle
 10
-310.5015302849572
 20
-1258.000175459108
 30
0.0
 40
11.17600000000038
  0
CIRCLE
  5
159
330
333
100
AcDbEntity
  8
DATA
  6
Continuous
 62
     7
100
AcDbCircle
 10
269.4984697150428
 20
-1258.000175459108
 30
0.0
 40
11.17600000000038
  0
ARC
  5
15A
330
333
100
AcDbEntity
  8
DATA
  6
Continuous
 62
     7
100
AcDbCircle
 10
-799.3269060909979
 20
-1174.010398336711
 30
0.0
 40
0.4462963607459113
100
AcDbArc
 50
307.6419024975729
 51
354.2670192893884
  0
ARC
  5
15B
330
333
100
AcDbEntity
  8
DATA
  6
Continuous
 62
     7
100
AcDbCircle
 10
-808.2351079999998
 20
-1172.397338
 30
0.0
 40
3.610394795234372
100
AcDbArc
 50
264.6908562215326
 51
323.9911991542417
  0
ARC
  5
15C
330
333
100
AcDbEntity
  8
DATA
  6
Continuous
 62
     7
100
AcDbCircle
 10
-808.6933980000003
 20
-1173.878621999999
 30
0.0
 40
0.9771003567398151
100
AcDbArc
 50
269.7118487927451
 51
1.775987005679326
  0
ARC
  5
15D
330
333
100
AcDbEntity
  8
DATA
  6
Continuous
 62
     7
100
AcDbCircle
 10
-808.7032399999998
 20
-1173.878621999999
 30
0.0
 40
0.9770953604439604
100
AcDbArc
 50
178.2240129943313
 51
270.2881512072364
  0
ARC
  5
15E
330
333
100
AcDbEntity
  8
DATA
  6
Continuous
 62
     7
100
AcDbCircle
 10
-808.9032299999999
 20
-1172.397338
 30
0.0
 40
3.610388931725263
100
AcDbArc
 50
216.0088008457567
 51
275.3091437784581
  0
ARC
  5
15F
330
333
100
AcDbEntity
  8
DATA
  6
Continuous
 62
     7
100
AcDbCircle
 10
-810.3729780000003
 20
-1173.769184
 30
0.0
 40
1.633520291446598
100
AcDbArc
 50
182.7769954499954
 51
207.3596066671571
  0
CIRCLE
  5
160
330
333
100
AcDbEntity
  8
DATA
  6
Continuous
 62
     7
100
AcDbCircle
 10
-810.6484980000002
 20
-1168.914768
 30
0.0
 40
1.3302520000002
  0
ARC
  5
161
330
333
100
AcDbEntity
  8
DATA
  6
Continuous
 62
     7
100
AcDbCircle
 10
-806.7653600000003
 20
-1173.769184
 30
0.0
 40
1.63351796701126
100
AcDbArc
 50
332.6403933328455
 51
357.2230045500024
  0
ARC
  5
162
330
333
100
AcDbEntity
  8
DATA
  6
Continuous
 62
     7
100
AcDbCircle
 10
-791.2579940000004
 20
-1173.878621999999
 30
0.0
 40
0.9771003567398151
100
AcDbArc
 50
269.7118487927451
 51
1.775987005679326
  0
ARC
  5
163
330
333
100
AcDbEntity
  8
DATA
  6
Continuous
 62
     7
100
AcDbCircle
 10
-791.2678220000001
 20
-1173.878621999999
 30
0.0
 40
0.977095360443506
100
AcDbArc
 50
178.2240129943305
 51
270.288151207263
  0
ARC
  5
164
330
333
100
AcDbEntity
  8
DATA
  6
Continuous
 62
     7
100
AcDbCircle
 10
-799.0608099999998
 20
-1173.334526
 30
0.0
 40
2.663655976405099
100
AcDbArc
 50
273.8309816091145
 51
351.1351473098003
  0
ARC
  5
165
330
333
100
AcDbEntity
  8
DATA
  6
Continuous
 62
     7
100
AcDbCircle
 10
-799.0342520000003
 20
-1164.645902
 30
0.0
 40
2.659621906076394
100
AcDbArc
 50
8.226923859005484
 51
86.1541266921513
  0
ARC
  5
166
330
333
100
AcDbEntity
  8
DATA
  6
Continuous
 62
     7
100
AcDbCircle
 10
-800.1593963523555
 20
-1172.219736855178
 30
0.0
 40
2.455208634734342
100
AcDbArc
 50
269.6512199376128
 51
282.8264828068785
  0
ARC
  5
167
330
333
100
AcDbEntity
  8
DATA
  6
Continuous
 62
     7
100
AcDbCircle
 10
-799.8836375615469
 20
-1173.257750435718
 30
0.0
 40
1.382413065170727
100
AcDbArc
 50
281.2331036226757
 51
306.862008894058
  0
ARC
  5
168
330
333
100
AcDbEntity
  8
DATA
  6
Continuous
 62
     7
100
AcDbCircle
 10
-799.3269060909979
 20
-1169.811725663288
 30
0.0
 40
0.4462963607462643
100
AcDbArc
 50
5.732980710611632
 51
52.35809750242717
  0
ARC
  5
169
330
333
100
AcDbEntity
  8
DATA
  6
Continuous
 62
     7
100
AcDbCircle
 10
-800.1593963523555
 20
-1171.602387144822
 30
0.0
 40
2.455208634734332
100
AcDbArc
 50
77.17351719312145
 51
90.34878006238709
  0
ARC
  5
16A
330
333
100
AcDbEntity
  8
DATA
  6
Continuous
 62
     7
100
AcDbCircle
 10
-799.8836375615469
 20
-1170.564373564282
 30
0.0
 40
1.382413065170549
100
AcDbArc
 50
53.13799110594198
 51
78.76689637732424
  0
ARC
  5
16B
330
333
100
AcDbEntity
  8
DATA
  6
Continuous
 62
     7
100
AcDbCircle
 10
-797.7578860000003
 20
-1170.117032
 30
0.0
 40
1.357843429479482
100
AcDbArc
 50
3.86700635984213
 51
88.36163456787906
  0
ARC
  5
16C
330
333
100
AcDbEntity
  8
DATA
  6
Continuous
 62
     7
100
AcDbCircle
 10
-797.7591320000001
 20
-1167.401144
 30
0.0
 40
1.35919271592688
100
AcDbArc
 50
271.6892821046585
 51
356.0782829826609
  0
ARC
  5
16D
330
333
100
AcDbEntity
  8
DATA
  6
Continuous
 62
     7
100
AcDbCircle
 10
-799.3269060909979
 20
-1167.139562336712
 30
0.0
 40
0.4462963607459113
100
AcDbArc
 50
307.6419024975729
 51
354.2670192893884
  0
ARC
  5
16E
330
333
100
AcDbEntity
  8
DATA
  6
Continuous
 62
     7
100
AcDbCircle
 10
-800.1593963523555
 20
-1165.348900855178
 30
0.0
 40
2.455208634734797
100
AcDbArc
 50
269.6512199376129
 51
282.8264828068785
  0
ARC
  5
16F
330
333
100
AcDbEntity
  8
DATA
  6
Continuous
 62
     7
100
AcDbCircle
 10
-799.8836375615469
 20
-1166.386914435718
 30
0.0
 40
1.382413065170281
100
AcDbArc
 50
281.2331036226794
 51
306.8620088940694
  0
ARC
  5
170
330
333
100
AcDbEntity
  8
DATA
  6
Continuous
 62
     7
100
AcDbCircle
 10
-799.3269060909979
 20
-1163.974103663288
 30
0.0
 40
0.4462963607462643
100
AcDbArc
 50
5.732980710611632
 51
52.35809750242717
  0
ARC
  5
171
330
333
100
AcDbEntity
  8
DATA
  6
Continuous
 62
     7
100
AcDbCircle
 10
-800.1593963523555
 20
-1165.764765144822
 30
0.0
 40
2.455208634734776
100
AcDbArc
 50
77.17351719312381
 51
90.34878006238711
  0
ARC
  5
172
330
333
100
AcDbEntity
  8
DATA
  6
Continuous
 62
     7
100
AcDbCircle
 10
-799.8836375615469
 20
-1164.726751564282
 30
0.0
 40
1.382413065170549
100
AcDbArc
 50
53.13799110594198
 51
78.76689637732056
  0
ARC
  5
173
330
333
100
AcDbEntity
  8
DATA
  6
Continuous
 62
     7
100
AcDbCircle
 10
-639.3432569939589
 20
-1425.611507886687
 30
0.0
 40
354.9999999999999
100
AcDbArc
 50
103.9624889745782
 51
156.6661057875025
  0
ARC
  5
174
330
333
100
AcDbEntity
  8
DATA
  6
Continuous
 62
     7
100
AcDbCircle
 10
-810.656743006041
 20
-736.5892371940857
 30
0.0
 40
354.9999999999998
100
AcDbArc
 50
283.9624889745781
 51
325.1007974960395
  0
ARC
  5
175
330
333
100
AcDbEntity
  8
DATA
  6
Continuous
 62
     7
100
AcDbCircle
 10
750.0
 20
-1024.5
 30
0.0
 40
8.800002677414209
100
AcDbArc
 50
109.9322641506793
 51
257.1961668197015
  0
ARC
  5
176
330
333
100
AcDbEntity
  8
DATA
  6
Continuous
 62
     7
100
AcDbCircle
 10
750.0
 20
-1024.5
 30
0.0
 40
8.800003504346031
100
AcDbArc
 50
282.9999995554241
 51
69.99999423796154
  0
ARC
  5
177
330
333
100
AcDbEntity
  8
DATA
  6
Continuous
 62
     7
100
AcDbCircle
 10
750.0
 20
-1024.5
 30
0.0
 40
6.200002162064247
100
AcDbArc
 50
60.0000115355575
 51
150.0000115355601
  0
ARC
  5
178
330
333
100
AcDbEntity
  8
DATA
  6
Continuous
 62
     7
100
AcDbCircle
 10
750.0
 20
-1024.5
 30
0.0
 40
6.20000216206399
100
AcDbArc
 50
240.0000115355659
 51
330.0000115355644
  0
ARC
  5
179
330
333
100
AcDbEntity
  8
DATA
  6
Continuous
 62
     7
100
AcDbCircle
 10
750.0
 20
-1024.5
 30
0.0
 40
5.625003831580524
100
AcDbArc
 50
149.999669682101
 51
240.000212604301
  0
ARC
  5
17A
330
333
100
AcDbEntity
  8
DATA
  6
Continuous
 62
     7
100
AcDbCircle
 10
750.0
 20
-1024.5
 30
0.0
 40
5.624996152034259
100
AcDbArc
 50
330.0002126043024
 51
60.00071824312562
  0
ARC
  5
17B
330
333
100
AcDbEntity
  8
DATA
  6
Continuous
 62
     7
100
AcDbCircle
 10
750.0
 20
-1024.5
 30
0.0
 40
3.59999008087537
100
AcDbArc
 50
59.99990885470324
 51
149.9999088547082
  0
ARC
  5
17C
330
333
100
AcDbEntity
  8
DATA
  6
Continuous
 62
     7
100
AcDbCircle
 10
750.0
 20
-1024.5
 30
0.0
 40
3.59999008087537
100
AcDbArc
 50
239.9999088547033
 51
329.9999088547082
  0
ARC
  5
17D
330
333
100
AcDbEntity
  8
DATA
  6
Continuous
 62
     7
100
AcDbCircle
 10
750.0
 20
-1024.5
 30
0.0
 40
2.900001820861042
100
AcDbArc
 50
149.9997926340248
 51
240.0002336238304
  0
ARC
  5
17E
330
333
100
AcDbEntity
  8
DATA
  6
Continuous
 62
     7
100
AcDbCircle
 10
750.0
 20
-1024.5
 30
0.0
 40
2.900000481120788
100
AcDbArc
 50
330.0002336238303
 51
59.99979263402263
  0
CIRCLE
  5
17F
330
333
100
AcDbEntity
  8
DATA
  6
Continuous
 62
     7
100
AcDbCircle
 10
730.500000000001
 20
-1073.0
 30
0.0
 40
3.999999999999455
  0
CIRCLE
  5
180
330
333
100
AcDbEntity
  8
DATA
  6
Continuous
 62
     7
100
AcDbCircle
 10
743.500000000001
 20
-1073.0
 30
0.0
 40
3.999999999999455
  0
CIRCLE
  5
181
330
333
100
AcDbEntity
  8
DATA
  6
Continuous
 62
     7
100
AcDbCircle
 10
756.500000000001
 20
-1073.0
 30
0.0
 40
3.999999999999455
  0
CIRCLE
  5
182
330
333
100
AcDbEntity
  8
DATA
  6
Continuous
 62
     7
100
AcDbCircle
 10
769.500000000001
 20
-1073.0
 30
0.0
 40
3.999999999999455
  0
CIRCLE
  5
183
330
333
100
AcDbEntity
  8
DATA
  6
Continuous
 62
     7
100
AcDbCircle
 10
782.5
 20
-1073.0
 30
0.0
 40
4.000000000000231
  0
CIRCLE
  5
184
330
333
100
AcDbEntity
  8
DATA
  6
Continuous
 62
     7
100
AcDbCircle
 10
717.4999999999999
 20
-1073.0
 30
0.0
 40
4.000000000000309
  0
CIRCLE
  5
185
330
333
100
AcDbEntity
  8
DATA
  6
Continuous
 62
     7
100
AcDbCircle
 10
720.0
 20
-1007.0
 30
0.0
 40
3.0
  0
CIRCLE
  5
186
330
333
100
AcDbEntity
  8
DATA
  6
Continuous
 62
     7
100
AcDbCircle
 10
780.0
 20
-1007.0
 30
0.0
 40
3.0
  0
CIRCLE
  5
187
330
333
100
AcDbEntity
  8
DATA
  6
Continuous
 62
     7
100
AcDbCircle
 10
695.25
 20
-933.2499999999999
 30
0.0
 40
3.25
  0
CIRCLE
  5
188
330
333
100
AcDbEntity
  8
DATA
  6
Continuous
 62
     7
100
AcDbCircle
 10
804.7499999999999
 20
-933.2499999999999
 30
0.0
 40
3.25
  0
CIRCLE
  5
189
330
333
100
AcDbEntity
  8
DATA
  6
Continuous
 62
     7
100
AcDbCircle
 10
695.25
 20
-1026.25
 30
0.0
 40
3.25
  0
CIRCLE
  5
18A
330
333
100
AcDbEntity
  8
DATA
  6
Continuous
 62
     7
100
AcDbCircle
 10
804.7499999999999
 20
-1026.25
 30
0.0
 40
3.25
  0
CIRCLE
  5
18B
330
333
100
AcDbEntity
  8
DATA
  6
Continuous
 62
     7
100
AcDbCircle
 10
695.25
 20
-1119.25
 30
0.0
 40
3.25
  0
CIRCLE
  5
18C
330
333
100
AcDbEntity
  8
DATA
  6
Continuous
 62
     7
100
AcDbCircle
 10
804.7499999999999
 20
-1119.25
 30
0.0
 40
3.25
  0
ARC
  5
18D
330
333
100
AcDbEntity
  8
DATA
  6
Continuous
 62
     7
100
AcDbCircle
 10
693.75
 20
-1121.0
 30
0.0
 40
5.0
100
AcDbArc
 50
180.0
 51
270.0
  0
ARC
  5
18E
330
333
100
AcDbEntity
  8
DATA
  6
Continuous
 62
     7
100
AcDbCircle
 10
806.25
 20
-1121.0
 30
0.0
 40
5.0
100
AcDbArc
 50
270.0
 51
0.0
  0
ARC
  5
18F
330
333
100
AcDbEntity
  8
DATA
  6
Continuous
 62
     7
100
AcDbCircle
 10
806.25
 20
-931.4999999999999
 30
0.0
 40
5.0
100
AcDbArc
 50
0.0
 51
90.0
  0
ARC
  5
190
330
333
100
AcDbEntity
  8
DATA
  6
Continuous
 62
     7
100
AcDbCircle
 10
693.75
 20
-931.4999999999999
 30
0.0
 40
5.0
100
AcDbArc
 50
90.0
 51
180.0
  0
ARC
  5
191
330
333
100
AcDbEntity
  8
DATA
  6
Continuous
 62
     7
100
AcDbCircle
 10
900.0
 20
460.5
 30
0.0
 40
61.60001874189946
100
AcDbArc
 50
109.9322641506793
 51
257.1961668197014
  0
ARC
  5
192
330
333
100
AcDbEntity
  8
DATA
  6
Continuous
 62
     7
100
AcDbCircle
 10
900.0
 20
460.5
 30
0.0
 40
61.60002453042221
100
AcDbArc
 50
282.9999995554241
 51
69.99999423796149
  0
ARC
  5
193
330
333
100
AcDbEntity
  8
DATA
  6
Continuous
 62
     7
100
AcDbCircle
 10
900.0
 20
460.5
 30
0.0
 40
43.40001513444973
100
AcDbArc
 50
60.0000115355575
 51
150.0000115355602
  0
ARC
  5
194
330
333
100
AcDbEntity
  8
DATA
  6
Continuous
 62
     7
100
AcDbCircle
 10
900.0
 20
460.5
 30
0.0
 40
43.40001513444792
100
AcDbArc
 50
240.0000115355659
 51
330.0000115355644
  0
ARC
  5
195
330
333
100
AcDbEntity
  8
DATA
  6
Continuous
 62
     7
100
AcDbCircle
 10
900.0
 20
460.5
 30
0.0
 40
39.37502682106367
100
AcDbArc
 50
149.999669682101
 51
240.0002126043009
  0
ARC
  5
196
330
333
100
AcDbEntity
  8
DATA
  6
Continuous
 62
     7
100
AcDbCircle
 10
900.0
 20
460.5
 30
0.0
 40
39.37497306423981
100
AcDbArc
 50
330.0002126043024
 51
60.00071824312533
  0
ARC
  5
197
330
333
100
AcDbEntity
  8
DATA
  6
Continuous
 62
     7
100
AcDbCircle
 10
900.0
 20
460.5
 30
0.0
 40
25.19993056612759
100
AcDbArc
 50
59.99990885470324
 51
149.9999088547081
  0
ARC
  5
198
330
333
100
AcDbEntity
  8
DATA
  6
Continuous
 62
     7
100
AcDbCircle
 10
900.0
 20
460.5
 30
0.0
 40
25.19993056612759
100
AcDbArc
 50
239.9999088547033
 51
329.999908854708
  0
ARC
  5
199
330
333
100
AcDbEntity
  8
DATA
  6
Continuous
 62
     7
100
AcDbCircle
 10
900.0
 20
460.5
 30
0.0
 40
20.3000127460273
100
AcDbArc
 50
149.9997926340248
 51
240.0002336238303
  0
ARC
  5
19A
330
333
100
AcDbEntity
  8
DATA
  6
Continuous
 62
     7
100
AcDbCircle
 10
900.0
 20
460.5
 30
0.0
 40
20.30000336784552
100
AcDbArc
 50
330.0002336238303
 51
59.99979263402245
  0
CIRCLE
  5
19B
330
333
100
AcDbEntity
  8
DATA
  6
Continuous
 62
     7
100
AcDbCircle
 10
763.5000000000062
 20
121.0
 30
0.0
 40
27.99999999999619
  0
CIRCLE
  5
19C
330
333
100
AcDbEntity
  8
DATA
  6
Continuous
 62
     7
100
AcDbCircle
 10
854.5000000000062
 20
121.0
 30
0.0
 40
27.99999999999619
  0
CIRCLE
  5
19D
330
333
100
AcDbEntity
  8
DATA
  6
Continuous
 62
     7
100
AcDbCircle
 10
945.5000000000064
 20
121.0
 30
0.0
 40
27.99999999999619
  0
CIRCLE
  5
19E
330
333
100
AcDbEntity
  8
DATA
  6
Continuous
 62
     7
100
AcDbCircle
 10
1036.500000000006
 20
121.0
 30
0.0
 40
27.99999999999619
  0
CIRCLE
  5
19F
330
333
100
AcDbEntity
  8
DATA
  6
Continuous
 62
     7
100
AcDbCircle
 10
1127.5
 20
121.0
 30
0.0
 40
28.00000000000163
  0
CIRCLE
  5
1A0
330
333
100
AcDbEntity
  8
DATA
  6
Continuous
 62
     7
100
AcDbCircle
 10
672.5
 20
121.0
 30
0.0
 40
28.00000000000217
  0
CIRCLE
  5
1A1
330
333
100
AcDbEntity
  8
DATA
  6
Continuous
 62
     7
100
AcDbCircle
 10
690.0
 20
583.0
 30
0.0
 40
21.0
  0
CIRCLE
  5
1A2
330
333
100
AcDbEntity
  8
DATA
  6
Continuous
 62
     7
100
AcDbCircle
 10
1110.0
 20
583.0
 30
0.0
 40
21.0
  0
CIRCLE
  5
1A3
330
333
100
AcDbEntity
  8
DATA
  6
Continuous
 62
     7
100
AcDbCircle
 10
516.75
 20
1099.25
 30
0.0
 40
22.75
  0
CIRCLE
  5
1A4
330
333
100
AcDbEntity
  8
DATA
  6
Continuous
 62
     7
100
AcDbCircle
 10
1283.25
 20
1099.25
 30
0.0
 40
22.75
  0
CIRCLE
  5
1A5
330
333
100
AcDbEntity
  8
DATA
  6
Continuous
 62
     7
100
AcDbCircle
 10
516.75
 20
448.2499999999999
 30
0.0
 40
22.75
  0
CIRCLE
  5
1A6
330
333
100
AcDbEntity
  8
DATA
  6
Continuous
 62
     7
100
AcDbCircle
 10
1283.25
 20
448.2499999999999
 30
0.0
 40
22.75
  0
CIRCLE
  5
1A7
330
333
100
AcDbEntity
  8
DATA
  6
Continuous
 62
     7
100
AcDbCircle
 10
516.75
 20
-202.75
 30
0.0
 40
22.75
  0
CIRCLE
  5
1A8
330
333
100
AcDbEntity
  8
DATA
  6
Continuous
 62
     7
100
AcDbCircle
 10
1283.25
 20
-202.75
 30
0.0
 40
22.75
  0
ARC
  5
1A9
330
333
100
AcDbEntity
  8
DATA
  6
Continuous
 62
     7
100
AcDbCircle
 10
506.25
 20
-215.0
 30
0.0
 40
35.0
100
AcDbArc
 50
180.0
 51
270.0
  0
ARC
  5
1AA
330
333
100
AcDbEntity
  8
DATA
  6
Continuous
 62
     7
100
AcDbCircle
 10
1293.75
 20
-215.0
 30
0.0
 40
35.0
100
AcDbArc
 50
270.0
 51
0.0
  0
ARC
  5
1AB
330
333
100
AcDbEntity
  8
DATA
  6
Continuous
 62
     7
100
AcDbCircle
 10
1293.75
 20
1111.5
 30
0.0
 40
35.0
100
AcDbArc
 50
0.0
 51
90.0
  0
ARC
  5
1AC
330
333
100
AcDbEntity
  8
DATA
  6
Continuous
 62
     7
100
AcDbCircle
 10
506.25
 20
1111.5
 30
0.0
 40
35.0
100
AcDbArc
 50
90.0
 51
180.0
  0
LINE
  5
1AD
330
333
100
AcDbEntity
  8
DATA
  6
Continuous
 62
     7
100
AcDbLine
 10
-1080.5
 20
-1287.3
 30
0.0
 11
-1080.5
 21
-761.7
 31
0.0
  0
LINE
  5
1AE
330
333
100
AcDbEntity
  8
DATA
  6
Continuous
 62
     7
100
AcDbLine
 10
-532.2
 20
-1300.0
 30
0.0
 11
-1067.8
 21
-1300.0
 31
0.0
  0
LINE
  5
1AF
330
333
100
AcDbEntity
  8
DATA
  6
Continuous
 62
     7
100
AcDbLine
 10
-1063.144
 20
-789.8142499999996
 30
0.0
 11
-1063.144
 21
-933.2339938813005
 31
0.0
  0
LINE
  5
1B0
330
333
100
AcDbEntity
  8
DATA
  6
Continuous
 62
     7
100
AcDbLine
 10
-1039.334039999999
 20
-1285.0
 30
0.0
 11
-1039.334039999999
 21
-1265.55625
 31
0.0
  0
LINE
  5
1B1
330
333
100
AcDbEntity
  8
DATA
  6
Continuous
 62
     7
100
AcDbLine
 10
-1039.334039999999
 20
-782.9562499999998
 30
0.0
 11
-1039.334039999999
 21
-764.0
 31
0.0
  0
LINE
  5
1B2
330
333
100
AcDbEntity
  8
DATA
  6
Continuous
 62
     7
100
AcDbLine
 10
-1052.303871939379
 20
-937.72412194192
 30
0.0
 11
-908.8841280606192
 21
-794.3043780606201
 31
0.0
  0
LINE
  5
1B3
330
333
100
AcDbEntity
  8
DATA
  6
Continuous
 62
     7
100
AcDbLine
 10
-1039.334039999999
 20
-1265.55625
 30
0.0
 11
-956.2143891957203
 21
-1265.55625
 31
0.0
  0
LINE
  5
1B4
330
333
100
AcDbEntity
  8
DATA
  6
Continuous
 62
     7
100
AcDbLine
 10
-913.3742561212395
 20
-783.4642499999996
 30
0.0
 11
-1056.794
 21
-783.4642499999996
 31
0.0
  0
LINE
  5
1B5
330
333
100
AcDbEntity
  8
DATA
  6
Continuous
 62
     7
100
AcDbLine
 10
-1039.334039999999
 20
-782.9562499999998
 30
0.0
 11
-560.66596
 21
-782.9562499999998
 31
0.0
  0
LINE
  5
1B6
330
333
100
AcDbEntity
  8
DATA
  6
Continuous
 62
     7
100
AcDbLine
 10
-519.5
 20
-1287.3
 30
0.0
 11
-519.5
 21
-761.7
 31
0.0
  0
LINE
  5
1B7
330
333
100
AcDbEntity
  8
DATA
  6
Continuous
 62
     7
100
AcDbLine
 10
-1067.8
 20
-749.0
 30
0.0
 11
-532.2
 21
-749.0
 31
0.0
  0
LINE
  5
1B8
330
333
100
AcDbEntity
  8
DATA
  6
Continuous
 62
     7
100
AcDbLine
 10
-1080.5
 20
202.3
 30
0.0
 11
-1080.5
 21
-528.9134055110394
 31
0.0
  0
LINE
  5
1B9
330
333
100
AcDbEntity
  8
DATA
  6
Continuous
 62
     7
100
AcDbLine
 10
-519.5000000000001
 20
-529.2681843974192
 30
0.0
 11
-519.5000000000001
 21
202.3
 31
0.0
  0
LINE
  5
1BA
330
333
100
AcDbEntity
  8
DATA
  6
Continuous
 62
     7
100
AcDbLine
 10
-532.2000000000002
 20
215.0
 30
0.0
 11
-1067.8
 21
215.0
 31
0.0
  0
LINE
  5
1BB
330
333
100
AcDbEntity
  8
DATA
  6
Continuous
 62
     7
100
AcDbLine
 10
-450.0015380266968
 20
-761.7002200243574
 30
0.0
 11
-449.999693657001
 21
-1287.300220024357
 31
0.0
  0
LINE
  5
1BC
330
333
100
AcDbEntity
  8
DATA
  6
STYLE_01
 62
     7
100
AcDbLine
 10
-389.2275200018776
 20
-816.7521655332286
 30
0.0
 11
-389.2279471155771
 21
-823.8227020449086
 31
0.0
  0
LINE
  5
1BD
330
333
100
AcDbEntity
  8
DATA
  6
Continuous
 62
     7
100
AcDbLine
 10
-389.2281225051174
 20
-1187.997264174388
 30
0.0
 11
-389.2283850496773
 21
-1182.457029991988
 31
0.0
  0
LINE
  5
1BE
330
333
100
AcDbEntity
  8
DATA
  6
STYLE_01
 62
     7
100
AcDbLine
 10
-389.2276092244546
 20
-1231.760684348668
 30
0.0
 11
-389.2278756983952
 21
-1224.690147836988
 31
0.0
  0
LINE
  5
1BF
330
333
100
AcDbEntity
  8
DATA
  6
STYLE_01
 62
     7
100
AcDbLine
 10
-389.2279471155771
 20
-823.8227020449086
 30
0.0
 11
-389.2280134527574
 21
-826.4748264510885
 31
0.0
  0
LINE
  5
1C0
330
333
100
AcDbEntity
  8
DATA
  6
STYLE_01
 62
     7
100
AcDbLine
 10
-389.2271595301572
 20
-883.3536129549086
 30
0.0
 11
-389.2273357934572
 21
-889.1784415566885
 31
0.0
  0
LINE
  5
1C1
330
333
100
AcDbEntity
  8
DATA
  6
Continuous
 62
     7
100
AcDbLine
 10
-389.2309564770967
 20
-1090.083896950968
 30
0.0
 11
-389.2313260547148
 21
-1159.334340723108
 31
0.0
  0
LINE
  5
1C2
330
333
100
AcDbEntity
  8
DATA
  6
STYLE_01
 62
     7
100
AcDbLine
 10
-389.2283850496773
 20
-1182.457029991988
 30
0.0
 11
-389.2315910122769
 21
-889.1785144927879
 31
0.0
  0
LINE
  5
1C3
330
333
100
AcDbEntity
  8
DATA
  6
STYLE_01
 62
     7
100
AcDbLine
 10
-389.2285466927352
 20
-883.3536129599876
 30
0.0
 11
-389.2285678179169
 21
-889.1784416608281
 31
0.0
  0
LINE
  5
1C4
330
333
100
AcDbEntity
  8
DATA
  6
STYLE_01
 62
     7
100
AcDbLine
 10
-389.2278756983952
 20
-1224.690147836988
 30
0.0
 11
-389.2281597059568
 21
-1165.159238125868
 31
0.0
  0
LINE
  5
1C5
330
333
100
AcDbEntity
  8
DATA
  6
STYLE_01
 62
     7
100
AcDbLine
 10
-389.2281597059568
 20
-1165.159238125868
 30
0.0
 11
-389.2268624771573
 21
-877.5287507921081
 31
0.0
  0
LINE
  5
1C6
330
333
100
AcDbEntity
  8
DATA
  6
STYLE_01
 62
     7
100
AcDbLine
 10
-389.2260361541953
 20
-877.5287446351473
 30
0.0
 11
-389.2267294090948
 21
-834.8844802489676
 31
0.0
  0
LINE
  5
1C7
330
333
100
AcDbEntity
  8
DATA
  6
STYLE_01
 62
     7
100
AcDbLine
 10
-389.2267294090948
 20
-834.8844802489676
 30
0.0
 11
-389.2269933404969
 21
-825.0971590565685
 31
0.0
  0
LINE
  5
1C8
330
333
100
AcDbEntity
  8
DATA
  6
STYLE_01
 62
     7
100
AcDbLine
 10
-389.2269933404969
 20
-825.0971590565685
 30
0.0
 11
-389.2269971631971
 21
-824.9897406607882
 31
0.0
  0
LINE
  5
1C9
330
333
100
AcDbEntity
  8
DATA
  6
STYLE_01
 62
     7
100
AcDbLine
 10
-389.2269971631971
 20
-824.9897406607882
 30
0.0
 11
-389.2273358798176
 21
-817.8400525497288
 31
0.0
  0
LINE
  5
1CA
330
333
100
AcDbEntity
  8
DATA
  6
STYLE_01
 62
     7
100
AcDbLine
 10
-388.8514157959948
 20
-1249.465525459108
 30
0.0
 11
-388.8514157959948
 21
-799.0473254591078
 31
0.0
  0
LINE
  5
1CB
330
333
100
AcDbEntity
  8
DATA
  6
STYLE_01
 62
     7
100
AcDbLine
 10
-387.2969357959945
 20
-1256.030026391548
 30
0.0
 11
-387.2969357959945
 21
-792.482824529208
 31
0.0
  0
LINE
  5
1CC
330
333
100
AcDbEntity
  8
DATA
  6
STYLE_01
 62
     7
100
AcDbLine
 10
-389.2277239816576
 20
-833.0034555401088
 30
0.0
 11
-389.2271338863148
 21
-826.0344416549479
 31
0.0
  0
LINE
  5
1CD
330
333
100
AcDbEntity
  8
DATA
  6
STYLE_01
 62
     7
100
AcDbLine
 10
-389.2294509403569
 20
-883.3536143620689
 30
0.0
 11
-389.2280134527574
 21
-826.4748264510885
 31
0.0
  0
LINE
  5
1CE
330
333
100
AcDbEntity
  8
DATA
  6
STYLE_01
 62
     7
100
AcDbLine
 10
-389.2277427141548
 20
-833.3386884840681
 30
0.0
 11
-389.2277239816576
 21
-833.0034555401088
 31
0.0
  0
LINE
  5
1CF
330
333
100
AcDbEntity
  8
DATA
  6
STYLE_01
 62
     7
100
AcDbLine
 10
-388.8514157959948
 20
-1249.465525459108
 30
0.0
 11
-387.2969357959945
 21
-1249.465525459108
 31
0.0
  0
LINE
  5
1D0
330
333
100
AcDbEntity
  8
DATA
  6
STYLE_01
 62
     7
100
AcDbLine
 10
-376.0006158418572
 20
-1256.031425459108
 30
0.0
 11
-387.2969357959945
 21
-1256.031425459108
 31
0.0
  0
LINE
  5
1D1
330
333
100
AcDbEntity
  8
DATA
  6
STYLE_01
 62
     7
100
AcDbLine
 10
-388.8514157959948
 20
-799.0473254591078
 30
0.0
 11
-387.2969357959945
 21
-799.0473254591078
 31
0.0
  0
LINE
  5
1D2
330
333
100
AcDbEntity
  8
DATA
  6
STYLE_01
 62
     7
100
AcDbLine
 10
-376.0006158418572
 20
-792.4814254591081
 30
0.0
 11
-387.2969357959945
 21
-792.4814254591081
 31
0.0
  0
LINE
  5
1D3
330
333
100
AcDbEntity
  8
DATA
  6
Continuous
 62
     7
100
AcDbLine
 10
364.9993841581511
 20
-1287.300175459108
 30
0.0
 11
364.9993841581511
 21
-761.7001754591081
 31
0.0
  0
LINE
  5
1D4
330
333
100
AcDbEntity
  8
DATA
  6
Continuous
 62
     7
100
AcDbLine
 10
470.6000000000001
 20
-1287.3
 30
0.0
 11
470.6000000000001
 21
-761.7
 31
0.0
  0
LINE
  5
1D5
330
333
100
AcDbEntity
  8
DATA
  6
Continuous
 62
     7
100
AcDbLine
 10
1016.7
 20
-1300.0
 30
0.0
 11
483.3000000000001
 21
-1300.0
 31
0.0
  0
LINE
  5
1D6
330
333
100
AcDbEntity
  8
DATA
  6
Continuous
 62
     7
100
AcDbLine
 10
1029.4
 20
-1287.3
 30
0.0
 11
1029.4
 21
-761.7
 31
0.0
  0
LINE
  5
1D7
330
333
100
AcDbEntity
  8
DATA
  6
Continuous
 62
     7
100
AcDbLine
 10
483.3000000000001
 20
-749.0
 30
0.0
 11
1016.7
 21
-749.0
 31
0.0
  0
LINE
  5
1D8
330
333
100
AcDbEntity
  8
DATA
  6
Continuous
 62
     7
100
AcDbLine
 10
352.2993841581511
 20
-1300.000175459108
 30
0.0
 11
-437.2996936570792
 21
-1300.000175459108
 31
0.0
  0
LINE
  5
1D9
330
333
100
AcDbEntity
  8
DATA
  6
Continuous
 62
     7
100
AcDbLine
 10
-437.3015380267751
 20
-749.0001754591079
 30
0.0
 11
352.2993841581511
 21
-749.0001754591079
 31
0.0
  0
LINE
  5
1DA
330
333
100
AcDbEntity
  8
DATA
  6
Continuous
 62
     7
100
AcDbLine
 10
-564.2940000000001
 20
121.1509999999998
 30
0.0
 11
-561.5000000000001
 21
122.929
 31
0.0
  0
LINE
  5
1DB
330
333
100
AcDbEntity
  8
DATA
  6
Continuous
 62
     7
100
AcDbLine
 10
-558.7060000000003
 20
117.8490000000001
 30
0.0
 11
-561.5000000000001
 21
116.0710000000003
 31
0.0
  0
LINE
  5
1DC
330
333
100
AcDbEntity
  8
DATA
  6
Continuous
 62
     7
100
AcDbLine
 10
-564.2940000000001
 20
117.8490000000001
 30
0.0
 11
-564.2940000000001
 21
121.1509999999998
 31
0.0
  0
LINE
  5
1DD
330
333
100
AcDbEntity
  8
DATA
  6
Continuous
 62
     7
100
AcDbLine
 10
-558.7060000000003
 20
121.1509999999998
 30
0.0
 11
-558.7060000000003
 21
117.8490000000001
 31
0.0
  0
LINE
  5
1DE
330
333
100
AcDbEntity
  8
DATA
  6
Continuous
 62
     7
100
AcDbLine
 10
-561.5000000000001
 20
116.0710000000003
 30
0.0
 11
-564.2940000000001
 21
117.8490000000001
 31
0.0
  0
LINE
  5
1DF
330
333
100
AcDbEntity
  8
DATA
  6
Continuous
 62
     7
100
AcDbLine
 10
-561.5000000000001
 20
122.929
 30
0.0
 11
-558.7060000000003
 21
121.1509999999998
 31
0.0
  0
LINE
  5
1E0
330
333
100
AcDbEntity
  8
DATA
  6
Continuous
 62
     7
100
AcDbLine
 10
-1041.294
 20
121.1509999999998
 30
0.0
 11
-1038.5
 21
122.929
 31
0.0
  0
LINE
  5
1E1
330
333
100
AcDbEntity
  8
DATA
  6
Continuous
 62
     7
100
AcDbLine
 10
-1035.706
 20
117.8490000000001
 30
0.0
 11
-1038.5
 21
116.0710000000003
 31
0.0
  0
LINE
  5
1E2
330
333
100
AcDbEntity
  8
DATA
  6
Continuous
 62
     7
100
AcDbLine
 10
-1041.294
 20
117.8490000000001
 30
0.0
 11
-1041.294
 21
121.1509999999998
 31
0.0
  0
LINE
  5
1E3
330
333
100
AcDbEntity
  8
DATA
  6
Continuous
 62
     7
100
AcDbLine
 10
-1035.706
 20
121.1509999999998
 30
0.0
 11
-1035.706
 21
117.8490000000001
 31
0.0
  0
LINE
  5
1E4
330
333
100
AcDbEntity
  8
DATA
  6
Continuous
 62
     7
100
AcDbLine
 10
-1038.5
 20
116.0710000000003
 30
0.0
 11
-1041.294
 21
117.8490000000001
 31
0.0
  0
LINE
  5
1E5
330
333
100
AcDbEntity
  8
DATA
  6
Continuous
 62
     7
100
AcDbLine
 10
-1038.5
 20
122.929
 30
0.0
 11
-1035.706
 21
121.1509999999998
 31
0.0
  0
LINE
  5
1E6
330
333
100
AcDbEntity
  8
DATA
  6
Continuous
 62
     7
100
AcDbLine
 10
-564.2940000000001
 20
-458.8490000000001
 30
0.0
 11
-561.5000000000001
 21
-457.0709999999999
 31
0.0
  0
LINE
  5
1E7
330
333
100
AcDbEntity
  8
DATA
  6
Continuous
 62
     7
100
AcDbLine
 10
-558.7060000000003
 20
-462.1509999999998
 30
0.0
 11
-561.5000000000001
 21
-463.9289999999996
 31
0.0
  0
LINE
  5
1E8
330
333
100
AcDbEntity
  8
DATA
  6
Continuous
 62
     7
100
AcDbLine
 10
-564.2940000000001
 20
-462.1509999999998
 30
0.0
 11
-564.2940000000001
 21
-458.8490000000001
 31
0.0
  0
LINE
  5
1E9
330
333
100
AcDbEntity
  8
DATA
  6
Continuous
 62
     7
100
AcDbLine
 10
-558.7060000000003
 20
-458.8490000000001
 30
0.0
 11
-558.7060000000003
 21
-462.1509999999998
 31
0.0
  0
LINE
  5
1EA
330
333
100
AcDbEntity
  8
DATA
  6
Continuous
 62
     7
100
AcDbLine
 10
-561.5000000000001
 20
-463.9289999999996
 30
0.0
 11
-564.2940000000001
 21
-462.1509999999998
 31
0.0
  0
LINE
  5
1EB
330
333
100
AcDbEntity
  8
DATA
  6
Continuous
 62
     7
100
AcDbLine
 10
-561.5000000000001
 20
-457.0709999999999
 30
0.0
 11
-558.7060000000003
 21
-458.8490000000001
 31
0.0
  0
LINE
  5
1EC
330
333
100
AcDbEntity
  8
DATA
  6
Continuous
 62
     7
100
AcDbLine
 10
-1041.294
 20
-458.8490000000001
 30
0.0
 11
-1038.5
 21
-457.0709999999999
 31
0.0
  0
LINE
  5
1ED
330
333
100
AcDbEntity
  8
DATA
  6
Continuous
 62
     7
100
AcDbLine
 10
-1035.706
 20
-462.1509999999998
 30
0.0
 11
-1038.5
 21
-463.9289999999996
 31
0.0
  0
LINE
  5
1EE
330
333
100
AcDbEntity
  8
DATA
  6
Continuous
 62
     7
100
AcDbLine
 10
-1041.294
 20
-462.1509999999998
 30
0.0
 11
-1041.294
 21
-458.8490000000001
 31
0.0
  0
LINE
  5
1EF
330
333
100
AcDbEntity
  8
DATA
  6
Continuous
 62
     7
100
AcDbLine
 10
-1035.706
 20
-458.8490000000001
 30
0.0
 11
-1035.706
 21
-462.1509999999998
 31
0.0
  0
LINE
  5
1F0
330
333
100
AcDbEntity
  8
DATA
  6
Continuous
 62
     7
100
AcDbLine
 10
-1038.5
 20
-463.9289999999996
 30
0.0
 11
-1041.294
 21
-462.1509999999998
 31
0.0
  0
LINE
  5
1F1
330
333
100
AcDbEntity
  8
DATA
  6
Continuous
 62
     7
100
AcDbLine
 10
-1038.5
 20
-457.0709999999999
 30
0.0
 11
-1035.706
 21
-458.8490000000001
 31
0.0
  0
LINE
  5
1F2
330
333
100
AcDbEntity
  8
DATA
  6
Continuous
 62
     7
100
AcDbLine
 10
-313.2955302849571
 20
-789.3491754591081
 30
0.0
 11
-310.5015302849572
 21
-787.5711754591078
 31
0.0
  0
LINE
  5
1F3
330
333
100
AcDbEntity
  8
DATA
  6
Continuous
 62
     7
100
AcDbLine
 10
-307.7075302849573
 20
-792.6511754591079
 30
0.0
 11
-310.5015302849572
 21
-794.4291754591075
 31
0.0
  0
LINE
  5
1F4
330
333
100
AcDbEntity
  8
DATA
  6
Continuous
 62
     7
100
AcDbLine
 10
-313.2955302849571
 20
-792.6511754591079
 30
0.0
 11
-313.2955302849571
 21
-789.3491754591081
 31
0.0
  0
LINE
  5
1F5
330
333
100
AcDbEntity
  8
DATA
  6
Continuous
 62
     7
100
AcDbLine
 10
-307.7075302849573
 20
-789.3491754591081
 30
0.0
 11
-307.7075302849573
 21
-792.6511754591079
 31
0.0
  0
LINE
  5
1F6
330
333
100
AcDbEntity
  8
DATA
  6
Continuous
 62
     7
100
AcDbLine
 10
-310.5015302849572
 20
-794.4291754591075
 30
0.0
 11
-313.2955302849571
 21
-792.6511754591079
 31
0.0
  0
LINE
  5
1F7
330
333
100
AcDbEntity
  8
DATA
  6
Continuous
 62
     7
100
AcDbLine
 10
-310.5015302849572
 20
-787.5711754591078
 30
0.0
 11
-307.7075302849573
 21
-789.3491754591081
 31
0.0
  0
LINE
  5
1F8
330
333
100
AcDbEntity
  8
DATA
  6
Continuous
 62
     7
100
AcDbLine
 10
266.704469715043
 20
-789.3491754591081
 30
0.0
 11
269.4984697150428
 21
-787.5711754591078
 31
0.0
  0
LINE
  5
1F9
330
333
100
AcDbEntity
  8
DATA
  6
Continuous
 62
     7
100
AcDbLine
 10
272.2924697150427
 20
-792.6511754591079
 30
0.0
 11
269.4984697150428
 21
-794.4291754591075
 31
0.0
  0
LINE
  5
1FA
330
333
100
AcDbEntity
  8
DATA
  6
Continuous
 62
     7
100
AcDbLine
 10
266.704469715043
 20
-792.6511754591079
 30
0.0
 11
266.704469715043
 21
-789.3491754591081
 31
0.0
  0
LINE
  5
1FB
330
333
100
AcDbEntity
  8
DATA
  6
Continuous
 62
     7
100
AcDbLine
 10
272.2924697150427
 20
-789.3491754591081
 30
0.0
 11
272.2924697150427
 21
-792.6511754591079
 31
0.0
  0
LINE
  5
1FC
330
333
100
AcDbEntity
  8
DATA
  6
Continuous
 62
     7
100
AcDbLine
 10
269.4984697150428
 20
-794.4291754591075
 30
0.0
 11
266.704469715043
 21
-792.6511754591079
 31
0.0
  0
LINE
  5
1FD
330
333
100
AcDbEntity
  8
DATA
  6
Continuous
 62
     7
100
AcDbLine
 10
269.4984697150428
 20
-787.5711754591078
 30
0.0
 11
272.2924697150427
 21
-789.3491754591081
 31
0.0
  0
LINE
  5
1FE
330
333
100
AcDbEntity
  8
DATA
  6
Continuous
 62
     7
100
AcDbLine
 10
-313.2955302849571
 20
-1259.651175459108
 30
0.0
 11
-310.5015302849572
 21
-1261.429175459108
 31
0.0
  0
LINE
  5
1FF
330
333
100
AcDbEntity
  8
DATA
  6
Continuous
 62
     7
100
AcDbLine
 10
-307.7075302849573
 20
-1256.349175459108
 30
0.0
 11
-310.5015302849572
 21
-1254.571175459108
 31
0.0
  0
LINE
  5
200
330
333
100
AcDbEntity
  8
DATA
  6
Continuous
 62
     7
100
AcDbLine
 10
-313.2955302849571
 20
-1256.349175459108
 30
0.0
 11
-313.2955302849571
 21
-1259.651175459108
 31
0.0
  0
LINE
  5
201
330
333
100
AcDbEntity
  8
DATA
  6
Continuous
 62
     7
100
AcDbLine
 10
-307.7075302849573
 20
-1259.651175459108
 30
0.0
 11
-307.7075302849573
 21
-1256.349175459108
 31
0.0
  0
LINE
  5
202
330
333
100
AcDbEntity
  8
DATA
  6
Continuous
 62
     7
100
AcDbLine
 10
-310.5015302849572
 20
-1254.571175459108
 30
0.0
 11
-313.2955302849571
 21
-1256.349175459108
 31
0.0
  0
LINE
  5
203
330
333
100
AcDbEntity
  8
DATA
  6
Continuous
 62
     7
100
AcDbLine
 10
-310.5015302849572
 20
-1261.429175459108
 30
0.0
 11
-307.7075302849573
 21
-1259.651175459108
 31
0.0
  0
LINE
  5
204
330
333
100
AcDbEntity
  8
DATA
  6
Continuous
 62
     7
100
AcDbLine
 10
266.704469715043
 20
-1259.651175459108
 30
0.0
 11
269.4984697150428
 21
-1261.429175459108
 31
0.0
  0
LINE
  5
205
330
333
100
AcDbEntity
  8
DATA
  6
Continuous
 62
     7
100
AcDbLine
 10
272.2924697150427
 20
-1256.349175459108
 30
0.0
 11
269.4984697150428
 21
-1254.571175459108
 31
0.0
  0
LINE
  5
206
330
333
100
AcDbEntity
  8
DATA
  6
Continuous
 62
     7
100
AcDbLine
 10
266.704469715043
 20
-1256.349175459108
 30
0.0
 11
266.704469715043
 21
-1259.651175459108
 31
0.0
  0
LINE
  5
207
330
333
100
AcDbEntity
  8
DATA
  6
Continuous
 62
     7
100
AcDbLine
 10
272.2924697150427
 20
-1259.651175459108
 30
0.0
 11
272.2924697150427
 21
-1256.349175459108
 31
0.0
  0
LINE
  5
208
330
333
100
AcDbEntity
  8
DATA
  6
Continuous
 62
     7
100
AcDbLine
 10
269.4984697150428
 20
-1254.571175459108
 30
0.0
 11
266.704469715043
 21
-1256.349175459108
 31
0.0
  0
LINE
  5
209
330
333
100
AcDbEntity
  8
DATA
  6
Continuous
 62
     7
100
AcDbLine
 10
269.4984697150428
 20
-1261.429175459108
 30
0.0
 11
272.2924697150427
 21
-1259.651175459108
 31
0.0
  0
LINE
  5
20A
330
333
100
AcDbEntity
  8
DATA
  6
Continuous
 62
     7
100
AcDbLine
 10
-376.0006158418572
 20
-1285.000175459108
 30
0.0
 11
-376.0006158418572
 21
-764.0001754591079
 31
0.0
  0
LINE
  5
20B
330
333
100
AcDbEntity
  8
DATA
  6
Continuous
 62
     7
100
AcDbLine
 10
-519.5
 20
-1285.0
 30
0.0
 11
-1080.5
 21
-1285.0
 31
0.0
  0
LINE
  5
20C
330
333
100
AcDbEntity
  8
DATA
  6
Continuous
 62
     7
100
AcDbLine
 10
-560.66596
 20
-764.0
 30
0.0
 11
-560.66596
 21
-782.9562499999998
 31
0.0
  0
LINE
  5
20D
330
333
100
AcDbEntity
  8
DATA
  6
Continuous
 62
     7
100
AcDbLine
 10
-519.5
 20
-764.0
 30
0.0
 11
-1080.5
 21
-764.0
 31
0.0
  0
LINE
  5
20E
330
333
100
AcDbEntity
  8
DATA
  6
Continuous
 62
     7
100
AcDbLine
 10
-376.0006158418572
 20
-1285.000175459108
 30
0.0
 11
-449.9997017280292
 21
-1285.000175459108
 31
0.0
  0
LINE
  5
20F
330
333
100
AcDbEntity
  8
DATA
  6
Continuous
 62
     7
100
AcDbLine
 10
-376.0006158418572
 20
-764.0001754591079
 30
0.0
 11
-450.0015299559811
 21
-764.0001754591079
 31
0.0
  0
LINE
  5
210
330
333
100
AcDbEntity
  8
DATA
  6
Continuous
 62
     7
100
AcDbLine
 10
-780.0
 20
-1186.0
 30
0.0
 11
-820.0
 21
-1186.0
 31
0.0
  0
LINE
  5
211
330
333
100
AcDbEntity
  8
DATA
  6
Continuous
 62
     7
100
AcDbLine
 10
-810.7905700000001
 20
-1166.97749
 30
0.0
 11
-808.6983260000003
 21
-1161.992258
 31
0.0
  0
LINE
  5
212
330
333
100
AcDbEntity
  8
DATA
  6
Continuous
 62
     7
100
AcDbLine
 10
-810.7905700000001
 20
-1166.97749
 30
0.0
 11
-812.8569980000003
 21
-1161.992258
 31
0.0
  0
LINE
  5
213
330
333
100
AcDbEntity
  8
DATA
  6
Continuous
 62
     7
100
AcDbLine
 10
-794.9308099999998
 20
-1175.992258
 30
0.0
 11
-794.9308099999998
 21
-1161.992258
 31
0.0
  0
LINE
  5
214
330
333
100
AcDbEntity
  8
DATA
  6
Continuous
 62
     7
100
AcDbLine
 10
-792.2444620000004
 20
-1161.992258
 30
0.0
 11
-792.2444620000004
 21
-1173.848354
 31
0.0
  0
LINE
  5
215
330
333
100
AcDbEntity
  8
DATA
  6
Continuous
 62
     7
100
AcDbLine
 10
-807.7167720000002
 20
-1161.992258
 30
0.0
 11
-807.7167720000002
 21
-1173.848354
 31
0.0
  0
LINE
  5
216
330
333
100
AcDbEntity
  8
DATA
  6
Continuous
 62
     7
100
AcDbLine
 10
-805.1337440000002
 20
-1161.992258
 30
0.0
 11
-805.1337440000002
 21
-1173.848354
 31
0.0
  0
LINE
  5
217
330
333
100
AcDbEntity
  8
DATA
  6
Continuous
 62
     7
100
AcDbLine
 10
-803.7905700000001
 20
-1161.992258
 30
0.0
 11
-803.7905700000001
 21
-1175.992258
 31
0.0
  0
LINE
  5
218
330
333
100
AcDbEntity
  8
DATA
  6
Continuous
 62
     7
100
AcDbLine
 10
-801.4400120000001
 20
-1163.309588
 30
0.0
 11
-801.4400120000001
 21
-1167.804064
 31
0.0
  0
LINE
  5
219
330
333
100
AcDbEntity
  8
DATA
  6
Continuous
 62
     7
100
AcDbLine
 10
-796.402
 20
-1167.544
 30
0.0
 11
-796.402
 21
-1164.265326
 31
0.0
  0
LINE
  5
21A
330
333
100
AcDbEntity
  8
DATA
  6
Continuous
 62
     7
100
AcDbLine
 10
-798.8828419999999
 20
-1163.929522
 30
0.0
 11
-798.8828419999999
 21
-1167.184144
 31
0.0
  0
LINE
  5
21B
330
333
100
AcDbEntity
  8
DATA
  6
Continuous
 62
     7
100
AcDbLine
 10
-809.6798660000002
 20
-1171.601102
 30
0.0
 11
-809.6798660000002
 21
-1173.848325999999
 31
0.0
  0
LINE
  5
21C
330
333
100
AcDbEntity
  8
DATA
  6
Continuous
 62
     7
100
AcDbLine
 10
-809.6798660000002
 20
-1171.601102
 30
0.0
 11
-812.004594
 21
-1171.601102
 31
0.0
  0
LINE
  5
21D
330
333
100
AcDbEntity
  8
DATA
  6
Continuous
 62
     7
100
AcDbLine
 10
-812.004594
 20
-1171.601102
 30
0.0
 11
-812.004594
 21
-1173.848325999999
 31
0.0
  0
LINE
  5
21E
330
333
100
AcDbEntity
  8
DATA
  6
Continuous
 62
     7
100
AcDbLine
 10
-787.9308099999998
 20
-1175.992243999999
 30
0.0
 11
-794.9308099999998
 21
-1175.992243999999
 31
0.0
  0
LINE
  5
21F
330
333
100
AcDbEntity
  8
DATA
  6
Continuous
 62
     7
100
AcDbLine
 10
-787.9308099999998
 20
-1175.992243999999
 30
0.0
 11
-787.9308099999998
 21
-1171.601088
 31
0.0
  0
LINE
  5
220
330
333
100
AcDbEntity
  8
DATA
  6
Continuous
 62
     7
100
AcDbLine
 10
-787.9308099999998
 20
-1171.601102
 30
0.0
 11
-790.2813540000003
 21
-1171.601102
 31
0.0
  0
LINE
  5
221
330
333
100
AcDbEntity
  8
DATA
  6
Continuous
 62
     7
100
AcDbLine
 10
-790.2813540000003
 20
-1171.601102
 30
0.0
 11
-790.2813540000003
 21
-1173.848325999999
 31
0.0
  0
LINE
  5
222
330
333
100
AcDbEntity
  8
DATA
  6
Continuous
 62
     7
100
AcDbLine
 10
-803.7905700000001
 20
-1175.992243999999
 30
0.0
 11
-798.8828419999999
 21
-1175.992229999999
 31
0.0
  0
LINE
  5
223
330
333
100
AcDbEntity
  8
DATA
  6
Continuous
 62
     7
100
AcDbLine
 10
-801.440026
 20
-1174.6749
 30
0.0
 11
-800.1743420000002
 21
-1174.6749
 31
0.0
  0
LINE
  5
224
330
333
100
AcDbEntity
  8
DATA
  6
Continuous
 62
     7
100
AcDbLine
 10
-801.4400120000001
 20
-1174.6749
 30
0.0
 11
-801.4400120000001
 21
-1169.147223999999
 31
0.0
  0
LINE
  5
225
330
333
100
AcDbEntity
  8
DATA
  6
Continuous
 62
     7
100
AcDbLine
 10
-801.440026
 20
-1169.147223999999
 30
0.0
 11
-800.1743420000002
 21
-1169.147223999999
 31
0.0
  0
LINE
  5
226
330
333
100
AcDbEntity
  8
DATA
  6
Continuous
 62
     7
100
AcDbLine
 10
-798.8828419999999
 20
-1174.05498
 30
0.0
 11
-798.8828419999999
 21
-1169.767144
 31
0.0
  0
LINE
  5
227
330
333
100
AcDbEntity
  8
DATA
  6
Continuous
 62
     7
100
AcDbLine
 10
-796.4031340000001
 20
-1173.745006
 30
0.0
 11
-796.4031340000001
 21
-1170.025457999999
 31
0.0
  0
LINE
  5
228
330
333
100
AcDbEntity
  8
DATA
  6
Continuous
 62
     7
100
AcDbLine
 10
-801.440026
 20
-1167.804064
 30
0.0
 11
-800.1743420000002
 21
-1167.804064
 31
0.0
  0
LINE
  5
229
330
333
100
AcDbEntity
  8
DATA
  6
Continuous
 62
     7
100
AcDbLine
 10
-807.7167720000002
 20
-1161.992258
 30
0.0
 11
-805.1337440000002
 21
-1161.992258
 31
0.0
  0
LINE
  5
22A
330
333
100
AcDbEntity
  8
DATA
  6
Continuous
 62
     7
100
AcDbLine
 10
-812.8569980000003
 20
-1161.992258
 30
0.0
 11
-808.6983260000003
 21
-1161.992258
 31
0.0
  0
LINE
  5
22B
330
333
100
AcDbEntity
  8
DATA
  6
Continuous
 62
     7
100
AcDbLine
 10
-794.9308099999998
 20
-1161.992258
 30
0.0
 11
-792.2444620000004
 21
-1161.992258
 31
0.0
  0
LINE
  5
22C
330
333
100
AcDbEntity
  8
DATA
  6
Continuous
 62
     7
100
AcDbLine
 10
-803.7905700000001
 20
-1161.992258
 30
0.0
 11
-798.8558638205948
 21
-1161.992269331237
 31
0.0
  0
LINE
  5
22D
330
333
100
AcDbEntity
  8
DATA
  6
Continuous
 62
     7
100
AcDbLine
 10
-801.440026
 20
-1163.309601999999
 30
0.0
 11
-800.1743420000002
 21
-1163.309601999999
 31
0.0
  0
LINE
  5
22E
330
333
100
AcDbEntity
  8
DATA
  6
Continuous
 62
     7
100
AcDbLine
 10
806.25
 20
-1126.0
 30
0.0
 11
693.75
 21
-1126.0
 31
0.0
  0
LINE
  5
22F
330
333
100
AcDbEntity
  8
DATA
  6
Continuous
 62
     7
100
AcDbLine
 10
811.25
 20
-931.4999999999999
 30
0.0
 11
811.25
 21
-1121.0
 31
0.0
  0
LINE
  5
230
330
333
100
AcDbEntity
  8
DATA
  6
Continuous
 62
     7
100
AcDbLine
 10
747.0
 20
-1014.5
 30
0.0
 11
753.0
 21
-1014.5
 31
0.0
  0
LINE
  5
231
330
333
100
AcDbEntity
  8
DATA
  6
Continuous
 62
     7
100
AcDbLine
 10
748.0
 20
-1034.5
 30
0.0
 11
752.0
 21
-1034.5
 31
0.0
  0
LINE
  5
232
330
333
100
AcDbEntity
  8
DATA
  6
Continuous
 62
     7
100
AcDbLine
 10
748.0
 20
-1034.5
 30
0.0
 11
748.0
 21
-1033.3
 31
0.0
  0
LINE
  5
233
330
333
100
AcDbEntity
  8
DATA
  6
Continuous
 62
     7
100
AcDbLine
 10
752.0
 20
-1034.5
 30
0.0
 11
752.0
 21
-1033.3
 31
0.0
  0
LINE
  5
234
330
333
100
AcDbEntity
  8
DATA
  6
Continuous
 62
     7
100
AcDbLine
 10
747.0
 20
-1014.5
 30
0.0
 11
747.0
 21
-1016.22715
 31
0.0
  0
LINE
  5
235
330
333
100
AcDbEntity
  8
DATA
  6
Continuous
 62
     7
100
AcDbLine
 10
753.0
 20
-1014.5
 30
0.0
 11
753.0
 21
-1016.22715
 31
0.0
  0
LINE
  5
236
330
333
100
AcDbEntity
  8
DATA
  6
Continuous
 62
     7
100
AcDbLine
 10
744.6306599999997
 20
-1021.39997
 30
0.0
 11
745.1286200000002
 21
-1021.68747
 31
0.0
  0
LINE
  5
237
330
333
100
AcDbEntity
  8
DATA
  6
Continuous
 62
     7
100
AcDbLine
 10
753.0999700000001
 20
-1019.13062
 30
0.0
 11
752.8124699999998
 21
-1019.62859
 31
0.0
  0
LINE
  5
238
330
333
100
AcDbEntity
  8
DATA
  6
Continuous
 62
     7
100
AcDbLine
 10
746.9000000000004
 20
-1029.86936
 30
0.0
 11
747.1874999999999
 21
-1029.37139
 31
0.0
  0
LINE
  5
239
330
333
100
AcDbEntity
  8
DATA
  6
Continuous
 62
     7
100
AcDbLine
 10
755.3693700000003
 20
-1027.59998
 30
0.0
 11
754.8714
 21
-1027.31248
 31
0.0
  0
LINE
  5
23A
330
333
100
AcDbEntity
  8
DATA
  6
Continuous
 62
     7
100
AcDbLine
 10
751.7999799999996
 20
-1021.38231
 30
0.0
 11
751.4499899999999
 21
-1021.98852
 31
0.0
  0
LINE
  5
23B
330
333
100
AcDbEntity
  8
DATA
  6
Continuous
 62
     7
100
AcDbLine
 10
746.8823300000003
 20
-1022.69999
 30
0.0
 11
747.4885300000003
 21
-1023.04999
 31
0.0
  0
LINE
  5
23C
330
333
100
AcDbEntity
  8
DATA
  6
Continuous
 62
     7
100
AcDbLine
 10
748.1999999999998
 20
-1027.61768
 30
0.0
 11
748.5500000000002
 21
-1027.01147
 31
0.0
  0
LINE
  5
23D
330
333
100
AcDbEntity
  8
DATA
  6
Continuous
 62
     7
100
AcDbLine
 10
753.11769
 20
-1026.29998
 30
0.0
 11
752.5114800000001
 21
-1025.94999
 31
0.0
  0
LINE
  5
23E
330
333
100
AcDbEntity
  8
DATA
  6
Continuous
 62
     7
100
AcDbLine
 10
722.500000000001
 20
-1082.0
 30
0.0
 11
722.500000000001
 21
-1064.0
 31
0.0
  0
LINE
  5
23F
330
333
100
AcDbEntity
  8
DATA
  6
Continuous
 62
     7
100
AcDbLine
 10
725.500000000001
 20
-1082.0
 30
0.0
 11
725.500000000001
 21
-1064.0
 31
0.0
  0
LINE
  5
240
330
333
100
AcDbEntity
  8
DATA
  6
Continuous
 62
     7
100
AcDbLine
 10
735.500000000001
 20
-1082.0
 30
0.0
 11
735.500000000001
 21
-1064.0
 31
0.0
  0
LINE
  5
241
330
333
100
AcDbEntity
  8
DATA
  6
Continuous
 62
     7
100
AcDbLine
 10
738.500000000001
 20
-1082.0
 30
0.0
 11
738.500000000001
 21
-1064.0
 31
0.0
  0
LINE
  5
242
330
333
100
AcDbEntity
  8
DATA
  6
Continuous
 62
     7
100
AcDbLine
 10
748.500000000001
 20
-1082.0
 30
0.0
 11
748.500000000001
 21
-1064.0
 31
0.0
  0
LINE
  5
243
330
333
100
AcDbEntity
  8
DATA
  6
Continuous
 62
     7
100
AcDbLine
 10
751.500000000001
 20
-1082.0
 30
0.0
 11
751.500000000001
 21
-1064.0
 31
0.0
  0
LINE
  5
244
330
333
100
AcDbEntity
  8
DATA
  6
Continuous
 62
     7
100
AcDbLine
 10
761.5000000000009
 20
-1082.0
 30
0.0
 11
761.5000000000009
 21
-1064.0
 31
0.0
  0
LINE
  5
245
330
333
100
AcDbEntity
  8
DATA
  6
Continuous
 62
     7
100
AcDbLine
 10
764.500000000001
 20
-1082.0
 30
0.0
 11
764.500000000001
 21
-1064.0
 31
0.0
  0
LINE
  5
246
330
333
100
AcDbEntity
  8
DATA
  6
Continuous
 62
     7
100
AcDbLine
 10
774.500000000001
 20
-1082.0
 30
0.0
 11
774.500000000001
 21
-1064.0
 31
0.0
  0
LINE
  5
247
330
333
100
AcDbEntity
  8
DATA
  6
Continuous
 62
     7
100
AcDbLine
 10
777.500000000001
 20
-1082.0
 30
0.0
 11
777.500000000001
 21
-1064.0
 31
0.0
  0
LINE
  5
248
330
333
100
AcDbEntity
  8
DATA
  6
Continuous
 62
     7
100
AcDbLine
 10
712.5
 20
-1082.0
 30
0.0
 11
712.5
 21
-1064.0
 31
0.0
  0
LINE
  5
249
330
333
100
AcDbEntity
  8
DATA
  6
Continuous
 62
     7
100
AcDbLine
 10
787.5
 20
-1064.0
 30
0.0
 11
787.5
 21
-1082.0
 31
0.0
  0
LINE
  5
24A
330
333
100
AcDbEntity
  8
DATA
  6
Continuous
 62
     7
100
AcDbLine
 10
726.7412295168569
 20
-1071.631919426697
 30
0.0
 11
734.2587704831439
 21
-1074.368080573302
 31
0.0
  0
LINE
  5
24B
330
333
100
AcDbEntity
  8
DATA
  6
Continuous
 62
     7
100
AcDbLine
 10
723.5
 20
-976.3333333333335
 30
0.0
 11
776.5
 21
-976.3333333333335
 31
0.0
  0
LINE
  5
24C
330
333
100
AcDbEntity
  8
DATA
  6
Continuous
 62
     7
100
AcDbLine
 10
723.5
 20
-982.6666666666664
 30
0.0
 11
776.5
 21
-982.6666666666664
 31
0.0
  0
LINE
  5
24D
330
333
100
AcDbEntity
  8
DATA
  6
Continuous
 62
     7
100
AcDbLine
 10
750.0
 20
-989.0
 30
0.0
 11
750.0
 21
-970.0
 31
0.0
  0
LINE
  5
24E
330
333
100
AcDbEntity
  8
DATA
  6
Continuous
 62
     7
100
AcDbLine
 10
731.0985352508204
 20
-1071.355537913625
 30
0.0
 11
729.9014647491804
 21
-1074.644462086375
 31
0.0
  0
LINE
  5
24F
330
333
100
AcDbEntity
  8
DATA
  6
Continuous
 62
     7
100
AcDbLine
 10
718.0985352508204
 20
-1074.644462086375
 30
0.0
 11
716.9014647491804
 21
-1071.355537913625
 31
0.0
  0
LINE
  5
250
330
333
100
AcDbEntity
  8
DATA
  6
Continuous
 62
     7
100
AcDbLine
 10
715.8555379136251
 20
-1073.59853525082
 30
0.0
 11
719.1444620863759
 21
-1072.40146474918
 31
0.0
  0
LINE
  5
251
330
333
100
AcDbEntity
  8
DATA
  6
Continuous
 62
     7
100
AcDbLine
 10
739.7412295168569
 20
-1071.631919426697
 30
0.0
 11
747.258770483144
 21
-1074.368080573302
 31
0.0
  0
LINE
  5
252
330
333
100
AcDbEntity
  8
DATA
  6
Continuous
 62
     7
100
AcDbLine
 10
744.0985352508204
 20
-1071.355537913625
 30
0.0
 11
742.9014647491804
 21
-1074.644462086375
 31
0.0
  0
LINE
  5
253
330
333
100
AcDbEntity
  8
DATA
  6
Continuous
 62
     7
100
AcDbLine
 10
752.7412295168569
 20
-1071.631919426697
 30
0.0
 11
760.258770483144
 21
-1074.368080573302
 31
0.0
  0
LINE
  5
254
330
333
100
AcDbEntity
  8
DATA
  6
Continuous
 62
     7
100
AcDbLine
 10
757.0985352508204
 20
-1071.355537913625
 30
0.0
 11
755.9014647491805
 21
-1074.644462086375
 31
0.0
  0
LINE
  5
255
330
333
100
AcDbEntity
  8
DATA
  6
Continuous
 62
     7
100
AcDbLine
 10
765.7412295168569
 20
-1071.631919426697
 30
0.0
 11
773.2587704831439
 21
-1074.368080573302
 31
0.0
  0
LINE
  5
256
330
333
100
AcDbEntity
  8
DATA
  6
Continuous
 62
     7
100
AcDbLine
 10
770.0985352508204
 20
-1071.355537913625
 30
0.0
 11
768.9014647491805
 21
-1074.644462086375
 31
0.0
  0
LINE
  5
257
330
333
100
AcDbEntity
  8
DATA
  6
Continuous
 62
     7
100
AcDbLine
 10
780.8555379136251
 20
-1073.59853525082
 30
0.0
 11
784.1444620863759
 21
-1072.40146474918
 31
0.0
  0
LINE
  5
258
330
333
100
AcDbEntity
  8
DATA
  6
Continuous
 62
     7
100
AcDbLine
 10
783.0985352508204
 20
-1074.644462086375
 30
0.0
 11
781.9014647491805
 21
-1071.355537913625
 31
0.0
  0
LINE
  5
259
330
333
100
AcDbEntity
  8
DATA
  6
Continuous
 62
     7
100
AcDbLine
 10
695.25
 20
-934.75
 30
0.0
 11
695.25
 21
-931.75
 31
0.0
  0
LINE
  5
25A
330
333
100
AcDbEntity
  8
DATA
  6
Continuous
 62
     7
100
AcDbLine
 10
696.75
 20
-933.2499999999999
 30
0.0
 11
693.75
 21
-933.2499999999999
 31
0.0
  0
LINE
  5
25B
330
333
100
AcDbEntity
  8
DATA
  6
Continuous
 62
     7
100
AcDbLine
 10
804.7499999999999
 20
-934.75
 30
0.0
 11
804.7499999999999
 21
-931.75
 31
0.0
  0
LINE
  5
25C
330
333
100
AcDbEntity
  8
DATA
  6
Continuous
 62
     7
100
AcDbLine
 10
806.25
 20
-933.2499999999999
 30
0.0
 11
803.25
 21
-933.2499999999999
 31
0.0
  0
LINE
  5
25D
330
333
100
AcDbEntity
  8
DATA
  6
Continuous
 62
     7
100
AcDbLine
 10
695.25
 20
-1027.75
 30
0.0
 11
695.25
 21
-1024.75
 31
0.0
  0
LINE
  5
25E
330
333
100
AcDbEntity
  8
DATA
  6
Continuous
 62
     7
100
AcDbLine
 10
696.75
 20
-1026.25
 30
0.0
 11
693.75
 21
-1026.25
 31
0.0
  0
LINE
  5
25F
330
333
100
AcDbEntity
  8
DATA
  6
Continuous
 62
     7
100
AcDbLine
 10
804.7499999999999
 20
-1027.75
 30
0.0
 11
804.7499999999999
 21
-1024.75
 31
0.0
  0
LINE
  5
260
330
333
100
AcDbEntity
  8
DATA
  6
Continuous
 62
     7
100
AcDbLine
 10
806.25
 20
-1026.25
 30
0.0
 11
803.25
 21
-1026.25
 31
0.0
  0
LINE
  5
261
330
333
100
AcDbEntity
  8
DATA
  6
Continuous
 62
     7
100
AcDbLine
 10
695.25
 20
-1120.75
 30
0.0
 11
695.25
 21
-1117.75
 31
0.0
  0
LINE
  5
262
330
333
100
AcDbEntity
  8
DATA
  6
Continuous
 62
     7
100
AcDbLine
 10
696.75
 20
-1119.25
 30
0.0
 11
693.75
 21
-1119.25
 31
0.0
  0
LINE
  5
263
330
333
100
AcDbEntity
  8
DATA
  6
Continuous
 62
     7
100
AcDbLine
 10
804.7499999999999
 20
-1120.75
 30
0.0
 11
804.7499999999999
 21
-1117.75
 31
0.0
  0
LINE
  5
264
330
333
100
AcDbEntity
  8
DATA
  6
Continuous
 62
     7
100
AcDbLine
 10
806.25
 20
-1119.25
 30
0.0
 11
803.25
 21
-1119.25
 31
0.0
  0
LINE
  5
265
330
333
100
AcDbEntity
  8
DATA
  6
Continuous
 62
     7
100
AcDbLine
 10
693.75
 20
-926.5
 30
0.0
 11
806.25
 21
-926.5
 31
0.0
  0
LINE
  5
266
330
333
100
AcDbEntity
  8
DATA
  6
Continuous
 62
     7
100
AcDbLine
 10
688.75
 20
-1121.0
 30
0.0
 11
688.75
 21
-931.4999999999999
 31
0.0
  0
LINE
  5
267
330
333
100
AcDbEntity
  8
DATA
  6
Continuous
 62
     7
100
AcDbLine
 10
750.0
 20
-400.0
 30
0.0
 11
1050.0
 21
-400.0
 31
0.0
  0
LINE
  5
268
330
333
100
AcDbEntity
  8
DATA
  6
Continuous
 62
     7
100
AcDbLine
 10
1293.75
 20
-250.0
 30
0.0
 11
506.25
 21
-250.0
 31
0.0
  0
LINE
  5
269
330
333
100
AcDbEntity
  8
DATA
  6
Continuous
 62
     7
100
AcDbLine
 10
1328.75
 20
1111.5
 30
0.0
 11
1328.75
 21
-215.0
 31
0.0
  0
LINE
  5
26A
330
333
100
AcDbEntity
  8
DATA
  6
Continuous
 62
     7
100
AcDbLine
 10
879.0
 20
530.4999999999999
 30
0.0
 11
921.0
 21
530.4999999999999
 31
0.0
  0
LINE
  5
26B
330
333
100
AcDbEntity
  8
DATA
  6
Continuous
 62
     7
100
AcDbLine
 10
886.0
 20
390.5
 30
0.0
 11
914.0
 21
390.5
 31
0.0
  0
LINE
  5
26C
330
333
100
AcDbEntity
  8
DATA
  6
Continuous
 62
     7
100
AcDbLine
 10
886.0
 20
390.5
 30
0.0
 11
886.0
 21
398.9000000000003
 31
0.0
  0
LINE
  5
26D
330
333
100
AcDbEntity
  8
DATA
  6
Continuous
 62
     7
100
AcDbLine
 10
914.0
 20
390.5
 30
0.0
 11
914.0
 21
398.9000000000003
 31
0.0
  0
LINE
  5
26E
330
333
100
AcDbEntity
  8
DATA
  6
Continuous
 62
     7
100
AcDbLine
 10
879.0
 20
530.4999999999999
 30
0.0
 11
879.0
 21
518.4099499999988
 31
0.0
  0
LINE
  5
26F
330
333
100
AcDbEntity
  8
DATA
  6
Continuous
 62
     7
100
AcDbLine
 10
921.0
 20
530.4999999999999
 30
0.0
 11
921.0
 21
518.4099499999988
 31
0.0
  0
LINE
  5
270
330
333
100
AcDbEntity
  8
DATA
  6
Continuous
 62
     7
100
AcDbLine
 10
862.4146199999984
 20
482.2002100000004
 30
0.0
 11
865.9003400000029
 21
480.1877099999995
 31
0.0
  0
LINE
  5
271
330
333
100
AcDbEntity
  8
DATA
  6
Continuous
 62
     7
100
AcDbLine
 10
921.6997900000016
 20
498.0856600000006
 30
0.0
 11
919.6872899999988
 21
494.5998699999997
 31
0.0
  0
LINE
  5
272
330
333
100
AcDbEntity
  8
DATA
  6
Continuous
 62
     7
100
AcDbLine
 10
878.3000000000038
 20
422.914479999999
 30
0.0
 11
880.3124999999999
 21
426.4002699999998
 31
0.0
  0
LINE
  5
273
330
333
100
AcDbEntity
  8
DATA
  6
Continuous
 62
     7
100
AcDbLine
 10
937.5855900000024
 20
438.8001400000002
 30
0.0
 11
934.0997999999999
 21
440.8126399999996
 31
0.0
  0
LINE
  5
274
330
333
100
AcDbEntity
  8
DATA
  6
Continuous
 62
     7
100
AcDbLine
 10
912.5998599999983
 20
482.3238300000002
 30
0.0
 11
910.1499300000002
 21
478.0803599999992
 31
0.0
  0
LINE
  5
275
330
333
100
AcDbEntity
  8
DATA
  6
Continuous
 62
     7
100
AcDbLine
 10
878.1763100000024
 20
473.1000699999994
 30
0.0
 11
882.4197100000036
 21
470.6500700000001
 31
0.0
  0
LINE
  5
276
330
333
100
AcDbEntity
  8
DATA
  6
Continuous
 62
     7
100
AcDbLine
 10
887.3999999999988
 20
438.6762399999995
 30
0.0
 11
889.8500000000012
 21
442.9197100000004
 31
0.0
  0
LINE
  5
277
330
333
100
AcDbEntity
  8
DATA
  6
Continuous
 62
     7
100
AcDbLine
 10
921.8238300000001
 20
447.90014
 30
0.0
 11
917.5803600000007
 21
450.3500699999994
 31
0.0
  0
LINE
  5
278
330
333
100
AcDbEntity
  8
DATA
  6
Continuous
 62
     7
100
AcDbLine
 10
707.5000000000064
 20
58.0
 30
0.0
 11
707.5000000000064
 21
184.0
 31
0.0
  0
LINE
  5
279
330
333
100
AcDbEntity
  8
DATA
  6
Continuous
 62
     7
100
AcDbLine
 10
728.5000000000062
 20
58.0
 30
0.0
 11
728.5000000000062
 21
184.0
 31
0.0
  0
LINE
  5
27A
330
333
100
AcDbEntity
  8
DATA
  6
Continuous
 62
     7
100
AcDbLine
 10
798.5000000000062
 20
58.0
 30
0.0
 11
798.5000000000062
 21
184.0
 31
0.0
  0
LINE
  5
27B
330
333
100
AcDbEntity
  8
DATA
  6
Continuous
 62
     7
100
AcDbLine
 10
819.5000000000062
 20
58.0
 30
0.0
 11
819.5000000000062
 21
184.0
 31
0.0
  0
LINE
  5
27C
330
333
100
AcDbEntity
  8
DATA
  6
Continuous
 62
     7
100
AcDbLine
 10
889.5000000000063
 20
58.0
 30
0.0
 11
889.5000000000063
 21
184.0
 31
0.0
  0
LINE
  5
27D
330
333
100
AcDbEntity
  8
DATA
  6
Continuous
 62
     7
100
AcDbLine
 10
910.5000000000064
 20
58.0
 30
0.0
 11
910.5000000000064
 21
184.0
 31
0.0
  0
LINE
  5
27E
330
333
100
AcDbEntity
  8
DATA
  6
Continuous
 62
     7
100
AcDbLine
 10
980.5000000000063
 20
58.0
 30
0.0
 11
980.5000000000063
 21
184.0
 31
0.0
  0
LINE
  5
27F
330
333
100
AcDbEntity
  8
DATA
  6
Continuous
 62
     7
100
AcDbLine
 10
1001.500000000006
 20
58.0
 30
0.0
 11
1001.500000000006
 21
184.0
 31
0.0
  0
LINE
  5
280
330
333
100
AcDbEntity
  8
DATA
  6
Continuous
 62
     7
100
AcDbLine
 10
1071.500000000006
 20
58.0
 30
0.0
 11
1071.500000000006
 21
184.0
 31
0.0
  0
LINE
  5
281
330
333
100
AcDbEntity
  8
DATA
  6
Continuous
 62
     7
100
AcDbLine
 10
1092.500000000006
 20
58.0
 30
0.0
 11
1092.500000000006
 21
184.0
 31
0.0
  0
LINE
  5
282
330
333
100
AcDbEntity
  8
DATA
  6
Continuous
 62
     7
100
AcDbLine
 10
637.5
 20
58.0
 30
0.0
 11
637.5
 21
184.0
 31
0.0
  0
LINE
  5
283
330
333
100
AcDbEntity
  8
DATA
  6
Continuous
 62
     7
100
AcDbLine
 10
1162.5
 20
184.0
 30
0.0
 11
1162.5
 21
58.0
 31
0.0
  0
LINE
  5
284
330
333
100
AcDbEntity
  8
DATA
  6
Continuous
 62
     7
100
AcDbLine
 10
737.1886066179984
 20
130.5765640131203
 30
0.0
 11
789.8113933820076
 21
111.4234359868812
 31
0.0
  0
LINE
  5
285
330
333
100
AcDbEntity
  8
DATA
  6
Continuous
 62
     7
100
AcDbLine
 10
714.5
 20
797.6666666666663
 30
0.0
 11
1085.5
 21
797.6666666666663
 31
0.0
  0
LINE
  5
286
330
333
100
AcDbEntity
  8
DATA
  6
Continuous
 62
     7
100
AcDbLine
 10
714.5
 20
753.3333333333335
 30
0.0
 11
1085.5
 21
753.3333333333335
 31
0.0
  0
LINE
  5
287
330
333
100
AcDbEntity
  8
DATA
  6
Continuous
 62
     7
100
AcDbLine
 10
900.0
 20
709.0
 30
0.0
 11
900.0
 21
842.0
 31
0.0
  0
LINE
  5
288
330
333
100
AcDbEntity
  8
DATA
  6
Continuous
 62
     7
100
AcDbLine
 10
767.6897467557436
 20
132.5112346046276
 30
0.0
 11
759.3102532442625
 21
109.4887653953724
 31
0.0
  0
LINE
  5
289
330
333
100
AcDbEntity
  8
DATA
  6
Continuous
 62
     7
100
AcDbLine
 10
676.6897467557436
 20
109.4887653953724
 30
0.0
 11
668.3102532442624
 21
132.5112346046276
 31
0.0
  0
LINE
  5
28A
330
333
100
AcDbEntity
  8
DATA
  6
Continuous
 62
     7
100
AcDbLine
 10
660.9887653953755
 20
116.8102532442594
 30
0.0
 11
684.0112346046307
 21
125.1897467557389
 31
0.0
  0
LINE
  5
28B
330
333
100
AcDbEntity
  8
DATA
  6
Continuous
 62
     7
100
AcDbLine
 10
828.1886066179986
 20
130.5765640131203
 30
0.0
 11
880.8113933820076
 21
111.4234359868812
 31
0.0
  0
LINE
  5
28C
330
333
100
AcDbEntity
  8
DATA
  6
Continuous
 62
     7
100
AcDbLine
 10
858.6897467557436
 20
132.5112346046276
 30
0.0
 11
850.3102532442625
 21
109.4887653953724
 31
0.0
  0
LINE
  5
28D
330
333
100
AcDbEntity
  8
DATA
  6
Continuous
 62
     7
100
AcDbLine
 10
919.1886066179986
 20
130.5765640131203
 30
0.0
 11
971.8113933820076
 21
111.4234359868812
 31
0.0
  0
LINE
  5
28E
330
333
100
AcDbEntity
  8
DATA
  6
Continuous
 62
     7
100
AcDbLine
 10
949.6897467557436
 20
132.5112346046276
 30
0.0
 11
941.3102532442625
 21
109.4887653953724
 31
0.0
  0
LINE
  5
28F
330
333
100
AcDbEntity
  8
DATA
  6
Continuous
 62
     7
100
AcDbLine
 10
1010.188606617998
 20
130.5765640131203
 30
0.0
 11
1062.811393382007
 21
111.4234359868812
 31
0.0
  0
LINE
  5
290
330
333
100
AcDbEntity
  8
DATA
  6
Continuous
 62
     7
100
AcDbLine
 10
1040.689746755743
 20
132.5112346046276
 30
0.0
 11
1032.310253244262
 21
109.4887653953724
 31
0.0
  0
LINE
  5
291
330
333
100
AcDbEntity
  8
DATA
  6
Continuous
 62
     7
100
AcDbLine
 10
1115.988765395375
 20
116.8102532442594
 30
0.0
 11
1139.011234604631
 21
125.1897467557389
 31
0.0
  0
LINE
  5
292
330
333
100
AcDbEntity
  8
DATA
  6
Continuous
 62
     7
100
AcDbLine
 10
1131.689746755743
 20
109.4887653953724
 30
0.0
 11
1123.310253244262
 21
132.5112346046276
 31
0.0
  0
LINE
  5
293
330
333
100
AcDbEntity
  8
DATA
  6
Continuous
 62
     7
100
AcDbLine
 10
516.75
 20
1088.75
 30
0.0
 11
516.75
 21
1109.75
 31
0.0
  0
LINE
  5
294
330
333
100
AcDbEntity
  8
DATA
  6
Continuous
 62
     7
100
AcDbLine
 10
527.2499999999999
 20
1099.25
 30
0.0
 11
506.25
 21
1099.25
 31
0.0
  0
LINE
  5
295
330
333
100
AcDbEntity
  8
DATA
  6
Continuous
 62
     7
100
AcDbLine
 10
1283.25
 20
1088.75
 30
0.0
 11
1283.25
 21
1109.75
 31
0.0
  0
LINE
  5
296
330
333
100
AcDbEntity
  8
DATA
  6
Continuous
 62
     7
100
AcDbLine
 10
1293.75
 20
1099.25
 30
0.0
 11
1272.75
 21
1099.25
 31
0.0
  0
LINE
  5
297
330
333
100
AcDbEntity
  8
DATA
  6
Continuous
 62
     7
100
AcDbLine
 10
516.75
 20
437.75
 30
0.0
 11
516.75
 21
458.75
 31
0.0
  0
LINE
  5
298
330
333
100
AcDbEntity
  8
DATA
  6
Continuous
 62
     7
100
AcDbLine
 10
527.2499999999999
 20
448.2499999999999
 30
0.0
 11
506.25
 21
448.2499999999999
 31
0.0
  0
LINE
  5
299
330
333
100
AcDbEntity
  8
DATA
  6
Continuous
 62
     7
100
AcDbLine
 10
1283.25
 20
437.75
 30
0.0
 11
1283.25
 21
458.75
 31
0.0
  0
LINE
  5
29A
330
333
100
AcDbEntity
  8
DATA
  6
Continuous
 62
     7
100
AcDbLine
 10
1293.75
 20
448.2499999999999
 30
0.0
 11
1272.75
 21
448.2499999999999
 31
0.0
  0
LINE
  5
29B
330
333
100
AcDbEntity
  8
DATA
  6
Continuous
 62
     7
100
AcDbLine
 10
516.75
 20
-213.25
 30
0.0
 11
516.75
 21
-192.25
 31
0.0
  0
LINE
  5
29C
330
333
100
AcDbEntity
  8
DATA
  6
Continuous
 62
     7
100
AcDbLine
 10
527.2499999999999
 20
-202.75
 30
0.0
 11
506.25
 21
-202.75
 31
0.0
  0
LINE
  5
29D
330
333
100
AcDbEntity
  8
DATA
  6
Continuous
 62
     7
100
AcDbLine
 10
1283.25
 20
-213.25
 30
0.0
 11
1283.25
 21
-192.25
 31
0.0
  0
LINE
  5
29E
330
333
100
AcDbEntity
  8
DATA
  6
Continuous
 62
     7
100
AcDbLine
 10
1293.75
 20
-202.75
 30
0.0
 11
1272.75
 21
-202.75
 31
0.0
  0
LINE
  5
29F
330
333
100
AcDbEntity
  8
DATA
  6
Continuous
 62
     7
100
AcDbLine
 10
506.25
 20
1146.5
 30
0.0
 11
1293.75
 21
1146.5
 31
0.0
  0
LINE
  5
2A0
330
333
100
AcDbEntity
  8
DATA
  6
Continuous
 62
     7
100
AcDbLine
 10
471.25
 20
-215.0
 30
0.0
 11
471.25
 21
1111.5
 31
0.0
  0
LINE
  5
2A1
330
333
100
AcDbEntity
  8
DATA
  6
STYLE_06
 62
     7
100
AcDbLine
 10
-800.0
 20
250.0
 30
0.0
 11
-800.0
 21
-625.0
 31
0.0
  0
LINE
  5
2A2
330
333
100
AcDbEntity
  8
DATA
  6
Continuous
 62
     7
100
AcDbLine
 10
725.4999999999999
 20
-1076.999999999999
 30
0.0
 11
727.6951219512201
 21
-1067.243902439024
 31
0.0
  0
LINE
  5
2A3
330
333
100
AcDbEntity
  8
DATA
  6
Continuous
 62
     7
100
AcDbLine
 10
733.3048780487806
 20
-1078.756097560975
 30
0.0
 11
725.4999999999999
 21
-1076.999999999999
 31
0.0
  0
LINE
  5
2A4
330
333
100
AcDbEntity
  8
DATA
  6
Continuous
 62
     7
100
AcDbLine
 10
735.5
 20
-1068.999999999999
 30
0.0
 11
733.3048780487806
 21
-1078.756097560975
 31
0.0
  0
LINE
  5
2A5
330
333
100
AcDbEntity
  8
DATA
  6
Continuous
 62
     7
100
AcDbLine
 10
727.6951219512201
 20
-1067.243902439024
 30
0.0
 11
735.5
 21
-1068.999999999999
 31
0.0
  0
LINE
  5
2A6
330
333
100
AcDbEntity
  8
DATA
  6
Continuous
 62
     7
100
AcDbLine
 10
738.4999999999999
 20
-1076.999999999999
 30
0.0
 11
740.6951219512201
 21
-1067.243902439024
 31
0.0
  0
LINE
  5
2A7
330
333
100
AcDbEntity
  8
DATA
  6
Continuous
 62
     7
100
AcDbLine
 10
746.3048780487806
 20
-1078.756097560975
 30
0.0
 11
738.4999999999999
 21
-1076.999999999999
 31
0.0
  0
LINE
  5
2A8
330
333
100
AcDbEntity
  8
DATA
  6
Continuous
 62
     7
100
AcDbLine
 10
748.5
 20
-1068.999999999999
 30
0.0
 11
746.3048780487806
 21
-1078.756097560975
 31
0.0
  0
LINE
  5
2A9
330
333
100
AcDbEntity
  8
DATA
  6
Continuous
 62
     7
100
AcDbLine
 10
740.6951219512201
 20
-1067.243902439024
 30
0.0
 11
748.5
 21
-1068.999999999999
 31
0.0
  0
LINE
  5
2AA
330
333
100
AcDbEntity
  8
DATA
  6
Continuous
 62
     7
100
AcDbLine
 10
751.5
 20
-1076.999999999999
 30
0.0
 11
753.6951219512201
 21
-1067.243902439024
 31
0.0
  0
LINE
  5
2AB
330
333
100
AcDbEntity
  8
DATA
  6
Continuous
 62
     7
100
AcDbLine
 10
759.3048780487806
 20
-1078.756097560975
 30
0.0
 11
751.5
 21
-1076.999999999999
 31
0.0
  0
LINE
  5
2AC
330
333
100
AcDbEntity
  8
DATA
  6
Continuous
 62
     7
100
AcDbLine
 10
761.5
 20
-1068.999999999999
 30
0.0
 11
759.3048780487806
 21
-1078.756097560975
 31
0.0
  0
LINE
  5
2AD
330
333
100
AcDbEntity
  8
DATA
  6
Continuous
 62
     7
100
AcDbLine
 10
753.6951219512201
 20
-1067.243902439024
 30
0.0
 11
761.5
 21
-1068.999999999999
 31
0.0
  0
LINE
  5
2AE
330
333
100
AcDbEntity
  8
DATA
  6
Continuous
 62
     7
100
AcDbLine
 10
764.5
 20
-1076.999999999999
 30
0.0
 11
766.6951219512201
 21
-1067.243902439024
 31
0.0
  0
LINE
  5
2AF
330
333
100
AcDbEntity
  8
DATA
  6
Continuous
 62
     7
100
AcDbLine
 10
772.3048780487807
 20
-1078.756097560975
 30
0.0
 11
764.5
 21
-1076.999999999999
 31
0.0
  0
LINE
  5
2B0
330
333
100
AcDbEntity
  8
DATA
  6
Continuous
 62
     7
100
AcDbLine
 10
774.5
 20
-1068.999999999999
 30
0.0
 11
772.3048780487807
 21
-1078.756097560975
 31
0.0
  0
LINE
  5
2B1
330
333
100
AcDbEntity
  8
DATA
  6
Continuous
 62
     7
100
AcDbLine
 10
766.6951219512201
 20
-1067.243902439024
 30
0.0
 11
774.5
 21
-1068.999999999999
 31
0.0
  0
LINE
  5
2B2
330
333
100
AcDbEntity
  8
DATA
  6
Continuous
 62
     7
100
AcDbLine
 10
728.5
 20
93.0000000000016
 30
0.0
 11
743.8658536585417
 21
161.2926829268308
 31
0.0
  0
LINE
  5
2B3
330
333
100
AcDbEntity
  8
DATA
  6
Continuous
 62
     7
100
AcDbLine
 10
783.1341463414646
 20
80.70731707317234
 30
0.0
 11
728.5
 21
93.0000000000016
 31
0.0
  0
LINE
  5
2B4
330
333
100
AcDbEntity
  8
DATA
  6
Continuous
 62
     7
100
AcDbLine
 10
798.5
 20
149.0000000000016
 30
0.0
 11
783.1341463414646
 21
80.70731707317234
 31
0.0
  0
LINE
  5
2B5
330
333
100
AcDbEntity
  8
DATA
  6
Continuous
 62
     7
100
AcDbLine
 10
743.8658536585417
 20
161.2926829268308
 30
0.0
 11
798.5
 21
149.0000000000016
 31
0.0
  0
LINE
  5
2B6
330
333
100
AcDbEntity
  8
DATA
  6
Continuous
 62
     7
100
AcDbLine
 10
819.5
 20
93.0000000000016
 30
0.0
 11
834.8658536585416
 21
161.2926829268308
 31
0.0
  0
LINE
  5
2B7
330
333
100
AcDbEntity
  8
DATA
  6
Continuous
 62
     7
100
AcDbLine
 10
874.1341463414647
 20
80.70731707317234
 30
0.0
 11
819.5
 21
93.0000000000016
 31
0.0
  0
LINE
  5
2B8
330
333
100
AcDbEntity
  8
DATA
  6
Continuous
 62
     7
100
AcDbLine
 10
889.4999999999999
 20
149.0000000000016
 30
0.0
 11
874.1341463414647
 21
80.70731707317234
 31
0.0
  0
LINE
  5
2B9
330
333
100
AcDbEntity
  8
DATA
  6
Continuous
 62
     7
100
AcDbLine
 10
834.8658536585416
 20
161.2926829268308
 30
0.0
 11
889.4999999999999
 21
149.0000000000016
 31
0.0
  0
LINE
  5
2BA
330
333
100
AcDbEntity
  8
DATA
  6
Continuous
 62
     7
100
AcDbLine
 10
910.5
 20
93.0000000000016
 30
0.0
 11
925.8658536585416
 21
161.2926829268308
 31
0.0
  0
LINE
  5
2BB
330
333
100
AcDbEntity
  8
DATA
  6
Continuous
 62
     7
100
AcDbLine
 10
965.1341463414647
 20
80.70731707317234
 30
0.0
 11
910.5
 21
93.0000000000016
 31
0.0
  0
LINE
  5
2BC
330
333
100
AcDbEntity
  8
DATA
  6
Continuous
 62
     7
100
AcDbLine
 10
980.4999999999999
 20
149.0000000000016
 30
0.0
 11
965.1341463414647
 21
80.70731707317234
 31
0.0
  0
LINE
  5
2BD
330
333
100
AcDbEntity
  8
DATA
  6
Continuous
 62
     7
100
AcDbLine
 10
925.8658536585416
 20
161.2926829268308
 30
0.0
 11
980.4999999999999
 21
149.0000000000016
 31
0.0
  0
LINE
  5
2BE
330
333
100
AcDbEntity
  8
DATA
  6
Continuous
 62
     7
100
AcDbLine
 10
1001.5
 20
93.0000000000016
 30
0.0
 11
1016.865853658541
 21
161.2926829268308
 31
0.0
  0
LINE
  5
2BF
330
333
100
AcDbEntity
  8
DATA
  6
Continuous
 62
     7
100
AcDbLine
 10
1056.134146341465
 20
80.70731707317234
 30
0.0
 11
1001.5
 21
93.0000000000016
 31
0.0
  0
LINE
  5
2C0
330
333
100
AcDbEntity
  8
DATA
  6
Continuous
 62
     7
100
AcDbLine
 10
1071.5
 20
149.0000000000016
 30
0.0
 11
1056.134146341465
 21
80.70731707317234
 31
0.0
  0
LINE
  5
2C1
330
333
100
AcDbEntity
  8
DATA
  6
Continuous
 62
     7
100
AcDbLine
 10
1016.865853658541
 20
161.2926829268308
 30
0.0
 11
1071.5
 21
149.0000000000016
 31
0.0
  0
TEXT
  5
2C2
330
333
100
AcDbEntity
  8
DATA
 62
     7
100
AcDbText
 10
819.2365861468845
 20
-370.3605143229167
 30
0.0
 40
40.72102864583334
  1
端子拡大図
 41
0.7
 72
     1
 11
899.9999596277874
 21
-350.0
 31
0.0
100
AcDbText
 73
     2
  0
ENDSEC
  0
SECTION
  2
OBJECTS
  0
DICTIONARY
  5
2D0
330
0
100
AcDbDictionary
281
     1
  3
ACAD_CIP_PREVIOUS_PRODUCT_INFO
350
34C
  3
ACAD_COLOR
350
326
  3
ACAD_DETAILVIEWSTYLE
350
32D
  3
ACAD_GROUP
350
2D1
  3
ACAD_LAYOUT
350
325
  3
ACAD_MATERIAL
350
2D4
  3
ACAD_MLEADERSTYLE
350
329
  3
ACAD_MLINESTYLE
350
322
  3
ACAD_PLOTSETTINGS
350
324
  3
ACAD_PLOTSTYLENAME
350
2D2
  3
ACAD_SCALELIST
350
306
  3
ACAD_SECTIONVIEWSTYLE
350
32B
  3
ACAD_TABLESTYLE
350
327
  3
ACAD_VISUALSTYLE
350
2ED
  3
ACDB_RECOMPOSE_DATA
350
364
  3
AcDbVariableDictionary
350
357
  3
DWGPROPS
350
365
  0
DICTIONARY
  5
34D
330
318
100
AcDbDictionary
280
     1
281
     1
  3
ADSK_XREC_LAYER_RECONCILED
360
34E
  0
DICTIONARY
  5
34F
330
337
100
AcDbDictionary
280
     1
281
     1
  3
ADSK_XREC_LAYER_RECONCILED
360
350
  0
DICTIONARY
  5
351
330
344
100
AcDbDictionary
280
     1
281
     1
  3
ADSK_XREC_LAYER_RECONCILED
360
352
  0
DICTIONARY
  5
353
330
345
100
AcDbDictionary
280
     1
281
     1
  3
ADSK_XREC_LAYER_RECONCILED
360
354
  0
DICTIONARY
  5
355
330
346
100
AcDbDictionary
280
     1
281
     1
  3
ADSK_XREC_LAYER_RECONCILED
360
356
  0
XRECORD
  5
34C
102
{ACAD_REACTORS
330
2D0
102
}
330
2D0
100
AcDbXrecord
280
     1
300
ACDLT
300
2017
300
ACDLT_F_S
  0
DICTIONARY
  5
326
102
{ACAD_REACTORS
330
2D0
102
}
330
2D0
100
AcDbDictionary
281
     1
  0
DICTIONARY
  5
32D
102
{ACAD_REACTORS
330
2D0
102
}
330
2D0
100
AcDbDictionary
281
     1
  3
Imperial24
350
32E
  0
DICTIONARY
  5
2D1
102
{ACAD_REACTORS
330
2D0
102
}
330
2D0
100
AcDbDictionary
281
     1
  0
DICTIONARY
  5
325
102
{ACAD_REACTORS
330
2D0
102
}
330
2D0
100
AcDbDictionary
281
     1
  3
Model
350
336
  3
レイアウト1
350
332
  0
DICTIONARY
  5
2D4
102
{ACAD_REACTORS
330
2D0
102
}
330
2D0
100
AcDbDictionary
281
     1
  3
ByBlock
350
2DD
  3
ByLayer
350
2D5
  3
Global
350
2E5
  0
DICTIONARY
  5
329
102
{ACAD_REACTORS
330
2D0
102
}
330
2D0
100
AcDbDictionary
281
     1
  3
Standard
350
32A
  0
DICTIONARY
  5
322
102
{ACAD_REACTORS
330
2D0
102
}
330
2D0
100
AcDbDictionary
281
     1
  3
Standard
350
323
  0
DICTIONARY
  5
324
102
{ACAD_REACTORS
330
2D0
102
}
330
2D0
100
AcDbDictionary
281
     1
  0
ACDBDICTIONARYWDFLT
  5
2D2
102
{ACAD_REACTORS
330
2D0
102
}
330
2D0
100
AcDbDictionary
281
     1
  3
Normal
350
2D3
100
AcDbDictionaryWithDefault
340
2D3
  0
DICTIONARY
  5
306
102
{ACAD_REACTORS
330
2D0
102
}
330
2D0
100
AcDbDictionary
281
     1
  3
A0
350
307
  3
A1
350
308
  3
A2
350
309
  3
A3
350
30A
  3
A4
350
30B
  3
A5
350
30C
  3
A6
350
30D
  3
A7
350
30E
  3
A8
350
30F
  3
A9
350
310
  3
B0
350
311
  3
B1
350
312
  3
B2
350
313
  3
B3
350
314
  3
B4
350
315
  3
B5
350
316
  3
B6
350
317
  0
DICTIONARY
  5
32B
102
{ACAD_REACTORS
330
2D0
102
}
330
2D0
100
AcDbDictionary
281
     1
  3
Imperial24
350
32C
  0
DICTIONARY
  5
327
102
{ACAD_REACTORS
330
2D0
102
}
330
2D0
100
AcDbDictionary
281
     1
  3
Standard
350
328
  0
DICTIONARY
  5
2ED
102
{ACAD_REACTORS
330
2D0
102
}
330
2D0
100
AcDbDictionary
281
     1
  3
2dWireframe
350
2F3
  3
Basic
350
2F2
  3
Brighten
350
2F9
  3
ColorChange
350
2FD
  3
Conceptual
350
2F6
  3
Dim
350
2F8
  3
EdgeColorOff
350
305
  3
Facepattern
350
2FC
  3
Flat
350
2EE
  3
FlatWithEdges
350
2EF
  3
Gouraud
350
2F0
  3
GouraudWithEdges
350
2F1
  3
Hidden
350
2F5
  3
JitterOff
350
303
  3
Linepattern
350
2FB
  3
OverhangOff
350
304
  3
Realistic
350
2F7
  3
Shaded
350
302
  3
Shaded with edges
350
301
  3
Shades of Gray
350
2FE
  3
Sketchy
350
2FF
  3
Thicken
350
2FA
  3
Wireframe
350
2F4
  3
X-Ray
350
300
  0
XRECORD
  5
364
102
{ACAD_REACTORS
330
2D0
102
}
330
2D0
100
AcDbXrecord
280
     1
 90
        1
330
328
  0
DICTIONARY
  5
357
102
{ACAD_REACTORS
330
2D0
102
}
330
2D0
100
AcDbDictionary
281
     1
  3
CANNOSCALE
350
35C
  3
CMLEADERSTYLE
350
359
  3
CTABLESTYLE
350
358
  3
CVIEWDETAILSTYLE
350
35A
  3
CVIEWSECTIONSTYLE
350
35B
  3
DIMASSOC
350
35F
  3
INDEXCTL
350
35E
  3
SORTENTS
350
35D
  3
XCLIPFRAME
350
360
  0
XRECORD
  5
365
102
{ACAD_REACTORS
330
2D0
102
}
330
2D0
100
AcDbXrecord
280
     1
  1
DWGPROPS COOKIE
  2

  3

  4

  6

  7

  8
sasaki_n
  9

300
=
301
=
302
=
303
=
304
=
305
=
306
=
307
=
308
=
309
=
 40
0.0003125
 41
2457812.435243056
 42
2457812.488645834
  1

 90
        0
  0
XRECORD
  5
34E
102
{ACAD_REACTORS
330
34D
102
}
330
34D
100
AcDbXrecord
280
     1
290
     1
  0
XRECORD
  5
350
102
{ACAD_REACTORS
330
34F
102
}
330
34F
100
AcDbXrecord
280
     1
290
     1
  0
XRECORD
  5
352
102
{ACAD_REACTORS
330
351
102
}
330
351
100
AcDbXrecord
280
     1
290
     1
  0
XRECORD
  5
354
102
{ACAD_REACTORS
330
353
102
}
330
353
100
AcDbXrecord
280
     1
290
     1
  0
XRECORD
  5
356
102
{ACAD_REACTORS
330
355
102
}
330
355
100
AcDbXrecord
280
     1
290
     1
  0
ACDBDETAILVIEWSTYLE
  5
32E
102
{ACAD_XDICTIONARY
360
39D
102
}
102
{ACAD_REACTORS
330
32D
102
}
330
32D
100
AcDbModelDocViewStyle
 70
     0
  3
Imperial24
290
     0
100
AcDbDetailViewStyle
 70
     0
 71
     0
 90
        3
 71
     1
340
319
 40
0.24
340
0
 40
0.24
300

 40
0.36
280
     3
 71
     2
340
320
 90
       25
 71
     3
340
319
 40
0.24
 90
        1
 40
0.75
 90
        1
300
%<\AcVar ViewType \f "%tc1">% %<\AcVar ViewDetailId>%\PSCALE %<\AcVar ViewScale \f "%sn">%
 71
     4
340
320
 90
       25
340
320
 90
       25
280
     0
  0
LAYOUT
  5
336
102
{ACAD_XDICTIONARY
360
3A1
102
}
102
{ACAD_REACTORS
330
325
102
}
330
325
100
AcDbPlotSettings
  1

  2
DocuPrint 3000-2
  4

  6

 40
0.0
 41
0.0
 42
0.0
 43
0.0
 44
0.0
 45
0.0
 46
0.0
 47
0.0
 48
0.0
 49
0.0
140
0.0
141
0.0
142
1.0
143
1.0
 70
  1712
 72
     0
 73
     0
 74
     0
  7

 75
     0
147
1.0
148
0.0
149
0.0
100
AcDbLayout
  1
Model
 70
     1
 71
     0
 10
0.0
 20
0.0
 11
12.0
 21
9.0
 12
0.0
 22
0.0
 32
0.0
 14
0.0
 24
0.0
 34
0.0
 15
0.0
 25
0.0
 35
0.0
146
0.0
 13
0.0
 23
0.0
 33
0.0
 16
1.0
 26
0.0
 36
0.0
 17
0.0
 27
1.0
 37
0.0
 76
     0
330
333
331
338
  0
LAYOUT
  5
332
102
{ACAD_XDICTIONARY
360
39F
102
}
102
{ACAD_REACTORS
330
325
102
}
330
325
100
AcDbPlotSettings
  1

  2
DocuPrint 3000-2
  4

  6

 40
0.0
 41
0.0
 42
0.0
 43
0.0
 44
0.0
 45
0.0
 46
0.0
 47
0.0
 48
0.0
 49
0.0
140
0.0
141
0.0
142
1.0
143
1.0
 70
   688
 72
     0
 73
     0
 74
     5
  7

 75
    16
147
1.0
148
0.0
149
0.0
100
AcDbLayout
  1
レイアウト1
 70
     0
 71
     1
 10
0.0
 20
0.0
 11
12.0
 21
9.0
 12
0.0
 22
0.0
 32
0.0
 14
1.000000000000000E+20
 24
1.000000000000000E+20
 34
1.000000000000000E+20
 15
-1.000000000000000E+20
 25
-1.000000000000000E+20
 35
-1.000000000000000E+20
146
0.0
 13
0.0
 23
0.0
 33
0.0
 16
1.0
 26
0.0
 36
0.0
 17
0.0
 27
1.0
 37
0.0
 76
     0
330
32F
  0
MATERIAL
  5
2DD
102
{ACAD_XDICTIONARY
360
2DE
102
}
102
{ACAD_REACTORS
330
2D4
102
}
330
2D4
100
AcDbMaterial
  1
ByBlock
 72
     0
 43
0.0208333333333333
 43
0.0
 43
0.0
 43
0.0
 43
0.0
 43
0.0208333333333333
 43
0.0
 43
0.0
 43
0.0
 43
0.0
 43
1.0
 43
0.0
 43
0.0
 43
0.0
 43
0.0
 43
1.0
 77
     0
 47
0.0208333333333333
 47
0.0
 47
0.0
 47
0.0
 47
0.0
 47
0.0208333333333333
 47
0.0
 47
0.0
 47
0.0
 47
0.0
 47
1.0
 47
0.0
 47
0.0
 47
0.0
 47
0.0
 47
1.0
171
     0
 49
0.0208333333333333
 49
0.0
 49
0.0
 49
0.0
 49
0.0
 49
0.0208333333333333
 49
0.0
 49
0.0
 49
0.0
 49
0.0
 49
1.0
 49
0.0
 49
0.0
 49
0.0
 49
0.0
 49
1.0
175
     0
142
0.0208333333333333
142
0.0
142
0.0
142
0.0
142
0.0
142
0.0208333333333333
142
0.0
142
0.0
142
0.0
142
0.0
142
1.0
142
0.0
142
0.0
142
0.0
142
0.0
142
1.0
179
     0
144
0.0208333333333333
144
0.0
144
0.0
144
0.0
144
0.0
144
0.0208333333333333
144
0.0
144
0.0
144
0.0
144
0.0
144
1.0
144
0.0
144
0.0
144
0.0
144
0.0
144
1.0
147
0.0208333333333333
147
0.0
147
0.0
147
0.0
147
0.0
147
0.0208333333333333
147
0.0
147
0.0
147
0.0
147
0.0
147
1.0
147
0.0
147
0.0
147
0.0
147
0.0
147
1.0
  0
MATERIAL
  5
2D5
102
{ACAD_XDICTIONARY
360
2D6
102
}
102
{ACAD_REACTORS
330
2D4
102
}
330
2D4
100
AcDbMaterial
  1
ByLayer
 72
     0
 43
0.0208333333333333
 43
0.0
 43
0.0
 43
0.0
 43
0.0
 43
0.0208333333333333
 43
0.0
 43
0.0
 43
0.0
 43
0.0
 43
1.0
 43
0.0
 43
0.0
 43
0.0
 43
0.0
 43
1.0
 77
     0
 47
0.0208333333333333
 47
0.0
 47
0.0
 47
0.0
 47
0.0
 47
0.0208333333333333
 47
0.0
 47
0.0
 47
0.0
 47
0.0
 47
1.0
 47
0.0
 47
0.0
 47
0.0
 47
0.0
 47
1.0
171
     0
 49
0.0208333333333333
 49
0.0
 49
0.0
 49
0.0
 49
0.0
 49
0.0208333333333333
 49
0.0
 49
0.0
 49
0.0
 49
0.0
 49
1.0
 49
0.0
 49
0.0
 49
0.0
 49
0.0
 49
1.0
175
     0
142
0.0208333333333333
142
0.0
142
0.0
142
0.0
142
0.0
142
0.0208333333333333
142
0.0
142
0.0
142
0.0
142
0.0
142
1.0
142
0.0
142
0.0
142
0.0
142
0.0
142
1.0
179
     0
144
0.0208333333333333
144
0.0
144
0.0
144
0.0
144
0.0
144
0.0208333333333333
144
0.0
144
0.0
144
0.0
144
0.0
144
1.0
144
0.0
144
0.0
144
0.0
144
0.0
144
1.0
147
0.0208333333333333
147
0.0
147
0.0
147
0.0
147
0.0
147
0.0208333333333333
147
0.0
147
0.0
147
0.0
147
0.0
147
1.0
147
0.0
147
0.0
147
0.0
147
0.0
147
1.0
  0
MATERIAL
  5
2E5
102
{ACAD_XDICTIONARY
360
2E6
102
}
102
{ACAD_REACTORS
330
2D4
102
}
330
2D4
100
AcDbMaterial
  1
Global
 72
     0
 43
0.0208333333333333
 43
0.0
 43
0.0
 43
0.0
 43
0.0
 43
0.0208333333333333
 43
0.0
 43
0.0
 43
0.0
 43
0.0
 43
1.0
 43
0.0
 43
0.0
 43
0.0
 43
0.0
 43
1.0
 77
     0
 47
0.0208333333333333
 47
0.0
 47
0.0
 47
0.0
 47
0.0
 47
0.0208333333333333
 47
0.0
 47
0.0
 47
0.0
 47
0.0
 47
1.0
 47
0.0
 47
0.0
 47
0.0
 47
0.0
 47
1.0
171
     0
 49
0.0208333333333333
 49
0.0
 49
0.0
 49
0.0
 49
0.0
 49
0.0208333333333333
 49
0.0
 49
0.0
 49
0.0
 49
0.0
 49
1.0
 49
0.0
 49
0.0
 49
0.0
 49
0.0
 49
1.0
175
     0
142
0.0208333333333333
142
0.0
142
0.0
142
0.0
142
0.0
142
0.0208333333333333
142
0.0
142
0.0
142
0.0
142
0.0
142
1.0
142
0.0
142
0.0
142
0.0
142
0.0
142
1.0
179
     0
144
0.0208333333333333
144
0.0
144
0.0
144
0.0
144
0.0
144
0.0208333333333333
144
0.0
144
0.0
144
0.0
144
0.0
144
1.0
144
0.0
144
0.0
144
0.0
144
0.0
144
1.0
147
0.0208333333333333
147
0.0
147
0.0
147
0.0
147
0.0
147
0.0208333333333333
147
0.0
147
0.0
147
0.0
147
0.0
147
1.0
147
0.0
147
0.0
147
0.0
147
0.0
147
1.0
  0
MLEADERSTYLE
  5
32A
102
{ACAD_REACTORS
330
329
102
}
330
329
100
AcDbMLeaderStyle
170
     2
171
     1
172
     0
 90
        2
 40
0.0
 41
0.0
173
     1
 91
-1056964608
340
31E
 92
       -2
290
     1
 42
0.09
291
     1
 43
0.36
  3
Standard
 44
0.18
300

342
319
174
     1
178
     6
175
     1
176
     0
 93
-1056964608
 45
0.18
292
     0
297
     0
 46
0.18
 94
-1056964608
 47
1.0
 49
1.0
140
1.0
293
     1
141
0.0
294
     1
177
     0
142
1.0
295
     0
296
     0
143
0.125
1001
ACAD_MLEADERVER
1070
     2
  0
MLINESTYLE
  5
323
102
{ACAD_REACTORS
330
322
102
}
330
322
100
AcDbMlineStyle
  2
STANDARD
 70
     0
  3

 62
   256
 51
90.0
 52
90.0
 71
     2
 49
0.5
 62
   256
  6
BYLAYER
 49
-0.5
 62
   256
  6
BYLAYER
  0
ACDBPLACEHOLDER
  5
2D3
102
{ACAD_REACTORS
330
2D2
102
}
330
2D2
  0
SCALE
  5
307
102
{ACAD_REACTORS
330
306
102
}
330
306
100
AcDbScale
 70
     0
300
1:1
140
1.0
141
1.0
290
     1
  0
SCALE
  5
308
102
{ACAD_REACTORS
330
306
102
}
330
306
100
AcDbScale
 70
     0
300
1/128" = 1'-0"
140
0.0078125
141
12.0
290
     0
  0
SCALE
  5
309
102
{ACAD_REACTORS
330
306
102
}
330
306
100
AcDbScale
 70
     0
300
1/64" = 1'-0"
140
0.015625
141
12.0
290
     0
  0
SCALE
  5
30A
102
{ACAD_REACTORS
330
306
102
}
330
306
100
AcDbScale
 70
     0
300
1/32" = 1'-0"
140
0.03125
141
12.0
290
     0
  0
SCALE
  5
30B
102
{ACAD_REACTORS
330
306
102
}
330
306
100
AcDbScale
 70
     0
300
1/16" = 1'-0"
140
0.0625
141
12.0
290
     0
  0
SCALE
  5
30C
102
{ACAD_REACTORS
330
306
102
}
330
306
100
AcDbScale
 70
     0
300
3/32" = 1'-0"
140
0.09375
141
12.0
290
     0
  0
SCALE
  5
30D
102
{ACAD_REACTORS
330
306
102
}
330
306
100
AcDbScale
 70
     0
300
1/8" = 1'-0"
140
0.125
141
12.0
290
     0
  0
SCALE
  5
30E
102
{ACAD_REACTORS
330
306
102
}
330
306
100
AcDbScale
 70
     0
300
3/16" = 1'-0"
140
0.1875
141
12.0
290
     0
  0
SCALE
  5
30F
102
{ACAD_REACTORS
330
306
102
}
330
306
100
AcDbScale
 70
     0
300
1/4" = 1'-0"
140
0.25
141
12.0
290
     0
  0
SCALE
  5
310
102
{ACAD_REACTORS
330
306
102
}
330
306
100
AcDbScale
 70
     0
300
3/8" = 1'-0"
140
0.375
141
12.0
290
     0
  0
SCALE
  5
311
102
{ACAD_REACTORS
330
306
102
}
330
306
100
AcDbScale
 70
     0
300
1/2" = 1'-0"
140
0.5
141
12.0
290
     0
  0
SCALE
  5
312
102
{ACAD_REACTORS
330
306
102
}
330
306
100
AcDbScale
 70
     0
300
3/4" = 1'-0"
140
0.75
141
12.0
290
     0
  0
SCALE
  5
313
102
{ACAD_REACTORS
330
306
102
}
330
306
100
AcDbScale
 70
     0
300
1" = 1'-0"
140
1.0
141
12.0
290
     0
  0
SCALE
  5
314
102
{ACAD_REACTORS
330
306
102
}
330
306
100
AcDbScale
 70
     0
300
1-1/2" = 1'-0"
140
1.5
141
12.0
290
     0
  0
SCALE
  5
315
102
{ACAD_REACTORS
330
306
102
}
330
306
100
AcDbScale
 70
     0
300
3" = 1'-0"
140
3.0
141
12.0
290
     0
  0
SCALE
  5
316
102
{ACAD_REACTORS
330
306
102
}
330
306
100
AcDbScale
 70
     0
300
6" = 1'-0"
140
6.0
141
12.0
290
     0
  0
SCALE
  5
317
102
{ACAD_REACTORS
330
306
102
}
330
306
100
AcDbScale
 70
     0
300
1'-0" = 1'-0"
140
12.0
141
12.0
290
     0
  0
ACDBSECTIONVIEWSTYLE
  5
32C
102
{ACAD_XDICTIONARY
360
39B
102
}
102
{ACAD_REACTORS
330
32B
102
}
330
32B
100
AcDbModelDocViewStyle
 70
     0
  3
Imperial24
290
     0
100
AcDbSectionViewStyle
 70
     0
 71
     0
 90
       78
 71
     1
340
319
 40
0.24
340
0
340
0
 40
0.24
300
I, O, Q, S, X, Z
 40
0.48
 90
        3
 40
0.18
 90
        1
 71
     2
340
320
 90
       25
340
320
 90
       50
 40
0.24
 40
0.0
 40
0.24
 71
     3
340
319
 40
0.24
 90
        1
 40
0.75
 90
        1
300
%<\AcVar ViewType \f "%tc1">% %<\AcVar ViewSectionStartId>%-%<\AcVar ViewSectionEndId>%\PSCALE %<\AcVar ViewScale \f "%sn">%
 71
     4
300
ANSI31
 40
1.0
 90
        0
290
     0
290
     0
 90
        6
 40
0.0
 40
1.570796326794896
 40
0.2617993877991494
 40
1.308996938995747
 40
-0.2617993877991494
 40
1.832595714594046
  0
TABLESTYLE
  5
328
102
{ACAD_XDICTIONARY
360
362
102
}
102
{ACAD_REACTORS
330
327
102
}
330
327
100
AcDbTableStyle
  3
Standard
 70
     0
 71
     0
 40
0.06
 41
0.06
280
     0
281
     0
  7
STANDARD
140
0.18
170
     2
 62
     0
 63
     7
283
     0
274
    -2
284
     1
 64
     0
275
    -2
285
     1
 65
     0
276
    -2
286
     1
 66
     0
277
    -2
287
     1
 67
     0
278
    -2
288
     1
 68
     0
279
    -2
289
     1
 69
     0
  7
STANDARD
140
0.25
170
     5
 62
     0
 63
     7
283
     0
274
    -2
284
     1
 64
     0
275
    -2
285
     1
 65
     0
276
    -2
286
     1
 66
     0
277
    -2
287
     1
 67
     0
278
    -2
288
     1
 68
     0
279
    -2
289
     1
 69
     0
  7
STANDARD
140
0.18
170
     5
 62
     0
 63
     7
283
     0
274
    -2
284
     1
 64
     0
275
    -2
285
     1
 65
     0
276
    -2
286
     1
 66
     0
277
    -2
287
     1
 67
     0
278
    -2
288
     1
 68
     0
279
    -2
289
     1
 69
     0
  0
VISUALSTYLE
  5
2F3
102
{ACAD_XDICTIONARY
360
373
102
}
102
{ACAD_REACTORS
330
2ED
102
}
330
2ED
100
AcDbVisualStyle
  2
2dWireframe
 70
     4
 71
     0
 72
     2
 73
     0
 90
        0
 40
-0.6
 41
-30.0
 62
     5
 63
     7
 74
     1
 91
        4
 64
     7
 65
   257
 75
     1
175
     1
 42
1.0
 92
        0
 66
   257
 43
1.0
 76
     1
 77
     6
 78
     2
 67
     7
 79
     5
170
     0
171
     0
290
     0
174
     0
 93
        1
 44
0.0
173
     0
291
     0
 45
0.0
1001
ACAD
1000
AcDbSavedByObjectVersion
1070
     0
  0
VISUALSTYLE
  5
2F2
102
{ACAD_XDICTIONARY
360
371
102
}
102
{ACAD_REACTORS
330
2ED
102
}
330
2ED
100
AcDbVisualStyle
  2
Basic
 70
     7
 71
     1
 72
     0
 73
     1
 90
        0
 40
-0.6
 41
-30.0
 62
     5
 63
     7
 74
     0
 91
        4
 64
     7
 65
   257
 75
     1
175
     1
 42
1.0
 92
        8
 66
     7
 43
1.0
 76
     1
 77
     6
 78
     2
 67
     7
 79
     5
170
     0
171
     0
290
     0
174
     0
 93
        1
 44
0.0
173
     0
291
     1
 45
0.0
1001
ACAD
1000
AcDbSavedByObjectVersion
1070
     0
  0
VISUALSTYLE
  5
2F9
102
{ACAD_XDICTIONARY
360
37F
102
}
102
{ACAD_REACTORS
330
2ED
102
}
330
2ED
100
AcDbVisualStyle
  2
Brighten
 70
    12
 71
     2
 72
     2
 73
     0
 90
        0
 40
-0.6
 41
-30.0
 62
     5
 63
     7
 74
     1
 91
        4
 64
     7
 65
   257
 75
     1
175
     1
 42
1.0
 92
        8
 66
     7
 43
1.0
 76
     1
 77
     6
 78
     2
 67
     7
 79
     5
170
     0
171
     0
290
     0
174
     0
 93
        1
 44
50.0
173
     0
291
     1
 45
0.0
1001
ACAD
1000
AcDbSavedByObjectVersion
1070
     0
  0
VISUALSTYLE
  5
2FD
102
{ACAD_XDICTIONARY
360
387
102
}
102
{ACAD_REACTORS
330
2ED
102
}
330
2ED
100
AcDbVisualStyle
  2
ColorChange
 70
    16
 71
     2
 72
     2
 73
     3
 90
        0
 40
-0.6
 41
-30.0
 62
     5
 63
     8
 74
     1
 91
        4
 64
     7
 65
   257
 75
     1
175
     1
 42
1.0
 92
        8
 66
     8
 43
1.0
 76
     1
 77
     6
 78
     2
 67
     7
 79
     5
170
     0
171
     0
290
     0
174
     0
 93
        1
 44
0.0
173
     0
291
     1
 45
0.0
1001
ACAD
1000
AcDbSavedByObjectVersion
1070
     0
  0
VISUALSTYLE
  5
2F6
102
{ACAD_XDICTIONARY
360
379
102
}
102
{ACAD_REACTORS
330
2ED
102
}
330
2ED
100
AcDbVisualStyle
  2
Conceptual
 70
     9
 71
     3
 72
     2
 73
     0
 90
        0
 40
-0.6
 41
-30.0
 62
     5
 63
     7
 74
     2
 91
        2
 64
     7
 65
   257
 75
     1
175
     1
 42
179.0
 92
        8
 66
     7
 43
1.0
 76
     1
 77
     6
 78
     2
 67
     7
 79
     3
170
     0
171
     0
290
     0
174
     0
 93
        1
 44
0.0
173
     0
291
     0
 45
0.0
1001
ACAD
1000
AcDbSavedByObjectVersion
1070
     0
  0
VISUALSTYLE
  5
2F8
102
{ACAD_XDICTIONARY
360
37D
102
}
102
{ACAD_REACTORS
330
2ED
102
}
330
2ED
100
AcDbVisualStyle
  2
Dim
 70
    11
 71
     2
 72
     2
 73
     0
 90
        0
 40
-0.6
 41
-30.0
 62
     5
 63
     7
 74
     1
 91
        4
 64
     7
 65
   257
 75
     1
175
     1
 42
1.0
 92
        8
 66
     7
 43
1.0
 76
     1
 77
     6
 78
     2
 67
     7
 79
     5
170
     0
171
     0
290
     0
174
     0
 93
        1
 44
-50.0
173
     0
291
     1
 45
0.0
1001
ACAD
1000
AcDbSavedByObjectVersion
1070
     0
  0
VISUALSTYLE
  5
305
102
{ACAD_XDICTIONARY
360
397
102
}
102
{ACAD_REACTORS
330
2ED
102
}
330
2ED
100
AcDbVisualStyle
  2
EdgeColorOff
 70
    22
 71
     2
 72
     2
 73
     0
 90
        0
 40
-0.6
 41
-30.0
 62
     5
 63
     7
 74
     1
 91
        4
 64
     7
 65
   257
 75
     1
175
     1
 42
1.0
 92
        8
 66
     7
 43
1.0
 76
     1
 77
     6
 78
     2
 67
     7
 79
     5
170
     0
171
     0
290
     0
174
     0
 93
        1
 44
0.0
173
     0
291
     1
 45
0.0
1001
ACAD
1000
AcDbSavedByObjectVersion
1070
     0
  0
VISUALSTYLE
  5
2FC
102
{ACAD_XDICTIONARY
360
385
102
}
102
{ACAD_REACTORS
330
2ED
102
}
330
2ED
100
AcDbVisualStyle
  2
Facepattern
 70
    15
 71
     2
 72
     2
 73
     0
 90
        0
 40
-0.6
 41
-30.0
 62
     5
 63
     7
 74
     1
 91
        4
 64
     7
 65
   257
 75
     1
175
     1
 42
1.0
 92
        8
 66
     7
 43
1.0
 76
     1
 77
     6
 78
     2
 67
     7
 79
     5
170
     0
171
     0
290
     0
174
     0
 93
        1
 44
0.0
173
     0
291
     1
 45
0.0
1001
ACAD
1000
AcDbSavedByObjectVersion
1070
     0
  0
VISUALSTYLE
  5
2EE
102
{ACAD_XDICTIONARY
360
369
102
}
102
{ACAD_REACTORS
330
2ED
102
}
330
2ED
100
AcDbVisualStyle
  2
Flat
 70
     0
 71
     2
 72
     1
 73
     1
 90
        2
 40
-0.6
 41
30.0
 62
     5
 63
     7
 74
     0
 91
        0
 64
     7
 65
   257
 75
     1
175
     1
 42
1.0
 92
        8
 66
     7
 43
1.0
 76
     1
 77
     6
 78
     2
 67
     7
 79
     5
170
     0
171
     0
290
     0
174
     0
 93
       13
 44
0.0
173
     0
291
     1
 45
0.0
1001
ACAD
1000
AcDbSavedByObjectVersion
1070
     0
  0
VISUALSTYLE
  5
2EF
102
{ACAD_XDICTIONARY
360
36B
102
}
102
{ACAD_REACTORS
330
2ED
102
}
330
2ED
100
AcDbVisualStyle
  2
FlatWithEdges
 70
     1
 71
     2
 72
     1
 73
     1
 90
        2
 40
-0.6
 41
30.0
 62
     5
 63
     7
 74
     1
 91
        0
 64
     7
 65
   257
 75
     1
175
     1
 42
1.0
 92
        0
 66
   257
 43
1.0
 76
     1
 77
     6
 78
     2
 67
     7
 79
     5
170
     0
171
     0
290
     0
174
     0
 93
       13
 44
0.0
173
     0
291
     1
 45
0.0
1001
ACAD
1000
AcDbSavedByObjectVersion
1070
     0
  0
VISUALSTYLE
  5
2F0
102
{ACAD_XDICTIONARY
360
36D
102
}
102
{ACAD_REACTORS
330
2ED
102
}
330
2ED
100
AcDbVisualStyle
  2
Gouraud
 70
     2
 71
     2
 72
     2
 73
     1
 90
        2
 40
-0.6
 41
30.0
 62
     5
 63
     7
 74
     0
 91
        0
 64
     7
 65
   257
 75
     1
175
     1
 42
1.0
 92
        0
 66
     7
 43
1.0
 76
     1
 77
     6
 78
     2
 67
     7
 79
     5
170
     0
171
     0
290
     0
174
     0
 93
       13
 44
0.0
173
     0
291
     1
 45
0.0
1001
ACAD
1000
AcDbSavedByObjectVersion
1070
     0
  0
VISUALSTYLE
  5
2F1
102
{ACAD_XDICTIONARY
360
36F
102
}
102
{ACAD_REACTORS
330
2ED
102
}
330
2ED
100
AcDbVisualStyle
  2
GouraudWithEdges
 70
     3
 71
     2
 72
     2
 73
     1
 90
        2
 40
-0.6
 41
30.0
 62
     5
 63
     7
 74
     1
 91
        0
 64
     7
 65
   257
 75
     1
175
     1
 42
1.0
 92
        0
 66
   257
 43
1.0
 76
     1
 77
     6
 78
     2
 67
     7
 79
     5
170
     0
171
     0
290
     0
174
     0
 93
       13
 44
0.0
173
     0
291
     1
 45
0.0
1001
ACAD
1000
AcDbSavedByObjectVersion
1070
     0
  0
VISUALSTYLE
  5
2F5
102
{ACAD_XDICTIONARY
360
377
102
}
102
{ACAD_REACTORS
330
2ED
102
}
330
2ED
100
AcDbVisualStyle
  2
Hidden
 70
     6
 71
     1
 72
     2
 73
     2
 90
        0
 40
-0.6
 41
-30.0
 62
     5
 63
     7
 74
     2
 91
        2
 64
     7
 65
   257
 75
     2
175
     1
 42
40.0
 92
        0
 66
   257
 43
1.0
 76
     1
 77
     6
 78
     2
 67
     7
 79
     3
170
     0
171
     0
290
     0
174
     0
 93
        1
 44
0.0
173
     0
291
     0
 45
0.0
1001
ACAD
1000
AcDbSavedByObjectVersion
1070
     0
  0
VISUALSTYLE
  5
303
102
{ACAD_XDICTIONARY
360
393
102
}
102
{ACAD_REACTORS
330
2ED
102
}
330
2ED
100
AcDbVisualStyle
  2
JitterOff
 70
    20
 71
     2
 72
     2
 73
     0
 90
        0
 40
-0.6
 41
-30.0
 62
     5
 63
     7
 74
     1
 91
        4
 64
     7
 65
   257
 75
     1
175
     1
 42
1.0
 92
       10
 66
     7
 43
1.0
 76
     1
 77
     6
 78
     2
 67
     7
 79
     5
170
     0
171
     0
290
     0
174
     0
 93
        1
 44
0.0
173
     0
291
     1
 45
0.0
1001
ACAD
1000
AcDbSavedByObjectVersion
1070
     0
  0
VISUALSTYLE
  5
2FB
102
{ACAD_XDICTIONARY
360
383
102
}
102
{ACAD_REACTORS
330
2ED
102
}
330
2ED
100
AcDbVisualStyle
  2
Linepattern
 70
    14
 71
     2
 72
     2
 73
     0
 90
        0
 40
-0.6
 41
-30.0
 62
     5
 63
     7
 74
     1
 91
        4
 64
     7
 65
   257
 75
     7
175
     7
 42
1.0
 92
        8
 66
     7
 43
1.0
 76
     1
 77
     6
 78
     2
 67
     7
 79
     5
170
     0
171
     0
290
     0
174
     0
 93
        1
 44
0.0
173
     0
291
     1
 45
0.0
1001
ACAD
1000
AcDbSavedByObjectVersion
1070
     0
  0
VISUALSTYLE
  5
304
102
{ACAD_XDICTIONARY
360
395
102
}
102
{ACAD_REACTORS
330
2ED
102
}
330
2ED
100
AcDbVisualStyle
  2
OverhangOff
 70
    21
 71
     2
 72
     2
 73
     0
 90
        0
 40
-0.6
 41
-30.0
 62
     5
 63
     7
 74
     1
 91
        4
 64
     7
 65
   257
 75
     1
175
     1
 42
1.0
 92
        9
 66
     7
 43
1.0
 76
     1
 77
     6
 78
     2
 67
     7
 79
     5
170
     0
171
     0
290
     0
174
     0
 93
        1
 44
0.0
173
     0
291
     1
 45
0.0
1001
ACAD
1000
AcDbSavedByObjectVersion
1070
     0
  0
VISUALSTYLE
  5
2F7
102
{ACAD_XDICTIONARY
360
37B
102
}
102
{ACAD_REACTORS
330
2ED
102
}
330
2ED
100
AcDbVisualStyle
  2
Realistic
 70
     8
 71
     2
 72
     3
 73
     0
 90
        2
 40
-0.6
 41
30.0
 62
     5
 63
     7
 74
     0
 91
        0
 64
     7
 65
   257
 75
     1
175
     1
 42
1.0
 92
        8
 66
   257
 43
1.0
 76
     1
 77
     6
 78
     2
 67
     7
 79
     3
170
     0
171
     0
290
     0
174
     0
 93
       13
 44
0.0
173
     0
291
     0
 45
0.0
1001
ACAD
1000
AcDbSavedByObjectVersion
1070
     0
  0
VISUALSTYLE
  5
302
102
{ACAD_XDICTIONARY
360
391
102
}
102
{ACAD_REACTORS
330
2ED
102
}
330
2ED
100
AcDbVisualStyle
  2
Shaded
 70
    27
 71
     2
 72
     2
 73
     1
 90
        2
 40
-0.6
 41
30.0
 62
     5
 63
     7
 74
     0
 91
        4
 64
     7
 65
   257
 75
     1
175
     1
 42
1.0
 92
        8
 66
   257
 43
1.0
 76
     1
 77
     6
 78
     2
 67
     8
 79
     3
170
     0
171
     0
290
     0
174
     0
 93
        5
 44
0.0
173
     0
291
     0
 45
0.0
1001
ACAD
1000
AcDbSavedByObjectVersion
1070
     0
  0
VISUALSTYLE
  5
301
102
{ACAD_XDICTIONARY
360
38F
102
}
102
{ACAD_REACTORS
330
2ED
102
}
330
2ED
100
AcDbVisualStyle
  2
Shaded with edges
 70
    26
 71
     2
 72
     2
 73
     1
 90
        2
 40
-0.6
 41
30.0
 62
     5
 63
     7
 74
     1
 91
        2
 64
     7
 65
   257
 75
     2
175
     1
 42
1.0
 92
        8
 66
   257
 43
1.0
 76
     1
 77
     6
 78
     2
 67
     7
 79
     3
170
     0
171
     0
290
     0
174
     0
 93
        5
 44
0.0
173
     0
291
     0
 45
0.0
1001
ACAD
1000
AcDbSavedByObjectVersion
1070
     0
  0
VISUALSTYLE
  5
2FE
102
{ACAD_XDICTIONARY
360
389
102
}
102
{ACAD_REACTORS
330
2ED
102
}
330
2ED
100
AcDbVisualStyle
  2
Shades of Gray
 70
    23
 71
     2
 72
     2
 73
     3
 90
        0
 40
-0.6
 41
-30.0
 62
     5
 63
     7
 74
     2
 91
        2
 64
     7
 65
     7
 75
     1
175
     1
 42
40.0
 92
        8
 66
     7
 43
1.0
 76
     1
 77
     6
 78
     2
 67
     7
 79
     3
170
     0
171
     0
290
     0
174
     0
 93
        1
 44
0.0
173
     0
291
     0
 45
0.0
1001
ACAD
1000
AcDbSavedByObjectVersion
1070
     0
  0
VISUALSTYLE
  5
2FF
102
{ACAD_XDICTIONARY
360
38B
102
}
102
{ACAD_REACTORS
330
2ED
102
}
330
2ED
100
AcDbVisualStyle
  2
Sketchy
 70
    24
 71
     1
 72
     2
 73
     2
 90
        0
 40
-0.6
 41
-30.0
 62
     5
 63
     7
 74
     2
 91
        2
 64
     7
 65
     7
 75
     1
175
     1
 42
40.0
 92
       11
 66
     7
 43
1.0
 76
     1
 77
     6
 78
     2
 67
     7
 79
     6
170
     0
171
     0
290
     0
174
     0
 93
        1
 44
0.0
173
     0
291
     0
 45
0.0
1001
ACAD
1000
AcDbSavedByObjectVersion
1070
     0
  0
VISUALSTYLE
  5
2FA
102
{ACAD_XDICTIONARY
360
381
102
}
102
{ACAD_REACTORS
330
2ED
102
}
330
2ED
100
AcDbVisualStyle
  2
Thicken
 70
    13
 71
     2
 72
     2
 73
     0
 90
        0
 40
-0.6
 41
-30.0
 62
     5
 63
     7
 74
     1
 91
        4
 64
     7
 65
   257
 75
     1
175
     1
 42
1.0
 92
       12
 66
     7
 43
1.0
 76
     1
 77
     6
 78
     2
 67
     7
 79
     5
170
     0
171
     0
290
     0
174
     0
 93
        1
 44
0.0
173
     0
291
     1
 45
0.0
1001
ACAD
1000
AcDbSavedByObjectVersion
1070
     0
  0
VISUALSTYLE
  5
2F4
102
{ACAD_XDICTIONARY
360
375
102
}
102
{ACAD_REACTORS
330
2ED
102
}
330
2ED
100
AcDbVisualStyle
  2
Wireframe
 70
     5
 71
     0
 72
     2
 73
     0
 90
        0
 40
-0.6
 41
-30.0
 62
     5
 63
     7
 74
     1
 91
        4
 64
     7
 65
   257
 75
     1
175
     1
 42
1.0
 92
        0
 66
   257
 43
1.0
 76
     1
 77
     6
 78
     2
 67
     7
 79
     3
170
     0
171
     0
290
     0
174
     0
 93
        1
 44
0.0
173
     0
291
     0
 45
0.0
1001
ACAD
1000
AcDbSavedByObjectVersion
1070
     0
  0
VISUALSTYLE
  5
300
102
{ACAD_XDICTIONARY
360
38D
102
}
102
{ACAD_REACTORS
330
2ED
102
}
330
2ED
100
AcDbVisualStyle
  2
X-Ray
 70
    25
 71
     2
 72
     2
 73
     1
 90
        1
 40
0.5
 41
-30.0
 62
     5
 63
     7
 74
     1
 91
        0
 64
     7
 65
   257
 75
     1
175
     1
 42
1.0
 92
        8
 66
     7
 43
1.0
 76
     1
 77
     6
 78
     2
 67
     7
 79
     3
170
     0
171
     0
290
     0
174
     0
 93
       13
 44
0.0
173
     0
291
     0
 45
0.0
1001
ACAD
1000
AcDbSavedByObjectVersion
1070
     0
  0
DICTIONARYVAR
  5
35C
102
{ACAD_REACTORS
330
357
102
}
330
357
100
DictionaryVariables
280
     0
  1
1:1
  0
DICTIONARYVAR
  5
359
102
{ACAD_REACTORS
330
357
102
}
330
357
100
DictionaryVariables
280
     0
  1
STANDARD
  0
DICTIONARYVAR
  5
358
102
{ACAD_REACTORS
330
357
102
}
330
357
100
DictionaryVariables
280
     0
  1
STANDARD
  0
DICTIONARYVAR
  5
35A
102
{ACAD_REACTORS
330
357
102
}
330
357
100
DictionaryVariables
280
     0
  1
Imperial24
  0
DICTIONARYVAR
  5
35B
102
{ACAD_REACTORS
330
357
102
}
330
357
100
DictionaryVariables
280
     0
  1
Imperial24
  0
DICTIONARYVAR
  5
35F
102
{ACAD_REACTORS
330
357
102
}
330
357
100
DictionaryVariables
280
     0
  1
1
  0
DICTIONARYVAR
  5
35E
102
{ACAD_REACTORS
330
357
102
}
330
357
100
DictionaryVariables
280
     0
  1
0
  0
DICTIONARYVAR
  5
35D
102
{ACAD_REACTORS
330
357
102
}
330
357
100
DictionaryVariables
280
     0
  1
127
  0
DICTIONARYVAR
  5
360
102
{ACAD_REACTORS
330
357
102
}
330
357
100
DictionaryVariables
280
     0
  1
2
  0
DICTIONARY
  5
39D
330
32E
100
AcDbDictionary
280
     1
281
     1
  3
ACAD_XREC_ROUNDTRIP
360
39E
  0
DICTIONARY
  5
3A1
330
336
100
AcDbDictionary
280
     1
281
     1
  3
ACAD_XREC_ROUNDTRIP
360
3A2
  0
DICTIONARY
  5
39F
330
332
100
AcDbDictionary
280
     1
281
     1
  3
ACAD_XREC_ROUNDTRIP
360
3A0
  0
DICTIONARY
  5
2DE
330
2DD
100
AcDbDictionary
280
     1
281
     1
  3
ACAD_XREC_ROUNDTRIP
360
367
  3
BUMPTILE
360
2E0
  3
DIFFUSETILE
360
2DF
  3
OPACITYTILE
360
2E3
  3
REFLECTIONTILE
360
2E2
  3
REFRACTIONTILE
360
2E4
  3
SPECULARTILE
360
2E1
  0
DICTIONARY
  5
2D6
330
2D5
100
AcDbDictionary
280
     1
281
     1
  3
ACAD_XREC_ROUNDTRIP
360
366
  3
BUMPTILE
360
2D8
  3
DIFFUSETILE
360
2D7
  3
OPACITYTILE
360
2DB
  3
REFLECTIONTILE
360
2DA
  3
REFRACTIONTILE
360
2DC
  3
SPECULARTILE
360
2D9
  0
DICTIONARY
  5
2E6
330
2E5
100
AcDbDictionary
280
     1
281
     1
  3
ACAD_XREC_ROUNDTRIP
360
368
  3
BUMPTILE
360
2E8
  3
DIFFUSETILE
360
2E7
  3
OPACITYTILE
360
2EB
  3
REFLECTIONTILE
360
2EA
  3
REFRACTIONTILE
360
2EC
  3
SPECULARTILE
360
2E9
  0
DICTIONARY
  5
39B
330
32C
100
AcDbDictionary
280
     1
281
     1
  3
ACAD_XREC_ROUNDTRIP
360
39C
  0
DICTIONARY
  5
362
330
328
100
AcDbDictionary
280
     1
281
     1
  3
ACAD_ROUNDTRIP_2008_TABLESTYLE_CELLSTYLEMAP
360
363
  3
ACAD_XREC_ROUNDTRIP
360
399
  0
DICTIONARY
  5
373
330
2F3
100
AcDbDictionary
280
     1
281
     1
  3
ACAD_XREC_ROUNDTRIP
360
374
  0
DICTIONARY
  5
371
330
2F2
100
AcDbDictionary
280
     1
281
     1
  3
ACAD_XREC_ROUNDTRIP
360
372
  0
DICTIONARY
  5
37F
330
2F9
100
AcDbDictionary
280
     1
281
     1
  3
ACAD_XREC_ROUNDTRIP
360
380
  0
DICTIONARY
  5
387
330
2FD
100
AcDbDictionary
280
     1
281
     1
  3
ACAD_XREC_ROUNDTRIP
360
388
  0
DICTIONARY
  5
379
330
2F6
100
AcDbDictionary
280
     1
281
     1
  3
ACAD_XREC_ROUNDTRIP
360
37A
  0
DICTIONARY
  5
37D
330
2F8
100
AcDbDictionary
280
     1
281
     1
  3
ACAD_XREC_ROUNDTRIP
360
37E
  0
DICTIONARY
  5
397
330
305
100
AcDbDictionary
280
     1
281
     1
  3
ACAD_XREC_ROUNDTRIP
360
398
  0
DICTIONARY
  5
385
330
2FC
100
AcDbDictionary
280
     1
281
     1
  3
ACAD_XREC_ROUNDTRIP
360
386
  0
DICTIONARY
  5
369
330
2EE
100
AcDbDictionary
280
     1
281
     1
  3
ACAD_XREC_ROUNDTRIP
360
36A
  0
DICTIONARY
  5
36B
330
2EF
100
AcDbDictionary
280
     1
281
     1
  3
ACAD_XREC_ROUNDTRIP
360
36C
  0
DICTIONARY
  5
36D
330
2F0
100
AcDbDictionary
280
     1
281
     1
  3
ACAD_XREC_ROUNDTRIP
360
36E
  0
DICTIONARY
  5
36F
330
2F1
100
AcDbDictionary
280
     1
281
     1
  3
ACAD_XREC_ROUNDTRIP
360
370
  0
DICTIONARY
  5
377
330
2F5
100
AcDbDictionary
280
     1
281
     1
  3
ACAD_XREC_ROUNDTRIP
360
378
  0
DICTIONARY
  5
393
330
303
100
AcDbDictionary
280
     1
281
     1
  3
ACAD_XREC_ROUNDTRIP
360
394
  0
DICTIONARY
  5
383
330
2FB
100
AcDbDictionary
280
     1
281
     1
  3
ACAD_XREC_ROUNDTRIP
360
384
  0
DICTIONARY
  5
395
330
304
100
AcDbDictionary
280
     1
281
     1
  3
ACAD_XREC_ROUNDTRIP
360
396
  0
DICTIONARY
  5
37B
330
2F7
100
AcDbDictionary
280
     1
281
     1
  3
ACAD_XREC_ROUNDTRIP
360
37C
  0
DICTIONARY
  5
391
330
302
100
AcDbDictionary
280
     1
281
     1
  3
ACAD_XREC_ROUNDTRIP
360
392
  0
DICTIONARY
  5
38F
330
301
100
AcDbDictionary
280
     1
281
     1
  3
ACAD_XREC_ROUNDTRIP
360
390
  0
DICTIONARY
  5
389
330
2FE
100
AcDbDictionary
280
     1
281
     1
  3
ACAD_XREC_ROUNDTRIP
360
38A
  0
DICTIONARY
  5
38B
330
2FF
100
AcDbDictionary
280
     1
281
     1
  3
ACAD_XREC_ROUNDTRIP
360
38C
  0
DICTIONARY
  5
381
330
2FA
100
AcDbDictionary
280
     1
281
     1
  3
ACAD_XREC_ROUNDTRIP
360
382
  0
DICTIONARY
  5
375
330
2F4
100
AcDbDictionary
280
     1
281
     1
  3
ACAD_XREC_ROUNDTRIP
360
376
  0
DICTIONARY
  5
38D
330
300
100
AcDbDictionary
280
     1
281
     1
  3
ACAD_XREC_ROUNDTRIP
360
38E
  0
XRECORD
  5
39E
102
{ACAD_REACTORS
330
39D
102
}
330
39D
100
AcDbXrecord
280
     1
102
DISPLAYNAME
  1
Imperial24
102
FLAGS
 90
        0
  0
XRECORD
  5
3A2
102
{ACAD_REACTORS
330
3A1
102
}
330
3A1
100
AcDbXrecord
280
     1
102
SHADEPLOT
 70
     0
102
SHADEPLOTRESLEVEL
 70
     2
102
SHADEPLOTCUSTOMDPI
 70
   300
  0
XRECORD
  5
3A0
102
{ACAD_REACTORS
330
39F
102
}
330
39F
100
AcDbXrecord
280
     1
102
SHADEPLOT
 70
     0
102
SHADEPLOTRESLEVEL
 70
     2
102
SHADEPLOTCUSTOMDPI
 70
   300
  0
XRECORD
  5
367
102
{ACAD_REACTORS
330
2DE
102
}
330
2DE
100
AcDbXrecord
280
     1
102
MATERIAL
148
0.0
149
0.0
149
0.0
 93
        0
 94
      127
282
     0
 72
     0
 77
     0
171
     0
175
     0
179
     0
273
     0
  0
XRECORD
  5
2E0
102
{ACAD_REACTORS
330
2DE
102
}
330
2DE
100
AcDbXrecord
280
     1
270
     1
271
     1
  0
XRECORD
  5
2DF
102
{ACAD_REACTORS
330
2DE
102
}
330
2DE
100
AcDbXrecord
280
     1
270
     1
271
     1
  0
XRECORD
  5
2E3
102
{ACAD_REACTORS
330
2DE
102
}
330
2DE
100
AcDbXrecord
280
     1
270
     1
271
     1
  0
XRECORD
  5
2E2
102
{ACAD_REACTORS
330
2DE
102
}
330
2DE
100
AcDbXrecord
280
     1
270
     1
271
     1
  0
XRECORD
  5
2E4
102
{ACAD_REACTORS
330
2DE
102
}
330
2DE
100
AcDbXrecord
280
     1
270
     1
271
     1
  0
XRECORD
  5
2E1
102
{ACAD_REACTORS
330
2DE
102
}
330
2DE
100
AcDbXrecord
280
     1
270
     1
271
     1
  0
XRECORD
  5
366
102
{ACAD_REACTORS
330
2D6
102
}
330
2D6
100
AcDbXrecord
280
     1
102
MATERIAL
148
0.0
149
0.0
149
0.0
 93
        0
 94
      127
282
     0
 72
     0
 77
     0
171
     0
175
     0
179
     0
273
     0
  0
XRECORD
  5
2D8
102
{ACAD_REACTORS
330
2D6
102
}
330
2D6
100
AcDbXrecord
280
     1
270
     1
271
     1
  0
XRECORD
  5
2D7
102
{ACAD_REACTORS
330
2D6
102
}
330
2D6
100
AcDbXrecord
280
     1
270
     1
271
     1
  0
XRECORD
  5
2DB
102
{ACAD_REACTORS
330
2D6
102
}
330
2D6
100
AcDbXrecord
280
     1
270
     1
271
     1
  0
XRECORD
  5
2DA
102
{ACAD_REACTORS
330
2D6
102
}
330
2D6
100
AcDbXrecord
280
     1
270
     1
271
     1
  0
XRECORD
  5
2DC
102
{ACAD_REACTORS
330
2D6
102
}
330
2D6
100
AcDbXrecord
280
     1
270
     1
271
     1
  0
XRECORD
  5
2D9
102
{ACAD_REACTORS
330
2D6
102
}
330
2D6
100
AcDbXrecord
280
     1
270
     1
271
     1
  0
XRECORD
  5
368
102
{ACAD_REACTORS
330
2E6
102
}
330
2E6
100
AcDbXrecord
280
     1
102
MATERIAL
148
0.0
149
0.0
149
0.0
 93
        0
 94
      127
282
     0
 72
     0
 77
     0
171
     0
175
     0
179
     0
273
     0
  0
XRECORD
  5
2E8
102
{ACAD_REACTORS
330
2E6
102
}
330
2E6
100
AcDbXrecord
280
     1
270
     1
271
     1
  0
XRECORD
  5
2E7
102
{ACAD_REACTORS
330
2E6
102
}
330
2E6
100
AcDbXrecord
280
     1
270
     1
271
     1
  0
XRECORD
  5
2EB
102
{ACAD_REACTORS
330
2E6
102
}
330
2E6
100
AcDbXrecord
280
     1
270
     1
271
     1
  0
XRECORD
  5
2EA
102
{ACAD_REACTORS
330
2E6
102
}
330
2E6
100
AcDbXrecord
280
     1
270
     1
271
     1
  0
XRECORD
  5
2EC
102
{ACAD_REACTORS
330
2E6
102
}
330
2E6
100
AcDbXrecord
280
     1
270
     1
271
     1
  0
XRECORD
  5
2E9
102
{ACAD_REACTORS
330
2E6
102
}
330
2E6
100
AcDbXrecord
280
     1
270
     1
271
     1
  0
XRECORD
  5
39C
102
{ACAD_REACTORS
330
39B
102
}
330
39B
100
AcDbXrecord
280
     1
102
DISPLAYNAME
  1
Imperial24
102
FLAGS
 90
        0
  0
CELLSTYLEMAP
  5
363
102
{ACAD_REACTORS
330
362
102
}
330
362
100
AcDbCellStyleMap
 90
        3
300
CELLSTYLE
  1
TABLEFORMAT_BEGIN
 90
        5
170
     1
 91
        0
 92
    32768
 62
   257
 93
        1
300
CONTENTFORMAT
  1
CONTENTFORMAT_BEGIN
 90
        0
 91
        0
 92
      512
 93
        0
300

 40
0.0
140
1.0
 94
        5
 62
     0
340
319
144
0.25
309
CONTENTFORMAT_END
171
     0
 94
        0
309
TABLEFORMAT_END
  1
CELLSTYLE_BEGIN
 90
        1
 91
        1
300
_TITLE
309
CELLSTYLE_END
300
CELLSTYLE
  1
TABLEFORMAT_BEGIN
 90
        5
170
     1
 91
        0
 92
        0
 62
   257
 93
        1
300
CONTENTFORMAT
  1
CONTENTFORMAT_BEGIN
 90
        0
 91
        0
 92
      512
 93
        0
300

 40
0.0
140
1.0
 94
        5
 62
     0
340
319
144
0.18
309
CONTENTFORMAT_END
171
     0
 94
        0
309
TABLEFORMAT_END
  1
CELLSTYLE_BEGIN
 90
        2
 91
        1
300
_HEADER
309
CELLSTYLE_END
300
CELLSTYLE
  1
TABLEFORMAT_BEGIN
 90
        5
170
     1
 91
        0
 92
        0
 62
   257
 93
        1
300
CONTENTFORMAT
  1
CONTENTFORMAT_BEGIN
 90
        0
 91
        0
 92
      512
 93
        0
300

 40
0.0
140
1.0
 94
        2
 62
     0
340
319
144
0.18
309
CONTENTFORMAT_END
171
     0
 94
        0
309
TABLEFORMAT_END
  1
CELLSTYLE_BEGIN
 90
        3
 91
        2
300
_DATA
309
CELLSTYLE_END
  0
XRECORD
  5
399
102
{ACAD_REACTORS
330
362
102
}
330
362
100
AcDbXrecord
280
     1
102
ACAD_ROUNDTRIP_PRE2007_TABLESTYLE
 90
      512
 91
        0
  1

 92
      512
 93
        0
  2

 94
      512
 95
        0
  3

  0
XRECORD
  5
374
102
{ACAD_REACTORS
330
373
102
}
330
373
100
AcDbXrecord
280
     1
102
RTVSPost2010Prop28
280
     1
102
RTVSPost2010PropOp28
 70
     1
102
RTVSPost2010Prop29
280
     1
102
RTVSPost2010PropOp29
 70
     1
102
RTVSPost2010Prop30
280
     0
102
RTVSPost2010PropOp30
 70
     1
102
RTVSPost2010Prop31
280
     0
102
RTVSPost2010PropOp31
 70
     1
102
RTVSPost2010Prop32
280
     0
102
RTVSPost2010PropOp32
 70
     1
102
RTVSPost2010Prop33
280
     0
102
RTVSPost2010PropOp33
 70
     1
102
RTVSPost2010Prop34
280
     0
102
RTVSPost2010PropOp34
 70
     1
102
RTVSPost2010Prop35
280
     0
102
RTVSPost2010PropOp35
 70
     1
102
RTVSPost2010Prop36
280
     0
102
RTVSPost2010PropOp36
 70
     1
102
RTVSPost2010Prop37
 90
       50
102
RTVSPost2010PropOp37
 70
     1
102
RTVSPost2010Prop38
140
0.0
102
RTVSPost2010PropOp38
 70
     1
102
RTVSPost2010Prop39
140
1.0
102
RTVSPost2010PropOp39
 70
     1
102
RTVSPost2010Prop40
 90
        0
102
RTVSPost2010PropOp40
 70
     1
102
RTVSPost2010Prop41ColorIndex
 90
       18
102
RTVSPost2010Prop41ColorRGB
 90
        0
102
RTVSPost2010PropOp41
 70
     1
102
RTVSPost2010Prop42
 90
       50
102
RTVSPost2010PropOp42
 70
     1
102
RTVSPost2010Prop43
 90
        3
102
RTVSPost2010PropOp43
 70
     1
102
RTVSPost2010Prop44ColorIndex
 90
        5
102
RTVSPost2010Prop44ColorRGB
 90
      255
102
RTVSPost2010PropOp44
 70
     1
102
RTVSPost2010Prop45
280
     0
102
RTVSPost2010PropOp45
 70
     1
102
RTVSPost2010Prop46
 90
       50
102
RTVSPost2010PropOp46
 70
     1
102
RTVSPost2010Prop47
 90
       50
102
RTVSPost2010PropOp47
 70
     1
102
RTVSPost2010Prop48
 90
       50
102
RTVSPost2010PropOp48
 70
     1
102
RTVSPost2010Prop49
280
     0
102
RTVSPost2010PropOp49
 70
     1
102
RTVSPost2010Prop50
 90
       50
102
RTVSPost2010PropOp50
 70
     1
102
RTVSPost2010Prop51ColorIndex
 90
      256
102
RTVSPost2010Prop51ColorRGB
 90
-16777216
102
RTVSPost2010PropOp51
 70
     0
102
RTVSPost2010Prop52
140
1.0
102
RTVSPost2010PropOp52
 70
     0
102
RTVSPost2010Prop53
 90
        2
102
RTVSPost2010PropOp53
 70
     1
102
RTVSPost2010Prop54
  1
strokes_ogs.tif
102
RTVSPost2010PropOp54
 70
     1
102
RTVSPost2010Prop55
280
     0
102
RTVSPost2010PropOp55
 70
     1
102
RTVSPost2010Prop56
140
1.0
102
RTVSPost2010PropOp56
 70
     1
102
RTVSPost2010Prop57
140
1.0
102
RTVSPost2010PropOp57
 70
     1
102
RTVSPropertyOp0
 70
     1
102
RTVSPropertyOp1
 70
     1
102
RTVSPropertyOp2
 70
     1
102
RTVSPropertyOp3
 70
     1
102
RTVSPropertyOp4
 70
     1
102
RTVSPropertyOp5
 70
     1
102
RTVSPropertyOp6
 70
     1
102
RTVSPropertyOp7
 70
     1
102
RTVSPropertyOp8
 70
     1
102
RTVSPropertyOp9
 70
     1
102
RTVSPropertyOp10
 70
     1
102
RTVSPropertyOp11
 70
     1
102
RTVSPropertyOp12
 70
     1
102
RTVSPropertyOp13
 70
     1
102
RTVSPropertyOp14
 70
     1
102
RTVSPropertyOp15
 70
     1
102
RTVSPropertyOp16
 70
     1
102
RTVSPropertyOp17
 70
     1
102
RTVSPropertyOp18
 70
     1
102
RTVSPropertyOp19
 70
     1
102
RTVSPropertyOp20
 70
     1
102
RTVSPropertyOp21
 70
     1
102
RTVSPropertyOp22
 70
     1
102
RTVSPropertyOp23
 70
     1
102
RTVSPropertyOp24
 70
     1
102
RTVSPropertyOp25
 70
     1
102
RTVSPropertyOp26
 70
     1
102
RTVSPropertyOp27
 70
     1
102
RTVSPropertyOp28
 70
     1
102
RTVSPropertyOp29
 70
     1
102
RTVSPropertyOp30
 70
     1
102
RTVSPropertyOp31
 70
     1
102
RTVSPropertyOp32
 70
     1
102
RTVSPropertyOp33
 70
     1
102
RTVSPropertyOp34
 70
     1
102
RTVSPropertyOp35
 70
     1
102
RTVSPropertyOp36
 70
     1
102
RTVSPropertyOp37
 70
     1
102
RTVSPropertyOp38
 70
     1
102
RTVSPropertyOp39
 70
     1
102
RTVSPropertyOp40
 70
     1
102
RTVSPropertyOp41
 70
     1
102
RTVSPropertyOp42
 70
     1
102
RTVSPropertyOp43
 70
     1
102
RTVSPropertyOp44
 70
     1
102
RTVSPropertyOp45
 70
     1
102
RTVSPropertyOp46
 70
     1
102
RTVSPropertyOp47
 70
     1
102
RTVSPropertyOp48
 70
     1
102
RTVSPropertyOp49
 70
     1
102
RTVSPropertyOp50
 70
     1
102
RTVSPropertyOp51
 70
     0
102
RTVSPropertyOp52
 70
     0
102
RTVSPropertyOp53
 70
     1
102
RTVSPropertyOp54
 70
     1
102
RTVSPropertyOp55
 70
     1
102
RTVSPropertyOp56
 70
     1
102
RTVSPropertyOp57
 70
     1
102
RTVSPropertyOp58
 70
     1
102
RTVSPropertyOp59
 70
     1
102
RTVSPropertyOp60
 70
     1
102
RTVSPropertyOp61
 70
     1
102
RTVSPropertyOp62
 70
     1
  0
XRECORD
  5
372
102
{ACAD_REACTORS
330
371
102
}
330
371
100
AcDbXrecord
280
     1
102
RTVSPost2010Prop28
280
     0
102
RTVSPost2010PropOp28
 70
     1
102
RTVSPost2010Prop29
280
     1
102
RTVSPost2010PropOp29
 70
     1
102
RTVSPost2010Prop30
280
     1
102
RTVSPost2010PropOp30
 70
     1
102
RTVSPost2010Prop31
280
     0
102
RTVSPost2010PropOp31
 70
     1
102
RTVSPost2010Prop32
280
     0
102
RTVSPost2010PropOp32
 70
     1
102
RTVSPost2010Prop33
280
     0
102
RTVSPost2010PropOp33
 70
     1
102
RTVSPost2010Prop34
280
     0
102
RTVSPost2010PropOp34
 70
     1
102
RTVSPost2010Prop35
280
     0
102
RTVSPost2010PropOp35
 70
     1
102
RTVSPost2010Prop36
280
     0
102
RTVSPost2010PropOp36
 70
     1
102
RTVSPost2010Prop37
 90
       50
102
RTVSPost2010PropOp37
 70
     1
102
RTVSPost2010Prop38
140
0.0
102
RTVSPost2010PropOp38
 70
     1
102
RTVSPost2010Prop39
140
1.0
102
RTVSPost2010PropOp39
 70
     1
102
RTVSPost2010Prop40
 90
        0
102
RTVSPost2010PropOp40
 70
     1
102
RTVSPost2010Prop41ColorIndex
 90
       18
102
RTVSPost2010Prop41ColorRGB
 90
        0
102
RTVSPost2010PropOp41
 70
     1
102
RTVSPost2010Prop42
 90
       50
102
RTVSPost2010PropOp42
 70
     1
102
RTVSPost2010Prop43
 90
        3
102
RTVSPost2010PropOp43
 70
     1
102
RTVSPost2010Prop44ColorIndex
 90
        5
102
RTVSPost2010Prop44ColorRGB
 90
      255
102
RTVSPost2010PropOp44
 70
     1
102
RTVSPost2010Prop45
280
     0
102
RTVSPost2010PropOp45
 70
     1
102
RTVSPost2010Prop46
 90
       50
102
RTVSPost2010PropOp46
 70
     1
102
RTVSPost2010Prop47
 90
       50
102
RTVSPost2010PropOp47
 70
     1
102
RTVSPost2010Prop48
 90
       50
102
RTVSPost2010PropOp48
 70
     1
102
RTVSPost2010Prop49
280
     0
102
RTVSPost2010PropOp49
 70
     1
102
RTVSPost2010Prop50
 90
       50
102
RTVSPost2010PropOp50
 70
     1
102
RTVSPost2010Prop51ColorIndex
 90
      256
102
RTVSPost2010Prop51ColorRGB
 90
-16777216
102
RTVSPost2010PropOp51
 70
     0
102
RTVSPost2010Prop52
140
1.0
102
RTVSPost2010PropOp52
 70
     0
102
RTVSPost2010Prop53
 90
        2
102
RTVSPost2010PropOp53
 70
     1
102
RTVSPost2010Prop54
  1
strokes_ogs.tif
102
RTVSPost2010PropOp54
 70
     1
102
RTVSPost2010Prop55
280
     0
102
RTVSPost2010PropOp55
 70
     1
102
RTVSPost2010Prop56
140
1.0
102
RTVSPost2010PropOp56
 70
     1
102
RTVSPost2010Prop57
140
1.0
102
RTVSPost2010PropOp57
 70
     1
102
RTVSPropertyOp0
 70
     1
102
RTVSPropertyOp1
 70
     1
102
RTVSPropertyOp2
 70
     1
102
RTVSPropertyOp3
 70
     1
102
RTVSPropertyOp4
 70
     1
102
RTVSPropertyOp5
 70
     1
102
RTVSPropertyOp6
 70
     1
102
RTVSPropertyOp7
 70
     1
102
RTVSPropertyOp8
 70
     1
102
RTVSPropertyOp9
 70
     1
102
RTVSPropertyOp10
 70
     1
102
RTVSPropertyOp11
 70
     1
102
RTVSPropertyOp12
 70
     1
102
RTVSPropertyOp13
 70
     1
102
RTVSPropertyOp14
 70
     1
102
RTVSPropertyOp15
 70
     1
102
RTVSPropertyOp16
 70
     1
102
RTVSPropertyOp17
 70
     1
102
RTVSPropertyOp18
 70
     1
102
RTVSPropertyOp19
 70
     1
102
RTVSPropertyOp20
 70
     1
102
RTVSPropertyOp21
 70
     1
102
RTVSPropertyOp22
 70
     1
102
RTVSPropertyOp23
 70
     1
102
RTVSPropertyOp24
 70
     1
102
RTVSPropertyOp25
 70
     1
102
RTVSPropertyOp26
 70
     1
102
RTVSPropertyOp27
 70
     1
102
RTVSPropertyOp28
 70
     1
102
RTVSPropertyOp29
 70
     1
102
RTVSPropertyOp30
 70
     1
102
RTVSPropertyOp31
 70
     1
102
RTVSPropertyOp32
 70
     1
102
RTVSPropertyOp33
 70
     1
102
RTVSPropertyOp34
 70
     1
102
RTVSPropertyOp35
 70
     1
102
RTVSPropertyOp36
 70
     1
102
RTVSPropertyOp37
 70
     1
102
RTVSPropertyOp38
 70
     1
102
RTVSPropertyOp39
 70
     1
102
RTVSPropertyOp40
 70
     1
102
RTVSPropertyOp41
 70
     1
102
RTVSPropertyOp42
 70
     1
102
RTVSPropertyOp43
 70
     1
102
RTVSPropertyOp44
 70
     1
102
RTVSPropertyOp45
 70
     1
102
RTVSPropertyOp46
 70
     1
102
RTVSPropertyOp47
 70
     1
102
RTVSPropertyOp48
 70
     1
102
RTVSPropertyOp49
 70
     1
102
RTVSPropertyOp50
 70
     1
102
RTVSPropertyOp51
 70
     0
102
RTVSPropertyOp52
 70
     0
102
RTVSPropertyOp53
 70
     1
102
RTVSPropertyOp54
 70
     1
102
RTVSPropertyOp55
 70
     1
102
RTVSPropertyOp56
 70
     1
102
RTVSPropertyOp57
 70
     1
102
RTVSPropertyOp58
 70
     1
102
RTVSPropertyOp59
 70
     1
102
RTVSPropertyOp60
 70
     1
102
RTVSPropertyOp61
 70
     1
102
RTVSPropertyOp62
 70
     1
  0
XRECORD
  5
380
102
{ACAD_REACTORS
330
37F
102
}
330
37F
100
AcDbXrecord
280
     1
102
RTVSPost2010Prop28
280
     0
102
RTVSPost2010PropOp28
 70
     1
102
RTVSPost2010Prop29
280
     1
102
RTVSPost2010PropOp29
 70
     1
102
RTVSPost2010Prop30
280
     1
102
RTVSPost2010PropOp30
 70
     1
102
RTVSPost2010Prop31
280
     0
102
RTVSPost2010PropOp31
 70
     1
102
RTVSPost2010Prop32
280
     0
102
RTVSPost2010PropOp32
 70
     1
102
RTVSPost2010Prop33
280
     0
102
RTVSPost2010PropOp33
 70
     1
102
RTVSPost2010Prop34
280
     0
102
RTVSPost2010PropOp34
 70
     1
102
RTVSPost2010Prop35
280
     0
102
RTVSPost2010PropOp35
 70
     1
102
RTVSPost2010Prop36
280
     0
102
RTVSPost2010PropOp36
 70
     1
102
RTVSPost2010Prop37
 90
       50
102
RTVSPost2010PropOp37
 70
     1
102
RTVSPost2010Prop38
140
0.0
102
RTVSPost2010PropOp38
 70
     1
102
RTVSPost2010Prop39
140
1.0
102
RTVSPost2010PropOp39
 70
     1
102
RTVSPost2010Prop40
 90
        0
102
RTVSPost2010PropOp40
 70
     1
102
RTVSPost2010Prop41ColorIndex
 90
       18
102
RTVSPost2010Prop41ColorRGB
 90
        0
102
RTVSPost2010PropOp41
 70
     1
102
RTVSPost2010Prop42
 90
       50
102
RTVSPost2010PropOp42
 70
     1
102
RTVSPost2010Prop43
 90
        3
102
RTVSPost2010PropOp43
 70
     1
102
RTVSPost2010Prop44ColorIndex
 90
        5
102
RTVSPost2010Prop44ColorRGB
 90
      255
102
RTVSPost2010PropOp44
 70
     1
102
RTVSPost2010Prop45
280
     0
102
RTVSPost2010PropOp45
 70
     1
102
RTVSPost2010Prop46
 90
       50
102
RTVSPost2010PropOp46
 70
     1
102
RTVSPost2010Prop47
 90
       50
102
RTVSPost2010PropOp47
 70
     1
102
RTVSPost2010Prop48
 90
       50
102
RTVSPost2010PropOp48
 70
     1
102
RTVSPost2010Prop49
280
     0
102
RTVSPost2010PropOp49
 70
     1
102
RTVSPost2010Prop50
 90
       50
102
RTVSPost2010PropOp50
 70
     1
102
RTVSPost2010Prop51ColorIndex
 90
      256
102
RTVSPost2010Prop51ColorRGB
 90
-16777216
102
RTVSPost2010PropOp51
 70
     0
102
RTVSPost2010Prop52
140
1.0
102
RTVSPost2010PropOp52
 70
     0
102
RTVSPost2010Prop53
 90
        2
102
RTVSPost2010PropOp53
 70
     1
102
RTVSPost2010Prop54
  1
strokes_ogs.tif
102
RTVSPost2010PropOp54
 70
     1
102
RTVSPost2010Prop55
280
     0
102
RTVSPost2010PropOp55
 70
     1
102
RTVSPost2010Prop56
140
1.0
102
RTVSPost2010PropOp56
 70
     1
102
RTVSPost2010Prop57
140
1.0
102
RTVSPost2010PropOp57
 70
     1
102
RTVSPropertyOp0
 70
     1
102
RTVSPropertyOp1
 70
     1
102
RTVSPropertyOp2
 70
     1
102
RTVSPropertyOp3
 70
     1
102
RTVSPropertyOp4
 70
     1
102
RTVSPropertyOp5
 70
     1
102
RTVSPropertyOp6
 70
     1
102
RTVSPropertyOp7
 70
     1
102
RTVSPropertyOp8
 70
     1
102
RTVSPropertyOp9
 70
     1
102
RTVSPropertyOp10
 70
     1
102
RTVSPropertyOp11
 70
     1
102
RTVSPropertyOp12
 70
     1
102
RTVSPropertyOp13
 70
     1
102
RTVSPropertyOp14
 70
     1
102
RTVSPropertyOp15
 70
     1
102
RTVSPropertyOp16
 70
     1
102
RTVSPropertyOp17
 70
     1
102
RTVSPropertyOp18
 70
     1
102
RTVSPropertyOp19
 70
     1
102
RTVSPropertyOp20
 70
     1
102
RTVSPropertyOp21
 70
     1
102
RTVSPropertyOp22
 70
     1
102
RTVSPropertyOp23
 70
     1
102
RTVSPropertyOp24
 70
     1
102
RTVSPropertyOp25
 70
     1
102
RTVSPropertyOp26
 70
     1
102
RTVSPropertyOp27
 70
     1
102
RTVSPropertyOp28
 70
     1
102
RTVSPropertyOp29
 70
     1
102
RTVSPropertyOp30
 70
     1
102
RTVSPropertyOp31
 70
     1
102
RTVSPropertyOp32
 70
     1
102
RTVSPropertyOp33
 70
     1
102
RTVSPropertyOp34
 70
     1
102
RTVSPropertyOp35
 70
     1
102
RTVSPropertyOp36
 70
     1
102
RTVSPropertyOp37
 70
     1
102
RTVSPropertyOp38
 70
     1
102
RTVSPropertyOp39
 70
     1
102
RTVSPropertyOp40
 70
     1
102
RTVSPropertyOp41
 70
     1
102
RTVSPropertyOp42
 70
     1
102
RTVSPropertyOp43
 70
     1
102
RTVSPropertyOp44
 70
     1
102
RTVSPropertyOp45
 70
     1
102
RTVSPropertyOp46
 70
     1
102
RTVSPropertyOp47
 70
     1
102
RTVSPropertyOp48
 70
     1
102
RTVSPropertyOp49
 70
     1
102
RTVSPropertyOp50
 70
     1
102
RTVSPropertyOp51
 70
     0
102
RTVSPropertyOp52
 70
     0
102
RTVSPropertyOp53
 70
     1
102
RTVSPropertyOp54
 70
     1
102
RTVSPropertyOp55
 70
     1
102
RTVSPropertyOp56
 70
     1
102
RTVSPropertyOp57
 70
     1
102
RTVSPropertyOp58
 70
     1
102
RTVSPropertyOp59
 70
     1
102
RTVSPropertyOp60
 70
     1
102
RTVSPropertyOp61
 70
     1
102
RTVSPropertyOp62
 70
     1
  0
XRECORD
  5
388
102
{ACAD_REACTORS
330
387
102
}
330
387
100
AcDbXrecord
280
     1
102
RTVSPost2010Prop28
280
     0
102
RTVSPost2010PropOp28
 70
     1
102
RTVSPost2010Prop29
280
     1
102
RTVSPost2010PropOp29
 70
     1
102
RTVSPost2010Prop30
280
     1
102
RTVSPost2010PropOp30
 70
     1
102
RTVSPost2010Prop31
280
     0
102
RTVSPost2010PropOp31
 70
     1
102
RTVSPost2010Prop32
280
     0
102
RTVSPost2010PropOp32
 70
     1
102
RTVSPost2010Prop33
280
     0
102
RTVSPost2010PropOp33
 70
     1
102
RTVSPost2010Prop34
280
     0
102
RTVSPost2010PropOp34
 70
     1
102
RTVSPost2010Prop35
280
     0
102
RTVSPost2010PropOp35
 70
     1
102
RTVSPost2010Prop36
280
     0
102
RTVSPost2010PropOp36
 70
     1
102
RTVSPost2010Prop37
 90
       50
102
RTVSPost2010PropOp37
 70
     1
102
RTVSPost2010Prop38
140
0.0
102
RTVSPost2010PropOp38
 70
     1
102
RTVSPost2010Prop39
140
1.0
102
RTVSPost2010PropOp39
 70
     1
102
RTVSPost2010Prop40
 90
        0
102
RTVSPost2010PropOp40
 70
     1
102
RTVSPost2010Prop41ColorIndex
 90
       18
102
RTVSPost2010Prop41ColorRGB
 90
        0
102
RTVSPost2010PropOp41
 70
     1
102
RTVSPost2010Prop42
 90
       50
102
RTVSPost2010PropOp42
 70
     1
102
RTVSPost2010Prop43
 90
        3
102
RTVSPost2010PropOp43
 70
     1
102
RTVSPost2010Prop44ColorIndex
 90
        5
102
RTVSPost2010Prop44ColorRGB
 90
      255
102
RTVSPost2010PropOp44
 70
     1
102
RTVSPost2010Prop45
280
     0
102
RTVSPost2010PropOp45
 70
     1
102
RTVSPost2010Prop46
 90
       50
102
RTVSPost2010PropOp46
 70
     1
102
RTVSPost2010Prop47
 90
       50
102
RTVSPost2010PropOp47
 70
     1
102
RTVSPost2010Prop48
 90
       50
102
RTVSPost2010PropOp48
 70
     1
102
RTVSPost2010Prop49
280
     0
102
RTVSPost2010PropOp49
 70
     1
102
RTVSPost2010Prop50
 90
       50
102
RTVSPost2010PropOp50
 70
     1
102
RTVSPost2010Prop51ColorIndex
 90
      256
102
RTVSPost2010Prop51ColorRGB
 90
-16777216
102
RTVSPost2010PropOp51
 70
     0
102
RTVSPost2010Prop52
140
1.0
102
RTVSPost2010PropOp52
 70
     0
102
RTVSPost2010Prop53
 90
        2
102
RTVSPost2010PropOp53
 70
     1
102
RTVSPost2010Prop54
  1
strokes_ogs.tif
102
RTVSPost2010PropOp54
 70
     1
102
RTVSPost2010Prop55
280
     0
102
RTVSPost2010PropOp55
 70
     1
102
RTVSPost2010Prop56
140
1.0
102
RTVSPost2010PropOp56
 70
     1
102
RTVSPost2010Prop57
140
1.0
102
RTVSPost2010PropOp57
 70
     1
102
RTVSPropertyOp0
 70
     1
102
RTVSPropertyOp1
 70
     1
102
RTVSPropertyOp2
 70
     1
102
RTVSPropertyOp3
 70
     1
102
RTVSPropertyOp4
 70
     1
102
RTVSPropertyOp5
 70
     1
102
RTVSPropertyOp6
 70
     1
102
RTVSPropertyOp7
 70
     1
102
RTVSPropertyOp8
 70
     1
102
RTVSPropertyOp9
 70
     1
102
RTVSPropertyOp10
 70
     1
102
RTVSPropertyOp11
 70
     1
102
RTVSPropertyOp12
 70
     1
102
RTVSPropertyOp13
 70
     1
102
RTVSPropertyOp14
 70
     1
102
RTVSPropertyOp15
 70
     1
102
RTVSPropertyOp16
 70
     1
102
RTVSPropertyOp17
 70
     1
102
RTVSPropertyOp18
 70
     1
102
RTVSPropertyOp19
 70
     1
102
RTVSPropertyOp20
 70
     1
102
RTVSPropertyOp21
 70
     1
102
RTVSPropertyOp22
 70
     1
102
RTVSPropertyOp23
 70
     1
102
RTVSPropertyOp24
 70
     1
102
RTVSPropertyOp25
 70
     1
102
RTVSPropertyOp26
 70
     1
102
RTVSPropertyOp27
 70
     1
102
RTVSPropertyOp28
 70
     1
102
RTVSPropertyOp29
 70
     1
102
RTVSPropertyOp30
 70
     1
102
RTVSPropertyOp31
 70
     1
102
RTVSPropertyOp32
 70
     1
102
RTVSPropertyOp33
 70
     1
102
RTVSPropertyOp34
 70
     1
102
RTVSPropertyOp35
 70
     1
102
RTVSPropertyOp36
 70
     1
102
RTVSPropertyOp37
 70
     1
102
RTVSPropertyOp38
 70
     1
102
RTVSPropertyOp39
 70
     1
102
RTVSPropertyOp40
 70
     1
102
RTVSPropertyOp41
 70
     1
102
RTVSPropertyOp42
 70
     1
102
RTVSPropertyOp43
 70
     1
102
RTVSPropertyOp44
 70
     1
102
RTVSPropertyOp45
 70
     1
102
RTVSPropertyOp46
 70
     1
102
RTVSPropertyOp47
 70
     1
102
RTVSPropertyOp48
 70
     1
102
RTVSPropertyOp49
 70
     1
102
RTVSPropertyOp50
 70
     1
102
RTVSPropertyOp51
 70
     0
102
RTVSPropertyOp52
 70
     0
102
RTVSPropertyOp53
 70
     1
102
RTVSPropertyOp54
 70
     1
102
RTVSPropertyOp55
 70
     1
102
RTVSPropertyOp56
 70
     1
102
RTVSPropertyOp57
 70
     1
102
RTVSPropertyOp58
 70
     1
102
RTVSPropertyOp59
 70
     1
102
RTVSPropertyOp60
 70
     1
102
RTVSPropertyOp61
 70
     1
102
RTVSPropertyOp62
 70
     1
  0
XRECORD
  5
37A
102
{ACAD_REACTORS
330
379
102
}
330
379
100
AcDbXrecord
280
     1
102
RTVSPost2010Prop28
280
     0
102
RTVSPost2010PropOp28
 70
     1
102
RTVSPost2010Prop29
280
     1
102
RTVSPost2010PropOp29
 70
     1
102
RTVSPost2010Prop30
280
     1
102
RTVSPost2010PropOp30
 70
     1
102
RTVSPost2010Prop31
280
     0
102
RTVSPost2010PropOp31
 70
     1
102
RTVSPost2010Prop32
280
     0
102
RTVSPost2010PropOp32
 70
     1
102
RTVSPost2010Prop33
280
     0
102
RTVSPost2010PropOp33
 70
     1
102
RTVSPost2010Prop34
280
     0
102
RTVSPost2010PropOp34
 70
     1
102
RTVSPost2010Prop35
280
     0
102
RTVSPost2010PropOp35
 70
     1
102
RTVSPost2010Prop36
280
     0
102
RTVSPost2010PropOp36
 70
     1
102
RTVSPost2010Prop37
 90
       50
102
RTVSPost2010PropOp37
 70
     1
102
RTVSPost2010Prop38
140
0.0
102
RTVSPost2010PropOp38
 70
     1
102
RTVSPost2010Prop39
140
1.0
102
RTVSPost2010PropOp39
 70
     1
102
RTVSPost2010Prop40
 90
        0
102
RTVSPost2010PropOp40
 70
     1
102
RTVSPost2010Prop41ColorIndex
 90
       18
102
RTVSPost2010Prop41ColorRGB
 90
        0
102
RTVSPost2010PropOp41
 70
     1
102
RTVSPost2010Prop42
 90
       50
102
RTVSPost2010PropOp42
 70
     1
102
RTVSPost2010Prop43
 90
        3
102
RTVSPost2010PropOp43
 70
     1
102
RTVSPost2010Prop44ColorIndex
 90
        5
102
RTVSPost2010Prop44ColorRGB
 90
      255
102
RTVSPost2010PropOp44
 70
     1
102
RTVSPost2010Prop45
280
     0
102
RTVSPost2010PropOp45
 70
     1
102
RTVSPost2010Prop46
 90
       50
102
RTVSPost2010PropOp46
 70
     1
102
RTVSPost2010Prop47
 90
       50
102
RTVSPost2010PropOp47
 70
     1
102
RTVSPost2010Prop48
 90
       50
102
RTVSPost2010PropOp48
 70
     1
102
RTVSPost2010Prop49
280
     0
102
RTVSPost2010PropOp49
 70
     1
102
RTVSPost2010Prop50
 90
       50
102
RTVSPost2010PropOp50
 70
     1
102
RTVSPost2010Prop51ColorIndex
 90
      256
102
RTVSPost2010Prop51ColorRGB
 90
-16777216
102
RTVSPost2010PropOp51
 70
     0
102
RTVSPost2010Prop52
140
1.0
102
RTVSPost2010PropOp52
 70
     0
102
RTVSPost2010Prop53
 90
        2
102
RTVSPost2010PropOp53
 70
     1
102
RTVSPost2010Prop54
  1
strokes_ogs.tif
102
RTVSPost2010PropOp54
 70
     1
102
RTVSPost2010Prop55
280
     0
102
RTVSPost2010PropOp55
 70
     1
102
RTVSPost2010Prop56
140
1.0
102
RTVSPost2010PropOp56
 70
     1
102
RTVSPost2010Prop57
140
1.0
102
RTVSPost2010PropOp57
 70
     1
102
RTVSPropertyOp0
 70
     1
102
RTVSPropertyOp1
 70
     1
102
RTVSPropertyOp2
 70
     1
102
RTVSPropertyOp3
 70
     1
102
RTVSPropertyOp4
 70
     1
102
RTVSPropertyOp5
 70
     1
102
RTVSPropertyOp6
 70
     1
102
RTVSPropertyOp7
 70
     1
102
RTVSPropertyOp8
 70
     1
102
RTVSPropertyOp9
 70
     1
102
RTVSPropertyOp10
 70
     1
102
RTVSPropertyOp11
 70
     1
102
RTVSPropertyOp12
 70
     1
102
RTVSPropertyOp13
 70
     1
102
RTVSPropertyOp14
 70
     1
102
RTVSPropertyOp15
 70
     1
102
RTVSPropertyOp16
 70
     1
102
RTVSPropertyOp17
 70
     1
102
RTVSPropertyOp18
 70
     1
102
RTVSPropertyOp19
 70
     1
102
RTVSPropertyOp20
 70
     1
102
RTVSPropertyOp21
 70
     1
102
RTVSPropertyOp22
 70
     1
102
RTVSPropertyOp23
 70
     1
102
RTVSPropertyOp24
 70
     1
102
RTVSPropertyOp25
 70
     1
102
RTVSPropertyOp26
 70
     1
102
RTVSPropertyOp27
 70
     1
102
RTVSPropertyOp28
 70
     1
102
RTVSPropertyOp29
 70
     1
102
RTVSPropertyOp30
 70
     1
102
RTVSPropertyOp31
 70
     1
102
RTVSPropertyOp32
 70
     1
102
RTVSPropertyOp33
 70
     1
102
RTVSPropertyOp34
 70
     1
102
RTVSPropertyOp35
 70
     1
102
RTVSPropertyOp36
 70
     1
102
RTVSPropertyOp37
 70
     1
102
RTVSPropertyOp38
 70
     1
102
RTVSPropertyOp39
 70
     1
102
RTVSPropertyOp40
 70
     1
102
RTVSPropertyOp41
 70
     1
102
RTVSPropertyOp42
 70
     1
102
RTVSPropertyOp43
 70
     1
102
RTVSPropertyOp44
 70
     1
102
RTVSPropertyOp45
 70
     1
102
RTVSPropertyOp46
 70
     1
102
RTVSPropertyOp47
 70
     1
102
RTVSPropertyOp48
 70
     1
102
RTVSPropertyOp49
 70
     1
102
RTVSPropertyOp50
 70
     1
102
RTVSPropertyOp51
 70
     0
102
RTVSPropertyOp52
 70
     0
102
RTVSPropertyOp53
 70
     1
102
RTVSPropertyOp54
 70
     1
102
RTVSPropertyOp55
 70
     1
102
RTVSPropertyOp56
 70
     1
102
RTVSPropertyOp57
 70
     1
102
RTVSPropertyOp58
 70
     1
102
RTVSPropertyOp59
 70
     1
102
RTVSPropertyOp60
 70
     1
102
RTVSPropertyOp61
 70
     1
102
RTVSPropertyOp62
 70
     1
  0
XRECORD
  5
37E
102
{ACAD_REACTORS
330
37D
102
}
330
37D
100
AcDbXrecord
280
     1
102
RTVSPost2010Prop28
280
     0
102
RTVSPost2010PropOp28
 70
     1
102
RTVSPost2010Prop29
280
     1
102
RTVSPost2010PropOp29
 70
     1
102
RTVSPost2010Prop30
280
     1
102
RTVSPost2010PropOp30
 70
     1
102
RTVSPost2010Prop31
280
     0
102
RTVSPost2010PropOp31
 70
     1
102
RTVSPost2010Prop32
280
     0
102
RTVSPost2010PropOp32
 70
     1
102
RTVSPost2010Prop33
280
     0
102
RTVSPost2010PropOp33
 70
     1
102
RTVSPost2010Prop34
280
     0
102
RTVSPost2010PropOp34
 70
     1
102
RTVSPost2010Prop35
280
     0
102
RTVSPost2010PropOp35
 70
     1
102
RTVSPost2010Prop36
280
     0
102
RTVSPost2010PropOp36
 70
     1
102
RTVSPost2010Prop37
 90
       50
102
RTVSPost2010PropOp37
 70
     1
102
RTVSPost2010Prop38
140
0.0
102
RTVSPost2010PropOp38
 70
     1
102
RTVSPost2010Prop39
140
1.0
102
RTVSPost2010PropOp39
 70
     1
102
RTVSPost2010Prop40
 90
        0
102
RTVSPost2010PropOp40
 70
     1
102
RTVSPost2010Prop41ColorIndex
 90
       18
102
RTVSPost2010Prop41ColorRGB
 90
        0
102
RTVSPost2010PropOp41
 70
     1
102
RTVSPost2010Prop42
 90
       50
102
RTVSPost2010PropOp42
 70
     1
102
RTVSPost2010Prop43
 90
        3
102
RTVSPost2010PropOp43
 70
     1
102
RTVSPost2010Prop44ColorIndex
 90
        5
102
RTVSPost2010Prop44ColorRGB
 90
      255
102
RTVSPost2010PropOp44
 70
     1
102
RTVSPost2010Prop45
280
     0
102
RTVSPost2010PropOp45
 70
     1
102
RTVSPost2010Prop46
 90
       50
102
RTVSPost2010PropOp46
 70
     1
102
RTVSPost2010Prop47
 90
       50
102
RTVSPost2010PropOp47
 70
     1
102
RTVSPost2010Prop48
 90
       50
102
RTVSPost2010PropOp48
 70
     1
102
RTVSPost2010Prop49
280
     0
102
RTVSPost2010PropOp49
 70
     1
102
RTVSPost2010Prop50
 90
       50
102
RTVSPost2010PropOp50
 70
     1
102
RTVSPost2010Prop51ColorIndex
 90
      256
102
RTVSPost2010Prop51ColorRGB
 90
-16777216
102
RTVSPost2010PropOp51
 70
     0
102
RTVSPost2010Prop52
140
1.0
102
RTVSPost2010PropOp52
 70
     0
102
RTVSPost2010Prop53
 90
        2
102
RTVSPost2010PropOp53
 70
     1
102
RTVSPost2010Prop54
  1
strokes_ogs.tif
102
RTVSPost2010PropOp54
 70
     1
102
RTVSPost2010Prop55
280
     0
102
RTVSPost2010PropOp55
 70
     1
102
RTVSPost2010Prop56
140
1.0
102
RTVSPost2010PropOp56
 70
     1
102
RTVSPost2010Prop57
140
1.0
102
RTVSPost2010PropOp57
 70
     1
102
RTVSPropertyOp0
 70
     1
102
RTVSPropertyOp1
 70
     1
102
RTVSPropertyOp2
 70
     1
102
RTVSPropertyOp3
 70
     1
102
RTVSPropertyOp4
 70
     1
102
RTVSPropertyOp5
 70
     1
102
RTVSPropertyOp6
 70
     1
102
RTVSPropertyOp7
 70
     1
102
RTVSPropertyOp8
 70
     1
102
RTVSPropertyOp9
 70
     1
102
RTVSPropertyOp10
 70
     1
102
RTVSPropertyOp11
 70
     1
102
RTVSPropertyOp12
 70
     1
102
RTVSPropertyOp13
 70
     1
102
RTVSPropertyOp14
 70
     1
102
RTVSPropertyOp15
 70
     1
102
RTVSPropertyOp16
 70
     1
102
RTVSPropertyOp17
 70
     1
102
RTVSPropertyOp18
 70
     1
102
RTVSPropertyOp19
 70
     1
102
RTVSPropertyOp20
 70
     1
102
RTVSPropertyOp21
 70
     1
102
RTVSPropertyOp22
 70
     1
102
RTVSPropertyOp23
 70
     1
102
RTVSPropertyOp24
 70
     1
102
RTVSPropertyOp25
 70
     1
102
RTVSPropertyOp26
 70
     1
102
RTVSPropertyOp27
 70
     1
102
RTVSPropertyOp28
 70
     1
102
RTVSPropertyOp29
 70
     1
102
RTVSPropertyOp30
 70
     1
102
RTVSPropertyOp31
 70
     1
102
RTVSPropertyOp32
 70
     1
102
RTVSPropertyOp33
 70
     1
102
RTVSPropertyOp34
 70
     1
102
RTVSPropertyOp35
 70
     1
102
RTVSPropertyOp36
 70
     1
102
RTVSPropertyOp37
 70
     1
102
RTVSPropertyOp38
 70
     1
102
RTVSPropertyOp39
 70
     1
102
RTVSPropertyOp40
 70
     1
102
RTVSPropertyOp41
 70
     1
102
RTVSPropertyOp42
 70
     1
102
RTVSPropertyOp43
 70
     1
102
RTVSPropertyOp44
 70
     1
102
RTVSPropertyOp45
 70
     1
102
RTVSPropertyOp46
 70
     1
102
RTVSPropertyOp47
 70
     1
102
RTVSPropertyOp48
 70
     1
102
RTVSPropertyOp49
 70
     1
102
RTVSPropertyOp50
 70
     1
102
RTVSPropertyOp51
 70
     0
102
RTVSPropertyOp52
 70
     0
102
RTVSPropertyOp53
 70
     1
102
RTVSPropertyOp54
 70
     1
102
RTVSPropertyOp55
 70
     1
102
RTVSPropertyOp56
 70
     1
102
RTVSPropertyOp57
 70
     1
102
RTVSPropertyOp58
 70
     1
102
RTVSPropertyOp59
 70
     1
102
RTVSPropertyOp60
 70
     1
102
RTVSPropertyOp61
 70
     1
102
RTVSPropertyOp62
 70
     1
  0
XRECORD
  5
398
102
{ACAD_REACTORS
330
397
102
}
330
397
100
AcDbXrecord
280
     1
102
RTVSPost2010Prop28
280
     0
102
RTVSPost2010PropOp28
 70
     1
102
RTVSPost2010Prop29
280
     1
102
RTVSPost2010PropOp29
 70
     1
102
RTVSPost2010Prop30
280
     1
102
RTVSPost2010PropOp30
 70
     1
102
RTVSPost2010Prop31
280
     0
102
RTVSPost2010PropOp31
 70
     1
102
RTVSPost2010Prop32
280
     0
102
RTVSPost2010PropOp32
 70
     1
102
RTVSPost2010Prop33
280
     0
102
RTVSPost2010PropOp33
 70
     1
102
RTVSPost2010Prop34
280
     0
102
RTVSPost2010PropOp34
 70
     1
102
RTVSPost2010Prop35
280
     0
102
RTVSPost2010PropOp35
 70
     1
102
RTVSPost2010Prop36
280
     0
102
RTVSPost2010PropOp36
 70
     1
102
RTVSPost2010Prop37
 90
       50
102
RTVSPost2010PropOp37
 70
     0
102
RTVSPost2010Prop38
140
0.0
102
RTVSPost2010PropOp38
 70
     0
102
RTVSPost2010Prop39
140
1.0
102
RTVSPost2010PropOp39
 70
     0
102
RTVSPost2010Prop40
 90
        0
102
RTVSPost2010PropOp40
 70
     0
102
RTVSPost2010Prop41ColorIndex
 90
       18
102
RTVSPost2010Prop41ColorRGB
 90
        0
102
RTVSPost2010PropOp41
 70
     0
102
RTVSPost2010Prop42
 90
       50
102
RTVSPost2010PropOp42
 70
     0
102
RTVSPost2010Prop43
 90
        3
102
RTVSPost2010PropOp43
 70
     0
102
RTVSPost2010Prop44ColorIndex
 90
        5
102
RTVSPost2010Prop44ColorRGB
 90
      255
102
RTVSPost2010PropOp44
 70
     0
102
RTVSPost2010Prop45
280
     0
102
RTVSPost2010PropOp45
 70
     1
102
RTVSPost2010Prop46
 90
       50
102
RTVSPost2010PropOp46
 70
     0
102
RTVSPost2010Prop47
 90
       50
102
RTVSPost2010PropOp47
 70
     0
102
RTVSPost2010Prop48
 90
       50
102
RTVSPost2010PropOp48
 70
     0
102
RTVSPost2010Prop49
280
     0
102
RTVSPost2010PropOp49
 70
     1
102
RTVSPost2010Prop50
 90
       50
102
RTVSPost2010PropOp50
 70
     0
102
RTVSPost2010Prop51ColorIndex
 90
      256
102
RTVSPost2010Prop51ColorRGB
 90
-16777216
102
RTVSPost2010PropOp51
 70
     0
102
RTVSPost2010Prop52
140
1.0
102
RTVSPost2010PropOp52
 70
     0
102
RTVSPost2010Prop53
 90
        2
102
RTVSPost2010PropOp53
 70
     0
102
RTVSPost2010Prop54
  1
strokes_ogs.tif
102
RTVSPost2010PropOp54
 70
     0
102
RTVSPost2010Prop55
280
     0
102
RTVSPost2010PropOp55
 70
     1
102
RTVSPost2010Prop56
140
1.0
102
RTVSPost2010PropOp56
 70
     0
102
RTVSPost2010Prop57
140
1.0
102
RTVSPost2010PropOp57
 70
     0
102
RTVSPropertyOp0
 70
     0
102
RTVSPropertyOp1
 70
     0
102
RTVSPropertyOp2
 70
     0
102
RTVSPropertyOp3
 70
     0
102
RTVSPropertyOp4
 70
     0
102
RTVSPropertyOp5
 70
     0
102
RTVSPropertyOp6
 70
     0
102
RTVSPropertyOp7
 70
     0
102
RTVSPropertyOp8
 70
     0
102
RTVSPropertyOp9
 70
     0
102
RTVSPropertyOp10
 70
     0
102
RTVSPropertyOp11
 70
     0
102
RTVSPropertyOp12
 70
     0
102
RTVSPropertyOp13
 70
     0
102
RTVSPropertyOp14
 70
     2
102
RTVSPropertyOp15
 70
     0
102
RTVSPropertyOp16
 70
     0
102
RTVSPropertyOp17
 70
     0
102
RTVSPropertyOp18
 70
     0
102
RTVSPropertyOp19
 70
     0
102
RTVSPropertyOp20
 70
     0
102
RTVSPropertyOp21
 70
     0
102
RTVSPropertyOp22
 70
     0
102
RTVSPropertyOp23
 70
     0
102
RTVSPropertyOp24
 70
     0
102
RTVSPropertyOp25
 70
     0
102
RTVSPropertyOp26
 70
     0
102
RTVSPropertyOp27
 70
     0
102
RTVSPropertyOp28
 70
     1
102
RTVSPropertyOp29
 70
     1
102
RTVSPropertyOp30
 70
     1
102
RTVSPropertyOp31
 70
     1
102
RTVSPropertyOp32
 70
     1
102
RTVSPropertyOp33
 70
     1
102
RTVSPropertyOp34
 70
     1
102
RTVSPropertyOp35
 70
     1
102
RTVSPropertyOp36
 70
     1
102
RTVSPropertyOp37
 70
     0
102
RTVSPropertyOp38
 70
     0
102
RTVSPropertyOp39
 70
     0
102
RTVSPropertyOp40
 70
     0
102
RTVSPropertyOp41
 70
     0
102
RTVSPropertyOp42
 70
     0
102
RTVSPropertyOp43
 70
     0
102
RTVSPropertyOp44
 70
     0
102
RTVSPropertyOp45
 70
     1
102
RTVSPropertyOp46
 70
     0
102
RTVSPropertyOp47
 70
     0
102
RTVSPropertyOp48
 70
     0
102
RTVSPropertyOp49
 70
     1
102
RTVSPropertyOp50
 70
     0
102
RTVSPropertyOp51
 70
     0
102
RTVSPropertyOp52
 70
     0
102
RTVSPropertyOp53
 70
     0
102
RTVSPropertyOp54
 70
     0
102
RTVSPropertyOp55
 70
     1
102
RTVSPropertyOp56
 70
     0
102
RTVSPropertyOp57
 70
     0
102
RTVSPropertyOp58
 70
     0
102
RTVSPropertyOp59
 70
     0
102
RTVSPropertyOp60
 70
     0
102
RTVSPropertyOp61
 70
     0
102
RTVSPropertyOp62
 70
     0
  0
XRECORD
  5
386
102
{ACAD_REACTORS
330
385
102
}
330
385
100
AcDbXrecord
280
     1
102
RTVSPost2010Prop28
280
     0
102
RTVSPost2010PropOp28
 70
     1
102
RTVSPost2010Prop29
280
     1
102
RTVSPost2010PropOp29
 70
     1
102
RTVSPost2010Prop30
280
     1
102
RTVSPost2010PropOp30
 70
     1
102
RTVSPost2010Prop31
280
     0
102
RTVSPost2010PropOp31
 70
     1
102
RTVSPost2010Prop32
280
     0
102
RTVSPost2010PropOp32
 70
     1
102
RTVSPost2010Prop33
280
     0
102
RTVSPost2010PropOp33
 70
     1
102
RTVSPost2010Prop34
280
     0
102
RTVSPost2010PropOp34
 70
     1
102
RTVSPost2010Prop35
280
     0
102
RTVSPost2010PropOp35
 70
     1
102
RTVSPost2010Prop36
280
     0
102
RTVSPost2010PropOp36
 70
     1
102
RTVSPost2010Prop37
 90
       50
102
RTVSPost2010PropOp37
 70
     1
102
RTVSPost2010Prop38
140
0.0
102
RTVSPost2010PropOp38
 70
     1
102
RTVSPost2010Prop39
140
1.0
102
RTVSPost2010PropOp39
 70
     1
102
RTVSPost2010Prop40
 90
        0
102
RTVSPost2010PropOp40
 70
     1
102
RTVSPost2010Prop41ColorIndex
 90
       18
102
RTVSPost2010Prop41ColorRGB
 90
        0
102
RTVSPost2010PropOp41
 70
     1
102
RTVSPost2010Prop42
 90
       50
102
RTVSPost2010PropOp42
 70
     1
102
RTVSPost2010Prop43
 90
        3
102
RTVSPost2010PropOp43
 70
     1
102
RTVSPost2010Prop44ColorIndex
 90
        5
102
RTVSPost2010Prop44ColorRGB
 90
      255
102
RTVSPost2010PropOp44
 70
     1
102
RTVSPost2010Prop45
280
     0
102
RTVSPost2010PropOp45
 70
     1
102
RTVSPost2010Prop46
 90
       50
102
RTVSPost2010PropOp46
 70
     1
102
RTVSPost2010Prop47
 90
       50
102
RTVSPost2010PropOp47
 70
     1
102
RTVSPost2010Prop48
 90
       50
102
RTVSPost2010PropOp48
 70
     1
102
RTVSPost2010Prop49
280
     0
102
RTVSPost2010PropOp49
 70
     1
102
RTVSPost2010Prop50
 90
       50
102
RTVSPost2010PropOp50
 70
     1
102
RTVSPost2010Prop51ColorIndex
 90
      256
102
RTVSPost2010Prop51ColorRGB
 90
-16777216
102
RTVSPost2010PropOp51
 70
     0
102
RTVSPost2010Prop52
140
1.0
102
RTVSPost2010PropOp52
 70
     0
102
RTVSPost2010Prop53
 90
        2
102
RTVSPost2010PropOp53
 70
     1
102
RTVSPost2010Prop54
  1
strokes_ogs.tif
102
RTVSPost2010PropOp54
 70
     1
102
RTVSPost2010Prop55
280
     0
102
RTVSPost2010PropOp55
 70
     1
102
RTVSPost2010Prop56
140
1.0
102
RTVSPost2010PropOp56
 70
     1
102
RTVSPost2010Prop57
140
1.0
102
RTVSPost2010PropOp57
 70
     1
102
RTVSPropertyOp0
 70
     1
102
RTVSPropertyOp1
 70
     1
102
RTVSPropertyOp2
 70
     1
102
RTVSPropertyOp3
 70
     1
102
RTVSPropertyOp4
 70
     1
102
RTVSPropertyOp5
 70
     1
102
RTVSPropertyOp6
 70
     1
102
RTVSPropertyOp7
 70
     1
102
RTVSPropertyOp8
 70
     1
102
RTVSPropertyOp9
 70
     1
102
RTVSPropertyOp10
 70
     1
102
RTVSPropertyOp11
 70
     1
102
RTVSPropertyOp12
 70
     1
102
RTVSPropertyOp13
 70
     1
102
RTVSPropertyOp14
 70
     1
102
RTVSPropertyOp15
 70
     1
102
RTVSPropertyOp16
 70
     1
102
RTVSPropertyOp17
 70
     1
102
RTVSPropertyOp18
 70
     1
102
RTVSPropertyOp19
 70
     1
102
RTVSPropertyOp20
 70
     1
102
RTVSPropertyOp21
 70
     1
102
RTVSPropertyOp22
 70
     1
102
RTVSPropertyOp23
 70
     1
102
RTVSPropertyOp24
 70
     1
102
RTVSPropertyOp25
 70
     1
102
RTVSPropertyOp26
 70
     1
102
RTVSPropertyOp27
 70
     1
102
RTVSPropertyOp28
 70
     1
102
RTVSPropertyOp29
 70
     1
102
RTVSPropertyOp30
 70
     1
102
RTVSPropertyOp31
 70
     1
102
RTVSPropertyOp32
 70
     1
102
RTVSPropertyOp33
 70
     1
102
RTVSPropertyOp34
 70
     1
102
RTVSPropertyOp35
 70
     1
102
RTVSPropertyOp36
 70
     1
102
RTVSPropertyOp37
 70
     1
102
RTVSPropertyOp38
 70
     1
102
RTVSPropertyOp39
 70
     1
102
RTVSPropertyOp40
 70
     1
102
RTVSPropertyOp41
 70
     1
102
RTVSPropertyOp42
 70
     1
102
RTVSPropertyOp43
 70
     1
102
RTVSPropertyOp44
 70
     1
102
RTVSPropertyOp45
 70
     1
102
RTVSPropertyOp46
 70
     1
102
RTVSPropertyOp47
 70
     1
102
RTVSPropertyOp48
 70
     1
102
RTVSPropertyOp49
 70
     1
102
RTVSPropertyOp50
 70
     1
102
RTVSPropertyOp51
 70
     0
102
RTVSPropertyOp52
 70
     0
102
RTVSPropertyOp53
 70
     1
102
RTVSPropertyOp54
 70
     1
102
RTVSPropertyOp55
 70
     1
102
RTVSPropertyOp56
 70
     1
102
RTVSPropertyOp57
 70
     1
102
RTVSPropertyOp58
 70
     1
102
RTVSPropertyOp59
 70
     1
102
RTVSPropertyOp60
 70
     1
102
RTVSPropertyOp61
 70
     1
102
RTVSPropertyOp62
 70
     1
  0
XRECORD
  5
36A
102
{ACAD_REACTORS
330
369
102
}
330
369
100
AcDbXrecord
280
     1
102
RTVSPost2010Prop28
280
     0
102
RTVSPost2010PropOp28
 70
     1
102
RTVSPost2010Prop29
280
     1
102
RTVSPost2010PropOp29
 70
     1
102
RTVSPost2010Prop30
280
     1
102
RTVSPost2010PropOp30
 70
     1
102
RTVSPost2010Prop31
280
     0
102
RTVSPost2010PropOp31
 70
     1
102
RTVSPost2010Prop32
280
     0
102
RTVSPost2010PropOp32
 70
     1
102
RTVSPost2010Prop33
280
     0
102
RTVSPost2010PropOp33
 70
     1
102
RTVSPost2010Prop34
280
     0
102
RTVSPost2010PropOp34
 70
     1
102
RTVSPost2010Prop35
280
     0
102
RTVSPost2010PropOp35
 70
     1
102
RTVSPost2010Prop36
280
     0
102
RTVSPost2010PropOp36
 70
     1
102
RTVSPost2010Prop37
 90
       50
102
RTVSPost2010PropOp37
 70
     1
102
RTVSPost2010Prop38
140
0.0
102
RTVSPost2010PropOp38
 70
     1
102
RTVSPost2010Prop39
140
1.0
102
RTVSPost2010PropOp39
 70
     1
102
RTVSPost2010Prop40
 90
        0
102
RTVSPost2010PropOp40
 70
     1
102
RTVSPost2010Prop41ColorIndex
 90
       18
102
RTVSPost2010Prop41ColorRGB
 90
        0
102
RTVSPost2010PropOp41
 70
     1
102
RTVSPost2010Prop42
 90
       50
102
RTVSPost2010PropOp42
 70
     1
102
RTVSPost2010Prop43
 90
        3
102
RTVSPost2010PropOp43
 70
     1
102
RTVSPost2010Prop44ColorIndex
 90
        5
102
RTVSPost2010Prop44ColorRGB
 90
      255
102
RTVSPost2010PropOp44
 70
     1
102
RTVSPost2010Prop45
280
     0
102
RTVSPost2010PropOp45
 70
     1
102
RTVSPost2010Prop46
 90
       50
102
RTVSPost2010PropOp46
 70
     1
102
RTVSPost2010Prop47
 90
       50
102
RTVSPost2010PropOp47
 70
     1
102
RTVSPost2010Prop48
 90
       50
102
RTVSPost2010PropOp48
 70
     1
102
RTVSPost2010Prop49
280
     0
102
RTVSPost2010PropOp49
 70
     1
102
RTVSPost2010Prop50
 90
       50
102
RTVSPost2010PropOp50
 70
     1
102
RTVSPost2010Prop51ColorIndex
 90
      256
102
RTVSPost2010Prop51ColorRGB
 90
-16777216
102
RTVSPost2010PropOp51
 70
     0
102
RTVSPost2010Prop52
140
1.0
102
RTVSPost2010PropOp52
 70
     0
102
RTVSPost2010Prop53
 90
        2
102
RTVSPost2010PropOp53
 70
     1
102
RTVSPost2010Prop54
  1
strokes_ogs.tif
102
RTVSPost2010PropOp54
 70
     1
102
RTVSPost2010Prop55
280
     0
102
RTVSPost2010PropOp55
 70
     1
102
RTVSPost2010Prop56
140
1.0
102
RTVSPost2010PropOp56
 70
     1
102
RTVSPost2010Prop57
140
1.0
102
RTVSPost2010PropOp57
 70
     1
102
RTVSPropertyOp0
 70
     1
102
RTVSPropertyOp1
 70
     1
102
RTVSPropertyOp2
 70
     1
102
RTVSPropertyOp3
 70
     1
102
RTVSPropertyOp4
 70
     1
102
RTVSPropertyOp5
 70
     1
102
RTVSPropertyOp6
 70
     1
102
RTVSPropertyOp7
 70
     1
102
RTVSPropertyOp8
 70
     1
102
RTVSPropertyOp9
 70
     1
102
RTVSPropertyOp10
 70
     1
102
RTVSPropertyOp11
 70
     1
102
RTVSPropertyOp12
 70
     1
102
RTVSPropertyOp13
 70
     1
102
RTVSPropertyOp14
 70
     1
102
RTVSPropertyOp15
 70
     1
102
RTVSPropertyOp16
 70
     1
102
RTVSPropertyOp17
 70
     1
102
RTVSPropertyOp18
 70
     1
102
RTVSPropertyOp19
 70
     1
102
RTVSPropertyOp20
 70
     1
102
RTVSPropertyOp21
 70
     1
102
RTVSPropertyOp22
 70
     1
102
RTVSPropertyOp23
 70
     1
102
RTVSPropertyOp24
 70
     1
102
RTVSPropertyOp25
 70
     1
102
RTVSPropertyOp26
 70
     1
102
RTVSPropertyOp27
 70
     1
102
RTVSPropertyOp28
 70
     1
102
RTVSPropertyOp29
 70
     1
102
RTVSPropertyOp30
 70
     1
102
RTVSPropertyOp31
 70
     1
102
RTVSPropertyOp32
 70
     1
102
RTVSPropertyOp33
 70
     1
102
RTVSPropertyOp34
 70
     1
102
RTVSPropertyOp35
 70
     1
102
RTVSPropertyOp36
 70
     1
102
RTVSPropertyOp37
 70
     1
102
RTVSPropertyOp38
 70
     1
102
RTVSPropertyOp39
 70
     1
102
RTVSPropertyOp40
 70
     1
102
RTVSPropertyOp41
 70
     1
102
RTVSPropertyOp42
 70
     1
102
RTVSPropertyOp43
 70
     1
102
RTVSPropertyOp44
 70
     1
102
RTVSPropertyOp45
 70
     1
102
RTVSPropertyOp46
 70
     1
102
RTVSPropertyOp47
 70
     1
102
RTVSPropertyOp48
 70
     1
102
RTVSPropertyOp49
 70
     1
102
RTVSPropertyOp50
 70
     1
102
RTVSPropertyOp51
 70
     0
102
RTVSPropertyOp52
 70
     0
102
RTVSPropertyOp53
 70
     1
102
RTVSPropertyOp54
 70
     1
102
RTVSPropertyOp55
 70
     1
102
RTVSPropertyOp56
 70
     1
102
RTVSPropertyOp57
 70
     1
102
RTVSPropertyOp58
 70
     1
102
RTVSPropertyOp59
 70
     1
102
RTVSPropertyOp60
 70
     1
102
RTVSPropertyOp61
 70
     1
102
RTVSPropertyOp62
 70
     1
  0
XRECORD
  5
36C
102
{ACAD_REACTORS
330
36B
102
}
330
36B
100
AcDbXrecord
280
     1
102
RTVSPost2010Prop28
280
     0
102
RTVSPost2010PropOp28
 70
     1
102
RTVSPost2010Prop29
280
     1
102
RTVSPost2010PropOp29
 70
     1
102
RTVSPost2010Prop30
280
     1
102
RTVSPost2010PropOp30
 70
     1
102
RTVSPost2010Prop31
280
     0
102
RTVSPost2010PropOp31
 70
     1
102
RTVSPost2010Prop32
280
     0
102
RTVSPost2010PropOp32
 70
     1
102
RTVSPost2010Prop33
280
     0
102
RTVSPost2010PropOp33
 70
     1
102
RTVSPost2010Prop34
280
     0
102
RTVSPost2010PropOp34
 70
     1
102
RTVSPost2010Prop35
280
     0
102
RTVSPost2010PropOp35
 70
     1
102
RTVSPost2010Prop36
280
     0
102
RTVSPost2010PropOp36
 70
     1
102
RTVSPost2010Prop37
 90
       50
102
RTVSPost2010PropOp37
 70
     1
102
RTVSPost2010Prop38
140
0.0
102
RTVSPost2010PropOp38
 70
     1
102
RTVSPost2010Prop39
140
1.0
102
RTVSPost2010PropOp39
 70
     1
102
RTVSPost2010Prop40
 90
        0
102
RTVSPost2010PropOp40
 70
     1
102
RTVSPost2010Prop41ColorIndex
 90
       18
102
RTVSPost2010Prop41ColorRGB
 90
        0
102
RTVSPost2010PropOp41
 70
     1
102
RTVSPost2010Prop42
 90
       50
102
RTVSPost2010PropOp42
 70
     1
102
RTVSPost2010Prop43
 90
        3
102
RTVSPost2010PropOp43
 70
     1
102
RTVSPost2010Prop44ColorIndex
 90
        5
102
RTVSPost2010Prop44ColorRGB
 90
      255
102
RTVSPost2010PropOp44
 70
     1
102
RTVSPost2010Prop45
280
     0
102
RTVSPost2010PropOp45
 70
     1
102
RTVSPost2010Prop46
 90
       50
102
RTVSPost2010PropOp46
 70
     1
102
RTVSPost2010Prop47
 90
       50
102
RTVSPost2010PropOp47
 70
     1
102
RTVSPost2010Prop48
 90
       50
102
RTVSPost2010PropOp48
 70
     1
102
RTVSPost2010Prop49
280
     0
102
RTVSPost2010PropOp49
 70
     1
102
RTVSPost2010Prop50
 90
       50
102
RTVSPost2010PropOp50
 70
     1
102
RTVSPost2010Prop51ColorIndex
 90
      256
102
RTVSPost2010Prop51ColorRGB
 90
-16777216
102
RTVSPost2010PropOp51
 70
     0
102
RTVSPost2010Prop52
140
1.0
102
RTVSPost2010PropOp52
 70
     0
102
RTVSPost2010Prop53
 90
        2
102
RTVSPost2010PropOp53
 70
     1
102
RTVSPost2010Prop54
  1
strokes_ogs.tif
102
RTVSPost2010PropOp54
 70
     1
102
RTVSPost2010Prop55
280
     0
102
RTVSPost2010PropOp55
 70
     1
102
RTVSPost2010Prop56
140
1.0
102
RTVSPost2010PropOp56
 70
     1
102
RTVSPost2010Prop57
140
1.0
102
RTVSPost2010PropOp57
 70
     1
102
RTVSPropertyOp0
 70
     1
102
RTVSPropertyOp1
 70
     1
102
RTVSPropertyOp2
 70
     1
102
RTVSPropertyOp3
 70
     1
102
RTVSPropertyOp4
 70
     1
102
RTVSPropertyOp5
 70
     1
102
RTVSPropertyOp6
 70
     1
102
RTVSPropertyOp7
 70
     1
102
RTVSPropertyOp8
 70
     1
102
RTVSPropertyOp9
 70
     1
102
RTVSPropertyOp10
 70
     1
102
RTVSPropertyOp11
 70
     1
102
RTVSPropertyOp12
 70
     1
102
RTVSPropertyOp13
 70
     1
102
RTVSPropertyOp14
 70
     1
102
RTVSPropertyOp15
 70
     1
102
RTVSPropertyOp16
 70
     1
102
RTVSPropertyOp17
 70
     1
102
RTVSPropertyOp18
 70
     1
102
RTVSPropertyOp19
 70
     1
102
RTVSPropertyOp20
 70
     1
102
RTVSPropertyOp21
 70
     1
102
RTVSPropertyOp22
 70
     1
102
RTVSPropertyOp23
 70
     1
102
RTVSPropertyOp24
 70
     1
102
RTVSPropertyOp25
 70
     1
102
RTVSPropertyOp26
 70
     1
102
RTVSPropertyOp27
 70
     1
102
RTVSPropertyOp28
 70
     1
102
RTVSPropertyOp29
 70
     1
102
RTVSPropertyOp30
 70
     1
102
RTVSPropertyOp31
 70
     1
102
RTVSPropertyOp32
 70
     1
102
RTVSPropertyOp33
 70
     1
102
RTVSPropertyOp34
 70
     1
102
RTVSPropertyOp35
 70
     1
102
RTVSPropertyOp36
 70
     1
102
RTVSPropertyOp37
 70
     1
102
RTVSPropertyOp38
 70
     1
102
RTVSPropertyOp39
 70
     1
102
RTVSPropertyOp40
 70
     1
102
RTVSPropertyOp41
 70
     1
102
RTVSPropertyOp42
 70
     1
102
RTVSPropertyOp43
 70
     1
102
RTVSPropertyOp44
 70
     1
102
RTVSPropertyOp45
 70
     1
102
RTVSPropertyOp46
 70
     1
102
RTVSPropertyOp47
 70
     1
102
RTVSPropertyOp48
 70
     1
102
RTVSPropertyOp49
 70
     1
102
RTVSPropertyOp50
 70
     1
102
RTVSPropertyOp51
 70
     0
102
RTVSPropertyOp52
 70
     0
102
RTVSPropertyOp53
 70
     1
102
RTVSPropertyOp54
 70
     1
102
RTVSPropertyOp55
 70
     1
102
RTVSPropertyOp56
 70
     1
102
RTVSPropertyOp57
 70
     1
102
RTVSPropertyOp58
 70
     1
102
RTVSPropertyOp59
 70
     1
102
RTVSPropertyOp60
 70
     1
102
RTVSPropertyOp61
 70
     1
102
RTVSPropertyOp62
 70
     1
  0
XRECORD
  5
36E
102
{ACAD_REACTORS
330
36D
102
}
330
36D
100
AcDbXrecord
280
     1
102
RTVSPost2010Prop28
280
     0
102
RTVSPost2010PropOp28
 70
     1
102
RTVSPost2010Prop29
280
     1
102
RTVSPost2010PropOp29
 70
     1
102
RTVSPost2010Prop30
280
     1
102
RTVSPost2010PropOp30
 70
     1
102
RTVSPost2010Prop31
280
     0
102
RTVSPost2010PropOp31
 70
     1
102
RTVSPost2010Prop32
280
     0
102
RTVSPost2010PropOp32
 70
     1
102
RTVSPost2010Prop33
280
     0
102
RTVSPost2010PropOp33
 70
     1
102
RTVSPost2010Prop34
280
     0
102
RTVSPost2010PropOp34
 70
     1
102
RTVSPost2010Prop35
280
     0
102
RTVSPost2010PropOp35
 70
     1
102
RTVSPost2010Prop36
280
     0
102
RTVSPost2010PropOp36
 70
     1
102
RTVSPost2010Prop37
 90
       50
102
RTVSPost2010PropOp37
 70
     1
102
RTVSPost2010Prop38
140
0.0
102
RTVSPost2010PropOp38
 70
     1
102
RTVSPost2010Prop39
140
1.0
102
RTVSPost2010PropOp39
 70
     1
102
RTVSPost2010Prop40
 90
        0
102
RTVSPost2010PropOp40
 70
     1
102
RTVSPost2010Prop41ColorIndex
 90
       18
102
RTVSPost2010Prop41ColorRGB
 90
        0
102
RTVSPost2010PropOp41
 70
     1
102
RTVSPost2010Prop42
 90
       50
102
RTVSPost2010PropOp42
 70
     1
102
RTVSPost2010Prop43
 90
        3
102
RTVSPost2010PropOp43
 70
     1
102
RTVSPost2010Prop44ColorIndex
 90
        5
102
RTVSPost2010Prop44ColorRGB
 90
      255
102
RTVSPost2010PropOp44
 70
     1
102
RTVSPost2010Prop45
280
     0
102
RTVSPost2010PropOp45
 70
     1
102
RTVSPost2010Prop46
 90
       50
102
RTVSPost2010PropOp46
 70
     1
102
RTVSPost2010Prop47
 90
       50
102
RTVSPost2010PropOp47
 70
     1
102
RTVSPost2010Prop48
 90
       50
102
RTVSPost2010PropOp48
 70
     1
102
RTVSPost2010Prop49
280
     0
102
RTVSPost2010PropOp49
 70
     1
102
RTVSPost2010Prop50
 90
       50
102
RTVSPost2010PropOp50
 70
     1
102
RTVSPost2010Prop51ColorIndex
 90
      256
102
RTVSPost2010Prop51ColorRGB
 90
-16777216
102
RTVSPost2010PropOp51
 70
     0
102
RTVSPost2010Prop52
140
1.0
102
RTVSPost2010PropOp52
 70
     0
102
RTVSPost2010Prop53
 90
        2
102
RTVSPost2010PropOp53
 70
     1
102
RTVSPost2010Prop54
  1
strokes_ogs.tif
102
RTVSPost2010PropOp54
 70
     1
102
RTVSPost2010Prop55
280
     0
102
RTVSPost2010PropOp55
 70
     1
102
RTVSPost2010Prop56
140
1.0
102
RTVSPost2010PropOp56
 70
     1
102
RTVSPost2010Prop57
140
1.0
102
RTVSPost2010PropOp57
 70
     1
102
RTVSPropertyOp0
 70
     1
102
RTVSPropertyOp1
 70
     1
102
RTVSPropertyOp2
 70
     1
102
RTVSPropertyOp3
 70
     1
102
RTVSPropertyOp4
 70
     1
102
RTVSPropertyOp5
 70
     1
102
RTVSPropertyOp6
 70
     1
102
RTVSPropertyOp7
 70
     1
102
RTVSPropertyOp8
 70
     1
102
RTVSPropertyOp9
 70
     1
102
RTVSPropertyOp10
 70
     1
102
RTVSPropertyOp11
 70
     1
102
RTVSPropertyOp12
 70
     1
102
RTVSPropertyOp13
 70
     1
102
RTVSPropertyOp14
 70
     1
102
RTVSPropertyOp15
 70
     1
102
RTVSPropertyOp16
 70
     1
102
RTVSPropertyOp17
 70
     1
102
RTVSPropertyOp18
 70
     1
102
RTVSPropertyOp19
 70
     1
102
RTVSPropertyOp20
 70
     1
102
RTVSPropertyOp21
 70
     1
102
RTVSPropertyOp22
 70
     1
102
RTVSPropertyOp23
 70
     1
102
RTVSPropertyOp24
 70
     1
102
RTVSPropertyOp25
 70
     1
102
RTVSPropertyOp26
 70
     1
102
RTVSPropertyOp27
 70
     1
102
RTVSPropertyOp28
 70
     1
102
RTVSPropertyOp29
 70
     1
102
RTVSPropertyOp30
 70
     1
102
RTVSPropertyOp31
 70
     1
102
RTVSPropertyOp32
 70
     1
102
RTVSPropertyOp33
 70
     1
102
RTVSPropertyOp34
 70
     1
102
RTVSPropertyOp35
 70
     1
102
RTVSPropertyOp36
 70
     1
102
RTVSPropertyOp37
 70
     1
102
RTVSPropertyOp38
 70
     1
102
RTVSPropertyOp39
 70
     1
102
RTVSPropertyOp40
 70
     1
102
RTVSPropertyOp41
 70
     1
102
RTVSPropertyOp42
 70
     1
102
RTVSPropertyOp43
 70
     1
102
RTVSPropertyOp44
 70
     1
102
RTVSPropertyOp45
 70
     1
102
RTVSPropertyOp46
 70
     1
102
RTVSPropertyOp47
 70
     1
102
RTVSPropertyOp48
 70
     1
102
RTVSPropertyOp49
 70
     1
102
RTVSPropertyOp50
 70
     1
102
RTVSPropertyOp51
 70
     0
102
RTVSPropertyOp52
 70
     0
102
RTVSPropertyOp53
 70
     1
102
RTVSPropertyOp54
 70
     1
102
RTVSPropertyOp55
 70
     1
102
RTVSPropertyOp56
 70
     1
102
RTVSPropertyOp57
 70
     1
102
RTVSPropertyOp58
 70
     1
102
RTVSPropertyOp59
 70
     1
102
RTVSPropertyOp60
 70
     1
102
RTVSPropertyOp61
 70
     1
102
RTVSPropertyOp62
 70
     1
  0
XRECORD
  5
370
102
{ACAD_REACTORS
330
36F
102
}
330
36F
100
AcDbXrecord
280
     1
102
RTVSPost2010Prop28
280
     0
102
RTVSPost2010PropOp28
 70
     1
102
RTVSPost2010Prop29
280
     1
102
RTVSPost2010PropOp29
 70
     1
102
RTVSPost2010Prop30
280
     1
102
RTVSPost2010PropOp30
 70
     1
102
RTVSPost2010Prop31
280
     0
102
RTVSPost2010PropOp31
 70
     1
102
RTVSPost2010Prop32
280
     0
102
RTVSPost2010PropOp32
 70
     1
102
RTVSPost2010Prop33
280
     0
102
RTVSPost2010PropOp33
 70
     1
102
RTVSPost2010Prop34
280
     0
102
RTVSPost2010PropOp34
 70
     1
102
RTVSPost2010Prop35
280
     0
102
RTVSPost2010PropOp35
 70
     1
102
RTVSPost2010Prop36
280
     0
102
RTVSPost2010PropOp36
 70
     1
102
RTVSPost2010Prop37
 90
       50
102
RTVSPost2010PropOp37
 70
     1
102
RTVSPost2010Prop38
140
0.0
102
RTVSPost2010PropOp38
 70
     1
102
RTVSPost2010Prop39
140
1.0
102
RTVSPost2010PropOp39
 70
     1
102
RTVSPost2010Prop40
 90
        0
102
RTVSPost2010PropOp40
 70
     1
102
RTVSPost2010Prop41ColorIndex
 90
       18
102
RTVSPost2010Prop41ColorRGB
 90
        0
102
RTVSPost2010PropOp41
 70
     1
102
RTVSPost2010Prop42
 90
       50
102
RTVSPost2010PropOp42
 70
     1
102
RTVSPost2010Prop43
 90
        3
102
RTVSPost2010PropOp43
 70
     1
102
RTVSPost2010Prop44ColorIndex
 90
        5
102
RTVSPost2010Prop44ColorRGB
 90
      255
102
RTVSPost2010PropOp44
 70
     1
102
RTVSPost2010Prop45
280
     0
102
RTVSPost2010PropOp45
 70
     1
102
RTVSPost2010Prop46
 90
       50
102
RTVSPost2010PropOp46
 70
     1
102
RTVSPost2010Prop47
 90
       50
102
RTVSPost2010PropOp47
 70
     1
102
RTVSPost2010Prop48
 90
       50
102
RTVSPost2010PropOp48
 70
     1
102
RTVSPost2010Prop49
280
     0
102
RTVSPost2010PropOp49
 70
     1
102
RTVSPost2010Prop50
 90
       50
102
RTVSPost2010PropOp50
 70
     1
102
RTVSPost2010Prop51ColorIndex
 90
      256
102
RTVSPost2010Prop51ColorRGB
 90
-16777216
102
RTVSPost2010PropOp51
 70
     0
102
RTVSPost2010Prop52
140
1.0
102
RTVSPost2010PropOp52
 70
     0
102
RTVSPost2010Prop53
 90
        2
102
RTVSPost2010PropOp53
 70
     1
102
RTVSPost2010Prop54
  1
strokes_ogs.tif
102
RTVSPost2010PropOp54
 70
     1
102
RTVSPost2010Prop55
280
     0
102
RTVSPost2010PropOp55
 70
     1
102
RTVSPost2010Prop56
140
1.0
102
RTVSPost2010PropOp56
 70
     1
102
RTVSPost2010Prop57
140
1.0
102
RTVSPost2010PropOp57
 70
     1
102
RTVSPropertyOp0
 70
     1
102
RTVSPropertyOp1
 70
     1
102
RTVSPropertyOp2
 70
     1
102
RTVSPropertyOp3
 70
     1
102
RTVSPropertyOp4
 70
     1
102
RTVSPropertyOp5
 70
     1
102
RTVSPropertyOp6
 70
     1
102
RTVSPropertyOp7
 70
     1
102
RTVSPropertyOp8
 70
     1
102
RTVSPropertyOp9
 70
     1
102
RTVSPropertyOp10
 70
     1
102
RTVSPropertyOp11
 70
     1
102
RTVSPropertyOp12
 70
     1
102
RTVSPropertyOp13
 70
     1
102
RTVSPropertyOp14
 70
     1
102
RTVSPropertyOp15
 70
     1
102
RTVSPropertyOp16
 70
     1
102
RTVSPropertyOp17
 70
     1
102
RTVSPropertyOp18
 70
     1
102
RTVSPropertyOp19
 70
     1
102
RTVSPropertyOp20
 70
     1
102
RTVSPropertyOp21
 70
     1
102
RTVSPropertyOp22
 70
     1
102
RTVSPropertyOp23
 70
     1
102
RTVSPropertyOp24
 70
     1
102
RTVSPropertyOp25
 70
     1
102
RTVSPropertyOp26
 70
     1
102
RTVSPropertyOp27
 70
     1
102
RTVSPropertyOp28
 70
     1
102
RTVSPropertyOp29
 70
     1
102
RTVSPropertyOp30
 70
     1
102
RTVSPropertyOp31
 70
     1
102
RTVSPropertyOp32
 70
     1
102
RTVSPropertyOp33
 70
     1
102
RTVSPropertyOp34
 70
     1
102
RTVSPropertyOp35
 70
     1
102
RTVSPropertyOp36
 70
     1
102
RTVSPropertyOp37
 70
     1
102
RTVSPropertyOp38
 70
     1
102
RTVSPropertyOp39
 70
     1
102
RTVSPropertyOp40
 70
     1
102
RTVSPropertyOp41
 70
     1
102
RTVSPropertyOp42
 70
     1
102
RTVSPropertyOp43
 70
     1
102
RTVSPropertyOp44
 70
     1
102
RTVSPropertyOp45
 70
     1
102
RTVSPropertyOp46
 70
     1
102
RTVSPropertyOp47
 70
     1
102
RTVSPropertyOp48
 70
     1
102
RTVSPropertyOp49
 70
     1
102
RTVSPropertyOp50
 70
     1
102
RTVSPropertyOp51
 70
     0
102
RTVSPropertyOp52
 70
     0
102
RTVSPropertyOp53
 70
     1
102
RTVSPropertyOp54
 70
     1
102
RTVSPropertyOp55
 70
     1
102
RTVSPropertyOp56
 70
     1
102
RTVSPropertyOp57
 70
     1
102
RTVSPropertyOp58
 70
     1
102
RTVSPropertyOp59
 70
     1
102
RTVSPropertyOp60
 70
     1
102
RTVSPropertyOp61
 70
     1
102
RTVSPropertyOp62
 70
     1
  0
XRECORD
  5
378
102
{ACAD_REACTORS
330
377
102
}
330
377
100
AcDbXrecord
280
     1
102
RTVSPost2010Prop28
280
     0
102
RTVSPost2010PropOp28
 70
     1
102
RTVSPost2010Prop29
280
     1
102
RTVSPost2010PropOp29
 70
     1
102
RTVSPost2010Prop30
280
     1
102
RTVSPost2010PropOp30
 70
     1
102
RTVSPost2010Prop31
280
     0
102
RTVSPost2010PropOp31
 70
     1
102
RTVSPost2010Prop32
280
     0
102
RTVSPost2010PropOp32
 70
     1
102
RTVSPost2010Prop33
280
     0
102
RTVSPost2010PropOp33
 70
     1
102
RTVSPost2010Prop34
280
     0
102
RTVSPost2010PropOp34
 70
     1
102
RTVSPost2010Prop35
280
     0
102
RTVSPost2010PropOp35
 70
     1
102
RTVSPost2010Prop36
280
     0
102
RTVSPost2010PropOp36
 70
     1
102
RTVSPost2010Prop37
 90
       50
102
RTVSPost2010PropOp37
 70
     1
102
RTVSPost2010Prop38
140
0.0
102
RTVSPost2010PropOp38
 70
     1
102
RTVSPost2010Prop39
140
1.0
102
RTVSPost2010PropOp39
 70
     1
102
RTVSPost2010Prop40
 90
        0
102
RTVSPost2010PropOp40
 70
     1
102
RTVSPost2010Prop41ColorIndex
 90
       18
102
RTVSPost2010Prop41ColorRGB
 90
        0
102
RTVSPost2010PropOp41
 70
     1
102
RTVSPost2010Prop42
 90
       50
102
RTVSPost2010PropOp42
 70
     1
102
RTVSPost2010Prop43
 90
        3
102
RTVSPost2010PropOp43
 70
     1
102
RTVSPost2010Prop44ColorIndex
 90
        5
102
RTVSPost2010Prop44ColorRGB
 90
      255
102
RTVSPost2010PropOp44
 70
     1
102
RTVSPost2010Prop45
280
     0
102
RTVSPost2010PropOp45
 70
     1
102
RTVSPost2010Prop46
 90
       50
102
RTVSPost2010PropOp46
 70
     1
102
RTVSPost2010Prop47
 90
       50
102
RTVSPost2010PropOp47
 70
     1
102
RTVSPost2010Prop48
 90
       50
102
RTVSPost2010PropOp48
 70
     1
102
RTVSPost2010Prop49
280
     0
102
RTVSPost2010PropOp49
 70
     1
102
RTVSPost2010Prop50
 90
       50
102
RTVSPost2010PropOp50
 70
     1
102
RTVSPost2010Prop51ColorIndex
 90
      256
102
RTVSPost2010Prop51ColorRGB
 90
-16777216
102
RTVSPost2010PropOp51
 70
     0
102
RTVSPost2010Prop52
140
1.0
102
RTVSPost2010PropOp52
 70
     0
102
RTVSPost2010Prop53
 90
        2
102
RTVSPost2010PropOp53
 70
     1
102
RTVSPost2010Prop54
  1
strokes_ogs.tif
102
RTVSPost2010PropOp54
 70
     1
102
RTVSPost2010Prop55
280
     0
102
RTVSPost2010PropOp55
 70
     1
102
RTVSPost2010Prop56
140
1.0
102
RTVSPost2010PropOp56
 70
     1
102
RTVSPost2010Prop57
140
1.0
102
RTVSPost2010PropOp57
 70
     1
102
RTVSPropertyOp0
 70
     1
102
RTVSPropertyOp1
 70
     1
102
RTVSPropertyOp2
 70
     1
102
RTVSPropertyOp3
 70
     1
102
RTVSPropertyOp4
 70
     1
102
RTVSPropertyOp5
 70
     1
102
RTVSPropertyOp6
 70
     1
102
RTVSPropertyOp7
 70
     1
102
RTVSPropertyOp8
 70
     1
102
RTVSPropertyOp9
 70
     1
102
RTVSPropertyOp10
 70
     1
102
RTVSPropertyOp11
 70
     1
102
RTVSPropertyOp12
 70
     1
102
RTVSPropertyOp13
 70
     1
102
RTVSPropertyOp14
 70
     1
102
RTVSPropertyOp15
 70
     1
102
RTVSPropertyOp16
 70
     1
102
RTVSPropertyOp17
 70
     1
102
RTVSPropertyOp18
 70
     1
102
RTVSPropertyOp19
 70
     1
102
RTVSPropertyOp20
 70
     1
102
RTVSPropertyOp21
 70
     1
102
RTVSPropertyOp22
 70
     1
102
RTVSPropertyOp23
 70
     1
102
RTVSPropertyOp24
 70
     1
102
RTVSPropertyOp25
 70
     1
102
RTVSPropertyOp26
 70
     1
102
RTVSPropertyOp27
 70
     1
102
RTVSPropertyOp28
 70
     1
102
RTVSPropertyOp29
 70
     1
102
RTVSPropertyOp30
 70
     1
102
RTVSPropertyOp31
 70
     1
102
RTVSPropertyOp32
 70
     1
102
RTVSPropertyOp33
 70
     1
102
RTVSPropertyOp34
 70
     1
102
RTVSPropertyOp35
 70
     1
102
RTVSPropertyOp36
 70
     1
102
RTVSPropertyOp37
 70
     1
102
RTVSPropertyOp38
 70
     1
102
RTVSPropertyOp39
 70
     1
102
RTVSPropertyOp40
 70
     1
102
RTVSPropertyOp41
 70
     1
102
RTVSPropertyOp42
 70
     1
102
RTVSPropertyOp43
 70
     1
102
RTVSPropertyOp44
 70
     1
102
RTVSPropertyOp45
 70
     1
102
RTVSPropertyOp46
 70
     1
102
RTVSPropertyOp47
 70
     1
102
RTVSPropertyOp48
 70
     1
102
RTVSPropertyOp49
 70
     1
102
RTVSPropertyOp50
 70
     1
102
RTVSPropertyOp51
 70
     0
102
RTVSPropertyOp52
 70
     0
102
RTVSPropertyOp53
 70
     1
102
RTVSPropertyOp54
 70
     1
102
RTVSPropertyOp55
 70
     1
102
RTVSPropertyOp56
 70
     1
102
RTVSPropertyOp57
 70
     1
102
RTVSPropertyOp58
 70
     1
102
RTVSPropertyOp59
 70
     1
102
RTVSPropertyOp60
 70
     1
102
RTVSPropertyOp61
 70
     1
102
RTVSPropertyOp62
 70
     1
  0
XRECORD
  5
394
102
{ACAD_REACTORS
330
393
102
}
330
393
100
AcDbXrecord
280
     1
102
RTVSPost2010Prop28
280
     0
102
RTVSPost2010PropOp28
 70
     1
102
RTVSPost2010Prop29
280
     1
102
RTVSPost2010PropOp29
 70
     1
102
RTVSPost2010Prop30
280
     1
102
RTVSPost2010PropOp30
 70
     1
102
RTVSPost2010Prop31
280
     0
102
RTVSPost2010PropOp31
 70
     1
102
RTVSPost2010Prop32
280
     0
102
RTVSPost2010PropOp32
 70
     1
102
RTVSPost2010Prop33
280
     0
102
RTVSPost2010PropOp33
 70
     1
102
RTVSPost2010Prop34
280
     0
102
RTVSPost2010PropOp34
 70
     1
102
RTVSPost2010Prop35
280
     0
102
RTVSPost2010PropOp35
 70
     1
102
RTVSPost2010Prop36
280
     0
102
RTVSPost2010PropOp36
 70
     1
102
RTVSPost2010Prop37
 90
       50
102
RTVSPost2010PropOp37
 70
     0
102
RTVSPost2010Prop38
140
0.0
102
RTVSPost2010PropOp38
 70
     0
102
RTVSPost2010Prop39
140
1.0
102
RTVSPost2010PropOp39
 70
     0
102
RTVSPost2010Prop40
 90
        0
102
RTVSPost2010PropOp40
 70
     0
102
RTVSPost2010Prop41ColorIndex
 90
       18
102
RTVSPost2010Prop41ColorRGB
 90
        0
102
RTVSPost2010PropOp41
 70
     0
102
RTVSPost2010Prop42
 90
       50
102
RTVSPost2010PropOp42
 70
     0
102
RTVSPost2010Prop43
 90
        3
102
RTVSPost2010PropOp43
 70
     0
102
RTVSPost2010Prop44ColorIndex
 90
        5
102
RTVSPost2010Prop44ColorRGB
 90
      255
102
RTVSPost2010PropOp44
 70
     0
102
RTVSPost2010Prop45
280
     0
102
RTVSPost2010PropOp45
 70
     1
102
RTVSPost2010Prop46
 90
       50
102
RTVSPost2010PropOp46
 70
     0
102
RTVSPost2010Prop47
 90
       50
102
RTVSPost2010PropOp47
 70
     0
102
RTVSPost2010Prop48
 90
       50
102
RTVSPost2010PropOp48
 70
     0
102
RTVSPost2010Prop49
280
     0
102
RTVSPost2010PropOp49
 70
     1
102
RTVSPost2010Prop50
 90
       50
102
RTVSPost2010PropOp50
 70
     0
102
RTVSPost2010Prop51ColorIndex
 90
      256
102
RTVSPost2010Prop51ColorRGB
 90
-16777216
102
RTVSPost2010PropOp51
 70
     0
102
RTVSPost2010Prop52
140
1.0
102
RTVSPost2010PropOp52
 70
     0
102
RTVSPost2010Prop53
 90
        2
102
RTVSPost2010PropOp53
 70
     0
102
RTVSPost2010Prop54
  1
strokes_ogs.tif
102
RTVSPost2010PropOp54
 70
     0
102
RTVSPost2010Prop55
280
     0
102
RTVSPost2010PropOp55
 70
     1
102
RTVSPost2010Prop56
140
1.0
102
RTVSPost2010PropOp56
 70
     0
102
RTVSPost2010Prop57
140
1.0
102
RTVSPost2010PropOp57
 70
     0
102
RTVSPropertyOp0
 70
     0
102
RTVSPropertyOp1
 70
     0
102
RTVSPropertyOp2
 70
     0
102
RTVSPropertyOp3
 70
     0
102
RTVSPropertyOp4
 70
     0
102
RTVSPropertyOp5
 70
     0
102
RTVSPropertyOp6
 70
     0
102
RTVSPropertyOp7
 70
     0
102
RTVSPropertyOp8
 70
     0
102
RTVSPropertyOp9
 70
     0
102
RTVSPropertyOp10
 70
     0
102
RTVSPropertyOp11
 70
     0
102
RTVSPropertyOp12
 70
     0
102
RTVSPropertyOp13
 70
     0
102
RTVSPropertyOp14
 70
     2
102
RTVSPropertyOp15
 70
     0
102
RTVSPropertyOp16
 70
     0
102
RTVSPropertyOp17
 70
     0
102
RTVSPropertyOp18
 70
     0
102
RTVSPropertyOp19
 70
     0
102
RTVSPropertyOp20
 70
     0
102
RTVSPropertyOp21
 70
     0
102
RTVSPropertyOp22
 70
     0
102
RTVSPropertyOp23
 70
     0
102
RTVSPropertyOp24
 70
     0
102
RTVSPropertyOp25
 70
     0
102
RTVSPropertyOp26
 70
     0
102
RTVSPropertyOp27
 70
     0
102
RTVSPropertyOp28
 70
     1
102
RTVSPropertyOp29
 70
     1
102
RTVSPropertyOp30
 70
     1
102
RTVSPropertyOp31
 70
     1
102
RTVSPropertyOp32
 70
     1
102
RTVSPropertyOp33
 70
     1
102
RTVSPropertyOp34
 70
     1
102
RTVSPropertyOp35
 70
     1
102
RTVSPropertyOp36
 70
     1
102
RTVSPropertyOp37
 70
     0
102
RTVSPropertyOp38
 70
     0
102
RTVSPropertyOp39
 70
     0
102
RTVSPropertyOp40
 70
     0
102
RTVSPropertyOp41
 70
     0
102
RTVSPropertyOp42
 70
     0
102
RTVSPropertyOp43
 70
     0
102
RTVSPropertyOp44
 70
     0
102
RTVSPropertyOp45
 70
     1
102
RTVSPropertyOp46
 70
     0
102
RTVSPropertyOp47
 70
     0
102
RTVSPropertyOp48
 70
     0
102
RTVSPropertyOp49
 70
     1
102
RTVSPropertyOp50
 70
     0
102
RTVSPropertyOp51
 70
     0
102
RTVSPropertyOp52
 70
     0
102
RTVSPropertyOp53
 70
     0
102
RTVSPropertyOp54
 70
     0
102
RTVSPropertyOp55
 70
     1
102
RTVSPropertyOp56
 70
     0
102
RTVSPropertyOp57
 70
     0
102
RTVSPropertyOp58
 70
     0
102
RTVSPropertyOp59
 70
     0
102
RTVSPropertyOp60
 70
     0
102
RTVSPropertyOp61
 70
     0
102
RTVSPropertyOp62
 70
     0
  0
XRECORD
  5
384
102
{ACAD_REACTORS
330
383
102
}
330
383
100
AcDbXrecord
280
     1
102
RTVSPost2010Prop28
280
     0
102
RTVSPost2010PropOp28
 70
     1
102
RTVSPost2010Prop29
280
     1
102
RTVSPost2010PropOp29
 70
     1
102
RTVSPost2010Prop30
280
     1
102
RTVSPost2010PropOp30
 70
     1
102
RTVSPost2010Prop31
280
     0
102
RTVSPost2010PropOp31
 70
     1
102
RTVSPost2010Prop32
280
     0
102
RTVSPost2010PropOp32
 70
     1
102
RTVSPost2010Prop33
280
     0
102
RTVSPost2010PropOp33
 70
     1
102
RTVSPost2010Prop34
280
     0
102
RTVSPost2010PropOp34
 70
     1
102
RTVSPost2010Prop35
280
     0
102
RTVSPost2010PropOp35
 70
     1
102
RTVSPost2010Prop36
280
     0
102
RTVSPost2010PropOp36
 70
     1
102
RTVSPost2010Prop37
 90
       50
102
RTVSPost2010PropOp37
 70
     1
102
RTVSPost2010Prop38
140
0.0
102
RTVSPost2010PropOp38
 70
     1
102
RTVSPost2010Prop39
140
1.0
102
RTVSPost2010PropOp39
 70
     1
102
RTVSPost2010Prop40
 90
        0
102
RTVSPost2010PropOp40
 70
     1
102
RTVSPost2010Prop41ColorIndex
 90
       18
102
RTVSPost2010Prop41ColorRGB
 90
        0
102
RTVSPost2010PropOp41
 70
     1
102
RTVSPost2010Prop42
 90
       50
102
RTVSPost2010PropOp42
 70
     1
102
RTVSPost2010Prop43
 90
        3
102
RTVSPost2010PropOp43
 70
     1
102
RTVSPost2010Prop44ColorIndex
 90
        5
102
RTVSPost2010Prop44ColorRGB
 90
      255
102
RTVSPost2010PropOp44
 70
     1
102
RTVSPost2010Prop45
280
     0
102
RTVSPost2010PropOp45
 70
     1
102
RTVSPost2010Prop46
 90
       50
102
RTVSPost2010PropOp46
 70
     1
102
RTVSPost2010Prop47
 90
       50
102
RTVSPost2010PropOp47
 70
     1
102
RTVSPost2010Prop48
 90
       50
102
RTVSPost2010PropOp48
 70
     1
102
RTVSPost2010Prop49
280
     0
102
RTVSPost2010PropOp49
 70
     1
102
RTVSPost2010Prop50
 90
       50
102
RTVSPost2010PropOp50
 70
     1
102
RTVSPost2010Prop51ColorIndex
 90
      256
102
RTVSPost2010Prop51ColorRGB
 90
-16777216
102
RTVSPost2010PropOp51
 70
     0
102
RTVSPost2010Prop52
140
1.0
102
RTVSPost2010PropOp52
 70
     0
102
RTVSPost2010Prop53
 90
        2
102
RTVSPost2010PropOp53
 70
     1
102
RTVSPost2010Prop54
  1
strokes_ogs.tif
102
RTVSPost2010PropOp54
 70
     1
102
RTVSPost2010Prop55
280
     0
102
RTVSPost2010PropOp55
 70
     1
102
RTVSPost2010Prop56
140
1.0
102
RTVSPost2010PropOp56
 70
     1
102
RTVSPost2010Prop57
140
1.0
102
RTVSPost2010PropOp57
 70
     1
102
RTVSPropertyOp0
 70
     1
102
RTVSPropertyOp1
 70
     1
102
RTVSPropertyOp2
 70
     1
102
RTVSPropertyOp3
 70
     1
102
RTVSPropertyOp4
 70
     1
102
RTVSPropertyOp5
 70
     1
102
RTVSPropertyOp6
 70
     1
102
RTVSPropertyOp7
 70
     1
102
RTVSPropertyOp8
 70
     1
102
RTVSPropertyOp9
 70
     1
102
RTVSPropertyOp10
 70
     1
102
RTVSPropertyOp11
 70
     1
102
RTVSPropertyOp12
 70
     1
102
RTVSPropertyOp13
 70
     1
102
RTVSPropertyOp14
 70
     1
102
RTVSPropertyOp15
 70
     1
102
RTVSPropertyOp16
 70
     1
102
RTVSPropertyOp17
 70
     1
102
RTVSPropertyOp18
 70
     1
102
RTVSPropertyOp19
 70
     1
102
RTVSPropertyOp20
 70
     1
102
RTVSPropertyOp21
 70
     1
102
RTVSPropertyOp22
 70
     1
102
RTVSPropertyOp23
 70
     1
102
RTVSPropertyOp24
 70
     1
102
RTVSPropertyOp25
 70
     1
102
RTVSPropertyOp26
 70
     1
102
RTVSPropertyOp27
 70
     1
102
RTVSPropertyOp28
 70
     1
102
RTVSPropertyOp29
 70
     1
102
RTVSPropertyOp30
 70
     1
102
RTVSPropertyOp31
 70
     1
102
RTVSPropertyOp32
 70
     1
102
RTVSPropertyOp33
 70
     1
102
RTVSPropertyOp34
 70
     1
102
RTVSPropertyOp35
 70
     1
102
RTVSPropertyOp36
 70
     1
102
RTVSPropertyOp37
 70
     1
102
RTVSPropertyOp38
 70
     1
102
RTVSPropertyOp39
 70
     1
102
RTVSPropertyOp40
 70
     1
102
RTVSPropertyOp41
 70
     1
102
RTVSPropertyOp42
 70
     1
102
RTVSPropertyOp43
 70
     1
102
RTVSPropertyOp44
 70
     1
102
RTVSPropertyOp45
 70
     1
102
RTVSPropertyOp46
 70
     1
102
RTVSPropertyOp47
 70
     1
102
RTVSPropertyOp48
 70
     1
102
RTVSPropertyOp49
 70
     1
102
RTVSPropertyOp50
 70
     1
102
RTVSPropertyOp51
 70
     0
102
RTVSPropertyOp52
 70
     0
102
RTVSPropertyOp53
 70
     1
102
RTVSPropertyOp54
 70
     1
102
RTVSPropertyOp55
 70
     1
102
RTVSPropertyOp56
 70
     1
102
RTVSPropertyOp57
 70
     1
102
RTVSPropertyOp58
 70
     1
102
RTVSPropertyOp59
 70
     1
102
RTVSPropertyOp60
 70
     1
102
RTVSPropertyOp61
 70
     1
102
RTVSPropertyOp62
 70
     1
  0
XRECORD
  5
396
102
{ACAD_REACTORS
330
395
102
}
330
395
100
AcDbXrecord
280
     1
102
RTVSPost2010Prop28
280
     0
102
RTVSPost2010PropOp28
 70
     1
102
RTVSPost2010Prop29
280
     1
102
RTVSPost2010PropOp29
 70
     1
102
RTVSPost2010Prop30
280
     1
102
RTVSPost2010PropOp30
 70
     1
102
RTVSPost2010Prop31
280
     0
102
RTVSPost2010PropOp31
 70
     1
102
RTVSPost2010Prop32
280
     0
102
RTVSPost2010PropOp32
 70
     1
102
RTVSPost2010Prop33
280
     0
102
RTVSPost2010PropOp33
 70
     1
102
RTVSPost2010Prop34
280
     0
102
RTVSPost2010PropOp34
 70
     1
102
RTVSPost2010Prop35
280
     0
102
RTVSPost2010PropOp35
 70
     1
102
RTVSPost2010Prop36
280
     0
102
RTVSPost2010PropOp36
 70
     1
102
RTVSPost2010Prop37
 90
       50
102
RTVSPost2010PropOp37
 70
     0
102
RTVSPost2010Prop38
140
0.0
102
RTVSPost2010PropOp38
 70
     0
102
RTVSPost2010Prop39
140
1.0
102
RTVSPost2010PropOp39
 70
     0
102
RTVSPost2010Prop40
 90
        0
102
RTVSPost2010PropOp40
 70
     0
102
RTVSPost2010Prop41ColorIndex
 90
       18
102
RTVSPost2010Prop41ColorRGB
 90
        0
102
RTVSPost2010PropOp41
 70
     0
102
RTVSPost2010Prop42
 90
       50
102
RTVSPost2010PropOp42
 70
     0
102
RTVSPost2010Prop43
 90
        3
102
RTVSPost2010PropOp43
 70
     0
102
RTVSPost2010Prop44ColorIndex
 90
        5
102
RTVSPost2010Prop44ColorRGB
 90
      255
102
RTVSPost2010PropOp44
 70
     0
102
RTVSPost2010Prop45
280
     0
102
RTVSPost2010PropOp45
 70
     1
102
RTVSPost2010Prop46
 90
       50
102
RTVSPost2010PropOp46
 70
     0
102
RTVSPost2010Prop47
 90
       50
102
RTVSPost2010PropOp47
 70
     0
102
RTVSPost2010Prop48
 90
       50
102
RTVSPost2010PropOp48
 70
     0
102
RTVSPost2010Prop49
280
     0
102
RTVSPost2010PropOp49
 70
     1
102
RTVSPost2010Prop50
 90
       50
102
RTVSPost2010PropOp50
 70
     0
102
RTVSPost2010Prop51ColorIndex
 90
      256
102
RTVSPost2010Prop51ColorRGB
 90
-16777216
102
RTVSPost2010PropOp51
 70
     0
102
RTVSPost2010Prop52
140
1.0
102
RTVSPost2010PropOp52
 70
     0
102
RTVSPost2010Prop53
 90
        2
102
RTVSPost2010PropOp53
 70
     0
102
RTVSPost2010Prop54
  1
strokes_ogs.tif
102
RTVSPost2010PropOp54
 70
     0
102
RTVSPost2010Prop55
280
     0
102
RTVSPost2010PropOp55
 70
     1
102
RTVSPost2010Prop56
140
1.0
102
RTVSPost2010PropOp56
 70
     0
102
RTVSPost2010Prop57
140
1.0
102
RTVSPost2010PropOp57
 70
     0
102
RTVSPropertyOp0
 70
     0
102
RTVSPropertyOp1
 70
     0
102
RTVSPropertyOp2
 70
     0
102
RTVSPropertyOp3
 70
     0
102
RTVSPropertyOp4
 70
     0
102
RTVSPropertyOp5
 70
     0
102
RTVSPropertyOp6
 70
     0
102
RTVSPropertyOp7
 70
     0
102
RTVSPropertyOp8
 70
     0
102
RTVSPropertyOp9
 70
     0
102
RTVSPropertyOp10
 70
     0
102
RTVSPropertyOp11
 70
     0
102
RTVSPropertyOp12
 70
     0
102
RTVSPropertyOp13
 70
     0
102
RTVSPropertyOp14
 70
     2
102
RTVSPropertyOp15
 70
     0
102
RTVSPropertyOp16
 70
     0
102
RTVSPropertyOp17
 70
     0
102
RTVSPropertyOp18
 70
     0
102
RTVSPropertyOp19
 70
     0
102
RTVSPropertyOp20
 70
     0
102
RTVSPropertyOp21
 70
     0
102
RTVSPropertyOp22
 70
     0
102
RTVSPropertyOp23
 70
     0
102
RTVSPropertyOp24
 70
     0
102
RTVSPropertyOp25
 70
     0
102
RTVSPropertyOp26
 70
     0
102
RTVSPropertyOp27
 70
     0
102
RTVSPropertyOp28
 70
     1
102
RTVSPropertyOp29
 70
     1
102
RTVSPropertyOp30
 70
     1
102
RTVSPropertyOp31
 70
     1
102
RTVSPropertyOp32
 70
     1
102
RTVSPropertyOp33
 70
     1
102
RTVSPropertyOp34
 70
     1
102
RTVSPropertyOp35
 70
     1
102
RTVSPropertyOp36
 70
     1
102
RTVSPropertyOp37
 70
     0
102
RTVSPropertyOp38
 70
     0
102
RTVSPropertyOp39
 70
     0
102
RTVSPropertyOp40
 70
     0
102
RTVSPropertyOp41
 70
     0
102
RTVSPropertyOp42
 70
     0
102
RTVSPropertyOp43
 70
     0
102
RTVSPropertyOp44
 70
     0
102
RTVSPropertyOp45
 70
     1
102
RTVSPropertyOp46
 70
     0
102
RTVSPropertyOp47
 70
     0
102
RTVSPropertyOp48
 70
     0
102
RTVSPropertyOp49
 70
     1
102
RTVSPropertyOp50
 70
     0
102
RTVSPropertyOp51
 70
     0
102
RTVSPropertyOp52
 70
     0
102
RTVSPropertyOp53
 70
     0
102
RTVSPropertyOp54
 70
     0
102
RTVSPropertyOp55
 70
     1
102
RTVSPropertyOp56
 70
     0
102
RTVSPropertyOp57
 70
     0
102
RTVSPropertyOp58
 70
     0
102
RTVSPropertyOp59
 70
     0
102
RTVSPropertyOp60
 70
     0
102
RTVSPropertyOp61
 70
     0
102
RTVSPropertyOp62
 70
     0
  0
XRECORD
  5
37C
102
{ACAD_REACTORS
330
37B
102
}
330
37B
100
AcDbXrecord
280
     1
102
RTVSPost2010Prop28
280
     0
102
RTVSPost2010PropOp28
 70
     1
102
RTVSPost2010Prop29
280
     1
102
RTVSPost2010PropOp29
 70
     1
102
RTVSPost2010Prop30
280
     1
102
RTVSPost2010PropOp30
 70
     1
102
RTVSPost2010Prop31
280
     0
102
RTVSPost2010PropOp31
 70
     1
102
RTVSPost2010Prop32
280
     0
102
RTVSPost2010PropOp32
 70
     1
102
RTVSPost2010Prop33
280
     0
102
RTVSPost2010PropOp33
 70
     1
102
RTVSPost2010Prop34
280
     0
102
RTVSPost2010PropOp34
 70
     1
102
RTVSPost2010Prop35
280
     0
102
RTVSPost2010PropOp35
 70
     1
102
RTVSPost2010Prop36
280
     0
102
RTVSPost2010PropOp36
 70
     1
102
RTVSPost2010Prop37
 90
       50
102
RTVSPost2010PropOp37
 70
     1
102
RTVSPost2010Prop38
140
0.0
102
RTVSPost2010PropOp38
 70
     1
102
RTVSPost2010Prop39
140
1.0
102
RTVSPost2010PropOp39
 70
     1
102
RTVSPost2010Prop40
 90
        0
102
RTVSPost2010PropOp40
 70
     1
102
RTVSPost2010Prop41ColorIndex
 90
       18
102
RTVSPost2010Prop41ColorRGB
 90
        0
102
RTVSPost2010PropOp41
 70
     1
102
RTVSPost2010Prop42
 90
       50
102
RTVSPost2010PropOp42
 70
     1
102
RTVSPost2010Prop43
 90
        3
102
RTVSPost2010PropOp43
 70
     1
102
RTVSPost2010Prop44ColorIndex
 90
        5
102
RTVSPost2010Prop44ColorRGB
 90
      255
102
RTVSPost2010PropOp44
 70
     1
102
RTVSPost2010Prop45
280
     0
102
RTVSPost2010PropOp45
 70
     1
102
RTVSPost2010Prop46
 90
       50
102
RTVSPost2010PropOp46
 70
     1
102
RTVSPost2010Prop47
 90
       50
102
RTVSPost2010PropOp47
 70
     1
102
RTVSPost2010Prop48
 90
       50
102
RTVSPost2010PropOp48
 70
     1
102
RTVSPost2010Prop49
280
     0
102
RTVSPost2010PropOp49
 70
     1
102
RTVSPost2010Prop50
 90
       50
102
RTVSPost2010PropOp50
 70
     1
102
RTVSPost2010Prop51ColorIndex
 90
      256
102
RTVSPost2010Prop51ColorRGB
 90
-16777216
102
RTVSPost2010PropOp51
 70
     0
102
RTVSPost2010Prop52
140
1.0
102
RTVSPost2010PropOp52
 70
     0
102
RTVSPost2010Prop53
 90
        2
102
RTVSPost2010PropOp53
 70
     1
102
RTVSPost2010Prop54
  1
strokes_ogs.tif
102
RTVSPost2010PropOp54
 70
     1
102
RTVSPost2010Prop55
280
     0
102
RTVSPost2010PropOp55
 70
     1
102
RTVSPost2010Prop56
140
1.0
102
RTVSPost2010PropOp56
 70
     1
102
RTVSPost2010Prop57
140
1.0
102
RTVSPost2010PropOp57
 70
     1
102
RTVSPropertyOp0
 70
     1
102
RTVSPropertyOp1
 70
     1
102
RTVSPropertyOp2
 70
     1
102
RTVSPropertyOp3
 70
     1
102
RTVSPropertyOp4
 70
     1
102
RTVSPropertyOp5
 70
     1
102
RTVSPropertyOp6
 70
     1
102
RTVSPropertyOp7
 70
     1
102
RTVSPropertyOp8
 70
     1
102
RTVSPropertyOp9
 70
     1
102
RTVSPropertyOp10
 70
     1
102
RTVSPropertyOp11
 70
     1
102
RTVSPropertyOp12
 70
     1
102
RTVSPropertyOp13
 70
     1
102
RTVSPropertyOp14
 70
     1
102
RTVSPropertyOp15
 70
     1
102
RTVSPropertyOp16
 70
     1
102
RTVSPropertyOp17
 70
     1
102
RTVSPropertyOp18
 70
     1
102
RTVSPropertyOp19
 70
     1
102
RTVSPropertyOp20
 70
     1
102
RTVSPropertyOp21
 70
     1
102
RTVSPropertyOp22
 70
     1
102
RTVSPropertyOp23
 70
     1
102
RTVSPropertyOp24
 70
     1
102
RTVSPropertyOp25
 70
     1
102
RTVSPropertyOp26
 70
     1
102
RTVSPropertyOp27
 70
     1
102
RTVSPropertyOp28
 70
     1
102
RTVSPropertyOp29
 70
     1
102
RTVSPropertyOp30
 70
     1
102
RTVSPropertyOp31
 70
     1
102
RTVSPropertyOp32
 70
     1
102
RTVSPropertyOp33
 70
     1
102
RTVSPropertyOp34
 70
     1
102
RTVSPropertyOp35
 70
     1
102
RTVSPropertyOp36
 70
     1
102
RTVSPropertyOp37
 70
     1
102
RTVSPropertyOp38
 70
     1
102
RTVSPropertyOp39
 70
     1
102
RTVSPropertyOp40
 70
     1
102
RTVSPropertyOp41
 70
     1
102
RTVSPropertyOp42
 70
     1
102
RTVSPropertyOp43
 70
     1
102
RTVSPropertyOp44
 70
     1
102
RTVSPropertyOp45
 70
     1
102
RTVSPropertyOp46
 70
     1
102
RTVSPropertyOp47
 70
     1
102
RTVSPropertyOp48
 70
     1
102
RTVSPropertyOp49
 70
     1
102
RTVSPropertyOp50
 70
     1
102
RTVSPropertyOp51
 70
     0
102
RTVSPropertyOp52
 70
     0
102
RTVSPropertyOp53
 70
     1
102
RTVSPropertyOp54
 70
     1
102
RTVSPropertyOp55
 70
     1
102
RTVSPropertyOp56
 70
     1
102
RTVSPropertyOp57
 70
     1
102
RTVSPropertyOp58
 70
     1
102
RTVSPropertyOp59
 70
     1
102
RTVSPropertyOp60
 70
     1
102
RTVSPropertyOp61
 70
     1
102
RTVSPropertyOp62
 70
     1
  0
XRECORD
  5
392
102
{ACAD_REACTORS
330
391
102
}
330
391
100
AcDbXrecord
280
     1
102
RTVSPost2010Prop28
280
     0
102
RTVSPost2010PropOp28
 70
     1
102
RTVSPost2010Prop29
280
     1
102
RTVSPost2010PropOp29
 70
     1
102
RTVSPost2010Prop30
280
     1
102
RTVSPost2010PropOp30
 70
     1
102
RTVSPost2010Prop31
280
     0
102
RTVSPost2010PropOp31
 70
     1
102
RTVSPost2010Prop32
280
     0
102
RTVSPost2010PropOp32
 70
     1
102
RTVSPost2010Prop33
280
     0
102
RTVSPost2010PropOp33
 70
     1
102
RTVSPost2010Prop34
280
     0
102
RTVSPost2010PropOp34
 70
     1
102
RTVSPost2010Prop35
280
     0
102
RTVSPost2010PropOp35
 70
     1
102
RTVSPost2010Prop36
280
     0
102
RTVSPost2010PropOp36
 70
     1
102
RTVSPost2010Prop37
 90
       50
102
RTVSPost2010PropOp37
 70
     1
102
RTVSPost2010Prop38
140
0.0
102
RTVSPost2010PropOp38
 70
     1
102
RTVSPost2010Prop39
140
1.0
102
RTVSPost2010PropOp39
 70
     1
102
RTVSPost2010Prop40
 90
        0
102
RTVSPost2010PropOp40
 70
     1
102
RTVSPost2010Prop41ColorIndex
 90
       18
102
RTVSPost2010Prop41ColorRGB
 90
        0
102
RTVSPost2010PropOp41
 70
     1
102
RTVSPost2010Prop42
 90
       50
102
RTVSPost2010PropOp42
 70
     1
102
RTVSPost2010Prop43
 90
        3
102
RTVSPost2010PropOp43
 70
     1
102
RTVSPost2010Prop44ColorIndex
 90
        5
102
RTVSPost2010Prop44ColorRGB
 90
      255
102
RTVSPost2010PropOp44
 70
     1
102
RTVSPost2010Prop45
280
     0
102
RTVSPost2010PropOp45
 70
     1
102
RTVSPost2010Prop46
 90
       50
102
RTVSPost2010PropOp46
 70
     1
102
RTVSPost2010Prop47
 90
       50
102
RTVSPost2010PropOp47
 70
     1
102
RTVSPost2010Prop48
 90
       50
102
RTVSPost2010PropOp48
 70
     1
102
RTVSPost2010Prop49
280
     0
102
RTVSPost2010PropOp49
 70
     1
102
RTVSPost2010Prop50
 90
       50
102
RTVSPost2010PropOp50
 70
     1
102
RTVSPost2010Prop51ColorIndex
 90
      256
102
RTVSPost2010Prop51ColorRGB
 90
-16777216
102
RTVSPost2010PropOp51
 70
     0
102
RTVSPost2010Prop52
140
1.0
102
RTVSPost2010PropOp52
 70
     0
102
RTVSPost2010Prop53
 90
        2
102
RTVSPost2010PropOp53
 70
     1
102
RTVSPost2010Prop54
  1
strokes_ogs.tif
102
RTVSPost2010PropOp54
 70
     1
102
RTVSPost2010Prop55
280
     0
102
RTVSPost2010PropOp55
 70
     1
102
RTVSPost2010Prop56
140
1.0
102
RTVSPost2010PropOp56
 70
     1
102
RTVSPost2010Prop57
140
1.0
102
RTVSPost2010PropOp57
 70
     1
102
RTVSPropertyOp0
 70
     1
102
RTVSPropertyOp1
 70
     1
102
RTVSPropertyOp2
 70
     1
102
RTVSPropertyOp3
 70
     1
102
RTVSPropertyOp4
 70
     1
102
RTVSPropertyOp5
 70
     1
102
RTVSPropertyOp6
 70
     1
102
RTVSPropertyOp7
 70
     1
102
RTVSPropertyOp8
 70
     1
102
RTVSPropertyOp9
 70
     1
102
RTVSPropertyOp10
 70
     1
102
RTVSPropertyOp11
 70
     1
102
RTVSPropertyOp12
 70
     1
102
RTVSPropertyOp13
 70
     1
102
RTVSPropertyOp14
 70
     1
102
RTVSPropertyOp15
 70
     1
102
RTVSPropertyOp16
 70
     1
102
RTVSPropertyOp17
 70
     1
102
RTVSPropertyOp18
 70
     1
102
RTVSPropertyOp19
 70
     1
102
RTVSPropertyOp20
 70
     1
102
RTVSPropertyOp21
 70
     1
102
RTVSPropertyOp22
 70
     1
102
RTVSPropertyOp23
 70
     1
102
RTVSPropertyOp24
 70
     1
102
RTVSPropertyOp25
 70
     1
102
RTVSPropertyOp26
 70
     1
102
RTVSPropertyOp27
 70
     1
102
RTVSPropertyOp28
 70
     1
102
RTVSPropertyOp29
 70
     1
102
RTVSPropertyOp30
 70
     1
102
RTVSPropertyOp31
 70
     1
102
RTVSPropertyOp32
 70
     1
102
RTVSPropertyOp33
 70
     1
102
RTVSPropertyOp34
 70
     1
102
RTVSPropertyOp35
 70
     1
102
RTVSPropertyOp36
 70
     1
102
RTVSPropertyOp37
 70
     1
102
RTVSPropertyOp38
 70
     1
102
RTVSPropertyOp39
 70
     1
102
RTVSPropertyOp40
 70
     1
102
RTVSPropertyOp41
 70
     1
102
RTVSPropertyOp42
 70
     1
102
RTVSPropertyOp43
 70
     1
102
RTVSPropertyOp44
 70
     1
102
RTVSPropertyOp45
 70
     1
102
RTVSPropertyOp46
 70
     1
102
RTVSPropertyOp47
 70
     1
102
RTVSPropertyOp48
 70
     1
102
RTVSPropertyOp49
 70
     1
102
RTVSPropertyOp50
 70
     1
102
RTVSPropertyOp51
 70
     0
102
RTVSPropertyOp52
 70
     0
102
RTVSPropertyOp53
 70
     1
102
RTVSPropertyOp54
 70
     1
102
RTVSPropertyOp55
 70
     1
102
RTVSPropertyOp56
 70
     1
102
RTVSPropertyOp57
 70
     1
102
RTVSPropertyOp58
 70
     1
102
RTVSPropertyOp59
 70
     1
102
RTVSPropertyOp60
 70
     1
102
RTVSPropertyOp61
 70
     1
102
RTVSPropertyOp62
 70
     1
  0
XRECORD
  5
390
102
{ACAD_REACTORS
330
38F
102
}
330
38F
100
AcDbXrecord
280
     1
102
RTVSPost2010Prop28
280
     0
102
RTVSPost2010PropOp28
 70
     1
102
RTVSPost2010Prop29
280
     1
102
RTVSPost2010PropOp29
 70
     1
102
RTVSPost2010Prop30
280
     1
102
RTVSPost2010PropOp30
 70
     1
102
RTVSPost2010Prop31
280
     0
102
RTVSPost2010PropOp31
 70
     1
102
RTVSPost2010Prop32
280
     0
102
RTVSPost2010PropOp32
 70
     1
102
RTVSPost2010Prop33
280
     0
102
RTVSPost2010PropOp33
 70
     1
102
RTVSPost2010Prop34
280
     0
102
RTVSPost2010PropOp34
 70
     1
102
RTVSPost2010Prop35
280
     0
102
RTVSPost2010PropOp35
 70
     1
102
RTVSPost2010Prop36
280
     0
102
RTVSPost2010PropOp36
 70
     1
102
RTVSPost2010Prop37
 90
       50
102
RTVSPost2010PropOp37
 70
     1
102
RTVSPost2010Prop38
140
0.0
102
RTVSPost2010PropOp38
 70
     1
102
RTVSPost2010Prop39
140
1.0
102
RTVSPost2010PropOp39
 70
     1
102
RTVSPost2010Prop40
 90
        0
102
RTVSPost2010PropOp40
 70
     1
102
RTVSPost2010Prop41ColorIndex
 90
       18
102
RTVSPost2010Prop41ColorRGB
 90
        0
102
RTVSPost2010PropOp41
 70
     1
102
RTVSPost2010Prop42
 90
       50
102
RTVSPost2010PropOp42
 70
     1
102
RTVSPost2010Prop43
 90
        3
102
RTVSPost2010PropOp43
 70
     1
102
RTVSPost2010Prop44ColorIndex
 90
        5
102
RTVSPost2010Prop44ColorRGB
 90
      255
102
RTVSPost2010PropOp44
 70
     1
102
RTVSPost2010Prop45
280
     0
102
RTVSPost2010PropOp45
 70
     1
102
RTVSPost2010Prop46
 90
       50
102
RTVSPost2010PropOp46
 70
     1
102
RTVSPost2010Prop47
 90
       50
102
RTVSPost2010PropOp47
 70
     1
102
RTVSPost2010Prop48
 90
       50
102
RTVSPost2010PropOp48
 70
     1
102
RTVSPost2010Prop49
280
     0
102
RTVSPost2010PropOp49
 70
     1
102
RTVSPost2010Prop50
 90
       50
102
RTVSPost2010PropOp50
 70
     1
102
RTVSPost2010Prop51ColorIndex
 90
      256
102
RTVSPost2010Prop51ColorRGB
 90
-16777216
102
RTVSPost2010PropOp51
 70
     0
102
RTVSPost2010Prop52
140
1.0
102
RTVSPost2010PropOp52
 70
     0
102
RTVSPost2010Prop53
 90
        2
102
RTVSPost2010PropOp53
 70
     1
102
RTVSPost2010Prop54
  1
strokes_ogs.tif
102
RTVSPost2010PropOp54
 70
     1
102
RTVSPost2010Prop55
280
     0
102
RTVSPost2010PropOp55
 70
     1
102
RTVSPost2010Prop56
140
1.0
102
RTVSPost2010PropOp56
 70
     1
102
RTVSPost2010Prop57
140
1.0
102
RTVSPost2010PropOp57
 70
     1
102
RTVSPropertyOp0
 70
     1
102
RTVSPropertyOp1
 70
     1
102
RTVSPropertyOp2
 70
     1
102
RTVSPropertyOp3
 70
     1
102
RTVSPropertyOp4
 70
     1
102
RTVSPropertyOp5
 70
     1
102
RTVSPropertyOp6
 70
     1
102
RTVSPropertyOp7
 70
     1
102
RTVSPropertyOp8
 70
     1
102
RTVSPropertyOp9
 70
     1
102
RTVSPropertyOp10
 70
     1
102
RTVSPropertyOp11
 70
     1
102
RTVSPropertyOp12
 70
     1
102
RTVSPropertyOp13
 70
     1
102
RTVSPropertyOp14
 70
     1
102
RTVSPropertyOp15
 70
     1
102
RTVSPropertyOp16
 70
     1
102
RTVSPropertyOp17
 70
     1
102
RTVSPropertyOp18
 70
     1
102
RTVSPropertyOp19
 70
     1
102
RTVSPropertyOp20
 70
     1
102
RTVSPropertyOp21
 70
     1
102
RTVSPropertyOp22
 70
     1
102
RTVSPropertyOp23
 70
     1
102
RTVSPropertyOp24
 70
     1
102
RTVSPropertyOp25
 70
     1
102
RTVSPropertyOp26
 70
     1
102
RTVSPropertyOp27
 70
     1
102
RTVSPropertyOp28
 70
     1
102
RTVSPropertyOp29
 70
     1
102
RTVSPropertyOp30
 70
     1
102
RTVSPropertyOp31
 70
     1
102
RTVSPropertyOp32
 70
     1
102
RTVSPropertyOp33
 70
     1
102
RTVSPropertyOp34
 70
     1
102
RTVSPropertyOp35
 70
     1
102
RTVSPropertyOp36
 70
     1
102
RTVSPropertyOp37
 70
     1
102
RTVSPropertyOp38
 70
     1
102
RTVSPropertyOp39
 70
     1
102
RTVSPropertyOp40
 70
     1
102
RTVSPropertyOp41
 70
     1
102
RTVSPropertyOp42
 70
     1
102
RTVSPropertyOp43
 70
     1
102
RTVSPropertyOp44
 70
     1
102
RTVSPropertyOp45
 70
     1
102
RTVSPropertyOp46
 70
     1
102
RTVSPropertyOp47
 70
     1
102
RTVSPropertyOp48
 70
     1
102
RTVSPropertyOp49
 70
     1
102
RTVSPropertyOp50
 70
     1
102
RTVSPropertyOp51
 70
     0
102
RTVSPropertyOp52
 70
     0
102
RTVSPropertyOp53
 70
     1
102
RTVSPropertyOp54
 70
     1
102
RTVSPropertyOp55
 70
     1
102
RTVSPropertyOp56
 70
     1
102
RTVSPropertyOp57
 70
     1
102
RTVSPropertyOp58
 70
     1
102
RTVSPropertyOp59
 70
     1
102
RTVSPropertyOp60
 70
     1
102
RTVSPropertyOp61
 70
     1
102
RTVSPropertyOp62
 70
     1
  0
XRECORD
  5
38A
102
{ACAD_REACTORS
330
389
102
}
330
389
100
AcDbXrecord
280
     1
102
RTVSPost2010Prop28
280
     0
102
RTVSPost2010PropOp28
 70
     1
102
RTVSPost2010Prop29
280
     1
102
RTVSPost2010PropOp29
 70
     1
102
RTVSPost2010Prop30
280
     1
102
RTVSPost2010PropOp30
 70
     1
102
RTVSPost2010Prop31
280
     0
102
RTVSPost2010PropOp31
 70
     1
102
RTVSPost2010Prop32
280
     0
102
RTVSPost2010PropOp32
 70
     1
102
RTVSPost2010Prop33
280
     0
102
RTVSPost2010PropOp33
 70
     1
102
RTVSPost2010Prop34
280
     0
102
RTVSPost2010PropOp34
 70
     1
102
RTVSPost2010Prop35
280
     0
102
RTVSPost2010PropOp35
 70
     1
102
RTVSPost2010Prop36
280
     0
102
RTVSPost2010PropOp36
 70
     1
102
RTVSPost2010Prop37
 90
       50
102
RTVSPost2010PropOp37
 70
     1
102
RTVSPost2010Prop38
140
0.0
102
RTVSPost2010PropOp38
 70
     1
102
RTVSPost2010Prop39
140
1.0
102
RTVSPost2010PropOp39
 70
     1
102
RTVSPost2010Prop40
 90
        0
102
RTVSPost2010PropOp40
 70
     1
102
RTVSPost2010Prop41ColorIndex
 90
       18
102
RTVSPost2010Prop41ColorRGB
 90
        0
102
RTVSPost2010PropOp41
 70
     1
102
RTVSPost2010Prop42
 90
       50
102
RTVSPost2010PropOp42
 70
     1
102
RTVSPost2010Prop43
 90
        3
102
RTVSPost2010PropOp43
 70
     1
102
RTVSPost2010Prop44ColorIndex
 90
        5
102
RTVSPost2010Prop44ColorRGB
 90
      255
102
RTVSPost2010PropOp44
 70
     1
102
RTVSPost2010Prop45
280
     0
102
RTVSPost2010PropOp45
 70
     1
102
RTVSPost2010Prop46
 90
       50
102
RTVSPost2010PropOp46
 70
     1
102
RTVSPost2010Prop47
 90
       50
102
RTVSPost2010PropOp47
 70
     1
102
RTVSPost2010Prop48
 90
       50
102
RTVSPost2010PropOp48
 70
     1
102
RTVSPost2010Prop49
280
     0
102
RTVSPost2010PropOp49
 70
     1
102
RTVSPost2010Prop50
 90
       50
102
RTVSPost2010PropOp50
 70
     1
102
RTVSPost2010Prop51ColorIndex
 90
      256
102
RTVSPost2010Prop51ColorRGB
 90
-16777216
102
RTVSPost2010PropOp51
 70
     0
102
RTVSPost2010Prop52
140
1.0
102
RTVSPost2010PropOp52
 70
     0
102
RTVSPost2010Prop53
 90
        2
102
RTVSPost2010PropOp53
 70
     1
102
RTVSPost2010Prop54
  1
strokes_ogs.tif
102
RTVSPost2010PropOp54
 70
     1
102
RTVSPost2010Prop55
280
     0
102
RTVSPost2010PropOp55
 70
     1
102
RTVSPost2010Prop56
140
1.0
102
RTVSPost2010PropOp56
 70
     1
102
RTVSPost2010Prop57
140
1.0
102
RTVSPost2010PropOp57
 70
     1
102
RTVSPropertyOp0
 70
     1
102
RTVSPropertyOp1
 70
     1
102
RTVSPropertyOp2
 70
     1
102
RTVSPropertyOp3
 70
     1
102
RTVSPropertyOp4
 70
     1
102
RTVSPropertyOp5
 70
     1
102
RTVSPropertyOp6
 70
     1
102
RTVSPropertyOp7
 70
     1
102
RTVSPropertyOp8
 70
     1
102
RTVSPropertyOp9
 70
     1
102
RTVSPropertyOp10
 70
     1
102
RTVSPropertyOp11
 70
     1
102
RTVSPropertyOp12
 70
     1
102
RTVSPropertyOp13
 70
     1
102
RTVSPropertyOp14
 70
     1
102
RTVSPropertyOp15
 70
     1
102
RTVSPropertyOp16
 70
     1
102
RTVSPropertyOp17
 70
     1
102
RTVSPropertyOp18
 70
     1
102
RTVSPropertyOp19
 70
     1
102
RTVSPropertyOp20
 70
     1
102
RTVSPropertyOp21
 70
     1
102
RTVSPropertyOp22
 70
     1
102
RTVSPropertyOp23
 70
     1
102
RTVSPropertyOp24
 70
     1
102
RTVSPropertyOp25
 70
     1
102
RTVSPropertyOp26
 70
     1
102
RTVSPropertyOp27
 70
     1
102
RTVSPropertyOp28
 70
     1
102
RTVSPropertyOp29
 70
     1
102
RTVSPropertyOp30
 70
     1
102
RTVSPropertyOp31
 70
     1
102
RTVSPropertyOp32
 70
     1
102
RTVSPropertyOp33
 70
     1
102
RTVSPropertyOp34
 70
     1
102
RTVSPropertyOp35
 70
     1
102
RTVSPropertyOp36
 70
     1
102
RTVSPropertyOp37
 70
     1
102
RTVSPropertyOp38
 70
     1
102
RTVSPropertyOp39
 70
     1
102
RTVSPropertyOp40
 70
     1
102
RTVSPropertyOp41
 70
     1
102
RTVSPropertyOp42
 70
     1
102
RTVSPropertyOp43
 70
     1
102
RTVSPropertyOp44
 70
     1
102
RTVSPropertyOp45
 70
     1
102
RTVSPropertyOp46
 70
     1
102
RTVSPropertyOp47
 70
     1
102
RTVSPropertyOp48
 70
     1
102
RTVSPropertyOp49
 70
     1
102
RTVSPropertyOp50
 70
     1
102
RTVSPropertyOp51
 70
     0
102
RTVSPropertyOp52
 70
     0
102
RTVSPropertyOp53
 70
     1
102
RTVSPropertyOp54
 70
     1
102
RTVSPropertyOp55
 70
     1
102
RTVSPropertyOp56
 70
     1
102
RTVSPropertyOp57
 70
     1
102
RTVSPropertyOp58
 70
     1
102
RTVSPropertyOp59
 70
     1
102
RTVSPropertyOp60
 70
     1
102
RTVSPropertyOp61
 70
     1
102
RTVSPropertyOp62
 70
     1
  0
XRECORD
  5
38C
102
{ACAD_REACTORS
330
38B
102
}
330
38B
100
AcDbXrecord
280
     1
102
RTVSPost2010Prop28
280
     0
102
RTVSPost2010PropOp28
 70
     1
102
RTVSPost2010Prop29
280
     1
102
RTVSPost2010PropOp29
 70
     1
102
RTVSPost2010Prop30
280
     1
102
RTVSPost2010PropOp30
 70
     1
102
RTVSPost2010Prop31
280
     0
102
RTVSPost2010PropOp31
 70
     1
102
RTVSPost2010Prop32
280
     0
102
RTVSPost2010PropOp32
 70
     1
102
RTVSPost2010Prop33
280
     0
102
RTVSPost2010PropOp33
 70
     1
102
RTVSPost2010Prop34
280
     0
102
RTVSPost2010PropOp34
 70
     1
102
RTVSPost2010Prop35
280
     0
102
RTVSPost2010PropOp35
 70
     1
102
RTVSPost2010Prop36
280
     0
102
RTVSPost2010PropOp36
 70
     1
102
RTVSPost2010Prop37
 90
       50
102
RTVSPost2010PropOp37
 70
     1
102
RTVSPost2010Prop38
140
0.0
102
RTVSPost2010PropOp38
 70
     1
102
RTVSPost2010Prop39
140
1.0
102
RTVSPost2010PropOp39
 70
     1
102
RTVSPost2010Prop40
 90
        0
102
RTVSPost2010PropOp40
 70
     1
102
RTVSPost2010Prop41ColorIndex
 90
       18
102
RTVSPost2010Prop41ColorRGB
 90
        0
102
RTVSPost2010PropOp41
 70
     1
102
RTVSPost2010Prop42
 90
       50
102
RTVSPost2010PropOp42
 70
     1
102
RTVSPost2010Prop43
 90
        3
102
RTVSPost2010PropOp43
 70
     1
102
RTVSPost2010Prop44ColorIndex
 90
        5
102
RTVSPost2010Prop44ColorRGB
 90
      255
102
RTVSPost2010PropOp44
 70
     1
102
RTVSPost2010Prop45
280
     0
102
RTVSPost2010PropOp45
 70
     1
102
RTVSPost2010Prop46
 90
       50
102
RTVSPost2010PropOp46
 70
     1
102
RTVSPost2010Prop47
 90
       50
102
RTVSPost2010PropOp47
 70
     1
102
RTVSPost2010Prop48
 90
       50
102
RTVSPost2010PropOp48
 70
     1
102
RTVSPost2010Prop49
280
     0
102
RTVSPost2010PropOp49
 70
     1
102
RTVSPost2010Prop50
 90
       50
102
RTVSPost2010PropOp50
 70
     1
102
RTVSPost2010Prop51ColorIndex
 90
      256
102
RTVSPost2010Prop51ColorRGB
 90
-16777216
102
RTVSPost2010PropOp51
 70
     0
102
RTVSPost2010Prop52
140
1.0
102
RTVSPost2010PropOp52
 70
     0
102
RTVSPost2010Prop53
 90
        2
102
RTVSPost2010PropOp53
 70
     1
102
RTVSPost2010Prop54
  1
strokes_ogs.tif
102
RTVSPost2010PropOp54
 70
     1
102
RTVSPost2010Prop55
280
     0
102
RTVSPost2010PropOp55
 70
     1
102
RTVSPost2010Prop56
140
1.0
102
RTVSPost2010PropOp56
 70
     1
102
RTVSPost2010Prop57
140
1.0
102
RTVSPost2010PropOp57
 70
     1
102
RTVSPropertyOp0
 70
     1
102
RTVSPropertyOp1
 70
     1
102
RTVSPropertyOp2
 70
     1
102
RTVSPropertyOp3
 70
     1
102
RTVSPropertyOp4
 70
     1
102
RTVSPropertyOp5
 70
     1
102
RTVSPropertyOp6
 70
     1
102
RTVSPropertyOp7
 70
     1
102
RTVSPropertyOp8
 70
     1
102
RTVSPropertyOp9
 70
     1
102
RTVSPropertyOp10
 70
     1
102
RTVSPropertyOp11
 70
     1
102
RTVSPropertyOp12
 70
     1
102
RTVSPropertyOp13
 70
     1
102
RTVSPropertyOp14
 70
     1
102
RTVSPropertyOp15
 70
     1
102
RTVSPropertyOp16
 70
     1
102
RTVSPropertyOp17
 70
     1
102
RTVSPropertyOp18
 70
     1
102
RTVSPropertyOp19
 70
     1
102
RTVSPropertyOp20
 70
     1
102
RTVSPropertyOp21
 70
     1
102
RTVSPropertyOp22
 70
     1
102
RTVSPropertyOp23
 70
     1
102
RTVSPropertyOp24
 70
     1
102
RTVSPropertyOp25
 70
     1
102
RTVSPropertyOp26
 70
     1
102
RTVSPropertyOp27
 70
     1
102
RTVSPropertyOp28
 70
     1
102
RTVSPropertyOp29
 70
     1
102
RTVSPropertyOp30
 70
     1
102
RTVSPropertyOp31
 70
     1
102
RTVSPropertyOp32
 70
     1
102
RTVSPropertyOp33
 70
     1
102
RTVSPropertyOp34
 70
     1
102
RTVSPropertyOp35
 70
     1
102
RTVSPropertyOp36
 70
     1
102
RTVSPropertyOp37
 70
     1
102
RTVSPropertyOp38
 70
     1
102
RTVSPropertyOp39
 70
     1
102
RTVSPropertyOp40
 70
     1
102
RTVSPropertyOp41
 70
     1
102
RTVSPropertyOp42
 70
     1
102
RTVSPropertyOp43
 70
     1
102
RTVSPropertyOp44
 70
     1
102
RTVSPropertyOp45
 70
     1
102
RTVSPropertyOp46
 70
     1
102
RTVSPropertyOp47
 70
     1
102
RTVSPropertyOp48
 70
     1
102
RTVSPropertyOp49
 70
     1
102
RTVSPropertyOp50
 70
     1
102
RTVSPropertyOp51
 70
     0
102
RTVSPropertyOp52
 70
     0
102
RTVSPropertyOp53
 70
     1
102
RTVSPropertyOp54
 70
     1
102
RTVSPropertyOp55
 70
     1
102
RTVSPropertyOp56
 70
     1
102
RTVSPropertyOp57
 70
     1
102
RTVSPropertyOp58
 70
     1
102
RTVSPropertyOp59
 70
     1
102
RTVSPropertyOp60
 70
     1
102
RTVSPropertyOp61
 70
     1
102
RTVSPropertyOp62
 70
     1
  0
XRECORD
  5
382
102
{ACAD_REACTORS
330
381
102
}
330
381
100
AcDbXrecord
280
     1
102
RTVSPost2010Prop28
280
     0
102
RTVSPost2010PropOp28
 70
     1
102
RTVSPost2010Prop29
280
     1
102
RTVSPost2010PropOp29
 70
     1
102
RTVSPost2010Prop30
280
     1
102
RTVSPost2010PropOp30
 70
     1
102
RTVSPost2010Prop31
280
     0
102
RTVSPost2010PropOp31
 70
     1
102
RTVSPost2010Prop32
280
     0
102
RTVSPost2010PropOp32
 70
     1
102
RTVSPost2010Prop33
280
     0
102
RTVSPost2010PropOp33
 70
     1
102
RTVSPost2010Prop34
280
     0
102
RTVSPost2010PropOp34
 70
     1
102
RTVSPost2010Prop35
280
     0
102
RTVSPost2010PropOp35
 70
     1
102
RTVSPost2010Prop36
280
     0
102
RTVSPost2010PropOp36
 70
     1
102
RTVSPost2010Prop37
 90
       50
102
RTVSPost2010PropOp37
 70
     1
102
RTVSPost2010Prop38
140
0.0
102
RTVSPost2010PropOp38
 70
     1
102
RTVSPost2010Prop39
140
1.0
102
RTVSPost2010PropOp39
 70
     1
102
RTVSPost2010Prop40
 90
        0
102
RTVSPost2010PropOp40
 70
     1
102
RTVSPost2010Prop41ColorIndex
 90
       18
102
RTVSPost2010Prop41ColorRGB
 90
        0
102
RTVSPost2010PropOp41
 70
     1
102
RTVSPost2010Prop42
 90
       50
102
RTVSPost2010PropOp42
 70
     1
102
RTVSPost2010Prop43
 90
        3
102
RTVSPost2010PropOp43
 70
     1
102
RTVSPost2010Prop44ColorIndex
 90
        5
102
RTVSPost2010Prop44ColorRGB
 90
      255
102
RTVSPost2010PropOp44
 70
     1
102
RTVSPost2010Prop45
280
     0
102
RTVSPost2010PropOp45
 70
     1
102
RTVSPost2010Prop46
 90
       50
102
RTVSPost2010PropOp46
 70
     1
102
RTVSPost2010Prop47
 90
       50
102
RTVSPost2010PropOp47
 70
     1
102
RTVSPost2010Prop48
 90
       50
102
RTVSPost2010PropOp48
 70
     1
102
RTVSPost2010Prop49
280
     0
102
RTVSPost2010PropOp49
 70
     1
102
RTVSPost2010Prop50
 90
       50
102
RTVSPost2010PropOp50
 70
     1
102
RTVSPost2010Prop51ColorIndex
 90
      256
102
RTVSPost2010Prop51ColorRGB
 90
-16777216
102
RTVSPost2010PropOp51
 70
     0
102
RTVSPost2010Prop52
140
1.0
102
RTVSPost2010PropOp52
 70
     0
102
RTVSPost2010Prop53
 90
        2
102
RTVSPost2010PropOp53
 70
     1
102
RTVSPost2010Prop54
  1
strokes_ogs.tif
102
RTVSPost2010PropOp54
 70
     1
102
RTVSPost2010Prop55
280
     0
102
RTVSPost2010PropOp55
 70
     1
102
RTVSPost2010Prop56
140
1.0
102
RTVSPost2010PropOp56
 70
     1
102
RTVSPost2010Prop57
140
1.0
102
RTVSPost2010PropOp57
 70
     1
102
RTVSPropertyOp0
 70
     1
102
RTVSPropertyOp1
 70
     1
102
RTVSPropertyOp2
 70
     1
102
RTVSPropertyOp3
 70
     1
102
RTVSPropertyOp4
 70
     1
102
RTVSPropertyOp5
 70
     1
102
RTVSPropertyOp6
 70
     1
102
RTVSPropertyOp7
 70
     1
102
RTVSPropertyOp8
 70
     1
102
RTVSPropertyOp9
 70
     1
102
RTVSPropertyOp10
 70
     1
102
RTVSPropertyOp11
 70
     1
102
RTVSPropertyOp12
 70
     1
102
RTVSPropertyOp13
 70
     1
102
RTVSPropertyOp14
 70
     1
102
RTVSPropertyOp15
 70
     1
102
RTVSPropertyOp16
 70
     1
102
RTVSPropertyOp17
 70
     1
102
RTVSPropertyOp18
 70
     1
102
RTVSPropertyOp19
 70
     1
102
RTVSPropertyOp20
 70
     1
102
RTVSPropertyOp21
 70
     1
102
RTVSPropertyOp22
 70
     1
102
RTVSPropertyOp23
 70
     1
102
RTVSPropertyOp24
 70
     1
102
RTVSPropertyOp25
 70
     1
102
RTVSPropertyOp26
 70
     1
102
RTVSPropertyOp27
 70
     1
102
RTVSPropertyOp28
 70
     1
102
RTVSPropertyOp29
 70
     1
102
RTVSPropertyOp30
 70
     1
102
RTVSPropertyOp31
 70
     1
102
RTVSPropertyOp32
 70
     1
102
RTVSPropertyOp33
 70
     1
102
RTVSPropertyOp34
 70
     1
102
RTVSPropertyOp35
 70
     1
102
RTVSPropertyOp36
 70
     1
102
RTVSPropertyOp37
 70
     1
102
RTVSPropertyOp38
 70
     1
102
RTVSPropertyOp39
 70
     1
102
RTVSPropertyOp40
 70
     1
102
RTVSPropertyOp41
 70
     1
102
RTVSPropertyOp42
 70
     1
102
RTVSPropertyOp43
 70
     1
102
RTVSPropertyOp44
 70
     1
102
RTVSPropertyOp45
 70
     1
102
RTVSPropertyOp46
 70
     1
102
RTVSPropertyOp47
 70
     1
102
RTVSPropertyOp48
 70
     1
102
RTVSPropertyOp49
 70
     1
102
RTVSPropertyOp50
 70
     1
102
RTVSPropertyOp51
 70
     0
102
RTVSPropertyOp52
 70
     0
102
RTVSPropertyOp53
 70
     1
102
RTVSPropertyOp54
 70
     1
102
RTVSPropertyOp55
 70
     1
102
RTVSPropertyOp56
 70
     1
102
RTVSPropertyOp57
 70
     1
102
RTVSPropertyOp58
 70
     1
102
RTVSPropertyOp59
 70
     1
102
RTVSPropertyOp60
 70
     1
102
RTVSPropertyOp61
 70
     1
102
RTVSPropertyOp62
 70
     1
  0
XRECORD
  5
376
102
{ACAD_REACTORS
330
375
102
}
330
375
100
AcDbXrecord
280
     1
102
RTVSPost2010Prop28
280
     0
102
RTVSPost2010PropOp28
 70
     1
102
RTVSPost2010Prop29
280
     1
102
RTVSPost2010PropOp29
 70
     1
102
RTVSPost2010Prop30
280
     1
102
RTVSPost2010PropOp30
 70
     1
102
RTVSPost2010Prop31
280
     0
102
RTVSPost2010PropOp31
 70
     1
102
RTVSPost2010Prop32
280
     0
102
RTVSPost2010PropOp32
 70
     1
102
RTVSPost2010Prop33
280
     0
102
RTVSPost2010PropOp33
 70
     1
102
RTVSPost2010Prop34
280
     0
102
RTVSPost2010PropOp34
 70
     1
102
RTVSPost2010Prop35
280
     0
102
RTVSPost2010PropOp35
 70
     1
102
RTVSPost2010Prop36
280
     0
102
RTVSPost2010PropOp36
 70
     1
102
RTVSPost2010Prop37
 90
       50
102
RTVSPost2010PropOp37
 70
     1
102
RTVSPost2010Prop38
140
0.0
102
RTVSPost2010PropOp38
 70
     1
102
RTVSPost2010Prop39
140
1.0
102
RTVSPost2010PropOp39
 70
     1
102
RTVSPost2010Prop40
 90
        0
102
RTVSPost2010PropOp40
 70
     1
102
RTVSPost2010Prop41ColorIndex
 90
       18
102
RTVSPost2010Prop41ColorRGB
 90
        0
102
RTVSPost2010PropOp41
 70
     1
102
RTVSPost2010Prop42
 90
       50
102
RTVSPost2010PropOp42
 70
     1
102
RTVSPost2010Prop43
 90
        3
102
RTVSPost2010PropOp43
 70
     1
102
RTVSPost2010Prop44ColorIndex
 90
        5
102
RTVSPost2010Prop44ColorRGB
 90
      255
102
RTVSPost2010PropOp44
 70
     1
102
RTVSPost2010Prop45
280
     0
102
RTVSPost2010PropOp45
 70
     1
102
RTVSPost2010Prop46
 90
       50
102
RTVSPost2010PropOp46
 70
     1
102
RTVSPost2010Prop47
 90
       50
102
RTVSPost2010PropOp47
 70
     1
102
RTVSPost2010Prop48
 90
       50
102
RTVSPost2010PropOp48
 70
     1
102
RTVSPost2010Prop49
280
     0
102
RTVSPost2010PropOp49
 70
     1
102
RTVSPost2010Prop50
 90
       50
102
RTVSPost2010PropOp50
 70
     1
102
RTVSPost2010Prop51ColorIndex
 90
      256
102
RTVSPost2010Prop51ColorRGB
 90
-16777216
102
RTVSPost2010PropOp51
 70
     0
102
RTVSPost2010Prop52
140
1.0
102
RTVSPost2010PropOp52
 70
     0
102
RTVSPost2010Prop53
 90
        2
102
RTVSPost2010PropOp53
 70
     1
102
RTVSPost2010Prop54
  1
strokes_ogs.tif
102
RTVSPost2010PropOp54
 70
     1
102
RTVSPost2010Prop55
280
     0
102
RTVSPost2010PropOp55
 70
     1
102
RTVSPost2010Prop56
140
1.0
102
RTVSPost2010PropOp56
 70
     1
102
RTVSPost2010Prop57
140
1.0
102
RTVSPost2010PropOp57
 70
     1
102
RTVSPropertyOp0
 70
     1
102
RTVSPropertyOp1
 70
     1
102
RTVSPropertyOp2
 70
     1
102
RTVSPropertyOp3
 70
     1
102
RTVSPropertyOp4
 70
     1
102
RTVSPropertyOp5
 70
     1
102
RTVSPropertyOp6
 70
     1
102
RTVSPropertyOp7
 70
     1
102
RTVSPropertyOp8
 70
     1
102
RTVSPropertyOp9
 70
     1
102
RTVSPropertyOp10
 70
     1
102
RTVSPropertyOp11
 70
     1
102
RTVSPropertyOp12
 70
     1
102
RTVSPropertyOp13
 70
     1
102
RTVSPropertyOp14
 70
     1
102
RTVSPropertyOp15
 70
     1
102
RTVSPropertyOp16
 70
     1
102
RTVSPropertyOp17
 70
     1
102
RTVSPropertyOp18
 70
     1
102
RTVSPropertyOp19
 70
     1
102
RTVSPropertyOp20
 70
     1
102
RTVSPropertyOp21
 70
     1
102
RTVSPropertyOp22
 70
     1
102
RTVSPropertyOp23
 70
     1
102
RTVSPropertyOp24
 70
     1
102
RTVSPropertyOp25
 70
     1
102
RTVSPropertyOp26
 70
     1
102
RTVSPropertyOp27
 70
     1
102
RTVSPropertyOp28
 70
     1
102
RTVSPropertyOp29
 70
     1
102
RTVSPropertyOp30
 70
     1
102
RTVSPropertyOp31
 70
     1
102
RTVSPropertyOp32
 70
     1
102
RTVSPropertyOp33
 70
     1
102
RTVSPropertyOp34
 70
     1
102
RTVSPropertyOp35
 70
     1
102
RTVSPropertyOp36
 70
     1
102
RTVSPropertyOp37
 70
     1
102
RTVSPropertyOp38
 70
     1
102
RTVSPropertyOp39
 70
     1
102
RTVSPropertyOp40
 70
     1
102
RTVSPropertyOp41
 70
     1
102
RTVSPropertyOp42
 70
     1
102
RTVSPropertyOp43
 70
     1
102
RTVSPropertyOp44
 70
     1
102
RTVSPropertyOp45
 70
     1
102
RTVSPropertyOp46
 70
     1
102
RTVSPropertyOp47
 70
     1
102
RTVSPropertyOp48
 70
     1
102
RTVSPropertyOp49
 70
     1
102
RTVSPropertyOp50
 70
     1
102
RTVSPropertyOp51
 70
     0
102
RTVSPropertyOp52
 70
     0
102
RTVSPropertyOp53
 70
     1
102
RTVSPropertyOp54
 70
     1
102
RTVSPropertyOp55
 70
     1
102
RTVSPropertyOp56
 70
     1
102
RTVSPropertyOp57
 70
     1
102
RTVSPropertyOp58
 70
     1
102
RTVSPropertyOp59
 70
     1
102
RTVSPropertyOp60
 70
     1
102
RTVSPropertyOp61
 70
     1
102
RTVSPropertyOp62
 70
     1
  0
XRECORD
  5
38E
102
{ACAD_REACTORS
330
38D
102
}
330
38D
100
AcDbXrecord
280
     1
102
RTVSPost2010Prop28
280
     0
102
RTVSPost2010PropOp28
 70
     1
102
RTVSPost2010Prop29
280
     1
102
RTVSPost2010PropOp29
 70
     1
102
RTVSPost2010Prop30
280
     1
102
RTVSPost2010PropOp30
 70
     1
102
RTVSPost2010Prop31
280
     0
102
RTVSPost2010PropOp31
 70
     1
102
RTVSPost2010Prop32
280
     0
102
RTVSPost2010PropOp32
 70
     1
102
RTVSPost2010Prop33
280
     0
102
RTVSPost2010PropOp33
 70
     1
102
RTVSPost2010Prop34
280
     0
102
RTVSPost2010PropOp34
 70
     1
102
RTVSPost2010Prop35
280
     0
102
RTVSPost2010PropOp35
 70
     1
102
RTVSPost2010Prop36
280
     0
102
RTVSPost2010PropOp36
 70
     1
102
RTVSPost2010Prop37
 90
       50
102
RTVSPost2010PropOp37
 70
     1
102
RTVSPost2010Prop38
140
0.0
102
RTVSPost2010PropOp38
 70
     1
102
RTVSPost2010Prop39
140
1.0
102
RTVSPost2010PropOp39
 70
     1
102
RTVSPost2010Prop40
 90
        0
102
RTVSPost2010PropOp40
 70
     1
102
RTVSPost2010Prop41ColorIndex
 90
       18
102
RTVSPost2010Prop41ColorRGB
 90
        0
102
RTVSPost2010PropOp41
 70
     1
102
RTVSPost2010Prop42
 90
       50
102
RTVSPost2010PropOp42
 70
     1
102
RTVSPost2010Prop43
 90
        3
102
RTVSPost2010PropOp43
 70
     1
102
RTVSPost2010Prop44ColorIndex
 90
        5
102
RTVSPost2010Prop44ColorRGB
 90
      255
102
RTVSPost2010PropOp44
 70
     1
102
RTVSPost2010Prop45
280
     0
102
RTVSPost2010PropOp45
 70
     1
102
RTVSPost2010Prop46
 90
       50
102
RTVSPost2010PropOp46
 70
     1
102
RTVSPost2010Prop47
 90
       50
102
RTVSPost2010PropOp47
 70
     1
102
RTVSPost2010Prop48
 90
       50
102
RTVSPost2010PropOp48
 70
     1
102
RTVSPost2010Prop49
280
     0
102
RTVSPost2010PropOp49
 70
     1
102
RTVSPost2010Prop50
 90
       50
102
RTVSPost2010PropOp50
 70
     1
102
RTVSPost2010Prop51ColorIndex
 90
      256
102
RTVSPost2010Prop51ColorRGB
 90
-16777216
102
RTVSPost2010PropOp51
 70
     0
102
RTVSPost2010Prop52
140
1.0
102
RTVSPost2010PropOp52
 70
     0
102
RTVSPost2010Prop53
 90
        2
102
RTVSPost2010PropOp53
 70
     1
102
RTVSPost2010Prop54
  1
strokes_ogs.tif
102
RTVSPost2010PropOp54
 70
     1
102
RTVSPost2010Prop55
280
     0
102
RTVSPost2010PropOp55
 70
     1
102
RTVSPost2010Prop56
140
1.0
102
RTVSPost2010PropOp56
 70
     1
102
RTVSPost2010Prop57
140
1.0
102
RTVSPost2010PropOp57
 70
     1
102
RTVSPropertyOp0
 70
     1
102
RTVSPropertyOp1
 70
     1
102
RTVSPropertyOp2
 70
     1
102
RTVSPropertyOp3
 70
     1
102
RTVSPropertyOp4
 70
     1
102
RTVSPropertyOp5
 70
     1
102
RTVSPropertyOp6
 70
     1
102
RTVSPropertyOp7
 70
     1
102
RTVSPropertyOp8
 70
     1
102
RTVSPropertyOp9
 70
     1
102
RTVSPropertyOp10
 70
     1
102
RTVSPropertyOp11
 70
     1
102
RTVSPropertyOp12
 70
     1
102
RTVSPropertyOp13
 70
     1
102
RTVSPropertyOp14
 70
     1
102
RTVSPropertyOp15
 70
     1
102
RTVSPropertyOp16
 70
     1
102
RTVSPropertyOp17
 70
     1
102
RTVSPropertyOp18
 70
     1
102
RTVSPropertyOp19
 70
     1
102
RTVSPropertyOp20
 70
     1
102
RTVSPropertyOp21
 70
     1
102
RTVSPropertyOp22
 70
     1
102
RTVSPropertyOp23
 70
     1
102
RTVSPropertyOp24
 70
     1
102
RTVSPropertyOp25
 70
     1
102
RTVSPropertyOp26
 70
     1
102
RTVSPropertyOp27
 70
     1
102
RTVSPropertyOp28
 70
     1
102
RTVSPropertyOp29
 70
     1
102
RTVSPropertyOp30
 70
     1
102
RTVSPropertyOp31
 70
     1
102
RTVSPropertyOp32
 70
     1
102
RTVSPropertyOp33
 70
     1
102
RTVSPropertyOp34
 70
     1
102
RTVSPropertyOp35
 70
     1
102
RTVSPropertyOp36
 70
     1
102
RTVSPropertyOp37
 70
     1
102
RTVSPropertyOp38
 70
     1
102
RTVSPropertyOp39
 70
     1
102
RTVSPropertyOp40
 70
     1
102
RTVSPropertyOp41
 70
     1
102
RTVSPropertyOp42
 70
     1
102
RTVSPropertyOp43
 70
     1
102
RTVSPropertyOp44
 70
     1
102
RTVSPropertyOp45
 70
     1
102
RTVSPropertyOp46
 70
     1
102
RTVSPropertyOp47
 70
     1
102
RTVSPropertyOp48
 70
     1
102
RTVSPropertyOp49
 70
     1
102
RTVSPropertyOp50
 70
     1
102
RTVSPropertyOp51
 70
     0
102
RTVSPropertyOp52
 70
     0
102
RTVSPropertyOp53
 70
     1
102
RTVSPropertyOp54
 70
     1
102
RTVSPropertyOp55
 70
     1
102
RTVSPropertyOp56
 70
     1
102
RTVSPropertyOp57
 70
     1
102
RTVSPropertyOp58
 70
     1
102
RTVSPropertyOp59
 70
     1
102
RTVSPropertyOp60
 70
     1
102
RTVSPropertyOp61
 70
     1
102
RTVSPropertyOp62
 70
     1
  0
ENDSEC
  0
EOF
