  0
SECTION
  2
HEADER
  9
$ACADVER
  1
AC1015
  9
$ACADMAINTVER
 70
     6
  9
$DWGCODEPAGE
  3
ANSI_932
  9
$INSBASE
 10
0.0
 20
0.0
 30
0.0
  9
$EXTMIN
 10
0.0
 20
0.0
 30
0.0
  9
$EXTMAX
 10
594.0
 20
420.0
 30
0.0
  9
$LIMMIN
 10
0.0
 20
0.0
  9
$LIMMAX
 10
594.0
 20
420.0
  9
$ORTHOMODE
 70
     0
  9
$REGENMODE
 70
     1
  9
$FILLMODE
 70
     1
  9
$QTEXTMODE
 70
     0
  9
$MIRRTEXT
 70
     1
  9
$LTSCALE
 40
2.0
  9
$ATTMODE
 70
     1
  9
$TEXTSIZE
 40
2.5
  9
$TRACEWID
 40
1.0
  9
$TEXTSTYLE
  7
Standard
  9
$CLAYER
  8
0
  9
$CELTYPE
  6
ByLayer
  9
$CECOLOR
 62
   256
  9
$CELTSCALE
 40
1.0
  9
$DISPSILH
 70
     0
  9
$DIMSCALE
 40
1.0
  9
$DIMASZ
 40
2.5
  9
$DIMEXO
 40
0.625
  9
$DIMDLI
 40
3.75
  9
$DIMRND
 40
0.0
  9
$DIMDLE
 40
0.0
  9
$DIMEXE
 40
1.25
  9
$DIMTP
 40
0.0
  9
$DIMTM
 40
0.0
  9
$DIMTXT
 40
2.5
  9
$DIMCEN
 40
2.5
  9
$DIMTSZ
 40
0.0
  9
$DIMTOL
 70
     0
  9
$DIMLIM
 70
     0
  9
$DIMTIH
 70
     0
  9
$DIMTOH
 70
     0
  9
$DIMSE1
 70
     0
  9
$DIMSE2
 70
     0
  9
$DIMTAD
 70
     1
  9
$DIMZIN
 70
     8
  9
$DIMBLK
  1

  9
$DIMASO
 70
     1
  9
$DIMSHO
 70
     1
  9
$DIMPOST
  1

  9
$DIMAPOST
  1

  9
$DIMALT
 70
     0
  9
$DIMALTD
 70
     3
  9
$DIMALTF
 40
0.03937007874016
  9
$DIMLFAC
 40
1.0
  9
$DIMTOFL
 70
     1
  9
$DIMTVP
 40
0.0
  9
$DIMTIX
 70
     0
  9
$DIMSOXD
 70
     0
  9
$DIMSAH
 70
     0
  9
$DIMBLK1
  1

  9
$DIMBLK2
  1

  9
$DIMSTYLE
  2
ISO-25
  9
$DIMCLRD
 70
     0
  9
$DIMCLRE
 70
     0
  9
$DIMCLRT
 70
     0
  9
$DIMTFAC
 40
1.0
  9
$DIMGAP
 40
0.625
  9
$DIMJUST
 70
     0
  9
$DIMSD1
 70
     0
  9
$DIMSD2
 70
     0
  9
$DIMTOLJ
 70
     0
  9
$DIMTZIN
 70
     8
  9
$DIMALTZ
 70
     0
  9
$DIMALTTZ
 70
     0
  9
$DIMUPT
 70
     0
  9
$DIMDEC
 70
     2
  9
$DIMTDEC
 70
     2
  9
$DIMALTU
 70
     2
  9
$DIMALTTD
 70
     3
  9
$DIMTXSTY
  7
Standard
  9
$DIMAUNIT
 70
     0
  9
$DIMADEC
 70
     0
  9
$DIMALTRND
 40
0.0
  9
$DIMAZIN
 70
     0
  9
$DIMDSEP
 70
    46
  9
$DIMATFIT
 70
     3
  9
$DIMFRAC
 70
     0
  9
$DIMLDRBLK
  1

  9
$DIMLUNIT
 70
     2
  9
$DIMLWD
 70
    -2
  9
$DIMLWE
 70
    -2
  9
$DIMTMOVE
 70
     0
  9
$LUNITS
 70
     2
  9
$LUPREC
 70
     4
  9
$SKETCHINC
 40
1.0
  9
$FILLETRAD
 40
10.0
  9
$AUNITS
 70
     0
  9
$AUPREC
 70
     0
  9
$MENU
  1
.
  9
$ELEVATION
 40
0.0
  9
$PELEVATION
 40
0.0
  9
$THICKNESS
 40
0.0
  9
$LIMCHECK
 70
     0
  9
$CHAMFERA
 40
10.0
  9
$CHAMFERB
 40
10.0
  9
$CHAMFERC
 40
20.0
  9
$CHAMFERD
 40
0.0
  9
$SKPOLY
 70
     0
  9
$TDCREATE
 40
2457074.000000
  9
$TDUCREATE
 40
0.000000000
  9
$TDUPDATE
 40
2457074.000000
  9
$TDUUPDATE
 40
2457074.000000
  9
$TDINDWG
 40
0.0
  9
$TDUSRTIMER
 40
0.0
  9
$USRTIMER
 70
     1
  9
$ANGBASE
 50
0.0
  9
$ANGDIR
 70
     0
  9
$PDMODE
 70
     0
  9
$PDSIZE
 40
0.0
  9
$PLINEWID
 40
0.0
  9
$SPLFRAME
 70
     0
  9
$SPLINETYPE
 70
     6
  9
$SPLINESEGS
 70
     8
  9
$HANDSEED
  5
02CA
  9
$SURFTAB1
 70
     6
  9
$SURFTAB2
 70
     6
  9
$SURFTYPE
 70
     6
  9
$SURFU
 70
     6
  9
$SURFV
 70
     6
  9
$UCSBASE
  2

  9
$UCSNAME
  2

  9
$UCSORG
 10
0.0
 20
0.0
 30
0.0
  9
$UCSXDIR
 10
1.0
 20
0.0
 30
0.0
  9
$UCSYDIR
 10
0.0
 20
1.0
 30
0.0
  9
$UCSORTHOREF
  2

  9
$UCSORTHOVIEW
 70
     0
  9
$UCSORGTOP
 10
0.0
 20
0.0
 30
0.0
  9
$UCSORGBOTTOM
 10
0.0
 20
0.0
 30
0.0
  9
$UCSORGLEFT
 10
0.0
 20
0.0
 30
0.0
  9
$UCSORGRIGHT
 10
0.0
 20
0.0
 30
0.0
  9
$UCSORGFRONT
 10
0.0
 20
0.0
 30
0.0
  9
$UCSORGBACK
 10
0.0
 20
0.0
 30
0.0
  9
$PUCSBASE
  2

  9
$PUCSNAME
  2

  9
$PUCSORG
 10
0.0
 20
0.0
 30
0.0
  9
$PUCSXDIR
 10
1.0
 20
0.0
 30
0.0
  9
$PUCSYDIR
 10
0.0
 20
1.0
 30
0.0
  9
$PUCSORTHOREF
  2

  9
$PUCSORTHOVIEW
 70
     0
  9
$PUCSORGTOP
 10
0.0
 20
0.0
 30
0.0
  9
$PUCSORGBOTTOM
 10
0.0
 20
0.0
 30
0.0
  9
$PUCSORGLEFT
 10
0.0
 20
0.0
 30
0.0
  9
$PUCSORGRIGHT
 10
0.0
 20
0.0
 30
0.0
  9
$PUCSORGFRONT
 10
0.0
 20
0.0
 30
0.0
  9
$PUCSORGBACK
 10
0.0
 20
0.0
 30
0.0
  9
$USERI1
 70
     0
  9
$USERI2
 70
     0
  9
$USERI3
 70
     0
  9
$USERI4
 70
     0
  9
$USERI5
 70
     0
  9
$USERR1
 40
0.0
  9
$USERR2
 40
0.0
  9
$USERR3
 40
0.0
  9
$USERR4
 40
0.0
  9
$USERR5
 40
0.0
  9
$WORLDVIEW
 70
     1
  9
$SHADEDGE
 70
     3
  9
$SHADEDIF
 70
    70
  9
$TILEMODE
 70
     1
  9
$MAXACTVP
 70
    64
  9
$PINSBASE
 10
0.0
 20
0.0
 30
0.0
  9
$PLIMCHECK
 70
     0
  9
$PEXTMIN
 10
1.000000E+20
 20
1.000000E+20
 30
1.000000E+20
  9
$PEXTMAX
 10
-1.000000E+20
 20
-1.000000E+20
 30
-1.000000E+20
  9
$PLIMMIN
 10
0.0
 20
0.0
  9
$PLIMMAX
 10
0.0
 20
0.0
  9
$UNITMODE
 70
     0
  9
$VISRETAIN
 70
     0
  9
$PLINEGEN
 70
     0
  9
$PSLTSCALE
 70
     1
  9
$TREEDEPTH
 70
  3020
  9
$CMLSTYLE
  2
STANDARD
  9
$CMLJUST
 70
     0
  9
$CMLSCALE
 40
20.0
  9
$PROXYGRAPHICS
 70
     1
  9
$MEASUREMENT
 70
     1
  9
$CELWEIGHT
370
    -1
  9
$ENDCAPS
280
     0
  9
$JOINSTYLE
280
     0
  9
$LWDISPLAY
290
     0
  9
$INSUNITS
 70
     4
  9
$HYPERLINKBASE
  1

  9
$STYLESHEET
  1

  9
$XEDIT
290
     1
  9
$CEPSNTYPE
380
     0
  9
$PSTYLEMODE
290
     1
  9
$FINGERPRINTGUID
  2
{0E073DEE-D273-1741-7108-4248088255CA}
  9
$VERSIONGUID
  2
{138BA9AE-B6C7-CC02-C0D5-5C61B7F3338C}
  9
$EXTNAMES
290
     1
  9
$PSVPSCALE
 40
0.0
  0
ENDSEC
  0
SECTION
  2
CLASSES
  0
ENDSEC
  0
SECTION
  2
TABLES
  0
TABLE
  2
VPORT
  5
8
330
0
100
AcDbSymbolTable
 70
     3
  0
VPORT
  5
29
330
8
100
AcDbSymbolTableRecord
100
AcDbViewportTableRecord
  2
*Active
 70
     0
 10
0.0
 20
0.0
 11
1.0
 21
1.0
 12
297.0
 22
210.0
 13
0.0
 23
0.0
 14
10.0
 24
10.0
 15
0.0
 25
0.0
 16
0.0
 26
0.0
 36
1.0
 17
0.0
 27
0.0
 37
0.0
 40
420.0
 41
1.414285714
 42
50.0
 43
0.0
 44
0.0
 50
0.0
 51
0.0
 71
     0
 72
  1000
 73
     1
 74
     3
 75
     0
 76
     0
 77
     0
 78
     0
281
     0
 65
     0
110
0.0
120
0.0
130
0.0
111
1.0
121
0.0
131
0.0
112
0.0
122
1.0
132
0.0
 79
     0
146
0.0
  0
ENDTAB
  0
TABLE
  2
LTYPE
  5
5
330
0
100
AcDbSymbolTable
 70
     5
  0
LTYPE
  5
14
330
5
100
AcDbSymbolTableRecord
100
AcDbLinetypeTableRecord
  2
ByBlock
 70
     0
  3

 72
    65
 73
     0
 40
0.0
  0
LTYPE
  5
15
330
5
100
AcDbSymbolTableRecord
100
AcDbLinetypeTableRecord
  2
ByLayer
 70
     0
  3

 72
    65
 73
     0
 40
0.0
  0
LTYPE
  5
16
330
5
100
AcDbSymbolTableRecord
100
AcDbLinetypeTableRecord
  2
Continuous
 70
     0
  3
Solid line
 72
    65
 73
     0
 40
0.0
  0
LTYPE
  5
D7
330
5
100
AcDbSymbolTableRecord
100
AcDbLinetypeTableRecord
  2
LTYPE1
 70
     0
  3
CENTER
 72
    65
 73
     4
 40
12.0
 49
8.4
 74
     0
 49
-1.2
 74
     0
 49
1.2
 74
     0
 49
-1.2
 74
     0
  0
LTYPE
  5
DC
330
5
100
AcDbSymbolTableRecord
100
AcDbLinetypeTableRecord
  2
LTYPE2
 70
     0
  3
HIDDEN
 72
    65
 73
     2
 40
2.0
 49
1.2
 74
     0
 49
-0.8
 74
     0
  0
ENDTAB
  0
TABLE
  2
LAYER
  5
2
330
0
100
AcDbSymbolTable
 70
   128
  0
LAYER
  5
10
330
2
100
AcDbSymbolTableRecord
100
AcDbLayerTableRecord
  2
0
 70
     0
 62
     7
  6
Continuous
290
     1
370
    -3
390
F
  0
LAYER
  5
2A
330
2
100
AcDbSymbolTableRecord
100
AcDbLayerTableRecord
  2
2
 70
     0
 62
     7
  6
Continuous
290
     1
370
    -3
390
F
  0
LAYER
  5
2B
330
2
100
AcDbSymbolTableRecord
100
AcDbLayerTableRecord
  2
3
 70
     0
 62
     7
  6
Continuous
290
     1
370
    -3
390
F
  0
LAYER
  5
2C
330
2
100
AcDbSymbolTableRecord
100
AcDbLayerTableRecord
  2
4
 70
     0
 62
     7
  6
Continuous
290
     1
370
    -3
390
F
  0
LAYER
  5
2D
330
2
100
AcDbSymbolTableRecord
100
AcDbLayerTableRecord
  2
5
 70
     0
 62
     7
  6
Continuous
290
     1
370
    -3
390
F
  0
LAYER
  5
2E
330
2
100
AcDbSymbolTableRecord
100
AcDbLayerTableRecord
  2
6
 70
     0
 62
     7
  6
Continuous
290
     1
370
    -3
390
F
  0
LAYER
  5
2F
330
2
100
AcDbSymbolTableRecord
100
AcDbLayerTableRecord
  2
7
 70
     0
 62
     7
  6
Continuous
290
     1
370
    -3
390
F
  0
LAYER
  5
30
330
2
100
AcDbSymbolTableRecord
100
AcDbLayerTableRecord
  2
8
 70
     0
 62
     7
  6
Continuous
290
     1
370
    -3
390
F
  0
LAYER
  5
31
330
2
100
AcDbSymbolTableRecord
100
AcDbLayerTableRecord
  2
9
 70
     0
 62
     7
  6
Continuous
290
     1
370
    -3
390
F
  0
LAYER
  5
32
330
2
100
AcDbSymbolTableRecord
100
AcDbLayerTableRecord
  2
10
 70
     0
 62
     7
  6
Continuous
290
     1
370
    -3
390
F
  0
LAYER
  5
33
330
2
100
AcDbSymbolTableRecord
100
AcDbLayerTableRecord
  2
11
 70
     0
 62
     7
  6
Continuous
290
     1
370
    -3
390
F
  0
LAYER
  5
34
330
2
100
AcDbSymbolTableRecord
100
AcDbLayerTableRecord
  2
12
 70
     0
 62
     7
  6
Continuous
290
     1
370
    -3
390
F
  0
LAYER
  5
35
330
2
100
AcDbSymbolTableRecord
100
AcDbLayerTableRecord
  2
13
 70
     0
 62
     7
  6
Continuous
290
     1
370
    -3
390
F
  0
LAYER
  5
36
330
2
100
AcDbSymbolTableRecord
100
AcDbLayerTableRecord
  2
14
 70
     0
 62
     7
  6
Continuous
290
     1
370
    -3
390
F
  0
LAYER
  5
37
330
2
100
AcDbSymbolTableRecord
100
AcDbLayerTableRecord
  2
15
 70
     0
 62
     7
  6
Continuous
290
     1
370
    -3
390
F
  0
LAYER
  5
38
330
2
100
AcDbSymbolTableRecord
100
AcDbLayerTableRecord
  2
16
 70
     0
 62
     7
  6
Continuous
290
     1
370
    -3
390
F
  0
LAYER
  5
39
330
2
100
AcDbSymbolTableRecord
100
AcDbLayerTableRecord
  2
17
 70
     0
 62
     7
  6
Continuous
290
     1
370
    -3
390
F
  0
LAYER
  5
3A
330
2
100
AcDbSymbolTableRecord
100
AcDbLayerTableRecord
  2
18
 70
     0
 62
     7
  6
Continuous
290
     1
370
    -3
390
F
  0
LAYER
  5
3B
330
2
100
AcDbSymbolTableRecord
100
AcDbLayerTableRecord
  2
19
 70
     0
 62
     7
  6
Continuous
290
     1
370
    -3
390
F
  0
LAYER
  5
3C
330
2
100
AcDbSymbolTableRecord
100
AcDbLayerTableRecord
  2
20
 70
     0
 62
     7
  6
Continuous
290
     1
370
    -3
390
F
  0
LAYER
  5
3D
330
2
100
AcDbSymbolTableRecord
100
AcDbLayerTableRecord
  2
21
 70
     0
 62
     7
  6
Continuous
290
     1
370
    -3
390
F
  0
LAYER
  5
3E
330
2
100
AcDbSymbolTableRecord
100
AcDbLayerTableRecord
  2
22
 70
     0
 62
     7
  6
Continuous
290
     1
370
    -3
390
F
  0
LAYER
  5
3F
330
2
100
AcDbSymbolTableRecord
100
AcDbLayerTableRecord
  2
23
 70
     0
 62
     7
  6
Continuous
290
     1
370
    -3
390
F
  0
LAYER
  5
40
330
2
100
AcDbSymbolTableRecord
100
AcDbLayerTableRecord
  2
24
 70
     0
 62
     7
  6
Continuous
290
     1
370
    -3
390
F
  0
LAYER
  5
41
330
2
100
AcDbSymbolTableRecord
100
AcDbLayerTableRecord
  2
25
 70
     0
 62
     7
  6
Continuous
290
     1
370
    -3
390
F
  0
LAYER
  5
42
330
2
100
AcDbSymbolTableRecord
100
AcDbLayerTableRecord
  2
26
 70
     0
 62
     7
  6
Continuous
290
     1
370
    -3
390
F
  0
LAYER
  5
43
330
2
100
AcDbSymbolTableRecord
100
AcDbLayerTableRecord
  2
27
 70
     0
 62
     7
  6
Continuous
290
     1
370
    -3
390
F
  0
LAYER
  5
44
330
2
100
AcDbSymbolTableRecord
100
AcDbLayerTableRecord
  2
28
 70
     0
 62
     7
  6
Continuous
290
     1
370
    -3
390
F
  0
LAYER
  5
45
330
2
100
AcDbSymbolTableRecord
100
AcDbLayerTableRecord
  2
29
 70
     0
 62
     7
  6
Continuous
290
     1
370
    -3
390
F
  0
LAYER
  5
46
330
2
100
AcDbSymbolTableRecord
100
AcDbLayerTableRecord
  2
30
 70
     0
 62
     7
  6
Continuous
290
     1
370
    -3
390
F
  0
LAYER
  5
47
330
2
100
AcDbSymbolTableRecord
100
AcDbLayerTableRecord
  2
31
 70
     0
 62
     7
  6
Continuous
290
     1
370
    -3
390
F
  0
LAYER
  5
48
330
2
100
AcDbSymbolTableRecord
100
AcDbLayerTableRecord
  2
32
 70
     0
 62
     7
  6
Continuous
290
     1
370
    -3
390
F
  0
LAYER
  5
49
330
2
100
AcDbSymbolTableRecord
100
AcDbLayerTableRecord
  2
33
 70
     0
 62
     7
  6
Continuous
290
     1
370
    -3
390
F
  0
LAYER
  5
4A
330
2
100
AcDbSymbolTableRecord
100
AcDbLayerTableRecord
  2
34
 70
     0
 62
     7
  6
Continuous
290
     1
370
    -3
390
F
  0
LAYER
  5
4B
330
2
100
AcDbSymbolTableRecord
100
AcDbLayerTableRecord
  2
35
 70
     0
 62
     7
  6
Continuous
290
     1
370
    -3
390
F
  0
LAYER
  5
4C
330
2
100
AcDbSymbolTableRecord
100
AcDbLayerTableRecord
  2
36
 70
     0
 62
     7
  6
Continuous
290
     1
370
    -3
390
F
  0
LAYER
  5
4D
330
2
100
AcDbSymbolTableRecord
100
AcDbLayerTableRecord
  2
37
 70
     0
 62
     7
  6
Continuous
290
     1
370
    -3
390
F
  0
LAYER
  5
4E
330
2
100
AcDbSymbolTableRecord
100
AcDbLayerTableRecord
  2
38
 70
     0
 62
     7
  6
Continuous
290
     1
370
    -3
390
F
  0
LAYER
  5
4F
330
2
100
AcDbSymbolTableRecord
100
AcDbLayerTableRecord
  2
39
 70
     0
 62
     7
  6
Continuous
290
     1
370
    -3
390
F
  0
LAYER
  5
50
330
2
100
AcDbSymbolTableRecord
100
AcDbLayerTableRecord
  2
40
 70
     0
 62
     7
  6
Continuous
290
     1
370
    -3
390
F
  0
LAYER
  5
51
330
2
100
AcDbSymbolTableRecord
100
AcDbLayerTableRecord
  2
41
 70
     0
 62
     7
  6
Continuous
290
     1
370
    -3
390
F
  0
LAYER
  5
52
330
2
100
AcDbSymbolTableRecord
100
AcDbLayerTableRecord
  2
42
 70
     0
 62
     7
  6
Continuous
290
     1
370
    -3
390
F
  0
LAYER
  5
53
330
2
100
AcDbSymbolTableRecord
100
AcDbLayerTableRecord
  2
43
 70
     0
 62
     7
  6
Continuous
290
     1
370
    -3
390
F
  0
LAYER
  5
54
330
2
100
AcDbSymbolTableRecord
100
AcDbLayerTableRecord
  2
44
 70
     0
 62
     7
  6
Continuous
290
     1
370
    -3
390
F
  0
LAYER
  5
55
330
2
100
AcDbSymbolTableRecord
100
AcDbLayerTableRecord
  2
45
 70
     0
 62
     7
  6
Continuous
290
     1
370
    -3
390
F
  0
LAYER
  5
56
330
2
100
AcDbSymbolTableRecord
100
AcDbLayerTableRecord
  2
46
 70
     0
 62
     7
  6
Continuous
290
     1
370
    -3
390
F
  0
LAYER
  5
57
330
2
100
AcDbSymbolTableRecord
100
AcDbLayerTableRecord
  2
47
 70
     0
 62
     7
  6
Continuous
290
     1
370
    -3
390
F
  0
LAYER
  5
58
330
2
100
AcDbSymbolTableRecord
100
AcDbLayerTableRecord
  2
48
 70
     0
 62
     7
  6
Continuous
290
     1
370
    -3
390
F
  0
LAYER
  5
59
330
2
100
AcDbSymbolTableRecord
100
AcDbLayerTableRecord
  2
49
 70
     0
 62
     7
  6
Continuous
290
     1
370
    -3
390
F
  0
LAYER
  5
5A
330
2
100
AcDbSymbolTableRecord
100
AcDbLayerTableRecord
  2
50
 70
     0
 62
     7
  6
Continuous
290
     1
370
    -3
390
F
  0
LAYER
  5
5B
330
2
100
AcDbSymbolTableRecord
100
AcDbLayerTableRecord
  2
51
 70
     0
 62
     7
  6
Continuous
290
     1
370
    -3
390
F
  0
LAYER
  5
5C
330
2
100
AcDbSymbolTableRecord
100
AcDbLayerTableRecord
  2
52
 70
     0
 62
     7
  6
Continuous
290
     1
370
    -3
390
F
  0
LAYER
  5
5D
330
2
100
AcDbSymbolTableRecord
100
AcDbLayerTableRecord
  2
53
 70
     0
 62
     7
  6
Continuous
290
     1
370
    -3
390
F
  0
LAYER
  5
5E
330
2
100
AcDbSymbolTableRecord
100
AcDbLayerTableRecord
  2
54
 70
     0
 62
     7
  6
Continuous
290
     1
370
    -3
390
F
  0
LAYER
  5
5F
330
2
100
AcDbSymbolTableRecord
100
AcDbLayerTableRecord
  2
55
 70
     0
 62
     7
  6
Continuous
290
     1
370
    -3
390
F
  0
LAYER
  5
60
330
2
100
AcDbSymbolTableRecord
100
AcDbLayerTableRecord
  2
56
 70
     0
 62
     7
  6
Continuous
290
     1
370
    -3
390
F
  0
LAYER
  5
61
330
2
100
AcDbSymbolTableRecord
100
AcDbLayerTableRecord
  2
57
 70
     0
 62
     7
  6
Continuous
290
     1
370
    -3
390
F
  0
LAYER
  5
62
330
2
100
AcDbSymbolTableRecord
100
AcDbLayerTableRecord
  2
58
 70
     0
 62
     7
  6
Continuous
290
     1
370
    -3
390
F
  0
LAYER
  5
63
330
2
100
AcDbSymbolTableRecord
100
AcDbLayerTableRecord
  2
59
 70
     0
 62
     7
  6
Continuous
290
     1
370
    -3
390
F
  0
LAYER
  5
64
330
2
100
AcDbSymbolTableRecord
100
AcDbLayerTableRecord
  2
60
 70
     0
 62
     7
  6
Continuous
290
     1
370
    -3
390
F
  0
LAYER
  5
65
330
2
100
AcDbSymbolTableRecord
100
AcDbLayerTableRecord
  2
61
 70
     0
 62
     7
  6
Continuous
290
     1
370
    -3
390
F
  0
LAYER
  5
66
330
2
100
AcDbSymbolTableRecord
100
AcDbLayerTableRecord
  2
62
 70
     0
 62
     7
  6
Continuous
290
     1
370
    -3
390
F
  0
LAYER
  5
67
330
2
100
AcDbSymbolTableRecord
100
AcDbLayerTableRecord
  2
63
 70
     0
 62
     7
  6
Continuous
290
     1
370
    -3
390
F
  0
LAYER
  5
68
330
2
100
AcDbSymbolTableRecord
100
AcDbLayerTableRecord
  2
64
 70
     0
 62
     7
  6
Continuous
290
     1
370
    -3
390
F
  0
LAYER
  5
69
330
2
100
AcDbSymbolTableRecord
100
AcDbLayerTableRecord
  2
65
 70
     0
 62
     7
  6
Continuous
290
     1
370
    -3
390
F
  0
LAYER
  5
6A
330
2
100
AcDbSymbolTableRecord
100
AcDbLayerTableRecord
  2
66
 70
     0
 62
     7
  6
Continuous
290
     1
370
    -3
390
F
  0
LAYER
  5
6B
330
2
100
AcDbSymbolTableRecord
100
AcDbLayerTableRecord
  2
67
 70
     0
 62
     7
  6
Continuous
290
     1
370
    -3
390
F
  0
LAYER
  5
6C
330
2
100
AcDbSymbolTableRecord
100
AcDbLayerTableRecord
  2
68
 70
     0
 62
     7
  6
Continuous
290
     1
370
    -3
390
F
  0
LAYER
  5
6D
330
2
100
AcDbSymbolTableRecord
100
AcDbLayerTableRecord
  2
69
 70
     0
 62
     7
  6
Continuous
290
     1
370
    -3
390
F
  0
LAYER
  5
6E
330
2
100
AcDbSymbolTableRecord
100
AcDbLayerTableRecord
  2
70
 70
     0
 62
     7
  6
Continuous
290
     1
370
    -3
390
F
  0
LAYER
  5
6F
330
2
100
AcDbSymbolTableRecord
100
AcDbLayerTableRecord
  2
71
 70
     0
 62
     7
  6
Continuous
290
     1
370
    -3
390
F
  0
LAYER
  5
70
330
2
100
AcDbSymbolTableRecord
100
AcDbLayerTableRecord
  2
72
 70
     0
 62
     7
  6
Continuous
290
     1
370
    -3
390
F
  0
LAYER
  5
71
330
2
100
AcDbSymbolTableRecord
100
AcDbLayerTableRecord
  2
73
 70
     0
 62
     7
  6
Continuous
290
     1
370
    -3
390
F
  0
LAYER
  5
72
330
2
100
AcDbSymbolTableRecord
100
AcDbLayerTableRecord
  2
74
 70
     0
 62
     7
  6
Continuous
290
     1
370
    -3
390
F
  0
LAYER
  5
73
330
2
100
AcDbSymbolTableRecord
100
AcDbLayerTableRecord
  2
75
 70
     0
 62
     7
  6
Continuous
290
     1
370
    -3
390
F
  0
LAYER
  5
74
330
2
100
AcDbSymbolTableRecord
100
AcDbLayerTableRecord
  2
76
 70
     0
 62
     7
  6
Continuous
290
     1
370
    -3
390
F
  0
LAYER
  5
75
330
2
100
AcDbSymbolTableRecord
100
AcDbLayerTableRecord
  2
77
 70
     0
 62
     7
  6
Continuous
290
     1
370
    -3
390
F
  0
LAYER
  5
76
330
2
100
AcDbSymbolTableRecord
100
AcDbLayerTableRecord
  2
78
 70
     0
 62
     7
  6
Continuous
290
     1
370
    -3
390
F
  0
LAYER
  5
77
330
2
100
AcDbSymbolTableRecord
100
AcDbLayerTableRecord
  2
79
 70
     0
 62
     7
  6
Continuous
290
     1
370
    -3
390
F
  0
LAYER
  5
78
330
2
100
AcDbSymbolTableRecord
100
AcDbLayerTableRecord
  2
80
 70
     0
 62
     7
  6
Continuous
290
     1
370
    -3
390
F
  0
LAYER
  5
79
330
2
100
AcDbSymbolTableRecord
100
AcDbLayerTableRecord
  2
81
 70
     0
 62
     7
  6
Continuous
290
     1
370
    -3
390
F
  0
LAYER
  5
7A
330
2
100
AcDbSymbolTableRecord
100
AcDbLayerTableRecord
  2
82
 70
     0
 62
     7
  6
Continuous
290
     1
370
    -3
390
F
  0
LAYER
  5
7B
330
2
100
AcDbSymbolTableRecord
100
AcDbLayerTableRecord
  2
83
 70
     0
 62
     7
  6
Continuous
290
     1
370
    -3
390
F
  0
LAYER
  5
7C
330
2
100
AcDbSymbolTableRecord
100
AcDbLayerTableRecord
  2
84
 70
     0
 62
     7
  6
Continuous
290
     1
370
    -3
390
F
  0
LAYER
  5
7D
330
2
100
AcDbSymbolTableRecord
100
AcDbLayerTableRecord
  2
85
 70
     0
 62
     7
  6
Continuous
290
     1
370
    -3
390
F
  0
LAYER
  5
7E
330
2
100
AcDbSymbolTableRecord
100
AcDbLayerTableRecord
  2
86
 70
     0
 62
     7
  6
Continuous
290
     1
370
    -3
390
F
  0
LAYER
  5
7F
330
2
100
AcDbSymbolTableRecord
100
AcDbLayerTableRecord
  2
87
 70
     0
 62
     7
  6
Continuous
290
     1
370
    -3
390
F
  0
LAYER
  5
80
330
2
100
AcDbSymbolTableRecord
100
AcDbLayerTableRecord
  2
88
 70
     0
 62
     7
  6
Continuous
290
     1
370
    -3
390
F
  0
LAYER
  5
81
330
2
100
AcDbSymbolTableRecord
100
AcDbLayerTableRecord
  2
89
 70
     0
 62
     7
  6
Continuous
290
     1
370
    -3
390
F
  0
LAYER
  5
82
330
2
100
AcDbSymbolTableRecord
100
AcDbLayerTableRecord
  2
90
 70
     0
 62
     7
  6
Continuous
290
     1
370
    -3
390
F
  0
LAYER
  5
83
330
2
100
AcDbSymbolTableRecord
100
AcDbLayerTableRecord
  2
91
 70
     0
 62
     7
  6
Continuous
290
     1
370
    -3
390
F
  0
LAYER
  5
84
330
2
100
AcDbSymbolTableRecord
100
AcDbLayerTableRecord
  2
92
 70
     0
 62
     7
  6
Continuous
290
     1
370
    -3
390
F
  0
LAYER
  5
85
330
2
100
AcDbSymbolTableRecord
100
AcDbLayerTableRecord
  2
93
 70
     0
 62
     7
  6
Continuous
290
     1
370
    -3
390
F
  0
LAYER
  5
86
330
2
100
AcDbSymbolTableRecord
100
AcDbLayerTableRecord
  2
94
 70
     0
 62
     7
  6
Continuous
290
     1
370
    -3
390
F
  0
LAYER
  5
87
330
2
100
AcDbSymbolTableRecord
100
AcDbLayerTableRecord
  2
95
 70
     0
 62
     7
  6
Continuous
290
     1
370
    -3
390
F
  0
LAYER
  5
88
330
2
100
AcDbSymbolTableRecord
100
AcDbLayerTableRecord
  2
96
 70
     0
 62
     7
  6
Continuous
290
     1
370
    -3
390
F
  0
LAYER
  5
89
330
2
100
AcDbSymbolTableRecord
100
AcDbLayerTableRecord
  2
97
 70
     0
 62
     7
  6
Continuous
290
     1
370
    -3
390
F
  0
LAYER
  5
8A
330
2
100
AcDbSymbolTableRecord
100
AcDbLayerTableRecord
  2
98
 70
     0
 62
     7
  6
Continuous
290
     1
370
    -3
390
F
  0
LAYER
  5
8B
330
2
100
AcDbSymbolTableRecord
100
AcDbLayerTableRecord
  2
99
 70
     0
 62
     7
  6
Continuous
290
     1
370
    -3
390
F
  0
LAYER
  5
8C
330
2
100
AcDbSymbolTableRecord
100
AcDbLayerTableRecord
  2
100
 70
     0
 62
     7
  6
Continuous
290
     1
370
    -3
390
F
  0
LAYER
  5
8D
330
2
100
AcDbSymbolTableRecord
100
AcDbLayerTableRecord
  2
101
 70
     0
 62
     7
  6
Continuous
290
     1
370
    -3
390
F
  0
LAYER
  5
8E
330
2
100
AcDbSymbolTableRecord
100
AcDbLayerTableRecord
  2
102
 70
     0
 62
     7
  6
Continuous
290
     1
370
    -3
390
F
  0
LAYER
  5
8F
330
2
100
AcDbSymbolTableRecord
100
AcDbLayerTableRecord
  2
103
 70
     0
 62
     7
  6
Continuous
290
     1
370
    -3
390
F
  0
LAYER
  5
90
330
2
100
AcDbSymbolTableRecord
100
AcDbLayerTableRecord
  2
104
 70
     0
 62
     7
  6
Continuous
290
     1
370
    -3
390
F
  0
LAYER
  5
91
330
2
100
AcDbSymbolTableRecord
100
AcDbLayerTableRecord
  2
105
 70
     0
 62
     7
  6
Continuous
290
     1
370
    -3
390
F
  0
LAYER
  5
92
330
2
100
AcDbSymbolTableRecord
100
AcDbLayerTableRecord
  2
106
 70
     0
 62
     7
  6
Continuous
290
     1
370
    -3
390
F
  0
LAYER
  5
93
330
2
100
AcDbSymbolTableRecord
100
AcDbLayerTableRecord
  2
107
 70
     0
 62
     7
  6
Continuous
290
     1
370
    -3
390
F
  0
LAYER
  5
94
330
2
100
AcDbSymbolTableRecord
100
AcDbLayerTableRecord
  2
108
 70
     0
 62
     7
  6
Continuous
290
     1
370
    -3
390
F
  0
LAYER
  5
95
330
2
100
AcDbSymbolTableRecord
100
AcDbLayerTableRecord
  2
109
 70
     0
 62
     7
  6
Continuous
290
     1
370
    -3
390
F
  0
LAYER
  5
96
330
2
100
AcDbSymbolTableRecord
100
AcDbLayerTableRecord
  2
110
 70
     0
 62
     7
  6
Continuous
290
     1
370
    -3
390
F
  0
LAYER
  5
97
330
2
100
AcDbSymbolTableRecord
100
AcDbLayerTableRecord
  2
111
 70
     0
 62
     7
  6
Continuous
290
     1
370
    -3
390
F
  0
LAYER
  5
98
330
2
100
AcDbSymbolTableRecord
100
AcDbLayerTableRecord
  2
112
 70
     0
 62
     7
  6
Continuous
290
     1
370
    -3
390
F
  0
LAYER
  5
99
330
2
100
AcDbSymbolTableRecord
100
AcDbLayerTableRecord
  2
113
 70
     0
 62
     7
  6
Continuous
290
     1
370
    -3
390
F
  0
LAYER
  5
9A
330
2
100
AcDbSymbolTableRecord
100
AcDbLayerTableRecord
  2
114
 70
     0
 62
     7
  6
Continuous
290
     1
370
    -3
390
F
  0
LAYER
  5
9B
330
2
100
AcDbSymbolTableRecord
100
AcDbLayerTableRecord
  2
115
 70
     0
 62
     7
  6
Continuous
290
     1
370
    -3
390
F
  0
LAYER
  5
9C
330
2
100
AcDbSymbolTableRecord
100
AcDbLayerTableRecord
  2
116
 70
     0
 62
     7
  6
Continuous
290
     1
370
    -3
390
F
  0
LAYER
  5
9D
330
2
100
AcDbSymbolTableRecord
100
AcDbLayerTableRecord
  2
117
 70
     0
 62
     7
  6
Continuous
290
     1
370
    -3
390
F
  0
LAYER
  5
9E
330
2
100
AcDbSymbolTableRecord
100
AcDbLayerTableRecord
  2
118
 70
     0
 62
     7
  6
Continuous
290
     1
370
    -3
390
F
  0
LAYER
  5
9F
330
2
100
AcDbSymbolTableRecord
100
AcDbLayerTableRecord
  2
119
 70
     0
 62
     7
  6
Continuous
290
     1
370
    -3
390
F
  0
LAYER
  5
A0
330
2
100
AcDbSymbolTableRecord
100
AcDbLayerTableRecord
  2
120
 70
     0
 62
     7
  6
Continuous
290
     1
370
    -3
390
F
  0
LAYER
  5
A1
330
2
100
AcDbSymbolTableRecord
100
AcDbLayerTableRecord
  2
121
 70
     0
 62
     7
  6
Continuous
290
     1
370
    -3
390
F
  0
LAYER
  5
A2
330
2
100
AcDbSymbolTableRecord
100
AcDbLayerTableRecord
  2
122
 70
     0
 62
     7
  6
Continuous
290
     1
370
    -3
390
F
  0
LAYER
  5
A3
330
2
100
AcDbSymbolTableRecord
100
AcDbLayerTableRecord
  2
123
 70
     0
 62
     7
  6
Continuous
290
     1
370
    -3
390
F
  0
LAYER
  5
A4
330
2
100
AcDbSymbolTableRecord
100
AcDbLayerTableRecord
  2
124
 70
     0
 62
     7
  6
Continuous
290
     1
370
    -3
390
F
  0
LAYER
  5
A5
330
2
100
AcDbSymbolTableRecord
100
AcDbLayerTableRecord
  2
125
 70
     0
 62
     7
  6
Continuous
290
     1
370
    -3
390
F
  0
LAYER
  5
A6
330
2
100
AcDbSymbolTableRecord
100
AcDbLayerTableRecord
  2
126
 70
     0
 62
     7
  6
Continuous
290
     1
370
    -3
390
F
  0
LAYER
  5
A7
330
2
100
AcDbSymbolTableRecord
100
AcDbLayerTableRecord
  2
127
 70
     0
 62
     7
  6
Continuous
290
     1
370
    -3
390
F
  0
LAYER
  5
A8
330
2
100
AcDbSymbolTableRecord
100
AcDbLayerTableRecord
  2
128
 70
     0
 62
     7
  6
Continuous
290
     1
370
    -3
390
F
  0
ENDTAB
  0
TABLE
  2
STYLE
  5
3
330
0
100
AcDbSymbolTable
 70
     8
  0
STYLE
  5
11
330
3
100
AcDbSymbolTableRecord
100
AcDbTextStyleTableRecord
  2
Standard
 70
     0
 40
0.0
 41
1.0
 50
0.0
 71
     0
 42
2.5
  3
txt.shx
  4
extfont.shx
  0
STYLE
  5
AA
330
3
100
AcDbSymbolTableRecord
100
AcDbTextStyleTableRecord
  2
KANJI0
 70
     0
 40
6.0
 41
1.0
 50
0.0
 71
     0
 42
6.0
  3
txt.shx
  4
extfont.shx
  0
STYLE
  5
AD
330
3
100
AcDbSymbolTableRecord
100
AcDbTextStyleTableRecord
  2
KANJI1
 70
     4
 40
5.0
 41
1.0
 50
0.0
 71
     0
 42
5.0
  3
txt.shx
  4
extfont.shx
  0
STYLE
  5
B3
330
3
100
AcDbSymbolTableRecord
100
AcDbTextStyleTableRecord
  2
KANJI2
 70
     4
 40
5.0
 41
1.0
 50
0.0
 71
     0
 42
5.0
  3
txt.shx
  4
extfont.shx
  0
STYLE
  5
BC
330
3
100
AcDbSymbolTableRecord
100
AcDbTextStyleTableRecord
  2
KANJI3
 70
     0
 40
6.0
 41
0.45
 50
0.0
 71
     0
 42
6.0
  3
txt.shx
  4
extfont.shx
  0
STYLE
  5
C6
330
3
100
AcDbSymbolTableRecord
100
AcDbTextStyleTableRecord
  2
KANJI4
 70
     4
 40
3.333333333
 41
1.5
 50
0.0
 71
     0
 42
3.333333333
  3
txt.shx
  4
extfont.shx
  0
STYLE
  5
C9
330
3
100
AcDbSymbolTableRecord
100
AcDbTextStyleTableRecord
  2
KANJI5
 70
     0
 40
6.0
 41
0.9
 50
0.0
 71
     0
 42
6.0
  3
txt.shx
  4
extfont.shx
  0
STYLE
  5
F7
330
3
100
AcDbSymbolTableRecord
100
AcDbTextStyleTableRecord
  2
KANJI6
 70
     0
 40
6.0
 41
0.6
 50
0.0
 71
     0
 42
6.0
  3
txt.shx
  4
extfont.shx
  0
ENDTAB
  0
TABLE
  2
VIEW
  5
6
330
0
100
AcDbSymbolTable
 70
     0
  0
ENDTAB
  0
TABLE
  2
UCS
  5
7
330
0
100
AcDbSymbolTable
 70
     0
  0
ENDTAB
  0
TABLE
  2
APPID
  5
9
330
0
100
AcDbSymbolTable
 70
     1
  0
APPID
  5
12
330
9
100
AcDbSymbolTableRecord
100
AcDbRegAppTableRecord
  2
ACAD
 70
     0
  0
ENDTAB
  0
TABLE
  2
DIMSTYLE
  5
A
330
0
100
AcDbSymbolTable
 70
     1
100
AcDbDimStyleTable
 71
     0
  0
DIMSTYLE
105
27
330
A
100
AcDbSymbolTableRecord
100
AcDbDimStyleTableRecord
  2
ISO-25
 70
    64
  3

  4

 40
1.0
 41
2.5
 42
0.625
 43
3.75
 44
1.25
 45
0.0
 46
0.0
 47
0.0
 48
0.0
 71
     0
 72
     0
 73
     0
 74
     0
 75
     0
 76
     0
 77
     1
 78
     8
 79
     0
140
2.5
141
2.5
142
0.0
143
0.039370079
144
1.0
145
0.0
146
1.0
147
0.625
148
0.0
170
     0
171
     3
172
     1
173
     0
174
     0
175
     0
176
     0
177
     0
178
     0
179
     0
270
     2
271
     2
272
     2
273
     2
274
     3
275
     0
276
     0
277
     2
278
    46
279
     0
280
     0
281
     0
282
     0
283
     1
284
     8
285
     0
286
     0
288
     0
289
     3
340
11
341
0
342
0
343
0
344
0
371
    -2
372
    -2
  0
ENDTAB
  0
TABLE
  2
BLOCK_RECORD
  5
1
330
0
100
AcDbSymbolTable
 70
     3
  0
BLOCK_RECORD
  5
1F
330
1
100
AcDbSymbolTableRecord
100
AcDbBlockTableRecord
  2
*Model_Space
340
22
  0
BLOCK_RECORD
  5
1B
330
1
100
AcDbSymbolTableRecord
100
AcDbBlockTableRecord
  2
*Paper_Space
340
1E
  0
BLOCK_RECORD
  5
23
330
1
100
AcDbSymbolTableRecord
100
AcDbBlockTableRecord
  2
*Paper_Space0
340
26
  0
ENDTAB
  0
ENDSEC
  0
SECTION
  2
BLOCKS
  0
BLOCK
  5
1C
330
1B
100
AcDbEntity
 67
     1
  8
0
100
AcDbBlockBegin
  2
*Paper_Space
 70
     0
 10
0.0
 20
0.0
 30
0.0
  3
*Paper_Space
  1

  0
ENDBLK
  5
1D
330
1B
100
AcDbEntity
  8
0
100
AcDbBlockEnd
  0
BLOCK
  5
20
330
1F
100
AcDbEntity
  8
0
100
AcDbBlockBegin
  2
*Model_Space
 70
     0
 10
0.0
 20
0.0
 30
0.0
  3
*Model_Space
  1

  0
ENDBLK
  5
21
330
1F
100
AcDbEntity
  8
0
100
AcDbBlockEnd
  0
BLOCK
  5
24
330
23
100
AcDbEntity
 67
     1
  8
0
100
AcDbBlockBegin
  2
*Paper_Space0
 70
     0
 10
0.0
 20
0.0
 30
0.0
  3
*Paper_Space0
  1

  0
ENDBLK
  5
25
330
23
100
AcDbEntity
  8
0
100
AcDbBlockEnd
  0
ENDSEC
  0
SECTION
  2
ENTITIES
  0
MTEXT
  5
A9
330
1F
100
AcDbEntity
  8
4
  6
Continuous
 62
     2
100
AcDbMText
 10
206.0
 20
23.0
 30
0.0
 40
6.0
 41
160.0
 71
     7
 72
     1
  1
\T1.370;\W1.000;オオハシ産業株式会社
  7
KANJI0
 73
     1
 44
1.0
  0
LINE
  5
AB
330
1F
100
AcDbEntity
  8
4
  6
Continuous
 62
     2
100
AcDbLine
 10
574.0
 20
32.0
 30
0.0
 11
204.0
 21
32.0
 31
0.0
  0
MTEXT
  5
AC
330
1F
100
AcDbEntity
  8
4
  6
Continuous
 62
     2
100
AcDbMText
 10
465.0
 20
55.0
 30
0.0
 40
5.0
 41
20.0
 71
     1
 72
     3
  1
\W1.000;仕上
  7
KANJI1
 73
     1
 44
1.0
  0
LINE
  5
AE
330
1F
100
AcDbEntity
  8
4
  6
Continuous
 62
     2
100
AcDbLine
 10
464.0
 20
68.0
 30
0.0
 11
574.0
 21
68.0
 31
0.0
  0
LINE
  5
AF
330
1F
100
AcDbEntity
  8
4
  6
Continuous
 62
     2
100
AcDbLine
 10
464.0
 20
56.0
 30
0.0
 11
574.0
 21
56.0
 31
0.0
  0
MTEXT
  5
B0
330
1F
100
AcDbEntity
  8
4
  6
Continuous
 62
     2
100
AcDbMText
 10
465.0
 20
67.0
 30
0.0
 40
5.0
 41
20.0
 71
     1
 72
     3
  1
\W1.000;規格
  7
KANJI1
 73
     1
 44
1.0
  0
MTEXT
  5
B1
330
1F
100
AcDbEntity
  8
4
  6
Continuous
 62
     2
100
AcDbMText
 10
465.0
 20
79.0
 30
0.0
 40
5.0
 41
20.0
 71
     1
 72
     3
  1
\W1.000;材質
  7
KANJI1
 73
     1
 44
1.0
  0
MTEXT
  5
B2
330
1F
100
AcDbEntity
  8
4
  6
Continuous
 62
     2
100
AcDbMText
 10
465.0
 20
91.0
 30
0.0
 40
5.0
 41
20.0
 71
     1
 72
     3
  1
\W1.000;品番
  7
KANJI2
 73
     1
 44
1.0
  0
MTEXT
  5
B4
330
1F
100
AcDbEntity
  8
4
  6
Continuous
 62
     2
100
AcDbMText
 10
465.0
 20
103.0
 30
0.0
 40
5.0
 41
20.0
 71
     1
 72
     3
  1
\W1.000;図名
  7
KANJI1
 73
     1
 44
1.0
  0
LINE
  5
B5
330
1F
100
AcDbEntity
  8
4
  6
Continuous
 62
     2
100
AcDbLine
 10
464.0
 20
80.0
 30
0.0
 11
574.0
 21
80.0
 31
0.0
  0
LINE
  5
B6
330
1F
100
AcDbEntity
  8
4
  6
Continuous
 62
     2
100
AcDbLine
 10
464.0
 20
92.0
 30
0.0
 11
574.0
 21
92.0
 31
0.0
  0
LINE
  5
B7
330
1F
100
AcDbEntity
  8
4
  6
Continuous
 62
     2
100
AcDbLine
 10
464.0
 20
104.0
 30
0.0
 11
574.0
 21
104.0
 31
0.0
  0
LINE
  5
B8
330
1F
100
AcDbEntity
  8
4
  6
Continuous
 62
     2
100
AcDbLine
 10
290.0
 20
32.0
 30
0.0
 11
290.0
 21
20.0
 31
0.0
  0
MTEXT
  5
B9
330
1F
100
AcDbEntity
  8
4
  6
Continuous
 62
     2
100
AcDbMText
 10
291.0
 20
31.0
 30
0.0
 40
5.0
 41
20.0
 71
     1
 72
     3
  1
\W1.000;作図
  7
KANJI1
 73
     1
 44
1.0
  0
LINE
  5
BA
330
1F
100
AcDbEntity
  8
4
  6
Continuous
 62
     2
100
AcDbLine
 10
330.0
 20
20.0
 30
0.0
 11
330.0
 21
32.0
 31
0.0
  0
MTEXT
  5
BB
330
1F
100
AcDbEntity
  8
4
  6
Continuous
 62
     2
100
AcDbMText
 10
332.0
 20
23.0
 30
0.0
 40
6.0
 41
18.6
 71
     7
 72
     1
  1
\T1.111;\W0.900;FD=
  7
KANJI3
 73
     1
 44
1.0
  0
LINE
  5
BD
330
1F
100
AcDbEntity
  8
4
  6
Continuous
 62
     2
100
AcDbLine
 10
370.0
 20
20.0
 30
0.0
 11
370.0
 21
32.0
 31
0.0
  0
MTEXT
  5
BE
330
1F
100
AcDbEntity
  8
4
  6
Continuous
 62
     2
100
AcDbMText
 10
372.0
 20
23.0
 30
0.0
 40
6.0
 41
18.6
 71
     7
 72
     1
  1
\T1.111;\W0.900;NO=
  7
KANJI3
 73
     1
 44
1.0
  0
LINE
  5
BF
330
1F
100
AcDbEntity
  8
4
  6
Continuous
 62
     2
100
AcDbLine
 10
420.0
 20
32.0
 30
0.0
 11
420.0
 21
20.0
 31
0.0
  0
MTEXT
  5
C0
330
1F
100
AcDbEntity
  8
4
  6
Continuous
 62
     2
100
AcDbMText
 10
421.0
 20
31.0
 30
0.0
 40
5.0
 41
20.0
 71
     1
 72
     3
  1
\W1.000;日付
  7
KANJI1
 73
     1
 44
1.0
  0
LINE
  5
C1
330
1F
100
AcDbEntity
  8
4
  6
Continuous
 62
     2
100
AcDbLine
 10
464.0
 20
20.0
 30
0.0
 11
464.0
 21
104.0
 31
0.0
  0
MTEXT
  5
C2
330
1F
100
AcDbEntity
  8
4
  6
Continuous
 62
     2
100
AcDbMText
 10
421.0
 20
43.0
 30
0.0
 40
5.0
 41
20.0
 71
     1
 72
     3
  1
\W1.000;尺度
  7
KANJI1
 73
     1
 44
1.0
  0
LINE
  5
C3
330
1F
100
AcDbEntity
  8
4
  6
Continuous
 62
     2
100
AcDbLine
 10
420.0
 20
44.0
 30
0.0
 11
574.0
 21
44.0
 31
0.0
  0
MTEXT
  5
C4
330
1F
100
AcDbEntity
  8
4
  6
Continuous
 62
     2
100
AcDbMText
 10
465.0
 20
31.0
 30
0.0
 40
5.0
 41
20.0
 71
     1
 72
     3
  1
\W1.000;品名
  7
KANJI1
 73
     1
 44
1.0
  0
MTEXT
  5
C5
330
1F
100
AcDbEntity
  8
4
  6
Continuous
 62
     2
100
AcDbMText
 10
465.0
 20
43.0
 30
0.0
 40
3.333333333
 41
20.0
 71
     1
 72
     3
  1
\W1.500;その他
  7
KANJI4
 73
     1
 44
1.0
  0
LINE
  5
C7
330
1F
100
AcDbEntity
  8
4
  6
Continuous
 62
     2
100
AcDbLine
 10
204.0
 20
20.0
 30
0.0
 11
204.0
 21
32.0
 31
0.0
  0
MTEXT
  5
C8
330
1F
100
AcDbEntity
  8
4
  6
Continuous
 62
     2
100
AcDbMText
 10
476.0
 20
70.4
 30
0.0
 40
6.0
 41
34.8
 71
     7
 72
     1
  1
\T1.111;\W0.900;－－－
  7
KANJI5
 73
     1
 44
1.0
  0
MTEXT
  5
CA
330
1F
100
AcDbEntity
  8
4
  6
Continuous
 62
     2
100
AcDbMText
 10
476.0
 20
58.4
 30
0.0
 40
6.0
 41
34.8
 71
     7
 72
     1
  1
\T1.111;\W0.900;－－－
  7
KANJI5
 73
     1
 44
1.0
  0
MTEXT
  5
CB
330
1F
100
AcDbEntity
  8
4
  6
Continuous
 62
     2
100
AcDbMText
 10
476.0
 20
46.4
 30
0.0
 40
6.0
 41
34.8
 71
     7
 72
     1
  1
\T1.111;\W0.900;－－－
  7
KANJI5
 73
     1
 44
1.0
  0
MTEXT
  5
CC
330
1F
100
AcDbEntity
  8
4
  6
Continuous
 62
     2
100
AcDbMText
 10
476.0
 20
34.4
 30
0.0
 40
6.0
 41
34.8
 71
     7
 72
     1
  1
\T1.111;\W0.900;－－－
  7
KANJI5
 73
     1
 44
1.0
  0
MTEXT
  5
CD
330
1F
100
AcDbEntity
  8
4
  6
Continuous
 62
     2
100
AcDbMText
 10
234.0
 20
37.0
 30
0.0
 40
6.0
 41
274.8
 71
     7
 72
     1
  1
\T1.111;\W0.900;特記　　寸法指示無い公差は±０．５以内とする．
  7
KANJI5
 73
     1
 44
1.0
  0
POINT
  5
CE
330
1F
100
AcDbEntity
  8
4
  6
Continuous
 62
     2
100
AcDbPoint
 10
574.0
 20
104.0
 30
0.0
  0
LINE
  5
CF
330
1F
100
AcDbEntity
  8
4
  6
Continuous
 62
     2
100
AcDbLine
 10
20.0
 20
20.0
 30
0.0
 11
574.0
 21
20.0
 31
0.0
  0
LWPOLYLINE
  5
D1
330
1F
100
AcDbEntity
  8
4
  6
Continuous
 62
     2
100
AcDbPolyline
 90
     3
 70
   128
 43
0.0
 10
20.0
 20
20.0
 10
20.0
 20
400.0
 10
574.0
 20
400.0
  0
LINE
  5
D2
330
1F
100
AcDbEntity
  8
4
  6
Continuous
 62
     2
100
AcDbLine
 10
574.0
 20
20.0
 30
0.0
 11
574.0
 21
400.0
 31
0.0
  0
MTEXT
  5
D3
330
1F
100
AcDbEntity
  8
4
  6
Continuous
 62
     2
100
AcDbMText
 10
298.0
 20
22.4
 30
0.0
 40
6.0
 41
58.8
 71
     7
 72
     1
  1
\T1.111;\W0.900;大橋　一之
  7
KANJI5
 73
     1
 44
1.0
  0
LINE
  5
D4
330
1F
100
AcDbEntity
  8
4
  6
Continuous
 62
     2
100
AcDbLine
 10
420.0
 20
56.0
 30
0.0
 11
464.0
 21
56.0
 31
0.0
  0
LINE
  5
D5
330
1F
100
AcDbEntity
  8
4
  6
Continuous
 62
     2
100
AcDbLine
 10
420.0
 20
56.0
 30
0.0
 11
420.0
 21
32.0
 31
0.0
  0
MTEXT
  5
D6
330
1F
100
AcDbEntity
  8
4
  6
Continuous
 62
     2
100
AcDbMText
 10
421.0
 20
55.0
 30
0.0
 40
5.0
 41
20.0
 71
     1
 72
     3
  1
\W1.000;用紙
  7
KANJI1
 73
     1
 44
1.0
  0
LINE
  5
D8
330
1F
100
AcDbEntity
  8
2
  6
LTYPE1
 62
     2
100
AcDbLine
 10
201.018435801
 20
248.288895055
 30
0.0
 11
151.63890299
 21
248.288895055
 31
0.0
  0
LINE
  5
D9
330
1F
100
AcDbEntity
  8
2
  6
LTYPE1
 62
     2
100
AcDbLine
 10
201.018435801
 20
248.288895055
 30
0.0
 11
151.63890299
 21
248.288895055
 31
0.0
  0
LINE
  5
DA
330
1F
100
AcDbEntity
  8
2
  6
Continuous
 62
     1
100
AcDbLine
 10
152.328669395
 20
254.288895055
 30
0.0
 11
200.328669395
 21
254.288895055
 31
0.0
  0
LINE
  5
DB
330
1F
100
AcDbEntity
  8
2
  6
Continuous
 62
     1
100
AcDbLine
 10
152.328669395
 20
254.288895055
 30
0.0
 11
200.328669395
 21
254.288895055
 31
0.0
  0
LINE
  5
DD
330
1F
100
AcDbEntity
  8
2
  6
LTYPE2
 62
     2
100
AcDbLine
 10
146.328669395
 20
236.888895055
 30
0.0
 11
206.328669395
 21
236.888895055
 31
0.0
  0
LINE
  5
DE
330
1F
100
AcDbEntity
  8
2
  6
Continuous
 62
     1
100
AcDbLine
 10
218.187755486
 20
272.147981146
 30
0.0
 11
220.026233117
 21
273.986458777
 31
0.0
  0
LINE
  5
DF
330
1F
100
AcDbEntity
  8
2
  6
Continuous
 62
     1
100
AcDbLine
 10
194.187755486
 20
296.147981146
 30
0.0
 11
196.026233117
 21
297.986458777
 31
0.0
  0
ELLIPSE
  5
E0
330
1F
100
AcDbEntity
  8
2
  6
Continuous
 62
     1
100
AcDbEllipse
 10
217.226947385
 20
304.787173045
 30
0.0
 11
2.121320344
 21
2.121320344
 31
0.0
 40
0.707106781
 41
0.000002543
 42
1.570793784
  0
ELLIPSE
  5
E1
330
1F
100
AcDbEntity
  8
2
  6
Continuous
 62
     1
100
AcDbEllipse
 10
244.226947385
 20
277.787173045
 30
0.0
 11
2.121320344
 21
2.121320344
 31
0.0
 40
0.707106781
 41
4.712390779
 42
0.0
  0
LINE
  5
E2
330
1F
100
AcDbEntity
  8
2
  6
Continuous
 62
     1
100
AcDbLine
 10
219.348263914
 20
306.908497203
 30
0.0
 11
247.648265031
 21
278.608496086
 31
0.0
  0
LINE
  5
E3
330
1F
100
AcDbEntity
  8
2
  6
Continuous
 62
     1
100
AcDbLine
 10
233.564715421
 20
264.124941081
 30
0.0
 11
245.7269512
 21
276.28717686
 31
0.0
  0
LINE
  5
E4
330
1F
100
AcDbEntity
  8
2
  6
Continuous
 62
     1
100
AcDbLine
 10
136.328669395
 20
238.288895055
 30
0.0
 11
136.328669395
 21
234.288895055
 31
0.0
  0
LINE
  5
E5
330
1F
100
AcDbEntity
  8
2
  6
Continuous
 62
     1
100
AcDbLine
 10
152.328669395
 20
254.288895055
 30
0.0
 11
136.328669395
 21
238.288895055
 31
0.0
  0
LINE
  5
E6
330
1F
100
AcDbEntity
  8
2
  6
Continuous
 62
     1
100
AcDbLine
 10
136.328669395
 20
234.288895055
 30
0.0
 11
216.328669395
 21
234.288895055
 31
0.0
  0
LINE
  5
E7
330
1F
100
AcDbEntity
  8
2
  6
Continuous
 62
     1
100
AcDbLine
 10
216.328669395
 20
238.288895055
 30
0.0
 11
216.328669395
 21
234.288895055
 31
0.0
  0
LINE
  5
E8
330
1F
100
AcDbEntity
  8
2
  6
Continuous
 62
     1
100
AcDbLine
 10
200.328669395
 20
254.288895055
 30
0.0
 11
216.328669395
 21
238.288895055
 31
0.0
  0
LINE
  5
E9
330
1F
100
AcDbEntity
  8
2
  6
LTYPE2
 62
     2
100
AcDbLine
 10
146.328669395
 20
236.888895055
 30
0.0
 11
146.328669395
 21
234.288895055
 31
0.0
  0
LINE
  5
EA
330
1F
100
AcDbEntity
  8
2
  6
LTYPE2
 62
     2
100
AcDbLine
 10
206.328669395
 20
236.888895055
 30
0.0
 11
206.328669395
 21
234.288895055
 31
0.0
  0
LINE
  5
EB
330
1F
100
AcDbEntity
  8
2
  6
Continuous
 62
     1
100
AcDbLine
 10
194.187755486
 20
296.147981146
 30
0.0
 11
236.187755486
 21
254.147981146
 31
0.0
  0
LINE
  5
EC
330
1F
100
AcDbEntity
  8
2
  6
Continuous
 62
     1
100
AcDbLine
 10
196.026233117
 20
297.986458777
 30
0.0
 11
238.026233117
 21
255.986458777
 31
0.0
  0
LINE
  5
ED
330
1F
100
AcDbEntity
  8
2
  6
Continuous
 62
     1
100
AcDbLine
 10
234.187755486
 20
256.147981146
 30
0.0
 11
236.026233117
 21
257.986458777
 31
0.0
  0
LINE
  5
EE
330
1F
100
AcDbEntity
  8
2
  6
Continuous
 62
     1
100
AcDbLine
 10
236.187755486
 20
254.147981146
 30
0.0
 11
238.026233117
 21
255.986458777
 31
0.0
  0
LINE
  5
EF
330
1F
100
AcDbEntity
  8
7
  6
Continuous
 62
     2
100
AcDbLine
 10
367.878764059
 20
227.957304327
 30
0.0
 11
392.6275014
 21
252.706041669
 31
0.0
  0
LINE
  5
F0
330
1F
100
AcDbEntity
  8
7
  6
Continuous
 62
     2
100
AcDbLine
 10
389.799074275
 20
249.877614544
 30
0.0
 11
387.299074275
 21
254.207741563
 31
0.0
  0
LINE
  5
F1
330
1F
100
AcDbEntity
  8
7
  6
Continuous
 62
     2
100
AcDbLine
 10
389.799074275
 20
249.877614544
 30
0.0
 11
385.468947256
 21
252.377614544
 31
0.0
  0
LWPOLYLINE
  5
F3
330
1F
100
AcDbEntity
  8
7
  6
Continuous
 62
     2
100
AcDbPolyline
 90
     3
 70
   128
 43
0.0
 10
389.799074275
 20
249.877614544
 10
361.514803028
 20
278.161885791
 10
364.014803028
 20
273.831758773
  0
LINE
  5
F4
330
1F
100
AcDbEntity
  8
7
  6
Continuous
 62
     2
100
AcDbLine
 10
361.514803028
 20
278.161885791
 30
0.0
 11
365.844930047
 21
275.661885791
 31
0.0
  0
LINE
  5
F5
330
1F
100
AcDbEntity
  8
7
  6
Continuous
 62
     2
100
AcDbLine
 10
339.594492811
 20
256.241575575
 30
0.0
 11
364.343230153
 21
280.990312916
 31
0.0
  0
MTEXT
  5
F6
330
1F
100
AcDbEntity
  8
7
  6
Continuous
 62
     2
100
AcDbMText
 10
374.313435767
 20
268.191680177
 30
0.0
 40
6.0
 41
15.6
 71
     7
 72
     1
  1
\T1.167;\W0.600;４０
  7
KANJI6
 11
0.707106781
 21
-0.707106781
 31
0.0
 73
     1
 44
1.0
  0
LINE
  5
F8
330
1F
100
AcDbEntity
  8
7
  6
Continuous
 62
     2
100
AcDbLine
 10
361.514803028
 20
278.161885791
 30
0.0
 11
359.014803028
 21
282.49201281
 31
0.0
  0
LINE
  5
F9
330
1F
100
AcDbEntity
  8
7
  6
Continuous
 62
     2
100
AcDbLine
 10
361.514803028
 20
278.161885791
 30
0.0
 11
357.184676009
 21
280.661885791
 31
0.0
  0
LWPOLYLINE
  5
FB
330
1F
100
AcDbEntity
  8
7
  6
Continuous
 62
     2
100
AcDbPolyline
 90
     3
 70
   128
 43
0.0
 10
361.514803028
 20
278.161885791
 10
333.23053178
 20
306.446157039
 10
335.73053178
 20
302.11603002
  0
LINE
  5
FC
330
1F
100
AcDbEntity
  8
7
  6
Continuous
 62
     2
100
AcDbLine
 10
333.23053178
 20
306.446157039
 30
0.0
 11
337.560658799
 21
303.946157039
 31
0.0
  0
LINE
  5
FD
330
1F
100
AcDbEntity
  8
7
  6
Continuous
 62
     2
100
AcDbLine
 10
311.310221564
 20
284.525846822
 30
0.0
 11
336.058958905
 21
309.274584164
 31
0.0
  0
MTEXT
  5
FE
330
1F
100
AcDbEntity
  8
7
  6
Continuous
 62
     2
100
AcDbMText
 10
346.02916452
 20
296.475951424
 30
0.0
 40
6.0
 41
15.6
 71
     7
 72
     1
  1
\T1.167;\W0.600;４０
  7
KANJI6
 11
0.707106781
 21
-0.707106781
 31
0.0
 73
     1
 44
1.0
  0
LINE
  5
FF
330
1F
100
AcDbEntity
  8
7
  6
Continuous
 62
     2
100
AcDbLine
 10
333.23053178
 20
306.446157039
 30
0.0
 11
330.73053178
 21
310.776284058
 31
0.0
  0
LINE
  5
100
330
1F
100
AcDbEntity
  8
7
  6
Continuous
 62
     2
100
AcDbLine
 10
333.23053178
 20
306.446157039
 30
0.0
 11
328.900404761
 21
308.946157039
 31
0.0
  0
LWPOLYLINE
  5
102
330
1F
100
AcDbEntity
  8
7
  6
Continuous
 62
     2
100
AcDbPolyline
 90
     3
 70
   128
 43
0.0
 10
333.23053178
 20
306.446157039
 10
267.099134815
 20
372.577554005
 10
269.599134815
 20
368.247426986
  0
LINE
  5
103
330
1F
100
AcDbEntity
  8
7
  6
Continuous
 62
     2
100
AcDbLine
 10
267.099134815
 20
372.577554005
 30
0.0
 11
271.429261834
 21
370.077554005
 31
0.0
  0
LINE
  5
104
330
1F
100
AcDbEntity
  8
7
  6
Continuous
 62
     2
100
AcDbLine
 10
257.906746659
 20
363.385165849
 30
0.0
 11
269.927561939
 21
375.405981129
 31
0.0
  0
MTEXT
  5
105
330
1F
100
AcDbEntity
  8
7
  6
Continuous
 62
     2
100
AcDbMText
 10
289.91178497
 20
352.593330974
 30
0.0
 40
6.0
 41
66.0
 71
     7
 72
     1
  1
\T1.167;\W0.600;（９３．５２４）
  7
KANJI6
 11
0.707106781
 21
-0.707106781
 31
0.0
 73
     1
 44
1.0
  0
LINE
  5
106
330
1F
100
AcDbEntity
  8
7
  6
Continuous
 62
     2
100
AcDbLine
 10
389.799074275
 20
249.877614544
 30
0.0
 11
387.299074275
 21
254.207741563
 31
0.0
  0
LINE
  5
107
330
1F
100
AcDbEntity
  8
7
  6
Continuous
 62
     2
100
AcDbLine
 10
389.799074275
 20
249.877614544
 30
0.0
 11
385.468947256
 21
252.377614544
 31
0.0
  0
LWPOLYLINE
  5
109
330
1F
100
AcDbEntity
  8
7
  6
Continuous
 62
     2
100
AcDbPolyline
 90
     4
 70
   128
 43
0.0
 10
384.495773416
 20
255.180915403
 10
389.799074275
 20
249.877614544
 10
396.870142087
 20
242.806546732
 10
402.173442946
 20
237.503245873
  0
LINE
  5
10A
330
1F
100
AcDbEntity
  8
7
  6
Continuous
 62
     2
100
AcDbLine
 10
396.870142087
 20
242.806546732
 30
0.0
 11
399.370142087
 21
238.476419713
 31
0.0
  0
LINE
  5
10B
330
1F
100
AcDbEntity
  8
7
  6
Continuous
 62
     2
100
AcDbLine
 10
396.870142087
 20
242.806546732
 30
0.0
 11
401.200269106
 21
240.306546732
 31
0.0
  0
LINE
  5
10C
330
1F
100
AcDbEntity
  8
7
  6
Continuous
 62
     2
100
AcDbLine
 10
380.60668612
 20
226.543090765
 30
0.0
 11
399.698569212
 21
245.634973857
 31
0.0
  0
MTEXT
  5
10D
330
1F
100
AcDbEntity
  8
7
  6
Continuous
 62
     2
100
AcDbMText
 10
391.991105297
 20
250.514010647
 30
0.0
 40
6.0
 41
15.6
 71
     7
 72
     1
  1
\T1.167;\W0.600;１０
  7
KANJI6
 11
0.707106781
 21
-0.707106781
 31
0.0
 73
     1
 44
1.0
  0
LINE
  5
10E
330
1F
100
AcDbEntity
  8
7
  6
Continuous
 62
     2
100
AcDbLine
 10
398.28435565
 20
244.220760295
 30
0.0
 11
410.30517093
 21
256.241575575
 31
0.0
  0
LINE
  5
10F
330
1F
100
AcDbEntity
  8
7
  6
Continuous
 62
     2
100
AcDbLine
 10
407.476743805
 20
253.41314845
 30
0.0
 11
404.976743805
 21
257.743275469
 31
0.0
  0
LINE
  5
110
330
1F
100
AcDbEntity
  8
7
  6
Continuous
 62
     2
100
AcDbLine
 10
407.476743805
 20
253.41314845
 30
0.0
 11
403.146616786
 21
255.91314845
 31
0.0
  0
LWPOLYLINE
  5
112
330
1F
100
AcDbEntity
  8
7
  6
Continuous
 62
     2
100
AcDbPolyline
 90
     3
 70
   128
 43
0.0
 10
407.476743805
 20
253.41314845
 10
277.705736532
 20
383.184155723
 10
280.205736532
 20
378.854028704
  0
LINE
  5
113
330
1F
100
AcDbEntity
  8
7
  6
Continuous
 62
     2
100
AcDbLine
 10
277.705736532
 20
383.184155723
 30
0.0
 11
282.035863551
 21
380.684155723
 31
0.0
  0
LINE
  5
114
330
1F
100
AcDbEntity
  8
7
  6
Continuous
 62
     2
100
AcDbLine
 10
268.513348377
 20
373.991767567
 30
0.0
 11
280.534163657
 21
386.012582847
 31
0.0
  0
MTEXT
  5
115
330
1F
100
AcDbEntity
  8
7
  6
Continuous
 62
     2
100
AcDbMText
 10
330.853267601
 20
332.865051779
 30
0.0
 40
6.0
 41
74.4
 71
     7
 72
     1
  1
\T1.167;\W0.600;（１８３．５２４）
  7
KANJI6
 11
0.707106781
 21
-0.707106781
 31
0.0
 73
     1
 44
1.0
  0
LINE
  5
116
330
1F
100
AcDbEntity
  8
7
  6
Continuous
 62
     2
100
AcDbLine
 10
367.878764059
 20
236.442585701
 30
0.0
 11
392.6275014
 21
211.69384836
 31
0.0
  0
LINE
  5
117
330
1F
100
AcDbEntity
  8
7
  6
Continuous
 62
     2
100
AcDbLine
 10
389.799074275
 20
214.522275485
 30
0.0
 11
385.468947256
 21
212.022275485
 31
0.0
  0
LINE
  5
118
330
1F
100
AcDbEntity
  8
7
  6
Continuous
 62
     2
100
AcDbLine
 10
389.799074275
 20
214.522275485
 30
0.0
 11
387.299074275
 21
210.192148466
 31
0.0
  0
LWPOLYLINE
  5
11A
330
1F
100
AcDbEntity
  8
7
  6
Continuous
 62
     2
100
AcDbPolyline
 90
     3
 70
   128
 43
0.0
 10
389.799074275
 20
214.522275485
 10
347.372667404
 20
172.095868613
 10
351.702794423
 20
174.595868613
  0
LINE
  5
11B
330
1F
100
AcDbEntity
  8
7
  6
Continuous
 62
     2
100
AcDbLine
 10
347.372667404
 20
172.095868613
 30
0.0
 11
349.872667404
 21
176.425995632
 31
0.0
  0
LINE
  5
11C
330
1F
100
AcDbEntity
  8
7
  6
Continuous
 62
     2
100
AcDbLine
 10
325.452357187
 20
194.01617883
 30
0.0
 11
350.201094529
 21
169.267441489
 31
0.0
  0
MTEXT
  5
11D
330
1F
100
AcDbEntity
  8
7
  6
Continuous
 62
     2
100
AcDbMText
 10
364.413940831
 20
191.965569165
 30
0.0
 40
6.0
 41
15.6
 71
     7
 72
     1
  1
\T1.167;\W0.600;６０
  7
KANJI6
 11
0.707106781
 21
0.707106781
 31
0.0
 73
     1
 44
1.0
  0
LINE
  5
11E
330
1F
100
AcDbEntity
  8
7
  6
Continuous
 62
     2
100
AcDbLine
 10
380.60668612
 20
237.856799264
 30
0.0
 11
410.30517093
 21
208.158314454
 31
0.0
  0
LINE
  5
11F
330
1F
100
AcDbEntity
  8
7
  6
Continuous
 62
     2
100
AcDbLine
 10
407.476743805
 20
210.986741579
 30
0.0
 11
403.146616786
 21
208.486741579
 31
0.0
  0
LINE
  5
120
330
1F
100
AcDbEntity
  8
7
  6
Continuous
 62
     2
100
AcDbLine
 10
407.476743805
 20
210.986741579
 30
0.0
 11
404.976743805
 21
206.65661456
 31
0.0
  0
LWPOLYLINE
  5
122
330
1F
100
AcDbEntity
  8
7
  6
Continuous
 62
     2
100
AcDbPolyline
 90
     3
 70
   128
 43
0.0
 10
407.476743805
 20
210.986741579
 10
350.90820131
 20
154.418199084
 10
355.238328329
 20
156.918199084
  0
LINE
  5
123
330
1F
100
AcDbEntity
  8
7
  6
Continuous
 62
     2
100
AcDbLine
 10
350.90820131
 20
154.418199084
 30
0.0
 11
353.40820131
 21
158.748326103
 31
0.0
  0
LINE
  5
124
330
1F
100
AcDbEntity
  8
7
  6
Continuous
 62
     2
100
AcDbLine
 10
324.038143625
 20
181.288256769
 30
0.0
 11
353.736628435
 21
151.589771959
 31
0.0
  0
MTEXT
  5
125
330
1F
100
AcDbEntity
  8
7
  6
Continuous
 62
     2
100
AcDbMText
 10
375.020542549
 20
181.358967447
 30
0.0
 40
6.0
 41
15.6
 71
     7
 72
     1
  1
\T1.167;\W0.600;８０
  7
KANJI6
 11
0.707106781
 21
0.707106781
 31
0.0
 73
     1
 44
1.0
  0
LINE
  5
126
330
1F
100
AcDbEntity
  8
7
  6
Continuous
 62
     2
100
AcDbLine
 10
350.90820131
 20
154.418199084
 30
0.0
 11
346.578074291
 21
151.918199084
 31
0.0
  0
LINE
  5
127
330
1F
100
AcDbEntity
  8
7
  6
Continuous
 62
     2
100
AcDbLine
 10
350.90820131
 20
154.418199084
 30
0.0
 11
348.40820131
 21
150.088072065
 31
0.0
  0
LINE
  5
128
330
1F
100
AcDbEntity
  8
7
  6
Continuous
 62
     2
100
AcDbLine
 10
350.90820131
 20
154.418199084
 30
0.0
 11
328.422205668
 21
131.932203442
 31
0.0
  0
LINE
  5
129
330
1F
100
AcDbEntity
  8
7
  6
Continuous
 62
     2
100
AcDbLine
 10
343.412869429
 20
146.922867203
 30
0.0
 11
347.742996448
 21
149.422867203
 31
0.0
  0
LINE
  5
12A
330
1F
100
AcDbEntity
  8
7
  6
Continuous
 62
     2
100
AcDbLine
 10
343.412869429
 20
146.922867203
 30
0.0
 11
345.912869429
 21
151.252994222
 31
0.0
  0
LINE
  5
12B
330
1F
100
AcDbEntity
  8
7
  6
Continuous
 62
     2
100
AcDbLine
 10
237.601969049
 20
252.733767584
 30
0.0
 11
346.241296554
 21
144.094440079
 31
0.0
  0
MTEXT
  5
12C
330
1F
100
AcDbEntity
  8
7
  6
Continuous
 62
     2
100
AcDbMText
 10
327.007992106
 20
133.346417004
 30
0.0
 40
6.0
 41
32.4
 71
     7
 72
     1
  1
\T1.167;\W0.600;１０．６
  7
KANJI6
 11
0.707106781
 21
0.707106781
 31
0.0
 73
     1
 44
1.0
  0
LINE
  5
12D
330
1F
100
AcDbEntity
  8
2
  6
Continuous
 62
     1
100
AcDbLine
 10
136.328669395
 20
152.11005208
 30
0.0
 11
216.328669395
 21
152.11005208
 31
0.0
  0
LINE
  5
12E
330
1F
100
AcDbEntity
  8
2
  6
Continuous
 62
     1
100
AcDbLine
 10
136.328669395
 20
149.51005208
 30
0.0
 11
136.328669395
 21
152.11005208
 31
0.0
  0
LINE
  5
12F
330
1F
100
AcDbEntity
  8
2
  6
Continuous
 62
     1
100
AcDbLine
 10
216.328669395
 20
149.51005208
 30
0.0
 11
216.328669395
 21
152.11005208
 31
0.0
  0
LINE
  5
130
330
1F
100
AcDbEntity
  8
0
  6
LTYPE1
 62
     2
100
AcDbLine
 10
201.018435801
 20
248.288895055
 30
0.0
 11
151.63890299
 21
248.288895055
 31
0.0
  0
LINE
  5
131
330
1F
100
AcDbEntity
  8
0
  6
LTYPE1
 62
     2
100
AcDbLine
 10
201.018435801
 20
248.288895055
 30
0.0
 11
151.63890299
 21
248.288895055
 31
0.0
  0
LINE
  5
132
330
1F
100
AcDbEntity
  8
0
  6
Continuous
 62
     1
100
AcDbLine
 10
306.099676668
 20
152.036081313
 30
0.0
 11
304.685463106
 21
150.621867751
 31
0.0
  0
LINE
  5
133
330
1F
100
AcDbEntity
  8
0
  6
Continuous
 62
     1
100
AcDbLine
 10
221.246862926
 20
236.888895055
 30
0.0
 11
306.099676668
 21
152.036081313
 31
0.0
  0
LWPOLYLINE
  5
135
330
1F
100
AcDbEntity
  8
0
  6
Continuous
 62
     1
100
AcDbPolyline
 90
     3
 70
   128
 43
0.0
 10
221.246862926
 20
236.888895055
 10
219.832649363
 20
235.474681493
 10
304.685463106
 20
150.621867751
  0
LINE
  5
136
330
1F
100
AcDbEntity
  8
0
  6
Continuous
 62
     1
100
AcDbLine
 10
232.560571425
 20
222.746759432
 30
0.0
 11
230.722093793
 21
220.908281801
 31
0.0
  0
LINE
  5
137
330
1F
100
AcDbEntity
  8
0
  6
Continuous
 62
     1
100
AcDbLine
 10
120.096767366
 20
222.746759432
 30
0.0
 11
121.935244997
 21
220.908281801
 31
0.0
  0
LINE
  5
138
330
1F
100
AcDbEntity
  8
0
  6
Continuous
 62
     1
100
AcDbLine
 10
136.328669395
 20
238.288895055
 30
0.0
 11
136.328669395
 21
234.288895055
 31
0.0
  0
LINE
  5
139
330
1F
100
AcDbEntity
  8
0
  6
Continuous
 62
     1
100
AcDbLine
 10
152.328669395
 20
254.288895055
 30
0.0
 11
200.328669395
 21
254.288895055
 31
0.0
  0
LINE
  5
13A
330
1F
100
AcDbEntity
  8
0
  6
Continuous
 62
     1
100
AcDbLine
 10
216.328669395
 20
238.288895055
 30
0.0
 11
216.328669395
 21
234.288895055
 31
0.0
  0
LINE
  5
13B
330
1F
100
AcDbEntity
  8
0
  6
Continuous
 62
     1
100
AcDbLine
 10
216.328669395
 20
238.288895055
 30
0.0
 11
216.328669395
 21
234.288895055
 31
0.0
  0
LINE
  5
13C
330
1F
100
AcDbEntity
  8
0
  6
Continuous
 62
     1
100
AcDbLine
 10
200.328669395
 20
254.288895055
 30
0.0
 11
216.328669395
 21
238.288895055
 31
0.0
  0
LINE
  5
13D
330
1F
100
AcDbEntity
  8
0
  6
Continuous
 62
     1
100
AcDbLine
 10
152.328669395
 20
254.288895055
 30
0.0
 11
200.328669395
 21
254.288895055
 31
0.0
  0
LINE
  5
13E
330
1F
100
AcDbEntity
  8
0
  6
Continuous
 62
     1
100
AcDbLine
 10
152.328669395
 20
254.288895055
 30
0.0
 11
136.328669395
 21
238.288895055
 31
0.0
  0
LINE
  5
13F
330
1F
100
AcDbEntity
  8
0
  6
Continuous
 62
     1
100
AcDbLine
 10
136.328669395
 20
238.288895055
 30
0.0
 11
136.328669395
 21
234.288895055
 31
0.0
  0
LINE
  5
140
330
1F
100
AcDbEntity
  8
0
  6
Continuous
 62
     1
100
AcDbLine
 10
46.557662123
 20
152.036081313
 30
0.0
 11
47.971875685
 21
150.621867751
 31
0.0
  0
LINE
  5
141
330
1F
100
AcDbEntity
  8
0
  6
Continuous
 62
     1
100
AcDbLine
 10
131.410475865
 20
236.888895055
 30
0.0
 11
46.557662123
 21
152.036081313
 31
0.0
  0
LWPOLYLINE
  5
143
330
1F
100
AcDbEntity
  8
0
  6
Continuous
 62
     1
100
AcDbPolyline
 90
     3
 70
   128
 43
0.0
 10
131.410475865
 20
236.888895055
 10
132.824689428
 20
235.474681493
 10
47.971875685
 20
150.621867751
  0
LINE
  5
144
330
1F
100
AcDbEntity
  8
0
  6
Continuous
 62
     1
100
AcDbLine
 10
220.115492076
 20
228.686456394
 30
0.0
 11
225.772346325
 21
223.029602144
 31
0.0
  0
LINE
  5
145
330
1F
100
AcDbEntity
  8
0
  6
Continuous
 62
     1
100
AcDbLine
 10
221.529705638
 20
230.100669956
 30
0.0
 11
220.115492076
 21
228.686456394
 31
0.0
  0
LINE
  5
146
330
1F
100
AcDbEntity
  8
0
  6
Continuous
 62
     1
100
AcDbLine
 10
227.186559888
 20
224.443815706
 30
0.0
 11
225.772346325
 21
223.029602144
 31
0.0
  0
LINE
  5
147
330
1F
100
AcDbEntity
  8
0
  6
Continuous
 62
     1
100
AcDbLine
 10
132.541846715
 20
228.686456394
 30
0.0
 11
126.884992466
 21
223.029602144
 31
0.0
  0
LINE
  5
148
330
1F
100
AcDbEntity
  8
0
  6
Continuous
 62
     1
100
AcDbLine
 10
131.127633153
 20
230.100669956
 30
0.0
 11
132.541846715
 21
228.686456394
 31
0.0
  0
LINE
  5
149
330
1F
100
AcDbEntity
  8
0
  6
Continuous
 62
     1
100
AcDbLine
 10
125.470778903
 20
224.443815706
 30
0.0
 11
126.884992466
 21
223.029602144
 31
0.0
  0
LINE
  5
14A
330
1F
100
AcDbEntity
  8
0
  6
LTYPE2
 62
     2
100
AcDbLine
 10
207.328669395
 20
236.888895055
 30
0.0
 11
216.328669395
 21
236.888895055
 31
0.0
  0
LINE
  5
14B
330
1F
100
AcDbEntity
  8
0
  6
LTYPE2
 62
     2
100
AcDbLine
 10
136.328669395
 20
236.888895055
 30
0.0
 11
145.328669395
 21
236.888895055
 31
0.0
  0
LINE
  5
14C
330
1F
100
AcDbEntity
  8
0
  6
Continuous
 62
     1
100
AcDbLine
 10
244.842184132
 20
260.484216262
 30
0.0
 11
301.410726627
 21
317.052758757
 31
0.0
  0
CIRCLE
  5
14D
330
1F
100
AcDbEntity
  8
0
  6
Continuous
 62
     1
100
AcDbCircle
 10
273.12645538
 20
246.342080638
 30
0.0
 40
3.5
  0
CIRCLE
  5
14E
330
1F
100
AcDbEntity
  8
0
  6
Continuous
 62
     1
100
AcDbCircle
 10
301.410726627
 20
218.057809391
 30
0.0
 40
3.5
  0
CIRCLE
  5
14F
330
1F
100
AcDbEntity
  8
0
  6
Continuous
 62
     1
100
AcDbCircle
 10
329.694997874
 20
189.773538143
 30
0.0
 40
3.5
  0
CIRCLE
  5
150
330
1F
100
AcDbEntity
  8
0
  6
Continuous
 62
     1
100
AcDbCircle
 10
315.552862251
 20
288.768487509
 30
0.0
 40
3.5
  0
CIRCLE
  5
151
330
1F
100
AcDbEntity
  8
0
  6
Continuous
 62
     1
100
AcDbCircle
 10
343.837133498
 20
260.484216262
 30
0.0
 40
3.5
  0
CIRCLE
  5
152
330
1F
100
AcDbEntity
  8
0
  6
Continuous
 62
     1
100
AcDbCircle
 10
372.121404746
 20
232.199945014
 30
0.0
 40
3.5
  0
LINE
  5
153
330
1F
100
AcDbEntity
  8
0
  6
Continuous
 62
     1
100
AcDbLine
 10
294.339669605
 20
246.342069848
 30
0.0
 11
329.694997874
 21
210.986741579
 31
0.0
  0
ARC
  5
154
330
1F
100
AcDbEntity
  8
0
  6
Continuous
 62
     1
100
AcDbCircle
 10
340.301599592
 20
221.593343297
 30
0.0
 40
15.0
100
AcDbArc
 50
225.0
 51
45.000082426
  0
LWPOLYLINE
  5
157
330
1F
100
AcDbEntity
  8
0
  6
Continuous
 62
     1
100
AcDbPolyline
 90
     3
 70
   128
 43
0.0
 10
350.908186051
 20
232.199960273
 42
0.0
 10
315.552846992
 20
267.555299332
 42
0.999999789
 10
294.339669605
 20
246.342069849
 42
0.0
  0
LINE
  5
158
330
1F
100
AcDbEntity
  8
0
  6
LTYPE2
 62
     2
100
AcDbLine
 10
244.189492939
 20
261.136907455
 30
0.0
 11
300.758035434
 21
317.70544995
 31
0.0
  0
ARC
  5
159
330
1F
100
AcDbEntity
  8
0
  6
Continuous
 62
     1
100
AcDbCircle
 10
372.121404746
 20
232.199945014
 30
0.0
 40
10.0
100
AcDbArc
 50
315.0
 51
45.0
  0
LINE
  5
15A
330
1F
100
AcDbEntity
  8
0
  6
Continuous
 62
     1
100
AcDbLine
 10
336.766065686
 20
182.702470331
 30
0.0
 11
379.192472558
 21
225.128877202
 31
0.0
  0
ARC
  5
15B
330
1F
100
AcDbEntity
  8
0
  6
Continuous
 62
     1
100
AcDbCircle
 10
329.694997874
 20
189.773538143
 30
0.0
 40
10.0
100
AcDbArc
 50
225.0
 51
315.0
  0
LINE
  5
15C
330
1F
100
AcDbEntity
  8
0
  6
LTYPE2
 62
     2
100
AcDbLine
 10
314.138648688
 20
304.324836695
 30
0.0
 11
257.570106193
 21
247.7562942
 31
0.0
  0
CIRCLE
  5
15D
330
1F
100
AcDbEntity
  8
0
  6
LTYPE2
 62
     2
100
AcDbCircle
 10
258.277212975
 20
261.191323043
 30
0.0
 40
2.2
  0
CIRCLE
  5
15E
330
1F
100
AcDbEntity
  8
0
  6
LTYPE2
 62
     2
100
AcDbCircle
 10
258.277212975
 20
261.191323043
 30
0.0
 40
2.2
  0
CIRCLE
  5
15F
330
1F
100
AcDbEntity
  8
0
  6
LTYPE2
 62
     2
100
AcDbCircle
 10
279.49041641
 20
282.404526479
 30
0.0
 40
2.2
  0
CIRCLE
  5
160
330
1F
100
AcDbEntity
  8
0
  6
LTYPE2
 62
     2
100
AcDbCircle
 10
279.49041641
 20
282.404526479
 30
0.0
 40
2.2
  0
CIRCLE
  5
161
330
1F
100
AcDbEntity
  8
0
  6
LTYPE2
 62
     2
100
AcDbCircle
 10
300.703619846
 20
303.617729914
 30
0.0
 40
2.2
  0
CIRCLE
  5
162
330
1F
100
AcDbEntity
  8
0
  6
LTYPE2
 62
     2
100
AcDbCircle
 10
300.703619846
 20
303.617729914
 30
0.0
 40
2.2
  0
LINE
  5
163
330
1F
100
AcDbEntity
  8
0
  6
Continuous
 62
     1
100
AcDbLine
 10
256.492533097
 20
361.970952287
 30
0.0
 11
199.923990602
 21
305.402409792
 31
0.0
  0
LINE
  5
164
330
1F
100
AcDbEntity
  8
0
  6
Continuous
 62
     1
100
AcDbLine
 10
257.906746659
 20
360.556738725
 30
0.0
 11
201.338204164
 21
303.98819623
 31
0.0
  0
CIRCLE
  5
165
330
1F
100
AcDbEntity
  8
0
  6
Continuous
 62
     2
100
AcDbCircle
 10
258.277212975
 20
261.191323043
 30
0.0
 40
4.0
  0
CIRCLE
  5
166
330
1F
100
AcDbEntity
  8
0
  6
Continuous
 62
     2
100
AcDbCircle
 10
279.49041641
 20
282.404526479
 30
0.0
 40
4.0
  0
CIRCLE
  5
167
330
1F
100
AcDbEntity
  8
0
  6
Continuous
 62
     2
100
AcDbCircle
 10
300.703619846
 20
303.617729914
 30
0.0
 40
4.0
  0
LINE
  5
168
330
1F
100
AcDbEntity
  8
0
  6
Continuous
 62
     1
100
AcDbLine
 10
379.192472558
 20
239.271012826
 30
0.0
 11
256.492533097
 21
361.970952287
 31
0.0
  0
LINE
  5
169
330
1F
100
AcDbEntity
  8
0
  6
Continuous
 62
     1
100
AcDbLine
 10
322.623930063
 20
182.702470331
 30
0.0
 11
242.383087367
 21
262.943313027
 31
0.0
  0
LINE
  5
16A
330
1F
100
AcDbEntity
  8
0
  6
Continuous
 62
     1
100
AcDbLine
 10
202.383087367
 20
302.943313027
 30
0.0
 11
199.923990602
 21
305.402409792
 31
0.0
  0
LINE
  5
16B
330
1F
100
AcDbEntity
  8
0
  6
LTYPE2
 62
     2
100
AcDbLine
 10
203.176681795
 20
302.149718599
 30
0.0
 11
202.383087367
 21
302.943313027
 31
0.0
  0
LINE
  5
16C
330
1F
100
AcDbEntity
  8
0
  6
LTYPE2
 62
     2
100
AcDbLine
 10
259.74522429
 20
358.718261093
 30
0.0
 11
203.176681795
 21
302.149718599
 31
0.0
  0
ARC
  5
16D
330
1F
100
AcDbEntity
  8
0
  6
Continuous
 62
     2
100
AcDbCircle
 10
207.726072682
 20
293.322337311
 30
0.0
 40
1.624996023
100
AcDbArc
 50
337.619870236
 51
112.380129764
  0
ARC
  5
16E
330
1F
100
AcDbEntity
  8
0
  6
Continuous
 62
     2
100
AcDbCircle
 10
202.156095304
 20
294.116321283
 30
0.0
 40
5.002133346
100
AcDbArc
 50
8.130196301
 51
81.869853087
  0
ARC
  5
16F
330
1F
100
AcDbEntity
  8
0
  6
Continuous
 62
     2
100
AcDbCircle
 10
201.362365732
 20
299.6875803
 30
0.0
 40
1.623909879
100
AcDbArc
 50
337.578019525
 51
112.405765162
  0
LINE
  5
170
330
1F
100
AcDbEntity
  8
0
  6
Continuous
 62
     2
100
AcDbLine
 10
202.510639605
 20
300.835861802
 30
0.0
 11
208.875118389
 21
294.471383018
 31
0.0
  0
LINE
  5
171
330
1F
100
AcDbEntity
  8
0
  6
Continuous
 62
     2
100
AcDbLine
 10
207.107351436
 20
290.582295721
 30
0.0
 11
209.228671779
 21
292.703616065
 31
0.0
  0
LINE
  5
172
330
1F
100
AcDbEntity
  8
0
  6
Continuous
 62
     2
100
AcDbLine
 10
198.622070061
 20
299.067577096
 30
0.0
 11
200.743390405
 21
301.188897439
 31
0.0
  0
LINE
  5
173
330
1F
100
AcDbEntity
  8
0
  6
Continuous
 62
     2
100
AcDbLine
 10
200.743390405
 20
296.946256752
 30
0.0
 11
202.864710749
 21
299.067577096
 31
0.0
  0
LINE
  5
174
330
1F
100
AcDbEntity
  8
0
  6
Continuous
 62
     2
100
AcDbLine
 10
204.986031092
 20
292.703616065
 30
0.0
 11
207.107351436
 21
294.824936409
 31
0.0
  0
ARC
  5
175
330
1F
100
AcDbEntity
  8
0
  6
Continuous
 62
     2
100
AcDbCircle
 10
227.726072682
 20
273.322337311
 30
0.0
 40
1.624996023
100
AcDbArc
 50
337.619870236
 51
112.380129764
  0
ARC
  5
176
330
1F
100
AcDbEntity
  8
0
  6
Continuous
 62
     2
100
AcDbCircle
 10
222.156095304
 20
274.116321283
 30
0.0
 40
5.002133346
100
AcDbArc
 50
8.130196301
 51
81.869853087
  0
ARC
  5
177
330
1F
100
AcDbEntity
  8
0
  6
Continuous
 62
     2
100
AcDbCircle
 10
221.362365732
 20
279.6875803
 30
0.0
 40
1.623909879
100
AcDbArc
 50
337.578019525
 51
112.405765162
  0
LINE
  5
178
330
1F
100
AcDbEntity
  8
0
  6
Continuous
 62
     2
100
AcDbLine
 10
222.510639605
 20
280.835861802
 30
0.0
 11
228.875118389
 21
274.471383018
 31
0.0
  0
LINE
  5
179
330
1F
100
AcDbEntity
  8
0
  6
Continuous
 62
     2
100
AcDbLine
 10
227.107351436
 20
270.582295721
 30
0.0
 11
229.228671779
 21
272.703616065
 31
0.0
  0
LINE
  5
17A
330
1F
100
AcDbEntity
  8
0
  6
Continuous
 62
     2
100
AcDbLine
 10
218.622070061
 20
279.067577096
 30
0.0
 11
220.743390405
 21
281.188897439
 31
0.0
  0
LINE
  5
17B
330
1F
100
AcDbEntity
  8
0
  6
Continuous
 62
     2
100
AcDbLine
 10
220.743390405
 20
276.946256752
 30
0.0
 11
222.864710749
 21
279.067577096
 31
0.0
  0
LINE
  5
17C
330
1F
100
AcDbEntity
  8
0
  6
Continuous
 62
     2
100
AcDbLine
 10
224.986031092
 20
272.703616065
 30
0.0
 11
227.107351436
 21
274.824936409
 31
0.0
  0
LINE
  5
17D
330
1F
100
AcDbEntity
  8
0
  6
Continuous
 62
     2
100
AcDbLine
 10
220.026233117
 20
273.986458777
 30
0.0
 11
221.864710749
 21
275.824936409
 31
0.0
  0
LINE
  5
17E
330
1F
100
AcDbEntity
  8
0
  6
LTYPE1
 62
     2
100
AcDbLine
 10
361.79764574
 20
200.097297148
 30
0.0
 11
267.794870249
 21
294.100072639
 31
0.0
  0
LINE
  5
17F
330
1F
100
AcDbEntity
  8
0
  6
Continuous
 62
     1
100
AcDbLine
 10
136.328669395
 20
141.51005208
 30
0.0
 11
136.328669395
 21
149.51005208
 31
0.0
  0
LINE
  5
180
330
1F
100
AcDbEntity
  8
0
  6
Continuous
 62
     1
100
AcDbLine
 10
216.328669395
 20
149.51005208
 30
0.0
 11
216.328669395
 21
141.51005208
 31
0.0
  0
ARC
  5
181
330
1F
100
AcDbEntity
  8
0
  6
Continuous
 62
     1
100
AcDbCircle
 10
154.328669395
 20
79.998236409
 30
0.0
 40
5.0
100
AcDbArc
 50
180.0
 51
270.0
  0
LINE
  5
182
330
1F
100
AcDbEntity
  8
0
  6
Continuous
 62
     1
100
AcDbLine
 10
198.328669395
 20
74.998236409
 30
0.0
 11
154.328669395
 21
74.998236409
 31
0.0
  0
ARC
  5
183
330
1F
100
AcDbEntity
  8
0
  6
Continuous
 62
     1
100
AcDbCircle
 10
198.328669395
 20
79.998236409
 30
0.0
 40
5.0
100
AcDbArc
 50
270.0
 51
0.0
  0
LINE
  5
184
330
1F
100
AcDbEntity
  8
0
  6
LTYPE2
 62
     2
100
AcDbLine
 10
135.315858252
 20
61.51005208
 30
0.0
 11
135.315858252
 21
141.51005208
 31
0.0
  0
LINE
  5
185
330
1F
100
AcDbEntity
  8
0
  6
Continuous
 62
     1
100
AcDbLine
 10
134.23890299
 20
61.51005208
 30
0.0
 11
134.23890299
 21
141.51005208
 31
0.0
  0
LINE
  5
186
330
1F
100
AcDbEntity
  8
0
  6
LTYPE2
 62
     2
100
AcDbLine
 10
217.341480539
 20
61.51005208
 30
0.0
 11
217.341480539
 21
141.51005208
 31
0.0
  0
LINE
  5
187
330
1F
100
AcDbEntity
  8
0
  6
Continuous
 62
     1
100
AcDbLine
 10
218.418435801
 20
61.51005208
 30
0.0
 11
218.418435801
 21
141.51005208
 31
0.0
  0
LINE
  5
188
330
1F
100
AcDbEntity
  8
0
  6
Continuous
 62
     1
100
AcDbLine
 10
149.328669395
 20
79.998236409
 30
0.0
 11
149.328669395
 21
113.51005208
 31
0.0
  0
LINE
  5
189
330
1F
100
AcDbEntity
  8
0
  6
Continuous
 62
     1
100
AcDbLine
 10
149.328669395
 20
113.51005208
 30
0.0
 11
145.328669395
 21
128.01005208
 31
0.0
  0
LINE
  5
18A
330
1F
100
AcDbEntity
  8
0
  6
Continuous
 62
     1
100
AcDbLine
 10
203.328669395
 20
113.51005208
 30
0.0
 11
203.328669395
 21
79.998236409
 31
0.0
  0
LINE
  5
18B
330
1F
100
AcDbEntity
  8
0
  6
Continuous
 62
     1
100
AcDbLine
 10
203.328669395
 20
113.51005208
 30
0.0
 11
207.328669395
 21
128.01005208
 31
0.0
  0
LINE
  5
18C
330
1F
100
AcDbEntity
  8
0
  6
Continuous
 62
     1
100
AcDbLine
 10
232.560571425
 20
141.51005208
 30
0.0
 11
232.560571425
 21
61.51005208
 31
0.0
  0
LINE
  5
18D
330
1F
100
AcDbEntity
  8
0
  6
Continuous
 62
     2
100
AcDbLine
 10
230.722093793
 20
141.51005208
 30
0.0
 11
230.722093793
 21
61.51005208
 31
0.0
  0
LINE
  5
18E
330
1F
100
AcDbEntity
  8
0
  6
Continuous
 62
     1
100
AcDbLine
 10
216.328669395
 20
141.51005208
 30
0.0
 11
299.035243359
 21
141.51005208
 31
0.0
  0
ELLIPSE
  5
18F
330
1F
100
AcDbEntity
  8
0
  6
Continuous
 62
     2
100
AcDbEllipse
 10
222.9439192
 20
131.51005208
 30
0.0
 11
0.0
 21
4.0
 31
0.0
 40
0.707106781
 41
0.0
 42
6.283185307
  0
LINE
  5
190
330
1F
100
AcDbEntity
  8
0
  6
Continuous
 62
     2
100
AcDbLine
 10
222.9439192
 20
135.51005208
 30
0.0
 11
224.358132763
 21
135.51005208
 31
0.0
  0
LINE
  5
191
330
1F
100
AcDbEntity
  8
0
  6
Continuous
 62
     2
100
AcDbLine
 10
222.9439192
 20
127.51005208
 30
0.0
 11
224.358132763
 21
127.51005208
 31
0.0
  0
ELLIPSE
  5
192
330
1F
100
AcDbEntity
  8
0
  6
Continuous
 62
     2
100
AcDbEllipse
 10
224.358132763
 20
131.51005208
 30
0.0
 11
0.0
 21
4.0
 31
0.0
 40
0.707106781
 41
3.141592654
 42
0.0
  0
ELLIPSE
  5
193
330
1F
100
AcDbEntity
  8
0
  6
Continuous
 62
     2
100
AcDbEllipse
 10
222.9439192
 20
71.51005208
 30
0.0
 11
0.0
 21
-4.0
 31
0.0
 40
0.707106781
 41
0.0
 42
6.283185307
  0
LINE
  5
194
330
1F
100
AcDbEntity
  8
0
  6
Continuous
 62
     2
100
AcDbLine
 10
222.9439192
 20
67.51005208
 30
0.0
 11
224.358132763
 21
67.51005208
 31
0.0
  0
LINE
  5
195
330
1F
100
AcDbEntity
  8
0
  6
Continuous
 62
     2
100
AcDbLine
 10
222.9439192
 20
75.51005208
 30
0.0
 11
224.358132763
 21
75.51005208
 31
0.0
  0
ELLIPSE
  5
196
330
1F
100
AcDbEntity
  8
0
  6
Continuous
 62
     2
100
AcDbEllipse
 10
224.358132763
 20
71.51005208
 30
0.0
 11
0.0
 21
-4.0
 31
0.0
 40
0.707106781
 41
0.0
 42
3.141592654
  0
ELLIPSE
  5
197
330
1F
100
AcDbEntity
  8
0
  6
Continuous
 62
     2
100
AcDbEllipse
 10
222.9439192
 20
101.51005208
 30
0.0
 11
0.0
 21
4.0
 31
0.0
 40
0.707106781
 41
0.0
 42
6.283185307
  0
LINE
  5
198
330
1F
100
AcDbEntity
  8
0
  6
Continuous
 62
     2
100
AcDbLine
 10
222.9439192
 20
105.51005208
 30
0.0
 11
224.358132763
 21
105.51005208
 31
0.0
  0
LINE
  5
199
330
1F
100
AcDbEntity
  8
0
  6
Continuous
 62
     2
100
AcDbLine
 10
222.9439192
 20
97.51005208
 30
0.0
 11
224.358132763
 21
97.51005208
 31
0.0
  0
ELLIPSE
  5
19A
330
1F
100
AcDbEntity
  8
0
  6
Continuous
 62
     2
100
AcDbEllipse
 10
224.358132763
 20
101.51005208
 30
0.0
 11
0.0
 21
4.0
 31
0.0
 40
0.707106781
 41
3.141592654
 42
0.0
  0
LINE
  5
19B
330
1F
100
AcDbEntity
  8
0
  6
Continuous
 62
     1
100
AcDbLine
 10
120.096767366
 20
141.51005208
 30
0.0
 11
120.096767366
 21
61.51005208
 31
0.0
  0
LINE
  5
19C
330
1F
100
AcDbEntity
  8
0
  6
Continuous
 62
     2
100
AcDbLine
 10
121.935244997
 20
141.51005208
 30
0.0
 11
121.935244997
 21
61.51005208
 31
0.0
  0
ELLIPSE
  5
19D
330
1F
100
AcDbEntity
  8
0
  6
Continuous
 62
     2
100
AcDbEllipse
 10
129.71341959
 20
131.51005208
 30
0.0
 11
0.0
 21
-4.0
 31
0.0
 40
0.707106781
 41
0.0
 42
6.283185307
  0
LINE
  5
19E
330
1F
100
AcDbEntity
  8
0
  6
Continuous
 62
     2
100
AcDbLine
 10
129.71341959
 20
135.51005208
 30
0.0
 11
128.299206028
 21
135.51005208
 31
0.0
  0
LINE
  5
19F
330
1F
100
AcDbEntity
  8
0
  6
Continuous
 62
     2
100
AcDbLine
 10
129.71341959
 20
127.51005208
 30
0.0
 11
128.299206028
 21
127.51005208
 31
0.0
  0
ELLIPSE
  5
1A0
330
1F
100
AcDbEntity
  8
0
  6
Continuous
 62
     2
100
AcDbEllipse
 10
128.299206028
 20
131.51005208
 30
0.0
 11
0.0
 21
-4.0
 31
0.0
 40
0.707106781
 41
3.141592654
 42
0.0
  0
ELLIPSE
  5
1A1
330
1F
100
AcDbEntity
  8
0
  6
Continuous
 62
     2
100
AcDbEllipse
 10
129.71341959
 20
71.51005208
 30
0.0
 11
0.0
 21
4.0
 31
0.0
 40
0.707106781
 41
0.0
 42
6.283185307
  0
LINE
  5
1A2
330
1F
100
AcDbEntity
  8
0
  6
Continuous
 62
     2
100
AcDbLine
 10
129.71341959
 20
67.51005208
 30
0.0
 11
128.299206028
 21
67.51005208
 31
0.0
  0
LINE
  5
1A3
330
1F
100
AcDbEntity
  8
0
  6
Continuous
 62
     2
100
AcDbLine
 10
129.71341959
 20
75.51005208
 30
0.0
 11
128.299206028
 21
75.51005208
 31
0.0
  0
ELLIPSE
  5
1A4
330
1F
100
AcDbEntity
  8
0
  6
Continuous
 62
     2
100
AcDbEllipse
 10
128.299206028
 20
71.51005208
 30
0.0
 11
0.0
 21
4.0
 31
0.0
 40
0.707106781
 41
0.0
 42
3.141592654
  0
ELLIPSE
  5
1A5
330
1F
100
AcDbEntity
  8
0
  6
Continuous
 62
     2
100
AcDbEllipse
 10
129.71341959
 20
101.51005208
 30
0.0
 11
0.0
 21
-4.0
 31
0.0
 40
0.707106781
 41
0.0
 42
6.283185307
  0
LINE
  5
1A6
330
1F
100
AcDbEntity
  8
0
  6
Continuous
 62
     2
100
AcDbLine
 10
129.71341959
 20
105.51005208
 30
0.0
 11
128.299206028
 21
105.51005208
 31
0.0
  0
LINE
  5
1A7
330
1F
100
AcDbEntity
  8
0
  6
Continuous
 62
     2
100
AcDbLine
 10
129.71341959
 20
97.51005208
 30
0.0
 11
128.299206028
 21
97.51005208
 31
0.0
  0
ELLIPSE
  5
1A8
330
1F
100
AcDbEntity
  8
0
  6
Continuous
 62
     2
100
AcDbEllipse
 10
128.299206028
 20
101.51005208
 30
0.0
 11
0.0
 21
-4.0
 31
0.0
 40
0.707106781
 41
3.141592654
 42
0.0
  0
LINE
  5
1A9
330
1F
100
AcDbEntity
  8
0
  6
Continuous
 62
     1
100
AcDbLine
 10
53.622099724
 20
141.51005208
 30
0.0
 11
136.328669395
 21
141.51005208
 31
0.0
  0
LINE
  5
1AA
330
1F
100
AcDbEntity
  8
0
  6
Continuous
 62
     1
100
AcDbLine
 10
53.622102619
 20
61.51005208
 30
0.0
 11
299.035243359
 21
61.51005208
 31
0.0
  0
LINE
  5
1AB
330
1F
100
AcDbEntity
  8
0
  6
LTYPE1
 62
     2
100
AcDbLine
 10
214.148669395
 20
101.51005208
 30
0.0
 11
309.548669395
 21
101.51005208
 31
0.0
  0
LINE
  5
1AC
330
1F
100
AcDbEntity
  8
0
  6
LTYPE1
 62
     2
100
AcDbLine
 10
138.508669395
 20
101.51005208
 30
0.0
 11
43.108669395
 21
101.51005208
 31
0.0
  0
LINE
  5
1AD
330
1F
100
AcDbEntity
  8
0
  6
LTYPE1
 62
     2
100
AcDbLine
 10
176.328669395
 20
154.50005208
 30
0.0
 11
176.328669395
 21
56.341867751
 31
0.0
  0
LINE
  5
1AE
330
1F
100
AcDbEntity
  8
0
  6
LTYPE2
 62
     2
100
AcDbLine
 10
136.328669395
 20
146.91005208
 30
0.0
 11
145.328669395
 21
146.91005208
 31
0.0
  0
LINE
  5
1AF
330
1F
100
AcDbEntity
  8
0
  6
LTYPE2
 62
     2
100
AcDbLine
 10
207.328669395
 20
146.91005208
 30
0.0
 11
216.328669395
 21
146.91005208
 31
0.0
  0
LINE
  5
1B0
330
1F
100
AcDbEntity
  8
0
  6
Continuous
 62
     1
100
AcDbLine
 10
207.328669395
 20
149.51005208
 30
0.0
 11
207.328669395
 21
128.01005208
 31
0.0
  0
LINE
  5
1B1
330
1F
100
AcDbEntity
  8
0
  6
Continuous
 62
     1
100
AcDbLine
 10
145.328669395
 20
128.01005208
 30
0.0
 11
145.328669395
 21
149.51005208
 31
0.0
  0
LINE
  5
1B2
330
1F
100
AcDbEntity
  8
2
  6
Continuous
 62
     1
100
AcDbLine
 10
206.328669395
 20
149.51005208
 30
0.0
 11
216.328669395
 21
149.51005208
 31
0.0
  0
LINE
  5
1B3
330
1F
100
AcDbEntity
  8
2
  6
Continuous
 62
     1
100
AcDbLine
 10
136.328669395
 20
149.51005208
 30
0.0
 11
146.328669395
 21
149.51005208
 31
0.0
  0
LINE
  5
1B4
330
1F
100
AcDbEntity
  8
2
  6
LTYPE2
 62
     2
100
AcDbLine
 10
146.328669395
 20
149.51005208
 30
0.0
 11
206.328669395
 21
149.51005208
 31
0.0
  0
LINE
  5
1B5
330
1F
100
AcDbEntity
  8
0
  6
Continuous
 62
     1
100
AcDbLine
 10
218.103002908
 20
233.527372686
 30
0.0
 11
230.722093793
 21
220.908281801
 31
0.0
  0
ARC
  5
1B6
330
1F
100
AcDbEntity
  8
0
  6
Continuous
 62
     1
100
AcDbCircle
 10
216.264525277
 20
231.688895055
 30
0.0
 40
2.6
100
AcDbArc
 50
45.0
 51
90.0
  0
ARC
  5
1B7
330
1F
100
AcDbEntity
  8
0
  6
Continuous
 62
     1
100
AcDbCircle
 10
216.264525277
 20
231.688895055
 30
0.0
 40
5.2
100
AcDbArc
 50
45.0
 51
90.0
  0
LINE
  5
1B8
330
1F
100
AcDbEntity
  8
0
  6
Continuous
 62
     1
100
AcDbLine
 10
134.554337232
 20
233.527374035
 30
0.0
 11
121.935244997
 21
220.908281801
 31
0.0
  0
LINE
  5
1B9
330
1F
100
AcDbEntity
  8
0
  6
Continuous
 62
     1
100
AcDbLine
 10
136.39281585
 20
234.288895055
 30
0.0
 11
216.264525277
 21
234.288895055
 31
0.0
  0
ARC
  5
1BA
330
1F
100
AcDbEntity
  8
0
  6
Continuous
 62
     1
100
AcDbCircle
 10
136.392813514
 20
231.688895055
 30
0.0
 40
5.2
100
AcDbArc
 50
90.0
 51
135.0
  0
ARC
  5
1BB
330
1F
100
AcDbEntity
  8
0
  6
Continuous
 62
     1
100
AcDbCircle
 10
136.392813514
 20
231.688895055
 30
0.0
 40
2.6
100
AcDbArc
 50
89.999948522
 51
134.999957968
  0
LINE
  5
1BC
330
1F
100
AcDbEntity
  8
0
  6
Continuous
 62
     2
100
AcDbLine
 10
243.42797057
 20
261.898429824
 30
0.0
 11
299.996513065
 21
318.466972319
 31
0.0
  0
LINE
  5
1BD
330
1F
100
AcDbEntity
  8
0
  6
Continuous
 62
     1
100
AcDbLine
 10
216.429028913
 20
307.989254573
 30
0.0
 11
228.68207724
 21
316.2423029
 31
0.0
  0
LINE
  5
1BE
330
1F
100
AcDbEntity
  8
0
  6
Continuous
 62
     1
100
AcDbLine
 10
205.893137873
 20
297.453363533
 30
0.0
 11
216.429028913
 21
307.989254573
 31
0.0
  0
ELLIPSE
  5
1BF
330
1F
100
AcDbEntity
  8
0
  6
Continuous
 62
     1
100
AcDbEllipse
 10
254.878509351
 20
337.438735011
 30
0.0
 11
3.535533906
 21
3.535533906
 31
0.0
 40
0.707106781
 41
0.0
 42
1.570794801
  0
LINE
  5
1C0
330
1F
100
AcDbEntity
  8
0
  6
Continuous
 62
     1
100
AcDbLine
 10
228.68207724
 20
316.2423029
 30
0.0
 11
252.378514746
 21
339.938740406
 31
0.0
  0
ELLIPSE
  5
1C1
330
1F
100
AcDbEntity
  8
0
  6
Continuous
 62
     1
100
AcDbEllipse
 10
256.178509351
 20
336.138735011
 30
0.0
 11
3.535533906
 21
3.535533906
 31
0.0
 40
0.707106781
 41
0.0
 42
1.570794801
  0
LINE
  5
1C2
330
1F
100
AcDbEntity
  8
0
  6
Continuous
 62
     1
100
AcDbLine
 10
229.98207724
 20
314.9423029
 30
0.0
 11
253.678514746
 21
338.638740406
 31
0.0
  0
LINE
  5
1C3
330
1F
100
AcDbEntity
  8
0
  6
Continuous
 62
     1
100
AcDbLine
 10
255.68207724
 20
289.2423029
 30
0.0
 11
279.378514746
 21
312.938740406
 31
0.0
  0
ELLIPSE
  5
1C4
330
1F
100
AcDbEntity
  8
0
  6
Continuous
 62
     1
100
AcDbEllipse
 10
276.878509351
 20
315.438735011
 30
0.0
 11
3.535533906
 21
3.535533906
 31
0.0
 40
0.707106781
 41
4.712390506
 42
0.000001079
  0
LINE
  5
1C5
330
1F
100
AcDbEntity
  8
0
  6
Continuous
 62
     1
100
AcDbLine
 10
280.41404056
 20
318.974271614
 30
0.0
 11
258.414043257
 21
340.974268917
 31
0.0
  0
LINE
  5
1C6
330
1F
100
AcDbEntity
  8
0
  6
Continuous
 62
     1
100
AcDbLine
 10
247.429028913
 20
276.989254573
 30
0.0
 11
255.68207724
 21
289.2423029
 31
0.0
  0
LINE
  5
1C7
330
1F
100
AcDbEntity
  8
0
  6
Continuous
 62
     1
100
AcDbLine
 10
234.064710749
 20
263.624936409
 30
0.0
 11
247.429028913
 21
276.989254573
 31
0.0
  0
LINE
  5
1C8
330
1F
100
AcDbEntity
  8
0
  6
Continuous
 62
     1
100
AcDbLine
 10
196.026233117
 20
297.986458777
 30
0.0
 11
235.42623042
 21
258.586461475
 31
0.0
  0
ELLIPSE
  5
1C9
330
1F
100
AcDbEntity
  8
0
  6
Continuous
 62
     1
100
AcDbEllipse
 10
239.10318838
 20
262.26341404
 30
0.0
 11
3.676955262
 21
3.676955262
 31
0.0
 40
0.707106781
 41
3.141591616
 42
4.712390018
  0
LINE
  5
1CA
330
1F
100
AcDbEntity
  8
0
  6
Continuous
 62
     1
100
AcDbLine
 10
197.864710749
 20
299.824936409
 30
0.0
 11
237.264708051
 21
260.424939106
 31
0.0
  0
ELLIPSE
  5
1CB
330
1F
100
AcDbEntity
  8
0
  6
Continuous
 62
     1
100
AcDbEllipse
 10
239.10318838
 20
262.26341404
 30
0.0
 11
1.838477631
 21
1.838477631
 31
0.0
 40
0.707106781
 41
3.141590579
 42
4.712390448
  0
LINE
  5
1CC
330
1F
100
AcDbEntity
  8
0
  6
Continuous
 62
     1
100
AcDbLine
 10
240.403191077
 20
260.963416737
 30
0.0
 11
242.383087367
 21
262.943313027
 31
0.0
  0
LINE
  5
1CD
330
1F
100
AcDbEntity
  8
0
  6
Continuous
 62
     1
100
AcDbLine
 10
241.703192194
 20
259.663417854
 30
0.0
 11
243.683087367
 21
261.643313027
 31
0.0
  0
LINE
  5
1CE
330
1F
100
AcDbEntity
  8
0
  6
Continuous
 62
     1
100
AcDbLine
 10
196.026233117
 20
297.986458777
 30
0.0
 11
197.864710749
 21
299.824936409
 31
0.0
  0
LINE
  5
1CF
330
1F
100
AcDbEntity
  8
0
  6
Continuous
 62
     1
100
AcDbLine
 10
198.564710749
 20
299.124936409
 30
0.0
 11
202.383087367
 21
302.943313027
 31
0.0
  0
LINE
  5
1D0
330
1F
100
AcDbEntity
  8
0
  6
Continuous
 62
     1
100
AcDbLine
 10
145.328669395
 20
146.91005208
 30
0.0
 11
146.328669395
 21
146.91005208
 31
0.0
  0
LINE
  5
1D1
330
1F
100
AcDbEntity
  8
0
  6
Continuous
 62
     1
100
AcDbLine
 10
206.328669395
 20
146.91005208
 30
0.0
 11
207.328669395
 21
146.91005208
 31
0.0
  0
LINE
  5
1D2
330
1F
100
AcDbEntity
  8
0
  6
LTYPE2
 62
     2
100
AcDbLine
 10
146.328669395
 20
146.91005208
 30
0.0
 11
206.328669395
 21
146.91005208
 31
0.0
  0
LINE
  5
1D3
330
1F
100
AcDbEntity
  8
0
  6
Continuous
 62
     1
100
AcDbLine
 10
206.328669395
 20
149.51005208
 30
0.0
 11
216.328669395
 21
149.51005208
 31
0.0
  0
LINE
  5
1D4
330
1F
100
AcDbEntity
  8
0
  6
Continuous
 62
     1
100
AcDbLine
 10
136.328669395
 20
149.51005208
 30
0.0
 11
146.328669395
 21
149.51005208
 31
0.0
  0
LINE
  5
1D5
330
1F
100
AcDbEntity
  8
7
  6
Continuous
 62
     2
100
AcDbLine
 10
189.328669395
 20
61.51005208
 30
0.0
 11
190.622764621
 21
66.339681211
 31
0.0
  0
LINE
  5
1D6
330
1F
100
AcDbEntity
  8
7
  6
Continuous
 62
     2
100
AcDbLine
 10
189.328669395
 20
61.51005208
 30
0.0
 11
188.03457417
 21
66.339681211
 31
0.0
  0
LWPOLYLINE
  5
1D8
330
1F
100
AcDbEntity
  8
7
  6
Continuous
 62
     2
100
AcDbPolyline
 90
     3
 70
   128
 43
0.0
 10
189.328669395
 20
40.31005208
 10
189.328669395
 20
74.998236409
 10
188.03457417
 20
70.168607277
  0
LINE
  5
1D9
330
1F
100
AcDbEntity
  8
7
  6
Continuous
 62
     2
100
AcDbLine
 10
189.328669395
 20
74.998236409
 30
0.0
 11
190.622764621
 21
70.168607277
 31
0.0
  0
MTEXT
  5
1DA
330
1F
100
AcDbEntity
  8
7
  6
Continuous
 62
     2
100
AcDbMText
 10
187.328669395
 20
40.31005208
 30
0.0
 40
6.0
 41
32.4
 71
     7
 72
     1
  1
\T1.167;\W0.600;１３．５
  7
KANJI6
 11
0.0
 21
1.0
 31
0.0
 73
     1
 44
1.0
  0
LINE
  5
1DB
330
1F
100
AcDbEntity
  8
7
  6
Continuous
 62
     2
100
AcDbLine
 10
149.328669395
 20
115.51005208
 30
0.0
 11
149.328669395
 21
171.11005208
 31
0.0
  0
LINE
  5
1DC
330
1F
100
AcDbEntity
  8
7
  6
Continuous
 62
     2
100
AcDbLine
 10
149.328669395
 20
167.11005208
 30
0.0
 11
154.158298527
 21
165.815956854
 31
0.0
  0
LINE
  5
1DD
330
1F
100
AcDbEntity
  8
7
  6
Continuous
 62
     2
100
AcDbLine
 10
149.328669395
 20
167.11005208
 30
0.0
 11
154.158298527
 21
168.404147305
 31
0.0
  0
LWPOLYLINE
  5
1DF
330
1F
100
AcDbEntity
  8
7
  6
Continuous
 62
     2
100
AcDbPolyline
 90
     3
 70
   128
 43
0.0
 10
149.328669395
 20
167.11005208
 10
203.328669395
 20
167.11005208
 10
198.499040264
 20
168.404147305
  0
LINE
  5
1E0
330
1F
100
AcDbEntity
  8
7
  6
Continuous
 62
     2
100
AcDbLine
 10
203.328669395
 20
167.11005208
 30
0.0
 11
198.499040264
 21
165.815956854
 31
0.0
  0
LINE
  5
1E1
330
1F
100
AcDbEntity
  8
7
  6
Continuous
 62
     2
100
AcDbLine
 10
203.328669395
 20
115.51005208
 30
0.0
 11
203.328669395
 21
171.11005208
 31
0.0
  0
MTEXT
  5
1E2
330
1F
100
AcDbEntity
  8
7
  6
Continuous
 62
     2
100
AcDbMText
 10
172.428669395
 20
169.11005208
 30
0.0
 40
6.0
 41
15.6
 71
     7
 72
     1
  1
\T1.167;\W0.600;５４
  7
KANJI6
 73
     1
 44
1.0
  0
LINE
  5
1E3
330
1F
100
AcDbEntity
  8
7
  6
Continuous
 62
     2
100
AcDbLine
 10
207.328669395
 20
151.51005208
 30
0.0
 11
207.328669395
 21
186.11005208
 31
0.0
  0
LINE
  5
1E4
330
1F
100
AcDbEntity
  8
7
  6
Continuous
 62
     2
100
AcDbLine
 10
207.328669395
 20
182.11005208
 30
0.0
 11
202.499040264
 21
183.404147305
 31
0.0
  0
LINE
  5
1E5
330
1F
100
AcDbEntity
  8
7
  6
Continuous
 62
     2
100
AcDbLine
 10
207.328669395
 20
182.11005208
 30
0.0
 11
202.499040264
 21
180.815956854
 31
0.0
  0
LWPOLYLINE
  5
1E7
330
1F
100
AcDbEntity
  8
7
  6
Continuous
 62
     2
100
AcDbPolyline
 90
     3
 70
   128
 43
0.0
 10
207.328669395
 20
182.11005208
 10
145.328669395
 20
182.11005208
 10
150.158298527
 20
180.815956854
  0
LINE
  5
1E8
330
1F
100
AcDbEntity
  8
7
  6
Continuous
 62
     2
100
AcDbLine
 10
145.328669395
 20
182.11005208
 30
0.0
 11
150.158298527
 21
183.404147305
 31
0.0
  0
LINE
  5
1E9
330
1F
100
AcDbEntity
  8
7
  6
Continuous
 62
     2
100
AcDbLine
 10
145.328669395
 20
151.51005208
 30
0.0
 11
145.328669395
 21
186.11005208
 31
0.0
  0
MTEXT
  5
1EA
330
1F
100
AcDbEntity
  8
7
  6
Continuous
 62
     2
100
AcDbMText
 10
172.428669395
 20
184.11005208
 30
0.0
 40
6.0
 41
15.6
 71
     7
 72
     1
  1
\T1.167;\W0.600;６２
  7
KANJI6
 73
     1
 44
1.0
  0
LINE
  5
1EB
330
1F
100
AcDbEntity
  8
7
  6
Continuous
 62
     2
100
AcDbLine
 10
216.328669395
 20
154.11005208
 30
0.0
 11
216.328669395
 21
201.11005208
 31
0.0
  0
LINE
  5
1EC
330
1F
100
AcDbEntity
  8
7
  6
Continuous
 62
     2
100
AcDbLine
 10
216.328669395
 20
197.11005208
 30
0.0
 11
211.499040264
 21
198.404147305
 31
0.0
  0
LINE
  5
1ED
330
1F
100
AcDbEntity
  8
7
  6
Continuous
 62
     2
100
AcDbLine
 10
216.328669395
 20
197.11005208
 30
0.0
 11
211.499040264
 21
195.815956854
 31
0.0
  0
LWPOLYLINE
  5
1EF
330
1F
100
AcDbEntity
  8
7
  6
Continuous
 62
     2
100
AcDbPolyline
 90
     3
 70
   128
 43
0.0
 10
216.328669395
 20
197.11005208
 10
136.328669395
 20
197.11005208
 10
141.158298527
 20
195.815956854
  0
LINE
  5
1F0
330
1F
100
AcDbEntity
  8
7
  6
Continuous
 62
     2
100
AcDbLine
 10
136.328669395
 20
197.11005208
 30
0.0
 11
141.158298527
 21
198.404147305
 31
0.0
  0
LINE
  5
1F1
330
1F
100
AcDbEntity
  8
7
  6
Continuous
 62
     2
100
AcDbLine
 10
136.328669395
 20
154.11005208
 30
0.0
 11
136.328669395
 21
201.11005208
 31
0.0
  0
MTEXT
  5
1F2
330
1F
100
AcDbEntity
  8
7
  6
Continuous
 62
     2
100
AcDbMText
 10
172.428669395
 20
199.11005208
 30
0.0
 40
6.0
 41
15.6
 71
     7
 72
     1
  1
\T1.167;\W0.600;８０
  7
KANJI6
 73
     1
 44
1.0
  0
LINE
  5
1F3
330
1F
100
AcDbEntity
  8
0
  6
LTYPE2
 62
     2
100
AcDbLine
 10
145.328669395
 20
240.288895055
 30
0.0
 11
145.328669395
 21
234.288895055
 31
0.0
  0
ARC
  5
1F4
330
1F
100
AcDbEntity
  8
0
  6
LTYPE2
 62
     2
100
AcDbCircle
 10
147.328669395
 20
240.288895055
 30
0.0
 40
2.0
100
AcDbArc
 50
90.0
 51
180.0
  0
LINE
  5
1F5
330
1F
100
AcDbEntity
  8
0
  6
LTYPE2
 62
     2
100
AcDbLine
 10
207.328669395
 20
240.288895055
 30
0.0
 11
207.328669395
 21
234.288895055
 31
0.0
  0
ARC
  5
1F6
330
1F
100
AcDbEntity
  8
0
  6
LTYPE2
 62
     2
100
AcDbCircle
 10
205.328669395
 20
240.288895055
 30
0.0
 40
2.0
100
AcDbArc
 50
0.0
 51
89.99984545
  0
LINE
  5
1F7
330
1F
100
AcDbEntity
  8
0
  6
LTYPE2
 62
     2
100
AcDbLine
 10
205.32867479
 20
242.288895055
 30
0.0
 11
147.328669395
 21
242.288895055
 31
0.0
  0
ELLIPSE
  5
1F8
330
1F
100
AcDbEntity
  8
0
  6
Continuous
 62
     1
100
AcDbEllipse
 10
297.621025982
 20
131.51005208
 30
0.0
 11
0.0
 21
10.0
 31
0.0
 40
0.707106781
 41
4.71238925
 42
0.0
  0
ELLIPSE
  5
1F9
330
1F
100
AcDbEntity
  8
0
  6
Continuous
 62
     1
100
AcDbEllipse
 10
299.035239544
 20
131.51005208
 30
0.0
 11
0.0
 21
10.0
 31
0.0
 40
0.707106781
 41
4.71238925
 42
6.283184768
  0
ELLIPSE
  5
1FA
330
1F
100
AcDbEntity
  8
0
  6
Continuous
 62
     1
100
AcDbEllipse
 10
297.621025982
 20
71.51005208
 30
0.0
 11
0.0
 21
10.0
 31
0.0
 40
0.707106781
 41
3.141592654
 42
4.712389194
  0
ELLIPSE
  5
1FB
330
1F
100
AcDbEntity
  8
0
  6
Continuous
 62
     1
100
AcDbEllipse
 10
299.035239544
 20
71.51005208
 30
0.0
 11
0.0
 21
10.0
 31
0.0
 40
0.707106781
 41
3.141593193
 42
4.71238956
  0
LINE
  5
1FC
330
1F
100
AcDbEntity
  8
0
  6
Continuous
 62
     1
100
AcDbLine
 10
304.692093793
 20
131.510054777
 30
0.0
 11
304.692093793
 21
71.510054212
 31
0.0
  0
LINE
  5
1FD
330
1F
100
AcDbEntity
  8
0
  6
Continuous
 62
     1
100
AcDbLine
 10
306.106307356
 20
131.510054777
 30
0.0
 11
306.106307356
 21
71.510057881
 31
0.0
  0
LINE
  5
1FE
330
1F
100
AcDbEntity
  8
0
  6
Continuous
 62
     1
100
AcDbLine
 10
251.652454517
 20
86.51005208
 30
0.0
 11
287.720463106
 21
86.51005208
 31
0.0
  0
LINE
  5
1FF
330
1F
100
AcDbEntity
  8
0
  6
Continuous
 62
     1
100
AcDbLine
 10
287.72046692
 20
116.51005208
 30
0.0
 11
251.652457214
 21
116.51005208
 31
0.0
  0
ELLIPSE
  5
200
330
1F
100
AcDbEntity
  8
0
  6
Continuous
 62
     1
100
AcDbEllipse
 10
251.652454517
 20
101.51005208
 30
0.0
 11
0.0
 21
15.0
 31
0.0
 40
0.707106781
 41
0.0
 42
3.141592654
  0
ELLIPSE
  5
201
330
1F
100
AcDbEntity
  8
0
  6
Continuous
 62
     1
100
AcDbEllipse
 10
287.720463106
 20
101.51005208
 30
0.0
 11
0.0
 21
15.0
 31
0.0
 40
0.707106781
 41
3.141592654
 42
6.283184948
  0
ELLIPSE
  5
202
330
1F
100
AcDbEntity
  8
0
  6
Continuous
 62
     1
100
AcDbEllipse
 10
253.066668079
 20
101.51005208
 30
0.0
 11
0.0
 21
15.0
 31
0.0
 40
0.707106781
 41
0.0
 42
3.141592654
  0
ELLIPSE
  5
203
330
1F
100
AcDbEntity
  8
0
  6
Continuous
 62
     1
100
AcDbEllipse
 10
297.621025982
 20
71.51005208
 30
0.0
 11
0.0
 21
3.5
 31
0.0
 40
0.707106781
 41
0.0
 42
6.283185307
  0
ELLIPSE
  5
204
330
1F
100
AcDbEntity
  8
0
  6
Continuous
 62
     1
100
AcDbEllipse
 10
299.035239544
 20
71.51005208
 30
0.0
 11
0.0
 21
3.5
 31
0.0
 40
0.707106781
 41
0.289751701
 42
2.851840952
  0
ELLIPSE
  5
205
330
1F
100
AcDbEntity
  8
0
  6
Continuous
 62
     1
100
AcDbEllipse
 10
269.330124046
 20
71.51005208
 30
0.0
 11
0.0
 21
3.5
 31
0.0
 40
0.707106781
 41
0.0
 42
6.283185307
  0
ELLIPSE
  5
206
330
1F
100
AcDbEntity
  8
0
  6
Continuous
 62
     1
100
AcDbEllipse
 10
270.744337609
 20
71.51005208
 30
0.0
 11
0.0
 21
3.5
 31
0.0
 40
0.707106781
 41
0.289751701
 42
2.851840952
  0
ELLIPSE
  5
207
330
1F
100
AcDbEntity
  8
0
  6
Continuous
 62
     1
100
AcDbEllipse
 10
241.045852799
 20
71.51005208
 30
0.0
 11
0.0
 21
3.5
 31
0.0
 40
0.707106781
 41
0.0
 42
6.283185307
  0
ELLIPSE
  5
208
330
1F
100
AcDbEntity
  8
0
  6
Continuous
 62
     1
100
AcDbEllipse
 10
242.460066361
 20
71.51005208
 30
0.0
 11
0.0
 21
3.5
 31
0.0
 40
0.707106781
 41
0.289751701
 42
2.851840952
  0
ELLIPSE
  5
209
330
1F
100
AcDbEntity
  8
0
  6
Continuous
 62
     1
100
AcDbEllipse
 10
269.330124046
 20
131.51005208
 30
0.0
 11
0.0
 21
3.5
 31
0.0
 40
0.707106781
 41
0.0
 42
6.283185307
  0
ELLIPSE
  5
20A
330
1F
100
AcDbEntity
  8
0
  6
Continuous
 62
     1
100
AcDbEllipse
 10
270.744337609
 20
131.51005208
 30
0.0
 11
0.0
 21
3.5
 31
0.0
 40
0.707106781
 41
0.289751701
 42
2.851840952
  0
ELLIPSE
  5
20B
330
1F
100
AcDbEntity
  8
0
  6
Continuous
 62
     1
100
AcDbEllipse
 10
297.621025982
 20
131.51005208
 30
0.0
 11
0.0
 21
3.5
 31
0.0
 40
0.707106781
 41
0.0
 42
6.283185307
  0
ELLIPSE
  5
20C
330
1F
100
AcDbEntity
  8
0
  6
Continuous
 62
     1
100
AcDbEllipse
 10
299.035239544
 20
131.51005208
 30
0.0
 11
0.0
 21
3.5
 31
0.0
 40
0.707106781
 41
0.289751701
 42
2.851840952
  0
ELLIPSE
  5
20D
330
1F
100
AcDbEntity
  8
0
  6
Continuous
 62
     1
100
AcDbEllipse
 10
242.460066361
 20
131.51005208
 30
0.0
 11
0.0
 21
3.5
 31
0.0
 40
0.707106781
 41
0.289751701
 42
2.851840952
  0
ELLIPSE
  5
20E
330
1F
100
AcDbEntity
  8
0
  6
Continuous
 62
     1
100
AcDbEllipse
 10
241.045852799
 20
131.51005208
 30
0.0
 11
0.0
 21
3.5
 31
0.0
 40
0.707106781
 41
0.0
 42
6.283185307
  0
LINE
  5
20F
330
1F
100
AcDbEntity
  8
0
  6
Continuous
 62
     1
100
AcDbLine
 10
101.004884274
 20
86.51005208
 30
0.0
 11
64.936875685
 21
86.51005208
 31
0.0
  0
ELLIPSE
  5
210
330
1F
100
AcDbEntity
  8
0
  6
Continuous
 62
     1
100
AcDbEllipse
 10
55.036312809
 20
71.51005208
 30
0.0
 11
0.0
 21
-10.0
 31
0.0
 40
0.707106781
 41
4.712388767
 42
0.0
  0
ELLIPSE
  5
211
330
1F
100
AcDbEntity
  8
0
  6
Continuous
 62
     1
100
AcDbEllipse
 10
55.036312809
 20
71.51005208
 30
0.0
 11
0.0
 21
-3.5
 31
0.0
 40
0.707106781
 41
0.0
 42
6.283185307
  0
ELLIPSE
  5
212
330
1F
100
AcDbEntity
  8
0
  6
Continuous
 62
     1
100
AcDbEllipse
 10
53.622099247
 20
71.51005208
 30
0.0
 11
0.0
 21
-3.5
 31
0.0
 40
0.707106781
 41
0.289751701
 42
2.851840952
  0
ELLIPSE
  5
213
330
1F
100
AcDbEntity
  8
0
  6
Continuous
 62
     1
100
AcDbEllipse
 10
83.327214745
 20
71.51005208
 30
0.0
 11
0.0
 21
-3.5
 31
0.0
 40
0.707106781
 41
0.0
 42
6.283185307
  0
ELLIPSE
  5
214
330
1F
100
AcDbEntity
  8
0
  6
Continuous
 62
     1
100
AcDbEllipse
 10
81.913001182
 20
71.51005208
 30
0.0
 11
0.0
 21
-3.5
 31
0.0
 40
0.707106781
 41
0.289751701
 42
2.851840952
  0
ELLIPSE
  5
215
330
1F
100
AcDbEntity
  8
0
  6
Continuous
 62
     1
100
AcDbEllipse
 10
111.611485992
 20
71.51005208
 30
0.0
 11
0.0
 21
-3.5
 31
0.0
 40
0.707106781
 41
0.0
 42
6.283185307
  0
ELLIPSE
  5
216
330
1F
100
AcDbEntity
  8
0
  6
Continuous
 62
     1
100
AcDbEllipse
 10
110.19727243
 20
71.51005208
 30
0.0
 11
0.0
 21
-3.5
 31
0.0
 40
0.707106781
 41
0.289751701
 42
2.851840952
  0
ELLIPSE
  5
217
330
1F
100
AcDbEntity
  8
0
  6
Continuous
 62
     1
100
AcDbEllipse
 10
53.622099247
 20
71.51005208
 30
0.0
 11
0.0
 21
-10.0
 31
0.0
 40
0.707106781
 41
4.7123884
 42
0.000000477
  0
LINE
  5
218
330
1F
100
AcDbEntity
  8
0
  6
Continuous
 62
     1
100
AcDbLine
 10
64.936871871
 20
116.51005208
 30
0.0
 11
101.004881577
 21
116.51005208
 31
0.0
  0
ELLIPSE
  5
219
330
1F
100
AcDbEntity
  8
0
  6
Continuous
 62
     1
100
AcDbEllipse
 10
55.036312809
 20
131.51005208
 30
0.0
 11
0.0
 21
-10.0
 31
0.0
 40
0.707106781
 41
3.141592654
 42
4.712388711
  0
ELLIPSE
  5
21A
330
1F
100
AcDbEntity
  8
0
  6
Continuous
 62
     1
100
AcDbEllipse
 10
83.327214745
 20
131.51005208
 30
0.0
 11
0.0
 21
-3.5
 31
0.0
 40
0.707106781
 41
0.0
 42
6.283185307
  0
ELLIPSE
  5
21B
330
1F
100
AcDbEntity
  8
0
  6
Continuous
 62
     1
100
AcDbEllipse
 10
81.913001182
 20
131.51005208
 30
0.0
 11
0.0
 21
-3.5
 31
0.0
 40
0.707106781
 41
0.289751701
 42
2.851840952
  0
ELLIPSE
  5
21C
330
1F
100
AcDbEntity
  8
0
  6
Continuous
 62
     1
100
AcDbEllipse
 10
55.036312809
 20
131.51005208
 30
0.0
 11
0.0
 21
-3.5
 31
0.0
 40
0.707106781
 41
0.0
 42
6.283185307
  0
ELLIPSE
  5
21D
330
1F
100
AcDbEntity
  8
0
  6
Continuous
 62
     1
100
AcDbEllipse
 10
53.622099247
 20
131.51005208
 30
0.0
 11
0.0
 21
-3.5
 31
0.0
 40
0.707106781
 41
0.289751701
 42
2.851840952
  0
ELLIPSE
  5
21E
330
1F
100
AcDbEntity
  8
0
  6
Continuous
 62
     1
100
AcDbEllipse
 10
111.611485992
 20
131.51005208
 30
0.0
 11
0.0
 21
-3.5
 31
0.0
 40
0.707106781
 41
0.0
 42
6.283185307
  0
ELLIPSE
  5
21F
330
1F
100
AcDbEntity
  8
0
  6
Continuous
 62
     1
100
AcDbEllipse
 10
110.19727243
 20
131.51005208
 30
0.0
 11
0.0
 21
-3.5
 31
0.0
 40
0.707106781
 41
0.289751701
 42
2.851840952
  0
ELLIPSE
  5
220
330
1F
100
AcDbEntity
  8
0
  6
Continuous
 62
     1
100
AcDbEllipse
 10
53.622099247
 20
131.51005208
 30
0.0
 11
0.0
 21
-10.0
 31
0.0
 40
0.707106781
 41
3.141592585
 42
4.712388711
  0
ELLIPSE
  5
221
330
1F
100
AcDbEntity
  8
0
  6
Continuous
 62
     1
100
AcDbEllipse
 10
101.004884274
 20
101.51005208
 30
0.0
 11
0.0
 21
-15.0
 31
0.0
 40
0.707106781
 41
0.0
 42
3.141592654
  0
ELLIPSE
  5
222
330
1F
100
AcDbEntity
  8
0
  6
Continuous
 62
     1
100
AcDbEllipse
 10
64.936875685
 20
101.51005208
 30
0.0
 11
0.0
 21
-15.0
 31
0.0
 40
0.707106781
 41
3.141593013
 42
0.0
  0
ELLIPSE
  5
223
330
1F
100
AcDbEntity
  8
0
  6
Continuous
 62
     1
100
AcDbEllipse
 10
99.590670712
 20
101.51005208
 30
0.0
 11
0.0
 21
-15.0
 31
0.0
 40
0.707106781
 41
0.0
 42
3.141592654
  0
LINE
  5
224
330
1F
100
AcDbEntity
  8
0
  6
Continuous
 62
     1
100
AcDbLine
 10
47.965244997
 20
131.510054777
 30
0.0
 11
47.965244997
 21
71.510054212
 31
0.0
  0
LINE
  5
225
330
1F
100
AcDbEntity
  8
0
  6
Continuous
 62
     1
100
AcDbLine
 10
46.551031435
 20
131.510054777
 30
0.0
 11
46.551031435
 21
71.510057881
 31
0.0
  0
LINE
  5
226
330
1F
100
AcDbEntity
  8
7
  6
Continuous
 62
     2
100
AcDbLine
 10
132.824689428
 20
238.303108618
 30
0.0
 11
168.802686741
 21
274.281105931
 31
0.0
  0
LINE
  5
227
330
1F
100
AcDbEntity
  8
7
  6
Continuous
 62
     2
100
AcDbLine
 10
165.974259616
 20
271.452678806
 30
0.0
 11
170.304386635
 21
268.952678806
 31
0.0
  0
LINE
  5
228
330
1F
100
AcDbEntity
  8
7
  6
Continuous
 62
     2
100
AcDbLine
 10
165.974259616
 20
271.452678806
 30
0.0
 11
168.474259616
 21
267.122551787
 31
0.0
  0
LWPOLYLINE
  5
22A
330
1F
100
AcDbEntity
  8
7
  6
Continuous
 62
     2
100
AcDbPolyline
 90
     3
 70
   128
 43
0.0
 10
165.974259616
 20
271.452678806
 42
0.414213562
 10
186.683079175
 20
271.452678806
 42
0.0
 10
184.183079175
 20
267.122551787
 42
0.0
  0
LINE
  5
22B
330
1F
100
AcDbEntity
  8
7
  6
Continuous
 62
     2
100
AcDbLine
 10
186.683079175
 20
271.452678806
 30
0.0
 11
182.352952156
 21
268.952678806
 31
0.0
  0
LINE
  5
22C
330
1F
100
AcDbEntity
  8
7
  6
Continuous
 62
     2
100
AcDbLine
 10
219.832649363
 20
238.303108618
 30
0.0
 11
183.85465205
 21
274.281105931
 31
0.0
  0
MTEXT
  5
22D
330
1F
100
AcDbEntity
  8
7
  6
Continuous
 62
     2
100
AcDbMText
 10
170.328669395
 20
270.449409006
 30
0.0
 40
6.0
 41
24.0
 71
     7
 72
     1
  1
\T1.167;\W0.600;９０゜
  7
KANJI6
 73
     1
 44
1.0
  0
LINE
  5
22E
330
1F
100
AcDbEntity
  8
0
  6
LTYPE2
 62
     2
100
AcDbLine
 10
473.565435801
 20
234.288895055
 30
0.0
 11
553.565435801
 21
234.288895055
 31
0.0
  0
LINE
  5
22F
330
1F
100
AcDbEntity
  8
0
  6
Continuous
 62
     1
100
AcDbLine
 10
470.765428171
 20
236.888895055
 30
0.0
 11
553.565435801
 21
236.888895055
 31
0.0
  0
LINE
  5
230
330
1F
100
AcDbEntity
  8
0
  6
Continuous
 62
     1
100
AcDbLine
 10
470.765435801
 20
234.288895055
 30
0.0
 11
473.565435801
 21
234.288895055
 31
0.0
  0
LINE
  5
231
330
1F
100
AcDbEntity
  8
0
  6
Continuous
 62
     1
100
AcDbLine
 10
465.565435801
 20
254.288895055
 30
0.0
 11
468.165435801
 21
254.288895055
 31
0.0
  0
LINE
  5
232
330
1F
100
AcDbEntity
  8
0
  6
Continuous
 62
     1
100
AcDbLine
 10
468.165435801
 20
239.488895055
 30
0.0
 11
468.165435801
 21
254.288895055
 31
0.0
  0
LINE
  5
233
330
1F
100
AcDbEntity
  8
0
  6
Continuous
 62
     1
100
AcDbLine
 10
465.565435801
 20
239.488895055
 30
0.0
 11
465.565435801
 21
254.288895055
 31
0.0
  0
ARC
  5
234
330
1F
100
AcDbEntity
  8
0
  6
Continuous
 62
     1
100
AcDbCircle
 10
470.765435801
 20
239.488895055
 30
0.0
 40
5.2
100
AcDbArc
 50
180.0
 51
269.999915935
  0
ARC
  5
235
330
1F
100
AcDbEntity
  8
0
  6
Continuous
 62
     1
100
AcDbCircle
 10
470.765435801
 20
239.488895055
 30
0.0
 40
2.6
100
AcDbArc
 50
180.0
 51
270.0
  0
LINE
  5
236
330
1F
100
AcDbEntity
  8
0
  6
Continuous
 62
     2
100
AcDbLine
 10
473.665435801
 20
242.788895055
 30
0.0
 11
473.665435801
 21
253.788895055
 31
0.0
  0
LINE
  5
237
330
1F
100
AcDbEntity
  8
0
  6
Continuous
 62
     2
100
AcDbLine
 10
468.165435801
 20
242.788895055
 30
0.0
 11
473.665435801
 21
242.788895055
 31
0.0
  0
LINE
  5
238
330
1F
100
AcDbEntity
  8
0
  6
Continuous
 62
     2
100
AcDbLine
 10
468.165435801
 20
253.788895055
 30
0.0
 11
473.665435801
 21
253.788895055
 31
0.0
  0
ELLIPSE
  5
239
330
1F
100
AcDbEntity
  8
0
  6
Continuous
 62
     1
100
AcDbEllipse
 10
483.565435801
 20
159.107149125
 30
0.0
 11
10.0
 21
0.0
 31
0.0
 40
0.707106781
 41
3.141592272
 42
4.71238898
  0
LINE
  5
23A
330
1F
100
AcDbEntity
  8
0
  6
Continuous
 62
     1
100
AcDbLine
 10
483.565435801
 20
152.036081313
 30
0.0
 11
543.56544343
 21
152.036081313
 31
0.0
  0
ELLIPSE
  5
23B
330
1F
100
AcDbEntity
  8
0
  6
Continuous
 62
     1
100
AcDbEllipse
 10
543.565435801
 20
159.107149125
 30
0.0
 11
10.0
 21
0.0
 31
0.0
 40
0.707106781
 41
4.712389743
 42
0.000000853
  0
LINE
  5
23C
330
1F
100
AcDbEntity
  8
0
  6
Continuous
 62
     1
100
AcDbLine
 10
498.565435801
 20
169.713754146
 30
0.0
 11
498.565435801
 21
205.069092599
 31
0.0
  0
ELLIPSE
  5
23D
330
1F
100
AcDbEntity
  8
0
  6
Continuous
 62
     1
100
AcDbEllipse
 10
513.565435801
 20
169.713750843
 30
0.0
 11
15.0
 21
0.0
 31
0.0
 40
0.707106781
 41
3.141592342
 42
0.000000312
  0
LINE
  5
23E
330
1F
100
AcDbEntity
  8
0
  6
Continuous
 62
     1
100
AcDbLine
 10
528.565435801
 20
169.713754146
 30
0.0
 11
528.565435801
 21
205.069092599
 31
0.0
  0
ELLIPSE
  5
23F
330
1F
100
AcDbEntity
  8
0
  6
Continuous
 62
     1
100
AcDbEllipse
 10
513.565435801
 20
205.069089902
 30
0.0
 11
15.0
 21
0.0
 31
0.0
 40
0.707106781
 41
0.000000255
 42
3.141592399
  0
ELLIPSE
  5
240
330
1F
100
AcDbEntity
  8
0
  6
Continuous
 62
     1
100
AcDbEllipse
 10
513.565435801
 20
203.65487634
 30
0.0
 11
15.0
 21
0.0
 31
0.0
 40
0.707106781
 41
0.000000255
 42
3.141592399
  0
ELLIPSE
  5
241
330
1F
100
AcDbEntity
  8
0
  6
Continuous
 62
     1
100
AcDbEllipse
 10
483.565435801
 20
159.107149125
 30
0.0
 11
3.5
 21
0.0
 31
0.0
 40
0.707106781
 41
0.0
 42
6.283185307
  0
ELLIPSE
  5
242
330
1F
100
AcDbEntity
  8
0
  6
Continuous
 62
     1
100
AcDbEllipse
 10
483.495435801
 20
157.897149125
 30
0.0
 11
3.5
 21
0.0
 31
0.0
 40
0.707106781
 41
0.206286219
 42
2.853538016
  0
ELLIPSE
  5
243
330
1F
100
AcDbEntity
  8
0
  6
Continuous
 62
     1
100
AcDbEllipse
 10
543.565435801
 20
159.107149125
 30
0.0
 11
3.5
 21
0.0
 31
0.0
 40
0.707106781
 41
0.0
 42
6.283185307
  0
ELLIPSE
  5
244
330
1F
100
AcDbEntity
  8
0
  6
Continuous
 62
     1
100
AcDbEllipse
 10
543.495435801
 20
157.897149125
 30
0.0
 11
3.5
 21
0.0
 31
0.0
 40
0.707106781
 41
0.206286219
 42
2.853538016
  0
ELLIPSE
  5
245
330
1F
100
AcDbEntity
  8
0
  6
Continuous
 62
     1
100
AcDbEllipse
 10
543.565435801
 20
187.391420372
 30
0.0
 11
3.5
 21
0.0
 31
0.0
 40
0.707106781
 41
0.0
 42
6.283185307
  0
ELLIPSE
  5
246
330
1F
100
AcDbEntity
  8
0
  6
Continuous
 62
     1
100
AcDbEllipse
 10
543.495435801
 20
186.181420372
 30
0.0
 11
3.5
 21
0.0
 31
0.0
 40
0.707106781
 41
0.206286219
 42
2.853538016
  0
ELLIPSE
  5
247
330
1F
100
AcDbEntity
  8
0
  6
Continuous
 62
     1
100
AcDbEllipse
 10
483.565435801
 20
187.391420372
 30
0.0
 11
3.5
 21
0.0
 31
0.0
 40
0.707106781
 41
0.0
 42
6.283185307
  0
ELLIPSE
  5
248
330
1F
100
AcDbEntity
  8
0
  6
Continuous
 62
     1
100
AcDbEllipse
 10
483.495435801
 20
186.181420372
 30
0.0
 11
3.5
 21
0.0
 31
0.0
 40
0.707106781
 41
0.206286219
 42
2.853538016
  0
ELLIPSE
  5
249
330
1F
100
AcDbEntity
  8
0
  6
Continuous
 62
     1
100
AcDbEllipse
 10
483.565435801
 20
215.67569162
 30
0.0
 11
3.5
 21
0.0
 31
0.0
 40
0.707106781
 41
0.0
 42
6.283185307
  0
ELLIPSE
  5
24A
330
1F
100
AcDbEntity
  8
0
  6
Continuous
 62
     1
100
AcDbEllipse
 10
483.495435801
 20
214.46569162
 30
0.0
 11
3.5
 21
0.0
 31
0.0
 40
0.707106781
 41
0.206286219
 42
2.853538016
  0
ELLIPSE
  5
24B
330
1F
100
AcDbEntity
  8
0
  6
Continuous
 62
     1
100
AcDbEllipse
 10
543.565435801
 20
215.67569162
 30
0.0
 11
3.5
 21
0.0
 31
0.0
 40
0.707106781
 41
0.0
 42
6.283185307
  0
ELLIPSE
  5
24C
330
1F
100
AcDbEntity
  8
0
  6
Continuous
 62
     1
100
AcDbEllipse
 10
543.495435801
 20
214.46569162
 30
0.0
 11
3.5
 21
0.0
 31
0.0
 40
0.707106781
 41
0.206286219
 42
2.853538016
  0
LINE
  5
24D
330
1F
100
AcDbEntity
  8
0
  6
Continuous
 62
     1
100
AcDbLine
 10
483.565435801
 20
150.621867751
 30
0.0
 11
543.56544343
 21
150.621867751
 31
0.0
  0
LINE
  5
24E
330
1F
100
AcDbEntity
  8
0
  6
Continuous
 62
     1
100
AcDbLine
 10
553.565435801
 20
157.692941284
 30
0.0
 11
553.565435801
 21
236.888895055
 31
0.0
  0
ELLIPSE
  5
24F
330
1F
100
AcDbEntity
  8
0
  6
Continuous
 62
     1
100
AcDbEllipse
 10
543.565435801
 20
157.692935562
 30
0.0
 11
10.0
 21
0.0
 31
0.0
 40
0.707106781
 41
4.712389743
 42
0.000000809
  0
ELLIPSE
  5
250
330
1F
100
AcDbEntity
  8
0
  6
Continuous
 62
     1
100
AcDbEllipse
 10
483.565435801
 20
157.692935562
 30
0.0
 11
10.0
 21
0.0
 31
0.0
 40
0.707106781
 41
3.141592385
 42
4.71238898
  0
LINE
  5
251
330
1F
100
AcDbEntity
  8
0
  6
Continuous
 62
     1
100
AcDbLine
 10
473.565435801
 20
157.69293747
 30
0.0
 11
473.565435801
 21
236.888895055
 31
0.0
  0
ELLIPSE
  5
252
330
1F
100
AcDbEntity
  8
0
  6
Continuous
 62
     2
100
AcDbEllipse
 10
513.565435801
 20
230.524934025
 30
0.0
 11
4.0
 21
0.0
 31
0.0
 40
0.707106781
 41
0.0
 42
6.283185307
  0
ELLIPSE
  5
253
330
1F
100
AcDbEntity
  8
0
  6
Continuous
 62
     2
100
AcDbEllipse
 10
543.565435801
 20
230.524934025
 30
0.0
 11
4.0
 21
0.0
 31
0.0
 40
0.707106781
 41
0.0
 42
6.283185307
  0
ELLIPSE
  5
254
330
1F
100
AcDbEntity
  8
0
  6
Continuous
 62
     2
100
AcDbEllipse
 10
483.565435801
 20
230.524934025
 30
0.0
 11
4.0
 21
0.0
 31
0.0
 40
0.707106781
 41
0.0
 42
6.283185307
  0
LINE
  5
255
330
1F
100
AcDbEntity
  8
0
  6
LTYPE1
 62
     2
100
AcDbLine
 10
513.565435801
 20
145.484934025
 30
0.0
 11
513.565435801
 21
242.714934025
 31
0.0
  0
LINE
  5
256
330
1F
100
AcDbEntity
  8
2
  6
Continuous
 62
     1
100
AcDbLine
 10
462.965435801
 20
234.288895055
 30
0.0
 11
462.965435801
 21
254.288895055
 31
0.0
  0
LINE
  5
257
330
1F
100
AcDbEntity
  8
2
  6
Continuous
 62
     1
100
AcDbLine
 10
462.965435801
 20
254.288895055
 30
0.0
 11
465.565435801
 21
254.288895055
 31
0.0
  0
LINE
  5
258
330
1F
100
AcDbEntity
  8
2
  6
Continuous
 62
     1
100
AcDbLine
 10
465.565435801
 20
234.288895055
 30
0.0
 11
465.565435801
 21
254.288895055
 31
0.0
  0
LINE
  5
259
330
1F
100
AcDbEntity
  8
2
  6
Continuous
 62
     1
100
AcDbLine
 10
462.965435801
 20
234.288895055
 30
0.0
 11
465.565435801
 21
234.288895055
 31
0.0
  0
ARC
  5
25A
330
1F
100
AcDbEntity
  8
2
  6
Continuous
 62
     1
100
AcDbCircle
 10
468.165435801
 20
239.488895055
 30
0.0
 40
5.2
100
AcDbArc
 50
240.0
 51
270.0
  0
ARC
  5
25B
330
1F
100
AcDbEntity
  8
2
  6
LTYPE2
 62
     2
100
AcDbCircle
 10
468.165435801
 20
239.488895055
 30
0.0
 40
5.2
100
AcDbArc
 50
180.0
 51
240.0
  0
ARC
  5
25C
330
1F
100
AcDbEntity
  8
2
  6
LTYPE2
 62
     2
100
AcDbCircle
 10
468.165435801
 20
239.488895055
 30
0.0
 40
2.6
100
AcDbArc
 50
180.0
 51
270.0
  0
LINE
  5
25D
330
1F
100
AcDbEntity
  8
2
  6
LTYPE2
 62
     2
100
AcDbLine
 10
468.165435801
 20
236.888895055
 30
0.0
 11
470.765428171
 21
236.888895055
 31
0.0
  0
LINE
  5
25E
330
1F
100
AcDbEntity
  8
2
  6
Continuous
 62
     1
100
AcDbLine
 10
468.165435801
 20
234.288895055
 30
0.0
 11
470.765435801
 21
234.288895055
 31
0.0
  0
LINE
  5
25F
330
1F
100
AcDbEntity
  8
2
  6
LTYPE2
 62
     2
100
AcDbLine
 10
488.365435801
 20
234.288895055
 30
0.0
 11
488.365435801
 21
236.888895055
 31
0.0
  0
LINE
  5
260
330
1F
100
AcDbEntity
  8
0
  6
LTYPE1
 62
     2
100
AcDbLine
 10
458.951493707
 20
248.288895055
 30
0.0
 11
476.191493707
 21
248.288895055
 31
0.0
  0
LINE
  5
261
330
1F
100
AcDbEntity
  8
7
  6
Continuous
 62
     2
100
AcDbLine
 10
460.965435801
 20
254.288895055
 30
0.0
 11
443.965435801
 21
254.288895055
 31
0.0
  0
LINE
  5
262
330
1F
100
AcDbEntity
  8
7
  6
Continuous
 62
     2
100
AcDbLine
 10
447.965435801
 20
254.288895055
 30
0.0
 11
449.259531026
 21
259.118524187
 31
0.0
  0
LINE
  5
263
330
1F
100
AcDbEntity
  8
7
  6
Continuous
 62
     2
100
AcDbLine
 10
447.965435801
 20
254.288895055
 30
0.0
 11
446.671340575
 21
259.118524187
 31
0.0
  0
LWPOLYLINE
  5
265
330
1F
100
AcDbEntity
  8
7
  6
Continuous
 62
     2
100
AcDbPolyline
 90
     4
 70
   128
 43
0.0
 10
447.965435801
 20
261.788895055
 10
447.965435801
 20
254.288895055
 10
447.965435801
 20
248.288895055
 10
447.965435801
 20
240.788895055
  0
LINE
  5
266
330
1F
100
AcDbEntity
  8
7
  6
Continuous
 62
     2
100
AcDbLine
 10
447.965435801
 20
248.288895055
 30
0.0
 11
446.671340575
 21
243.459265924
 31
0.0
  0
LINE
  5
267
330
1F
100
AcDbEntity
  8
7
  6
Continuous
 62
     2
100
AcDbLine
 10
447.965435801
 20
248.288895055
 30
0.0
 11
449.259531026
 21
243.459265924
 31
0.0
  0
LINE
  5
268
330
1F
100
AcDbEntity
  8
7
  6
Continuous
 62
     2
100
AcDbLine
 10
456.951493707
 20
248.288895055
 30
0.0
 11
443.965435801
 21
248.288895055
 31
0.0
  0
MTEXT
  5
269
330
1F
100
AcDbEntity
  8
7
  6
Continuous
 62
     2
100
AcDbMText
 10
445.965435801
 20
249.488895055
 30
0.0
 40
6.0
 41
7.2
 71
     7
 72
     1
  1
\T1.167;\W0.600;６
  7
KANJI6
 11
0.0
 21
1.0
 31
0.0
 73
     1
 44
1.0
  0
LINE
  5
26A
330
1F
100
AcDbEntity
  8
7
  6
Continuous
 62
     2
100
AcDbLine
 10
445.965435801
 20
254.288895055
 30
0.0
 11
428.965435801
 21
254.288895055
 31
0.0
  0
LINE
  5
26B
330
1F
100
AcDbEntity
  8
7
  6
Continuous
 62
     2
100
AcDbLine
 10
432.965435801
 20
254.288895055
 30
0.0
 11
431.671340575
 21
249.459265924
 31
0.0
  0
LINE
  5
26C
330
1F
100
AcDbEntity
  8
7
  6
Continuous
 62
     2
100
AcDbLine
 10
432.965435801
 20
254.288895055
 30
0.0
 11
434.259531026
 21
249.459265924
 31
0.0
  0
LWPOLYLINE
  5
26E
330
1F
100
AcDbEntity
  8
7
  6
Continuous
 62
     2
100
AcDbPolyline
 90
     3
 70
   128
 43
0.0
 10
432.965435801
 20
254.288895055
 10
432.965435801
 20
234.288895055
 10
434.259531026
 20
239.118524187
  0
LINE
  5
26F
330
1F
100
AcDbEntity
  8
7
  6
Continuous
 62
     2
100
AcDbLine
 10
432.965435801
 20
234.288895055
 30
0.0
 11
431.671340575
 21
239.118524187
 31
0.0
  0
LINE
  5
270
330
1F
100
AcDbEntity
  8
7
  6
Continuous
 62
     2
100
AcDbLine
 10
460.965435801
 20
234.288895055
 30
0.0
 11
428.965435801
 21
234.288895055
 31
0.0
  0
MTEXT
  5
271
330
1F
100
AcDbEntity
  8
7
  6
Continuous
 62
     2
100
AcDbMText
 10
430.965435801
 20
240.388895055
 30
0.0
 40
6.0
 41
15.6
 71
     7
 72
     1
  1
\T1.167;\W0.600;２０
  7
KANJI6
 11
0.0
 21
1.0
 31
0.0
 73
     1
 44
1.0
  0
LINE
  5
272
330
1F
100
AcDbEntity
  8
0
  6
LTYPE1
 62
     2
100
AcDbLine
 10
176.328669395
 20
262.410751654
 30
0.0
 11
176.328669395
 21
226.938895055
 31
0.0
  0
LINE
  5
273
330
1F
100
AcDbEntity
  8
3
  6
Continuous
 62
     2
100
AcDbLine
 10
151.828669395
 20
152.11005208
 30
0.0
 11
151.928669395
 21
153.61005208
 31
0.0
  0
LINE
  5
274
330
1F
100
AcDbEntity
  8
3
  6
Continuous
 62
     2
100
AcDbLine
 10
160.828669395
 20
152.11005208
 30
0.0
 11
160.728669395
 21
153.61005208
 31
0.0
  0
ARC
  5
275
330
1F
100
AcDbEntity
  8
3
  6
Continuous
 62
     2
100
AcDbCircle
 10
158.828669395
 20
153.11005208
 30
0.0
 40
2.0
100
AcDbArc
 50
14.3
 51
71.4
  0
ARC
  5
276
330
1F
100
AcDbEntity
  8
3
  6
Continuous
 62
     2
100
AcDbCircle
 10
153.828669395
 20
153.11005208
 30
0.0
 40
2.0
100
AcDbArc
 50
108.6
 51
165.7
  0
ARC
  5
277
330
1F
100
AcDbEntity
  8
3
  6
Continuous
 62
     2
100
AcDbCircle
 10
156.328669395
 20
143.21005208
 30
0.0
 40
12.2
100
AcDbArc
 50
75.3
 51
104.7
  0
LINE
  5
278
330
1F
100
AcDbEntity
  8
3
  6
Continuous
 62
     2
100
AcDbLine
 10
191.828669395
 20
152.11005208
 30
0.0
 11
191.928669395
 21
153.61005208
 31
0.0
  0
LINE
  5
279
330
1F
100
AcDbEntity
  8
3
  6
Continuous
 62
     2
100
AcDbLine
 10
200.828669395
 20
152.11005208
 30
0.0
 11
200.728669395
 21
153.61005208
 31
0.0
  0
ARC
  5
27A
330
1F
100
AcDbEntity
  8
3
  6
Continuous
 62
     2
100
AcDbCircle
 10
198.828669395
 20
153.11005208
 30
0.0
 40
2.0
100
AcDbArc
 50
14.3
 51
71.4
  0
ARC
  5
27B
330
1F
100
AcDbEntity
  8
3
  6
Continuous
 62
     2
100
AcDbCircle
 10
193.828669395
 20
153.11005208
 30
0.0
 40
2.0
100
AcDbArc
 50
108.6
 51
165.7
  0
ARC
  5
27C
330
1F
100
AcDbEntity
  8
3
  6
Continuous
 62
     2
100
AcDbCircle
 10
196.328669395
 20
143.21005208
 30
0.0
 40
12.2
100
AcDbArc
 50
75.3
 51
104.7
  0
LINE
  5
27D
330
1F
100
AcDbEntity
  8
3
  6
Continuous
 62
     2
100
AcDbLine
 10
222.369736002
 20
267.966000631
 30
0.0
 11
221.238365152
 21
266.976051137
 31
0.0
  0
LINE
  5
27E
330
1F
100
AcDbEntity
  8
3
  6
Continuous
 62
     2
100
AcDbLine
 10
216.005774971
 20
274.329961662
 30
0.0
 11
215.015825477
 21
273.198590812
 31
0.0
  0
ARC
  5
27F
330
1F
100
AcDbEntity
  8
3
  6
Continuous
 62
     2
100
AcDbCircle
 10
216.712881752
 20
272.208641318
 30
0.0
 40
2.0
100
AcDbArc
 50
149.3
 51
206.4
  0
ARC
  5
280
330
1F
100
AcDbEntity
  8
3
  6
Continuous
 62
     2
100
AcDbCircle
 10
220.248415658
 20
268.673107412
 30
0.0
 40
2.0
100
AcDbArc
 50
243.6
 51
300.7
  0
ARC
  5
281
330
1F
100
AcDbEntity
  8
3
  6
Continuous
 62
     2
100
AcDbCircle
 10
225.481005839
 20
277.441231499
 30
0.0
 40
12.2
100
AcDbArc
 50
210.3
 51
239.7
  0
LINE
  5
282
330
1F
100
AcDbEntity
  8
3
  6
Continuous
 62
     2
100
AcDbLine
 10
202.369736002
 20
287.966000631
 30
0.0
 11
201.238365152
 21
286.976051137
 31
0.0
  0
LINE
  5
283
330
1F
100
AcDbEntity
  8
3
  6
Continuous
 62
     2
100
AcDbLine
 10
196.005774971
 20
294.329961662
 30
0.0
 11
195.015825477
 21
293.198590812
 31
0.0
  0
ARC
  5
284
330
1F
100
AcDbEntity
  8
3
  6
Continuous
 62
     2
100
AcDbCircle
 10
196.712881752
 20
292.208641318
 30
0.0
 40
2.0
100
AcDbArc
 50
149.3
 51
206.4
  0
ARC
  5
285
330
1F
100
AcDbEntity
  8
3
  6
Continuous
 62
     2
100
AcDbCircle
 10
200.248415658
 20
288.673107412
 30
0.0
 40
2.0
100
AcDbArc
 50
243.6
 51
300.7
  0
ARC
  5
286
330
1F
100
AcDbEntity
  8
3
  6
Continuous
 62
     2
100
AcDbCircle
 10
205.481005839
 20
297.441231499
 30
0.0
 40
12.2
100
AcDbArc
 50
210.3
 51
239.7
  0
CIRCLE
  5
287
330
1F
100
AcDbEntity
  8
3
  6
Continuous
 62
     2
100
AcDbCircle
 10
156.328669395
 20
248.288895055
 30
0.0
 40
4.5
  0
LWPOLYLINE
  5
289
330
1F
100
AcDbEntity
  8
3
  6
Continuous
 62
     2
100
AcDbPolyline
 90
     3
 70
   128
 43
0.0
 10
155.928669395
 20
245.788895055
 10
156.728669395
 20
245.788895055
 10
156.728669395
 20
246.788895055
  0
LINE
  5
28A
330
1F
100
AcDbEntity
  8
3
  6
Continuous
 62
     2
100
AcDbLine
 10
155.928669395
 20
245.788895055
 30
0.0
 11
155.928669395
 21
246.788895055
 31
0.0
  0
LWPOLYLINE
  5
28C
330
1F
100
AcDbEntity
  8
3
  6
Continuous
 62
     2
100
AcDbPolyline
 90
     3
 70
   128
 43
0.0
 10
158.828669395
 20
247.888895055
 10
158.828669395
 20
248.688895055
 10
157.828669395
 20
248.688895055
  0
LINE
  5
28D
330
1F
100
AcDbEntity
  8
3
  6
Continuous
 62
     2
100
AcDbLine
 10
158.828669395
 20
247.888895055
 30
0.0
 11
157.828669395
 21
247.888895055
 31
0.0
  0
LWPOLYLINE
  5
28F
330
1F
100
AcDbEntity
  8
3
  6
Continuous
 62
     2
100
AcDbPolyline
 90
     3
 70
   128
 43
0.0
 10
156.728669395
 20
250.788895055
 10
155.928669395
 20
250.788895055
 10
155.928669395
 20
249.788895055
  0
LINE
  5
290
330
1F
100
AcDbEntity
  8
3
  6
Continuous
 62
     2
100
AcDbLine
 10
156.728669395
 20
250.788895055
 30
0.0
 11
156.728669395
 21
249.788895055
 31
0.0
  0
LWPOLYLINE
  5
292
330
1F
100
AcDbEntity
  8
3
  6
Continuous
 62
     2
100
AcDbPolyline
 90
     3
 70
   128
 43
0.0
 10
153.828669395
 20
248.688895055
 10
153.828669395
 20
247.888895055
 10
154.828669395
 20
247.888895055
  0
LINE
  5
293
330
1F
100
AcDbEntity
  8
3
  6
Continuous
 62
     2
100
AcDbLine
 10
153.828669395
 20
248.688895055
 30
0.0
 11
154.828669395
 21
248.688895055
 31
0.0
  0
ARC
  5
294
330
1F
100
AcDbEntity
  8
3
  6
Continuous
 62
     2
100
AcDbCircle
 10
157.728669395
 20
246.888895055
 30
0.0
 40
1.0
100
AcDbArc
 50
83.9
 51
186.1
  0
ARC
  5
295
330
1F
100
AcDbEntity
  8
3
  6
Continuous
 62
     2
100
AcDbCircle
 10
157.728669395
 20
249.688895055
 30
0.0
 40
1.0
100
AcDbArc
 50
173.9
 51
276.1
  0
ARC
  5
296
330
1F
100
AcDbEntity
  8
3
  6
Continuous
 62
     2
100
AcDbCircle
 10
154.928669395
 20
249.688895055
 30
0.0
 40
1.0
100
AcDbArc
 50
263.9
 51
6.1
  0
ARC
  5
297
330
1F
100
AcDbEntity
  8
3
  6
Continuous
 62
     2
100
AcDbCircle
 10
154.928669395
 20
246.888895055
 30
0.0
 40
1.0
100
AcDbArc
 50
353.9
 51
96.1
  0
CIRCLE
  5
298
330
1F
100
AcDbEntity
  8
3
  6
Continuous
 62
     2
100
AcDbCircle
 10
196.328669395
 20
248.288895055
 30
0.0
 40
4.5
  0
LWPOLYLINE
  5
29A
330
1F
100
AcDbEntity
  8
3
  6
Continuous
 62
     2
100
AcDbPolyline
 90
     3
 70
   128
 43
0.0
 10
195.928669395
 20
245.788895055
 10
196.728669395
 20
245.788895055
 10
196.728669395
 20
246.788895055
  0
LINE
  5
29B
330
1F
100
AcDbEntity
  8
3
  6
Continuous
 62
     2
100
AcDbLine
 10
195.928669395
 20
245.788895055
 30
0.0
 11
195.928669395
 21
246.788895055
 31
0.0
  0
LWPOLYLINE
  5
29D
330
1F
100
AcDbEntity
  8
3
  6
Continuous
 62
     2
100
AcDbPolyline
 90
     3
 70
   128
 43
0.0
 10
198.828669395
 20
247.888895055
 10
198.828669395
 20
248.688895055
 10
197.828669395
 20
248.688895055
  0
LINE
  5
29E
330
1F
100
AcDbEntity
  8
3
  6
Continuous
 62
     2
100
AcDbLine
 10
198.828669395
 20
247.888895055
 30
0.0
 11
197.828669395
 21
247.888895055
 31
0.0
  0
LWPOLYLINE
  5
2A0
330
1F
100
AcDbEntity
  8
3
  6
Continuous
 62
     2
100
AcDbPolyline
 90
     3
 70
   128
 43
0.0
 10
196.728669395
 20
250.788895055
 10
195.928669395
 20
250.788895055
 10
195.928669395
 20
249.788895055
  0
LINE
  5
2A1
330
1F
100
AcDbEntity
  8
3
  6
Continuous
 62
     2
100
AcDbLine
 10
196.728669395
 20
250.788895055
 30
0.0
 11
196.728669395
 21
249.788895055
 31
0.0
  0
LWPOLYLINE
  5
2A3
330
1F
100
AcDbEntity
  8
3
  6
Continuous
 62
     2
100
AcDbPolyline
 90
     3
 70
   128
 43
0.0
 10
193.828669395
 20
248.688895055
 10
193.828669395
 20
247.888895055
 10
194.828669395
 20
247.888895055
  0
LINE
  5
2A4
330
1F
100
AcDbEntity
  8
3
  6
Continuous
 62
     2
100
AcDbLine
 10
193.828669395
 20
248.688895055
 30
0.0
 11
194.828669395
 21
248.688895055
 31
0.0
  0
ARC
  5
2A5
330
1F
100
AcDbEntity
  8
3
  6
Continuous
 62
     2
100
AcDbCircle
 10
197.728669395
 20
246.888895055
 30
0.0
 40
1.0
100
AcDbArc
 50
83.9
 51
186.1
  0
ARC
  5
2A6
330
1F
100
AcDbEntity
  8
3
  6
Continuous
 62
     2
100
AcDbCircle
 10
197.728669395
 20
249.688895055
 30
0.0
 40
1.0
100
AcDbArc
 50
173.9
 51
276.1
  0
ARC
  5
2A7
330
1F
100
AcDbEntity
  8
3
  6
Continuous
 62
     2
100
AcDbCircle
 10
194.928669395
 20
249.688895055
 30
0.0
 40
1.0
100
AcDbArc
 50
263.9
 51
6.1
  0
ARC
  5
2A8
330
1F
100
AcDbEntity
  8
3
  6
Continuous
 62
     2
100
AcDbCircle
 10
194.928669395
 20
246.888895055
 30
0.0
 40
1.0
100
AcDbArc
 50
353.9
 51
96.1
  0
LINE
  5
2A9
330
1F
100
AcDbEntity
  8
3
  6
Continuous
 62
     2
100
AcDbLine
 10
462.965435801
 20
243.788895055
 30
0.0
 11
461.465435801
 21
243.888895055
 31
0.0
  0
LINE
  5
2AA
330
1F
100
AcDbEntity
  8
3
  6
Continuous
 62
     2
100
AcDbLine
 10
462.965435801
 20
252.788895055
 30
0.0
 11
461.465435801
 21
252.688895055
 31
0.0
  0
ARC
  5
2AB
330
1F
100
AcDbEntity
  8
3
  6
Continuous
 62
     2
100
AcDbCircle
 10
461.965435801
 20
250.788895055
 30
0.0
 40
2.0
100
AcDbArc
 50
104.3
 51
161.4
  0
ARC
  5
2AC
330
1F
100
AcDbEntity
  8
3
  6
Continuous
 62
     2
100
AcDbCircle
 10
461.965435801
 20
245.788895055
 30
0.0
 40
2.0
100
AcDbArc
 50
198.6
 51
255.7
  0
ARC
  5
2AD
330
1F
100
AcDbEntity
  8
3
  6
Continuous
 62
     2
100
AcDbCircle
 10
471.865435801
 20
248.288895055
 30
0.0
 40
12.2
100
AcDbArc
 50
165.3
 51
194.7
  0
LINE
  5
2AE
330
1F
100
AcDbEntity
  8
7
  6
Continuous
 62
     2
100
AcDbLine
 10
302.875435801
 20
214.938895055
 30
0.0
 11
305.428950334
 21
210.64010877
 31
0.0
  0
LINE
  5
2AF
330
1F
100
AcDbEntity
  8
7
  6
Continuous
 62
     2
100
AcDbLine
 10
302.875435801
 20
214.938895055
 30
0.0
 11
307.236237398
 21
212.492794193
 31
0.0
  0
LWPOLYLINE
  5
2B1
330
1F
100
AcDbEntity
  8
7
  6
Continuous
 62
     2
100
AcDbPolyline
 90
     3
 70
   128
 43
0.0
 10
302.875435801
 20
214.938895055
 10
311.445435801
 20
206.578895055
 10
327.345435801
 20
206.578895055
  0
MTEXT
  5
2B2
330
1F
100
AcDbEntity
  8
7
  6
Continuous
 62
     2
100
AcDbMText
 10
311.445435801
 20
208.578895055
 30
0.0
 40
6.0
 41
30.6
 71
     7
 72
     1
  1
\T1.111;\W0.900;φ7.0
  7
KANJI5
 73
     1
 44
1.0
  0
ELLIPSE
  5
2B3
330
1F
100
AcDbEntity
  8
2
  6
Continuous
 62
     1
100
AcDbEllipse
 10
245.526947385
 20
276.487173045
 30
0.0
 11
2.121320344
 21
2.121320344
 31
0.0
 40
0.707106781
 41
5.908156109
 42
0.000001798
  0
LINE
  5
2B4
330
1F
100
AcDbEntity
  8
0
  6
Continuous
 62
     1
100
AcDbLine
 10
218.651379898
 20
307.310504653
 30
0.0
 11
229.98207724
 21
314.9423029
 31
0.0
  0
LINE
  5
2B5
330
1F
100
AcDbEntity
  8
2
  6
Continuous
 62
     1
100
AcDbLine
 10
206.393137873
 20
296.953363533
 30
0.0
 11
215.72695278
 21
306.28717844
 31
0.0
  0
MTEXT
  5
2B6
330
1F
100
AcDbEntity
  8
4
  6
Continuous
 62
     2
100
AcDbMText
 10
345.2
 20
22.4
 30
0.0
 40
6.0
 41
25.2
 71
     7
 72
     1
  1
\T1.111;\W0.900;ﾋﾋﾞﾉ
  7
KANJI3
 73
     1
 44
1.0
  0
MTEXT
  5
2B7
330
1F
100
AcDbEntity
  8
4
  6
Continuous
 62
     2
100
AcDbMText
 10
436.0
 20
34.4
 30
0.0
 40
6.0
 41
34.8
 71
     7
 72
     1
  1
\T1.111;\W0.900;１／２
  7
KANJI5
 73
     1
 44
1.0
  0
MTEXT
  5
2B8
330
1F
100
AcDbEntity
  8
4
  6
Continuous
 62
     2
100
AcDbMText
 10
436.0
 20
46.4
 30
0.0
 40
6.0
 41
22.8
 71
     7
 72
     1
  1
\T1.111;\W0.900;Ａ４
  7
KANJI5
 73
     1
 44
1.0
  0
LINE
  5
2B9
330
1F
100
AcDbEntity
  8
2
  6
Continuous
 62
     1
100
AcDbLine
 10
149.328669395
 20
127.61005208
 30
0.0
 11
203.328669395
 21
127.61005208
 31
0.0
  0
LINE
  5
2BA
330
1F
100
AcDbEntity
  8
2
  6
Continuous
 62
     1
100
AcDbLine
 10
146.328669395
 20
130.610053987
 30
0.0
 11
146.328669395
 21
152.11005208
 31
0.0
  0
ARC
  5
2BB
330
1F
100
AcDbEntity
  8
2
  6
Continuous
 62
     1
100
AcDbCircle
 10
149.328669395
 20
130.61005208
 30
0.0
 40
3.0
100
AcDbArc
 50
179.999963577
 51
270.0
  0
LWPOLYLINE
  5
2BD
330
1F
100
AcDbEntity
  8
2
  6
Continuous
 62
     1
100
AcDbPolyline
 90
     3
 70
   128
 43
0.0
 10
203.328669395
 20
127.61005208
 42
0.414213749
 10
206.328669395
 20
130.610053987
 42
0.0
 10
206.328669395
 20
152.11005208
 42
0.0
  0
LINE
  5
2BE
330
1F
100
AcDbEntity
  8
7
  6
Continuous
 62
     2
100
AcDbLine
 10
189.328669395
 20
127.61005208
 30
0.0
 11
188.03457417
 21
122.780422948
 31
0.0
  0
LINE
  5
2BF
330
1F
100
AcDbEntity
  8
7
  6
Continuous
 62
     2
100
AcDbLine
 10
189.328669395
 20
127.61005208
 30
0.0
 11
190.622764621
 21
122.780422948
 31
0.0
  0
LWPOLYLINE
  5
2C1
330
1F
100
AcDbEntity
  8
7
  6
Continuous
 62
     2
100
AcDbPolyline
 90
     3
 70
   128
 43
0.0
 10
189.328669395
 20
127.61005208
 10
189.328669395
 20
74.998236409
 10
190.622764621
 20
79.82786554
  0
LINE
  5
2C2
330
1F
100
AcDbEntity
  8
7
  6
Continuous
 62
     2
100
AcDbLine
 10
189.328669395
 20
74.998236409
 30
0.0
 11
188.03457417
 21
79.82786554
 31
0.0
  0
MTEXT
  5
2C3
330
1F
100
AcDbEntity
  8
7
  6
Continuous
 62
     2
100
AcDbMText
 10
187.328669395
 20
89.004144244
 30
0.0
 40
6.0
 41
49.2
 71
     7
 72
     1
  1
\T1.167;\W0.600;（５２．６）
  7
KANJI6
 11
0.0
 21
1.0
 31
0.0
 73
     1
 44
1.0
  0
MTEXT
  5
2C4
330
1F
100
AcDbEntity
  8
4
  6
Continuous
 62
     2
100
AcDbMText
 10
476.0
 20
94.4
 30
0.0
 40
6.0
 41
82.8
 71
     7
 72
     1
  1
\T1.111;\W0.900;ＣＲ１　全体図
  7
KANJI5
 73
     1
 44
1.0
  0
CIRCLE
  5
2C5
330
1F
100
AcDbEntity
  8
4
  6
Continuous
 62
     1
100
AcDbCircle
 10
176.328669395
 20
135.61005208
 30
0.0
 40
2.0
  0
MTEXT
  5
2C6
330
1F
100
AcDbEntity
  8
4
  6
Continuous
 62
     2
100
AcDbMText
 10
476.0
 20
22.4
 30
0.0
 40
6.0
 41
126.6
 71
     7
 72
     1
  1
\T1.111;\W0.900;ＣＲ１　CRV１台用金具
  7
KANJI5
 73
     1
 44
1.0
  0
MTEXT
  5
2C7
330
1F
100
AcDbEntity
  8
4
  6
Continuous
 62
     2
100
AcDbMText
 10
476.0
 20
82.4
 30
0.0
 40
6.0
 41
18.6
 71
     7
 72
     1
  1
\T1.111;\W0.900;CR1
  7
KANJI3
 73
     1
 44
1.0
  0
MTEXT
  5
2C8
330
1F
100
AcDbEntity
  8
4
  6
Continuous
 62
     2
100
AcDbMText
 10
386.0
 20
22.4
 30
0.0
 40
6.0
 41
45.0
 71
     7
 72
     1
  1
\T1.111;\W0.900;CR1-000
  7
KANJI3
 73
     1
 44
1.0
  0
MTEXT
  5
2C9
330
1F
100
AcDbEntity
  8
4
  6
Continuous
 62
     2
100
AcDbMText
 10
428.0
 20
22.4
 30
0.0
 40
6.0
 41
64.8
 71
     7
 72
     1
  1
\T1.111;\W0.900;2015/02/23
  7
KANJI3
 73
     1
 44
1.0
  0
ENDSEC
  0
SECTION
  2
OBJECTS
  0
DICTIONARY
  5
C
330
0
100
AcDbDictionary
280
     0
281
     1
  3
ACAD_GROUP
350
D
  3
ACAD_LAYOUT
350
1A
  3
ACAD_MLINESTYLE
350
17
  3
ACAD_PLOTSETTINGS
350
19
  3
ACAD_PLOTSTYLENAME
350
E
  0
DICTIONARY
  5
D
102
{ACAD_REACTORS
330
C
102
}
330
C
100
AcDbDictionary
280
     0
281
     1
  0
DICTIONARY
  5
1A
102
{ACAD_REACTORS
330
C
102
}
330
C
100
AcDbDictionary
280
     0
281
     1
  3
Model
350
22
  3
ﾚｲｱｳﾄ1
350
1E
  3
ﾚｲｱｳﾄ2
350
26
  0
LAYOUT
  5
22
102
{ACAD_REACTORS
330
1A
102
}
330
1A
100
AcDbPlotSettings
  1

  2

  4

  6

 40
0.0
 41
0.0
 42
0.0
 43
0.0
 44
0.0
 45
0.0
 46
0.0
 47
0.0
 48
0.0
 49
0.0
140
0.0
141
0.0
142
1.0
143
1.0
 70
  1712
 72
     0
 73
     0
 74
     0
  7

 75
     0
147
1.0
148
0.0
149
0.0
100
AcDbLayout
  1
Model
 70
     1
 71
     0
 10
0.0
 20
0.0
 11
0.0
 21
0.0
 12
0.0
 22
0.0
 32
0.0
 14
0.0
 24
0.0
 34
0.0
 15
0.0
 25
0.0
 35
0.0
146
0.0
 13
0.0
 23
0.0
 33
0.0
 16
1.0
 26
0.0
 36
0.0
 17
0.0
 27
1.0
 37
0.0
 76
     0
330
1F
331
0
345
0
346
0
  0
LAYOUT
  5
1E
102
{ACAD_REACTORS
330
1A
102
}
330
1A
100
AcDbPlotSettings
  1

  2

  4

  6

 40
0.0
 41
0.0
 42
0.0
 43
0.0
 44
0.0
 45
0.0
 46
0.0
 47
0.0
 48
0.0
 49
0.0
140
0.0
141
0.0
142
1.0
143
1.0
 70
   688
 72
     0
 73
     0
 74
     5
  7

 75
    16
147
1.0
148
0.0
149
0.0
100
AcDbLayout
  1
ﾚｲｱｳﾄ1
 70
     1
 71
     1
 10
0.0
 20
0.0
 11
0.0
 21
0.0
 12
0.0
 22
0.0
 32
0.0
 14
0.0
 24
0.0
 34
0.0
 15
0.0
 25
0.0
 35
0.0
146
0.0
 13
0.0
 23
0.0
 33
0.0
 16
1.0
 26
0.0
 36
0.0
 17
0.0
 27
1.0
 37
0.0
 76
     0
330
1B
331
0
345
0
346
0
  0
LAYOUT
  5
26
102
{ACAD_REACTORS
330
1A
102
}
330
1A
100
AcDbPlotSettings
  1

  2

  4

  6

 40
0.0
 41
0.0
 42
0.0
 43
0.0
 44
0.0
 45
0.0
 46
0.0
 47
0.0
 48
0.0
 49
0.0
140
0.0
141
0.0
142
1.0
143
1.0
 70
   688
 72
     0
 73
     0
 74
     5
  7

 75
    16
147
1.0
148
0.0
149
0.0
100
AcDbLayout
  1
ﾚｲｱｳﾄ2
 70
     1
 71
     2
 10
0.0
 20
0.0
 11
0.0
 21
0.0
 12
0.0
 22
0.0
 32
0.0
 14
0.0
 24
0.0
 34
0.0
 15
0.0
 25
0.0
 35
0.0
146
0.0
 13
0.0
 23
0.0
 33
0.0
 16
1.0
 26
0.0
 36
0.0
 17
0.0
 27
1.0
 37
0.0
 76
     0
330
23
331
0
345
0
346
0
  0
DICTIONARY
  5
17
102
{ACAD_REACTORS
330
C
102
}
330
C
100
AcDbDictionary
280
     0
281
     1
  3
Standard
350
18
  0
MLINESTYLE
  5
18
102
{ACAD_REACTORS
330
17
102
}
330
17
100
AcDbMlineStyle
  2
STANDARD
 70
     0
  3

 62
   256
 51
90.0
 52
90.0
 71
     2
 49
0.5
 62
   256
  6
ByLayer
 49
-0.5
 62
   256
  6
ByLayer
  0
DICTIONARY
  5
19
102
{ACAD_REACTORS
330
C
102
}
330
C
100
AcDbDictionary
280
     0
281
     1
  0
ACDBDICTIONARYWDFLT
  5
E
330
C
100
AcDbDictionary
281
     0
  3
Normal
350
F
100
AcDbDictionaryWithDefault
340
F
  0
ACDBPLACEHOLDER
  5
F
102
{ACAD_REACTORS
330
E
102
}
330
E
  0
ENDSEC
  0
EOF
