  0
SECTION
  2
HEADER
  9
$ACADVER
  1
AC1015
  9
$ACADMAINTVER
 70
    20
  9
$DWGCODEPAGE
  3
ANSI_932
  9
$INSBASE
 10
0.0
 20
0.0
 30
0.0
  9
$EXTMIN
 10
-270.0164782349211
 20
-405.7624475796873
 30
-0.0015258207003583
  9
$EXTMAX
 10
270.0164807494923
 20
397.0880822710251
 30
0.0000000349246037
  9
$LIMMIN
 10
0.0
 20
0.0
  9
$LIMMAX
 10
0.0
 20
0.0
  9
$ORTHOMODE
 70
     0
  9
$REGENMODE
 70
     1
  9
$FILLMODE
 70
     1
  9
$QTEXTMODE
 70
     0
  9
$MIRRTEXT
 70
     1
  9
$LTSCALE
 40
15.24
  9
$ATTMODE
 70
     1
  9
$TEXTSIZE
 40
0.0
  9
$TRACEWID
 40
1.0
  9
$TEXTSTYLE
  7
STANDARD
  9
$CLAYER
  8
DATA
  9
$CELTYPE
  6
ByLayer
  9
$CECOLOR
 62
   256
  9
$CELTSCALE
 40
1.0
  9
$DISPSILH
 70
     0
  9
$DIMSCALE
 40
1.0
  9
$DIMASZ
 40
0.18
  9
$DIMEXO
 40
0.0625
  9
$DIMDLI
 40
0.38
  9
$DIMRND
 40
0.0
  9
$DIMDLE
 40
0.0
  9
$DIMEXE
 40
0.18
  9
$DIMTP
 40
0.0
  9
$DIMTM
 40
0.0
  9
$DIMTXT
 40
0.18
  9
$DIMCEN
 40
0.09
  9
$DIMTSZ
 40
0.0
  9
$DIMTOL
 70
     0
  9
$DIMLIM
 70
     0
  9
$DIMTIH
 70
     1
  9
$DIMTOH
 70
     1
  9
$DIMSE1
 70
     0
  9
$DIMSE2
 70
     0
  9
$DIMTAD
 70
     0
  9
$DIMZIN
 70
     0
  9
$DIMBLK
  1

  9
$DIMASO
 70
     1
  9
$DIMSHO
 70
     1
  9
$DIMPOST
  1

  9
$DIMAPOST
  1

  9
$DIMALT
 70
     0
  9
$DIMALTD
 70
     2
  9
$DIMALTF
 40
25.4
  9
$DIMLFAC
 40
1.0
  9
$DIMTOFL
 70
     0
  9
$DIMTVP
 40
0.0
  9
$DIMTIX
 70
     0
  9
$DIMSOXD
 70
     0
  9
$DIMSAH
 70
     0
  9
$DIMBLK1
  1

  9
$DIMBLK2
  1

  9
$DIMSTYLE
  2
STANDARD
  9
$DIMCLRD
 70
     0
  9
$DIMCLRE
 70
     0
  9
$DIMCLRT
 70
     0
  9
$DIMTFAC
 40
1.0
  9
$DIMGAP
 40
0.09
  9
$DIMJUST
 70
     0
  9
$DIMSD1
 70
     0
  9
$DIMSD2
 70
     0
  9
$DIMTOLJ
 70
     1
  9
$DIMTZIN
 70
     0
  9
$DIMALTZ
 70
     0
  9
$DIMALTTZ
 70
     0
  9
$DIMUPT
 70
     0
  9
$DIMDEC
 70
     4
  9
$DIMTDEC
 70
     4
  9
$DIMALTU
 70
     2
  9
$DIMALTTD
 70
     2
  9
$DIMTXSTY
  7
STANDARD
  9
$DIMAUNIT
 70
     0
  9
$DIMADEC
 70
     0
  9
$DIMALTRND
 40
0.0
  9
$DIMAZIN
 70
     0
  9
$DIMDSEP
 70
    46
  9
$DIMATFIT
 70
     3
  9
$DIMFRAC
 70
     0
  9
$DIMLDRBLK
  1

  9
$DIMLUNIT
 70
     2
  9
$DIMLWD
 70
    -2
  9
$DIMLWE
 70
    -2
  9
$DIMTMOVE
 70
     0
  9
$LUNITS
 70
     2
  9
$LUPREC
 70
     4
  9
$SKETCHINC
 40
0.1
  9
$FILLETRAD
 40
0.0
  9
$AUNITS
 70
     0
  9
$AUPREC
 70
     0
  9
$MENU
  1
acad
  9
$ELEVATION
 40
0.0
  9
$PELEVATION
 40
0.0
  9
$THICKNESS
 40
0.0
  9
$LIMCHECK
 70
     0
  9
$CHAMFERA
 40
0.0
  9
$CHAMFERB
 40
0.0
  9
$CHAMFERC
 40
0.0
  9
$CHAMFERD
 40
0.0
  9
$SKPOLY
 70
     0
  9
$TDCREATE
 40
2457812.606504630
  9
$TDUCREATE
 40
2457812.231504630
  9
$TDUPDATE
 40
2457812.757534723
  9
$TDUUPDATE
 40
2457812.382534723
  9
$TDINDWG
 40
0.0004050926
  9
$TDUSRTIMER
 40
0.0004050926
  9
$USRTIMER
 70
     1
  9
$ANGBASE
 50
0.0
  9
$ANGDIR
 70
     0
  9
$PDMODE
 70
     1
  9
$PDSIZE
 40
-2.0
  9
$PLINEWID
 40
0.0
  9
$SPLFRAME
 70
     0
  9
$SPLINETYPE
 70
     6
  9
$SPLINESEGS
 70
     8
  9
$HANDSEED
  5
57E
  9
$SURFTAB1
 70
     6
  9
$SURFTAB2
 70
     6
  9
$SURFTYPE
 70
     6
  9
$SURFU
 70
     6
  9
$SURFV
 70
     6
  9
$UCSBASE
  2

  9
$UCSNAME
  2

  9
$UCSORG
 10
0.0
 20
0.0
 30
0.0
  9
$UCSXDIR
 10
1.0
 20
0.0
 30
0.0
  9
$UCSYDIR
 10
0.0
 20
1.0
 30
0.0
  9
$UCSORTHOREF
  2

  9
$UCSORTHOVIEW
 70
     0
  9
$UCSORGTOP
 10
0.0
 20
0.0
 30
0.0
  9
$UCSORGBOTTOM
 10
0.0
 20
0.0
 30
0.0
  9
$UCSORGLEFT
 10
0.0
 20
0.0
 30
0.0
  9
$UCSORGRIGHT
 10
0.0
 20
0.0
 30
0.0
  9
$UCSORGFRONT
 10
0.0
 20
0.0
 30
0.0
  9
$UCSORGBACK
 10
0.0
 20
0.0
 30
0.0
  9
$PUCSBASE
  2

  9
$PUCSNAME
  2

  9
$PUCSORG
 10
0.0
 20
0.0
 30
0.0
  9
$PUCSXDIR
 10
1.0
 20
0.0
 30
0.0
  9
$PUCSYDIR
 10
0.0
 20
1.0
 30
0.0
  9
$PUCSORTHOREF
  2

  9
$PUCSORTHOVIEW
 70
     0
  9
$PUCSORGTOP
 10
0.0
 20
0.0
 30
0.0
  9
$PUCSORGBOTTOM
 10
0.0
 20
0.0
 30
0.0
  9
$PUCSORGLEFT
 10
0.0
 20
0.0
 30
0.0
  9
$PUCSORGRIGHT
 10
0.0
 20
0.0
 30
0.0
  9
$PUCSORGFRONT
 10
0.0
 20
0.0
 30
0.0
  9
$PUCSORGBACK
 10
0.0
 20
0.0
 30
0.0
  9
$USERI1
 70
     0
  9
$USERI2
 70
     0
  9
$USERI3
 70
     0
  9
$USERI4
 70
     0
  9
$USERI5
 70
     0
  9
$USERR1
 40
0.0
  9
$USERR2
 40
0.0
  9
$USERR3
 40
0.0
  9
$USERR4
 40
0.0
  9
$USERR5
 40
0.0
  9
$WORLDVIEW
 70
     1
  9
$SHADEDGE
 70
     3
  9
$SHADEDIF
 70
    70
  9
$TILEMODE
 70
     1
  9
$MAXACTVP
 70
    64
  9
$PINSBASE
 10
0.0
 20
0.0
 30
0.0
  9
$PLIMCHECK
 70
     0
  9
$PEXTMIN
 10
1.000000000000000E+20
 20
1.000000000000000E+20
 30
1.000000000000000E+20
  9
$PEXTMAX
 10
-1.000000000000000E+20
 20
-1.000000000000000E+20
 30
-1.000000000000000E+20
  9
$PLIMMIN
 10
0.0
 20
0.0
  9
$PLIMMAX
 10
12.0
 20
9.0
  9
$UNITMODE
 70
     0
  9
$VISRETAIN
 70
     0
  9
$PLINEGEN
 70
     1
  9
$PSLTSCALE
 70
     0
  9
$TREEDEPTH
 70
  3020
  9
$CMLSTYLE
  2
Standard
  9
$CMLJUST
 70
     0
  9
$CMLSCALE
 40
1.0
  9
$PROXYGRAPHICS
 70
     1
  9
$MEASUREMENT
 70
     0
  9
$CELWEIGHT
370
    -1
  9
$ENDCAPS
280
     0
  9
$JOINSTYLE
280
     0
  9
$LWDISPLAY
290
     0
  9
$INSUNITS
 70
     0
  9
$HYPERLINKBASE
  1

  9
$STYLESHEET
  1

  9
$XEDIT
290
     1
  9
$CEPSNTYPE
380
     0
  9
$PSTYLEMODE
290
     1
  9
$FINGERPRINTGUID
  2
{56F945BA-03FD-4547-8A54-17121BA839A1}
  9
$VERSIONGUID
  2
{7A161A96-CF74-2E4B-B827-38EA3C93AA15}
  9
$EXTNAMES
290
     1
  9
$PSVPSCALE
 40
0.0
  9
$OLESTARTUP
290
     0
  0
ENDSEC
  0
SECTION
  2
CLASSES
  0
CLASS
  1
ACDBDICTIONARYWDFLT
  2
AcDbDictionaryWithDefault
  3
ObjectDBX Classes
 90
        0
280
     0
281
     0
  0
CLASS
  1
MATERIAL
  2
AcDbMaterial
  3
ObjectDBX Classes
 90
     1153
280
     0
281
     0
  0
CLASS
  1
VISUALSTYLE
  2
AcDbVisualStyle
  3
ObjectDBX Classes
 90
     4095
280
     0
281
     0
  0
CLASS
  1
SCALE
  2
AcDbScale
  3
ObjectDBX Classes
 90
     1153
280
     0
281
     0
  0
CLASS
  1
TABLESTYLE
  2
AcDbTableStyle
  3
ObjectDBX Classes
 90
     4095
280
     0
281
     0
  0
CLASS
  1
MLEADERSTYLE
  2
AcDbMLeaderStyle
  3
ACDB_MLEADERSTYLE_CLASS
 90
     4095
280
     0
281
     0
  0
CLASS
  1
ACDBSECTIONVIEWSTYLE
  2
AcDbSectionViewStyle
  3
ObjectDBX Classes
 90
     1025
280
     0
281
     0
  0
CLASS
  1
ACDBDETAILVIEWSTYLE
  2
AcDbDetailViewStyle
  3
ObjectDBX Classes
 90
     1025
280
     0
281
     0
  0
CLASS
  1
DICTIONARYVAR
  2
AcDbDictionaryVar
  3
ObjectDBX Classes
 90
        0
280
     0
281
     0
  0
CLASS
  1
CELLSTYLEMAP
  2
AcDbCellStyleMap
  3
ObjectDBX Classes
 90
     1152
280
     0
281
     0
  0
CLASS
  1
ACDBPLACEHOLDER
  2
AcDbPlaceHolder
  3
ObjectDBX Classes
 90
        0
280
     0
281
     0
  0
CLASS
  1
LAYOUT
  2
AcDbLayout
  3
ObjectDBX Classes
 90
        0
280
     0
281
     0
  0
ENDSEC
  0
SECTION
  2
TABLES
  0
TABLE
  2
VPORT
  5
4A8
330
0
100
AcDbSymbolTable
 70
     1
  0
VPORT
  5
514
330
4A8
100
AcDbSymbolTableRecord
100
AcDbViewportTableRecord
  2
*ACTIVE
 70
     0
 10
0.0
 20
0.0
 11
1.0
 21
1.0
 12
0.0000012572857031
 22
-3.531813134581966
 13
0.0
 23
0.0
 14
1.0
 24
1.0
 15
0.0
 25
0.0
 16
0.0
 26
0.0
 36
1.0
 17
0.0
 27
0.0
 37
0.0
 40
805.6993814836326
 41
2.358402971216341
 42
50.0
 43
0.0
 44
0.0
 50
0.0
 51
0.0
 71
     0
 72
  2000
 73
     1
 74
     1
 75
     0
 76
     0
 77
     0
 78
     0
281
     0
 65
     1
110
0.0
120
0.0
130
0.0
111
1.0
121
0.0
131
0.0
112
0.0
122
1.0
132
0.0
 79
     0
146
0.0
1001
ACAD_NAV_VCDISPLAY
1070
     3
  0
ENDTAB
  0
TABLE
  2
LTYPE
  5
4A5
330
0
100
AcDbSymbolTable
 70
    11
  0
LTYPE
  5
4FA
330
4A5
100
AcDbSymbolTableRecord
100
AcDbLinetypeTableRecord
  2
ByBlock
 70
     0
  3

 72
    65
 73
     0
 40
0.0
  0
LTYPE
  5
4FB
330
4A5
100
AcDbSymbolTableRecord
100
AcDbLinetypeTableRecord
  2
ByLayer
 70
     0
  3

 72
    65
 73
     0
 40
0.0
  0
LTYPE
  5
4FC
330
4A5
100
AcDbSymbolTableRecord
100
AcDbLinetypeTableRecord
  2
CONTINUOUS
 70
     0
  3
Solid line
 72
    65
 73
     0
 40
0.0
  0
ENDTAB
  0
TABLE
  2
LAYER
  5
4A2
330
0
100
AcDbSymbolTable
 70
     5
  0
LAYER
  5
4F4
102
{ACAD_XDICTIONARY
360
528
102
}
330
4A2
100
AcDbSymbolTableRecord
100
AcDbLayerTableRecord
  2
0
 70
     0
 62
     7
  6
CONTINUOUS
370
    -3
390
4AF
  0
LAYER
  5
513
102
{ACAD_XDICTIONARY
360
52A
102
}
330
4A2
100
AcDbSymbolTableRecord
100
AcDbLayerTableRecord
  2
DATA
 70
     0
 62
     7
  6
CONTINUOUS
370
    -3
390
4AF
  0
LAYER
  5
51F
102
{ACAD_XDICTIONARY
360
52C
102
}
330
4A2
100
AcDbSymbolTableRecord
100
AcDbLayerTableRecord
  2
HIBINO-BASE
 70
     0
 62
     7
  6
CONTINUOUS
370
    -3
390
4AF
  0
LAYER
  5
520
102
{ACAD_XDICTIONARY
360
52E
102
}
330
4A2
100
AcDbSymbolTableRecord
100
AcDbLayerTableRecord
  2
SPEC
 70
     0
 62
     7
  6
CONTINUOUS
370
    -3
390
4AF
  0
LAYER
  5
521
102
{ACAD_XDICTIONARY
360
530
102
}
330
4A2
100
AcDbSymbolTableRecord
100
AcDbLayerTableRecord
  2
DIMNSIONS
 70
     0
 62
     7
  6
CONTINUOUS
370
    -3
390
4AF
  0
ENDTAB
  0
TABLE
  2
STYLE
  5
4A3
330
0
100
AcDbSymbolTable
 70
     3
  0
STYLE
  5
4F5
330
4A3
100
AcDbSymbolTableRecord
100
AcDbTextStyleTableRecord
  2
STANDARD
 70
     0
 40
0.0
 41
1.0
 50
0.0
 71
     0
 42
0.0
  3
txt
  4
BIGFONT.SHX
  0
ENDTAB
  0
TABLE
  2
VIEW
  5
4A6
330
0
100
AcDbSymbolTable
 70
     0
  0
ENDTAB
  0
TABLE
  2
UCS
  5
4A7
330
0
100
AcDbSymbolTable
 70
     0
  0
ENDTAB
  0
TABLE
  2
APPID
  5
4A9
330
0
100
AcDbSymbolTable
 70
     4
  0
APPID
  5
4F6
330
4A9
100
AcDbSymbolTableRecord
100
AcDbRegAppTableRecord
  2
ACAD
 70
     0
  0
APPID
  5
4FD
330
4A9
100
AcDbSymbolTableRecord
100
AcDbRegAppTableRecord
  2
AcadAnnotative
 70
     0
  0
APPID
  5
53C
330
4A9
100
AcDbSymbolTableRecord
100
AcDbRegAppTableRecord
  2
ACAD_NAV_VCDISPLAY
 70
     0
  0
APPID
  5
575
330
4A9
100
AcDbSymbolTableRecord
100
AcDbRegAppTableRecord
  2
ACAD_MLEADERVER
 70
     0
  0
ENDTAB
  0
TABLE
  2
DIMSTYLE
  5
4AA
330
0
100
AcDbSymbolTable
 70
     2
100
AcDbDimStyleTable
 71
     0
  0
DIMSTYLE
105
4F7
330
4AA
100
AcDbSymbolTableRecord
100
AcDbDimStyleTableRecord
  2
STANDARD
 70
     0
279
     2
340
4F5
  0
ENDTAB
  0
TABLE
  2
BLOCK_RECORD
  5
4A1
330
0
100
AcDbSymbolTable
 70
     0
  0
BLOCK_RECORD
  5
50F
330
4A1
100
AcDbSymbolTableRecord
100
AcDbBlockTableRecord
  2
*Model_Space
340
512
  0
BLOCK_RECORD
  5
50B
330
4A1
100
AcDbSymbolTableRecord
100
AcDbBlockTableRecord
  2
*Paper_Space
340
50E
  0
ENDTAB
  0
ENDSEC
  0
SECTION
  2
BLOCKS
  0
BLOCK
  5
510
330
50F
100
AcDbEntity
  8
0
100
AcDbBlockBegin
  2
*Model_Space
 70
     0
 10
0.0
 20
0.0
 30
0.0
  3
*Model_Space
  1

  0
ENDBLK
  5
511
330
50F
100
AcDbEntity
  8
0
100
AcDbBlockEnd
  0
BLOCK
  5
50C
330
50B
100
AcDbEntity
 67
     1
  8
0
100
AcDbBlockBegin
  2
*Paper_Space
 70
     0
 10
0.0
 20
0.0
 30
0.0
  3
*Paper_Space
  1

  0
ENDBLK
  5
50D
330
50B
100
AcDbEntity
 67
     1
  8
0
100
AcDbBlockEnd
  0
ENDSEC
  0
SECTION
  2
ENTITIES
  0
LINE
  5
2C
330
50F
100
AcDbEntity
  8
HIBINO-BASE
  6
Continuous
 62
     7
100
AcDbLine
 10
-269.9999999999999
 20
397.06363
 30
0.0
 11
269.9999999999999
 21
397.06363
 31
0.0
  0
LINE
  5
2D
330
50F
100
AcDbEntity
  8
HIBINO-BASE
  6
Continuous
 62
     7
100
AcDbLine
 10
269.9999999999999
 20
-382.93637
 30
0.0
 11
-269.9999999999999
 21
-382.93637
 31
0.0
  0
LINE
  5
2E
330
50F
100
AcDbEntity
  8
HIBINO-BASE
  6
Continuous
 62
     7
100
AcDbLine
 10
-269.9999999999999
 20
-382.93637
 30
0.0
 11
-269.9999999999999
 21
397.06363
 31
0.0
  0
TEXT
  5
2F
330
50F
100
AcDbEntity
  8
HIBINO-BASE
 62
     7
100
AcDbText
 10
-248.448
 20
-402.1624033999999
 30
0.0
 40
10.8001325390625
  1
Hibino Corporation
 41
0.7
 11
-248.448
 21
-391.3622708609375
 31
0.0
100
AcDbText
 73
     3
  0
LINE
  5
30
330
50F
100
AcDbEntity
  8
HIBINO-BASE
  6
Continuous
 62
     7
100
AcDbLine
 10
269.9999999999999
 20
397.06363
 30
0.0
 11
269.9999999999999
 21
-382.93637
 31
0.0
  0
LINE
  5
31
330
50F
100
AcDbEntity
  8
HIBINO-BASE
  6
Continuous
 62
     7
100
AcDbLine
 10
0.0
 20
-315.4363699999999
 30
0.0
 11
269.9999999999999
 21
-315.4363699999999
 31
0.0
  0
LINE
  5
32
330
50F
100
AcDbEntity
  8
HIBINO-BASE
  6
Continuous
 62
     7
100
AcDbLine
 10
0.0
 20
-382.93637
 30
0.0
 11
0.0
 21
-315.4363699999999
 31
0.0
  0
TEXT
  5
33
330
50F
100
AcDbEntity
  8
HIBINO-BASE
 62
     7
100
AcDbText
 10
2.699999999999999
 20
-322.96245
 30
0.0
 40
4.886523437499999
  1
NOTE
 41
0.7
 11
2.7
 21
-318.0759265625
 31
0.0
100
AcDbText
 73
     3
  0
LINE
  5
34
330
50F
100
AcDbEntity
  8
HIBINO-BASE
  6
Continuous
 62
     7
100
AcDbLine
 10
105.0
 20
-382.93637
 30
0.0
 11
105.0
 21
-315.4363699999999
 31
0.0
  0
TEXT
  5
35
330
50F
100
AcDbEntity
  8
HIBINO-BASE
 62
     7
100
AcDbText
 10
107.7
 20
-322.96245
 30
0.0
 40
4.886523437499999
  1
TITLE
 41
0.7
 11
107.7
 21
-318.0759265625
 31
0.0
100
AcDbText
 73
     3
  0
TEXT
  5
36
330
50F
100
AcDbEntity
  8
HIBINO-BASE
 62
     7
100
AcDbText
 10
150.2051699999999
 20
-402.1624033999999
 30
0.0
 40
10.8001325390625
  1
ヒビノ株式会社
 41
0.7
 11
150.2051699999999
 21
-391.3622708609375
 31
0.0
100
AcDbText
 73
     3
  0
LINE
  5
37
330
50F
100
AcDbEntity
  8
HIBINO-BASE
  6
Continuous
 62
     7
100
AcDbLine
 10
0.0
 20
-352.9363699999999
 30
0.0
 11
269.9999999999999
 21
-352.9363699999999
 31
0.0
  0
TEXT
  5
38
330
50F
100
AcDbEntity
  8
HIBINO-BASE
 62
     7
100
AcDbText
 10
145.2
 20
-360.29349
 30
0.0
 40
4.886523437499999
  1
DRAWN
 41
0.7
 11
145.2
 21
-355.4069665625
 31
0.0
100
AcDbText
 73
     3
  0
TEXT
  5
39
330
50F
100
AcDbEntity
  8
HIBINO-BASE
 62
     7
100
AcDbText
 10
70.19999999999999
 20
-360.29349
 30
0.0
 40
4.886523437499999
  1
DATE
 41
0.7
 11
70.19999999999999
 21
-355.4069665625
 31
0.0
100
AcDbText
 73
     3
  0
TEXT
  5
3A
330
50F
100
AcDbEntity
  8
HIBINO-BASE
 62
     7
100
AcDbText
 10
40.2
 20
-360.29349
 30
0.0
 40
4.886523437499999
  1
SCALE
 41
0.7
 11
40.2
 21
-355.4069665625
 31
0.0
100
AcDbText
 73
     3
  0
TEXT
  5
3B
330
50F
100
AcDbEntity
  8
HIBINO-BASE
 62
     7
100
AcDbText
 10
107.7
 20
-360.29349
 30
0.0
 40
4.886523437499999
  1
DESIGN
 41
0.7
 11
107.7
 21
-355.4069665625
 31
0.0
100
AcDbText
 73
     3
  0
TEXT
  5
3C
330
50F
100
AcDbEntity
  8
HIBINO-BASE
 62
     7
100
AcDbText
 10
220.2
 20
-360.29349
 30
0.0
 40
4.886523437499999
  1
DRAWING NO.
 41
0.7
 11
220.2
 21
-355.4069665625
 31
0.0
100
AcDbText
 73
     3
  0
TEXT
  5
3D
330
50F
100
AcDbEntity
  8
HIBINO-BASE
 62
     7
100
AcDbText
 10
182.7
 20
-360.29349
 30
0.0
 40
4.886523437499999
  1
CHECK
 41
0.7
 11
182.7
 21
-355.4069665625
 31
0.0
100
AcDbText
 73
     3
  0
LINE
  5
3E
330
50F
100
AcDbEntity
  8
HIBINO-BASE
  6
Continuous
 62
     7
100
AcDbLine
 10
43.12499999999999
 20
-379.18637
 30
0.0
 11
54.375
 21
-367.93637
 31
0.0
  0
TEXT
  5
3F
330
50F
100
AcDbEntity
  8
HIBINO-BASE
 62
     7
100
AcDbText
 10
41.24999999999999
 20
-371.2632
 30
0.0
 40
4.886523437499999
  1
1
 41
0.7
 11
41.24999999999999
 21
-366.3766765625
 31
0.0
100
AcDbText
 73
     3
  0
LINE
  5
40
330
50F
100
AcDbEntity
  8
HIBINO-BASE
  6
Continuous
 62
     7
100
AcDbLine
 10
37.5
 20
-382.93637
 30
0.0
 11
37.5
 21
-352.9363699999999
 31
0.0
  0
LINE
  5
41
330
50F
100
AcDbEntity
  8
HIBINO-BASE
  6
Continuous
 62
     7
100
AcDbLine
 10
67.49999999999999
 20
-382.93637
 30
0.0
 11
67.49999999999999
 21
-352.9363699999999
 31
0.0
  0
LINE
  5
42
330
50F
100
AcDbEntity
  8
HIBINO-BASE
  6
Continuous
 62
     7
100
AcDbLine
 10
142.5
 20
-352.9363699999999
 30
0.0
 11
142.5
 21
-382.93637
 31
0.0
  0
LINE
  5
43
330
50F
100
AcDbEntity
  8
HIBINO-BASE
  6
Continuous
 62
     7
100
AcDbLine
 10
217.5
 20
-352.9363699999999
 30
0.0
 11
217.5
 21
-382.93637
 31
0.0
  0
LINE
  5
44
330
50F
100
AcDbEntity
  8
HIBINO-BASE
  6
Continuous
 62
     7
100
AcDbLine
 10
180.0
 20
-382.93637
 30
0.0
 11
180.0
 21
-352.9363699999999
 31
0.0
  0
TEXT
  5
45
330
50F
100
AcDbEntity
  8
HIBINO-BASE
 62
     7
100
AcDbText
 10
70.06962
 20
-374.34543
 30
0.0
 40
4.886523437499999
  1
'17.02.
 41
0.7
 11
70.06962
 21
-369.4589065625
 31
0.0
100
AcDbText
 73
     3
  0
TEXT
  5
46
330
50F
100
AcDbEntity
  8
HIBINO-BASE
 62
     7
100
AcDbText
 10
52.5
 20
-376.8882
 30
0.0
 40
4.886523437499999
  1
3
 41
0.7
 11
52.5
 21
-372.0016765625
 31
0.0
100
AcDbText
 73
     3
  0
TEXT
  5
47
330
50F
100
AcDbEntity
  8
HIBINO-BASE
 62
     7
100
AcDbText
 10
11.65000000000005
 20
-377.00837
 30
0.0
 40
9.773046874999998
  1
A4
 41
0.7
 11
11.65000000000005
 21
-367.235323125
 31
0.0
100
AcDbText
 73
     3
  0
TEXT
  5
48
330
50F
100
AcDbEntity
  8
HIBINO-BASE
 62
     7
100
AcDbText
 10
2.874999999999996
 20
-360.794735
 30
0.0
 40
4.886523437499999
  1
PAPER SIZE
 41
0.7
 11
2.874999999999996
 21
-355.9082115625
 31
0.0
100
AcDbText
 73
     3
  0
TEXT
  5
49
330
50F
100
AcDbEntity
  8
HIBINO-BASE
 62
     7
100
AcDbText
 10
147.3
 20
-374.34543
 30
0.0
 40
4.886523437499999
  1
N.Sasaki
 41
0.7
 11
147.3
 21
-369.4589065625
 31
0.0
100
AcDbText
 73
     3
  0
LINE
  5
4A
330
50F
100
AcDbEntity
  8
SPEC
  6
Continuous
 62
     7
100
AcDbLine
 10
-247.5
 20
367.0636299999999
 30
0.0
 11
205.0000000000001
 21
367.0636299999999
 31
0.0
  0
LINE
  5
4B
330
50F
100
AcDbEntity
  8
SPEC
  6
Continuous
 62
     7
100
AcDbLine
 10
-247.5
 20
355.8136299999999
 30
0.0
 11
205.0000000000001
 21
355.8136299999999
 31
0.0
  0
LINE
  5
4C
330
50F
100
AcDbEntity
  8
SPEC
  6
Continuous
 62
     7
100
AcDbLine
 10
-247.5
 20
310.8136299999999
 30
0.0
 11
205.0000000000001
 21
310.8136299999999
 31
0.0
  0
LINE
  5
4D
330
50F
100
AcDbEntity
  8
SPEC
  6
Continuous
 62
     7
100
AcDbLine
 10
-247.5
 20
322.0636299999999
 30
0.0
 11
205.0000000000001
 21
322.0636299999999
 31
0.0
  0
LINE
  5
4E
330
50F
100
AcDbEntity
  8
SPEC
  6
Continuous
 62
     7
100
AcDbLine
 10
-247.5
 20
333.31363
 30
0.0
 11
205.0000000000001
 21
333.31363
 31
0.0
  0
LINE
  5
4F
330
50F
100
AcDbEntity
  8
SPEC
  6
Continuous
 62
     7
100
AcDbLine
 10
-247.5
 20
299.5636299999999
 30
0.0
 11
205.0000000000001
 21
299.5636299999999
 31
0.0
  0
LINE
  5
50
330
50F
100
AcDbEntity
  8
SPEC
  6
Continuous
 62
     7
100
AcDbLine
 10
-247.5
 20
277.06363
 30
0.0
 11
205.0000000000001
 21
277.06363
 31
0.0
  0
LINE
  5
51
330
50F
100
AcDbEntity
  8
SPEC
  6
Continuous
 62
     7
100
AcDbLine
 10
-247.5
 20
288.3136299999999
 30
0.0
 11
205.0000000000001
 21
288.3136299999999
 31
0.0
  0
LINE
  5
52
330
50F
100
AcDbEntity
  8
SPEC
  6
Continuous
 62
     7
100
AcDbLine
 10
-247.5
 20
265.81363
 30
0.0
 11
205.0000000000001
 21
265.81363
 31
0.0
  0
LINE
  5
53
330
50F
100
AcDbEntity
  8
SPEC
  6
Continuous
 62
     7
100
AcDbLine
 10
-247.5
 20
254.5636299999999
 30
0.0
 11
205.0000000000001
 21
254.5636299999999
 31
0.0
  0
LINE
  5
54
330
50F
100
AcDbEntity
  8
SPEC
  6
Continuous
 62
     7
100
AcDbLine
 10
-247.5
 20
344.5636299999999
 30
0.0
 11
205.0000000000001
 21
344.5636299999999
 31
0.0
  0
TEXT
  5
55
330
50F
100
AcDbEntity
  8
SPEC
 62
     7
100
AcDbText
 10
-97.60625207387564
 20
358.4223849924339
 30
0.0
 40
5.700944010416665
  1
120W+120W(4Ω)、120W+120W(8Ω)
 41
0.7
 11
-97.60625207387564
 21
364.1233290028506
 31
0.0
100
AcDbText
 73
     3
  0
LINE
  5
56
330
50F
100
AcDbEntity
  8
SPEC
  6
Continuous
 62
     7
100
AcDbLine
 10
-100.0
 20
232.06363
 30
0.0
 11
205.0
 21
232.06363
 31
0.0
  0
LINE
  5
57
330
50F
100
AcDbEntity
  8
SPEC
  6
Continuous
 62
     7
100
AcDbLine
 10
-247.5
 20
367.0636299999999
 30
0.0
 11
-247.5
 21
164.56363
 31
0.0
  0
TEXT
  5
58
330
50F
100
AcDbEntity
  8
SPEC
 62
     7
100
AcDbText
 10
-243.75
 20
371.24344
 30
0.0
 40
7.329785156249999
  1
仕様
 41
0.7
 11
-243.75
 21
378.57322515625
 31
0.0
100
AcDbText
 73
     3
  0
LINE
  5
59
330
50F
100
AcDbEntity
  8
SPEC
  6
Continuous
 62
     7
100
AcDbLine
 10
-99.99999999999996
 20
367.0636299999999
 30
0.0
 11
-99.99999999999996
 21
164.56363
 31
0.0
  0
LINE
  5
5A
330
50F
100
AcDbEntity
  8
SPEC
  6
Continuous
 62
     7
100
AcDbLine
 10
205.0
 20
367.0636299999999
 30
0.0
 11
205.0
 21
164.56363
 31
0.0
  0
TEXT
  5
5B
330
50F
100
AcDbEntity
  8
SPEC
 62
     7
100
AcDbText
 10
-96.93816469700109
 20
257.4701362878318
 30
0.0
 40
5.700944010416665
  1
AC100V、50/60Hz
 41
0.7
 11
-96.93816469700109
 21
263.1710802982484
 31
0.0
100
AcDbText
 73
     3
  0
TEXT
  5
5C
330
50F
100
AcDbEntity
  8
SPEC
 62
     7
100
AcDbText
 10
-97.2394774485275
 20
268.6010411936404
 30
0.0
 40
5.700944010416665
  1
Clip、Signal、Power
 41
0.7
 11
-97.2394774485275
 21
274.3019852040571
 31
0.0
100
AcDbText
 73
     3
  0
TEXT
  5
5D
330
50F
100
AcDbEntity
  8
SPEC
 62
     7
100
AcDbText
 10
-245.2727490128796
 20
324.8916080316496
 30
0.0
 40
5.700944010416665
  1
ダンピングファクター
 41
0.7
 11
-245.2727490128796
 21
330.5925520420663
 31
0.0
100
AcDbText
 73
     3
  0
TEXT
  5
5E
330
50F
100
AcDbEntity
  8
SPEC
 62
     7
100
AcDbText
 10
-245.0533413502143
 20
358.5573953586546
 30
0.0
 40
5.700944010416665
  1
ステレオ出力(1kHz、THD 0.5%%%)
 41
0.7
 11
-245.0533413502143
 21
364.2583393690713
 31
0.0
100
AcDbText
 73
     3
  0
TEXT
  5
5F
330
50F
100
AcDbEntity
  8
SPEC
 62
     7
100
AcDbText
 10
-244.7822832291377
 20
246.1175856544638
 30
0.0
 40
5.700944010416665
  1
消費電力
 41
0.7
 11
-244.7822832291377
 21
251.8185296648804
 31
0.0
100
AcDbText
 73
     3
  0
TEXT
  5
60
330
50F
100
AcDbEntity
  8
SPEC
 62
     7
100
AcDbText
 10
-244.8943240120832
 20
302.5406605863371
 30
0.0
 40
5.700944010416665
  1
入力感度
 41
0.7
 11
-244.8943240120832
 21
308.2416045967538
 31
0.0
100
AcDbText
 73
     3
  0
TEXT
  5
61
330
50F
100
AcDbEntity
  8
SPEC
 62
     7
100
AcDbText
 10
-244.9886480241663
 20
291.3048904974914
 30
0.0
 40
5.700944010416665
  1
入力コネクター
 41
0.7
 11
-244.9886480241663
 21
297.005834507908
 31
0.0
100
AcDbText
 73
     3
  0
TEXT
  5
62
330
50F
100
AcDbEntity
  8
SPEC
 62
     7
100
AcDbText
 10
-244.9890996051518
 20
313.6954334122828
 30
0.0
 40
5.700944010416665
  1
入力インピーダンス
 41
0.7
 11
-244.9890996051518
 21
319.3963774226995
 31
0.0
100
AcDbText
 73
     3
  0
TEXT
  5
63
330
50F
100
AcDbEntity
  8
SPEC
 62
     7
100
AcDbText
 10
-244.8633353375536
 20
347.1807246835475
 30
0.0
 40
5.700944010416665
  1
周波数特性(20Hz～20kHz、1W、4/8Ω)
 41
0.7
 11
-244.8633353375536
 21
352.8816686939642
 31
0.0
100
AcDbText
 73
     3
  0
TEXT
  5
64
330
50F
100
AcDbEntity
  8
SPEC
 62
     7
100
AcDbText
 10
-244.8
 20
336.2039174086687
 30
0.0
 40
5.700944010416665
  1
S/N比(1kHz、8Ω)
 41
0.7
 11
-244.8
 21
341.9048614190854
 31
0.0
100
AcDbText
 73
     3
  0
TEXT
  5
65
330
50F
100
AcDbEntity
  8
SPEC
 62
     7
100
AcDbText
 10
-245.1759453477736
 20
268.6473150180504
 30
0.0
 40
5.700944010416665
  1
インジケーター
 41
0.7
 11
-245.1759453477736
 21
274.3482590284671
 31
0.0
100
AcDbText
 73
     3
  0
TEXT
  5
66
330
50F
100
AcDbEntity
  8
SPEC
 62
     7
100
AcDbText
 10
-245.0819590108302
 20
257.0213696702767
 30
0.0
 40
5.700944010416665
  1
電源
 41
0.7
 11
-245.0819590108302
 21
262.7223136806933
 31
0.0
100
AcDbText
 73
     3
  0
TEXT
  5
67
330
50F
100
AcDbEntity
  8
SPEC
 62
     7
100
AcDbText
 10
-207.239090314156
 20
234.8476704895864
 30
0.0
 40
5.700944010416665
  1
アイドル時
 41
0.7
 11
-207.239090314156
 21
240.548614500003
 31
0.0
100
AcDbText
 73
     3
  0
TEXT
  5
68
330
50F
100
AcDbEntity
  8
SPEC
 62
     7
100
AcDbText
 10
-97.29999999999998
 20
325.0807076368015
 30
0.0
 40
5.700944010416665
  1
500以上(10～100Hz)
 41
0.7
 11
-97.29999999999998
 21
330.7816516472182
 31
0.0
100
AcDbText
 73
     3
  0
TEXT
  5
69
330
50F
100
AcDbEntity
  8
SPEC
 62
     7
100
AcDbText
 10
-97.66443998534576
 20
302.1858626482314
 30
0.0
 40
5.700944010416665
  1
1.4V
 41
0.7
 11
-97.66443998534576
 21
307.8868066586481
 31
0.0
100
AcDbText
 73
     3
  0
TEXT
  5
6A
330
50F
100
AcDbEntity
  8
SPEC
 62
     7
100
AcDbText
 10
-97.48221999267286
 20
291.512822616138
 30
0.0
 40
5.700944010416665
  1
ユーロブロック(バランス)、RCA(アンバランス)
 41
0.7
 11
-97.48221999267286
 21
297.2137666265547
 31
0.0
100
AcDbText
 73
     3
  0
TEXT
  5
6B
330
50F
100
AcDbEntity
  8
SPEC
 62
     7
100
AcDbText
 10
-207.1490637886488
 20
246.2201362878317
 30
0.0
 40
5.700944010416665
  1
1/8出力時(ピンクノイズ、4Ω)
 41
0.7
 11
-207.1490637886488
 21
251.9210802982483
 31
0.0
100
AcDbText
 73
     3
  0
TEXT
  5
6C
330
50F
100
AcDbEntity
  8
SPEC
 62
     7
100
AcDbText
 10
-97.2594097363566
 20
313.789500777083
 30
0.0
 40
5.700944010416665
  1
20kΩ(バランス)、10kΩ(アンバランス)
 41
0.7
 11
-97.2594097363566
 21
319.4904447874997
 31
0.0
100
AcDbText
 73
     3
  0
TEXT
  5
6D
330
50F
100
AcDbEntity
  8
SPEC
 62
     7
100
AcDbText
 10
-97.66618684853451
 20
336.1351168940013
 30
0.0
 40
5.700944010416665
  1
100dB以上(Aウェイト)
 41
0.7
 11
-97.66618684853451
 21
341.836060904418
 31
0.0
100
AcDbText
 73
     3
  0
TEXT
  5
6E
330
50F
100
AcDbEntity
  8
SPEC
 62
     7
100
AcDbText
 10
-97.99417136745139
 20
347.4173866515345
 30
0.0
 40
5.700944010416665
  1
±1dB
 41
0.7
 11
-97.99417136745139
 21
353.1183306619511
 31
0.0
100
AcDbText
 73
     3
  0
TEXT
  5
6F
330
50F
100
AcDbEntity
  8
SPEC
 62
     7
100
AcDbText
 10
-245.2605886712423
 20
279.6903147507698
 30
0.0
 40
5.700944010416665
  1
出力コネクター
 41
0.7
 11
-245.2605886712423
 21
285.3912587611865
 31
0.0
100
AcDbText
 73
     3
  0
TEXT
  5
70
330
50F
100
AcDbEntity
  8
SPEC
 62
     7
100
AcDbText
 10
-97.54266971545122
 20
280.1440670909278
 30
0.0
 40
5.700944010416665
  1
ユーロブロック
 41
0.7
 11
-97.54266971545122
 21
285.8450111013445
 31
0.0
100
AcDbText
 73
     3
  0
LINE
  5
71
330
50F
100
AcDbEntity
  8
SPEC
  6
Continuous
 62
     7
100
AcDbLine
 10
-100.0
 20
243.31363
 30
0.0
 11
205.0
 21
243.31363
 31
0.0
  0
LINE
  5
72
330
50F
100
AcDbEntity
  8
SPEC
  6
Continuous
 62
     7
100
AcDbLine
 10
-247.5
 20
209.56363
 30
0.0
 11
205.0000000000001
 21
209.56363
 31
0.0
  0
LINE
  5
73
330
50F
100
AcDbEntity
  8
SPEC
  6
Continuous
 62
     7
100
AcDbLine
 10
-247.5
 20
198.31363
 30
0.0
 11
205.0000000000001
 21
198.31363
 31
0.0
  0
LINE
  5
74
330
50F
100
AcDbEntity
  8
SPEC
  6
Continuous
 62
     7
100
AcDbLine
 10
-247.5
 20
187.06363
 30
0.0
 11
205.0000000000001
 21
187.06363
 31
0.0
  0
LINE
  5
75
330
50F
100
AcDbEntity
  8
SPEC
  6
Continuous
 62
     7
100
AcDbLine
 10
-247.5
 20
164.56363
 30
0.0
 11
205.0000000000001
 21
164.56363
 31
0.0
  0
TEXT
  5
76
330
50F
100
AcDbEntity
  8
SPEC
 62
     7
100
AcDbText
 10
-207.0429098256214
 20
223.597886252496
 30
0.0
 40
5.700944010416665
  1
オートスタンバイ時
 41
0.7
 11
-207.0429098256214
 21
229.2988302629127
 31
0.0
100
AcDbText
 73
     3
  0
TEXT
  5
77
330
50F
100
AcDbEntity
  8
SPEC
 62
     7
100
AcDbText
 10
-97.78665122725685
 20
234.7594670874837
 30
0.0
 40
5.700944010416665
  1
10W
 41
0.7
 11
-97.78665122725685
 21
240.4604110979004
 31
0.0
100
AcDbText
 73
     3
  0
TEXT
  5
78
330
50F
100
AcDbEntity
  8
SPEC
 62
     7
100
AcDbText
 10
-97.24048194906945
 20
245.7369013842638
 30
0.0
 40
5.700944010416665
  1
55W
 41
0.7
 11
-97.24048194906945
 21
251.4378453946805
 31
0.0
100
AcDbText
 73
     3
  0
TEXT
  5
79
330
50F
100
AcDbEntity
  8
SPEC
 62
     7
100
AcDbText
 10
-97.41903610186108
 20
223.9260934439977
 30
0.0
 40
5.700944010416665
  1
8W
 41
0.7
 11
-97.41903610186108
 21
229.6270374544143
 31
0.0
100
AcDbText
 73
     3
  0
TEXT
  5
7A
330
50F
100
AcDbEntity
  8
SPEC
 62
     7
100
AcDbText
 10
-245.0895983278966
 20
201.4170668271745
 30
0.0
 40
5.700944010416665
  1
寸法(W×H×D)
 41
0.7
 11
-245.0895983278966
 21
207.1180108375911
 31
0.0
100
AcDbText
 73
     3
  0
TEXT
  5
7B
330
50F
100
AcDbEntity
  8
SPEC
 62
     7
100
AcDbText
 10
-244.9350245369072
 20
190.048005814665
 30
0.0
 40
5.700944010416665
  1
質量
 41
0.7
 11
-244.9350245369072
 21
195.7489498250817
 31
0.0
100
AcDbText
 73
     3
  0
LINE
  5
7C
330
50F
100
AcDbEntity
  8
SPEC
  6
Continuous
 62
     7
100
AcDbLine
 10
-99.99999999999996
 20
220.81363
 30
0.0
 11
-99.99999999999996
 21
254.5636299999999
 31
0.0
  0
TEXT
  5
7D
330
50F
100
AcDbEntity
  8
SPEC
 62
     7
100
AcDbText
 10
-97.14607954054123
 20
200.8840297464185
 30
0.0
 40
5.700944010416665
  1
210×44×178mm(除突起部)
 41
0.7
 11
-97.14607954054123
 21
206.5849737568352
 31
0.0
100
AcDbText
 73
     3
  0
TEXT
  5
7E
330
50F
100
AcDbEntity
  8
SPEC
 62
     7
100
AcDbText
 10
-97.64097048468711
 20
190.1926138082579
 30
0.0
 40
5.700944010416665
  1
1.0kg
 41
0.7
 11
-97.64097048468711
 21
195.8935578186746
 31
0.0
100
AcDbText
 73
     3
  0
TEXT
  5
7F
330
50F
100
AcDbEntity
  8
SPEC
 62
     7
100
AcDbText
 10
-244.8712805181304
 20
178.5270063547239
 30
0.0
 40
5.700944010416665
  1
付属品
 41
0.7
 11
-244.8712805181304
 21
184.2279503651406
 31
0.0
100
AcDbText
 73
     3
  0
TEXT
  5
80
330
50F
100
AcDbEntity
  8
SPEC
 62
     7
100
AcDbText
 10
-97.33997700587964
 20
178.7249168197024
 30
0.0
 40
5.700944010416665
  1
入力用ブロックコネクター×2、出力用ブロックコネクタ ー、ロングアングルブラケット、
 41
0.7
 11
-97.33997700587964
 21
184.4258608301191
 31
0.0
100
AcDbText
 73
     3
  0
TEXT
  5
81
330
50F
100
AcDbEntity
  8
SPEC
 62
     7
100
AcDbText
 10
-97.91962380998615
 20
167.6950271140817
 30
0.0
 40
5.700944010416665
  1
フラットブラケット、アングルブラケット×2、ねじ一式、電源コード
 41
0.7
 11
-97.91962380998615
 21
173.3959711244984
 31
0.0
100
AcDbText
 73
     3
  0
LINE
  5
82
330
50F
100
AcDbEntity
  8
SPEC
  6
Continuous
 62
     7
100
AcDbLine
 10
-209.5
 20
209.56363
 30
0.0
 11
-209.5
 21
254.5636299999999
 31
0.0
  0
LINE
  5
83
330
50F
100
AcDbEntity
  8
SPEC
  6
Continuous
 62
     7
100
AcDbLine
 10
-100.0
 20
243.31363
 30
0.0
 11
-209.5
 21
243.31363
 31
0.0
  0
LINE
  5
84
330
50F
100
AcDbEntity
  8
SPEC
  6
Continuous
 62
     7
100
AcDbLine
 10
-100.0
 20
232.06363
 30
0.0
 11
-209.5
 21
232.06363
 31
0.0
  0
LINE
  5
85
330
50F
100
AcDbEntity
  8
SPEC
  6
Continuous
 62
     7
100
AcDbLine
 10
-209.5
 20
220.81363
 30
0.0
 11
205.0000000000001
 21
220.81363
 31
0.0
  0
TEXT
  5
86
330
50F
100
AcDbEntity
  8
SPEC
 62
     7
100
AcDbText
 10
-207.0429098256214
 20
212.1565280182634
 30
0.0
 40
5.700944010416665
  1
電気用品安全法による
 41
0.7
 11
-207.0429098256214
 21
217.85747202868
 31
0.0
100
AcDbText
 73
     3
  0
TEXT
  5
87
330
50F
100
AcDbEntity
  8
SPEC
 62
     7
100
AcDbText
 10
-97.41903610186108
 20
212.2836434472076
 30
0.0
 40
5.700944010416665
  1
120W
 41
0.7
 11
-97.41903610186108
 21
217.9845874576243
 31
0.0
100
AcDbText
 73
     3
  0
TEXT
  5
88
330
50F
100
AcDbEntity
  8
DIMNSIONS
 62
     7
100
AcDbText
 10
-60.0
 20
-346.1279
 30
0.0
 40
7.329785156249999
  1
(単位：mm)
 41
0.7
 11
-60.0
 21
-338.79811484375
 31
0.0
100
AcDbText
 73
     3
  0
LINE
  5
89
330
50F
100
AcDbEntity
  8
DIMNSIONS
  6
Continuous
 62
     7
100
AcDbLine
 10
-243.0
 20
-280.0
 30
0.0
 11
-251.0
 21
-280.0
 31
0.0
  0
LINE
  5
8A
330
50F
100
AcDbEntity
  8
DIMNSIONS
  6
Continuous
 62
     7
100
AcDbLine
 10
-243.0
 20
-236.0
 30
0.0
 11
-251.0
 21
-236.0
 31
0.0
  0
LINE
  5
8B
330
50F
100
AcDbEntity
  8
DIMNSIONS
  6
Continuous
 62
     7
100
AcDbLine
 10
-245.0
 20
-280.0
 30
0.0
 11
-245.0
 21
-236.0
 31
0.0
  0
LINE
  5
8C
330
50F
100
AcDbEntity
  8
DIMNSIONS
  6
Continuous
 62
     7
100
AcDbLine
 10
-245.0
 20
-280.0
 30
0.0
 11
-247.0101193854507
 21
-272.4981323242188
 31
0.0
  0
LINE
  5
8D
330
50F
100
AcDbEntity
  8
DIMNSIONS
  6
Continuous
 62
     7
100
AcDbLine
 10
-245.0
 20
-280.0
 30
0.0
 11
-242.9898806145493
 21
-272.4981323242188
 31
0.0
  0
LINE
  5
8E
330
50F
100
AcDbEntity
  8
DIMNSIONS
  6
Continuous
 62
     7
100
AcDbLine
 10
-245.0
 20
-236.0
 30
0.0
 11
-242.9898806145493
 21
-243.5018676757813
 31
0.0
  0
LINE
  5
8F
330
50F
100
AcDbEntity
  8
DIMNSIONS
  6
Continuous
 62
     7
100
AcDbLine
 10
-245.0
 20
-236.0
 30
0.0
 11
-247.0101193854507
 21
-243.5018676757813
 31
0.0
  0
TEXT
  5
90
330
50F
100
AcDbEntity
  8
DIMNSIONS
 62
     7
100
AcDbText
 10
-247.9816667329023
 20
-263.2916666666666
 30
0.0
 40
8.144206093241075
  1
44
 50
90.0
 41
0.7
 11
-256.1258728261434
 21
-263.2916666666666
 31
0.0
100
AcDbText
 73
     3
  0
LINE
  5
91
330
50F
100
AcDbEntity
  8
DIMNSIONS
  6
Continuous
 62
     7
100
AcDbLine
 10
-240.0
 20
-283.0
 30
0.0
 11
-240.0
 21
-301.0
 31
0.0
  0
LINE
  5
92
330
50F
100
AcDbEntity
  8
DIMNSIONS
  6
Continuous
 62
     7
100
AcDbLine
 10
-30.0
 20
-283.0
 30
0.0
 11
-30.0
 21
-301.0
 31
0.0
  0
LINE
  5
93
330
50F
100
AcDbEntity
  8
DIMNSIONS
  6
Continuous
 62
     7
100
AcDbLine
 10
-240.0
 20
-295.0
 30
0.0
 11
-30.0
 21
-295.0
 31
0.0
  0
LINE
  5
94
330
50F
100
AcDbEntity
  8
DIMNSIONS
  6
Continuous
 62
     7
100
AcDbLine
 10
-240.0
 20
-295.0
 30
0.0
 11
-232.4981323242187
 21
-292.9898806145492
 31
0.0
  0
LINE
  5
95
330
50F
100
AcDbEntity
  8
DIMNSIONS
  6
Continuous
 62
     7
100
AcDbLine
 10
-240.0
 20
-295.0
 30
0.0
 11
-232.4981323242187
 21
-297.0101193854508
 31
0.0
  0
LINE
  5
96
330
50F
100
AcDbEntity
  8
DIMNSIONS
  6
Continuous
 62
     7
100
AcDbLine
 10
-30.0
 20
-295.0
 30
0.0
 11
-37.50186767578125
 21
-297.0101193854508
 31
0.0
  0
LINE
  5
97
330
50F
100
AcDbEntity
  8
DIMNSIONS
  6
Continuous
 62
     7
100
AcDbLine
 10
-30.0
 20
-295.0
 30
0.0
 11
-37.50186767578125
 21
-292.9898806145492
 31
0.0
  0
TEXT
  5
98
330
50F
100
AcDbEntity
  8
DIMNSIONS
 62
     7
100
AcDbText
 10
-142.9375
 20
-292.0183332670977
 30
0.0
 40
8.144206093241075
  1
210
 41
0.7
 11
-142.9375
 21
-283.8741271738566
 31
0.0
100
AcDbText
 73
     3
  0
LINE
  5
99
330
50F
100
AcDbEntity
  8
DIMNSIONS
  6
Continuous
 62
     7
100
AcDbLine
 10
-243.0
 20
-220.0
 30
0.0
 11
-251.0
 21
-220.0
 31
0.0
  0
LINE
  5
9A
330
50F
100
AcDbEntity
  8
DIMNSIONS
  6
Continuous
 62
     7
100
AcDbLine
 10
-243.0
 20
-42.0
 30
0.0
 11
-251.0
 21
-42.0
 31
0.0
  0
LINE
  5
9B
330
50F
100
AcDbEntity
  8
DIMNSIONS
  6
Continuous
 62
     7
100
AcDbLine
 10
-245.0
 20
-220.0
 30
0.0
 11
-245.0
 21
-42.0
 31
0.0
  0
LINE
  5
9C
330
50F
100
AcDbEntity
  8
DIMNSIONS
  6
Continuous
 62
     7
100
AcDbLine
 10
-245.0
 20
-220.0
 30
0.0
 11
-247.0101193854507
 21
-212.4981323242188
 31
0.0
  0
LINE
  5
9D
330
50F
100
AcDbEntity
  8
DIMNSIONS
  6
Continuous
 62
     7
100
AcDbLine
 10
-245.0
 20
-220.0
 30
0.0
 11
-242.9898806145493
 21
-212.4981323242188
 31
0.0
  0
LINE
  5
9E
330
50F
100
AcDbEntity
  8
DIMNSIONS
  6
Continuous
 62
     7
100
AcDbLine
 10
-245.0
 20
-42.0
 30
0.0
 11
-242.9898806145493
 21
-49.50186767578125
 31
0.0
  0
LINE
  5
9F
330
50F
100
AcDbEntity
  8
DIMNSIONS
  6
Continuous
 62
     7
100
AcDbLine
 10
-245.0
 20
-42.0
 30
0.0
 11
-247.0101193854507
 21
-49.50186767578125
 31
0.0
  0
TEXT
  5
A0
330
50F
100
AcDbEntity
  8
DIMNSIONS
 62
     7
100
AcDbText
 10
-247.9816667329023
 20
-138.9375
 30
0.0
 40
8.144206093241075
  1
178
 50
90.0
 41
0.7
 11
-256.1258728261434
 21
-138.9375
 31
0.0
100
AcDbText
 73
     3
  0
LINE
  5
A1
330
50F
100
AcDbEntity
  8
DIMNSIONS
  6
Continuous
 62
     7
100
AcDbLine
 10
-243.0
 20
-42.0
 30
0.0
 11
-251.0
 21
-42.0
 31
0.0
  0
LINE
  5
A2
330
50F
100
AcDbEntity
  8
DIMNSIONS
  6
Continuous
 62
     7
100
AcDbLine
 10
-212.15
 20
-36.0
 30
0.0
 11
-251.0
 21
-36.0
 31
0.0
  0
LINE
  5
A3
330
50F
100
AcDbEntity
  8
DIMNSIONS
  6
Continuous
 62
     7
100
AcDbLine
 10
-245.0
 20
-36.0
 30
0.0
 11
-245.0
 21
-42.0
 31
0.0
  0
LINE
  5
A4
330
50F
100
AcDbEntity
  8
DIMNSIONS
  6
Continuous
 62
     7
100
AcDbLine
 10
-245.0
 20
-42.0
 30
0.0
 11
-245.0
 21
-52.5
 31
0.0
  0
LINE
  5
A5
330
50F
100
AcDbEntity
  8
DIMNSIONS
  6
Continuous
 62
     7
100
AcDbLine
 10
-245.0
 20
-42.0
 30
0.0
 11
-242.9898806145493
 21
-49.50186767578125
 31
0.0
  0
LINE
  5
A6
330
50F
100
AcDbEntity
  8
DIMNSIONS
  6
Continuous
 62
     7
100
AcDbLine
 10
-245.0
 20
-42.0
 30
0.0
 11
-247.0101193854507
 21
-49.50186767578125
 31
0.0
  0
LINE
  5
A7
330
50F
100
AcDbEntity
  8
DIMNSIONS
  6
Continuous
 62
     7
100
AcDbLine
 10
-245.0
 20
-36.0
 30
0.0
 11
-245.0
 21
-24.70833333333334
 31
0.0
  0
LINE
  5
A8
330
50F
100
AcDbEntity
  8
DIMNSIONS
  6
Continuous
 62
     7
100
AcDbLine
 10
-245.0
 20
-36.0
 30
0.0
 11
-247.0101193854507
 21
-28.49813232421875
 31
0.0
  0
LINE
  5
A9
330
50F
100
AcDbEntity
  8
DIMNSIONS
  6
Continuous
 62
     7
100
AcDbLine
 10
-245.0
 20
-36.0
 30
0.0
 11
-242.9898806145493
 21
-28.49813232421875
 31
0.0
  0
TEXT
  5
AA
330
50F
100
AcDbEntity
  8
DIMNSIONS
 62
     7
100
AcDbText
 10
-247.9816666666666
 20
-30.0
 30
0.0
 40
8.144205729166666
  1
6
 50
90.0
 41
0.7
 11
-256.1258723958332
 21
-30.0
 31
0.0
100
AcDbText
 73
     3
  0
LINE
  5
AB
330
50F
100
AcDbEntity
  8
DIMNSIONS
  6
Continuous
 62
     7
100
AcDbLine
 10
35.0
 20
-134.3293230965842
 30
0.0
 11
35.0
 21
-152.3293230965842
 31
0.0
  0
LINE
  5
AC
330
50F
100
AcDbEntity
  8
DIMNSIONS
  6
Continuous
 62
     7
100
AcDbLine
 10
55.0
 20
-134.3293230965842
 30
0.0
 11
55.0
 21
-152.3293230965842
 31
0.0
  0
LINE
  5
AD
330
50F
100
AcDbEntity
  8
DIMNSIONS
  6
Continuous
 62
     7
100
AcDbLine
 10
35.0
 20
-146.3293230965842
 30
0.0
 11
55.0
 21
-146.3293230965842
 31
0.0
  0
LINE
  5
AE
330
50F
100
AcDbEntity
  8
DIMNSIONS
  6
Continuous
 62
     7
100
AcDbLine
 10
35.0
 20
-146.3293230965842
 30
0.0
 11
42.50186767578124
 21
-144.3192037111335
 31
0.0
  0
LINE
  5
AF
330
50F
100
AcDbEntity
  8
DIMNSIONS
  6
Continuous
 62
     7
100
AcDbLine
 10
35.0
 20
-146.3293230965842
 30
0.0
 11
42.50186767578124
 21
-148.339442482035
 31
0.0
  0
LINE
  5
B0
330
50F
100
AcDbEntity
  8
DIMNSIONS
  6
Continuous
 62
     7
100
AcDbLine
 10
55.0
 20
-146.3293230965842
 30
0.0
 11
47.49813232421875
 21
-148.339442482035
 31
0.0
  0
LINE
  5
B1
330
50F
100
AcDbEntity
  8
DIMNSIONS
  6
Continuous
 62
     7
100
AcDbLine
 10
55.0
 20
-146.3293230965842
 30
0.0
 11
47.49813232421875
 21
-144.3192037111335
 31
0.0
  0
TEXT
  5
B2
330
50F
100
AcDbEntity
  8
DIMNSIONS
 62
     7
100
AcDbText
 10
39.70833333333334
 20
-143.347656407839
 30
0.0
 40
8.144205850524794
  1
20
 41
0.7
 11
39.70833333333334
 21
-135.2034505573142
 31
0.0
100
AcDbText
 73
     3
  0
LINE
  5
B3
330
50F
100
AcDbEntity
  8
DIMNSIONS
  6
Continuous
 62
     7
100
AcDbLine
 10
58.0
 20
-163.0
 30
0.0
 11
58.0
 21
-181.0
 31
0.0
  0
LINE
  5
B4
330
50F
100
AcDbEntity
  8
DIMNSIONS
  6
Continuous
 62
     7
100
AcDbLine
 10
102.0
 20
-163.0
 30
0.0
 11
102.0
 21
-181.0
 31
0.0
  0
LINE
  5
B5
330
50F
100
AcDbEntity
  8
DIMNSIONS
  6
Continuous
 62
     7
100
AcDbLine
 10
58.0
 20
-175.0
 30
0.0
 11
102.0
 21
-175.0
 31
0.0
  0
LINE
  5
B6
330
50F
100
AcDbEntity
  8
DIMNSIONS
  6
Continuous
 62
     7
100
AcDbLine
 10
58.0
 20
-175.0
 30
0.0
 11
65.50186767578125
 21
-172.9898806145492
 31
0.0
  0
LINE
  5
B7
330
50F
100
AcDbEntity
  8
DIMNSIONS
  6
Continuous
 62
     7
100
AcDbLine
 10
58.0
 20
-175.0
 30
0.0
 11
65.50186767578125
 21
-177.0101193854507
 31
0.0
  0
LINE
  5
B8
330
50F
100
AcDbEntity
  8
DIMNSIONS
  6
Continuous
 62
     7
100
AcDbLine
 10
102.0
 20
-175.0
 30
0.0
 11
94.49813232421872
 21
-177.0101193854507
 31
0.0
  0
LINE
  5
B9
330
50F
100
AcDbEntity
  8
DIMNSIONS
  6
Continuous
 62
     7
100
AcDbLine
 10
102.0
 20
-175.0
 30
0.0
 11
94.49813232421872
 21
-172.9898806145492
 31
0.0
  0
TEXT
  5
BA
330
50F
100
AcDbEntity
  8
DIMNSIONS
 62
     7
100
AcDbText
 10
74.70833333333333
 20
-172.0183333112547
 30
0.0
 40
8.144205850524794
  1
44
 41
0.7
 11
74.70833333333333
 21
-163.87412746073
 31
0.0
100
AcDbText
 73
     3
  0
LINE
  5
BB
330
50F
100
AcDbEntity
  8
DIMNSIONS
  6
Continuous
 62
     7
100
AcDbLine
 10
175.0
 20
-130.0
 30
0.0
 11
164.0
 21
-130.0
 31
0.0
  0
LINE
  5
BC
330
50F
100
AcDbEntity
  8
DIMNSIONS
  6
Continuous
 62
     7
100
AcDbLine
 10
175.0
 20
-99.0
 30
0.0
 11
164.0
 21
-99.0
 31
0.0
  0
LINE
  5
BD
330
50F
100
AcDbEntity
  8
DIMNSIONS
  6
Continuous
 62
     7
100
AcDbLine
 10
170.0
 20
-130.0
 30
0.0
 11
170.0
 21
-99.0
 31
0.0
  0
LINE
  5
BE
330
50F
100
AcDbEntity
  8
DIMNSIONS
  6
Continuous
 62
     7
100
AcDbLine
 10
170.0
 20
-130.0
 30
0.0
 11
167.9898806145492
 21
-122.4981323242187
 31
0.0
  0
LINE
  5
BF
330
50F
100
AcDbEntity
  8
DIMNSIONS
  6
Continuous
 62
     7
100
AcDbLine
 10
170.0
 20
-130.0
 30
0.0
 11
172.0101193854507
 21
-122.4981323242187
 31
0.0
  0
LINE
  5
C0
330
50F
100
AcDbEntity
  8
DIMNSIONS
  6
Continuous
 62
     7
100
AcDbLine
 10
170.0
 20
-99.0
 30
0.0
 11
172.0101193854507
 21
-106.5018676757812
 31
0.0
  0
LINE
  5
C1
330
50F
100
AcDbEntity
  8
DIMNSIONS
  6
Continuous
 62
     7
100
AcDbLine
 10
170.0
 20
-99.0
 30
0.0
 11
167.9898806145492
 21
-106.5018676757812
 31
0.0
  0
TEXT
  5
C2
330
50F
100
AcDbEntity
  8
DIMNSIONS
 62
     7
100
AcDbText
 10
167.0183333112548
 20
-119.7916666666667
 30
0.0
 40
8.144205850524794
  1
31
 50
90.0
 41
0.7
 11
158.87412746073
 21
-119.7916666666667
 31
0.0
100
AcDbText
 73
     3
  0
LINE
  5
C3
330
50F
100
AcDbEntity
  8
DIMNSIONS
  6
Continuous
 62
     7
100
AcDbLine
 10
175.0
 20
-160.0
 30
0.0
 11
164.0
 21
-160.0
 31
0.0
  0
LINE
  5
C4
330
50F
100
AcDbEntity
  8
DIMNSIONS
  6
Continuous
 62
     7
100
AcDbLine
 10
175.0
 20
-140.0
 30
0.0
 11
164.0
 21
-140.0
 31
0.0
  0
LINE
  5
C5
330
50F
100
AcDbEntity
  8
DIMNSIONS
  6
Continuous
 62
     7
100
AcDbLine
 10
170.0
 20
-160.0
 30
0.0
 11
170.0
 21
-140.0
 31
0.0
  0
LINE
  5
C6
330
50F
100
AcDbEntity
  8
DIMNSIONS
  6
Continuous
 62
     7
100
AcDbLine
 10
170.0
 20
-160.0
 30
0.0
 11
167.9898806145492
 21
-152.4981323242187
 31
0.0
  0
LINE
  5
C7
330
50F
100
AcDbEntity
  8
DIMNSIONS
  6
Continuous
 62
     7
100
AcDbLine
 10
170.0
 20
-160.0
 30
0.0
 11
172.0101193854507
 21
-152.4981323242187
 31
0.0
  0
LINE
  5
C8
330
50F
100
AcDbEntity
  8
DIMNSIONS
  6
Continuous
 62
     7
100
AcDbLine
 10
170.0
 20
-140.0
 30
0.0
 11
172.0101193854507
 21
-147.5018676757812
 31
0.0
  0
LINE
  5
C9
330
50F
100
AcDbEntity
  8
DIMNSIONS
  6
Continuous
 62
     7
100
AcDbLine
 10
170.0
 20
-140.0
 30
0.0
 11
167.9898806145492
 21
-147.5018676757812
 31
0.0
  0
TEXT
  5
CA
330
50F
100
AcDbEntity
  8
DIMNSIONS
 62
     7
100
AcDbText
 10
167.0183333112548
 20
-155.2916666666667
 30
0.0
 40
8.144205850524794
  1
20
 50
90.0
 41
0.7
 11
158.87412746073
 21
-155.2916666666667
 31
0.0
100
AcDbText
 73
     3
  0
LINE
  5
CB
330
50F
100
AcDbEntity
  8
DIMNSIONS
  6
Continuous
 62
     7
100
AcDbLine
 10
178.0
 20
-160.5
 30
0.0
 11
178.0
 21
-181.0
 31
0.0
  0
LINE
  5
CC
330
50F
100
AcDbEntity
  8
DIMNSIONS
  6
Continuous
 62
     7
100
AcDbLine
 10
222.0
 20
-160.5
 30
0.0
 11
222.0
 21
-181.0
 31
0.0
  0
LINE
  5
CD
330
50F
100
AcDbEntity
  8
DIMNSIONS
  6
Continuous
 62
     7
100
AcDbLine
 10
178.0
 20
-175.0
 30
0.0
 11
222.0
 21
-175.0
 31
0.0
  0
LINE
  5
CE
330
50F
100
AcDbEntity
  8
DIMNSIONS
  6
Continuous
 62
     7
100
AcDbLine
 10
178.0
 20
-175.0
 30
0.0
 11
185.5018676757813
 21
-172.9898806145492
 31
0.0
  0
LINE
  5
CF
330
50F
100
AcDbEntity
  8
DIMNSIONS
  6
Continuous
 62
     7
100
AcDbLine
 10
178.0
 20
-175.0
 30
0.0
 11
185.5018676757813
 21
-177.0101193854507
 31
0.0
  0
LINE
  5
D0
330
50F
100
AcDbEntity
  8
DIMNSIONS
  6
Continuous
 62
     7
100
AcDbLine
 10
222.0
 20
-175.0
 30
0.0
 11
214.4981323242188
 21
-177.0101193854507
 31
0.0
  0
LINE
  5
D1
330
50F
100
AcDbEntity
  8
DIMNSIONS
  6
Continuous
 62
     7
100
AcDbLine
 10
222.0
 20
-175.0
 30
0.0
 11
214.4981323242188
 21
-172.9898806145492
 31
0.0
  0
TEXT
  5
D2
330
50F
100
AcDbEntity
  8
DIMNSIONS
 62
     7
100
AcDbText
 10
194.7083333333333
 20
-172.0183333112547
 30
0.0
 40
8.144205850524794
  1
44
 41
0.7
 11
194.7083333333333
 21
-163.87412746073
 31
0.0
100
AcDbText
 73
     3
  0
LINE
  5
D3
330
50F
100
AcDbEntity
  8
DIMNSIONS
  6
Continuous
 62
     7
100
AcDbLine
 10
175.0
 20
-23.0
 30
0.0
 11
175.0
 21
-41.0
 31
0.0
  0
LINE
  5
D4
330
50F
100
AcDbEntity
  8
DIMNSIONS
  6
Continuous
 62
     7
100
AcDbLine
 10
225.0
 20
-23.0
 30
0.0
 11
225.0
 21
-41.0
 31
0.0
  0
LINE
  5
D5
330
50F
100
AcDbEntity
  8
DIMNSIONS
  6
Continuous
 62
     7
100
AcDbLine
 10
175.0
 20
-35.0
 30
0.0
 11
225.0
 21
-35.0
 31
0.0
  0
LINE
  5
D6
330
50F
100
AcDbEntity
  8
DIMNSIONS
  6
Continuous
 62
     7
100
AcDbLine
 10
175.0
 20
-35.0
 30
0.0
 11
182.5018676757813
 21
-32.98988061454927
 31
0.0
  0
LINE
  5
D7
330
50F
100
AcDbEntity
  8
DIMNSIONS
  6
Continuous
 62
     7
100
AcDbLine
 10
175.0
 20
-35.0
 30
0.0
 11
182.5018676757813
 21
-37.01011938545073
 31
0.0
  0
LINE
  5
D8
330
50F
100
AcDbEntity
  8
DIMNSIONS
  6
Continuous
 62
     7
100
AcDbLine
 10
225.0
 20
-35.0
 30
0.0
 11
217.4981323242187
 21
-37.01011938545073
 31
0.0
  0
LINE
  5
D9
330
50F
100
AcDbEntity
  8
DIMNSIONS
  6
Continuous
 62
     7
100
AcDbLine
 10
225.0
 20
-35.0
 30
0.0
 11
217.4981323242187
 21
-32.98988061454927
 31
0.0
  0
TEXT
  5
DA
330
50F
100
AcDbEntity
  8
DIMNSIONS
 62
     7
100
AcDbText
 10
194.7083333333333
 20
-32.01833331125479
 30
0.0
 40
8.144205850524794
  1
50
 41
0.7
 11
194.7083333333333
 21
-23.87412746072999
 31
0.0
100
AcDbText
 73
     3
  0
LINE
  5
DB
330
50F
100
AcDbEntity
  8
DIMNSIONS
  6
Continuous
 62
     7
100
AcDbLine
 10
172.0
 20
-20.0
 30
0.0
 11
164.0
 21
-20.0
 31
0.0
  0
LINE
  5
DC
330
50F
100
AcDbEntity
  8
DIMNSIONS
  6
Continuous
 62
     7
100
AcDbLine
 10
172.0
 20
82.0
 30
0.0
 11
164.0
 21
82.0
 31
0.0
  0
LINE
  5
DD
330
50F
100
AcDbEntity
  8
DIMNSIONS
  6
Continuous
 62
     7
100
AcDbLine
 10
170.0
 20
-20.0
 30
0.0
 11
170.0
 21
82.0
 31
0.0
  0
LINE
  5
DE
330
50F
100
AcDbEntity
  8
DIMNSIONS
  6
Continuous
 62
     7
100
AcDbLine
 10
170.0
 20
-20.0
 30
0.0
 11
167.9898806145492
 21
-12.49813232421875
 31
0.0
  0
LINE
  5
DF
330
50F
100
AcDbEntity
  8
DIMNSIONS
  6
Continuous
 62
     7
100
AcDbLine
 10
170.0
 20
-20.0
 30
0.0
 11
172.0101193854507
 21
-12.49813232421875
 31
0.0
  0
LINE
  5
E0
330
50F
100
AcDbEntity
  8
DIMNSIONS
  6
Continuous
 62
     7
100
AcDbLine
 10
170.0
 20
82.0
 30
0.0
 11
172.0101193854507
 21
74.49813232421873
 31
0.0
  0
LINE
  5
E1
330
50F
100
AcDbEntity
  8
DIMNSIONS
  6
Continuous
 62
     7
100
AcDbLine
 10
170.0
 20
82.0
 30
0.0
 11
167.9898806145492
 21
74.49813232421873
 31
0.0
  0
TEXT
  5
E2
330
50F
100
AcDbEntity
  8
DIMNSIONS
 62
     7
100
AcDbText
 10
167.0183333112547
 20
23.0625
 30
0.0
 40
8.144205850524794
  1
102
 50
90.0
 41
0.7
 11
158.87412746073
 21
23.0625
 31
0.0
100
AcDbText
 73
     3
  0
LINE
  5
E3
330
50F
100
AcDbEntity
  8
DIMNSIONS
  6
Continuous
 62
     7
100
AcDbLine
 10
240.0
 20
-23.0
 30
0.0
 11
240.0
 21
-41.0
 31
0.0
  0
LINE
  5
E4
330
50F
100
AcDbEntity
  8
DIMNSIONS
  6
Continuous
 62
     7
100
AcDbLine
 10
241.6
 20
-23.0
 30
0.0
 11
241.6
 21
-41.0
 31
0.0
  0
LINE
  5
E5
330
50F
100
AcDbEntity
  8
DIMNSIONS
  6
Continuous
 62
     7
100
AcDbLine
 10
241.6
 20
-35.0
 30
0.0
 11
240.0
 21
-35.0
 31
0.0
  0
LINE
  5
E6
330
50F
100
AcDbEntity
  8
DIMNSIONS
  6
Continuous
 62
     7
100
AcDbLine
 10
240.0
 20
-35.0
 30
0.0
 11
229.5
 21
-35.0
 31
0.0
  0
LINE
  5
E7
330
50F
100
AcDbEntity
  8
DIMNSIONS
  6
Continuous
 62
     7
100
AcDbLine
 10
240.0
 20
-35.0
 30
0.0
 11
232.4981323242187
 21
-37.01011938545073
 31
0.0
  0
LINE
  5
E8
330
50F
100
AcDbEntity
  8
DIMNSIONS
  6
Continuous
 62
     7
100
AcDbLine
 10
240.0
 20
-35.0
 30
0.0
 11
232.4981323242187
 21
-32.98988061454927
 31
0.0
  0
LINE
  5
E9
330
50F
100
AcDbEntity
  8
DIMNSIONS
  6
Continuous
 62
     7
100
AcDbLine
 10
241.6
 20
-35.0
 30
0.0
 11
260.0
 21
-35.0
 31
0.0
  0
LINE
  5
EA
330
50F
100
AcDbEntity
  8
DIMNSIONS
  6
Continuous
 62
     7
100
AcDbLine
 10
241.6
 20
-35.0
 30
0.0
 11
249.1018676757812
 21
-32.98988061454927
 31
0.0
  0
LINE
  5
EB
330
50F
100
AcDbEntity
  8
DIMNSIONS
  6
Continuous
 62
     7
100
AcDbLine
 10
241.6
 20
-35.0
 30
0.0
 11
249.1018676757812
 21
-37.01011938545073
 31
0.0
  0
TEXT
  5
EC
330
50F
100
AcDbEntity
  8
DIMNSIONS
 62
     7
100
AcDbText
 10
244.125
 20
-32.01833328917623
 30
0.0
 40
8.144205971882934
  1
1.6
 41
0.7
 11
244.125
 21
-23.87412731729329
 31
0.0
100
AcDbText
 73
     3
  0
LINE
  5
ED
330
50F
100
AcDbEntity
  8
DIMNSIONS
  6
Continuous
 62
     7
100
AcDbLine
 10
33.6
 20
-131.3293230965842
 30
0.0
 11
21.00000000000001
 21
-131.3293230965842
 31
0.0
  0
LINE
  5
EE
330
50F
100
AcDbEntity
  8
DIMNSIONS
  6
Continuous
 62
     7
100
AcDbLine
 10
33.6
 20
78.67067690341574
 30
0.0
 11
21.00000000000001
 21
78.67067690341574
 31
0.0
  0
LINE
  5
EF
330
50F
100
AcDbEntity
  8
DIMNSIONS
  6
Continuous
 62
     7
100
AcDbLine
 10
27.00000000000001
 20
-131.3293230965842
 30
0.0
 11
27.00000000000001
 21
78.67067690341574
 31
0.0
  0
LINE
  5
F0
330
50F
100
AcDbEntity
  8
DIMNSIONS
  6
Continuous
 62
     7
100
AcDbLine
 10
27.00000000000001
 20
-131.3293230965842
 30
0.0
 11
24.98988061454929
 21
-123.827455420803
 31
0.0
  0
LINE
  5
F1
330
50F
100
AcDbEntity
  8
DIMNSIONS
  6
Continuous
 62
     7
100
AcDbLine
 10
27.00000000000001
 20
-131.3293230965842
 30
0.0
 11
29.01011938545074
 21
-123.827455420803
 31
0.0
  0
LINE
  5
F2
330
50F
100
AcDbEntity
  8
DIMNSIONS
  6
Continuous
 62
     7
100
AcDbLine
 10
27.00000000000001
 20
78.67067690341574
 30
0.0
 11
29.01011938545074
 21
71.16880922763448
 31
0.0
  0
LINE
  5
F3
330
50F
100
AcDbEntity
  8
DIMNSIONS
  6
Continuous
 62
     7
100
AcDbLine
 10
27.00000000000001
 20
78.67067690341574
 30
0.0
 11
24.98988061454929
 21
71.16880922763448
 31
0.0
  0
TEXT
  5
F4
330
50F
100
AcDbEntity
  8
DIMNSIONS
 62
     7
100
AcDbText
 10
24.01833328917624
 20
-34.26682309658426
 30
0.0
 40
8.144205971882934
  1
210
 50
90.0
 41
0.7
 11
15.8741273172933
 21
-34.26682309658426
 31
0.0
100
AcDbText
 73
     3
  0
TEXT
  5
F5
330
50F
100
AcDbEntity
  8
DATA
 62
     7
100
AcDbText
 10
150.0
 20
-349.5437
 30
0.0
 40
7.329785156249999
  1
CSA-2120
 41
0.7
 11
150.0
 21
-342.21391484375
 31
0.0
100
AcDbText
 73
     3
  0
LINE
  5
F6
330
50F
100
AcDbEntity
  8
DATA
  6
Continuous
 62
     7
100
AcDbLine
 10
-240.0
 20
-280.0
 30
0.0
 11
-240.0
 21
-236.0
 31
0.0
  0
LINE
  5
F7
330
50F
100
AcDbEntity
  8
DATA
  6
Continuous
 62
     7
100
AcDbLine
 10
-30.0
 20
-280.0
 30
0.0
 11
-240.0
 21
-280.0
 31
0.0
  0
LINE
  5
F8
330
50F
100
AcDbEntity
  8
DATA
  6
Continuous
 62
     7
100
AcDbLine
 10
-30.0
 20
-236.0
 30
0.0
 11
-30.0
 21
-280.0
 31
0.0
  0
LINE
  5
F9
330
50F
100
AcDbEntity
  8
DATA
  6
Continuous
 62
     7
100
AcDbLine
 10
-240.0
 20
-236.0
 30
0.0
 11
-30.0
 21
-236.0
 31
0.0
  0
LINE
  5
FA
330
50F
100
AcDbEntity
  8
DATA
  6
Continuous
 62
     7
100
AcDbLine
 10
-240.0
 20
-220.0
 30
0.0
 11
-240.0
 21
-42.0
 31
0.0
  0
LINE
  5
FB
330
50F
100
AcDbEntity
  8
DATA
  6
Continuous
 62
     7
100
AcDbLine
 10
-30.0
 20
-220.0
 30
0.0
 11
-240.0
 21
-220.0
 31
0.0
  0
LINE
  5
FC
330
50F
100
AcDbEntity
  8
DATA
  6
Continuous
 62
     7
100
AcDbLine
 10
-30.0
 20
-42.0
 30
0.0
 11
-30.0
 21
-220.0
 31
0.0
  0
LINE
  5
FD
330
50F
100
AcDbEntity
  8
DATA
  6
Continuous
 62
     7
100
AcDbLine
 10
-240.0
 20
-42.0
 30
0.0
 11
-30.0
 21
-42.0
 31
0.0
  0
CIRCLE
  5
FE
330
50F
100
AcDbEntity
  8
DATA
  6
Continuous
 62
     7
100
AcDbCircle
 10
-207.5
 20
-259.0
 30
0.0
 40
3.25
  0
CIRCLE
  5
FF
330
50F
100
AcDbEntity
  8
DATA
  6
Continuous
 62
     7
100
AcDbCircle
 10
-207.5
 20
-259.0
 30
0.0
 40
4.5
  0
LINE
  5
100
330
50F
100
AcDbEntity
  8
DATA
  6
Continuous
 62
     7
100
AcDbLine
 10
-212.0
 20
-259.0
 30
0.0
 11
-213.5
 21
-259.0
 31
0.0
  0
LINE
  5
101
330
50F
100
AcDbEntity
  8
DATA
  6
Continuous
 62
     7
100
AcDbLine
 10
-203.0
 20
-259.0
 30
0.0
 11
-201.5
 21
-259.0
 31
0.0
  0
LINE
  5
102
330
50F
100
AcDbEntity
  8
DATA
  6
Continuous
 62
     7
100
AcDbLine
 10
-211.495153313704
 20
-262.995153313704
 30
0.0
 11
-210.6819805153394
 21
-262.1819805153395
 31
0.0
  0
LINE
  5
103
330
50F
100
AcDbEntity
  8
DATA
  6
Continuous
 62
     7
100
AcDbLine
 10
-203.504846686296
 20
-262.995153313704
 30
0.0
 11
-204.3180194846605
 21
-262.1819805153394
 31
0.0
  0
LINE
  5
104
330
50F
100
AcDbEntity
  8
DATA
  6
Continuous
 62
     7
100
AcDbLine
 10
-207.5
 20
-254.5
 30
0.0
 11
-207.5
 21
-253.35
 31
0.0
  0
TEXT
  5
105
330
50F
100
AcDbEntity
  8
DATA
 62
     7
100
AcDbText
 10
-213.0949999495347
 20
-264.7621689583376
 30
0.0
 40
1.563687569902286
  1
0
 41
0.7
 11
-213.0949999495347
 21
-263.9803251733864
 31
0.0
100
AcDbText
 73
     2
  0
TEXT
  5
106
330
50F
100
AcDbEntity
  8
DATA
 62
     7
100
AcDbText
 10
-203.4087460500312
 20
-264.8013872208997
 30
0.0
 40
1.563687569902286
  1
10
 41
0.7
 11
-203.4087460500312
 21
-264.0195434359486
 31
0.0
100
AcDbText
 73
     2
  0
TEXT
  5
107
330
50F
100
AcDbEntity
  8
DATA
 62
     7
100
AcDbText
 10
-65.31325898702529
 20
-245.7726906454588
 30
0.0
 40
5.130849609374999
  1
CSA-2120
 41
0.7
 11
-65.31325898702529
 21
-240.6418410360839
 31
0.0
100
AcDbText
 73
     3
  0
CIRCLE
  5
108
330
50F
100
AcDbEntity
  8
DATA
  6
Continuous
 62
     7
100
AcDbCircle
 10
-52.0
 20
-261.5
 30
0.0
 40
1.799999999999997
  0
TEXT
  5
109
330
50F
100
AcDbEntity
  8
DATA
 62
     7
100
AcDbText
 10
-57.41074938925636
 20
-272.6140638637764
 30
0.0
 40
3.462890625
  1
Power
 41
0.7
 11
-57.41074938925636
 21
-270.8826185512764
 31
0.0
100
AcDbText
 73
     2
  0
LINE
  5
10A
330
50F
100
AcDbEntity
  8
DATA
  6
Continuous
 62
     7
100
AcDbLine
 10
-44.75608023354435
 20
-271.0
 30
0.0
 11
-35.90829722102692
 21
-271.0
 31
0.0
  0
CIRCLE
  5
10B
330
50F
100
AcDbEntity
  8
DATA
  6
Continuous
 62
     7
100
AcDbCircle
 10
-183.0
 20
-256.5
 30
0.0
 40
1.800000000000011
  0
CIRCLE
  5
10C
330
50F
100
AcDbEntity
  8
DATA
  6
Continuous
 62
     7
100
AcDbCircle
 10
-183.0
 20
-262.0
 30
0.0
 40
1.800000000000011
  0
CIRCLE
  5
10D
330
50F
100
AcDbEntity
  8
DATA
  6
Continuous
 62
     7
100
AcDbCircle
 10
-160.5
 20
-256.5
 30
0.0
 40
1.800000000000011
  0
CIRCLE
  5
10E
330
50F
100
AcDbEntity
  8
DATA
  6
Continuous
 62
     7
100
AcDbCircle
 10
-160.5
 20
-262.0
 30
0.0
 40
1.800000000000011
  0
TEXT
  5
10F
330
50F
100
AcDbEntity
  8
DATA
 62
     7
100
AcDbText
 10
-175.1745694668569
 20
-257.6634951345653
 30
0.0
 40
2.4240234375
  1
Clip
 41
0.7
 11
-175.1745694668569
 21
-256.4514834158153
 31
0.0
100
AcDbText
 73
     2
  0
TEXT
  5
110
330
50F
100
AcDbEntity
  8
DATA
 62
     7
100
AcDbText
 10
-176.5412048799688
 20
-263.2101492998101
 30
0.0
 40
2.4240234375
  1
Signal
 41
0.7
 11
-176.5412048799688
 21
-261.9981375810601
 31
0.0
100
AcDbText
 73
     2
  0
LINE
  5
111
330
50F
100
AcDbEntity
  8
DATA
  6
Continuous
 62
     7
100
AcDbLine
 10
-180.7
 20
-256.5
 30
0.0
 11
-177.1090086951003
 21
-256.5
 31
0.0
  0
LINE
  5
112
330
50F
100
AcDbEntity
  8
DATA
  6
Continuous
 62
     7
100
AcDbLine
 10
-180.7
 20
-262.0
 30
0.0
 11
-178.2538284466586
 21
-262.0
 31
0.0
  0
LINE
  5
113
330
50F
100
AcDbEntity
  8
DATA
  6
Continuous
 62
     7
100
AcDbLine
 10
-162.8
 20
-256.5
 30
0.0
 11
-166.3909913048997
 21
-256.5
 31
0.0
  0
LINE
  5
114
330
50F
100
AcDbEntity
  8
DATA
  6
Continuous
 62
     7
100
AcDbLine
 10
-162.8
 20
-262.0
 30
0.0
 11
-165.2461715533413
 21
-262.0
 31
0.0
  0
TEXT
  5
115
330
50F
100
AcDbEntity
  8
DATA
 62
     7
100
AcDbText
 10
-211.446264636943
 20
-272.55830078125
 30
0.0
 40
3.1166015625
  1
CH 1
 41
0.7
 11
-211.446264636943
 21
-271.0
 31
0.0
100
AcDbText
 73
     2
  0
TEXT
  5
116
330
50F
100
AcDbEntity
  8
DATA
 62
     7
100
AcDbText
 10
-136.753557820638
 20
-272.55830078125
 30
0.0
 40
3.1166015625
  1
CH 2
 41
0.7
 11
-136.753557820638
 21
-271.0
 31
0.0
100
AcDbText
 73
     2
  0
LINE
  5
117
330
50F
100
AcDbEntity
  8
DATA
  6
Continuous
 62
     7
100
AcDbLine
 10
-201.7944438716605
 20
-271.0
 30
0.0
 11
-138.6015028161696
 21
-271.0
 31
0.0
  0
LINE
  5
118
330
50F
100
AcDbEntity
  8
DATA
  6
Continuous
 62
     7
100
AcDbLine
 10
-126.8311380424424
 20
-271.0
 30
0.0
 11
-60.6406168548788
 21
-271.0
 31
0.0
  0
LINE
  5
119
330
50F
100
AcDbEntity
  8
DATA
  6
Continuous
 62
     7
100
AcDbLine
 10
-214.2840939256709
 20
-271.0
 30
0.0
 11
-235.6797668513968
 21
-271.0
 31
0.0
  0
CIRCLE
  5
11A
330
50F
100
AcDbEntity
  8
DATA
  6
Continuous
 62
     7
100
AcDbCircle
 10
-184.0
 20
-171.0
 30
0.0
 40
1.474999999999994
  0
CIRCLE
  5
11B
330
50F
100
AcDbEntity
  8
DATA
  6
Continuous
 62
     7
100
AcDbCircle
 10
-178.0
 20
-171.0
 30
0.0
 40
1.474999999999994
  0
CIRCLE
  5
11C
330
50F
100
AcDbEntity
  8
DATA
  6
Continuous
 62
     7
100
AcDbCircle
 10
-172.0
 20
-171.0
 30
0.0
 40
1.474999999999994
  0
CIRCLE
  5
11D
330
50F
100
AcDbEntity
  8
DATA
  6
Continuous
 62
     7
100
AcDbCircle
 10
-166.0
 20
-171.0
 30
0.0
 40
1.474999999999994
  0
CIRCLE
  5
11E
330
50F
100
AcDbEntity
  8
DATA
  6
Continuous
 62
     7
100
AcDbCircle
 10
-160.0
 20
-171.0
 30
0.0
 40
1.474999999999994
  0
CIRCLE
  5
11F
330
50F
100
AcDbEntity
  8
DATA
  6
Continuous
 62
     7
100
AcDbCircle
 10
-154.0
 20
-171.0
 30
0.0
 40
1.474999999999994
  0
CIRCLE
  5
120
330
50F
100
AcDbEntity
  8
DATA
  6
Continuous
 62
     7
100
AcDbCircle
 10
-148.0
 20
-171.0
 30
0.0
 40
1.474999999999994
  0
CIRCLE
  5
121
330
50F
100
AcDbEntity
  8
DATA
  6
Continuous
 62
     7
100
AcDbCircle
 10
-142.0
 20
-171.0
 30
0.0
 40
1.474999999999994
  0
CIRCLE
  5
122
330
50F
100
AcDbEntity
  8
DATA
  6
Continuous
 62
     7
100
AcDbCircle
 10
-136.0
 20
-171.0
 30
0.0
 40
1.474999999999994
  0
CIRCLE
  5
123
330
50F
100
AcDbEntity
  8
DATA
  6
Continuous
 62
     7
100
AcDbCircle
 10
-130.0
 20
-171.0
 30
0.0
 40
1.474999999999994
  0
CIRCLE
  5
124
330
50F
100
AcDbEntity
  8
DATA
  6
Continuous
 62
     7
100
AcDbCircle
 10
-124.0
 20
-171.0
 30
0.0
 40
1.474999999999994
  0
CIRCLE
  5
125
330
50F
100
AcDbEntity
  8
DATA
  6
Continuous
 62
     7
100
AcDbCircle
 10
-118.0
 20
-171.0
 30
0.0
 40
1.474999999999994
  0
CIRCLE
  5
126
330
50F
100
AcDbEntity
  8
DATA
  6
Continuous
 62
     7
100
AcDbCircle
 10
-112.0
 20
-171.0
 30
0.0
 40
1.474999999999994
  0
CIRCLE
  5
127
330
50F
100
AcDbEntity
  8
DATA
  6
Continuous
 62
     7
100
AcDbCircle
 10
-106.0
 20
-171.0
 30
0.0
 40
1.474999999999994
  0
CIRCLE
  5
128
330
50F
100
AcDbEntity
  8
DATA
  6
Continuous
 62
     7
100
AcDbCircle
 10
-100.0
 20
-171.0
 30
0.0
 40
1.474999999999994
  0
CIRCLE
  5
129
330
50F
100
AcDbEntity
  8
DATA
  6
Continuous
 62
     7
100
AcDbCircle
 10
-94.0
 20
-171.0
 30
0.0
 40
1.474999999999994
  0
CIRCLE
  5
12A
330
50F
100
AcDbEntity
  8
DATA
  6
Continuous
 62
     7
100
AcDbCircle
 10
-88.0
 20
-171.0
 30
0.0
 40
1.474999999999994
  0
CIRCLE
  5
12B
330
50F
100
AcDbEntity
  8
DATA
  6
Continuous
 62
     7
100
AcDbCircle
 10
-82.0
 20
-171.0
 30
0.0
 40
1.474999999999994
  0
CIRCLE
  5
12C
330
50F
100
AcDbEntity
  8
DATA
  6
Continuous
 62
     7
100
AcDbCircle
 10
-76.0
 20
-171.0
 30
0.0
 40
1.474999999999994
  0
CIRCLE
  5
12D
330
50F
100
AcDbEntity
  8
DATA
  6
Continuous
 62
     7
100
AcDbCircle
 10
-184.0
 20
-165.0
 30
0.0
 40
1.474999999999994
  0
CIRCLE
  5
12E
330
50F
100
AcDbEntity
  8
DATA
  6
Continuous
 62
     7
100
AcDbCircle
 10
-178.0
 20
-165.0
 30
0.0
 40
1.474999999999994
  0
CIRCLE
  5
12F
330
50F
100
AcDbEntity
  8
DATA
  6
Continuous
 62
     7
100
AcDbCircle
 10
-172.0
 20
-165.0
 30
0.0
 40
1.474999999999994
  0
CIRCLE
  5
130
330
50F
100
AcDbEntity
  8
DATA
  6
Continuous
 62
     7
100
AcDbCircle
 10
-166.0
 20
-165.0
 30
0.0
 40
1.474999999999994
  0
CIRCLE
  5
131
330
50F
100
AcDbEntity
  8
DATA
  6
Continuous
 62
     7
100
AcDbCircle
 10
-160.0
 20
-165.0
 30
0.0
 40
1.474999999999994
  0
CIRCLE
  5
132
330
50F
100
AcDbEntity
  8
DATA
  6
Continuous
 62
     7
100
AcDbCircle
 10
-154.0
 20
-165.0
 30
0.0
 40
1.474999999999994
  0
CIRCLE
  5
133
330
50F
100
AcDbEntity
  8
DATA
  6
Continuous
 62
     7
100
AcDbCircle
 10
-148.0
 20
-165.0
 30
0.0
 40
1.474999999999994
  0
CIRCLE
  5
134
330
50F
100
AcDbEntity
  8
DATA
  6
Continuous
 62
     7
100
AcDbCircle
 10
-142.0
 20
-165.0
 30
0.0
 40
1.474999999999994
  0
CIRCLE
  5
135
330
50F
100
AcDbEntity
  8
DATA
  6
Continuous
 62
     7
100
AcDbCircle
 10
-136.0
 20
-165.0
 30
0.0
 40
1.474999999999994
  0
CIRCLE
  5
136
330
50F
100
AcDbEntity
  8
DATA
  6
Continuous
 62
     7
100
AcDbCircle
 10
-130.0
 20
-165.0
 30
0.0
 40
1.474999999999994
  0
CIRCLE
  5
137
330
50F
100
AcDbEntity
  8
DATA
  6
Continuous
 62
     7
100
AcDbCircle
 10
-124.0
 20
-165.0
 30
0.0
 40
1.474999999999994
  0
CIRCLE
  5
138
330
50F
100
AcDbEntity
  8
DATA
  6
Continuous
 62
     7
100
AcDbCircle
 10
-118.0
 20
-165.0
 30
0.0
 40
1.474999999999994
  0
CIRCLE
  5
139
330
50F
100
AcDbEntity
  8
DATA
  6
Continuous
 62
     7
100
AcDbCircle
 10
-112.0
 20
-165.0
 30
0.0
 40
1.474999999999994
  0
CIRCLE
  5
13A
330
50F
100
AcDbEntity
  8
DATA
  6
Continuous
 62
     7
100
AcDbCircle
 10
-106.0
 20
-165.0
 30
0.0
 40
1.474999999999994
  0
CIRCLE
  5
13B
330
50F
100
AcDbEntity
  8
DATA
  6
Continuous
 62
     7
100
AcDbCircle
 10
-100.0
 20
-165.0
 30
0.0
 40
1.474999999999994
  0
CIRCLE
  5
13C
330
50F
100
AcDbEntity
  8
DATA
  6
Continuous
 62
     7
100
AcDbCircle
 10
-94.0
 20
-165.0
 30
0.0
 40
1.474999999999994
  0
CIRCLE
  5
13D
330
50F
100
AcDbEntity
  8
DATA
  6
Continuous
 62
     7
100
AcDbCircle
 10
-88.0
 20
-165.0
 30
0.0
 40
1.474999999999994
  0
CIRCLE
  5
13E
330
50F
100
AcDbEntity
  8
DATA
  6
Continuous
 62
     7
100
AcDbCircle
 10
-82.0
 20
-165.0
 30
0.0
 40
1.474999999999994
  0
CIRCLE
  5
13F
330
50F
100
AcDbEntity
  8
DATA
  6
Continuous
 62
     7
100
AcDbCircle
 10
-76.0
 20
-165.0
 30
0.0
 40
1.474999999999994
  0
CIRCLE
  5
140
330
50F
100
AcDbEntity
  8
DATA
  6
Continuous
 62
     7
100
AcDbCircle
 10
-184.0
 20
-159.0
 30
0.0
 40
1.474999999999994
  0
CIRCLE
  5
141
330
50F
100
AcDbEntity
  8
DATA
  6
Continuous
 62
     7
100
AcDbCircle
 10
-178.0
 20
-159.0
 30
0.0
 40
1.474999999999994
  0
CIRCLE
  5
142
330
50F
100
AcDbEntity
  8
DATA
  6
Continuous
 62
     7
100
AcDbCircle
 10
-172.0
 20
-159.0
 30
0.0
 40
1.474999999999994
  0
CIRCLE
  5
143
330
50F
100
AcDbEntity
  8
DATA
  6
Continuous
 62
     7
100
AcDbCircle
 10
-166.0
 20
-159.0
 30
0.0
 40
1.474999999999994
  0
CIRCLE
  5
144
330
50F
100
AcDbEntity
  8
DATA
  6
Continuous
 62
     7
100
AcDbCircle
 10
-160.0
 20
-159.0
 30
0.0
 40
1.474999999999994
  0
CIRCLE
  5
145
330
50F
100
AcDbEntity
  8
DATA
  6
Continuous
 62
     7
100
AcDbCircle
 10
-154.0
 20
-159.0
 30
0.0
 40
1.474999999999994
  0
CIRCLE
  5
146
330
50F
100
AcDbEntity
  8
DATA
  6
Continuous
 62
     7
100
AcDbCircle
 10
-148.0
 20
-159.0
 30
0.0
 40
1.474999999999994
  0
CIRCLE
  5
147
330
50F
100
AcDbEntity
  8
DATA
  6
Continuous
 62
     7
100
AcDbCircle
 10
-142.0
 20
-159.0
 30
0.0
 40
1.474999999999994
  0
CIRCLE
  5
148
330
50F
100
AcDbEntity
  8
DATA
  6
Continuous
 62
     7
100
AcDbCircle
 10
-136.0
 20
-159.0
 30
0.0
 40
1.474999999999994
  0
CIRCLE
  5
149
330
50F
100
AcDbEntity
  8
DATA
  6
Continuous
 62
     7
100
AcDbCircle
 10
-130.0
 20
-159.0
 30
0.0
 40
1.474999999999994
  0
CIRCLE
  5
14A
330
50F
100
AcDbEntity
  8
DATA
  6
Continuous
 62
     7
100
AcDbCircle
 10
-124.0
 20
-159.0
 30
0.0
 40
1.474999999999994
  0
CIRCLE
  5
14B
330
50F
100
AcDbEntity
  8
DATA
  6
Continuous
 62
     7
100
AcDbCircle
 10
-118.0
 20
-159.0
 30
0.0
 40
1.474999999999994
  0
CIRCLE
  5
14C
330
50F
100
AcDbEntity
  8
DATA
  6
Continuous
 62
     7
100
AcDbCircle
 10
-112.0
 20
-159.0
 30
0.0
 40
1.474999999999994
  0
CIRCLE
  5
14D
330
50F
100
AcDbEntity
  8
DATA
  6
Continuous
 62
     7
100
AcDbCircle
 10
-106.0
 20
-159.0
 30
0.0
 40
1.474999999999994
  0
CIRCLE
  5
14E
330
50F
100
AcDbEntity
  8
DATA
  6
Continuous
 62
     7
100
AcDbCircle
 10
-100.0
 20
-159.0
 30
0.0
 40
1.474999999999994
  0
CIRCLE
  5
14F
330
50F
100
AcDbEntity
  8
DATA
  6
Continuous
 62
     7
100
AcDbCircle
 10
-94.0
 20
-159.0
 30
0.0
 40
1.474999999999994
  0
CIRCLE
  5
150
330
50F
100
AcDbEntity
  8
DATA
  6
Continuous
 62
     7
100
AcDbCircle
 10
-88.0
 20
-159.0
 30
0.0
 40
1.474999999999994
  0
CIRCLE
  5
151
330
50F
100
AcDbEntity
  8
DATA
  6
Continuous
 62
     7
100
AcDbCircle
 10
-82.0
 20
-159.0
 30
0.0
 40
1.474999999999994
  0
CIRCLE
  5
152
330
50F
100
AcDbEntity
  8
DATA
  6
Continuous
 62
     7
100
AcDbCircle
 10
-76.0
 20
-159.0
 30
0.0
 40
1.474999999999994
  0
CIRCLE
  5
153
330
50F
100
AcDbEntity
  8
DATA
  6
Continuous
 62
     7
100
AcDbCircle
 10
-184.0
 20
-153.0
 30
0.0
 40
1.474999999999994
  0
CIRCLE
  5
154
330
50F
100
AcDbEntity
  8
DATA
  6
Continuous
 62
     7
100
AcDbCircle
 10
-178.0
 20
-153.0
 30
0.0
 40
1.474999999999994
  0
CIRCLE
  5
155
330
50F
100
AcDbEntity
  8
DATA
  6
Continuous
 62
     7
100
AcDbCircle
 10
-172.0
 20
-153.0
 30
0.0
 40
1.474999999999994
  0
CIRCLE
  5
156
330
50F
100
AcDbEntity
  8
DATA
  6
Continuous
 62
     7
100
AcDbCircle
 10
-166.0
 20
-153.0
 30
0.0
 40
1.474999999999994
  0
CIRCLE
  5
157
330
50F
100
AcDbEntity
  8
DATA
  6
Continuous
 62
     7
100
AcDbCircle
 10
-160.0
 20
-153.0
 30
0.0
 40
1.474999999999994
  0
CIRCLE
  5
158
330
50F
100
AcDbEntity
  8
DATA
  6
Continuous
 62
     7
100
AcDbCircle
 10
-154.0
 20
-153.0
 30
0.0
 40
1.474999999999994
  0
CIRCLE
  5
159
330
50F
100
AcDbEntity
  8
DATA
  6
Continuous
 62
     7
100
AcDbCircle
 10
-148.0
 20
-153.0
 30
0.0
 40
1.474999999999994
  0
CIRCLE
  5
15A
330
50F
100
AcDbEntity
  8
DATA
  6
Continuous
 62
     7
100
AcDbCircle
 10
-142.0
 20
-153.0
 30
0.0
 40
1.474999999999994
  0
CIRCLE
  5
15B
330
50F
100
AcDbEntity
  8
DATA
  6
Continuous
 62
     7
100
AcDbCircle
 10
-136.0
 20
-153.0
 30
0.0
 40
1.474999999999994
  0
CIRCLE
  5
15C
330
50F
100
AcDbEntity
  8
DATA
  6
Continuous
 62
     7
100
AcDbCircle
 10
-130.0
 20
-153.0
 30
0.0
 40
1.474999999999994
  0
CIRCLE
  5
15D
330
50F
100
AcDbEntity
  8
DATA
  6
Continuous
 62
     7
100
AcDbCircle
 10
-124.0
 20
-153.0
 30
0.0
 40
1.474999999999994
  0
CIRCLE
  5
15E
330
50F
100
AcDbEntity
  8
DATA
  6
Continuous
 62
     7
100
AcDbCircle
 10
-118.0
 20
-153.0
 30
0.0
 40
1.474999999999994
  0
CIRCLE
  5
15F
330
50F
100
AcDbEntity
  8
DATA
  6
Continuous
 62
     7
100
AcDbCircle
 10
-112.0
 20
-153.0
 30
0.0
 40
1.474999999999994
  0
CIRCLE
  5
160
330
50F
100
AcDbEntity
  8
DATA
  6
Continuous
 62
     7
100
AcDbCircle
 10
-106.0
 20
-153.0
 30
0.0
 40
1.474999999999994
  0
CIRCLE
  5
161
330
50F
100
AcDbEntity
  8
DATA
  6
Continuous
 62
     7
100
AcDbCircle
 10
-100.0
 20
-153.0
 30
0.0
 40
1.474999999999994
  0
CIRCLE
  5
162
330
50F
100
AcDbEntity
  8
DATA
  6
Continuous
 62
     7
100
AcDbCircle
 10
-94.0
 20
-153.0
 30
0.0
 40
1.474999999999994
  0
CIRCLE
  5
163
330
50F
100
AcDbEntity
  8
DATA
  6
Continuous
 62
     7
100
AcDbCircle
 10
-88.0
 20
-153.0
 30
0.0
 40
1.474999999999994
  0
CIRCLE
  5
164
330
50F
100
AcDbEntity
  8
DATA
  6
Continuous
 62
     7
100
AcDbCircle
 10
-82.0
 20
-153.0
 30
0.0
 40
1.474999999999994
  0
CIRCLE
  5
165
330
50F
100
AcDbEntity
  8
DATA
  6
Continuous
 62
     7
100
AcDbCircle
 10
-76.0
 20
-153.0
 30
0.0
 40
1.474999999999994
  0
CIRCLE
  5
166
330
50F
100
AcDbEntity
  8
DATA
  6
Continuous
 62
     7
100
AcDbCircle
 10
-184.0
 20
-147.0
 30
0.0
 40
1.474999999999994
  0
CIRCLE
  5
167
330
50F
100
AcDbEntity
  8
DATA
  6
Continuous
 62
     7
100
AcDbCircle
 10
-178.0
 20
-147.0
 30
0.0
 40
1.474999999999994
  0
CIRCLE
  5
168
330
50F
100
AcDbEntity
  8
DATA
  6
Continuous
 62
     7
100
AcDbCircle
 10
-172.0
 20
-147.0
 30
0.0
 40
1.474999999999994
  0
CIRCLE
  5
169
330
50F
100
AcDbEntity
  8
DATA
  6
Continuous
 62
     7
100
AcDbCircle
 10
-166.0
 20
-147.0
 30
0.0
 40
1.474999999999994
  0
CIRCLE
  5
16A
330
50F
100
AcDbEntity
  8
DATA
  6
Continuous
 62
     7
100
AcDbCircle
 10
-160.0
 20
-147.0
 30
0.0
 40
1.474999999999994
  0
CIRCLE
  5
16B
330
50F
100
AcDbEntity
  8
DATA
  6
Continuous
 62
     7
100
AcDbCircle
 10
-154.0
 20
-147.0
 30
0.0
 40
1.474999999999994
  0
CIRCLE
  5
16C
330
50F
100
AcDbEntity
  8
DATA
  6
Continuous
 62
     7
100
AcDbCircle
 10
-148.0
 20
-147.0
 30
0.0
 40
1.474999999999994
  0
CIRCLE
  5
16D
330
50F
100
AcDbEntity
  8
DATA
  6
Continuous
 62
     7
100
AcDbCircle
 10
-142.0
 20
-147.0
 30
0.0
 40
1.474999999999994
  0
CIRCLE
  5
16E
330
50F
100
AcDbEntity
  8
DATA
  6
Continuous
 62
     7
100
AcDbCircle
 10
-136.0
 20
-147.0
 30
0.0
 40
1.474999999999994
  0
CIRCLE
  5
16F
330
50F
100
AcDbEntity
  8
DATA
  6
Continuous
 62
     7
100
AcDbCircle
 10
-130.0
 20
-147.0
 30
0.0
 40
1.474999999999994
  0
CIRCLE
  5
170
330
50F
100
AcDbEntity
  8
DATA
  6
Continuous
 62
     7
100
AcDbCircle
 10
-124.0
 20
-147.0
 30
0.0
 40
1.474999999999994
  0
CIRCLE
  5
171
330
50F
100
AcDbEntity
  8
DATA
  6
Continuous
 62
     7
100
AcDbCircle
 10
-118.0
 20
-147.0
 30
0.0
 40
1.474999999999994
  0
CIRCLE
  5
172
330
50F
100
AcDbEntity
  8
DATA
  6
Continuous
 62
     7
100
AcDbCircle
 10
-112.0
 20
-147.0
 30
0.0
 40
1.474999999999994
  0
CIRCLE
  5
173
330
50F
100
AcDbEntity
  8
DATA
  6
Continuous
 62
     7
100
AcDbCircle
 10
-106.0
 20
-147.0
 30
0.0
 40
1.474999999999994
  0
CIRCLE
  5
174
330
50F
100
AcDbEntity
  8
DATA
  6
Continuous
 62
     7
100
AcDbCircle
 10
-100.0
 20
-147.0
 30
0.0
 40
1.474999999999994
  0
CIRCLE
  5
175
330
50F
100
AcDbEntity
  8
DATA
  6
Continuous
 62
     7
100
AcDbCircle
 10
-94.0
 20
-147.0
 30
0.0
 40
1.474999999999994
  0
CIRCLE
  5
176
330
50F
100
AcDbEntity
  8
DATA
  6
Continuous
 62
     7
100
AcDbCircle
 10
-88.0
 20
-147.0
 30
0.0
 40
1.474999999999994
  0
CIRCLE
  5
177
330
50F
100
AcDbEntity
  8
DATA
  6
Continuous
 62
     7
100
AcDbCircle
 10
-82.0
 20
-147.0
 30
0.0
 40
1.474999999999994
  0
CIRCLE
  5
178
330
50F
100
AcDbEntity
  8
DATA
  6
Continuous
 62
     7
100
AcDbCircle
 10
-76.0
 20
-147.0
 30
0.0
 40
1.474999999999994
  0
CIRCLE
  5
179
330
50F
100
AcDbEntity
  8
DATA
  6
Continuous
 62
     7
100
AcDbCircle
 10
-184.0
 20
-141.0
 30
0.0
 40
1.474999999999994
  0
CIRCLE
  5
17A
330
50F
100
AcDbEntity
  8
DATA
  6
Continuous
 62
     7
100
AcDbCircle
 10
-178.0
 20
-141.0
 30
0.0
 40
1.474999999999994
  0
CIRCLE
  5
17B
330
50F
100
AcDbEntity
  8
DATA
  6
Continuous
 62
     7
100
AcDbCircle
 10
-172.0
 20
-141.0
 30
0.0
 40
1.474999999999994
  0
CIRCLE
  5
17C
330
50F
100
AcDbEntity
  8
DATA
  6
Continuous
 62
     7
100
AcDbCircle
 10
-166.0
 20
-141.0
 30
0.0
 40
1.474999999999994
  0
CIRCLE
  5
17D
330
50F
100
AcDbEntity
  8
DATA
  6
Continuous
 62
     7
100
AcDbCircle
 10
-160.0
 20
-141.0
 30
0.0
 40
1.474999999999994
  0
CIRCLE
  5
17E
330
50F
100
AcDbEntity
  8
DATA
  6
Continuous
 62
     7
100
AcDbCircle
 10
-154.0
 20
-141.0
 30
0.0
 40
1.474999999999994
  0
CIRCLE
  5
17F
330
50F
100
AcDbEntity
  8
DATA
  6
Continuous
 62
     7
100
AcDbCircle
 10
-148.0
 20
-141.0
 30
0.0
 40
1.474999999999994
  0
CIRCLE
  5
180
330
50F
100
AcDbEntity
  8
DATA
  6
Continuous
 62
     7
100
AcDbCircle
 10
-142.0
 20
-141.0
 30
0.0
 40
1.474999999999994
  0
CIRCLE
  5
181
330
50F
100
AcDbEntity
  8
DATA
  6
Continuous
 62
     7
100
AcDbCircle
 10
-136.0
 20
-141.0
 30
0.0
 40
1.474999999999994
  0
CIRCLE
  5
182
330
50F
100
AcDbEntity
  8
DATA
  6
Continuous
 62
     7
100
AcDbCircle
 10
-130.0
 20
-141.0
 30
0.0
 40
1.474999999999994
  0
CIRCLE
  5
183
330
50F
100
AcDbEntity
  8
DATA
  6
Continuous
 62
     7
100
AcDbCircle
 10
-124.0
 20
-141.0
 30
0.0
 40
1.474999999999994
  0
CIRCLE
  5
184
330
50F
100
AcDbEntity
  8
DATA
  6
Continuous
 62
     7
100
AcDbCircle
 10
-118.0
 20
-141.0
 30
0.0
 40
1.474999999999994
  0
CIRCLE
  5
185
330
50F
100
AcDbEntity
  8
DATA
  6
Continuous
 62
     7
100
AcDbCircle
 10
-112.0
 20
-141.0
 30
0.0
 40
1.474999999999994
  0
CIRCLE
  5
186
330
50F
100
AcDbEntity
  8
DATA
  6
Continuous
 62
     7
100
AcDbCircle
 10
-106.0
 20
-141.0
 30
0.0
 40
1.474999999999994
  0
CIRCLE
  5
187
330
50F
100
AcDbEntity
  8
DATA
  6
Continuous
 62
     7
100
AcDbCircle
 10
-100.0
 20
-141.0
 30
0.0
 40
1.474999999999994
  0
CIRCLE
  5
188
330
50F
100
AcDbEntity
  8
DATA
  6
Continuous
 62
     7
100
AcDbCircle
 10
-94.0
 20
-141.0
 30
0.0
 40
1.474999999999994
  0
CIRCLE
  5
189
330
50F
100
AcDbEntity
  8
DATA
  6
Continuous
 62
     7
100
AcDbCircle
 10
-88.0
 20
-141.0
 30
0.0
 40
1.474999999999994
  0
CIRCLE
  5
18A
330
50F
100
AcDbEntity
  8
DATA
  6
Continuous
 62
     7
100
AcDbCircle
 10
-82.0
 20
-141.0
 30
0.0
 40
1.474999999999994
  0
CIRCLE
  5
18B
330
50F
100
AcDbEntity
  8
DATA
  6
Continuous
 62
     7
100
AcDbCircle
 10
-76.0
 20
-141.0
 30
0.0
 40
1.474999999999994
  0
CIRCLE
  5
18C
330
50F
100
AcDbEntity
  8
DATA
  6
Continuous
 62
     7
100
AcDbCircle
 10
-184.0
 20
-135.0
 30
0.0
 40
1.474999999999994
  0
CIRCLE
  5
18D
330
50F
100
AcDbEntity
  8
DATA
  6
Continuous
 62
     7
100
AcDbCircle
 10
-178.0
 20
-135.0
 30
0.0
 40
1.474999999999994
  0
CIRCLE
  5
18E
330
50F
100
AcDbEntity
  8
DATA
  6
Continuous
 62
     7
100
AcDbCircle
 10
-172.0
 20
-135.0
 30
0.0
 40
1.474999999999994
  0
CIRCLE
  5
18F
330
50F
100
AcDbEntity
  8
DATA
  6
Continuous
 62
     7
100
AcDbCircle
 10
-166.0
 20
-135.0
 30
0.0
 40
1.474999999999994
  0
CIRCLE
  5
190
330
50F
100
AcDbEntity
  8
DATA
  6
Continuous
 62
     7
100
AcDbCircle
 10
-160.0
 20
-135.0
 30
0.0
 40
1.474999999999994
  0
CIRCLE
  5
191
330
50F
100
AcDbEntity
  8
DATA
  6
Continuous
 62
     7
100
AcDbCircle
 10
-154.0
 20
-135.0
 30
0.0
 40
1.474999999999994
  0
CIRCLE
  5
192
330
50F
100
AcDbEntity
  8
DATA
  6
Continuous
 62
     7
100
AcDbCircle
 10
-148.0
 20
-135.0
 30
0.0
 40
1.474999999999994
  0
CIRCLE
  5
193
330
50F
100
AcDbEntity
  8
DATA
  6
Continuous
 62
     7
100
AcDbCircle
 10
-142.0
 20
-135.0
 30
0.0
 40
1.474999999999994
  0
CIRCLE
  5
194
330
50F
100
AcDbEntity
  8
DATA
  6
Continuous
 62
     7
100
AcDbCircle
 10
-136.0
 20
-135.0
 30
0.0
 40
1.474999999999994
  0
CIRCLE
  5
195
330
50F
100
AcDbEntity
  8
DATA
  6
Continuous
 62
     7
100
AcDbCircle
 10
-130.0
 20
-135.0
 30
0.0
 40
1.474999999999994
  0
CIRCLE
  5
196
330
50F
100
AcDbEntity
  8
DATA
  6
Continuous
 62
     7
100
AcDbCircle
 10
-124.0
 20
-135.0
 30
0.0
 40
1.474999999999994
  0
CIRCLE
  5
197
330
50F
100
AcDbEntity
  8
DATA
  6
Continuous
 62
     7
100
AcDbCircle
 10
-118.0
 20
-135.0
 30
0.0
 40
1.474999999999994
  0
CIRCLE
  5
198
330
50F
100
AcDbEntity
  8
DATA
  6
Continuous
 62
     7
100
AcDbCircle
 10
-112.0
 20
-135.0
 30
0.0
 40
1.474999999999994
  0
CIRCLE
  5
199
330
50F
100
AcDbEntity
  8
DATA
  6
Continuous
 62
     7
100
AcDbCircle
 10
-106.0
 20
-135.0
 30
0.0
 40
1.474999999999994
  0
CIRCLE
  5
19A
330
50F
100
AcDbEntity
  8
DATA
  6
Continuous
 62
     7
100
AcDbCircle
 10
-100.0
 20
-135.0
 30
0.0
 40
1.474999999999994
  0
CIRCLE
  5
19B
330
50F
100
AcDbEntity
  8
DATA
  6
Continuous
 62
     7
100
AcDbCircle
 10
-94.0
 20
-135.0
 30
0.0
 40
1.474999999999994
  0
CIRCLE
  5
19C
330
50F
100
AcDbEntity
  8
DATA
  6
Continuous
 62
     7
100
AcDbCircle
 10
-88.0
 20
-135.0
 30
0.0
 40
1.474999999999994
  0
CIRCLE
  5
19D
330
50F
100
AcDbEntity
  8
DATA
  6
Continuous
 62
     7
100
AcDbCircle
 10
-82.0
 20
-135.0
 30
0.0
 40
1.474999999999994
  0
CIRCLE
  5
19E
330
50F
100
AcDbEntity
  8
DATA
  6
Continuous
 62
     7
100
AcDbCircle
 10
-76.0
 20
-135.0
 30
0.0
 40
1.474999999999994
  0
CIRCLE
  5
19F
330
50F
100
AcDbEntity
  8
DATA
  6
Continuous
 62
     7
100
AcDbCircle
 10
-184.0
 20
-129.0
 30
0.0
 40
1.474999999999994
  0
CIRCLE
  5
1A0
330
50F
100
AcDbEntity
  8
DATA
  6
Continuous
 62
     7
100
AcDbCircle
 10
-178.0
 20
-129.0
 30
0.0
 40
1.474999999999994
  0
CIRCLE
  5
1A1
330
50F
100
AcDbEntity
  8
DATA
  6
Continuous
 62
     7
100
AcDbCircle
 10
-172.0
 20
-129.0
 30
0.0
 40
1.474999999999994
  0
CIRCLE
  5
1A2
330
50F
100
AcDbEntity
  8
DATA
  6
Continuous
 62
     7
100
AcDbCircle
 10
-166.0
 20
-129.0
 30
0.0
 40
1.474999999999994
  0
CIRCLE
  5
1A3
330
50F
100
AcDbEntity
  8
DATA
  6
Continuous
 62
     7
100
AcDbCircle
 10
-160.0
 20
-129.0
 30
0.0
 40
1.474999999999994
  0
CIRCLE
  5
1A4
330
50F
100
AcDbEntity
  8
DATA
  6
Continuous
 62
     7
100
AcDbCircle
 10
-154.0
 20
-129.0
 30
0.0
 40
1.474999999999994
  0
CIRCLE
  5
1A5
330
50F
100
AcDbEntity
  8
DATA
  6
Continuous
 62
     7
100
AcDbCircle
 10
-148.0
 20
-129.0
 30
0.0
 40
1.474999999999994
  0
CIRCLE
  5
1A6
330
50F
100
AcDbEntity
  8
DATA
  6
Continuous
 62
     7
100
AcDbCircle
 10
-142.0
 20
-129.0
 30
0.0
 40
1.474999999999994
  0
CIRCLE
  5
1A7
330
50F
100
AcDbEntity
  8
DATA
  6
Continuous
 62
     7
100
AcDbCircle
 10
-136.0
 20
-129.0
 30
0.0
 40
1.474999999999994
  0
CIRCLE
  5
1A8
330
50F
100
AcDbEntity
  8
DATA
  6
Continuous
 62
     7
100
AcDbCircle
 10
-130.0
 20
-129.0
 30
0.0
 40
1.474999999999994
  0
CIRCLE
  5
1A9
330
50F
100
AcDbEntity
  8
DATA
  6
Continuous
 62
     7
100
AcDbCircle
 10
-124.0
 20
-129.0
 30
0.0
 40
1.474999999999994
  0
CIRCLE
  5
1AA
330
50F
100
AcDbEntity
  8
DATA
  6
Continuous
 62
     7
100
AcDbCircle
 10
-118.0
 20
-129.0
 30
0.0
 40
1.474999999999994
  0
CIRCLE
  5
1AB
330
50F
100
AcDbEntity
  8
DATA
  6
Continuous
 62
     7
100
AcDbCircle
 10
-112.0
 20
-129.0
 30
0.0
 40
1.474999999999994
  0
CIRCLE
  5
1AC
330
50F
100
AcDbEntity
  8
DATA
  6
Continuous
 62
     7
100
AcDbCircle
 10
-106.0
 20
-129.0
 30
0.0
 40
1.474999999999994
  0
CIRCLE
  5
1AD
330
50F
100
AcDbEntity
  8
DATA
  6
Continuous
 62
     7
100
AcDbCircle
 10
-100.0
 20
-129.0
 30
0.0
 40
1.474999999999994
  0
CIRCLE
  5
1AE
330
50F
100
AcDbEntity
  8
DATA
  6
Continuous
 62
     7
100
AcDbCircle
 10
-94.0
 20
-129.0
 30
0.0
 40
1.474999999999994
  0
CIRCLE
  5
1AF
330
50F
100
AcDbEntity
  8
DATA
  6
Continuous
 62
     7
100
AcDbCircle
 10
-88.0
 20
-129.0
 30
0.0
 40
1.474999999999994
  0
CIRCLE
  5
1B0
330
50F
100
AcDbEntity
  8
DATA
  6
Continuous
 62
     7
100
AcDbCircle
 10
-82.0
 20
-129.0
 30
0.0
 40
1.474999999999994
  0
CIRCLE
  5
1B1
330
50F
100
AcDbEntity
  8
DATA
  6
Continuous
 62
     7
100
AcDbCircle
 10
-76.0
 20
-129.0
 30
0.0
 40
1.474999999999994
  0
CIRCLE
  5
1B2
330
50F
100
AcDbEntity
  8
DATA
  6
Continuous
 62
     7
100
AcDbCircle
 10
-184.0
 20
-123.0
 30
0.0
 40
1.474999999999994
  0
CIRCLE
  5
1B3
330
50F
100
AcDbEntity
  8
DATA
  6
Continuous
 62
     7
100
AcDbCircle
 10
-178.0
 20
-123.0
 30
0.0
 40
1.474999999999994
  0
CIRCLE
  5
1B4
330
50F
100
AcDbEntity
  8
DATA
  6
Continuous
 62
     7
100
AcDbCircle
 10
-172.0
 20
-123.0
 30
0.0
 40
1.474999999999994
  0
CIRCLE
  5
1B5
330
50F
100
AcDbEntity
  8
DATA
  6
Continuous
 62
     7
100
AcDbCircle
 10
-166.0
 20
-123.0
 30
0.0
 40
1.474999999999994
  0
CIRCLE
  5
1B6
330
50F
100
AcDbEntity
  8
DATA
  6
Continuous
 62
     7
100
AcDbCircle
 10
-160.0
 20
-123.0
 30
0.0
 40
1.474999999999994
  0
CIRCLE
  5
1B7
330
50F
100
AcDbEntity
  8
DATA
  6
Continuous
 62
     7
100
AcDbCircle
 10
-154.0
 20
-123.0
 30
0.0
 40
1.474999999999994
  0
CIRCLE
  5
1B8
330
50F
100
AcDbEntity
  8
DATA
  6
Continuous
 62
     7
100
AcDbCircle
 10
-148.0
 20
-123.0
 30
0.0
 40
1.474999999999994
  0
CIRCLE
  5
1B9
330
50F
100
AcDbEntity
  8
DATA
  6
Continuous
 62
     7
100
AcDbCircle
 10
-142.0
 20
-123.0
 30
0.0
 40
1.474999999999994
  0
CIRCLE
  5
1BA
330
50F
100
AcDbEntity
  8
DATA
  6
Continuous
 62
     7
100
AcDbCircle
 10
-136.0
 20
-123.0
 30
0.0
 40
1.474999999999994
  0
CIRCLE
  5
1BB
330
50F
100
AcDbEntity
  8
DATA
  6
Continuous
 62
     7
100
AcDbCircle
 10
-130.0
 20
-123.0
 30
0.0
 40
1.474999999999994
  0
CIRCLE
  5
1BC
330
50F
100
AcDbEntity
  8
DATA
  6
Continuous
 62
     7
100
AcDbCircle
 10
-124.0
 20
-123.0
 30
0.0
 40
1.474999999999994
  0
CIRCLE
  5
1BD
330
50F
100
AcDbEntity
  8
DATA
  6
Continuous
 62
     7
100
AcDbCircle
 10
-118.0
 20
-123.0
 30
0.0
 40
1.474999999999994
  0
CIRCLE
  5
1BE
330
50F
100
AcDbEntity
  8
DATA
  6
Continuous
 62
     7
100
AcDbCircle
 10
-112.0
 20
-123.0
 30
0.0
 40
1.474999999999994
  0
CIRCLE
  5
1BF
330
50F
100
AcDbEntity
  8
DATA
  6
Continuous
 62
     7
100
AcDbCircle
 10
-106.0
 20
-123.0
 30
0.0
 40
1.474999999999994
  0
CIRCLE
  5
1C0
330
50F
100
AcDbEntity
  8
DATA
  6
Continuous
 62
     7
100
AcDbCircle
 10
-100.0
 20
-123.0
 30
0.0
 40
1.474999999999994
  0
CIRCLE
  5
1C1
330
50F
100
AcDbEntity
  8
DATA
  6
Continuous
 62
     7
100
AcDbCircle
 10
-94.0
 20
-123.0
 30
0.0
 40
1.474999999999994
  0
CIRCLE
  5
1C2
330
50F
100
AcDbEntity
  8
DATA
  6
Continuous
 62
     7
100
AcDbCircle
 10
-88.0
 20
-123.0
 30
0.0
 40
1.474999999999994
  0
CIRCLE
  5
1C3
330
50F
100
AcDbEntity
  8
DATA
  6
Continuous
 62
     7
100
AcDbCircle
 10
-82.0
 20
-123.0
 30
0.0
 40
1.474999999999994
  0
CIRCLE
  5
1C4
330
50F
100
AcDbEntity
  8
DATA
  6
Continuous
 62
     7
100
AcDbCircle
 10
-76.0
 20
-123.0
 30
0.0
 40
1.474999999999994
  0
CIRCLE
  5
1C5
330
50F
100
AcDbEntity
  8
DATA
  6
Continuous
 62
     7
100
AcDbCircle
 10
-184.0
 20
-117.0
 30
0.0
 40
1.474999999999994
  0
CIRCLE
  5
1C6
330
50F
100
AcDbEntity
  8
DATA
  6
Continuous
 62
     7
100
AcDbCircle
 10
-178.0
 20
-117.0
 30
0.0
 40
1.474999999999994
  0
CIRCLE
  5
1C7
330
50F
100
AcDbEntity
  8
DATA
  6
Continuous
 62
     7
100
AcDbCircle
 10
-172.0
 20
-117.0
 30
0.0
 40
1.474999999999994
  0
CIRCLE
  5
1C8
330
50F
100
AcDbEntity
  8
DATA
  6
Continuous
 62
     7
100
AcDbCircle
 10
-166.0
 20
-117.0
 30
0.0
 40
1.474999999999994
  0
CIRCLE
  5
1C9
330
50F
100
AcDbEntity
  8
DATA
  6
Continuous
 62
     7
100
AcDbCircle
 10
-160.0
 20
-117.0
 30
0.0
 40
1.474999999999994
  0
CIRCLE
  5
1CA
330
50F
100
AcDbEntity
  8
DATA
  6
Continuous
 62
     7
100
AcDbCircle
 10
-154.0
 20
-117.0
 30
0.0
 40
1.474999999999994
  0
CIRCLE
  5
1CB
330
50F
100
AcDbEntity
  8
DATA
  6
Continuous
 62
     7
100
AcDbCircle
 10
-148.0
 20
-117.0
 30
0.0
 40
1.474999999999994
  0
CIRCLE
  5
1CC
330
50F
100
AcDbEntity
  8
DATA
  6
Continuous
 62
     7
100
AcDbCircle
 10
-142.0
 20
-117.0
 30
0.0
 40
1.474999999999994
  0
CIRCLE
  5
1CD
330
50F
100
AcDbEntity
  8
DATA
  6
Continuous
 62
     7
100
AcDbCircle
 10
-136.0
 20
-117.0
 30
0.0
 40
1.474999999999994
  0
CIRCLE
  5
1CE
330
50F
100
AcDbEntity
  8
DATA
  6
Continuous
 62
     7
100
AcDbCircle
 10
-130.0
 20
-117.0
 30
0.0
 40
1.474999999999994
  0
CIRCLE
  5
1CF
330
50F
100
AcDbEntity
  8
DATA
  6
Continuous
 62
     7
100
AcDbCircle
 10
-124.0
 20
-117.0
 30
0.0
 40
1.474999999999994
  0
CIRCLE
  5
1D0
330
50F
100
AcDbEntity
  8
DATA
  6
Continuous
 62
     7
100
AcDbCircle
 10
-118.0
 20
-117.0
 30
0.0
 40
1.474999999999994
  0
CIRCLE
  5
1D1
330
50F
100
AcDbEntity
  8
DATA
  6
Continuous
 62
     7
100
AcDbCircle
 10
-112.0
 20
-117.0
 30
0.0
 40
1.474999999999994
  0
CIRCLE
  5
1D2
330
50F
100
AcDbEntity
  8
DATA
  6
Continuous
 62
     7
100
AcDbCircle
 10
-106.0
 20
-117.0
 30
0.0
 40
1.474999999999994
  0
CIRCLE
  5
1D3
330
50F
100
AcDbEntity
  8
DATA
  6
Continuous
 62
     7
100
AcDbCircle
 10
-100.0
 20
-117.0
 30
0.0
 40
1.474999999999994
  0
CIRCLE
  5
1D4
330
50F
100
AcDbEntity
  8
DATA
  6
Continuous
 62
     7
100
AcDbCircle
 10
-94.0
 20
-117.0
 30
0.0
 40
1.474999999999994
  0
CIRCLE
  5
1D5
330
50F
100
AcDbEntity
  8
DATA
  6
Continuous
 62
     7
100
AcDbCircle
 10
-88.0
 20
-117.0
 30
0.0
 40
1.474999999999994
  0
CIRCLE
  5
1D6
330
50F
100
AcDbEntity
  8
DATA
  6
Continuous
 62
     7
100
AcDbCircle
 10
-82.0
 20
-117.0
 30
0.0
 40
1.474999999999994
  0
CIRCLE
  5
1D7
330
50F
100
AcDbEntity
  8
DATA
  6
Continuous
 62
     7
100
AcDbCircle
 10
-76.0
 20
-117.0
 30
0.0
 40
1.474999999999994
  0
CIRCLE
  5
1D8
330
50F
100
AcDbEntity
  8
DATA
  6
Continuous
 62
     7
100
AcDbCircle
 10
-184.0
 20
-111.0
 30
0.0
 40
1.474999999999994
  0
CIRCLE
  5
1D9
330
50F
100
AcDbEntity
  8
DATA
  6
Continuous
 62
     7
100
AcDbCircle
 10
-178.0
 20
-111.0
 30
0.0
 40
1.474999999999994
  0
CIRCLE
  5
1DA
330
50F
100
AcDbEntity
  8
DATA
  6
Continuous
 62
     7
100
AcDbCircle
 10
-172.0
 20
-111.0
 30
0.0
 40
1.474999999999994
  0
CIRCLE
  5
1DB
330
50F
100
AcDbEntity
  8
DATA
  6
Continuous
 62
     7
100
AcDbCircle
 10
-166.0
 20
-111.0
 30
0.0
 40
1.474999999999994
  0
CIRCLE
  5
1DC
330
50F
100
AcDbEntity
  8
DATA
  6
Continuous
 62
     7
100
AcDbCircle
 10
-160.0
 20
-111.0
 30
0.0
 40
1.474999999999994
  0
CIRCLE
  5
1DD
330
50F
100
AcDbEntity
  8
DATA
  6
Continuous
 62
     7
100
AcDbCircle
 10
-154.0
 20
-111.0
 30
0.0
 40
1.474999999999994
  0
CIRCLE
  5
1DE
330
50F
100
AcDbEntity
  8
DATA
  6
Continuous
 62
     7
100
AcDbCircle
 10
-148.0
 20
-111.0
 30
0.0
 40
1.474999999999994
  0
CIRCLE
  5
1DF
330
50F
100
AcDbEntity
  8
DATA
  6
Continuous
 62
     7
100
AcDbCircle
 10
-142.0
 20
-111.0
 30
0.0
 40
1.474999999999994
  0
CIRCLE
  5
1E0
330
50F
100
AcDbEntity
  8
DATA
  6
Continuous
 62
     7
100
AcDbCircle
 10
-136.0
 20
-111.0
 30
0.0
 40
1.474999999999994
  0
CIRCLE
  5
1E1
330
50F
100
AcDbEntity
  8
DATA
  6
Continuous
 62
     7
100
AcDbCircle
 10
-130.0
 20
-111.0
 30
0.0
 40
1.474999999999994
  0
CIRCLE
  5
1E2
330
50F
100
AcDbEntity
  8
DATA
  6
Continuous
 62
     7
100
AcDbCircle
 10
-124.0
 20
-111.0
 30
0.0
 40
1.474999999999994
  0
CIRCLE
  5
1E3
330
50F
100
AcDbEntity
  8
DATA
  6
Continuous
 62
     7
100
AcDbCircle
 10
-118.0
 20
-111.0
 30
0.0
 40
1.474999999999994
  0
CIRCLE
  5
1E4
330
50F
100
AcDbEntity
  8
DATA
  6
Continuous
 62
     7
100
AcDbCircle
 10
-112.0
 20
-111.0
 30
0.0
 40
1.474999999999994
  0
CIRCLE
  5
1E5
330
50F
100
AcDbEntity
  8
DATA
  6
Continuous
 62
     7
100
AcDbCircle
 10
-106.0
 20
-111.0
 30
0.0
 40
1.474999999999994
  0
CIRCLE
  5
1E6
330
50F
100
AcDbEntity
  8
DATA
  6
Continuous
 62
     7
100
AcDbCircle
 10
-100.0
 20
-111.0
 30
0.0
 40
1.474999999999994
  0
CIRCLE
  5
1E7
330
50F
100
AcDbEntity
  8
DATA
  6
Continuous
 62
     7
100
AcDbCircle
 10
-94.0
 20
-111.0
 30
0.0
 40
1.474999999999994
  0
CIRCLE
  5
1E8
330
50F
100
AcDbEntity
  8
DATA
  6
Continuous
 62
     7
100
AcDbCircle
 10
-88.0
 20
-111.0
 30
0.0
 40
1.474999999999994
  0
CIRCLE
  5
1E9
330
50F
100
AcDbEntity
  8
DATA
  6
Continuous
 62
     7
100
AcDbCircle
 10
-82.0
 20
-111.0
 30
0.0
 40
1.474999999999994
  0
CIRCLE
  5
1EA
330
50F
100
AcDbEntity
  8
DATA
  6
Continuous
 62
     7
100
AcDbCircle
 10
-76.0
 20
-111.0
 30
0.0
 40
1.474999999999994
  0
LINE
  5
1EB
330
50F
100
AcDbEntity
  8
DATA
  6
Continuous
 62
     7
100
AcDbLine
 10
-240.0
 20
-44.0
 30
0.0
 11
-30.0
 21
-44.0
 31
0.0
  0
LINE
  5
1EC
330
50F
100
AcDbEntity
  8
DATA
  6
Continuous
 62
     7
100
AcDbLine
 10
-30.0
 20
24.0
 30
0.0
 11
-30.0
 21
-20.0
 31
0.0
  0
LINE
  5
1ED
330
50F
100
AcDbEntity
  8
DATA
  6
Continuous
 62
     7
100
AcDbLine
 10
-240.0
 20
24.0
 30
0.0
 11
-30.0
 21
24.0
 31
0.0
  0
LINE
  5
1EE
330
50F
100
AcDbEntity
  8
DATA
  6
Continuous
 62
     7
100
AcDbLine
 10
-240.0
 20
-20.0
 30
0.0
 11
-240.0
 21
24.0
 31
0.0
  0
LINE
  5
1EF
330
50F
100
AcDbEntity
  8
DATA
  6
Continuous
 62
     7
100
AcDbLine
 10
-30.0
 20
-20.0
 30
0.0
 11
-240.0
 21
-20.0
 31
0.0
  0
LINE
  5
1F0
330
50F
100
AcDbEntity
  8
DATA
  6
Continuous
 62
     7
100
AcDbLine
 10
-48.0
 20
5.5
 30
0.0
 11
-48.0
 21
-11.0
 31
0.0
  0
LINE
  5
1F1
330
50F
100
AcDbEntity
  8
DATA
  6
Continuous
 62
     7
100
AcDbLine
 10
-78.5
 20
5.5
 30
0.0
 11
-78.5
 21
-11.0
 31
0.0
  0
LINE
  5
1F2
330
50F
100
AcDbEntity
  8
DATA
  6
Continuous
 62
     7
100
AcDbLine
 10
-51.0
 20
-14.0
 30
0.0
 11
-75.5
 21
-14.0
 31
0.0
  0
LINE
  5
1F3
330
50F
100
AcDbEntity
  8
DATA
  6
Continuous
 62
     7
100
AcDbLine
 10
-51.0
 20
8.5
 30
0.0
 11
-75.5
 21
8.5
 31
0.0
  0
LINE
  5
1F4
330
50F
100
AcDbEntity
  8
DATA
  6
Continuous
 62
     7
100
AcDbLine
 10
-54.0
 20
5.5
 30
0.0
 11
-72.5
 21
5.5
 31
0.0
  0
LINE
  5
1F5
330
50F
100
AcDbEntity
  8
DATA
  6
Continuous
 62
     7
100
AcDbLine
 10
-51.0
 20
2.5
 30
0.0
 11
-51.0
 21
-6.75
 31
0.0
  0
LINE
  5
1F6
330
50F
100
AcDbEntity
  8
DATA
  6
Continuous
 62
     7
100
AcDbLine
 10
-75.5
 20
2.5
 30
0.0
 11
-75.5
 21
-6.75
 31
0.0
  0
LINE
  5
1F7
330
50F
100
AcDbEntity
  8
DATA
  6
Continuous
 62
     7
100
AcDbLine
 10
-55.24999999999997
 20
-11.0
 30
0.0
 11
-71.25
 21
-11.0
 31
0.0
  0
ARC
  5
1F8
330
50F
100
AcDbEntity
  8
DATA
  6
Continuous
 62
     7
100
AcDbCircle
 10
-54.0
 20
2.5
 30
0.0
 40
3.0
100
AcDbArc
 50
0.0
 51
90.0
  0
ARC
  5
1F9
330
50F
100
AcDbEntity
  8
DATA
  6
Continuous
 62
     7
100
AcDbCircle
 10
-51.0
 20
5.5
 30
0.0
 40
3.0
100
AcDbArc
 50
0.0
 51
90.0
  0
ARC
  5
1FA
330
50F
100
AcDbEntity
  8
DATA
  6
Continuous
 62
     7
100
AcDbCircle
 10
-72.5
 20
2.5
 30
0.0
 40
3.0
100
AcDbArc
 50
90.0
 51
180.0
  0
ARC
  5
1FB
330
50F
100
AcDbEntity
  8
DATA
  6
Continuous
 62
     7
100
AcDbCircle
 10
-75.5
 20
5.5
 30
0.0
 40
3.0
100
AcDbArc
 50
90.0
 51
180.0
  0
LINE
  5
1FC
330
50F
100
AcDbEntity
  8
DATA
  6
Continuous
 62
     7
100
AcDbLine
 10
-51.0
 20
-6.75
 30
0.0
 11
-55.25
 21
-11.0
 31
0.0
  0
LINE
  5
1FD
330
50F
100
AcDbEntity
  8
DATA
  6
Continuous
 62
     7
100
AcDbLine
 10
-75.5
 20
-6.75
 30
0.0
 11
-71.25
 21
-11.0
 31
0.0
  0
ARC
  5
1FE
330
50F
100
AcDbEntity
  8
DATA
  6
Continuous
 62
     7
100
AcDbCircle
 10
-51.0
 20
-11.0
 30
0.0
 40
3.0
100
AcDbArc
 50
270.0
 51
0.0
  0
ARC
  5
1FF
330
50F
100
AcDbEntity
  8
DATA
  6
Continuous
 62
     7
100
AcDbCircle
 10
-75.5
 20
-11.0
 30
0.0
 40
3.0
100
AcDbArc
 50
180.0
 51
270.0
  0
CIRCLE
  5
200
330
50F
100
AcDbEntity
  8
DATA
  6
Continuous
 62
     7
100
AcDbCircle
 10
-43.25
 20
-2.750000000000014
 30
0.0
 40
4.0
  0
LWPOLYLINE
  5
201
330
50F
100
AcDbEntity
  8
DATA
  6
Continuous
 62
     7
100
AcDbPolyline
 90
        8
 70
     1
 43
0.0
 10
-43.25
 20
-0.917458493413264
 10
-44.5458025261133
 20
-1.454197473886708
 10
-45.08254150658674
 20
-2.750000000000014
 10
-44.5458025261133
 20
-4.04580252611332
 10
-43.25
 20
-4.582541506586764
 10
-41.95419747388668
 20
-4.04580252611332
 10
-41.41745849341325
 20
-2.750000000000014
 10
-41.95419747388668
 20
-1.454197473886708
  0
CIRCLE
  5
20C
330
50F
100
AcDbEntity
  8
DATA
  6
Continuous
 62
     7
100
AcDbCircle
 10
-83.25000000000001
 20
-2.750000000000014
 30
0.0
 40
4.0
  0
LWPOLYLINE
  5
20D
330
50F
100
AcDbEntity
  8
DATA
  6
Continuous
 62
     7
100
AcDbPolyline
 90
        8
 70
     1
 43
0.0
 10
-83.25000000000001
 20
-0.917458493413264
 10
-84.5458025261133
 20
-1.454197473886708
 10
-85.08254150658675
 20
-2.750000000000014
 10
-84.5458025261133
 20
-4.04580252611332
 10
-83.25000000000001
 20
-4.582541506586764
 10
-81.95419747388669
 20
-4.04580252611332
 10
-81.41745849341324
 20
-2.750000000000014
 10
-81.95419747388669
 20
-1.454197473886708
  0
TEXT
  5
218
330
50F
100
AcDbEntity
  8
DATA
 62
     7
100
AcDbText
 10
-49.15276426352006
 20
-15.59566074414136
 30
0.0
 40
1.93921875
  1
100-240V～　50/60Hz 50W
 50
180.0
 41
0.7
 11
-49.15276426352006
 21
-16.56527011914136
 31
0.0
100
AcDbText
 73
     2
  0
LWPOLYLINE
  5
219
330
50F
100
AcDbEntity
  8
DATA
  6
Continuous
 62
     7
100
AcDbPolyline
 90
        4
 70
     1
 43
0.0
 10
-64.25
 20
-4.616002653287807
 10
-62.25
 20
-4.616002653287807
 10
-62.25
 20
-8.916002653287806
 10
-64.25
 20
-8.916002653287806
  0
LWPOLYLINE
  5
220
330
50F
100
AcDbEntity
  8
DATA
  6
Continuous
 62
     7
100
AcDbPolyline
 90
        4
 70
     1
 43
0.0
 10
-57.25
 20
0.471330243315805
 10
-55.25
 20
0.471330243315805
 10
-55.25
 20
-3.828669756684191
 10
-57.25
 20
-3.828669756684191
  0
LWPOLYLINE
  5
227
330
50F
100
AcDbEntity
  8
DATA
  6
Continuous
 62
     7
100
AcDbPolyline
 90
        4
 70
     1
 43
0.0
 10
-71.25
 20
0.471330243315805
 10
-69.25
 20
0.471330243315805
 10
-69.25
 20
-3.828669756684191
 10
-71.25
 20
-3.828669756684191
  0
LINE
  5
22E
330
50F
100
AcDbEntity
  8
DATA
  6
Continuous
 62
     7
100
AcDbLine
 10
-234.5
 20
-17.0
 30
0.0
 11
-234.5
 21
18.0
 31
0.0
  0
LINE
  5
22F
330
50F
100
AcDbEntity
  8
DATA
  6
Continuous
 62
     7
100
AcDbLine
 10
-163.5
 20
-17.0
 30
0.0
 11
-163.5
 21
18.0
 31
0.0
  0
LINE
  5
230
330
50F
100
AcDbEntity
  8
DATA
  6
Continuous
 62
     7
100
AcDbLine
 10
-141.5
 20
-17.0
 30
0.0
 11
-141.5
 21
18.0
 31
0.0
  0
LINE
  5
231
330
50F
100
AcDbEntity
  8
DATA
  6
Continuous
 62
     7
100
AcDbLine
 10
-82.41091212290895
 20
-17.0
 30
0.0
 11
-82.41091212290895
 21
-6.661001346780508
 31
0.0
  0
LINE
  5
232
330
50F
100
AcDbEntity
  8
DATA
  6
Continuous
 62
     7
100
AcDbLine
 10
-82.41091212290895
 20
1.16100134678048
 30
0.0
 11
-82.41091212290895
 21
18.0
 31
0.0
  0
LINE
  5
233
330
50F
100
AcDbEntity
  8
DATA
  6
Continuous
 62
     7
100
AcDbLine
 10
-45.55041460132225
 20
-17.0
 30
0.0
 11
-45.55041460132225
 21
-6.022322212439291
 31
0.0
  0
LINE
  5
234
330
50F
100
AcDbEntity
  8
DATA
  6
Continuous
 62
     7
100
AcDbLine
 10
-45.55041460132225
 20
0.5223222124392493
 30
0.0
 11
-45.55041460132225
 21
18.0
 31
0.0
  0
CIRCLE
  5
235
330
50F
100
AcDbEntity
  8
DATA
  6
Continuous
 62
     7
100
AcDbCircle
 10
-205.0
 20
-8.0
 30
0.0
 40
4.150000000000005
  0
CIRCLE
  5
236
330
50F
100
AcDbEntity
  8
DATA
  6
Continuous
 62
     7
100
AcDbCircle
 10
-205.0
 20
-8.0
 30
0.0
 40
1.650000000000005
  0
CIRCLE
  5
237
330
50F
100
AcDbEntity
  8
DATA
  6
Continuous
 62
     7
100
AcDbCircle
 10
-205.0
 20
-8.0
 30
0.0
 40
5.650000000000005
  0
CIRCLE
  5
238
330
50F
100
AcDbEntity
  8
DATA
  6
Continuous
 62
     7
100
AcDbCircle
 10
-191.0
 20
-8.0
 30
0.0
 40
4.150000000000005
  0
CIRCLE
  5
239
330
50F
100
AcDbEntity
  8
DATA
  6
Continuous
 62
     7
100
AcDbCircle
 10
-191.0
 20
-8.0
 30
0.0
 40
1.650000000000005
  0
CIRCLE
  5
23A
330
50F
100
AcDbEntity
  8
DATA
  6
Continuous
 62
     7
100
AcDbCircle
 10
-191.0
 20
-8.0
 30
0.0
 40
5.650000000000005
  0
CIRCLE
  5
23B
330
50F
100
AcDbEntity
  8
DATA
  6
Continuous
 62
     7
100
AcDbCircle
 10
-205.0
 20
6.0
 30
0.0
 40
4.150000000000005
  0
CIRCLE
  5
23C
330
50F
100
AcDbEntity
  8
DATA
  6
Continuous
 62
     7
100
AcDbCircle
 10
-205.0
 20
6.0
 30
0.0
 40
1.650000000000005
  0
CIRCLE
  5
23D
330
50F
100
AcDbEntity
  8
DATA
  6
Continuous
 62
     7
100
AcDbCircle
 10
-205.0
 20
6.0
 30
0.0
 40
5.650000000000005
  0
CIRCLE
  5
23E
330
50F
100
AcDbEntity
  8
DATA
  6
Continuous
 62
     7
100
AcDbCircle
 10
-191.0
 20
6.0
 30
0.0
 40
4.150000000000005
  0
CIRCLE
  5
23F
330
50F
100
AcDbEntity
  8
DATA
  6
Continuous
 62
     7
100
AcDbCircle
 10
-191.0
 20
6.0
 30
0.0
 40
1.650000000000005
  0
CIRCLE
  5
240
330
50F
100
AcDbEntity
  8
DATA
  6
Continuous
 62
     7
100
AcDbCircle
 10
-191.0
 20
6.0
 30
0.0
 40
5.650000000000005
  0
TEXT
  5
241
330
50F
100
AcDbEntity
  8
DATA
 62
     7
100
AcDbText
 10
-193.486500730992
 20
-15.87646875000003
 30
0.0
 40
2.3270625
  1
INPUTS
 50
180.0
 41
0.7
 11
-193.486500730992
 21
-17.04000000000003
 31
0.0
100
AcDbText
 73
     2
  0
CIRCLE
  5
242
330
50F
100
AcDbEntity
  8
DATA
  6
Continuous
 62
     7
100
AcDbCircle
 10
-198.0
 20
-1.0
 30
0.0
 40
2.650000000000005
  0
LWPOLYLINE
  5
243
330
50F
100
AcDbEntity
  8
DATA
  6
Continuous
 62
     7
100
AcDbPolyline
 90
        8
 70
     1
 43
0.0
 10
-198.0
 20
-2.095110325040196
 10
-197.2256400630167
 20
-1.77435993698333
 10
-196.9048896749598
 20
-1.0
 10
-197.2256400630167
 20
-0.2256400630166695
 10
-198.0
 20
0.0951103250401957
 10
-198.7743599369833
 20
-0.2256400630166695
 10
-199.0951103250401
 20
-1.0
 10
-198.7743599369833
 20
-1.77435993698333
  0
LINE
  5
24E
330
50F
100
AcDbEntity
  8
DATA
  6
Continuous
 62
     7
100
AcDbLine
 10
-232.0
 20
14.0
 30
0.0
 11
-214.0
 21
14.0
 31
0.0
  0
LINE
  5
24F
330
50F
100
AcDbEntity
  8
DATA
  6
Continuous
 62
     7
100
AcDbLine
 10
-232.0
 20
4.5
 30
0.0
 11
-214.0
 21
4.5
 31
0.0
  0
LINE
  5
250
330
50F
100
AcDbEntity
  8
DATA
  6
Continuous
 62
     7
100
AcDbLine
 10
-232.0
 20
14.0
 30
0.0
 11
-232.0
 21
4.5
 31
0.0
  0
LINE
  5
251
330
50F
100
AcDbEntity
  8
DATA
  6
Continuous
 62
     7
100
AcDbLine
 10
-214.0
 20
14.0
 30
0.0
 11
-214.0
 21
4.5
 31
0.0
  0
LWPOLYLINE
  5
252
330
50F
100
AcDbEntity
  8
DATA
  6
Continuous
 62
     7
100
AcDbPolyline
 90
        4
 70
     1
 43
0.0
 10
-223.5
 20
9.75
 10
-222.5
 20
9.75
 10
-222.5
 20
8.75
 10
-223.5
 20
8.75
  0
LWPOLYLINE
  5
259
330
50F
100
AcDbEntity
  8
DATA
  6
Continuous
 62
     7
100
AcDbPolyline
 90
        4
 70
     1
 43
0.0
 10
-218.5
 20
9.75
 10
-217.5
 20
9.75
 10
-217.5
 20
8.75
 10
-218.5
 20
8.75
  0
LWPOLYLINE
  5
260
330
50F
100
AcDbEntity
  8
DATA
  6
Continuous
 62
     7
100
AcDbPolyline
 90
        4
 70
     1
 43
0.0
 10
-228.5
 20
9.75
 10
-227.5
 20
9.75
 10
-227.5
 20
8.75
 10
-228.5
 20
8.75
  0
LINE
  5
267
330
50F
100
AcDbEntity
  8
DATA
  6
Continuous
 62
     7
100
AcDbLine
 10
-214.5
 20
13.0
 30
0.0
 11
-214.5
 21
5.5
 31
0.0
  0
LINE
  5
268
330
50F
100
AcDbEntity
  8
DATA
  6
Continuous
 62
     7
100
AcDbLine
 10
-231.5
 20
13.0
 30
0.0
 11
-231.5
 21
5.5
 31
0.0
  0
LINE
  5
269
330
50F
100
AcDbEntity
  8
DATA
  6
Continuous
 62
     7
100
AcDbLine
 10
-214.5
 20
5.5
 30
0.0
 11
-231.5
 21
5.5
 31
0.0
  0
LINE
  5
26A
330
50F
100
AcDbEntity
  8
DATA
  6
Continuous
 62
     7
100
AcDbLine
 10
-231.5
 20
13.0
 30
0.0
 11
-230.5
 21
13.0
 31
0.0
  0
LINE
  5
26B
330
50F
100
AcDbEntity
  8
DATA
  6
Continuous
 62
     7
100
AcDbLine
 10
-215.5
 20
13.0
 30
0.0
 11
-214.5
 21
13.0
 31
0.0
  0
ARC
  5
26C
330
50F
100
AcDbEntity
  8
DATA
  6
Continuous
 62
     7
100
AcDbCircle
 10
-223.0
 20
6.999999999999829
 30
0.0
 40
6.500000000000157
100
AcDbArc
 50
67.38013505196014
 51
112.6198649480398
  0
ARC
  5
26D
330
50F
100
AcDbEntity
  8
DATA
  6
Continuous
 62
     7
100
AcDbCircle
 10
-218.0
 20
6.999999999999829
 30
0.0
 40
6.500000000000157
100
AcDbArc
 50
67.38013505196014
 51
112.6198649480398
  0
ARC
  5
26E
330
50F
100
AcDbEntity
  8
DATA
  6
Continuous
 62
     7
100
AcDbCircle
 10
-228.0
 20
6.999999999999829
 30
0.0
 40
6.500000000000157
100
AcDbArc
 50
67.38013505196014
 51
112.6198649480398
  0
LINE
  5
26F
330
50F
100
AcDbEntity
  8
DATA
  6
Continuous
 62
     7
100
AcDbLine
 10
-221.0
 20
4.406087542740237
 30
0.0
 11
-221.0
 21
1.406087542740237
 31
0.0
  0
LINE
  5
270
330
50F
100
AcDbEntity
  8
DATA
  6
Continuous
 62
     7
100
AcDbLine
 10
-225.0
 20
4.406087542740237
 30
0.0
 11
-221.0
 21
4.406087542740237
 31
0.0
  0
LINE
  5
271
330
50F
100
AcDbEntity
  8
DATA
  6
Continuous
 62
     7
100
AcDbLine
 10
-225.0
 20
1.406087542740237
 30
0.0
 11
-225.0
 21
4.406087542740237
 31
0.0
  0
LINE
  5
272
330
50F
100
AcDbEntity
  8
DATA
  6
Continuous
 62
     7
100
AcDbLine
 10
-221.0
 20
4.406087542740237
 30
0.0
 11
-221.0
 21
1.406087542740237
 31
0.0
  0
LINE
  5
273
330
50F
100
AcDbEntity
  8
DATA
  6
Continuous
 62
     7
100
AcDbLine
 10
-218.0
 20
4.5
 30
0.0
 11
-218.0
 21
1.406087542740237
 31
0.0
  0
LINE
  5
274
330
50F
100
AcDbEntity
  8
DATA
  6
Continuous
 62
     7
100
AcDbLine
 10
-225.0
 20
4.406087542740237
 30
0.0
 11
-225.0
 21
1.406087542740237
 31
0.0
  0
LINE
  5
275
330
50F
100
AcDbEntity
  8
DATA
  6
Continuous
 62
     7
100
AcDbLine
 10
-228.0
 20
4.500000000000014
 30
0.0
 11
-228.0
 21
1.406087542740237
 31
0.0
  0
LINE
  5
276
330
50F
100
AcDbEntity
  8
DATA
  6
Continuous
 62
     7
100
AcDbLine
 10
-221.0
 20
1.406087542740237
 30
0.0
 11
-218.0
 21
1.406087542740237
 31
0.0
  0
LINE
  5
277
330
50F
100
AcDbEntity
  8
DATA
  6
Continuous
 62
     7
100
AcDbLine
 10
-225.0
 20
1.406087542740237
 30
0.0
 11
-228.0
 21
1.406087542740237
 31
0.0
  0
TEXT
  5
278
330
50F
100
AcDbEntity
  8
DATA
 62
     7
100
AcDbText
 10
-220.4439969577638
 20
-7.713267170648661
 30
0.0
 40
1.86165
  1
CH 2
 50
180.0
 41
0.7
 11
-220.4439969577638
 21
-8.644092170648661
 31
0.0
100
AcDbText
 73
     2
  0
LINE
  5
279
330
50F
100
AcDbEntity
  8
DATA
  6
Continuous
 62
     7
100
AcDbLine
 10
-227.0
 20
17.74294525736882
 30
0.0
 11
-229.0
 21
17.74294525736882
 31
0.0
  0
LINE
  5
27A
330
50F
100
AcDbEntity
  8
DATA
  6
Continuous
 62
     7
100
AcDbLine
 10
-222.0
 20
17.74294525736882
 30
0.0
 11
-224.0
 21
17.74294525736882
 31
0.0
  0
LINE
  5
27B
330
50F
100
AcDbEntity
  8
DATA
  6
Continuous
 62
     7
100
AcDbLine
 10
-217.0
 20
17.74294525736882
 30
0.0
 11
-219.0
 21
17.74294525736882
 31
0.0
  0
LINE
  5
27C
330
50F
100
AcDbEntity
  8
DATA
  6
Continuous
 62
     7
100
AcDbLine
 10
-223.0
 20
18.74294525736882
 30
0.0
 11
-223.0
 21
16.74294525736882
 31
0.0
  0
LINE
  5
27D
330
50F
100
AcDbEntity
  8
DATA
  6
Continuous
 62
     7
100
AcDbLine
 10
-218.0
 20
17.74294525736882
 30
0.0
 11
-217.435560741932
 21
18.72058273012912
 31
0.0
  0
LINE
  5
27E
330
50F
100
AcDbEntity
  8
DATA
  6
Continuous
 62
     7
100
AcDbLine
 10
-217.0
 20
17.74294525736882
 30
0.0
 11
-216.4346549639701
 21
18.72215158357946
 31
0.0
  0
LINE
  5
27F
330
50F
100
AcDbEntity
  8
DATA
  6
Continuous
 62
     7
100
AcDbLine
 10
-219.0
 20
17.74294525736882
 30
0.0
 11
-218.4346549639701
 21
18.72215158357946
 31
0.0
  0
LINE
  5
280
330
50F
100
AcDbEntity
  8
DATA
  6
Continuous
 62
     7
100
AcDbLine
 10
-218.0
 20
17.74294525736882
 30
0.0
 11
-218.0
 21
16.54329042745843
 31
0.0
  0
LINE
  5
281
330
50F
100
AcDbEntity
  8
DATA
  6
Continuous
 62
     7
100
AcDbLine
 10
-182.1705798717059
 20
14.0
 30
0.0
 11
-164.1705798717059
 21
14.0
 31
0.0
  0
LINE
  5
282
330
50F
100
AcDbEntity
  8
DATA
  6
Continuous
 62
     7
100
AcDbLine
 10
-182.1705798717059
 20
4.5
 30
0.0
 11
-164.1705798717059
 21
4.5
 31
0.0
  0
LINE
  5
283
330
50F
100
AcDbEntity
  8
DATA
  6
Continuous
 62
     7
100
AcDbLine
 10
-182.1705798717059
 20
14.0
 30
0.0
 11
-182.1705798717059
 21
4.5
 31
0.0
  0
LINE
  5
284
330
50F
100
AcDbEntity
  8
DATA
  6
Continuous
 62
     7
100
AcDbLine
 10
-164.1705798717059
 20
14.0
 30
0.0
 11
-164.1705798717059
 21
4.5
 31
0.0
  0
LWPOLYLINE
  5
285
330
50F
100
AcDbEntity
  8
DATA
  6
Continuous
 62
     7
100
AcDbPolyline
 90
        4
 70
     1
 43
0.0
 10
-173.6705798717059
 20
9.75
 10
-172.6705798717059
 20
9.75
 10
-172.6705798717059
 20
8.75
 10
-173.6705798717059
 20
8.75
  0
LWPOLYLINE
  5
28C
330
50F
100
AcDbEntity
  8
DATA
  6
Continuous
 62
     7
100
AcDbPolyline
 90
        4
 70
     1
 43
0.0
 10
-168.6705798717059
 20
9.75
 10
-167.6705798717059
 20
9.75
 10
-167.6705798717059
 20
8.75
 10
-168.6705798717059
 20
8.75
  0
LWPOLYLINE
  5
293
330
50F
100
AcDbEntity
  8
DATA
  6
Continuous
 62
     7
100
AcDbPolyline
 90
        4
 70
     1
 43
0.0
 10
-178.6705798717059
 20
9.75
 10
-177.6705798717059
 20
9.75
 10
-177.6705798717059
 20
8.75
 10
-178.6705798717059
 20
8.75
  0
LINE
  5
29A
330
50F
100
AcDbEntity
  8
DATA
  6
Continuous
 62
     7
100
AcDbLine
 10
-164.6705798717059
 20
13.0
 30
0.0
 11
-164.6705798717059
 21
5.5
 31
0.0
  0
LINE
  5
29B
330
50F
100
AcDbEntity
  8
DATA
  6
Continuous
 62
     7
100
AcDbLine
 10
-181.6705798717059
 20
13.0
 30
0.0
 11
-181.6705798717059
 21
5.5
 31
0.0
  0
LINE
  5
29C
330
50F
100
AcDbEntity
  8
DATA
  6
Continuous
 62
     7
100
AcDbLine
 10
-164.6705798717059
 20
5.5
 30
0.0
 11
-181.6705798717059
 21
5.5
 31
0.0
  0
LINE
  5
29D
330
50F
100
AcDbEntity
  8
DATA
  6
Continuous
 62
     7
100
AcDbLine
 10
-181.6705798717059
 20
13.0
 30
0.0
 11
-180.6705798717059
 21
13.0
 31
0.0
  0
LINE
  5
29E
330
50F
100
AcDbEntity
  8
DATA
  6
Continuous
 62
     7
100
AcDbLine
 10
-165.6705798717059
 20
13.0
 30
0.0
 11
-164.6705798717059
 21
13.0
 31
0.0
  0
ARC
  5
29F
330
50F
100
AcDbEntity
  8
DATA
  6
Continuous
 62
     7
100
AcDbCircle
 10
-173.1705798717058
 20
6.999999999999829
 30
0.0
 40
6.500000000000157
100
AcDbArc
 50
67.38013505196014
 51
112.6198649480398
  0
ARC
  5
2A0
330
50F
100
AcDbEntity
  8
DATA
  6
Continuous
 62
     7
100
AcDbCircle
 10
-168.1705798717059
 20
6.999999999999829
 30
0.0
 40
6.500000000000157
100
AcDbArc
 50
67.38013505196014
 51
112.6198649480398
  0
ARC
  5
2A1
330
50F
100
AcDbEntity
  8
DATA
  6
Continuous
 62
     7
100
AcDbCircle
 10
-178.1705798717059
 20
6.999999999999829
 30
0.0
 40
6.500000000000157
100
AcDbArc
 50
67.38013505196014
 51
112.6198649480398
  0
LINE
  5
2A2
330
50F
100
AcDbEntity
  8
DATA
  6
Continuous
 62
     7
100
AcDbLine
 10
-171.1705798717059
 20
4.406087542740237
 30
0.0
 11
-171.1705798717059
 21
1.406087542740237
 31
0.0
  0
LINE
  5
2A3
330
50F
100
AcDbEntity
  8
DATA
  6
Continuous
 62
     7
100
AcDbLine
 10
-175.1705798717059
 20
4.406087542740237
 30
0.0
 11
-171.1705798717059
 21
4.406087542740237
 31
0.0
  0
LINE
  5
2A4
330
50F
100
AcDbEntity
  8
DATA
  6
Continuous
 62
     7
100
AcDbLine
 10
-175.1705798717059
 20
1.406087542740237
 30
0.0
 11
-175.1705798717059
 21
4.406087542740237
 31
0.0
  0
LINE
  5
2A5
330
50F
100
AcDbEntity
  8
DATA
  6
Continuous
 62
     7
100
AcDbLine
 10
-171.1705798717059
 20
4.406087542740237
 30
0.0
 11
-171.1705798717059
 21
1.406087542740237
 31
0.0
  0
LINE
  5
2A6
330
50F
100
AcDbEntity
  8
DATA
  6
Continuous
 62
     7
100
AcDbLine
 10
-168.1705798717059
 20
4.5
 30
0.0
 11
-168.1705798717059
 21
1.406087542740237
 31
0.0
  0
LINE
  5
2A7
330
50F
100
AcDbEntity
  8
DATA
  6
Continuous
 62
     7
100
AcDbLine
 10
-175.1705798717059
 20
4.406087542740237
 30
0.0
 11
-175.1705798717059
 21
1.406087542740237
 31
0.0
  0
LINE
  5
2A8
330
50F
100
AcDbEntity
  8
DATA
  6
Continuous
 62
     7
100
AcDbLine
 10
-178.1705798717059
 20
4.500000000000014
 30
0.0
 11
-178.1705798717059
 21
1.406087542740237
 31
0.0
  0
LINE
  5
2A9
330
50F
100
AcDbEntity
  8
DATA
  6
Continuous
 62
     7
100
AcDbLine
 10
-171.1705798717059
 20
1.406087542740237
 30
0.0
 11
-168.1705798717059
 21
1.406087542740237
 31
0.0
  0
LINE
  5
2AA
330
50F
100
AcDbEntity
  8
DATA
  6
Continuous
 62
     7
100
AcDbLine
 10
-175.1705798717059
 20
1.406087542740237
 30
0.0
 11
-178.1705798717059
 21
1.406087542740237
 31
0.0
  0
TEXT
  5
2AB
330
50F
100
AcDbEntity
  8
DATA
 62
     7
100
AcDbText
 10
-170.6145768294698
 20
-7.713267170648661
 30
0.0
 40
1.86165
  1
CH 1
 50
180.0
 41
0.7
 11
-170.6145768294698
 21
-8.644092170648661
 31
0.0
100
AcDbText
 73
     2
  0
LINE
  5
2AC
330
50F
100
AcDbEntity
  8
DATA
  6
Continuous
 62
     7
100
AcDbLine
 10
-177.1705798717059
 20
17.74294525736882
 30
0.0
 11
-179.1705798717059
 21
17.74294525736882
 31
0.0
  0
LINE
  5
2AD
330
50F
100
AcDbEntity
  8
DATA
  6
Continuous
 62
     7
100
AcDbLine
 10
-172.1705798717058
 20
17.74294525736882
 30
0.0
 11
-174.1705798717059
 21
17.74294525736882
 31
0.0
  0
LINE
  5
2AE
330
50F
100
AcDbEntity
  8
DATA
  6
Continuous
 62
     7
100
AcDbLine
 10
-167.1705798717059
 20
17.74294525736882
 30
0.0
 11
-169.1705798717059
 21
17.74294525736882
 31
0.0
  0
LINE
  5
2AF
330
50F
100
AcDbEntity
  8
DATA
  6
Continuous
 62
     7
100
AcDbLine
 10
-173.1705798717058
 20
18.74294525736882
 30
0.0
 11
-173.1705798717058
 21
16.74294525736882
 31
0.0
  0
LINE
  5
2B0
330
50F
100
AcDbEntity
  8
DATA
  6
Continuous
 62
     7
100
AcDbLine
 10
-168.1705798717059
 20
17.74294525736882
 30
0.0
 11
-167.6061406136379
 21
18.72058273012912
 31
0.0
  0
LINE
  5
2B1
330
50F
100
AcDbEntity
  8
DATA
  6
Continuous
 62
     7
100
AcDbLine
 10
-167.1705798717059
 20
17.74294525736882
 30
0.0
 11
-166.605234835676
 21
18.72215158357946
 31
0.0
  0
LINE
  5
2B2
330
50F
100
AcDbEntity
  8
DATA
  6
Continuous
 62
     7
100
AcDbLine
 10
-169.1705798717059
 20
17.74294525736882
 30
0.0
 11
-168.605234835676
 21
18.72215158357946
 31
0.0
  0
LINE
  5
2B3
330
50F
100
AcDbEntity
  8
DATA
  6
Continuous
 62
     7
100
AcDbLine
 10
-168.1705798717059
 20
17.74294525736882
 30
0.0
 11
-168.1705798717059
 21
16.54329042745843
 31
0.0
  0
LINE
  5
2B4
330
50F
100
AcDbEntity
  8
DATA
  6
Continuous
 62
     7
100
AcDbLine
 10
-148.136749292476
 20
14.25
 30
0.0
 11
-148.136749292476
 21
4.25
 31
0.0
  0
LINE
  5
2B5
330
50F
100
AcDbEntity
  8
DATA
  6
Continuous
 62
     7
100
AcDbLine
 10
-162.136749292476
 20
14.25
 30
0.0
 11
-148.136749292476
 21
14.25
 31
0.0
  0
LINE
  5
2B6
330
50F
100
AcDbEntity
  8
DATA
  6
Continuous
 62
     7
100
AcDbLine
 10
-162.136749292476
 20
4.25
 30
0.0
 11
-162.136749292476
 21
14.25
 31
0.0
  0
LINE
  5
2B7
330
50F
100
AcDbEntity
  8
DATA
  6
Continuous
 62
     7
100
AcDbLine
 10
-148.136749292476
 20
4.25
 30
0.0
 11
-162.136749292476
 21
4.25
 31
0.0
  0
LWPOLYLINE
  5
2B8
330
50F
100
AcDbEntity
  8
DATA
  6
Continuous
 62
     7
100
AcDbPolyline
 90
        4
 70
     1
 43
0.0
 10
-160.7718476577546
 20
11.04999999999999
 10
-159.5718476577546
 20
11.04999999999999
 10
-159.5718476577546
 20
7.450000000000002
 10
-160.7718476577546
 20
7.450000000000002
  0
LINE
  5
2BF
330
50F
100
AcDbEntity
  8
DATA
  6
Continuous
 62
     7
100
AcDbLine
 10
-160.7718476577546
 20
8.78605767059247
 30
0.0
 11
-159.5718476577546
 21
8.78605767059247
 31
0.0
  0
LWPOLYLINE
  5
2C0
330
50F
100
AcDbEntity
  8
DATA
  6
Continuous
 62
     7
100
AcDbPolyline
 90
        4
 70
     1
 43
0.0
 10
-158.2718476577546
 20
11.04999999999999
 10
-157.0718476577546
 20
11.04999999999999
 10
-157.0718476577546
 20
7.450000000000002
 10
-158.2718476577546
 20
7.450000000000002
  0
LINE
  5
2C7
330
50F
100
AcDbEntity
  8
DATA
  6
Continuous
 62
     7
100
AcDbLine
 10
-158.2718476577546
 20
8.78605767059247
 30
0.0
 11
-157.0718476577546
 21
8.78605767059247
 31
0.0
  0
LWPOLYLINE
  5
2C8
330
50F
100
AcDbEntity
  8
DATA
  6
Continuous
 62
     7
100
AcDbPolyline
 90
        4
 70
     1
 43
0.0
 10
-155.7718476577546
 20
11.04999999999999
 10
-154.5718476577546
 20
11.04999999999999
 10
-154.5718476577546
 20
7.450000000000002
 10
-155.7718476577546
 20
7.450000000000002
  0
LINE
  5
2CF
330
50F
100
AcDbEntity
  8
DATA
  6
Continuous
 62
     7
100
AcDbLine
 10
-155.7718476577546
 20
8.78605767059247
 30
0.0
 11
-154.5718476577546
 21
8.78605767059247
 31
0.0
  0
LWPOLYLINE
  5
2D0
330
50F
100
AcDbEntity
  8
DATA
  6
Continuous
 62
     7
100
AcDbPolyline
 90
        4
 70
     1
 43
0.0
 10
-153.2718476577546
 20
11.04999999999999
 10
-152.0718476577546
 20
11.04999999999999
 10
-152.0718476577546
 20
7.450000000000002
 10
-153.2718476577546
 20
7.450000000000002
  0
LINE
  5
2D7
330
50F
100
AcDbEntity
  8
DATA
  6
Continuous
 62
     7
100
AcDbLine
 10
-153.2718476577546
 20
8.78605767059247
 30
0.0
 11
-152.0718476577546
 21
8.78605767059247
 31
0.0
  0
LWPOLYLINE
  5
2D8
330
50F
100
AcDbEntity
  8
DATA
  6
Continuous
 62
     7
100
AcDbPolyline
 90
        4
 70
     1
 43
0.0
 10
-150.7718476577546
 20
11.04999999999999
 10
-149.5718476577546
 20
11.04999999999999
 10
-149.5718476577546
 20
7.450000000000002
 10
-150.7718476577546
 20
7.450000000000002
  0
LINE
  5
2DF
330
50F
100
AcDbEntity
  8
DATA
  6
Continuous
 62
     7
100
AcDbLine
 10
-150.7718476577546
 20
8.78605767059247
 30
0.0
 11
-149.5718476577546
 21
8.78605767059247
 31
0.0
  0
TEXT
  5
2E0
330
50F
100
AcDbEntity
  8
DATA
 62
     7
100
AcDbText
 10
-149.648135833609
 20
13.25504187970806
 30
0.0
 40
1.48932
  1
1
 50
180.0
 41
0.7
 11
-149.648135833609
 21
12.51038187970806
 31
0.0
100
AcDbText
 73
     2
  0
TEXT
  5
2E1
330
50F
100
AcDbEntity
  8
DATA
 62
     7
100
AcDbText
 10
-152.148135833609
 20
13.25504187970806
 30
0.0
 40
1.48932
  1
2
 50
180.0
 41
0.7
 11
-152.148135833609
 21
12.51038187970806
 31
0.0
100
AcDbText
 73
     2
  0
TEXT
  5
2E2
330
50F
100
AcDbEntity
  8
DATA
 62
     7
100
AcDbText
 10
-154.648135833609
 20
13.25504187970806
 30
0.0
 40
1.48932
  1
3
 50
180.0
 41
0.7
 11
-154.648135833609
 21
12.51038187970806
 31
0.0
100
AcDbText
 73
     2
  0
TEXT
  5
2E3
330
50F
100
AcDbEntity
  8
DATA
 62
     7
100
AcDbText
 10
-157.148135833609
 20
13.25504187970806
 30
0.0
 40
1.48932
  1
4
 50
180.0
 41
0.7
 11
-157.148135833609
 21
12.51038187970806
 31
0.0
100
AcDbText
 73
     2
  0
TEXT
  5
2E4
330
50F
100
AcDbEntity
  8
DATA
 62
     7
100
AcDbText
 10
-159.648135833609
 20
13.25504187970806
 30
0.0
 40
1.48932
  1
5
 50
180.0
 41
0.7
 11
-159.648135833609
 21
12.51038187970806
 31
0.0
100
AcDbText
 73
     2
  0
TEXT
  5
2E5
330
50F
100
AcDbEntity
  8
DATA
 62
     7
100
AcDbText
 10
-149.4062158203799
 20
17.76154796700696
 30
0.0
 40
2.23398
  1
1
 50
180.0
 41
0.7
 11
-149.4062158203799
 21
16.64455796700696
 31
0.0
100
AcDbText
 73
     2
  0
TEXT
  5
2E6
330
50F
100
AcDbEntity
  8
DATA
 62
     7
100
AcDbText
 10
-151.9062158203799
 20
17.76154796700696
 30
0.0
 40
2.23398
  1
2
 50
180.0
 41
0.7
 11
-151.9062158203799
 21
16.64455796700696
 31
0.0
100
AcDbText
 73
     2
  0
TEXT
  5
2E7
330
50F
100
AcDbEntity
  8
DATA
 62
     7
100
AcDbText
 10
-154.4062158203799
 20
17.76154796700696
 30
0.0
 40
2.23398
  1
3
 50
180.0
 41
0.7
 11
-154.4062158203799
 21
16.64455796700696
 31
0.0
100
AcDbText
 73
     2
  0
TEXT
  5
2E8
330
50F
100
AcDbEntity
  8
DATA
 62
     7
100
AcDbText
 10
-156.9062158203799
 20
17.76154796700696
 30
0.0
 40
2.23398
  1
4
 50
180.0
 41
0.7
 11
-156.9062158203799
 21
16.64455796700696
 31
0.0
100
AcDbText
 73
     2
  0
TEXT
  5
2E9
330
50F
100
AcDbEntity
  8
DATA
 62
     7
100
AcDbText
 10
-159.4629366880782
 20
17.76154796700696
 30
0.0
 40
2.23398
  1
5
 50
180.0
 41
0.7
 11
-159.4629366880782
 21
16.64455796700696
 31
0.0
100
AcDbText
 73
     2
  0
TEXT
  5
2EA
330
50F
100
AcDbEntity
  8
DATA
 62
     7
100
AcDbText
 10
-142.5708125154599
 20
15.25994715169137
 30
0.0
 40
1.48932
  1
ON
 50
180.0
 41
0.7
 11
-142.5708125154599
 21
14.51528715169137
 31
0.0
100
AcDbText
 73
     2
  0
TEXT
  5
2EB
330
50F
100
AcDbEntity
  8
DATA
 62
     7
100
AcDbText
 10
-142.5708125154599
 20
5.22214804565279
 30
0.0
 40
1.48932
  1
OFF
 50
180.0
 41
0.7
 11
-142.5708125154599
 21
4.477488045652791
 31
0.0
100
AcDbText
 73
     2
  0
LINE
  5
2EC
330
50F
100
AcDbEntity
  8
DATA
  6
Continuous
 62
     7
100
AcDbLine
 10
-143.85
 20
5.999999999999971
 30
0.0
 11
-143.85
 21
8.285065833550987
 31
0.0
  0
LINE
  5
2ED
330
50F
100
AcDbEntity
  8
DATA
  6
Continuous
 62
     7
100
AcDbLine
 10
-143.85
 20
5.999999999999971
 30
0.0
 11
-143.2570994936654
 21
7.026933800804911
 31
0.0
  0
LINE
  5
2EE
330
50F
100
AcDbEntity
  8
DATA
  6
Continuous
 62
     7
100
AcDbLine
 10
-143.85
 20
5.999999999999971
 30
0.0
 11
-144.4429005063346
 21
7.026933800804911
 31
0.0
  0
LINE
  5
2EF
330
50F
100
AcDbEntity
  8
DATA
  6
Continuous
 62
     7
100
AcDbLine
 10
-143.85
 20
12.59999999999996
 30
0.0
 11
-143.85
 21
10.31493416644895
 31
0.0
  0
LINE
  5
2F0
330
50F
100
AcDbEntity
  8
DATA
  6
Continuous
 62
     7
100
AcDbLine
 10
-143.85
 20
12.59999999999996
 30
0.0
 11
-143.2570994936654
 21
11.57306619919502
 31
0.0
  0
LINE
  5
2F1
330
50F
100
AcDbEntity
  8
DATA
  6
Continuous
 62
     7
100
AcDbLine
 10
-143.85
 20
12.59999999999996
 30
0.0
 11
-144.4429005063346
 21
11.57306619919502
 31
0.0
  0
LINE
  5
2F2
330
50F
100
AcDbEntity
  8
DATA
  6
Continuous
 62
     7
100
AcDbLine
 10
-198.0
 20
-3.650000000000019
 30
0.0
 11
-198.0
 21
-14.41268611583341
 31
0.0
  0
LINE
  5
2F3
330
50F
100
AcDbEntity
  8
DATA
  6
Continuous
 62
     7
100
AcDbLine
 10
-198.0
 20
1.650000000000019
 30
0.0
 11
-198.0
 21
12.41268611583341
 31
0.0
  0
TEXT
  5
2F4
330
50F
100
AcDbEntity
  8
DATA
 62
     7
100
AcDbText
 10
-144.0026703805102
 20
-13.81368889853477
 30
0.0
 40
1.787184
  1
1-CH1 70Hz HPF
 50
180.0
 41
0.7
 11
-144.0026703805102
 21
-14.70728089853477
 31
0.0
100
AcDbText
 73
     2
  0
TEXT
  5
2F5
330
50F
100
AcDbEntity
  8
DATA
 62
     7
100
AcDbText
 10
-144.0026703805102
 20
-10.81368889853477
 30
0.0
 40
1.787184
  1
2-CH2 70Hz HPF
 50
180.0
 41
0.7
 11
-144.0026703805102
 21
-11.70728089853477
 31
0.0
100
AcDbText
 73
     2
  0
TEXT
  5
2F6
330
50F
100
AcDbEntity
  8
DATA
 62
     7
100
AcDbText
 10
-144.0026703805102
 20
-7.813688898534776
 30
0.0
 40
1.787184
  1
3-CH1 LIMITER
 50
180.0
 41
0.7
 11
-144.0026703805102
 21
-8.707280898534776
 31
0.0
100
AcDbText
 73
     2
  0
TEXT
  5
2F7
330
50F
100
AcDbEntity
  8
DATA
 62
     7
100
AcDbText
 10
-144.0026703805102
 20
-4.813688898534776
 30
0.0
 40
1.787184
  1
4-CH2 LIMITER
 50
180.0
 41
0.7
 11
-144.0026703805102
 21
-5.707280898534776
 31
0.0
100
AcDbText
 73
     2
  0
TEXT
  5
2F8
330
50F
100
AcDbEntity
  8
DATA
 62
     7
100
AcDbText
 10
-144.0026703805102
 20
-1.813688898534776
 30
0.0
 40
1.787184
  1
5-AUTO STANDBY
 50
180.0
 41
0.7
 11
-144.0026703805102
 21
-2.707280898534776
 31
0.0
100
AcDbText
 73
     2
  0
LINE
  5
2F9
330
50F
100
AcDbEntity
  8
DATA
  6
Continuous
 62
     7
100
AcDbLine
 10
-117.5
 20
-14.8804611986192
 30
0.0
 11
-117.5
 21
4.406087542740237
 31
0.0
  0
LINE
  5
2FA
330
50F
100
AcDbEntity
  8
DATA
  6
Continuous
 62
     7
100
AcDbLine
 10
-117.5
 20
14.0
 30
0.0
 11
-117.5
 21
18.0
 31
0.0
  0
LINE
  5
2FB
330
50F
100
AcDbEntity
  8
DATA
  6
Continuous
 62
     7
100
AcDbLine
 10
-183.5
 20
-17.0
 30
0.0
 11
-183.5
 21
18.0
 31
0.0
  0
LINE
  5
2FC
330
50F
100
AcDbEntity
  8
DATA
  6
Continuous
 62
     7
100
AcDbLine
 10
-128.5532855764377
 20
14.0
 30
0.0
 11
-106.5032855764377
 21
14.0
 31
0.0
  0
LINE
  5
2FD
330
50F
100
AcDbEntity
  8
DATA
  6
Continuous
 62
     7
100
AcDbLine
 10
-128.5532855764377
 20
4.5
 30
0.0
 11
-106.5032855764377
 21
4.5
 31
0.0
  0
LINE
  5
2FE
330
50F
100
AcDbEntity
  8
DATA
  6
Continuous
 62
     7
100
AcDbLine
 10
-128.5532855764377
 20
14.0
 30
0.0
 11
-128.5532855764377
 21
4.5
 31
0.0
  0
LWPOLYLINE
  5
2FF
330
50F
100
AcDbEntity
  8
DATA
  6
Continuous
 62
     7
100
AcDbPolyline
 90
        4
 70
     1
 43
0.0
 10
-120.0532855764377
 20
9.75
 10
-119.0532855764377
 20
9.75
 10
-119.0532855764377
 20
8.75
 10
-120.0532855764377
 20
8.75
  0
LWPOLYLINE
  5
306
330
50F
100
AcDbEntity
  8
DATA
  6
Continuous
 62
     7
100
AcDbPolyline
 90
        4
 70
     1
 43
0.0
 10
-115.0532855764377
 20
9.75
 10
-114.0532855764377
 20
9.75
 10
-114.0532855764377
 20
8.75
 10
-115.0532855764377
 20
8.75
  0
LWPOLYLINE
  5
30D
330
50F
100
AcDbEntity
  8
DATA
  6
Continuous
 62
     7
100
AcDbPolyline
 90
        4
 70
     1
 43
0.0
 10
-125.0532855764377
 20
9.75
 10
-124.0532855764377
 20
9.75
 10
-124.0532855764377
 20
8.75
 10
-125.0532855764377
 20
8.75
  0
LINE
  5
314
330
50F
100
AcDbEntity
  8
DATA
  6
Continuous
 62
     7
100
AcDbLine
 10
-128.0532855764377
 20
13.0
 30
0.0
 11
-128.0532855764377
 21
5.5
 31
0.0
  0
LINE
  5
315
330
50F
100
AcDbEntity
  8
DATA
  6
Continuous
 62
     7
100
AcDbLine
 10
-107.0032855764377
 20
5.5
 30
0.0
 11
-128.0532855764377
 21
5.5
 31
0.0
  0
LINE
  5
316
330
50F
100
AcDbEntity
  8
DATA
  6
Continuous
 62
     7
100
AcDbLine
 10
-128.0532855764377
 20
13.0
 30
0.0
 11
-127.0532855764377
 21
13.0
 31
0.0
  0
ARC
  5
317
330
50F
100
AcDbEntity
  8
DATA
  6
Continuous
 62
     7
100
AcDbCircle
 10
-119.5532855764377
 20
6.999999999999829
 30
0.0
 40
6.500000000000157
100
AcDbArc
 50
67.38013505196014
 51
112.6198649480398
  0
ARC
  5
318
330
50F
100
AcDbEntity
  8
DATA
  6
Continuous
 62
     7
100
AcDbCircle
 10
-114.5532855764377
 20
6.999999999999829
 30
0.0
 40
6.500000000000162
100
AcDbArc
 50
67.38013505196004
 51
112.6198649480398
  0
ARC
  5
319
330
50F
100
AcDbEntity
  8
DATA
  6
Continuous
 62
     7
100
AcDbCircle
 10
-124.5532855764377
 20
6.999999999999829
 30
0.0
 40
6.500000000000157
100
AcDbArc
 50
67.38013505196014
 51
112.6198649480398
  0
LINE
  5
31A
330
50F
100
AcDbEntity
  8
DATA
  6
Continuous
 62
     7
100
AcDbLine
 10
-113.8325378343297
 20
4.406087542740237
 30
0.0
 11
-113.8325378343297
 21
1.406087542740237
 31
0.0
  0
LINE
  5
31B
330
50F
100
AcDbEntity
  8
DATA
  6
Continuous
 62
     7
100
AcDbLine
 10
-121.2240333185458
 20
4.406087542740237
 30
0.0
 11
-113.8325378343297
 21
4.406087542740237
 31
0.0
  0
LINE
  5
31C
330
50F
100
AcDbEntity
  8
DATA
  6
Continuous
 62
     7
100
AcDbLine
 10
-113.8325378343297
 20
4.406087542740237
 30
0.0
 11
-113.8325378343297
 21
1.406087542740237
 31
0.0
  0
LINE
  5
31D
330
50F
100
AcDbEntity
  8
DATA
  6
Continuous
 62
     7
100
AcDbLine
 10
-110.8325378343297
 20
4.5
 30
0.0
 11
-110.8325378343297
 21
1.406087542740237
 31
0.0
  0
LINE
  5
31E
330
50F
100
AcDbEntity
  8
DATA
  6
Continuous
 62
     7
100
AcDbLine
 10
-113.8325378343297
 20
1.406087542740237
 30
0.0
 11
-110.8325378343297
 21
1.406087542740237
 31
0.0
  0
TEXT
  5
31F
330
50F
100
AcDbEntity
  8
DATA
 62
     7
100
AcDbText
 10
-109.8705381444746
 20
-7.713267170648661
 30
0.0
 40
1.86165
  1
CH 1
 50
180.0
 41
0.7
 11
-109.8705381444746
 21
-8.644092170648661
 31
0.0
100
AcDbText
 73
     2
  0
LINE
  5
320
330
50F
100
AcDbEntity
  8
DATA
  6
Continuous
 62
     7
100
AcDbLine
 10
-108.5908352803816
 20
17.74294525736882
 30
0.0
 11
-110.5908352803816
 21
17.74294525736882
 31
0.0
  0
LINE
  5
321
330
50F
100
AcDbEntity
  8
DATA
  6
Continuous
 62
     7
100
AcDbLine
 10
-113.5532855764377
 20
17.74294525736882
 30
0.0
 11
-115.5532855764377
 21
17.74294525736882
 31
0.0
  0
LINE
  5
322
330
50F
100
AcDbEntity
  8
DATA
  6
Continuous
 62
     7
100
AcDbLine
 10
-114.5532855764377
 20
18.74294525736882
 30
0.0
 11
-114.5532855764377
 21
16.74294525736882
 31
0.0
  0
LINE
  5
323
330
50F
100
AcDbEntity
  8
DATA
  6
Continuous
 62
     7
100
AcDbLine
 10
-106.5032855764377
 20
14.0
 30
0.0
 11
-106.5032855764377
 21
4.5
 31
0.0
  0
LINE
  5
324
330
50F
100
AcDbEntity
  8
DATA
  6
Continuous
 62
     7
100
AcDbLine
 10
-107.0032855764377
 20
13.0
 30
0.0
 11
-107.0032855764377
 21
5.5
 31
0.0
  0
LWPOLYLINE
  5
325
330
50F
100
AcDbEntity
  8
DATA
  6
Continuous
 62
     7
100
AcDbPolyline
 90
        4
 70
     1
 43
0.0
 10
-110.0532855764377
 20
9.75
 10
-109.0532855764377
 20
9.75
 10
-109.0532855764377
 20
8.75
 10
-110.0532855764377
 20
8.75
  0
ARC
  5
32C
330
50F
100
AcDbEntity
  8
DATA
  6
Continuous
 62
     7
100
AcDbCircle
 10
-109.5532855764377
 20
6.999999999999829
 30
0.0
 40
6.500000000000162
100
AcDbArc
 50
67.38013505196004
 51
112.6198649480398
  0
LINE
  5
32D
330
50F
100
AcDbEntity
  8
DATA
  6
Continuous
 62
     7
100
AcDbLine
 10
-121.2240333185458
 20
4.406087542740237
 30
0.0
 11
-121.2240333185458
 21
1.406087542740237
 31
0.0
  0
LINE
  5
32E
330
50F
100
AcDbEntity
  8
DATA
  6
Continuous
 62
     7
100
AcDbLine
 10
-124.2240333185458
 20
4.5
 30
0.0
 11
-124.2240333185458
 21
1.406087542740237
 31
0.0
  0
LINE
  5
32F
330
50F
100
AcDbEntity
  8
DATA
  6
Continuous
 62
     7
100
AcDbLine
 10
-121.2240333185458
 20
1.406087542740237
 30
0.0
 11
-124.2240333185458
 21
1.406087542740237
 31
0.0
  0
LINE
  5
330
330
50F
100
AcDbEntity
  8
DATA
  6
Continuous
 62
     7
100
AcDbLine
 10
-120.4879998891972
 20
17.74294525736882
 30
0.0
 11
-118.4879998891974
 21
17.74294525736882
 31
0.0
  0
LINE
  5
331
330
50F
100
AcDbEntity
  8
DATA
  6
Continuous
 62
     7
100
AcDbLine
 10
-125.5705011629191
 20
17.74294525736882
 30
0.0
 11
-123.570501162919
 21
17.74294525736882
 31
0.0
  0
LINE
  5
332
330
50F
100
AcDbEntity
  8
DATA
  6
Continuous
 62
     7
100
AcDbLine
 10
-124.5705011629191
 20
18.74294525736882
 30
0.0
 11
-124.5705011629191
 21
16.74294525736882
 31
0.0
  0
TEXT
  5
333
330
50F
100
AcDbEntity
  8
DATA
 62
     7
100
AcDbText
 10
-120.2086292743953
 20
-7.713267170648661
 30
0.0
 40
1.86165
  1
CH 2
 50
180.0
 41
0.7
 11
-120.2086292743953
 21
-8.644092170648661
 31
0.0
100
AcDbText
 73
     2
  0
TEXT
  5
334
330
50F
100
AcDbEntity
  8
DATA
 62
     7
100
AcDbText
 10
-112.2053239588873
 20
-15.87646875000003
 30
0.0
 40
2.3270625
  1
OUTPUTS
 50
180.0
 41
0.7
 11
-112.2053239588873
 21
-17.04000000000003
 31
0.0
100
AcDbText
 73
     2
  0
CIRCLE
  5
335
330
50F
100
AcDbEntity
  8
DATA
  6
Continuous
 62
     7
100
AcDbCircle
 10
-100.0
 20
-15.0
 30
0.0
 40
2.450000000000002
  0
LWPOLYLINE
  5
336
330
50F
100
AcDbEntity
  8
DATA
  6
Continuous
 62
     7
100
AcDbPolyline
 90
        8
 70
     1
 43
0.0
 10
-100.5179578037304
 20
-15.89712923223797
 10
-99.73188531167012
 20
-16.00061763910246
 10
-99.10287076776201
 20
-15.51795780373046
 10
-98.99938236089756
 20
-14.73188531167015
 10
-99.48204219626951
 20
-14.10287076776203
 10
-100.2681146883299
 20
-13.99938236089754
 10
-100.8971292322379
 20
-14.48204219626953
 10
-101.0006176391024
 20
-15.26811468832985
  0
CIRCLE
  5
341
330
50F
100
AcDbEntity
  8
DATA
  6
Continuous
 62
     7
100
AcDbCircle
 10
-135.0
 20
-15.0
 30
0.0
 40
2.449999999999988
  0
LWPOLYLINE
  5
342
330
50F
100
AcDbEntity
  8
DATA
  6
Continuous
 62
     7
100
AcDbPolyline
 90
        8
 70
     1
 43
0.0
 10
-135.5179578037305
 20
-15.89712923223797
 10
-134.7318853116701
 20
-16.00061763910246
 10
-134.102870767762
 20
-15.51795780373046
 10
-133.9993823608975
 20
-14.73188531167015
 10
-134.4820421962695
 20
-14.10287076776203
 10
-135.2681146883298
 20
-13.99938236089754
 10
-135.8971292322379
 20
-14.48204219626953
 10
-136.0006176391024
 20
-15.26811468832985
  0
CIRCLE
  5
34D
330
50F
100
AcDbEntity
  8
DATA
  6
Continuous
 62
     7
100
AcDbCircle
 10
-178.0
 20
-15.0
 30
0.0
 40
2.449999999999988
  0
LWPOLYLINE
  5
34E
330
50F
100
AcDbEntity
  8
DATA
  6
Continuous
 62
     7
100
AcDbPolyline
 90
        8
 70
     1
 43
0.0
 10
-178.5179578037304
 20
-15.89712923223797
 10
-177.7318853116701
 20
-16.00061763910246
 10
-177.102870767762
 20
-15.51795780373046
 10
-176.9993823608975
 20
-14.73188531167015
 10
-177.4820421962695
 20
-14.10287076776203
 10
-178.2681146883299
 20
-13.99938236089754
 10
-178.8971292322379
 20
-14.48204219626953
 10
-179.0006176391024
 20
-15.26811468832985
  0
CIRCLE
  5
359
330
50F
100
AcDbEntity
  8
DATA
  6
Continuous
 62
     7
100
AcDbCircle
 10
-87.0
 20
-12.0
 30
0.0
 40
2.449999999999988
  0
LWPOLYLINE
  5
35A
330
50F
100
AcDbEntity
  8
DATA
  6
Continuous
 62
     7
100
AcDbPolyline
 90
        8
 70
     1
 43
0.0
 10
-87.51795780373045
 20
-12.89712923223797
 10
-86.73188531167012
 20
-13.00061763910245
 10
-86.102870767762
 20
-12.51795780373046
 10
-85.99938236089753
 20
-11.73188531167015
 10
-86.48204219626954
 20
-11.10287076776202
 10
-87.26811468832988
 20
-10.99938236089754
 10
-87.89712923223797
 20
-11.48204219626953
 10
-88.00061763910244
 20
-12.26811468832984
  0
LINE
  5
365
330
50F
100
AcDbEntity
  8
DATA
  6
Continuous
 62
     7
100
AcDbLine
 10
-209.15
 20
-36.0
 30
0.0
 11
-209.15
 21
-42.0
 31
0.0
  0
LINE
  5
366
330
50F
100
AcDbEntity
  8
DATA
  6
Continuous
 62
     7
100
AcDbLine
 10
-200.85
 20
-36.0
 30
0.0
 11
-200.85
 21
-42.0
 31
0.0
  0
LINE
  5
367
330
50F
100
AcDbEntity
  8
DATA
  6
Continuous
 62
     7
100
AcDbLine
 10
-195.15
 20
-36.0
 30
0.0
 11
-195.15
 21
-42.0
 31
0.0
  0
LINE
  5
368
330
50F
100
AcDbEntity
  8
DATA
  6
Continuous
 62
     7
100
AcDbLine
 10
-186.85
 20
-36.0
 30
0.0
 11
-186.85
 21
-42.0
 31
0.0
  0
LINE
  5
369
330
50F
100
AcDbEntity
  8
DATA
  6
Continuous
 62
     7
100
AcDbLine
 10
-209.1499999999999
 20
-36.0
 30
0.0
 11
-200.85
 21
-36.0
 31
0.0
  0
LINE
  5
36A
330
50F
100
AcDbEntity
  8
DATA
  6
Continuous
 62
     7
100
AcDbLine
 10
-195.15
 20
-36.0
 30
0.0
 11
-186.85
 21
-36.0
 31
0.0
  0
ARC
  5
36B
330
50F
100
AcDbEntity
  8
DATA
  6
Continuous
 62
     7
100
AcDbCircle
 10
-83.25000000000001
 20
-46.93897878336175
 30
0.0
 40
7.438978783361761
100
AcDbArc
 50
57.47223705729664
 51
122.5277629427033
  0
LINE
  5
36C
330
50F
100
AcDbEntity
  8
DATA
  6
Continuous
 62
     7
100
AcDbLine
 10
-87.24999999999999
 20
-40.66694519454015
 30
0.0
 11
-87.24999999999999
 21
-42.0
 31
0.0
  0
LINE
  5
36D
330
50F
100
AcDbEntity
  8
DATA
  6
Continuous
 62
     7
100
AcDbLine
 10
-79.25
 20
-40.66694519454015
 30
0.0
 11
-79.25
 21
-42.0
 31
0.0
  0
ARC
  5
36E
330
50F
100
AcDbEntity
  8
DATA
  6
Continuous
 62
     7
100
AcDbCircle
 10
-43.25
 20
-46.93897878336175
 30
0.0
 40
7.438978783361761
100
AcDbArc
 50
57.47223705729664
 51
122.5277629427033
  0
LINE
  5
36F
330
50F
100
AcDbEntity
  8
DATA
  6
Continuous
 62
     7
100
AcDbLine
 10
-47.25
 20
-40.66694519454015
 30
0.0
 11
-47.25
 21
-42.0
 31
0.0
  0
LINE
  5
370
330
50F
100
AcDbEntity
  8
DATA
  6
Continuous
 62
     7
100
AcDbLine
 10
-39.25
 20
-40.66694519454015
 30
0.0
 11
-39.25
 21
-42.0
 31
0.0
  0
LINE
  5
371
330
50F
100
AcDbEntity
  8
DATA
  6
Continuous
 62
     7
100
AcDbLine
 10
-78.5
 20
-41.2
 30
0.0
 11
-78.5
 21
-42.0
 31
0.0
  0
LINE
  5
372
330
50F
100
AcDbEntity
  8
DATA
  6
Continuous
 62
     7
100
AcDbLine
 10
-48.0
 20
-41.2
 30
0.0
 11
-48.0
 21
-42.0
 31
0.0
  0
LINE
  5
373
330
50F
100
AcDbEntity
  8
DATA
  6
Continuous
 62
     7
100
AcDbLine
 10
-78.5
 20
-41.2
 30
0.0
 11
-48.0
 21
-41.2
 31
0.0
  0
LINE
  5
374
330
50F
100
AcDbEntity
  8
DATA
  6
Continuous
 62
     7
100
AcDbLine
 10
-160.7718476577546
 20
-41.2
 30
0.0
 11
-159.5718476577545
 21
-41.2
 31
0.0
  0
LINE
  5
375
330
50F
100
AcDbEntity
  8
DATA
  6
Continuous
 62
     7
100
AcDbLine
 10
-158.2718476577546
 20
-41.2
 30
0.0
 11
-157.0718476577546
 21
-41.2
 31
0.0
  0
LINE
  5
376
330
50F
100
AcDbEntity
  8
DATA
  6
Continuous
 62
     7
100
AcDbLine
 10
-155.7718476577546
 20
-41.2
 30
0.0
 11
-154.5718476577546
 21
-41.2
 31
0.0
  0
LINE
  5
377
330
50F
100
AcDbEntity
  8
DATA
  6
Continuous
 62
     7
100
AcDbLine
 10
-153.2718476577546
 20
-41.2
 30
0.0
 11
-152.0718476577546
 21
-41.2
 31
0.0
  0
LINE
  5
378
330
50F
100
AcDbEntity
  8
DATA
  6
Continuous
 62
     7
100
AcDbLine
 10
-150.7718476577545
 20
-41.2
 30
0.0
 11
-149.5718476577546
 21
-41.2
 31
0.0
  0
LINE
  5
379
330
50F
100
AcDbEntity
  8
DATA
  6
Continuous
 62
     7
100
AcDbLine
 10
-160.7718476577546
 20
-41.2
 30
0.0
 11
-160.7718476577546
 21
-42.0
 31
0.0
  0
LINE
  5
37A
330
50F
100
AcDbEntity
  8
DATA
  6
Continuous
 62
     7
100
AcDbLine
 10
-159.5718476577546
 20
-41.2
 30
0.0
 11
-159.5718476577546
 21
-42.0
 31
0.0
  0
LINE
  5
37B
330
50F
100
AcDbEntity
  8
DATA
  6
Continuous
 62
     7
100
AcDbLine
 10
-158.2718476577546
 20
-41.2
 30
0.0
 11
-158.2718476577546
 21
-42.0
 31
0.0
  0
LINE
  5
37C
330
50F
100
AcDbEntity
  8
DATA
  6
Continuous
 62
     7
100
AcDbLine
 10
-157.0718476577546
 20
-41.2
 30
0.0
 11
-157.0718476577546
 21
-42.0
 31
0.0
  0
LINE
  5
37D
330
50F
100
AcDbEntity
  8
DATA
  6
Continuous
 62
     7
100
AcDbLine
 10
-155.7718476577546
 20
-41.2
 30
0.0
 11
-155.7718476577546
 21
-42.0
 31
0.0
  0
LINE
  5
37E
330
50F
100
AcDbEntity
  8
DATA
  6
Continuous
 62
     7
100
AcDbLine
 10
-154.5718476577546
 20
-41.2
 30
0.0
 11
-154.5718476577546
 21
-42.0
 31
0.0
  0
LINE
  5
37F
330
50F
100
AcDbEntity
  8
DATA
  6
Continuous
 62
     7
100
AcDbLine
 10
-153.2718476577546
 20
-41.2
 30
0.0
 11
-153.2718476577546
 21
-42.0
 31
0.0
  0
LINE
  5
380
330
50F
100
AcDbEntity
  8
DATA
  6
Continuous
 62
     7
100
AcDbLine
 10
-152.0718476577546
 20
-41.2
 30
0.0
 11
-152.0718476577546
 21
-42.0
 31
0.0
  0
LINE
  5
381
330
50F
100
AcDbEntity
  8
DATA
  6
Continuous
 62
     7
100
AcDbLine
 10
-150.7718476577546
 20
-41.2
 30
0.0
 11
-150.7718476577546
 21
-42.0
 31
0.0
  0
LINE
  5
382
330
50F
100
AcDbEntity
  8
DATA
  6
Continuous
 62
     7
100
AcDbLine
 10
-149.5718476577546
 20
-41.2
 30
0.0
 11
-149.5718476577546
 21
-42.0
 31
0.0
  0
LINE
  5
383
330
50F
100
AcDbEntity
  8
DATA
  6
Continuous
 62
     7
100
AcDbLine
 10
-209.6249963563193
 20
-255.0333401348706
 30
0.0
 11
-210.3333284750926
 21
-253.7111201798273
 31
0.0
  0
LINE
  5
384
330
50F
100
AcDbEntity
  8
DATA
  6
Continuous
 62
     7
100
AcDbLine
 10
-211.5017951104316
 20
-256.9419339432066
 30
0.0
 11
-212.5244760830976
 21
-256.4159837286927
 31
0.0
  0
LINE
  5
385
330
50F
100
AcDbEntity
  8
DATA
  6
Continuous
 62
     7
100
AcDbLine
 10
-205.3750036436806
 20
-255.0333401348706
 30
0.0
 11
-204.6666715249075
 21
-253.7111201798273
 31
0.0
  0
LINE
  5
386
330
50F
100
AcDbEntity
  8
DATA
  6
Continuous
 62
     7
100
AcDbLine
 10
-203.4982048895684
 20
-256.9419339432066
 30
0.0
 11
-202.4755239169024
 21
-256.4159837286927
 31
0.0
  0
LINE
  5
387
330
50F
100
AcDbEntity
  8
DATA
  6
Continuous
 62
     7
100
AcDbLine
 10
-211.6431084974972
 20
-260.7563177326347
 30
0.0
 11
-212.701902891302
 21
-261.2051544865302
 31
0.0
  0
LINE
  5
388
330
50F
100
AcDbEntity
  8
DATA
  6
Continuous
 62
     7
100
AcDbLine
 10
-203.3568915025028
 20
-260.7563177326347
 30
0.0
 11
-202.2980971086981
 21
-261.2051544865302
 31
0.0
  0
CIRCLE
  5
389
330
50F
100
AcDbEntity
  8
DATA
  6
Continuous
 62
     7
100
AcDbCircle
 10
-133.0
 20
-259.0
 30
0.0
 40
3.25
  0
CIRCLE
  5
38A
330
50F
100
AcDbEntity
  8
DATA
  6
Continuous
 62
     7
100
AcDbCircle
 10
-133.0
 20
-259.0
 30
0.0
 40
4.5
  0
LINE
  5
38B
330
50F
100
AcDbEntity
  8
DATA
  6
Continuous
 62
     7
100
AcDbLine
 10
-137.5
 20
-259.0
 30
0.0
 11
-139.0
 21
-259.0
 31
0.0
  0
LINE
  5
38C
330
50F
100
AcDbEntity
  8
DATA
  6
Continuous
 62
     7
100
AcDbLine
 10
-128.5
 20
-259.0
 30
0.0
 11
-127.0
 21
-259.0
 31
0.0
  0
LINE
  5
38D
330
50F
100
AcDbEntity
  8
DATA
  6
Continuous
 62
     7
100
AcDbLine
 10
-136.995153313704
 20
-262.995153313704
 30
0.0
 11
-136.1819805153394
 21
-262.1819805153395
 31
0.0
  0
LINE
  5
38E
330
50F
100
AcDbEntity
  8
DATA
  6
Continuous
 62
     7
100
AcDbLine
 10
-129.004846686296
 20
-262.995153313704
 30
0.0
 11
-129.8180194846605
 21
-262.1819805153394
 31
0.0
  0
LINE
  5
38F
330
50F
100
AcDbEntity
  8
DATA
  6
Continuous
 62
     7
100
AcDbLine
 10
-133.0
 20
-254.5
 30
0.0
 11
-133.0
 21
-253.35
 31
0.0
  0
TEXT
  5
390
330
50F
100
AcDbEntity
  8
DATA
 62
     7
100
AcDbText
 10
-138.5949999495347
 20
-264.7621689583376
 30
0.0
 40
1.563687569902286
  1
0
 41
0.7
 11
-138.5949999495347
 21
-263.9803251733864
 31
0.0
100
AcDbText
 73
     2
  0
TEXT
  5
391
330
50F
100
AcDbEntity
  8
DATA
 62
     7
100
AcDbText
 10
-128.9087460500311
 20
-264.8013872208997
 30
0.0
 40
1.563687569902286
  1
10
 41
0.7
 11
-128.9087460500311
 21
-264.0195434359486
 31
0.0
100
AcDbText
 73
     2
  0
LINE
  5
392
330
50F
100
AcDbEntity
  8
DATA
  6
Continuous
 62
     7
100
AcDbLine
 10
-135.1249963563193
 20
-255.0333401348706
 30
0.0
 11
-135.8333284750925
 21
-253.7111201798273
 31
0.0
  0
LINE
  5
393
330
50F
100
AcDbEntity
  8
DATA
  6
Continuous
 62
     7
100
AcDbLine
 10
-137.0017951104316
 20
-256.9419339432066
 30
0.0
 11
-138.0244760830975
 21
-256.4159837286927
 31
0.0
  0
LINE
  5
394
330
50F
100
AcDbEntity
  8
DATA
  6
Continuous
 62
     7
100
AcDbLine
 10
-130.8750036436806
 20
-255.0333401348706
 30
0.0
 11
-130.1666715249074
 21
-253.7111201798273
 31
0.0
  0
LINE
  5
395
330
50F
100
AcDbEntity
  8
DATA
  6
Continuous
 62
     7
100
AcDbLine
 10
-128.9982048895683
 20
-256.9419339432066
 30
0.0
 11
-127.9755239169024
 21
-256.4159837286927
 31
0.0
  0
LINE
  5
396
330
50F
100
AcDbEntity
  8
DATA
  6
Continuous
 62
     7
100
AcDbLine
 10
-137.1431084974972
 20
-260.7563177326347
 30
0.0
 11
-138.2019028913019
 21
-261.2051544865302
 31
0.0
  0
LINE
  5
397
330
50F
100
AcDbEntity
  8
DATA
  6
Continuous
 62
     7
100
AcDbLine
 10
-128.8568915025028
 20
-260.7563177326347
 30
0.0
 11
-127.7980971086981
 21
-261.2051544865302
 31
0.0
  0
LINE
  5
398
330
50F
100
AcDbEntity
  8
DATA
  6
Continuous
 62
     7
100
AcDbLine
 10
35.0
 20
-129.7293230965843
 30
0.0
 11
35.00000000000001
 21
77.0706769034157
 31
0.0
  0
LINE
  5
399
330
50F
100
AcDbEntity
  8
DATA
  6
Continuous
 62
     7
100
AcDbLine
 10
55.0
 20
-131.3293230965842
 30
0.0
 11
36.6
 21
-131.3293230965842
 31
0.0
  0
LINE
  5
39A
330
50F
100
AcDbEntity
  8
DATA
  6
Continuous
 62
     7
100
AcDbLine
 10
55.0
 20
78.67067690341574
 30
0.0
 11
55.0
 21
77.07067690341573
 31
0.0
  0
LINE
  5
39B
330
50F
100
AcDbEntity
  8
DATA
  6
Continuous
 62
     7
100
AcDbLine
 10
55.0
 20
-129.7293230965843
 30
0.0
 11
55.0
 21
-131.3293230965842
 31
0.0
  0
LINE
  5
39C
330
50F
100
AcDbEntity
  8
DATA
  6
Continuous
 62
     7
100
AcDbLine
 10
36.6
 20
78.67067690341574
 30
0.0
 11
55.0
 21
78.67067690341574
 31
0.0
  0
LINE
  5
39D
330
50F
100
AcDbEntity
  8
DATA
  6
Continuous
 62
     7
100
AcDbLine
 10
57.99999999999999
 20
-131.3293230965842
 30
0.0
 11
57.99999999999999
 21
78.67067690341574
 31
0.0
  0
LINE
  5
39E
330
50F
100
AcDbEntity
  8
DATA
  6
Continuous
 62
     7
100
AcDbLine
 10
102.0
 20
-131.3293230965842
 30
0.0
 11
57.99999999999999
 21
-131.3293230965842
 31
0.0
  0
LINE
  5
39F
330
50F
100
AcDbEntity
  8
DATA
  6
Continuous
 62
     7
100
AcDbLine
 10
102.0
 20
78.67067690341574
 30
0.0
 11
102.0
 21
-131.3293230965842
 31
0.0
  0
LINE
  5
3A0
330
50F
100
AcDbEntity
  8
DATA
  6
Continuous
 62
     7
100
AcDbLine
 10
57.99999999999999
 20
78.67067690341574
 30
0.0
 11
102.0
 21
78.67067690341574
 31
0.0
  0
LINE
  5
3A1
330
50F
100
AcDbEntity
  8
DATA
  6
Continuous
 62
     7
100
AcDbLine
 10
36.6
 20
-128.1293230965842
 30
0.0
 11
36.60000000000002
 21
75.47067690341575
 31
0.0
  0
LINE
  5
3A2
330
50F
100
AcDbEntity
  8
DATA
  6
Continuous
 62
     7
100
AcDbLine
 10
55.0
 20
-129.7293230965843
 30
0.0
 11
38.2
 21
-129.7293230965843
 31
0.0
  0
LINE
  5
3A3
330
50F
100
AcDbEntity
  8
DATA
  6
Continuous
 62
     7
100
AcDbLine
 10
38.2
 20
77.07067690341573
 30
0.0
 11
55.0
 21
77.07067690341573
 31
0.0
  0
ARC
  5
3A4
330
50F
100
AcDbEntity
  8
DATA
  6
Continuous
 62
     7
100
AcDbCircle
 10
38.2
 20
75.47067690341569
 30
0.0
 40
1.600000000000022
100
AcDbArc
 50
90.0
 51
179.9999999999994
  0
ARC
  5
3A5
330
50F
100
AcDbEntity
  8
DATA
  6
Continuous
 62
     7
100
AcDbCircle
 10
36.6
 20
77.07067690341573
 30
0.0
 40
1.599999999999994
100
AcDbArc
 50
90.0
 51
180.0
  0
ARC
  5
3A6
330
50F
100
AcDbEntity
  8
DATA
  6
Continuous
 62
     7
100
AcDbCircle
 10
38.20000000000001
 20
-128.1293230965842
 30
0.0
 40
1.600000000000008
100
AcDbArc
 50
180.0
 51
269.9999999999998
  0
ARC
  5
3A7
330
50F
100
AcDbEntity
  8
DATA
  6
Continuous
 62
     7
100
AcDbCircle
 10
36.6
 20
-129.7293230965843
 30
0.0
 40
1.599999999999994
100
AcDbArc
 50
180.0
 51
270.0000000000003
  0
LINE
  5
3A8
330
50F
100
AcDbEntity
  8
DATA
  6
Continuous
 62
     7
100
AcDbLine
 10
57.99999999999999
 20
77.07067690341573
 30
0.0
 11
102.0
 21
77.07067690341573
 31
0.0
  0
LINE
  5
3A9
330
50F
100
AcDbEntity
  8
DATA
  6
Continuous
 62
     7
100
AcDbLine
 10
102.0
 20
-129.7293230965843
 30
0.0
 11
57.99999999999999
 21
-129.7293230965843
 31
0.0
  0
LINE
  5
3AA
330
50F
100
AcDbEntity
  8
DATA
  6
Continuous
 62
     7
100
AcDbLine
 10
60.49999999999999
 20
85.0
 30
0.0
 11
99.49999999999999
 21
85.0
 31
0.0
  0
LINE
  5
3AB
330
50F
100
AcDbEntity
  8
DATA
  6
Continuous
 62
     7
100
AcDbLine
 10
57.99999999999997
 20
105.0
 30
0.0
 11
102.0
 21
105.0
 31
0.0
  0
LINE
  5
3AC
330
50F
100
AcDbEntity
  8
DATA
  6
Continuous
 62
     7
100
AcDbLine
 10
57.99999999999999
 20
87.5
 30
0.0
 11
57.99999999999999
 21
105.0
 31
0.0
  0
LINE
  5
3AD
330
50F
100
AcDbEntity
  8
DATA
  6
Continuous
 62
     7
100
AcDbLine
 10
102.0
 20
87.5
 30
0.0
 11
102.0
 21
105.0
 31
0.0
  0
ARC
  5
3AE
330
50F
100
AcDbEntity
  8
DATA
  6
Continuous
 62
     7
100
AcDbCircle
 10
60.49999999999999
 20
87.5
 30
0.0
 40
2.5
100
AcDbArc
 50
180.0
 51
270.0
  0
ARC
  5
3AF
330
50F
100
AcDbEntity
  8
DATA
  6
Continuous
 62
     7
100
AcDbCircle
 10
99.49999999999999
 20
87.5
 30
0.0
 40
2.5
100
AcDbArc
 50
270.0
 51
0.0
  0
CIRCLE
  5
3B0
330
50F
100
AcDbEntity
  8
DATA
  6
Continuous
 62
     7
100
AcDbCircle
 10
67.74999999999998
 20
91.0
 30
0.0
 40
2.150000000000005
  0
CIRCLE
  5
3B1
330
50F
100
AcDbEntity
  8
DATA
  6
Continuous
 62
     7
100
AcDbCircle
 10
75.74999999999999
 20
91.0
 30
0.0
 40
2.150000000000005
  0
CIRCLE
  5
3B2
330
50F
100
AcDbEntity
  8
DATA
  6
Continuous
 62
     7
100
AcDbCircle
 10
92.24999999999999
 20
91.0
 30
0.0
 40
2.150000000000005
  0
CIRCLE
  5
3B3
330
50F
100
AcDbEntity
  8
DATA
  6
Continuous
 62
     7
100
AcDbCircle
 10
84.24999999999998
 20
91.0
 30
0.0
 40
2.150000000000005
  0
ARC
  5
3B4
330
50F
100
AcDbEntity
  8
DATA
  6
Continuous
 62
     7
100
AcDbCircle
 10
60.49999999999999
 20
-142.5
 30
0.0
 40
2.5
100
AcDbArc
 50
90.0
 51
180.0
  0
LINE
  5
3B5
330
50F
100
AcDbEntity
  8
DATA
  6
Continuous
 62
     7
100
AcDbLine
 10
58.0
 20
-160.0
 30
0.0
 11
57.99999999999999
 21
-142.5
 31
0.0
  0
LINE
  5
3B6
330
50F
100
AcDbEntity
  8
DATA
  6
Continuous
 62
     7
100
AcDbLine
 10
102.0
 20
-160.0
 30
0.0
 11
58.0
 21
-160.0
 31
0.0
  0
LINE
  5
3B7
330
50F
100
AcDbEntity
  8
DATA
  6
Continuous
 62
     7
100
AcDbLine
 10
102.0
 20
-142.5
 30
0.0
 11
102.0
 21
-160.0
 31
0.0
  0
ARC
  5
3B8
330
50F
100
AcDbEntity
  8
DATA
  6
Continuous
 62
     7
100
AcDbCircle
 10
99.49999999999999
 20
-142.5
 30
0.0
 40
2.5
100
AcDbArc
 50
0.0
 51
90.0
  0
LINE
  5
3B9
330
50F
100
AcDbEntity
  8
DATA
  6
Continuous
 62
     7
100
AcDbLine
 10
60.49999999999999
 20
-140.0
 30
0.0
 11
99.49999999999999
 21
-140.0
 31
0.0
  0
CIRCLE
  5
3BA
330
50F
100
AcDbEntity
  8
DATA
  6
Continuous
 62
     7
100
AcDbCircle
 10
67.24999999999998
 20
-146.0
 30
0.0
 40
1.450000000000002
  0
CIRCLE
  5
3BB
330
50F
100
AcDbEntity
  8
DATA
  6
Continuous
 62
     7
100
AcDbCircle
 10
92.74999999999998
 20
-146.0
 30
0.0
 40
1.450000000000002
  0
LINE
  5
3BC
330
50F
100
AcDbEntity
  8
DATA
  6
Continuous
 62
     7
100
AcDbLine
 10
94.19999999999999
 20
-127.9293230965842
 30
0.0
 11
91.29999999999999
 21
-127.9293230965842
 31
0.0
  0
LINE
  5
3BD
330
50F
100
AcDbEntity
  8
DATA
  6
Continuous
 62
     7
100
AcDbLine
 10
68.69999999999999
 20
-127.9293230965842
 30
0.0
 11
65.8
 21
-127.9293230965842
 31
0.0
  0
LINE
  5
3BE
330
50F
100
AcDbEntity
  8
DATA
  6
Continuous
 62
     7
100
AcDbLine
 10
65.79999999999998
 20
-129.7293230965843
 30
0.0
 11
65.79999999999998
 21
-127.9293230965842
 31
0.0
  0
LINE
  5
3BF
330
50F
100
AcDbEntity
  8
DATA
  6
Continuous
 62
     7
100
AcDbLine
 10
68.69999999999999
 20
-129.7293230965843
 30
0.0
 11
68.69999999999999
 21
-127.9293230965842
 31
0.0
  0
LINE
  5
3C0
330
50F
100
AcDbEntity
  8
DATA
  6
Continuous
 62
     7
100
AcDbLine
 10
91.29999999999999
 20
-129.7293230965843
 30
0.0
 11
91.29999999999999
 21
-127.9293230965842
 31
0.0
  0
LINE
  5
3C1
330
50F
100
AcDbEntity
  8
DATA
  6
Continuous
 62
     7
100
AcDbLine
 10
94.19999999999999
 20
-129.7293230965843
 30
0.0
 11
94.19999999999999
 21
-127.9293230965842
 31
0.0
  0
TEXT
  5
3C2
330
50F
100
AcDbEntity
  8
DATA
 62
     7
100
AcDbText
 10
29.90335986258291
 20
-194.0721029252624
 30
0.0
 40
8.144205850524794
  1
ロングアングルブラケット
 41
0.7
 72
     1
 11
70.0
 21
-190.0
 31
0.0
100
AcDbText
 73
     2
  0
LINE
  5
3C3
330
50F
100
AcDbEntity
  8
DATA
  6
Continuous
 62
     7
100
AcDbLine
 10
175.0
 20
-17.0
 30
0.0
 11
175.0
 21
79.0
 31
0.0
  0
LINE
  5
3C4
330
50F
100
AcDbEntity
  8
DATA
  6
Continuous
 62
     7
100
AcDbLine
 10
222.0
 20
-20.0
 30
0.0
 11
178.0
 21
-20.0
 31
0.0
  0
LINE
  5
3C5
330
50F
100
AcDbEntity
  8
DATA
  6
Continuous
 62
     7
100
AcDbLine
 10
225.0
 20
79.0
 30
0.0
 11
225.0
 21
-17.0
 31
0.0
  0
LINE
  5
3C6
330
50F
100
AcDbEntity
  8
DATA
  6
Continuous
 62
     7
100
AcDbLine
 10
178.0
 20
82.0
 30
0.0
 11
222.0
 21
82.0
 31
0.0
  0
LINE
  5
3C7
330
50F
100
AcDbEntity
  8
DATA
  6
Continuous
 62
     7
100
AcDbLine
 10
178.0
 20
-130.0
 30
0.0
 11
178.0
 21
-101.5
 31
0.0
  0
LINE
  5
3C8
330
50F
100
AcDbEntity
  8
DATA
  6
Continuous
 62
     7
100
AcDbLine
 10
222.0
 20
-130.0
 30
0.0
 11
178.0
 21
-130.0
 31
0.0
  0
LINE
  5
3C9
330
50F
100
AcDbEntity
  8
DATA
  6
Continuous
 62
     7
100
AcDbLine
 10
222.0
 20
-101.5
 30
0.0
 11
222.0
 21
-130.0
 31
0.0
  0
LINE
  5
3CA
330
50F
100
AcDbEntity
  8
DATA
  6
Continuous
 62
     7
100
AcDbLine
 10
180.5
 20
-99.0
 30
0.0
 11
219.5
 21
-99.0
 31
0.0
  0
LINE
  5
3CB
330
50F
100
AcDbEntity
  8
DATA
  6
Continuous
 62
     7
100
AcDbLine
 10
230.0
 20
-130.0
 30
0.0
 11
230.0
 21
-128.3
 31
0.0
  0
LINE
  5
3CC
330
50F
100
AcDbEntity
  8
DATA
  6
Continuous
 62
     7
100
AcDbLine
 10
247.5
 20
-130.0
 30
0.0
 11
230.0
 21
-130.0
 31
0.0
  0
LINE
  5
3CD
330
50F
100
AcDbEntity
  8
DATA
  6
Continuous
 62
     7
100
AcDbLine
 10
250.0
 20
-99.0
 30
0.0
 11
250.0
 21
-127.5
 31
0.0
  0
LINE
  5
3CE
330
50F
100
AcDbEntity
  8
DATA
  6
Continuous
 62
     7
100
AcDbLine
 10
248.3
 20
-99.0
 30
0.0
 11
250.0
 21
-99.0
 31
0.0
  0
LINE
  5
3CF
330
50F
100
AcDbEntity
  8
DATA
  6
Continuous
 62
     7
100
AcDbLine
 10
245.8
 20
-128.3
 30
0.0
 11
230.0
 21
-128.3
 31
0.0
  0
LINE
  5
3D0
330
50F
100
AcDbEntity
  8
DATA
  6
Continuous
 62
     7
100
AcDbLine
 10
248.3
 20
-99.0
 30
0.0
 11
248.3
 21
-125.8
 31
0.0
  0
ARC
  5
3D1
330
50F
100
AcDbEntity
  8
DATA
  6
Continuous
 62
     7
100
AcDbCircle
 10
245.8
 20
-125.8
 30
0.0
 40
2.5
100
AcDbArc
 50
270.0
 51
0.0
  0
ARC
  5
3D2
330
50F
100
AcDbEntity
  8
DATA
  6
Continuous
 62
     7
100
AcDbCircle
 10
247.5
 20
-127.5
 30
0.0
 40
2.5
100
AcDbArc
 50
270.0
 51
0.0
  0
ARC
  5
3D3
330
50F
100
AcDbEntity
  8
DATA
  6
Continuous
 62
     7
100
AcDbCircle
 10
184.1
 20
-105.2
 30
0.0
 40
3.5
100
AcDbArc
 50
359.9999999999997
 51
180.0000000000002
  0
ARC
  5
3D4
330
50F
100
AcDbEntity
  8
DATA
  6
Continuous
 62
     7
100
AcDbCircle
 10
184.1
 20
-108.2
 30
0.0
 40
3.500000000000028
100
AcDbArc
 50
180.0
 51
0.0
  0
LINE
  5
3D5
330
50F
100
AcDbEntity
  8
DATA
  6
Continuous
 62
     7
100
AcDbLine
 10
180.6
 20
-108.2
 30
0.0
 11
180.6
 21
-105.2
 31
0.0
  0
LINE
  5
3D6
330
50F
100
AcDbEntity
  8
DATA
  6
Continuous
 62
     7
100
AcDbLine
 10
187.6
 20
-108.2
 30
0.0
 11
187.6
 21
-105.2
 31
0.0
  0
ARC
  5
3D7
330
50F
100
AcDbEntity
  8
DATA
  6
Continuous
 62
     7
100
AcDbCircle
 10
215.9
 20
-105.2
 30
0.0
 40
3.5
100
AcDbArc
 50
359.9999999999997
 51
180.0000000000002
  0
ARC
  5
3D8
330
50F
100
AcDbEntity
  8
DATA
  6
Continuous
 62
     7
100
AcDbCircle
 10
215.9
 20
-108.2
 30
0.0
 40
3.500000000000028
100
AcDbArc
 50
180.0
 51
0.0
  0
LINE
  5
3D9
330
50F
100
AcDbEntity
  8
DATA
  6
Continuous
 62
     7
100
AcDbLine
 10
219.4
 20
-108.2
 30
0.0
 11
219.4
 21
-105.2
 31
0.0
  0
LINE
  5
3DA
330
50F
100
AcDbEntity
  8
DATA
  6
Continuous
 62
     7
100
AcDbLine
 10
212.4
 20
-108.2
 30
0.0
 11
212.4
 21
-105.2
 31
0.0
  0
LINE
  5
3DB
330
50F
100
AcDbEntity
  8
DATA
  6
Continuous
 62
     7
100
AcDbLine
 10
180.5
 20
-160.0
 30
0.0
 11
219.5
 21
-160.0
 31
0.0
  0
LINE
  5
3DC
330
50F
100
AcDbEntity
  8
DATA
  6
Continuous
 62
     7
100
AcDbLine
 10
178.0
 20
-140.0
 30
0.0
 11
222.0
 21
-140.0
 31
0.0
  0
LINE
  5
3DD
330
50F
100
AcDbEntity
  8
DATA
  6
Continuous
 62
     7
100
AcDbLine
 10
178.0
 20
-157.5
 30
0.0
 11
178.0
 21
-140.0
 31
0.0
  0
LINE
  5
3DE
330
50F
100
AcDbEntity
  8
DATA
  6
Continuous
 62
     7
100
AcDbLine
 10
222.0
 20
-157.5
 30
0.0
 11
222.0
 21
-140.0
 31
0.0
  0
ARC
  5
3DF
330
50F
100
AcDbEntity
  8
DATA
  6
Continuous
 62
     7
100
AcDbCircle
 10
180.5
 20
-157.5
 30
0.0
 40
2.5
100
AcDbArc
 50
180.0
 51
270.0
  0
ARC
  5
3E0
330
50F
100
AcDbEntity
  8
DATA
  6
Continuous
 62
     7
100
AcDbCircle
 10
219.5
 20
-157.5
 30
0.0
 40
2.5
100
AcDbArc
 50
270.0
 51
0.0
  0
CIRCLE
  5
3E1
330
50F
100
AcDbEntity
  8
DATA
  6
Continuous
 62
     7
100
AcDbCircle
 10
187.75
 20
-154.0
 30
0.0
 40
2.150000000000005
  0
CIRCLE
  5
3E2
330
50F
100
AcDbEntity
  8
DATA
  6
Continuous
 62
     7
100
AcDbCircle
 10
195.75
 20
-154.0
 30
0.0
 40
2.150000000000005
  0
CIRCLE
  5
3E3
330
50F
100
AcDbEntity
  8
DATA
  6
Continuous
 62
     7
100
AcDbCircle
 10
212.25
 20
-154.0
 30
0.0
 40
2.150000000000005
  0
CIRCLE
  5
3E4
330
50F
100
AcDbEntity
  8
DATA
  6
Continuous
 62
     7
100
AcDbCircle
 10
204.25
 20
-154.0
 30
0.0
 40
2.150000000000005
  0
LINE
  5
3E5
330
50F
100
AcDbEntity
  8
DATA
  6
Continuous
 62
     7
100
AcDbLine
 10
5.0
 20
-200.0
 30
0.0
 11
135.0
 21
-200.0
 31
0.0
  0
TEXT
  5
3E6
330
50F
100
AcDbEntity
  8
DATA
 62
     7
100
AcDbText
 10
180.5451221739353
 20
-194.0721029252624
 30
0.0
 40
8.144205850524794
  1
アングルブラケット
 41
0.7
 72
     1
 11
210.0
 21
-190.0
 31
0.0
100
AcDbText
 73
     2
  0
LINE
  5
3E7
330
50F
100
AcDbEntity
  8
DATA
  6
Continuous
 62
     7
100
AcDbLine
 10
160.0
 20
-200.0
 30
0.0
 11
260.0
 21
-200.0
 31
0.0
  0
ARC
  5
3E8
330
50F
100
AcDbEntity
  8
DATA
  6
Continuous
 62
     7
100
AcDbCircle
 10
178.0
 20
79.0
 30
0.0
 40
3.0
100
AcDbArc
 50
90.0
 51
180.0
  0
ARC
  5
3E9
330
50F
100
AcDbEntity
  8
DATA
  6
Continuous
 62
     7
100
AcDbCircle
 10
222.0
 20
79.0
 30
0.0
 40
3.0
100
AcDbArc
 50
0.0
 51
90.0
  0
ARC
  5
3EA
330
50F
100
AcDbEntity
  8
DATA
  6
Continuous
 62
     7
100
AcDbCircle
 10
178.0
 20
-17.0
 30
0.0
 40
3.0
100
AcDbArc
 50
180.0
 51
270.0
  0
ARC
  5
3EB
330
50F
100
AcDbEntity
  8
DATA
  6
Continuous
 62
     7
100
AcDbCircle
 10
222.0
 20
-17.0
 30
0.0
 40
3.0
100
AcDbArc
 50
270.0
 51
0.0
  0
TEXT
  5
3EC
330
50F
100
AcDbEntity
  8
DATA
 62
     7
100
AcDbText
 10
180.3550907040897
 20
-54.0721029252624
 30
0.0
 40
8.144205850524794
  1
フラットブラケット
 41
0.7
 72
     1
 11
210.0
 21
-50.0
 31
0.0
100
AcDbText
 73
     2
  0
CIRCLE
  5
3ED
330
50F
100
AcDbEntity
  8
DATA
  6
Continuous
 62
     7
100
AcDbCircle
 10
185.5
 20
71.75
 30
0.0
 40
2.400000000000005
  0
CIRCLE
  5
3EE
330
50F
100
AcDbEntity
  8
DATA
  6
Continuous
 62
     7
100
AcDbCircle
 10
214.5
 20
71.75
 30
0.0
 40
2.400000000000005
  0
CIRCLE
  5
3EF
330
50F
100
AcDbEntity
  8
DATA
  6
Continuous
 62
     7
100
AcDbCircle
 10
185.5
 20
71.75
 30
0.0
 40
3.5
  0
CIRCLE
  5
3F0
330
50F
100
AcDbEntity
  8
DATA
  6
Continuous
 62
     7
100
AcDbCircle
 10
214.5
 20
71.75
 30
0.0
 40
3.5
  0
CIRCLE
  5
3F1
330
50F
100
AcDbEntity
  8
DATA
  6
Continuous
 62
     7
100
AcDbCircle
 10
185.5
 20
-9.75
 30
0.0
 40
2.400000000000005
  0
CIRCLE
  5
3F2
330
50F
100
AcDbEntity
  8
DATA
  6
Continuous
 62
     7
100
AcDbCircle
 10
214.5
 20
-9.75
 30
0.0
 40
2.400000000000005
  0
CIRCLE
  5
3F3
330
50F
100
AcDbEntity
  8
DATA
  6
Continuous
 62
     7
100
AcDbCircle
 10
185.5
 20
-9.75
 30
0.0
 40
3.5
  0
CIRCLE
  5
3F4
330
50F
100
AcDbEntity
  8
DATA
  6
Continuous
 62
     7
100
AcDbCircle
 10
214.5
 20
-9.75
 30
0.0
 40
3.5
  0
LINE
  5
3F5
330
50F
100
AcDbEntity
  8
DATA
  6
Continuous
 62
     7
100
AcDbLine
 10
160.0
 20
-60.0
 30
0.0
 11
260.0
 21
-60.0
 31
0.0
  0
ARC
  5
3F6
330
50F
100
AcDbEntity
  8
DATA
  6
Continuous
 62
     7
100
AcDbCircle
 10
180.5
 20
-101.5
 30
0.0
 40
2.5
100
AcDbArc
 50
90.0
 51
180.0
  0
ARC
  5
3F7
330
50F
100
AcDbEntity
  8
DATA
  6
Continuous
 62
     7
100
AcDbCircle
 10
219.5
 20
-101.5
 30
0.0
 40
2.5
100
AcDbArc
 50
0.0
 51
90.0
  0
LINE
  5
3F8
330
50F
100
AcDbEntity
  8
DATA
  6
Continuous
 62
     7
100
AcDbLine
 10
240.0
 20
-20.0
 30
0.0
 11
240.0
 21
82.00000000000001
 31
0.0
  0
LINE
  5
3F9
330
50F
100
AcDbEntity
  8
DATA
  6
Continuous
 62
     7
100
AcDbLine
 10
241.6
 20
-20.0
 30
0.0
 11
241.6
 21
82.00000000000001
 31
0.0
  0
LINE
  5
3FA
330
50F
100
AcDbEntity
  8
DATA
  6
Continuous
 62
     7
100
AcDbLine
 10
240.0
 20
82.0
 30
0.0
 11
241.6
 21
82.0
 31
0.0
  0
LINE
  5
3FB
330
50F
100
AcDbEntity
  8
DATA
  6
Continuous
 62
     7
100
AcDbLine
 10
240.0
 20
-20.0
 30
0.0
 11
241.6
 21
-20.0
 31
0.0
  0
TEXT
  5
3FC
330
50F
100
AcDbEntity
  8
DATA
 62
     7
100
AcDbText
 10
150.0
 20
-327.7937
 30
0.0
 40
7.329785156249999
  1
JBL PROFESSIONAL
 41
0.7
 11
150.0
 21
-320.46391484375
 31
0.0
100
AcDbText
 73
     3
  0
LINE
  5
3FD
330
50F
100
AcDbEntity
  8
DATA
  6
Continuous
 62
     7
100
AcDbLine
 10
157.0
 20
-280.0
 30
0.0
 11
-18.0
 21
-280.0
 31
0.0
  0
LINE
  5
3FE
330
50F
100
AcDbEntity
  8
DATA
  6
Continuous
 62
     7
100
AcDbLine
 10
157.0
 20
-236.0
 30
0.0
 11
-20.00000000000003
 21
-236.0
 31
0.0
  0
LINE
  5
3FF
330
50F
100
AcDbEntity
  8
DATA
  6
Continuous
 62
     7
100
AcDbLine
 10
158.0
 20
-279.0
 30
0.0
 11
158.0
 21
-237.0
 31
0.0
  0
LINE
  5
400
330
50F
100
AcDbEntity
  8
DATA
  6
Continuous
 62
     7
100
AcDbLine
 10
-20.0
 20
-278.0
 30
0.0
 11
-20.0
 21
-236.0
 31
0.0
  0
LINE
  5
401
330
50F
100
AcDbEntity
  8
DATA
  6
Continuous
 62
     7
100
AcDbLine
 10
157.0
 20
-246.0
 30
0.0
 11
-18.0
 21
-246.0
 31
0.0
  0
LINE
  5
402
330
50F
100
AcDbEntity
  8
DATA
  6
Continuous
 62
     7
100
AcDbLine
 10
-18.0
 20
-278.0
 30
0.0
 11
-18.0
 21
-236.0
 31
0.0
  0
LINE
  5
403
330
50F
100
AcDbEntity
  8
DATA
  6
Continuous
 62
     7
100
AcDbLine
 10
157.0
 20
-278.0
 30
0.0
 11
157.0
 21
-237.0
 31
0.0
  0
ARC
  5
404
330
50F
100
AcDbEntity
  8
DATA
  6
Continuous
 62
     7
100
AcDbCircle
 10
157.0
 20
-237.0
 30
0.0
 40
1.0
100
AcDbArc
 50
0.0
 51
90.0
  0
LINE
  5
405
330
50F
100
AcDbEntity
  8
DATA
  6
Continuous
 62
     7
100
AcDbLine
 10
156.0
 20
-279.0
 30
0.0
 11
150.0
 21
-279.0
 31
0.0
  0
LINE
  5
406
330
50F
100
AcDbEntity
  8
DATA
  6
Continuous
 62
     7
100
AcDbLine
 10
150.0
 20
-279.0
 30
0.0
 11
150.0
 21
-280.0
 31
0.0
  0
ARC
  5
407
330
50F
100
AcDbEntity
  8
DATA
  6
Continuous
 62
     7
100
AcDbCircle
 10
157.0
 20
-279.0
 30
0.0
 40
1.0
100
AcDbArc
 50
270.0
 51
0.0
  0
ARC
  5
408
330
50F
100
AcDbEntity
  8
DATA
  6
Continuous
 62
     7
100
AcDbCircle
 10
156.0
 20
-278.0
 30
0.0
 40
1.0
100
AcDbArc
 50
270.0
 51
0.0
  0
ARC
  5
409
330
50F
100
AcDbEntity
  8
DATA
  6
Continuous
 62
     7
100
AcDbCircle
 10
-18.0
 20
-278.0
 30
0.0
 40
2.0
100
AcDbArc
 50
180.0
 51
270.0
  0
LINE
  5
40A
330
50F
100
AcDbEntity
  8
DATA
  6
Continuous
 62
     7
100
AcDbLine
 10
-18.0
 20
-278.0
 30
0.0
 11
-20.0
 21
-278.0
 31
0.0
  0
CIRCLE
  5
40B
330
50F
100
AcDbEntity
  8
DATA
  6
Continuous
 62
     7
100
AcDbCircle
 10
139.5
 20
-266.5
 30
0.0
 40
1.75
  0
CIRCLE
  5
40C
330
50F
100
AcDbEntity
  8
DATA
  6
Continuous
 62
     7
100
AcDbCircle
 10
122.5
 20
-266.5
 30
0.0
 40
1.75
  0
CIRCLE
  5
40D
330
50F
100
AcDbEntity
  8
DATA
  6
Continuous
 62
     7
100
AcDbCircle
 10
6.0
 20
-251.0
 30
0.0
 40
1.199999999999988
  0
CIRCLE
  5
40E
330
50F
100
AcDbEntity
  8
DATA
  6
Continuous
 62
     7
100
AcDbCircle
 10
6.0
 20
-255.5
 30
0.0
 40
1.199999999999988
  0
CIRCLE
  5
40F
330
50F
100
AcDbEntity
  8
DATA
  6
Continuous
 62
     7
100
AcDbCircle
 10
6.0
 20
-260.0
 30
0.0
 40
1.199999999999988
  0
CIRCLE
  5
410
330
50F
100
AcDbEntity
  8
DATA
  6
Continuous
 62
     7
100
AcDbCircle
 10
6.0
 20
-264.5
 30
0.0
 40
1.199999999999988
  0
CIRCLE
  5
411
330
50F
100
AcDbEntity
  8
DATA
  6
Continuous
 62
     7
100
AcDbCircle
 10
10.5
 20
-251.0
 30
0.0
 40
1.199999999999988
  0
CIRCLE
  5
412
330
50F
100
AcDbEntity
  8
DATA
  6
Continuous
 62
     7
100
AcDbCircle
 10
10.5
 20
-255.5
 30
0.0
 40
1.199999999999988
  0
CIRCLE
  5
413
330
50F
100
AcDbEntity
  8
DATA
  6
Continuous
 62
     7
100
AcDbCircle
 10
10.5
 20
-260.0
 30
0.0
 40
1.199999999999988
  0
CIRCLE
  5
414
330
50F
100
AcDbEntity
  8
DATA
  6
Continuous
 62
     7
100
AcDbCircle
 10
10.5
 20
-264.5
 30
0.0
 40
1.199999999999988
  0
CIRCLE
  5
415
330
50F
100
AcDbEntity
  8
DATA
  6
Continuous
 62
     7
100
AcDbCircle
 10
15.0
 20
-251.0
 30
0.0
 40
1.199999999999988
  0
CIRCLE
  5
416
330
50F
100
AcDbEntity
  8
DATA
  6
Continuous
 62
     7
100
AcDbCircle
 10
15.0
 20
-255.5
 30
0.0
 40
1.199999999999988
  0
CIRCLE
  5
417
330
50F
100
AcDbEntity
  8
DATA
  6
Continuous
 62
     7
100
AcDbCircle
 10
15.0
 20
-260.0
 30
0.0
 40
1.199999999999988
  0
CIRCLE
  5
418
330
50F
100
AcDbEntity
  8
DATA
  6
Continuous
 62
     7
100
AcDbCircle
 10
15.0
 20
-264.5
 30
0.0
 40
1.199999999999988
  0
CIRCLE
  5
419
330
50F
100
AcDbEntity
  8
DATA
  6
Continuous
 62
     7
100
AcDbCircle
 10
19.5
 20
-251.0
 30
0.0
 40
1.199999999999988
  0
CIRCLE
  5
41A
330
50F
100
AcDbEntity
  8
DATA
  6
Continuous
 62
     7
100
AcDbCircle
 10
19.5
 20
-255.5
 30
0.0
 40
1.199999999999988
  0
CIRCLE
  5
41B
330
50F
100
AcDbEntity
  8
DATA
  6
Continuous
 62
     7
100
AcDbCircle
 10
19.5
 20
-260.0
 30
0.0
 40
1.199999999999988
  0
CIRCLE
  5
41C
330
50F
100
AcDbEntity
  8
DATA
  6
Continuous
 62
     7
100
AcDbCircle
 10
19.5
 20
-264.5
 30
0.0
 40
1.199999999999988
  0
CIRCLE
  5
41D
330
50F
100
AcDbEntity
  8
DATA
  6
Continuous
 62
     7
100
AcDbCircle
 10
24.0
 20
-251.0
 30
0.0
 40
1.199999999999988
  0
CIRCLE
  5
41E
330
50F
100
AcDbEntity
  8
DATA
  6
Continuous
 62
     7
100
AcDbCircle
 10
24.0
 20
-255.5
 30
0.0
 40
1.199999999999988
  0
CIRCLE
  5
41F
330
50F
100
AcDbEntity
  8
DATA
  6
Continuous
 62
     7
100
AcDbCircle
 10
24.0
 20
-260.0
 30
0.0
 40
1.199999999999988
  0
CIRCLE
  5
420
330
50F
100
AcDbEntity
  8
DATA
  6
Continuous
 62
     7
100
AcDbCircle
 10
24.0
 20
-264.5
 30
0.0
 40
1.199999999999988
  0
CIRCLE
  5
421
330
50F
100
AcDbEntity
  8
DATA
  6
Continuous
 62
     7
100
AcDbCircle
 10
28.5
 20
-251.0
 30
0.0
 40
1.199999999999988
  0
CIRCLE
  5
422
330
50F
100
AcDbEntity
  8
DATA
  6
Continuous
 62
     7
100
AcDbCircle
 10
28.5
 20
-255.5
 30
0.0
 40
1.199999999999988
  0
CIRCLE
  5
423
330
50F
100
AcDbEntity
  8
DATA
  6
Continuous
 62
     7
100
AcDbCircle
 10
28.5
 20
-260.0
 30
0.0
 40
1.199999999999988
  0
CIRCLE
  5
424
330
50F
100
AcDbEntity
  8
DATA
  6
Continuous
 62
     7
100
AcDbCircle
 10
28.5
 20
-264.5
 30
0.0
 40
1.199999999999988
  0
CIRCLE
  5
425
330
50F
100
AcDbEntity
  8
DATA
  6
Continuous
 62
     7
100
AcDbCircle
 10
33.0
 20
-251.0
 30
0.0
 40
1.199999999999988
  0
CIRCLE
  5
426
330
50F
100
AcDbEntity
  8
DATA
  6
Continuous
 62
     7
100
AcDbCircle
 10
33.0
 20
-255.5
 30
0.0
 40
1.199999999999988
  0
CIRCLE
  5
427
330
50F
100
AcDbEntity
  8
DATA
  6
Continuous
 62
     7
100
AcDbCircle
 10
33.0
 20
-260.0
 30
0.0
 40
1.199999999999988
  0
CIRCLE
  5
428
330
50F
100
AcDbEntity
  8
DATA
  6
Continuous
 62
     7
100
AcDbCircle
 10
33.0
 20
-264.5
 30
0.0
 40
1.199999999999988
  0
CIRCLE
  5
429
330
50F
100
AcDbEntity
  8
DATA
  6
Continuous
 62
     7
100
AcDbCircle
 10
37.5
 20
-251.0
 30
0.0
 40
1.199999999999988
  0
CIRCLE
  5
42A
330
50F
100
AcDbEntity
  8
DATA
  6
Continuous
 62
     7
100
AcDbCircle
 10
37.5
 20
-255.5
 30
0.0
 40
1.199999999999988
  0
CIRCLE
  5
42B
330
50F
100
AcDbEntity
  8
DATA
  6
Continuous
 62
     7
100
AcDbCircle
 10
37.5
 20
-260.0
 30
0.0
 40
1.199999999999988
  0
CIRCLE
  5
42C
330
50F
100
AcDbEntity
  8
DATA
  6
Continuous
 62
     7
100
AcDbCircle
 10
37.5
 20
-264.5
 30
0.0
 40
1.199999999999988
  0
CIRCLE
  5
42D
330
50F
100
AcDbEntity
  8
DATA
  6
Continuous
 62
     7
100
AcDbCircle
 10
42.0
 20
-251.0
 30
0.0
 40
1.199999999999988
  0
CIRCLE
  5
42E
330
50F
100
AcDbEntity
  8
DATA
  6
Continuous
 62
     7
100
AcDbCircle
 10
42.0
 20
-255.5
 30
0.0
 40
1.199999999999988
  0
CIRCLE
  5
42F
330
50F
100
AcDbEntity
  8
DATA
  6
Continuous
 62
     7
100
AcDbCircle
 10
42.0
 20
-260.0
 30
0.0
 40
1.199999999999988
  0
CIRCLE
  5
430
330
50F
100
AcDbEntity
  8
DATA
  6
Continuous
 62
     7
100
AcDbCircle
 10
42.0
 20
-264.5
 30
0.0
 40
1.199999999999988
  0
CIRCLE
  5
431
330
50F
100
AcDbEntity
  8
DATA
  6
Continuous
 62
     7
100
AcDbCircle
 10
46.5
 20
-251.0
 30
0.0
 40
1.199999999999988
  0
CIRCLE
  5
432
330
50F
100
AcDbEntity
  8
DATA
  6
Continuous
 62
     7
100
AcDbCircle
 10
46.5
 20
-255.5
 30
0.0
 40
1.199999999999988
  0
CIRCLE
  5
433
330
50F
100
AcDbEntity
  8
DATA
  6
Continuous
 62
     7
100
AcDbCircle
 10
46.5
 20
-260.0
 30
0.0
 40
1.199999999999988
  0
CIRCLE
  5
434
330
50F
100
AcDbEntity
  8
DATA
  6
Continuous
 62
     7
100
AcDbCircle
 10
46.5
 20
-264.5
 30
0.0
 40
1.199999999999988
  0
CIRCLE
  5
435
330
50F
100
AcDbEntity
  8
DATA
  6
Continuous
 62
     7
100
AcDbCircle
 10
51.0
 20
-251.0
 30
0.0
 40
1.199999999999988
  0
CIRCLE
  5
436
330
50F
100
AcDbEntity
  8
DATA
  6
Continuous
 62
     7
100
AcDbCircle
 10
51.0
 20
-255.5
 30
0.0
 40
1.199999999999988
  0
CIRCLE
  5
437
330
50F
100
AcDbEntity
  8
DATA
  6
Continuous
 62
     7
100
AcDbCircle
 10
51.0
 20
-260.0
 30
0.0
 40
1.199999999999988
  0
CIRCLE
  5
438
330
50F
100
AcDbEntity
  8
DATA
  6
Continuous
 62
     7
100
AcDbCircle
 10
51.0
 20
-264.5
 30
0.0
 40
1.199999999999988
  0
CIRCLE
  5
439
330
50F
100
AcDbEntity
  8
DATA
  6
Continuous
 62
     7
100
AcDbCircle
 10
55.5
 20
-251.0
 30
0.0
 40
1.199999999999988
  0
CIRCLE
  5
43A
330
50F
100
AcDbEntity
  8
DATA
  6
Continuous
 62
     7
100
AcDbCircle
 10
55.5
 20
-255.5
 30
0.0
 40
1.199999999999988
  0
CIRCLE
  5
43B
330
50F
100
AcDbEntity
  8
DATA
  6
Continuous
 62
     7
100
AcDbCircle
 10
55.5
 20
-260.0
 30
0.0
 40
1.199999999999988
  0
CIRCLE
  5
43C
330
50F
100
AcDbEntity
  8
DATA
  6
Continuous
 62
     7
100
AcDbCircle
 10
55.5
 20
-264.5
 30
0.0
 40
1.199999999999988
  0
CIRCLE
  5
43D
330
50F
100
AcDbEntity
  8
DATA
  6
Continuous
 62
     7
100
AcDbCircle
 10
60.0
 20
-251.0
 30
0.0
 40
1.199999999999988
  0
CIRCLE
  5
43E
330
50F
100
AcDbEntity
  8
DATA
  6
Continuous
 62
     7
100
AcDbCircle
 10
60.0
 20
-255.5
 30
0.0
 40
1.199999999999988
  0
CIRCLE
  5
43F
330
50F
100
AcDbEntity
  8
DATA
  6
Continuous
 62
     7
100
AcDbCircle
 10
60.0
 20
-260.0
 30
0.0
 40
1.199999999999988
  0
CIRCLE
  5
440
330
50F
100
AcDbEntity
  8
DATA
  6
Continuous
 62
     7
100
AcDbCircle
 10
60.0
 20
-264.5
 30
0.0
 40
1.199999999999988
  0
CIRCLE
  5
441
330
50F
100
AcDbEntity
  8
DATA
  6
Continuous
 62
     7
100
AcDbCircle
 10
64.5
 20
-251.0
 30
0.0
 40
1.199999999999988
  0
CIRCLE
  5
442
330
50F
100
AcDbEntity
  8
DATA
  6
Continuous
 62
     7
100
AcDbCircle
 10
64.5
 20
-255.5
 30
0.0
 40
1.199999999999988
  0
CIRCLE
  5
443
330
50F
100
AcDbEntity
  8
DATA
  6
Continuous
 62
     7
100
AcDbCircle
 10
64.5
 20
-260.0
 30
0.0
 40
1.199999999999988
  0
CIRCLE
  5
444
330
50F
100
AcDbEntity
  8
DATA
  6
Continuous
 62
     7
100
AcDbCircle
 10
64.5
 20
-264.5
 30
0.0
 40
1.199999999999988
  0
CIRCLE
  5
445
330
50F
100
AcDbEntity
  8
DATA
  6
Continuous
 62
     7
100
AcDbCircle
 10
69.0
 20
-251.0
 30
0.0
 40
1.199999999999988
  0
CIRCLE
  5
446
330
50F
100
AcDbEntity
  8
DATA
  6
Continuous
 62
     7
100
AcDbCircle
 10
69.0
 20
-255.5
 30
0.0
 40
1.199999999999988
  0
CIRCLE
  5
447
330
50F
100
AcDbEntity
  8
DATA
  6
Continuous
 62
     7
100
AcDbCircle
 10
69.0
 20
-260.0
 30
0.0
 40
1.199999999999988
  0
CIRCLE
  5
448
330
50F
100
AcDbEntity
  8
DATA
  6
Continuous
 62
     7
100
AcDbCircle
 10
69.0
 20
-264.5
 30
0.0
 40
1.199999999999988
  0
CIRCLE
  5
449
330
50F
100
AcDbEntity
  8
DATA
  6
Continuous
 62
     7
100
AcDbCircle
 10
73.5
 20
-251.0
 30
0.0
 40
1.199999999999988
  0
CIRCLE
  5
44A
330
50F
100
AcDbEntity
  8
DATA
  6
Continuous
 62
     7
100
AcDbCircle
 10
73.5
 20
-255.5
 30
0.0
 40
1.199999999999988
  0
CIRCLE
  5
44B
330
50F
100
AcDbEntity
  8
DATA
  6
Continuous
 62
     7
100
AcDbCircle
 10
73.5
 20
-260.0
 30
0.0
 40
1.199999999999988
  0
CIRCLE
  5
44C
330
50F
100
AcDbEntity
  8
DATA
  6
Continuous
 62
     7
100
AcDbCircle
 10
73.5
 20
-264.5
 30
0.0
 40
1.199999999999988
  0
CIRCLE
  5
44D
330
50F
100
AcDbEntity
  8
DATA
  6
Continuous
 62
     7
100
AcDbCircle
 10
78.0
 20
-251.0
 30
0.0
 40
1.199999999999988
  0
CIRCLE
  5
44E
330
50F
100
AcDbEntity
  8
DATA
  6
Continuous
 62
     7
100
AcDbCircle
 10
78.0
 20
-255.5
 30
0.0
 40
1.199999999999988
  0
CIRCLE
  5
44F
330
50F
100
AcDbEntity
  8
DATA
  6
Continuous
 62
     7
100
AcDbCircle
 10
78.0
 20
-260.0
 30
0.0
 40
1.199999999999988
  0
CIRCLE
  5
450
330
50F
100
AcDbEntity
  8
DATA
  6
Continuous
 62
     7
100
AcDbCircle
 10
78.0
 20
-264.5
 30
0.0
 40
1.199999999999988
  0
CIRCLE
  5
451
330
50F
100
AcDbEntity
  8
DATA
  6
Continuous
 62
     7
100
AcDbCircle
 10
82.5
 20
-251.0
 30
0.0
 40
1.199999999999988
  0
CIRCLE
  5
452
330
50F
100
AcDbEntity
  8
DATA
  6
Continuous
 62
     7
100
AcDbCircle
 10
82.5
 20
-255.5
 30
0.0
 40
1.199999999999988
  0
CIRCLE
  5
453
330
50F
100
AcDbEntity
  8
DATA
  6
Continuous
 62
     7
100
AcDbCircle
 10
82.5
 20
-260.0
 30
0.0
 40
1.199999999999988
  0
CIRCLE
  5
454
330
50F
100
AcDbEntity
  8
DATA
  6
Continuous
 62
     7
100
AcDbCircle
 10
82.5
 20
-264.5
 30
0.0
 40
1.199999999999988
  0
CIRCLE
  5
455
330
50F
100
AcDbEntity
  8
DATA
  6
Continuous
 62
     7
100
AcDbCircle
 10
87.0
 20
-251.0
 30
0.0
 40
1.199999999999988
  0
CIRCLE
  5
456
330
50F
100
AcDbEntity
  8
DATA
  6
Continuous
 62
     7
100
AcDbCircle
 10
87.0
 20
-255.5
 30
0.0
 40
1.199999999999988
  0
CIRCLE
  5
457
330
50F
100
AcDbEntity
  8
DATA
  6
Continuous
 62
     7
100
AcDbCircle
 10
87.0
 20
-260.0
 30
0.0
 40
1.199999999999988
  0
CIRCLE
  5
458
330
50F
100
AcDbEntity
  8
DATA
  6
Continuous
 62
     7
100
AcDbCircle
 10
87.0
 20
-264.5
 30
0.0
 40
1.199999999999988
  0
CIRCLE
  5
459
330
50F
100
AcDbEntity
  8
DATA
  6
Continuous
 62
     7
100
AcDbCircle
 10
91.5
 20
-251.0
 30
0.0
 40
1.199999999999988
  0
CIRCLE
  5
45A
330
50F
100
AcDbEntity
  8
DATA
  6
Continuous
 62
     7
100
AcDbCircle
 10
91.5
 20
-255.5
 30
0.0
 40
1.199999999999988
  0
CIRCLE
  5
45B
330
50F
100
AcDbEntity
  8
DATA
  6
Continuous
 62
     7
100
AcDbCircle
 10
91.5
 20
-260.0
 30
0.0
 40
1.199999999999988
  0
CIRCLE
  5
45C
330
50F
100
AcDbEntity
  8
DATA
  6
Continuous
 62
     7
100
AcDbCircle
 10
91.5
 20
-264.5
 30
0.0
 40
1.199999999999988
  0
CIRCLE
  5
45D
330
50F
100
AcDbEntity
  8
DATA
  6
Continuous
 62
     7
100
AcDbCircle
 10
-5.5
 20
-254.5
 30
0.0
 40
1.75
  0
CIRCLE
  5
45E
330
50F
100
AcDbEntity
  8
DATA
  6
Continuous
 62
     7
100
AcDbCircle
 10
-5.5
 20
-271.5
 30
0.0
 40
1.75
  0
LINE
  5
45F
330
50F
100
AcDbEntity
  8
DATA
  6
Continuous
 62
     7
100
AcDbLine
 10
164.0
 20
-252.15
 30
0.0
 11
164.0
 21
-243.85
 31
0.0
  0
LINE
  5
460
330
50F
100
AcDbEntity
  8
DATA
  6
Continuous
 62
     7
100
AcDbLine
 10
164.0
 20
-252.15
 30
0.0
 11
160.4182221340596
 21
-252.15
 31
0.0
  0
LINE
  5
461
330
50F
100
AcDbEntity
  8
DATA
  6
Continuous
 62
     7
100
AcDbLine
 10
158.8
 20
-243.85
 30
0.0
 11
164.0
 21
-243.85
 31
0.0
  0
ARC
  5
462
330
50F
100
AcDbEntity
  8
DATA
  6
Continuous
 62
     7
100
AcDbCircle
 10
153.0610212166382
 20
-253.2499999999999
 30
0.0
 40
7.438978783361753
100
AcDbArc
 50
327.4722370572969
 51
32.52776294270336
  0
LINE
  5
463
330
50F
100
AcDbEntity
  8
DATA
  6
Continuous
 62
     7
100
AcDbLine
 10
159.3330548054598
 20
-249.2499999999999
 30
0.0
 11
157.9999999999999
 21
-249.2499999999999
 31
0.0
  0
LINE
  5
464
330
50F
100
AcDbEntity
  8
DATA
  6
Continuous
 62
     7
100
AcDbLine
 10
159.3330548054598
 20
-257.2499999999999
 30
0.0
 11
157.9999999999999
 21
-257.2499999999999
 31
0.0
  0
LINE
  5
465
330
50F
100
AcDbEntity
  8
DATA
  6
Continuous
 62
     7
100
AcDbLine
 10
158.8
 20
-264.5
 30
0.0
 11
158.8
 21
-257.2499999999999
 31
0.0
  0
LINE
  5
466
330
50F
100
AcDbEntity
  8
DATA
  6
Continuous
 62
     7
100
AcDbLine
 10
158.8
 20
-249.25
 30
0.0
 11
158.8
 21
-242.0
 31
0.0
  0
LINE
  5
467
330
50F
100
AcDbEntity
  8
DATA
  6
Continuous
 62
     7
100
AcDbLine
 10
158.7999999999999
 20
-242.0
 30
0.0
 11
158.0
 21
-242.0
 31
0.0
  0
LINE
  5
468
330
50F
100
AcDbEntity
  8
DATA
  6
Continuous
 62
     7
100
AcDbLine
 10
158.7999999999999
 20
-264.5
 30
0.0
 11
158.0
 21
-264.5
 31
0.0
  0
LINE
  5
469
330
50F
100
AcDbEntity
  8
DATA
  6
Continuous
 62
     7
100
AcDbLine
 10
164.0
 20
-266.15
 30
0.0
 11
164.0
 21
-257.85
 31
0.0
  0
LINE
  5
46A
330
50F
100
AcDbEntity
  8
DATA
  6
Continuous
 62
     7
100
AcDbLine
 10
164.0
 20
-266.15
 30
0.0
 11
158.0
 21
-266.15
 31
0.0
  0
LINE
  5
46B
330
50F
100
AcDbEntity
  8
DATA
  6
Continuous
 62
     7
100
AcDbLine
 10
158.8
 20
-257.85
 30
0.0
 11
164.0
 21
-257.85
 31
0.0
  0
CIRCLE
  5
46C
330
50F
100
AcDbEntity
  8
DATA
  6
Continuous
 62
     7
100
AcDbCircle
 10
0.0
 20
-241.5
 30
0.0
 40
2.449999999999988
  0
LWPOLYLINE
  5
46D
330
50F
100
AcDbEntity
  8
DATA
  6
Continuous
 62
     7
100
AcDbPolyline
 90
        8
 70
     1
 43
0.0
 10
-0.5179578037304964
 20
-242.397129232238
 10
0.2681146883298879
 20
-242.5006176391025
 10
0.897129232237944
 20
-242.0179578037305
 10
1.000617639102415
 20
-241.2318853116701
 10
0.5179578037304964
 20
-240.602870767762
 10
-0.2681146883298879
 20
-240.4993823608976
 10
-0.897129232237944
 20
-240.9820421962696
 10
-1.000617639102415
 20
-241.7681146883299
  0
CIRCLE
  5
478
330
50F
100
AcDbEntity
  8
DATA
  6
Continuous
 62
     7
100
AcDbCircle
 10
46.0
 20
-241.5
 30
0.0
 40
2.449999999999988
  0
LWPOLYLINE
  5
479
330
50F
100
AcDbEntity
  8
DATA
  6
Continuous
 62
     7
100
AcDbPolyline
 90
        8
 70
     1
 43
0.0
 10
45.4820421962695
 20
-242.397129232238
 10
46.26811468832989
 20
-242.5006176391025
 10
46.89712923223793
 20
-242.0179578037305
 10
47.00061763910242
 20
-241.2318853116701
 10
46.51795780373049
 20
-240.602870767762
 10
45.73188531167011
 20
-240.4993823608976
 10
45.10287076776206
 20
-240.9820421962696
 10
44.99938236089759
 20
-241.7681146883299
  0
CIRCLE
  5
484
330
50F
100
AcDbEntity
  8
DATA
  6
Continuous
 62
     7
100
AcDbCircle
 10
92.0
 20
-241.5
 30
0.0
 40
2.449999999999988
  0
LWPOLYLINE
  5
485
330
50F
100
AcDbEntity
  8
DATA
  6
Continuous
 62
     7
100
AcDbPolyline
 90
        8
 70
     1
 43
0.0
 10
91.48204219626949
 20
-242.397129232238
 10
92.26811468832988
 20
-242.5006176391025
 10
92.89712923223794
 20
-242.0179578037305
 10
93.00061763910241
 20
-241.2318853116701
 10
92.51795780373049
 20
-240.602870767762
 10
91.73188531167012
 20
-240.4993823608976
 10
91.10287076776206
 20
-240.9820421962696
 10
90.99938236089759
 20
-241.7681146883299
  0
CIRCLE
  5
490
330
50F
100
AcDbEntity
  8
DATA
  6
Continuous
 62
     7
100
AcDbCircle
 10
137.0
 20
-241.5
 30
0.0
 40
2.449999999999988
  0
LWPOLYLINE
  5
491
330
50F
100
AcDbEntity
  8
DATA
  6
Continuous
 62
     7
100
AcDbPolyline
 90
        8
 70
     1
 43
0.0
 10
136.4820421962695
 20
-242.397129232238
 10
137.2681146883298
 20
-242.5006176391025
 10
137.8971292322379
 20
-242.0179578037305
 10
138.0006176391024
 20
-241.2318853116701
 10
137.5179578037305
 20
-240.602870767762
 10
136.7318853116701
 20
-240.4993823608976
 10
136.102870767762
 20
-240.9820421962696
 10
135.9993823608976
 20
-241.7681146883299
  0
TEXT
  5
49C
330
50F
100
AcDbEntity
  8
DATA
 62
     7
100
AcDbText
 10
-264.1787737778835
 20
-358.9074880003172
 30
0.0
 40
5.700944010416665
  1
※仕様及び外観は予告なく変更されることがあります。
 41
0.7
 11
-264.1787737778835
 21
-353.2065439899005
 31
0.0
100
AcDbText
 73
     3
  0
TEXT
  5
49D
330
50F
100
AcDbEntity
  8
DATA
 62
     7
100
AcDbText
 10
-264.1787737778835
 20
-366.3158213336504
 30
0.0
 40
5.700944010416665
  1
　また、同一商品でも若干の個体差があることがあります。ご了承ください。
 41
0.7
 11
-264.1787737778835
 21
-360.6148773232337
 31
0.0
100
AcDbText
 73
     3
  0
TEXT
  5
49E
330
50F
100
AcDbEntity
  8
DATA
 62
     7
100
AcDbText
 10
146.0677330953497
 20
-338.177437028558
 30
0.0
 40
5.700944010416665
  1
パワーアンプ
 41
0.7
 11
146.0677330953497
 21
-332.4764930181414
 31
0.0
100
AcDbText
 73
     3
  0
ENDSEC
  0
SECTION
  2
OBJECTS
  0
DICTIONARY
  5
4AC
330
0
100
AcDbDictionary
281
     1
  3
ACAD_CIP_PREVIOUS_PRODUCT_INFO
350
527
  3
ACAD_COLOR
350
502
  3
ACAD_DETAILVIEWSTYLE
350
509
  3
ACAD_GROUP
350
4AD
  3
ACAD_LAYOUT
350
501
  3
ACAD_MATERIAL
350
4B0
  3
ACAD_MLEADERSTYLE
350
505
  3
ACAD_MLINESTYLE
350
4FE
  3
ACAD_PLOTSETTINGS
350
500
  3
ACAD_PLOTSTYLENAME
350
4AE
  3
ACAD_SCALELIST
350
4E2
  3
ACAD_SECTIONVIEWSTYLE
350
507
  3
ACAD_TABLESTYLE
350
503
  3
ACAD_VISUALSTYLE
350
4C9
  3
ACDB_RECOMPOSE_DATA
350
53F
  3
AcDbVariableDictionary
350
532
  3
DWGPROPS
350
540
  0
DICTIONARY
  5
528
330
4F4
100
AcDbDictionary
280
     1
281
     1
  3
ADSK_XREC_LAYER_RECONCILED
360
529
  0
DICTIONARY
  5
52A
330
513
100
AcDbDictionary
280
     1
281
     1
  3
ADSK_XREC_LAYER_RECONCILED
360
52B
  0
DICTIONARY
  5
52C
330
51F
100
AcDbDictionary
280
     1
281
     1
  3
ADSK_XREC_LAYER_RECONCILED
360
52D
  0
DICTIONARY
  5
52E
330
520
100
AcDbDictionary
280
     1
281
     1
  3
ADSK_XREC_LAYER_RECONCILED
360
52F
  0
DICTIONARY
  5
530
330
521
100
AcDbDictionary
280
     1
281
     1
  3
ADSK_XREC_LAYER_RECONCILED
360
531
  0
XRECORD
  5
527
102
{ACAD_REACTORS
330
4AC
102
}
330
4AC
100
AcDbXrecord
280
     1
300
ACDLT
300
2017
300
ACDLT_F_S
  0
DICTIONARY
  5
502
102
{ACAD_REACTORS
330
4AC
102
}
330
4AC
100
AcDbDictionary
281
     1
  0
DICTIONARY
  5
509
102
{ACAD_REACTORS
330
4AC
102
}
330
4AC
100
AcDbDictionary
281
     1
  3
Imperial24
350
50A
  0
DICTIONARY
  5
4AD
102
{ACAD_REACTORS
330
4AC
102
}
330
4AC
100
AcDbDictionary
281
     1
  0
DICTIONARY
  5
501
102
{ACAD_REACTORS
330
4AC
102
}
330
4AC
100
AcDbDictionary
281
     1
  3
Model
350
512
  3
レイアウト1
350
50E
  0
DICTIONARY
  5
4B0
102
{ACAD_REACTORS
330
4AC
102
}
330
4AC
100
AcDbDictionary
281
     1
  3
ByBlock
350
4B9
  3
ByLayer
350
4B1
  3
Global
350
4C1
  0
DICTIONARY
  5
505
102
{ACAD_REACTORS
330
4AC
102
}
330
4AC
100
AcDbDictionary
281
     1
  3
Standard
350
506
  0
DICTIONARY
  5
4FE
102
{ACAD_REACTORS
330
4AC
102
}
330
4AC
100
AcDbDictionary
281
     1
  3
Standard
350
4FF
  0
DICTIONARY
  5
500
102
{ACAD_REACTORS
330
4AC
102
}
330
4AC
100
AcDbDictionary
281
     1
  0
ACDBDICTIONARYWDFLT
  5
4AE
102
{ACAD_REACTORS
330
4AC
102
}
330
4AC
100
AcDbDictionary
281
     1
  3
Normal
350
4AF
100
AcDbDictionaryWithDefault
340
4AF
  0
DICTIONARY
  5
4E2
102
{ACAD_REACTORS
330
4AC
102
}
330
4AC
100
AcDbDictionary
281
     1
  3
A0
350
4E3
  3
A1
350
4E4
  3
A2
350
4E5
  3
A3
350
4E6
  3
A4
350
4E7
  3
A5
350
4E8
  3
A6
350
4E9
  3
A7
350
4EA
  3
A8
350
4EB
  3
A9
350
4EC
  3
B0
350
4ED
  3
B1
350
4EE
  3
B2
350
4EF
  3
B3
350
4F0
  3
B4
350
4F1
  3
B5
350
4F2
  3
B6
350
4F3
  0
DICTIONARY
  5
507
102
{ACAD_REACTORS
330
4AC
102
}
330
4AC
100
AcDbDictionary
281
     1
  3
Imperial24
350
508
  0
DICTIONARY
  5
503
102
{ACAD_REACTORS
330
4AC
102
}
330
4AC
100
AcDbDictionary
281
     1
  3
Standard
350
504
  0
DICTIONARY
  5
4C9
102
{ACAD_REACTORS
330
4AC
102
}
330
4AC
100
AcDbDictionary
281
     1
  3
2dWireframe
350
4CF
  3
Basic
350
4CE
  3
Brighten
350
4D5
  3
ColorChange
350
4D9
  3
Conceptual
350
4D2
  3
Dim
350
4D4
  3
EdgeColorOff
350
4E1
  3
Facepattern
350
4D8
  3
Flat
350
4CA
  3
FlatWithEdges
350
4CB
  3
Gouraud
350
4CC
  3
GouraudWithEdges
350
4CD
  3
Hidden
350
4D1
  3
JitterOff
350
4DF
  3
Linepattern
350
4D7
  3
OverhangOff
350
4E0
  3
Realistic
350
4D3
  3
Shaded
350
4DE
  3
Shaded with edges
350
4DD
  3
Shades of Gray
350
4DA
  3
Sketchy
350
4DB
  3
Thicken
350
4D6
  3
Wireframe
350
4D0
  3
X-Ray
350
4DC
  0
XRECORD
  5
53F
102
{ACAD_REACTORS
330
4AC
102
}
330
4AC
100
AcDbXrecord
280
     1
 90
        1
330
504
  0
DICTIONARY
  5
532
102
{ACAD_REACTORS
330
4AC
102
}
330
4AC
100
AcDbDictionary
281
     1
  3
CANNOSCALE
350
537
  3
CMLEADERSTYLE
350
534
  3
CTABLESTYLE
350
533
  3
CVIEWDETAILSTYLE
350
535
  3
CVIEWSECTIONSTYLE
350
536
  3
DIMASSOC
350
53A
  3
INDEXCTL
350
539
  3
SORTENTS
350
538
  3
XCLIPFRAME
350
53B
  0
XRECORD
  5
540
102
{ACAD_REACTORS
330
4AC
102
}
330
4AC
100
AcDbXrecord
280
     1
  1
DWGPROPS COOKIE
  2

  3

  4

  6

  7

  8
sasaki_n
  9

300
=
301
=
302
=
303
=
304
=
305
=
306
=
307
=
308
=
309
=
 40
0.0004050925925926
 41
2457812.60650463
 42
2457812.757534723
  1

 90
        0
  0
XRECORD
  5
529
102
{ACAD_REACTORS
330
528
102
}
330
528
100
AcDbXrecord
280
     1
290
     1
  0
XRECORD
  5
52B
102
{ACAD_REACTORS
330
52A
102
}
330
52A
100
AcDbXrecord
280
     1
290
     1
  0
XRECORD
  5
52D
102
{ACAD_REACTORS
330
52C
102
}
330
52C
100
AcDbXrecord
280
     1
290
     1
  0
XRECORD
  5
52F
102
{ACAD_REACTORS
330
52E
102
}
330
52E
100
AcDbXrecord
280
     1
290
     1
  0
XRECORD
  5
531
102
{ACAD_REACTORS
330
530
102
}
330
530
100
AcDbXrecord
280
     1
290
     1
  0
ACDBDETAILVIEWSTYLE
  5
50A
102
{ACAD_XDICTIONARY
360
578
102
}
102
{ACAD_REACTORS
330
509
102
}
330
509
100
AcDbModelDocViewStyle
 70
     0
  3
Imperial24
290
     0
100
AcDbDetailViewStyle
 70
     0
 71
     0
 90
        3
 71
     1
340
4F5
 40
0.24
340
0
 40
0.24
300

 40
0.36
280
     3
 71
     2
340
4FC
 90
       25
 71
     3
340
4F5
 40
0.24
 90
        1
 40
0.75
 90
        1
300
%<\AcVar ViewType \f "%tc1">% %<\AcVar ViewDetailId>%\PSCALE %<\AcVar ViewScale \f "%sn">%
 71
     4
340
4FC
 90
       25
340
4FC
 90
       25
280
     0
  0
LAYOUT
  5
512
102
{ACAD_XDICTIONARY
360
57C
102
}
102
{ACAD_REACTORS
330
501
102
}
330
501
100
AcDbPlotSettings
  1

  2
DocuPrint 3000-2
  4

  6

 40
0.0
 41
0.0
 42
0.0
 43
0.0
 44
0.0
 45
0.0
 46
0.0
 47
0.0
 48
0.0
 49
0.0
140
0.0
141
0.0
142
1.0
143
1.0
 70
  1712
 72
     0
 73
     0
 74
     0
  7

 75
     0
147
1.0
148
0.0
149
0.0
100
AcDbLayout
  1
Model
 70
     1
 71
     0
 10
0.0
 20
0.0
 11
12.0
 21
9.0
 12
0.0
 22
0.0
 32
0.0
 14
0.0
 24
0.0
 34
0.0
 15
0.0
 25
0.0
 35
0.0
146
0.0
 13
0.0
 23
0.0
 33
0.0
 16
1.0
 26
0.0
 36
0.0
 17
0.0
 27
1.0
 37
0.0
 76
     0
330
50F
331
514
  0
LAYOUT
  5
50E
102
{ACAD_XDICTIONARY
360
57A
102
}
102
{ACAD_REACTORS
330
501
102
}
330
501
100
AcDbPlotSettings
  1

  2
DocuPrint 3000-2
  4

  6

 40
0.0
 41
0.0
 42
0.0
 43
0.0
 44
0.0
 45
0.0
 46
0.0
 47
0.0
 48
0.0
 49
0.0
140
0.0
141
0.0
142
1.0
143
1.0
 70
   688
 72
     0
 73
     0
 74
     5
  7

 75
    16
147
1.0
148
0.0
149
0.0
100
AcDbLayout
  1
レイアウト1
 70
     0
 71
     1
 10
0.0
 20
0.0
 11
12.0
 21
9.0
 12
0.0
 22
0.0
 32
0.0
 14
1.000000000000000E+20
 24
1.000000000000000E+20
 34
1.000000000000000E+20
 15
-1.000000000000000E+20
 25
-1.000000000000000E+20
 35
-1.000000000000000E+20
146
0.0
 13
0.0
 23
0.0
 33
0.0
 16
1.0
 26
0.0
 36
0.0
 17
0.0
 27
1.0
 37
0.0
 76
     0
330
50B
  0
MATERIAL
  5
4B9
102
{ACAD_XDICTIONARY
360
4BA
102
}
102
{ACAD_REACTORS
330
4B0
102
}
330
4B0
100
AcDbMaterial
  1
ByBlock
 72
     0
 43
0.0208333333333333
 43
0.0
 43
0.0
 43
0.0
 43
0.0
 43
0.0208333333333333
 43
0.0
 43
0.0
 43
0.0
 43
0.0
 43
1.0
 43
0.0
 43
0.0
 43
0.0
 43
0.0
 43
1.0
 77
     0
 47
0.0208333333333333
 47
0.0
 47
0.0
 47
0.0
 47
0.0
 47
0.0208333333333333
 47
0.0
 47
0.0
 47
0.0
 47
0.0
 47
1.0
 47
0.0
 47
0.0
 47
0.0
 47
0.0
 47
1.0
171
     0
 49
0.0208333333333333
 49
0.0
 49
0.0
 49
0.0
 49
0.0
 49
0.0208333333333333
 49
0.0
 49
0.0
 49
0.0
 49
0.0
 49
1.0
 49
0.0
 49
0.0
 49
0.0
 49
0.0
 49
1.0
175
     0
142
0.0208333333333333
142
0.0
142
0.0
142
0.0
142
0.0
142
0.0208333333333333
142
0.0
142
0.0
142
0.0
142
0.0
142
1.0
142
0.0
142
0.0
142
0.0
142
0.0
142
1.0
179
     0
144
0.0208333333333333
144
0.0
144
0.0
144
0.0
144
0.0
144
0.0208333333333333
144
0.0
144
0.0
144
0.0
144
0.0
144
1.0
144
0.0
144
0.0
144
0.0
144
0.0
144
1.0
147
0.0208333333333333
147
0.0
147
0.0
147
0.0
147
0.0
147
0.0208333333333333
147
0.0
147
0.0
147
0.0
147
0.0
147
1.0
147
0.0
147
0.0
147
0.0
147
0.0
147
1.0
  0
MATERIAL
  5
4B1
102
{ACAD_XDICTIONARY
360
4B2
102
}
102
{ACAD_REACTORS
330
4B0
102
}
330
4B0
100
AcDbMaterial
  1
ByLayer
 72
     0
 43
0.0208333333333333
 43
0.0
 43
0.0
 43
0.0
 43
0.0
 43
0.0208333333333333
 43
0.0
 43
0.0
 43
0.0
 43
0.0
 43
1.0
 43
0.0
 43
0.0
 43
0.0
 43
0.0
 43
1.0
 77
     0
 47
0.0208333333333333
 47
0.0
 47
0.0
 47
0.0
 47
0.0
 47
0.0208333333333333
 47
0.0
 47
0.0
 47
0.0
 47
0.0
 47
1.0
 47
0.0
 47
0.0
 47
0.0
 47
0.0
 47
1.0
171
     0
 49
0.0208333333333333
 49
0.0
 49
0.0
 49
0.0
 49
0.0
 49
0.0208333333333333
 49
0.0
 49
0.0
 49
0.0
 49
0.0
 49
1.0
 49
0.0
 49
0.0
 49
0.0
 49
0.0
 49
1.0
175
     0
142
0.0208333333333333
142
0.0
142
0.0
142
0.0
142
0.0
142
0.0208333333333333
142
0.0
142
0.0
142
0.0
142
0.0
142
1.0
142
0.0
142
0.0
142
0.0
142
0.0
142
1.0
179
     0
144
0.0208333333333333
144
0.0
144
0.0
144
0.0
144
0.0
144
0.0208333333333333
144
0.0
144
0.0
144
0.0
144
0.0
144
1.0
144
0.0
144
0.0
144
0.0
144
0.0
144
1.0
147
0.0208333333333333
147
0.0
147
0.0
147
0.0
147
0.0
147
0.0208333333333333
147
0.0
147
0.0
147
0.0
147
0.0
147
1.0
147
0.0
147
0.0
147
0.0
147
0.0
147
1.0
  0
MATERIAL
  5
4C1
102
{ACAD_XDICTIONARY
360
4C2
102
}
102
{ACAD_REACTORS
330
4B0
102
}
330
4B0
100
AcDbMaterial
  1
Global
 72
     0
 43
0.0208333333333333
 43
0.0
 43
0.0
 43
0.0
 43
0.0
 43
0.0208333333333333
 43
0.0
 43
0.0
 43
0.0
 43
0.0
 43
1.0
 43
0.0
 43
0.0
 43
0.0
 43
0.0
 43
1.0
 77
     0
 47
0.0208333333333333
 47
0.0
 47
0.0
 47
0.0
 47
0.0
 47
0.0208333333333333
 47
0.0
 47
0.0
 47
0.0
 47
0.0
 47
1.0
 47
0.0
 47
0.0
 47
0.0
 47
0.0
 47
1.0
171
     0
 49
0.0208333333333333
 49
0.0
 49
0.0
 49
0.0
 49
0.0
 49
0.0208333333333333
 49
0.0
 49
0.0
 49
0.0
 49
0.0
 49
1.0
 49
0.0
 49
0.0
 49
0.0
 49
0.0
 49
1.0
175
     0
142
0.0208333333333333
142
0.0
142
0.0
142
0.0
142
0.0
142
0.0208333333333333
142
0.0
142
0.0
142
0.0
142
0.0
142
1.0
142
0.0
142
0.0
142
0.0
142
0.0
142
1.0
179
     0
144
0.0208333333333333
144
0.0
144
0.0
144
0.0
144
0.0
144
0.0208333333333333
144
0.0
144
0.0
144
0.0
144
0.0
144
1.0
144
0.0
144
0.0
144
0.0
144
0.0
144
1.0
147
0.0208333333333333
147
0.0
147
0.0
147
0.0
147
0.0
147
0.0208333333333333
147
0.0
147
0.0
147
0.0
147
0.0
147
1.0
147
0.0
147
0.0
147
0.0
147
0.0
147
1.0
  0
MLEADERSTYLE
  5
506
102
{ACAD_REACTORS
330
505
102
}
330
505
100
AcDbMLeaderStyle
170
     2
171
     1
172
     0
 90
        2
 40
0.0
 41
0.0
173
     1
 91
-1056964608
340
4FA
 92
       -2
290
     1
 42
0.09
291
     1
 43
0.36
  3
Standard
 44
0.18
300

342
4F5
174
     1
178
     6
175
     1
176
     0
 93
-1056964608
 45
0.18
292
     0
297
     0
 46
0.18
 94
-1056964608
 47
1.0
 49
1.0
140
1.0
293
     1
141
0.0
294
     1
177
     0
142
1.0
295
     0
296
     0
143
0.125
1001
ACAD_MLEADERVER
1070
     2
  0
MLINESTYLE
  5
4FF
102
{ACAD_REACTORS
330
4FE
102
}
330
4FE
100
AcDbMlineStyle
  2
STANDARD
 70
     0
  3

 62
   256
 51
90.0
 52
90.0
 71
     2
 49
0.5
 62
   256
  6
BYLAYER
 49
-0.5
 62
   256
  6
BYLAYER
  0
ACDBPLACEHOLDER
  5
4AF
102
{ACAD_REACTORS
330
4AE
102
}
330
4AE
  0
SCALE
  5
4E3
102
{ACAD_REACTORS
330
4E2
102
}
330
4E2
100
AcDbScale
 70
     0
300
1:1
140
1.0
141
1.0
290
     1
  0
SCALE
  5
4E4
102
{ACAD_REACTORS
330
4E2
102
}
330
4E2
100
AcDbScale
 70
     0
300
1/128" = 1'-0"
140
0.0078125
141
12.0
290
     0
  0
SCALE
  5
4E5
102
{ACAD_REACTORS
330
4E2
102
}
330
4E2
100
AcDbScale
 70
     0
300
1/64" = 1'-0"
140
0.015625
141
12.0
290
     0
  0
SCALE
  5
4E6
102
{ACAD_REACTORS
330
4E2
102
}
330
4E2
100
AcDbScale
 70
     0
300
1/32" = 1'-0"
140
0.03125
141
12.0
290
     0
  0
SCALE
  5
4E7
102
{ACAD_REACTORS
330
4E2
102
}
330
4E2
100
AcDbScale
 70
     0
300
1/16" = 1'-0"
140
0.0625
141
12.0
290
     0
  0
SCALE
  5
4E8
102
{ACAD_REACTORS
330
4E2
102
}
330
4E2
100
AcDbScale
 70
     0
300
3/32" = 1'-0"
140
0.09375
141
12.0
290
     0
  0
SCALE
  5
4E9
102
{ACAD_REACTORS
330
4E2
102
}
330
4E2
100
AcDbScale
 70
     0
300
1/8" = 1'-0"
140
0.125
141
12.0
290
     0
  0
SCALE
  5
4EA
102
{ACAD_REACTORS
330
4E2
102
}
330
4E2
100
AcDbScale
 70
     0
300
3/16" = 1'-0"
140
0.1875
141
12.0
290
     0
  0
SCALE
  5
4EB
102
{ACAD_REACTORS
330
4E2
102
}
330
4E2
100
AcDbScale
 70
     0
300
1/4" = 1'-0"
140
0.25
141
12.0
290
     0
  0
SCALE
  5
4EC
102
{ACAD_REACTORS
330
4E2
102
}
330
4E2
100
AcDbScale
 70
     0
300
3/8" = 1'-0"
140
0.375
141
12.0
290
     0
  0
SCALE
  5
4ED
102
{ACAD_REACTORS
330
4E2
102
}
330
4E2
100
AcDbScale
 70
     0
300
1/2" = 1'-0"
140
0.5
141
12.0
290
     0
  0
SCALE
  5
4EE
102
{ACAD_REACTORS
330
4E2
102
}
330
4E2
100
AcDbScale
 70
     0
300
3/4" = 1'-0"
140
0.75
141
12.0
290
     0
  0
SCALE
  5
4EF
102
{ACAD_REACTORS
330
4E2
102
}
330
4E2
100
AcDbScale
 70
     0
300
1" = 1'-0"
140
1.0
141
12.0
290
     0
  0
SCALE
  5
4F0
102
{ACAD_REACTORS
330
4E2
102
}
330
4E2
100
AcDbScale
 70
     0
300
1-1/2" = 1'-0"
140
1.5
141
12.0
290
     0
  0
SCALE
  5
4F1
102
{ACAD_REACTORS
330
4E2
102
}
330
4E2
100
AcDbScale
 70
     0
300
3" = 1'-0"
140
3.0
141
12.0
290
     0
  0
SCALE
  5
4F2
102
{ACAD_REACTORS
330
4E2
102
}
330
4E2
100
AcDbScale
 70
     0
300
6" = 1'-0"
140
6.0
141
12.0
290
     0
  0
SCALE
  5
4F3
102
{ACAD_REACTORS
330
4E2
102
}
330
4E2
100
AcDbScale
 70
     0
300
1'-0" = 1'-0"
140
12.0
141
12.0
290
     0
  0
ACDBSECTIONVIEWSTYLE
  5
508
102
{ACAD_XDICTIONARY
360
576
102
}
102
{ACAD_REACTORS
330
507
102
}
330
507
100
AcDbModelDocViewStyle
 70
     0
  3
Imperial24
290
     0
100
AcDbSectionViewStyle
 70
     0
 71
     0
 90
       78
 71
     1
340
4F5
 40
0.24
340
0
340
0
 40
0.24
300
I, O, Q, S, X, Z
 40
0.48
 90
        3
 40
0.18
 90
        1
 71
     2
340
4FC
 90
       25
340
4FC
 90
       50
 40
0.24
 40
0.0
 40
0.24
 71
     3
340
4F5
 40
0.24
 90
        1
 40
0.75
 90
        1
300
%<\AcVar ViewType \f "%tc1">% %<\AcVar ViewSectionStartId>%-%<\AcVar ViewSectionEndId>%\PSCALE %<\AcVar ViewScale \f "%sn">%
 71
     4
300
ANSI31
 40
1.0
 90
        0
290
     0
290
     0
 90
        6
 40
0.0
 40
1.570796326794896
 40
0.2617993877991494
 40
1.308996938995747
 40
-0.2617993877991494
 40
1.832595714594046
  0
TABLESTYLE
  5
504
102
{ACAD_XDICTIONARY
360
53D
102
}
102
{ACAD_REACTORS
330
503
102
}
330
503
100
AcDbTableStyle
  3
Standard
 70
     0
 71
     0
 40
0.06
 41
0.06
280
     0
281
     0
  7
STANDARD
140
0.18
170
     2
 62
     0
 63
     7
283
     0
274
    -2
284
     1
 64
     0
275
    -2
285
     1
 65
     0
276
    -2
286
     1
 66
     0
277
    -2
287
     1
 67
     0
278
    -2
288
     1
 68
     0
279
    -2
289
     1
 69
     0
  7
STANDARD
140
0.25
170
     5
 62
     0
 63
     7
283
     0
274
    -2
284
     1
 64
     0
275
    -2
285
     1
 65
     0
276
    -2
286
     1
 66
     0
277
    -2
287
     1
 67
     0
278
    -2
288
     1
 68
     0
279
    -2
289
     1
 69
     0
  7
STANDARD
140
0.18
170
     5
 62
     0
 63
     7
283
     0
274
    -2
284
     1
 64
     0
275
    -2
285
     1
 65
     0
276
    -2
286
     1
 66
     0
277
    -2
287
     1
 67
     0
278
    -2
288
     1
 68
     0
279
    -2
289
     1
 69
     0
  0
VISUALSTYLE
  5
4CF
102
{ACAD_XDICTIONARY
360
54E
102
}
102
{ACAD_REACTORS
330
4C9
102
}
330
4C9
100
AcDbVisualStyle
  2
2dWireframe
 70
     4
 71
     0
 72
     2
 73
     0
 90
        0
 40
-0.6
 41
-30.0
 62
     5
 63
     7
 74
     1
 91
        4
 64
     7
 65
   257
 75
     1
175
     1
 42
1.0
 92
        0
 66
   257
 43
1.0
 76
     1
 77
     6
 78
     2
 67
     7
 79
     5
170
     0
171
     0
290
     0
174
     0
 93
        1
 44
0.0
173
     0
291
     0
 45
0.0
1001
ACAD
1000
AcDbSavedByObjectVersion
1070
     0
  0
VISUALSTYLE
  5
4CE
102
{ACAD_XDICTIONARY
360
54C
102
}
102
{ACAD_REACTORS
330
4C9
102
}
330
4C9
100
AcDbVisualStyle
  2
Basic
 70
     7
 71
     1
 72
     0
 73
     1
 90
        0
 40
-0.6
 41
-30.0
 62
     5
 63
     7
 74
     0
 91
        4
 64
     7
 65
   257
 75
     1
175
     1
 42
1.0
 92
        8
 66
     7
 43
1.0
 76
     1
 77
     6
 78
     2
 67
     7
 79
     5
170
     0
171
     0
290
     0
174
     0
 93
        1
 44
0.0
173
     0
291
     1
 45
0.0
1001
ACAD
1000
AcDbSavedByObjectVersion
1070
     0
  0
VISUALSTYLE
  5
4D5
102
{ACAD_XDICTIONARY
360
55A
102
}
102
{ACAD_REACTORS
330
4C9
102
}
330
4C9
100
AcDbVisualStyle
  2
Brighten
 70
    12
 71
     2
 72
     2
 73
     0
 90
        0
 40
-0.6
 41
-30.0
 62
     5
 63
     7
 74
     1
 91
        4
 64
     7
 65
   257
 75
     1
175
     1
 42
1.0
 92
        8
 66
     7
 43
1.0
 76
     1
 77
     6
 78
     2
 67
     7
 79
     5
170
     0
171
     0
290
     0
174
     0
 93
        1
 44
50.0
173
     0
291
     1
 45
0.0
1001
ACAD
1000
AcDbSavedByObjectVersion
1070
     0
  0
VISUALSTYLE
  5
4D9
102
{ACAD_XDICTIONARY
360
562
102
}
102
{ACAD_REACTORS
330
4C9
102
}
330
4C9
100
AcDbVisualStyle
  2
ColorChange
 70
    16
 71
     2
 72
     2
 73
     3
 90
        0
 40
-0.6
 41
-30.0
 62
     5
 63
     8
 74
     1
 91
        4
 64
     7
 65
   257
 75
     1
175
     1
 42
1.0
 92
        8
 66
     8
 43
1.0
 76
     1
 77
     6
 78
     2
 67
     7
 79
     5
170
     0
171
     0
290
     0
174
     0
 93
        1
 44
0.0
173
     0
291
     1
 45
0.0
1001
ACAD
1000
AcDbSavedByObjectVersion
1070
     0
  0
VISUALSTYLE
  5
4D2
102
{ACAD_XDICTIONARY
360
554
102
}
102
{ACAD_REACTORS
330
4C9
102
}
330
4C9
100
AcDbVisualStyle
  2
Conceptual
 70
     9
 71
     3
 72
     2
 73
     0
 90
        0
 40
-0.6
 41
-30.0
 62
     5
 63
     7
 74
     2
 91
        2
 64
     7
 65
   257
 75
     1
175
     1
 42
179.0
 92
        8
 66
     7
 43
1.0
 76
     1
 77
     6
 78
     2
 67
     7
 79
     3
170
     0
171
     0
290
     0
174
     0
 93
        1
 44
0.0
173
     0
291
     0
 45
0.0
1001
ACAD
1000
AcDbSavedByObjectVersion
1070
     0
  0
VISUALSTYLE
  5
4D4
102
{ACAD_XDICTIONARY
360
558
102
}
102
{ACAD_REACTORS
330
4C9
102
}
330
4C9
100
AcDbVisualStyle
  2
Dim
 70
    11
 71
     2
 72
     2
 73
     0
 90
        0
 40
-0.6
 41
-30.0
 62
     5
 63
     7
 74
     1
 91
        4
 64
     7
 65
   257
 75
     1
175
     1
 42
1.0
 92
        8
 66
     7
 43
1.0
 76
     1
 77
     6
 78
     2
 67
     7
 79
     5
170
     0
171
     0
290
     0
174
     0
 93
        1
 44
-50.0
173
     0
291
     1
 45
0.0
1001
ACAD
1000
AcDbSavedByObjectVersion
1070
     0
  0
VISUALSTYLE
  5
4E1
102
{ACAD_XDICTIONARY
360
572
102
}
102
{ACAD_REACTORS
330
4C9
102
}
330
4C9
100
AcDbVisualStyle
  2
EdgeColorOff
 70
    22
 71
     2
 72
     2
 73
     0
 90
        0
 40
-0.6
 41
-30.0
 62
     5
 63
     7
 74
     1
 91
        4
 64
     7
 65
   257
 75
     1
175
     1
 42
1.0
 92
        8
 66
     7
 43
1.0
 76
     1
 77
     6
 78
     2
 67
     7
 79
     5
170
     0
171
     0
290
     0
174
     0
 93
        1
 44
0.0
173
     0
291
     1
 45
0.0
1001
ACAD
1000
AcDbSavedByObjectVersion
1070
     0
  0
VISUALSTYLE
  5
4D8
102
{ACAD_XDICTIONARY
360
560
102
}
102
{ACAD_REACTORS
330
4C9
102
}
330
4C9
100
AcDbVisualStyle
  2
Facepattern
 70
    15
 71
     2
 72
     2
 73
     0
 90
        0
 40
-0.6
 41
-30.0
 62
     5
 63
     7
 74
     1
 91
        4
 64
     7
 65
   257
 75
     1
175
     1
 42
1.0
 92
        8
 66
     7
 43
1.0
 76
     1
 77
     6
 78
     2
 67
     7
 79
     5
170
     0
171
     0
290
     0
174
     0
 93
        1
 44
0.0
173
     0
291
     1
 45
0.0
1001
ACAD
1000
AcDbSavedByObjectVersion
1070
     0
  0
VISUALSTYLE
  5
4CA
102
{ACAD_XDICTIONARY
360
544
102
}
102
{ACAD_REACTORS
330
4C9
102
}
330
4C9
100
AcDbVisualStyle
  2
Flat
 70
     0
 71
     2
 72
     1
 73
     1
 90
        2
 40
-0.6
 41
30.0
 62
     5
 63
     7
 74
     0
 91
        0
 64
     7
 65
   257
 75
     1
175
     1
 42
1.0
 92
        8
 66
     7
 43
1.0
 76
     1
 77
     6
 78
     2
 67
     7
 79
     5
170
     0
171
     0
290
     0
174
     0
 93
       13
 44
0.0
173
     0
291
     1
 45
0.0
1001
ACAD
1000
AcDbSavedByObjectVersion
1070
     0
  0
VISUALSTYLE
  5
4CB
102
{ACAD_XDICTIONARY
360
546
102
}
102
{ACAD_REACTORS
330
4C9
102
}
330
4C9
100
AcDbVisualStyle
  2
FlatWithEdges
 70
     1
 71
     2
 72
     1
 73
     1
 90
        2
 40
-0.6
 41
30.0
 62
     5
 63
     7
 74
     1
 91
        0
 64
     7
 65
   257
 75
     1
175
     1
 42
1.0
 92
        0
 66
   257
 43
1.0
 76
     1
 77
     6
 78
     2
 67
     7
 79
     5
170
     0
171
     0
290
     0
174
     0
 93
       13
 44
0.0
173
     0
291
     1
 45
0.0
1001
ACAD
1000
AcDbSavedByObjectVersion
1070
     0
  0
VISUALSTYLE
  5
4CC
102
{ACAD_XDICTIONARY
360
548
102
}
102
{ACAD_REACTORS
330
4C9
102
}
330
4C9
100
AcDbVisualStyle
  2
Gouraud
 70
     2
 71
     2
 72
     2
 73
     1
 90
        2
 40
-0.6
 41
30.0
 62
     5
 63
     7
 74
     0
 91
        0
 64
     7
 65
   257
 75
     1
175
     1
 42
1.0
 92
        0
 66
     7
 43
1.0
 76
     1
 77
     6
 78
     2
 67
     7
 79
     5
170
     0
171
     0
290
     0
174
     0
 93
       13
 44
0.0
173
     0
291
     1
 45
0.0
1001
ACAD
1000
AcDbSavedByObjectVersion
1070
     0
  0
VISUALSTYLE
  5
4CD
102
{ACAD_XDICTIONARY
360
54A
102
}
102
{ACAD_REACTORS
330
4C9
102
}
330
4C9
100
AcDbVisualStyle
  2
GouraudWithEdges
 70
     3
 71
     2
 72
     2
 73
     1
 90
        2
 40
-0.6
 41
30.0
 62
     5
 63
     7
 74
     1
 91
        0
 64
     7
 65
   257
 75
     1
175
     1
 42
1.0
 92
        0
 66
   257
 43
1.0
 76
     1
 77
     6
 78
     2
 67
     7
 79
     5
170
     0
171
     0
290
     0
174
     0
 93
       13
 44
0.0
173
     0
291
     1
 45
0.0
1001
ACAD
1000
AcDbSavedByObjectVersion
1070
     0
  0
VISUALSTYLE
  5
4D1
102
{ACAD_XDICTIONARY
360
552
102
}
102
{ACAD_REACTORS
330
4C9
102
}
330
4C9
100
AcDbVisualStyle
  2
Hidden
 70
     6
 71
     1
 72
     2
 73
     2
 90
        0
 40
-0.6
 41
-30.0
 62
     5
 63
     7
 74
     2
 91
        2
 64
     7
 65
   257
 75
     2
175
     1
 42
40.0
 92
        0
 66
   257
 43
1.0
 76
     1
 77
     6
 78
     2
 67
     7
 79
     3
170
     0
171
     0
290
     0
174
     0
 93
        1
 44
0.0
173
     0
291
     0
 45
0.0
1001
ACAD
1000
AcDbSavedByObjectVersion
1070
     0
  0
VISUALSTYLE
  5
4DF
102
{ACAD_XDICTIONARY
360
56E
102
}
102
{ACAD_REACTORS
330
4C9
102
}
330
4C9
100
AcDbVisualStyle
  2
JitterOff
 70
    20
 71
     2
 72
     2
 73
     0
 90
        0
 40
-0.6
 41
-30.0
 62
     5
 63
     7
 74
     1
 91
        4
 64
     7
 65
   257
 75
     1
175
     1
 42
1.0
 92
       10
 66
     7
 43
1.0
 76
     1
 77
     6
 78
     2
 67
     7
 79
     5
170
     0
171
     0
290
     0
174
     0
 93
        1
 44
0.0
173
     0
291
     1
 45
0.0
1001
ACAD
1000
AcDbSavedByObjectVersion
1070
     0
  0
VISUALSTYLE
  5
4D7
102
{ACAD_XDICTIONARY
360
55E
102
}
102
{ACAD_REACTORS
330
4C9
102
}
330
4C9
100
AcDbVisualStyle
  2
Linepattern
 70
    14
 71
     2
 72
     2
 73
     0
 90
        0
 40
-0.6
 41
-30.0
 62
     5
 63
     7
 74
     1
 91
        4
 64
     7
 65
   257
 75
     7
175
     7
 42
1.0
 92
        8
 66
     7
 43
1.0
 76
     1
 77
     6
 78
     2
 67
     7
 79
     5
170
     0
171
     0
290
     0
174
     0
 93
        1
 44
0.0
173
     0
291
     1
 45
0.0
1001
ACAD
1000
AcDbSavedByObjectVersion
1070
     0
  0
VISUALSTYLE
  5
4E0
102
{ACAD_XDICTIONARY
360
570
102
}
102
{ACAD_REACTORS
330
4C9
102
}
330
4C9
100
AcDbVisualStyle
  2
OverhangOff
 70
    21
 71
     2
 72
     2
 73
     0
 90
        0
 40
-0.6
 41
-30.0
 62
     5
 63
     7
 74
     1
 91
        4
 64
     7
 65
   257
 75
     1
175
     1
 42
1.0
 92
        9
 66
     7
 43
1.0
 76
     1
 77
     6
 78
     2
 67
     7
 79
     5
170
     0
171
     0
290
     0
174
     0
 93
        1
 44
0.0
173
     0
291
     1
 45
0.0
1001
ACAD
1000
AcDbSavedByObjectVersion
1070
     0
  0
VISUALSTYLE
  5
4D3
102
{ACAD_XDICTIONARY
360
556
102
}
102
{ACAD_REACTORS
330
4C9
102
}
330
4C9
100
AcDbVisualStyle
  2
Realistic
 70
     8
 71
     2
 72
     3
 73
     0
 90
        2
 40
-0.6
 41
30.0
 62
     5
 63
     7
 74
     0
 91
        0
 64
     7
 65
   257
 75
     1
175
     1
 42
1.0
 92
        8
 66
   257
 43
1.0
 76
     1
 77
     6
 78
     2
 67
     7
 79
     3
170
     0
171
     0
290
     0
174
     0
 93
       13
 44
0.0
173
     0
291
     0
 45
0.0
1001
ACAD
1000
AcDbSavedByObjectVersion
1070
     0
  0
VISUALSTYLE
  5
4DE
102
{ACAD_XDICTIONARY
360
56C
102
}
102
{ACAD_REACTORS
330
4C9
102
}
330
4C9
100
AcDbVisualStyle
  2
Shaded
 70
    27
 71
     2
 72
     2
 73
     1
 90
        2
 40
-0.6
 41
30.0
 62
     5
 63
     7
 74
     0
 91
        4
 64
     7
 65
   257
 75
     1
175
     1
 42
1.0
 92
        8
 66
   257
 43
1.0
 76
     1
 77
     6
 78
     2
 67
     8
 79
     3
170
     0
171
     0
290
     0
174
     0
 93
        5
 44
0.0
173
     0
291
     0
 45
0.0
1001
ACAD
1000
AcDbSavedByObjectVersion
1070
     0
  0
VISUALSTYLE
  5
4DD
102
{ACAD_XDICTIONARY
360
56A
102
}
102
{ACAD_REACTORS
330
4C9
102
}
330
4C9
100
AcDbVisualStyle
  2
Shaded with edges
 70
    26
 71
     2
 72
     2
 73
     1
 90
        2
 40
-0.6
 41
30.0
 62
     5
 63
     7
 74
     1
 91
        2
 64
     7
 65
   257
 75
     2
175
     1
 42
1.0
 92
        8
 66
   257
 43
1.0
 76
     1
 77
     6
 78
     2
 67
     7
 79
     3
170
     0
171
     0
290
     0
174
     0
 93
        5
 44
0.0
173
     0
291
     0
 45
0.0
1001
ACAD
1000
AcDbSavedByObjectVersion
1070
     0
  0
VISUALSTYLE
  5
4DA
102
{ACAD_XDICTIONARY
360
564
102
}
102
{ACAD_REACTORS
330
4C9
102
}
330
4C9
100
AcDbVisualStyle
  2
Shades of Gray
 70
    23
 71
     2
 72
     2
 73
     3
 90
        0
 40
-0.6
 41
-30.0
 62
     5
 63
     7
 74
     2
 91
        2
 64
     7
 65
     7
 75
     1
175
     1
 42
40.0
 92
        8
 66
     7
 43
1.0
 76
     1
 77
     6
 78
     2
 67
     7
 79
     3
170
     0
171
     0
290
     0
174
     0
 93
        1
 44
0.0
173
     0
291
     0
 45
0.0
1001
ACAD
1000
AcDbSavedByObjectVersion
1070
     0
  0
VISUALSTYLE
  5
4DB
102
{ACAD_XDICTIONARY
360
566
102
}
102
{ACAD_REACTORS
330
4C9
102
}
330
4C9
100
AcDbVisualStyle
  2
Sketchy
 70
    24
 71
     1
 72
     2
 73
     2
 90
        0
 40
-0.6
 41
-30.0
 62
     5
 63
     7
 74
     2
 91
        2
 64
     7
 65
     7
 75
     1
175
     1
 42
40.0
 92
       11
 66
     7
 43
1.0
 76
     1
 77
     6
 78
     2
 67
     7
 79
     6
170
     0
171
     0
290
     0
174
     0
 93
        1
 44
0.0
173
     0
291
     0
 45
0.0
1001
ACAD
1000
AcDbSavedByObjectVersion
1070
     0
  0
VISUALSTYLE
  5
4D6
102
{ACAD_XDICTIONARY
360
55C
102
}
102
{ACAD_REACTORS
330
4C9
102
}
330
4C9
100
AcDbVisualStyle
  2
Thicken
 70
    13
 71
     2
 72
     2
 73
     0
 90
        0
 40
-0.6
 41
-30.0
 62
     5
 63
     7
 74
     1
 91
        4
 64
     7
 65
   257
 75
     1
175
     1
 42
1.0
 92
       12
 66
     7
 43
1.0
 76
     1
 77
     6
 78
     2
 67
     7
 79
     5
170
     0
171
     0
290
     0
174
     0
 93
        1
 44
0.0
173
     0
291
     1
 45
0.0
1001
ACAD
1000
AcDbSavedByObjectVersion
1070
     0
  0
VISUALSTYLE
  5
4D0
102
{ACAD_XDICTIONARY
360
550
102
}
102
{ACAD_REACTORS
330
4C9
102
}
330
4C9
100
AcDbVisualStyle
  2
Wireframe
 70
     5
 71
     0
 72
     2
 73
     0
 90
        0
 40
-0.6
 41
-30.0
 62
     5
 63
     7
 74
     1
 91
        4
 64
     7
 65
   257
 75
     1
175
     1
 42
1.0
 92
        0
 66
   257
 43
1.0
 76
     1
 77
     6
 78
     2
 67
     7
 79
     3
170
     0
171
     0
290
     0
174
     0
 93
        1
 44
0.0
173
     0
291
     0
 45
0.0
1001
ACAD
1000
AcDbSavedByObjectVersion
1070
     0
  0
VISUALSTYLE
  5
4DC
102
{ACAD_XDICTIONARY
360
568
102
}
102
{ACAD_REACTORS
330
4C9
102
}
330
4C9
100
AcDbVisualStyle
  2
X-Ray
 70
    25
 71
     2
 72
     2
 73
     1
 90
        1
 40
0.5
 41
-30.0
 62
     5
 63
     7
 74
     1
 91
        0
 64
     7
 65
   257
 75
     1
175
     1
 42
1.0
 92
        8
 66
     7
 43
1.0
 76
     1
 77
     6
 78
     2
 67
     7
 79
     3
170
     0
171
     0
290
     0
174
     0
 93
       13
 44
0.0
173
     0
291
     0
 45
0.0
1001
ACAD
1000
AcDbSavedByObjectVersion
1070
     0
  0
DICTIONARYVAR
  5
537
102
{ACAD_REACTORS
330
532
102
}
330
532
100
DictionaryVariables
280
     0
  1
1:1
  0
DICTIONARYVAR
  5
534
102
{ACAD_REACTORS
330
532
102
}
330
532
100
DictionaryVariables
280
     0
  1
STANDARD
  0
DICTIONARYVAR
  5
533
102
{ACAD_REACTORS
330
532
102
}
330
532
100
DictionaryVariables
280
     0
  1
STANDARD
  0
DICTIONARYVAR
  5
535
102
{ACAD_REACTORS
330
532
102
}
330
532
100
DictionaryVariables
280
     0
  1
Imperial24
  0
DICTIONARYVAR
  5
536
102
{ACAD_REACTORS
330
532
102
}
330
532
100
DictionaryVariables
280
     0
  1
Imperial24
  0
DICTIONARYVAR
  5
53A
102
{ACAD_REACTORS
330
532
102
}
330
532
100
DictionaryVariables
280
     0
  1
1
  0
DICTIONARYVAR
  5
539
102
{ACAD_REACTORS
330
532
102
}
330
532
100
DictionaryVariables
280
     0
  1
0
  0
DICTIONARYVAR
  5
538
102
{ACAD_REACTORS
330
532
102
}
330
532
100
DictionaryVariables
280
     0
  1
127
  0
DICTIONARYVAR
  5
53B
102
{ACAD_REACTORS
330
532
102
}
330
532
100
DictionaryVariables
280
     0
  1
2
  0
DICTIONARY
  5
578
330
50A
100
AcDbDictionary
280
     1
281
     1
  3
ACAD_XREC_ROUNDTRIP
360
579
  0
DICTIONARY
  5
57C
330
512
100
AcDbDictionary
280
     1
281
     1
  3
ACAD_XREC_ROUNDTRIP
360
57D
  0
DICTIONARY
  5
57A
330
50E
100
AcDbDictionary
280
     1
281
     1
  3
ACAD_XREC_ROUNDTRIP
360
57B
  0
DICTIONARY
  5
4BA
330
4B9
100
AcDbDictionary
280
     1
281
     1
  3
ACAD_XREC_ROUNDTRIP
360
542
  3
BUMPTILE
360
4BC
  3
DIFFUSETILE
360
4BB
  3
OPACITYTILE
360
4BF
  3
REFLECTIONTILE
360
4BE
  3
REFRACTIONTILE
360
4C0
  3
SPECULARTILE
360
4BD
  0
DICTIONARY
  5
4B2
330
4B1
100
AcDbDictionary
280
     1
281
     1
  3
ACAD_XREC_ROUNDTRIP
360
541
  3
BUMPTILE
360
4B4
  3
DIFFUSETILE
360
4B3
  3
OPACITYTILE
360
4B7
  3
REFLECTIONTILE
360
4B6
  3
REFRACTIONTILE
360
4B8
  3
SPECULARTILE
360
4B5
  0
DICTIONARY
  5
4C2
330
4C1
100
AcDbDictionary
280
     1
281
     1
  3
ACAD_XREC_ROUNDTRIP
360
543
  3
BUMPTILE
360
4C4
  3
DIFFUSETILE
360
4C3
  3
OPACITYTILE
360
4C7
  3
REFLECTIONTILE
360
4C6
  3
REFRACTIONTILE
360
4C8
  3
SPECULARTILE
360
4C5
  0
DICTIONARY
  5
576
330
508
100
AcDbDictionary
280
     1
281
     1
  3
ACAD_XREC_ROUNDTRIP
360
577
  0
DICTIONARY
  5
53D
330
504
100
AcDbDictionary
280
     1
281
     1
  3
ACAD_ROUNDTRIP_2008_TABLESTYLE_CELLSTYLEMAP
360
53E
  3
ACAD_XREC_ROUNDTRIP
360
574
  0
DICTIONARY
  5
54E
330
4CF
100
AcDbDictionary
280
     1
281
     1
  3
ACAD_XREC_ROUNDTRIP
360
54F
  0
DICTIONARY
  5
54C
330
4CE
100
AcDbDictionary
280
     1
281
     1
  3
ACAD_XREC_ROUNDTRIP
360
54D
  0
DICTIONARY
  5
55A
330
4D5
100
AcDbDictionary
280
     1
281
     1
  3
ACAD_XREC_ROUNDTRIP
360
55B
  0
DICTIONARY
  5
562
330
4D9
100
AcDbDictionary
280
     1
281
     1
  3
ACAD_XREC_ROUNDTRIP
360
563
  0
DICTIONARY
  5
554
330
4D2
100
AcDbDictionary
280
     1
281
     1
  3
ACAD_XREC_ROUNDTRIP
360
555
  0
DICTIONARY
  5
558
330
4D4
100
AcDbDictionary
280
     1
281
     1
  3
ACAD_XREC_ROUNDTRIP
360
559
  0
DICTIONARY
  5
572
330
4E1
100
AcDbDictionary
280
     1
281
     1
  3
ACAD_XREC_ROUNDTRIP
360
573
  0
DICTIONARY
  5
560
330
4D8
100
AcDbDictionary
280
     1
281
     1
  3
ACAD_XREC_ROUNDTRIP
360
561
  0
DICTIONARY
  5
544
330
4CA
100
AcDbDictionary
280
     1
281
     1
  3
ACAD_XREC_ROUNDTRIP
360
545
  0
DICTIONARY
  5
546
330
4CB
100
AcDbDictionary
280
     1
281
     1
  3
ACAD_XREC_ROUNDTRIP
360
547
  0
DICTIONARY
  5
548
330
4CC
100
AcDbDictionary
280
     1
281
     1
  3
ACAD_XREC_ROUNDTRIP
360
549
  0
DICTIONARY
  5
54A
330
4CD
100
AcDbDictionary
280
     1
281
     1
  3
ACAD_XREC_ROUNDTRIP
360
54B
  0
DICTIONARY
  5
552
330
4D1
100
AcDbDictionary
280
     1
281
     1
  3
ACAD_XREC_ROUNDTRIP
360
553
  0
DICTIONARY
  5
56E
330
4DF
100
AcDbDictionary
280
     1
281
     1
  3
ACAD_XREC_ROUNDTRIP
360
56F
  0
DICTIONARY
  5
55E
330
4D7
100
AcDbDictionary
280
     1
281
     1
  3
ACAD_XREC_ROUNDTRIP
360
55F
  0
DICTIONARY
  5
570
330
4E0
100
AcDbDictionary
280
     1
281
     1
  3
ACAD_XREC_ROUNDTRIP
360
571
  0
DICTIONARY
  5
556
330
4D3
100
AcDbDictionary
280
     1
281
     1
  3
ACAD_XREC_ROUNDTRIP
360
557
  0
DICTIONARY
  5
56C
330
4DE
100
AcDbDictionary
280
     1
281
     1
  3
ACAD_XREC_ROUNDTRIP
360
56D
  0
DICTIONARY
  5
56A
330
4DD
100
AcDbDictionary
280
     1
281
     1
  3
ACAD_XREC_ROUNDTRIP
360
56B
  0
DICTIONARY
  5
564
330
4DA
100
AcDbDictionary
280
     1
281
     1
  3
ACAD_XREC_ROUNDTRIP
360
565
  0
DICTIONARY
  5
566
330
4DB
100
AcDbDictionary
280
     1
281
     1
  3
ACAD_XREC_ROUNDTRIP
360
567
  0
DICTIONARY
  5
55C
330
4D6
100
AcDbDictionary
280
     1
281
     1
  3
ACAD_XREC_ROUNDTRIP
360
55D
  0
DICTIONARY
  5
550
330
4D0
100
AcDbDictionary
280
     1
281
     1
  3
ACAD_XREC_ROUNDTRIP
360
551
  0
DICTIONARY
  5
568
330
4DC
100
AcDbDictionary
280
     1
281
     1
  3
ACAD_XREC_ROUNDTRIP
360
569
  0
XRECORD
  5
579
102
{ACAD_REACTORS
330
578
102
}
330
578
100
AcDbXrecord
280
     1
102
DISPLAYNAME
  1
Imperial24
102
FLAGS
 90
        0
  0
XRECORD
  5
57D
102
{ACAD_REACTORS
330
57C
102
}
330
57C
100
AcDbXrecord
280
     1
102
SHADEPLOT
 70
     0
102
SHADEPLOTRESLEVEL
 70
     2
102
SHADEPLOTCUSTOMDPI
 70
   300
  0
XRECORD
  5
57B
102
{ACAD_REACTORS
330
57A
102
}
330
57A
100
AcDbXrecord
280
     1
102
SHADEPLOT
 70
     0
102
SHADEPLOTRESLEVEL
 70
     2
102
SHADEPLOTCUSTOMDPI
 70
   300
  0
XRECORD
  5
542
102
{ACAD_REACTORS
330
4BA
102
}
330
4BA
100
AcDbXrecord
280
     1
102
MATERIAL
148
0.0
149
0.0
149
0.0
 93
        0
 94
      127
282
     0
 72
     0
 77
     0
171
     0
175
     0
179
     0
273
     0
  0
XRECORD
  5
4BC
102
{ACAD_REACTORS
330
4BA
102
}
330
4BA
100
AcDbXrecord
280
     1
270
     1
271
     1
  0
XRECORD
  5
4BB
102
{ACAD_REACTORS
330
4BA
102
}
330
4BA
100
AcDbXrecord
280
     1
270
     1
271
     1
  0
XRECORD
  5
4BF
102
{ACAD_REACTORS
330
4BA
102
}
330
4BA
100
AcDbXrecord
280
     1
270
     1
271
     1
  0
XRECORD
  5
4BE
102
{ACAD_REACTORS
330
4BA
102
}
330
4BA
100
AcDbXrecord
280
     1
270
     1
271
     1
  0
XRECORD
  5
4C0
102
{ACAD_REACTORS
330
4BA
102
}
330
4BA
100
AcDbXrecord
280
     1
270
     1
271
     1
  0
XRECORD
  5
4BD
102
{ACAD_REACTORS
330
4BA
102
}
330
4BA
100
AcDbXrecord
280
     1
270
     1
271
     1
  0
XRECORD
  5
541
102
{ACAD_REACTORS
330
4B2
102
}
330
4B2
100
AcDbXrecord
280
     1
102
MATERIAL
148
0.0
149
0.0
149
0.0
 93
        0
 94
      127
282
     0
 72
     0
 77
     0
171
     0
175
     0
179
     0
273
     0
  0
XRECORD
  5
4B4
102
{ACAD_REACTORS
330
4B2
102
}
330
4B2
100
AcDbXrecord
280
     1
270
     1
271
     1
  0
XRECORD
  5
4B3
102
{ACAD_REACTORS
330
4B2
102
}
330
4B2
100
AcDbXrecord
280
     1
270
     1
271
     1
  0
XRECORD
  5
4B7
102
{ACAD_REACTORS
330
4B2
102
}
330
4B2
100
AcDbXrecord
280
     1
270
     1
271
     1
  0
XRECORD
  5
4B6
102
{ACAD_REACTORS
330
4B2
102
}
330
4B2
100
AcDbXrecord
280
     1
270
     1
271
     1
  0
XRECORD
  5
4B8
102
{ACAD_REACTORS
330
4B2
102
}
330
4B2
100
AcDbXrecord
280
     1
270
     1
271
     1
  0
XRECORD
  5
4B5
102
{ACAD_REACTORS
330
4B2
102
}
330
4B2
100
AcDbXrecord
280
     1
270
     1
271
     1
  0
XRECORD
  5
543
102
{ACAD_REACTORS
330
4C2
102
}
330
4C2
100
AcDbXrecord
280
     1
102
MATERIAL
148
0.0
149
0.0
149
0.0
 93
        0
 94
      127
282
     0
 72
     0
 77
     0
171
     0
175
     0
179
     0
273
     0
  0
XRECORD
  5
4C4
102
{ACAD_REACTORS
330
4C2
102
}
330
4C2
100
AcDbXrecord
280
     1
270
     1
271
     1
  0
XRECORD
  5
4C3
102
{ACAD_REACTORS
330
4C2
102
}
330
4C2
100
AcDbXrecord
280
     1
270
     1
271
     1
  0
XRECORD
  5
4C7
102
{ACAD_REACTORS
330
4C2
102
}
330
4C2
100
AcDbXrecord
280
     1
270
     1
271
     1
  0
XRECORD
  5
4C6
102
{ACAD_REACTORS
330
4C2
102
}
330
4C2
100
AcDbXrecord
280
     1
270
     1
271
     1
  0
XRECORD
  5
4C8
102
{ACAD_REACTORS
330
4C2
102
}
330
4C2
100
AcDbXrecord
280
     1
270
     1
271
     1
  0
XRECORD
  5
4C5
102
{ACAD_REACTORS
330
4C2
102
}
330
4C2
100
AcDbXrecord
280
     1
270
     1
271
     1
  0
XRECORD
  5
577
102
{ACAD_REACTORS
330
576
102
}
330
576
100
AcDbXrecord
280
     1
102
DISPLAYNAME
  1
Imperial24
102
FLAGS
 90
        0
  0
CELLSTYLEMAP
  5
53E
102
{ACAD_REACTORS
330
53D
102
}
330
53D
100
AcDbCellStyleMap
 90
        3
300
CELLSTYLE
  1
TABLEFORMAT_BEGIN
 90
        5
170
     1
 91
        0
 92
    32768
 62
   257
 93
        1
300
CONTENTFORMAT
  1
CONTENTFORMAT_BEGIN
 90
        0
 91
        0
 92
      512
 93
        0
300

 40
0.0
140
1.0
 94
        5
 62
     0
340
4F5
144
0.25
309
CONTENTFORMAT_END
171
     0
 94
        0
309
TABLEFORMAT_END
  1
CELLSTYLE_BEGIN
 90
        1
 91
        1
300
_TITLE
309
CELLSTYLE_END
300
CELLSTYLE
  1
TABLEFORMAT_BEGIN
 90
        5
170
     1
 91
        0
 92
        0
 62
   257
 93
        1
300
CONTENTFORMAT
  1
CONTENTFORMAT_BEGIN
 90
        0
 91
        0
 92
      512
 93
        0
300

 40
0.0
140
1.0
 94
        5
 62
     0
340
4F5
144
0.18
309
CONTENTFORMAT_END
171
     0
 94
        0
309
TABLEFORMAT_END
  1
CELLSTYLE_BEGIN
 90
        2
 91
        1
300
_HEADER
309
CELLSTYLE_END
300
CELLSTYLE
  1
TABLEFORMAT_BEGIN
 90
        5
170
     1
 91
        0
 92
        0
 62
   257
 93
        1
300
CONTENTFORMAT
  1
CONTENTFORMAT_BEGIN
 90
        0
 91
        0
 92
      512
 93
        0
300

 40
0.0
140
1.0
 94
        2
 62
     0
340
4F5
144
0.18
309
CONTENTFORMAT_END
171
     0
 94
        0
309
TABLEFORMAT_END
  1
CELLSTYLE_BEGIN
 90
        3
 91
        2
300
_DATA
309
CELLSTYLE_END
  0
XRECORD
  5
574
102
{ACAD_REACTORS
330
53D
102
}
330
53D
100
AcDbXrecord
280
     1
102
ACAD_ROUNDTRIP_PRE2007_TABLESTYLE
 90
      512
 91
        0
  1

 92
      512
 93
        0
  2

 94
      512
 95
        0
  3

  0
XRECORD
  5
54F
102
{ACAD_REACTORS
330
54E
102
}
330
54E
100
AcDbXrecord
280
     1
102
RTVSPost2010Prop28
280
     1
102
RTVSPost2010PropOp28
 70
     1
102
RTVSPost2010Prop29
280
     1
102
RTVSPost2010PropOp29
 70
     1
102
RTVSPost2010Prop30
280
     0
102
RTVSPost2010PropOp30
 70
     1
102
RTVSPost2010Prop31
280
     0
102
RTVSPost2010PropOp31
 70
     1
102
RTVSPost2010Prop32
280
     0
102
RTVSPost2010PropOp32
 70
     1
102
RTVSPost2010Prop33
280
     0
102
RTVSPost2010PropOp33
 70
     1
102
RTVSPost2010Prop34
280
     0
102
RTVSPost2010PropOp34
 70
     1
102
RTVSPost2010Prop35
280
     0
102
RTVSPost2010PropOp35
 70
     1
102
RTVSPost2010Prop36
280
     0
102
RTVSPost2010PropOp36
 70
     1
102
RTVSPost2010Prop37
 90
       50
102
RTVSPost2010PropOp37
 70
     1
102
RTVSPost2010Prop38
140
0.0
102
RTVSPost2010PropOp38
 70
     1
102
RTVSPost2010Prop39
140
1.0
102
RTVSPost2010PropOp39
 70
     1
102
RTVSPost2010Prop40
 90
        0
102
RTVSPost2010PropOp40
 70
     1
102
RTVSPost2010Prop41ColorIndex
 90
       18
102
RTVSPost2010Prop41ColorRGB
 90
        0
102
RTVSPost2010PropOp41
 70
     1
102
RTVSPost2010Prop42
 90
       50
102
RTVSPost2010PropOp42
 70
     1
102
RTVSPost2010Prop43
 90
        3
102
RTVSPost2010PropOp43
 70
     1
102
RTVSPost2010Prop44ColorIndex
 90
        5
102
RTVSPost2010Prop44ColorRGB
 90
      255
102
RTVSPost2010PropOp44
 70
     1
102
RTVSPost2010Prop45
280
     0
102
RTVSPost2010PropOp45
 70
     1
102
RTVSPost2010Prop46
 90
       50
102
RTVSPost2010PropOp46
 70
     1
102
RTVSPost2010Prop47
 90
       50
102
RTVSPost2010PropOp47
 70
     1
102
RTVSPost2010Prop48
 90
       50
102
RTVSPost2010PropOp48
 70
     1
102
RTVSPost2010Prop49
280
     0
102
RTVSPost2010PropOp49
 70
     1
102
RTVSPost2010Prop50
 90
       50
102
RTVSPost2010PropOp50
 70
     1
102
RTVSPost2010Prop51ColorIndex
 90
      256
102
RTVSPost2010Prop51ColorRGB
 90
-16777216
102
RTVSPost2010PropOp51
 70
     0
102
RTVSPost2010Prop52
140
1.0
102
RTVSPost2010PropOp52
 70
     0
102
RTVSPost2010Prop53
 90
        2
102
RTVSPost2010PropOp53
 70
     1
102
RTVSPost2010Prop54
  1
strokes_ogs.tif
102
RTVSPost2010PropOp54
 70
     1
102
RTVSPost2010Prop55
280
     0
102
RTVSPost2010PropOp55
 70
     1
102
RTVSPost2010Prop56
140
1.0
102
RTVSPost2010PropOp56
 70
     1
102
RTVSPost2010Prop57
140
1.0
102
RTVSPost2010PropOp57
 70
     1
102
RTVSPropertyOp0
 70
     1
102
RTVSPropertyOp1
 70
     1
102
RTVSPropertyOp2
 70
     1
102
RTVSPropertyOp3
 70
     1
102
RTVSPropertyOp4
 70
     1
102
RTVSPropertyOp5
 70
     1
102
RTVSPropertyOp6
 70
     1
102
RTVSPropertyOp7
 70
     1
102
RTVSPropertyOp8
 70
     1
102
RTVSPropertyOp9
 70
     1
102
RTVSPropertyOp10
 70
     1
102
RTVSPropertyOp11
 70
     1
102
RTVSPropertyOp12
 70
     1
102
RTVSPropertyOp13
 70
     1
102
RTVSPropertyOp14
 70
     1
102
RTVSPropertyOp15
 70
     1
102
RTVSPropertyOp16
 70
     1
102
RTVSPropertyOp17
 70
     1
102
RTVSPropertyOp18
 70
     1
102
RTVSPropertyOp19
 70
     1
102
RTVSPropertyOp20
 70
     1
102
RTVSPropertyOp21
 70
     1
102
RTVSPropertyOp22
 70
     1
102
RTVSPropertyOp23
 70
     1
102
RTVSPropertyOp24
 70
     1
102
RTVSPropertyOp25
 70
     1
102
RTVSPropertyOp26
 70
     1
102
RTVSPropertyOp27
 70
     1
102
RTVSPropertyOp28
 70
     1
102
RTVSPropertyOp29
 70
     1
102
RTVSPropertyOp30
 70
     1
102
RTVSPropertyOp31
 70
     1
102
RTVSPropertyOp32
 70
     1
102
RTVSPropertyOp33
 70
     1
102
RTVSPropertyOp34
 70
     1
102
RTVSPropertyOp35
 70
     1
102
RTVSPropertyOp36
 70
     1
102
RTVSPropertyOp37
 70
     1
102
RTVSPropertyOp38
 70
     1
102
RTVSPropertyOp39
 70
     1
102
RTVSPropertyOp40
 70
     1
102
RTVSPropertyOp41
 70
     1
102
RTVSPropertyOp42
 70
     1
102
RTVSPropertyOp43
 70
     1
102
RTVSPropertyOp44
 70
     1
102
RTVSPropertyOp45
 70
     1
102
RTVSPropertyOp46
 70
     1
102
RTVSPropertyOp47
 70
     1
102
RTVSPropertyOp48
 70
     1
102
RTVSPropertyOp49
 70
     1
102
RTVSPropertyOp50
 70
     1
102
RTVSPropertyOp51
 70
     0
102
RTVSPropertyOp52
 70
     0
102
RTVSPropertyOp53
 70
     1
102
RTVSPropertyOp54
 70
     1
102
RTVSPropertyOp55
 70
     1
102
RTVSPropertyOp56
 70
     1
102
RTVSPropertyOp57
 70
     1
102
RTVSPropertyOp58
 70
     1
102
RTVSPropertyOp59
 70
     1
102
RTVSPropertyOp60
 70
     1
102
RTVSPropertyOp61
 70
     1
102
RTVSPropertyOp62
 70
     1
  0
XRECORD
  5
54D
102
{ACAD_REACTORS
330
54C
102
}
330
54C
100
AcDbXrecord
280
     1
102
RTVSPost2010Prop28
280
     0
102
RTVSPost2010PropOp28
 70
     1
102
RTVSPost2010Prop29
280
     1
102
RTVSPost2010PropOp29
 70
     1
102
RTVSPost2010Prop30
280
     1
102
RTVSPost2010PropOp30
 70
     1
102
RTVSPost2010Prop31
280
     0
102
RTVSPost2010PropOp31
 70
     1
102
RTVSPost2010Prop32
280
     0
102
RTVSPost2010PropOp32
 70
     1
102
RTVSPost2010Prop33
280
     0
102
RTVSPost2010PropOp33
 70
     1
102
RTVSPost2010Prop34
280
     0
102
RTVSPost2010PropOp34
 70
     1
102
RTVSPost2010Prop35
280
     0
102
RTVSPost2010PropOp35
 70
     1
102
RTVSPost2010Prop36
280
     0
102
RTVSPost2010PropOp36
 70
     1
102
RTVSPost2010Prop37
 90
       50
102
RTVSPost2010PropOp37
 70
     1
102
RTVSPost2010Prop38
140
0.0
102
RTVSPost2010PropOp38
 70
     1
102
RTVSPost2010Prop39
140
1.0
102
RTVSPost2010PropOp39
 70
     1
102
RTVSPost2010Prop40
 90
        0
102
RTVSPost2010PropOp40
 70
     1
102
RTVSPost2010Prop41ColorIndex
 90
       18
102
RTVSPost2010Prop41ColorRGB
 90
        0
102
RTVSPost2010PropOp41
 70
     1
102
RTVSPost2010Prop42
 90
       50
102
RTVSPost2010PropOp42
 70
     1
102
RTVSPost2010Prop43
 90
        3
102
RTVSPost2010PropOp43
 70
     1
102
RTVSPost2010Prop44ColorIndex
 90
        5
102
RTVSPost2010Prop44ColorRGB
 90
      255
102
RTVSPost2010PropOp44
 70
     1
102
RTVSPost2010Prop45
280
     0
102
RTVSPost2010PropOp45
 70
     1
102
RTVSPost2010Prop46
 90
       50
102
RTVSPost2010PropOp46
 70
     1
102
RTVSPost2010Prop47
 90
       50
102
RTVSPost2010PropOp47
 70
     1
102
RTVSPost2010Prop48
 90
       50
102
RTVSPost2010PropOp48
 70
     1
102
RTVSPost2010Prop49
280
     0
102
RTVSPost2010PropOp49
 70
     1
102
RTVSPost2010Prop50
 90
       50
102
RTVSPost2010PropOp50
 70
     1
102
RTVSPost2010Prop51ColorIndex
 90
      256
102
RTVSPost2010Prop51ColorRGB
 90
-16777216
102
RTVSPost2010PropOp51
 70
     0
102
RTVSPost2010Prop52
140
1.0
102
RTVSPost2010PropOp52
 70
     0
102
RTVSPost2010Prop53
 90
        2
102
RTVSPost2010PropOp53
 70
     1
102
RTVSPost2010Prop54
  1
strokes_ogs.tif
102
RTVSPost2010PropOp54
 70
     1
102
RTVSPost2010Prop55
280
     0
102
RTVSPost2010PropOp55
 70
     1
102
RTVSPost2010Prop56
140
1.0
102
RTVSPost2010PropOp56
 70
     1
102
RTVSPost2010Prop57
140
1.0
102
RTVSPost2010PropOp57
 70
     1
102
RTVSPropertyOp0
 70
     1
102
RTVSPropertyOp1
 70
     1
102
RTVSPropertyOp2
 70
     1
102
RTVSPropertyOp3
 70
     1
102
RTVSPropertyOp4
 70
     1
102
RTVSPropertyOp5
 70
     1
102
RTVSPropertyOp6
 70
     1
102
RTVSPropertyOp7
 70
     1
102
RTVSPropertyOp8
 70
     1
102
RTVSPropertyOp9
 70
     1
102
RTVSPropertyOp10
 70
     1
102
RTVSPropertyOp11
 70
     1
102
RTVSPropertyOp12
 70
     1
102
RTVSPropertyOp13
 70
     1
102
RTVSPropertyOp14
 70
     1
102
RTVSPropertyOp15
 70
     1
102
RTVSPropertyOp16
 70
     1
102
RTVSPropertyOp17
 70
     1
102
RTVSPropertyOp18
 70
     1
102
RTVSPropertyOp19
 70
     1
102
RTVSPropertyOp20
 70
     1
102
RTVSPropertyOp21
 70
     1
102
RTVSPropertyOp22
 70
     1
102
RTVSPropertyOp23
 70
     1
102
RTVSPropertyOp24
 70
     1
102
RTVSPropertyOp25
 70
     1
102
RTVSPropertyOp26
 70
     1
102
RTVSPropertyOp27
 70
     1
102
RTVSPropertyOp28
 70
     1
102
RTVSPropertyOp29
 70
     1
102
RTVSPropertyOp30
 70
     1
102
RTVSPropertyOp31
 70
     1
102
RTVSPropertyOp32
 70
     1
102
RTVSPropertyOp33
 70
     1
102
RTVSPropertyOp34
 70
     1
102
RTVSPropertyOp35
 70
     1
102
RTVSPropertyOp36
 70
     1
102
RTVSPropertyOp37
 70
     1
102
RTVSPropertyOp38
 70
     1
102
RTVSPropertyOp39
 70
     1
102
RTVSPropertyOp40
 70
     1
102
RTVSPropertyOp41
 70
     1
102
RTVSPropertyOp42
 70
     1
102
RTVSPropertyOp43
 70
     1
102
RTVSPropertyOp44
 70
     1
102
RTVSPropertyOp45
 70
     1
102
RTVSPropertyOp46
 70
     1
102
RTVSPropertyOp47
 70
     1
102
RTVSPropertyOp48
 70
     1
102
RTVSPropertyOp49
 70
     1
102
RTVSPropertyOp50
 70
     1
102
RTVSPropertyOp51
 70
     0
102
RTVSPropertyOp52
 70
     0
102
RTVSPropertyOp53
 70
     1
102
RTVSPropertyOp54
 70
     1
102
RTVSPropertyOp55
 70
     1
102
RTVSPropertyOp56
 70
     1
102
RTVSPropertyOp57
 70
     1
102
RTVSPropertyOp58
 70
     1
102
RTVSPropertyOp59
 70
     1
102
RTVSPropertyOp60
 70
     1
102
RTVSPropertyOp61
 70
     1
102
RTVSPropertyOp62
 70
     1
  0
XRECORD
  5
55B
102
{ACAD_REACTORS
330
55A
102
}
330
55A
100
AcDbXrecord
280
     1
102
RTVSPost2010Prop28
280
     0
102
RTVSPost2010PropOp28
 70
     1
102
RTVSPost2010Prop29
280
     1
102
RTVSPost2010PropOp29
 70
     1
102
RTVSPost2010Prop30
280
     1
102
RTVSPost2010PropOp30
 70
     1
102
RTVSPost2010Prop31
280
     0
102
RTVSPost2010PropOp31
 70
     1
102
RTVSPost2010Prop32
280
     0
102
RTVSPost2010PropOp32
 70
     1
102
RTVSPost2010Prop33
280
     0
102
RTVSPost2010PropOp33
 70
     1
102
RTVSPost2010Prop34
280
     0
102
RTVSPost2010PropOp34
 70
     1
102
RTVSPost2010Prop35
280
     0
102
RTVSPost2010PropOp35
 70
     1
102
RTVSPost2010Prop36
280
     0
102
RTVSPost2010PropOp36
 70
     1
102
RTVSPost2010Prop37
 90
       50
102
RTVSPost2010PropOp37
 70
     1
102
RTVSPost2010Prop38
140
0.0
102
RTVSPost2010PropOp38
 70
     1
102
RTVSPost2010Prop39
140
1.0
102
RTVSPost2010PropOp39
 70
     1
102
RTVSPost2010Prop40
 90
        0
102
RTVSPost2010PropOp40
 70
     1
102
RTVSPost2010Prop41ColorIndex
 90
       18
102
RTVSPost2010Prop41ColorRGB
 90
        0
102
RTVSPost2010PropOp41
 70
     1
102
RTVSPost2010Prop42
 90
       50
102
RTVSPost2010PropOp42
 70
     1
102
RTVSPost2010Prop43
 90
        3
102
RTVSPost2010PropOp43
 70
     1
102
RTVSPost2010Prop44ColorIndex
 90
        5
102
RTVSPost2010Prop44ColorRGB
 90
      255
102
RTVSPost2010PropOp44
 70
     1
102
RTVSPost2010Prop45
280
     0
102
RTVSPost2010PropOp45
 70
     1
102
RTVSPost2010Prop46
 90
       50
102
RTVSPost2010PropOp46
 70
     1
102
RTVSPost2010Prop47
 90
       50
102
RTVSPost2010PropOp47
 70
     1
102
RTVSPost2010Prop48
 90
       50
102
RTVSPost2010PropOp48
 70
     1
102
RTVSPost2010Prop49
280
     0
102
RTVSPost2010PropOp49
 70
     1
102
RTVSPost2010Prop50
 90
       50
102
RTVSPost2010PropOp50
 70
     1
102
RTVSPost2010Prop51ColorIndex
 90
      256
102
RTVSPost2010Prop51ColorRGB
 90
-16777216
102
RTVSPost2010PropOp51
 70
     0
102
RTVSPost2010Prop52
140
1.0
102
RTVSPost2010PropOp52
 70
     0
102
RTVSPost2010Prop53
 90
        2
102
RTVSPost2010PropOp53
 70
     1
102
RTVSPost2010Prop54
  1
strokes_ogs.tif
102
RTVSPost2010PropOp54
 70
     1
102
RTVSPost2010Prop55
280
     0
102
RTVSPost2010PropOp55
 70
     1
102
RTVSPost2010Prop56
140
1.0
102
RTVSPost2010PropOp56
 70
     1
102
RTVSPost2010Prop57
140
1.0
102
RTVSPost2010PropOp57
 70
     1
102
RTVSPropertyOp0
 70
     1
102
RTVSPropertyOp1
 70
     1
102
RTVSPropertyOp2
 70
     1
102
RTVSPropertyOp3
 70
     1
102
RTVSPropertyOp4
 70
     1
102
RTVSPropertyOp5
 70
     1
102
RTVSPropertyOp6
 70
     1
102
RTVSPropertyOp7
 70
     1
102
RTVSPropertyOp8
 70
     1
102
RTVSPropertyOp9
 70
     1
102
RTVSPropertyOp10
 70
     1
102
RTVSPropertyOp11
 70
     1
102
RTVSPropertyOp12
 70
     1
102
RTVSPropertyOp13
 70
     1
102
RTVSPropertyOp14
 70
     1
102
RTVSPropertyOp15
 70
     1
102
RTVSPropertyOp16
 70
     1
102
RTVSPropertyOp17
 70
     1
102
RTVSPropertyOp18
 70
     1
102
RTVSPropertyOp19
 70
     1
102
RTVSPropertyOp20
 70
     1
102
RTVSPropertyOp21
 70
     1
102
RTVSPropertyOp22
 70
     1
102
RTVSPropertyOp23
 70
     1
102
RTVSPropertyOp24
 70
     1
102
RTVSPropertyOp25
 70
     1
102
RTVSPropertyOp26
 70
     1
102
RTVSPropertyOp27
 70
     1
102
RTVSPropertyOp28
 70
     1
102
RTVSPropertyOp29
 70
     1
102
RTVSPropertyOp30
 70
     1
102
RTVSPropertyOp31
 70
     1
102
RTVSPropertyOp32
 70
     1
102
RTVSPropertyOp33
 70
     1
102
RTVSPropertyOp34
 70
     1
102
RTVSPropertyOp35
 70
     1
102
RTVSPropertyOp36
 70
     1
102
RTVSPropertyOp37
 70
     1
102
RTVSPropertyOp38
 70
     1
102
RTVSPropertyOp39
 70
     1
102
RTVSPropertyOp40
 70
     1
102
RTVSPropertyOp41
 70
     1
102
RTVSPropertyOp42
 70
     1
102
RTVSPropertyOp43
 70
     1
102
RTVSPropertyOp44
 70
     1
102
RTVSPropertyOp45
 70
     1
102
RTVSPropertyOp46
 70
     1
102
RTVSPropertyOp47
 70
     1
102
RTVSPropertyOp48
 70
     1
102
RTVSPropertyOp49
 70
     1
102
RTVSPropertyOp50
 70
     1
102
RTVSPropertyOp51
 70
     0
102
RTVSPropertyOp52
 70
     0
102
RTVSPropertyOp53
 70
     1
102
RTVSPropertyOp54
 70
     1
102
RTVSPropertyOp55
 70
     1
102
RTVSPropertyOp56
 70
     1
102
RTVSPropertyOp57
 70
     1
102
RTVSPropertyOp58
 70
     1
102
RTVSPropertyOp59
 70
     1
102
RTVSPropertyOp60
 70
     1
102
RTVSPropertyOp61
 70
     1
102
RTVSPropertyOp62
 70
     1
  0
XRECORD
  5
563
102
{ACAD_REACTORS
330
562
102
}
330
562
100
AcDbXrecord
280
     1
102
RTVSPost2010Prop28
280
     0
102
RTVSPost2010PropOp28
 70
     1
102
RTVSPost2010Prop29
280
     1
102
RTVSPost2010PropOp29
 70
     1
102
RTVSPost2010Prop30
280
     1
102
RTVSPost2010PropOp30
 70
     1
102
RTVSPost2010Prop31
280
     0
102
RTVSPost2010PropOp31
 70
     1
102
RTVSPost2010Prop32
280
     0
102
RTVSPost2010PropOp32
 70
     1
102
RTVSPost2010Prop33
280
     0
102
RTVSPost2010PropOp33
 70
     1
102
RTVSPost2010Prop34
280
     0
102
RTVSPost2010PropOp34
 70
     1
102
RTVSPost2010Prop35
280
     0
102
RTVSPost2010PropOp35
 70
     1
102
RTVSPost2010Prop36
280
     0
102
RTVSPost2010PropOp36
 70
     1
102
RTVSPost2010Prop37
 90
       50
102
RTVSPost2010PropOp37
 70
     1
102
RTVSPost2010Prop38
140
0.0
102
RTVSPost2010PropOp38
 70
     1
102
RTVSPost2010Prop39
140
1.0
102
RTVSPost2010PropOp39
 70
     1
102
RTVSPost2010Prop40
 90
        0
102
RTVSPost2010PropOp40
 70
     1
102
RTVSPost2010Prop41ColorIndex
 90
       18
102
RTVSPost2010Prop41ColorRGB
 90
        0
102
RTVSPost2010PropOp41
 70
     1
102
RTVSPost2010Prop42
 90
       50
102
RTVSPost2010PropOp42
 70
     1
102
RTVSPost2010Prop43
 90
        3
102
RTVSPost2010PropOp43
 70
     1
102
RTVSPost2010Prop44ColorIndex
 90
        5
102
RTVSPost2010Prop44ColorRGB
 90
      255
102
RTVSPost2010PropOp44
 70
     1
102
RTVSPost2010Prop45
280
     0
102
RTVSPost2010PropOp45
 70
     1
102
RTVSPost2010Prop46
 90
       50
102
RTVSPost2010PropOp46
 70
     1
102
RTVSPost2010Prop47
 90
       50
102
RTVSPost2010PropOp47
 70
     1
102
RTVSPost2010Prop48
 90
       50
102
RTVSPost2010PropOp48
 70
     1
102
RTVSPost2010Prop49
280
     0
102
RTVSPost2010PropOp49
 70
     1
102
RTVSPost2010Prop50
 90
       50
102
RTVSPost2010PropOp50
 70
     1
102
RTVSPost2010Prop51ColorIndex
 90
      256
102
RTVSPost2010Prop51ColorRGB
 90
-16777216
102
RTVSPost2010PropOp51
 70
     0
102
RTVSPost2010Prop52
140
1.0
102
RTVSPost2010PropOp52
 70
     0
102
RTVSPost2010Prop53
 90
        2
102
RTVSPost2010PropOp53
 70
     1
102
RTVSPost2010Prop54
  1
strokes_ogs.tif
102
RTVSPost2010PropOp54
 70
     1
102
RTVSPost2010Prop55
280
     0
102
RTVSPost2010PropOp55
 70
     1
102
RTVSPost2010Prop56
140
1.0
102
RTVSPost2010PropOp56
 70
     1
102
RTVSPost2010Prop57
140
1.0
102
RTVSPost2010PropOp57
 70
     1
102
RTVSPropertyOp0
 70
     1
102
RTVSPropertyOp1
 70
     1
102
RTVSPropertyOp2
 70
     1
102
RTVSPropertyOp3
 70
     1
102
RTVSPropertyOp4
 70
     1
102
RTVSPropertyOp5
 70
     1
102
RTVSPropertyOp6
 70
     1
102
RTVSPropertyOp7
 70
     1
102
RTVSPropertyOp8
 70
     1
102
RTVSPropertyOp9
 70
     1
102
RTVSPropertyOp10
 70
     1
102
RTVSPropertyOp11
 70
     1
102
RTVSPropertyOp12
 70
     1
102
RTVSPropertyOp13
 70
     1
102
RTVSPropertyOp14
 70
     1
102
RTVSPropertyOp15
 70
     1
102
RTVSPropertyOp16
 70
     1
102
RTVSPropertyOp17
 70
     1
102
RTVSPropertyOp18
 70
     1
102
RTVSPropertyOp19
 70
     1
102
RTVSPropertyOp20
 70
     1
102
RTVSPropertyOp21
 70
     1
102
RTVSPropertyOp22
 70
     1
102
RTVSPropertyOp23
 70
     1
102
RTVSPropertyOp24
 70
     1
102
RTVSPropertyOp25
 70
     1
102
RTVSPropertyOp26
 70
     1
102
RTVSPropertyOp27
 70
     1
102
RTVSPropertyOp28
 70
     1
102
RTVSPropertyOp29
 70
     1
102
RTVSPropertyOp30
 70
     1
102
RTVSPropertyOp31
 70
     1
102
RTVSPropertyOp32
 70
     1
102
RTVSPropertyOp33
 70
     1
102
RTVSPropertyOp34
 70
     1
102
RTVSPropertyOp35
 70
     1
102
RTVSPropertyOp36
 70
     1
102
RTVSPropertyOp37
 70
     1
102
RTVSPropertyOp38
 70
     1
102
RTVSPropertyOp39
 70
     1
102
RTVSPropertyOp40
 70
     1
102
RTVSPropertyOp41
 70
     1
102
RTVSPropertyOp42
 70
     1
102
RTVSPropertyOp43
 70
     1
102
RTVSPropertyOp44
 70
     1
102
RTVSPropertyOp45
 70
     1
102
RTVSPropertyOp46
 70
     1
102
RTVSPropertyOp47
 70
     1
102
RTVSPropertyOp48
 70
     1
102
RTVSPropertyOp49
 70
     1
102
RTVSPropertyOp50
 70
     1
102
RTVSPropertyOp51
 70
     0
102
RTVSPropertyOp52
 70
     0
102
RTVSPropertyOp53
 70
     1
102
RTVSPropertyOp54
 70
     1
102
RTVSPropertyOp55
 70
     1
102
RTVSPropertyOp56
 70
     1
102
RTVSPropertyOp57
 70
     1
102
RTVSPropertyOp58
 70
     1
102
RTVSPropertyOp59
 70
     1
102
RTVSPropertyOp60
 70
     1
102
RTVSPropertyOp61
 70
     1
102
RTVSPropertyOp62
 70
     1
  0
XRECORD
  5
555
102
{ACAD_REACTORS
330
554
102
}
330
554
100
AcDbXrecord
280
     1
102
RTVSPost2010Prop28
280
     0
102
RTVSPost2010PropOp28
 70
     1
102
RTVSPost2010Prop29
280
     1
102
RTVSPost2010PropOp29
 70
     1
102
RTVSPost2010Prop30
280
     1
102
RTVSPost2010PropOp30
 70
     1
102
RTVSPost2010Prop31
280
     0
102
RTVSPost2010PropOp31
 70
     1
102
RTVSPost2010Prop32
280
     0
102
RTVSPost2010PropOp32
 70
     1
102
RTVSPost2010Prop33
280
     0
102
RTVSPost2010PropOp33
 70
     1
102
RTVSPost2010Prop34
280
     0
102
RTVSPost2010PropOp34
 70
     1
102
RTVSPost2010Prop35
280
     0
102
RTVSPost2010PropOp35
 70
     1
102
RTVSPost2010Prop36
280
     0
102
RTVSPost2010PropOp36
 70
     1
102
RTVSPost2010Prop37
 90
       50
102
RTVSPost2010PropOp37
 70
     1
102
RTVSPost2010Prop38
140
0.0
102
RTVSPost2010PropOp38
 70
     1
102
RTVSPost2010Prop39
140
1.0
102
RTVSPost2010PropOp39
 70
     1
102
RTVSPost2010Prop40
 90
        0
102
RTVSPost2010PropOp40
 70
     1
102
RTVSPost2010Prop41ColorIndex
 90
       18
102
RTVSPost2010Prop41ColorRGB
 90
        0
102
RTVSPost2010PropOp41
 70
     1
102
RTVSPost2010Prop42
 90
       50
102
RTVSPost2010PropOp42
 70
     1
102
RTVSPost2010Prop43
 90
        3
102
RTVSPost2010PropOp43
 70
     1
102
RTVSPost2010Prop44ColorIndex
 90
        5
102
RTVSPost2010Prop44ColorRGB
 90
      255
102
RTVSPost2010PropOp44
 70
     1
102
RTVSPost2010Prop45
280
     0
102
RTVSPost2010PropOp45
 70
     1
102
RTVSPost2010Prop46
 90
       50
102
RTVSPost2010PropOp46
 70
     1
102
RTVSPost2010Prop47
 90
       50
102
RTVSPost2010PropOp47
 70
     1
102
RTVSPost2010Prop48
 90
       50
102
RTVSPost2010PropOp48
 70
     1
102
RTVSPost2010Prop49
280
     0
102
RTVSPost2010PropOp49
 70
     1
102
RTVSPost2010Prop50
 90
       50
102
RTVSPost2010PropOp50
 70
     1
102
RTVSPost2010Prop51ColorIndex
 90
      256
102
RTVSPost2010Prop51ColorRGB
 90
-16777216
102
RTVSPost2010PropOp51
 70
     0
102
RTVSPost2010Prop52
140
1.0
102
RTVSPost2010PropOp52
 70
     0
102
RTVSPost2010Prop53
 90
        2
102
RTVSPost2010PropOp53
 70
     1
102
RTVSPost2010Prop54
  1
strokes_ogs.tif
102
RTVSPost2010PropOp54
 70
     1
102
RTVSPost2010Prop55
280
     0
102
RTVSPost2010PropOp55
 70
     1
102
RTVSPost2010Prop56
140
1.0
102
RTVSPost2010PropOp56
 70
     1
102
RTVSPost2010Prop57
140
1.0
102
RTVSPost2010PropOp57
 70
     1
102
RTVSPropertyOp0
 70
     1
102
RTVSPropertyOp1
 70
     1
102
RTVSPropertyOp2
 70
     1
102
RTVSPropertyOp3
 70
     1
102
RTVSPropertyOp4
 70
     1
102
RTVSPropertyOp5
 70
     1
102
RTVSPropertyOp6
 70
     1
102
RTVSPropertyOp7
 70
     1
102
RTVSPropertyOp8
 70
     1
102
RTVSPropertyOp9
 70
     1
102
RTVSPropertyOp10
 70
     1
102
RTVSPropertyOp11
 70
     1
102
RTVSPropertyOp12
 70
     1
102
RTVSPropertyOp13
 70
     1
102
RTVSPropertyOp14
 70
     1
102
RTVSPropertyOp15
 70
     1
102
RTVSPropertyOp16
 70
     1
102
RTVSPropertyOp17
 70
     1
102
RTVSPropertyOp18
 70
     1
102
RTVSPropertyOp19
 70
     1
102
RTVSPropertyOp20
 70
     1
102
RTVSPropertyOp21
 70
     1
102
RTVSPropertyOp22
 70
     1
102
RTVSPropertyOp23
 70
     1
102
RTVSPropertyOp24
 70
     1
102
RTVSPropertyOp25
 70
     1
102
RTVSPropertyOp26
 70
     1
102
RTVSPropertyOp27
 70
     1
102
RTVSPropertyOp28
 70
     1
102
RTVSPropertyOp29
 70
     1
102
RTVSPropertyOp30
 70
     1
102
RTVSPropertyOp31
 70
     1
102
RTVSPropertyOp32
 70
     1
102
RTVSPropertyOp33
 70
     1
102
RTVSPropertyOp34
 70
     1
102
RTVSPropertyOp35
 70
     1
102
RTVSPropertyOp36
 70
     1
102
RTVSPropertyOp37
 70
     1
102
RTVSPropertyOp38
 70
     1
102
RTVSPropertyOp39
 70
     1
102
RTVSPropertyOp40
 70
     1
102
RTVSPropertyOp41
 70
     1
102
RTVSPropertyOp42
 70
     1
102
RTVSPropertyOp43
 70
     1
102
RTVSPropertyOp44
 70
     1
102
RTVSPropertyOp45
 70
     1
102
RTVSPropertyOp46
 70
     1
102
RTVSPropertyOp47
 70
     1
102
RTVSPropertyOp48
 70
     1
102
RTVSPropertyOp49
 70
     1
102
RTVSPropertyOp50
 70
     1
102
RTVSPropertyOp51
 70
     0
102
RTVSPropertyOp52
 70
     0
102
RTVSPropertyOp53
 70
     1
102
RTVSPropertyOp54
 70
     1
102
RTVSPropertyOp55
 70
     1
102
RTVSPropertyOp56
 70
     1
102
RTVSPropertyOp57
 70
     1
102
RTVSPropertyOp58
 70
     1
102
RTVSPropertyOp59
 70
     1
102
RTVSPropertyOp60
 70
     1
102
RTVSPropertyOp61
 70
     1
102
RTVSPropertyOp62
 70
     1
  0
XRECORD
  5
559
102
{ACAD_REACTORS
330
558
102
}
330
558
100
AcDbXrecord
280
     1
102
RTVSPost2010Prop28
280
     0
102
RTVSPost2010PropOp28
 70
     1
102
RTVSPost2010Prop29
280
     1
102
RTVSPost2010PropOp29
 70
     1
102
RTVSPost2010Prop30
280
     1
102
RTVSPost2010PropOp30
 70
     1
102
RTVSPost2010Prop31
280
     0
102
RTVSPost2010PropOp31
 70
     1
102
RTVSPost2010Prop32
280
     0
102
RTVSPost2010PropOp32
 70
     1
102
RTVSPost2010Prop33
280
     0
102
RTVSPost2010PropOp33
 70
     1
102
RTVSPost2010Prop34
280
     0
102
RTVSPost2010PropOp34
 70
     1
102
RTVSPost2010Prop35
280
     0
102
RTVSPost2010PropOp35
 70
     1
102
RTVSPost2010Prop36
280
     0
102
RTVSPost2010PropOp36
 70
     1
102
RTVSPost2010Prop37
 90
       50
102
RTVSPost2010PropOp37
 70
     1
102
RTVSPost2010Prop38
140
0.0
102
RTVSPost2010PropOp38
 70
     1
102
RTVSPost2010Prop39
140
1.0
102
RTVSPost2010PropOp39
 70
     1
102
RTVSPost2010Prop40
 90
        0
102
RTVSPost2010PropOp40
 70
     1
102
RTVSPost2010Prop41ColorIndex
 90
       18
102
RTVSPost2010Prop41ColorRGB
 90
        0
102
RTVSPost2010PropOp41
 70
     1
102
RTVSPost2010Prop42
 90
       50
102
RTVSPost2010PropOp42
 70
     1
102
RTVSPost2010Prop43
 90
        3
102
RTVSPost2010PropOp43
 70
     1
102
RTVSPost2010Prop44ColorIndex
 90
        5
102
RTVSPost2010Prop44ColorRGB
 90
      255
102
RTVSPost2010PropOp44
 70
     1
102
RTVSPost2010Prop45
280
     0
102
RTVSPost2010PropOp45
 70
     1
102
RTVSPost2010Prop46
 90
       50
102
RTVSPost2010PropOp46
 70
     1
102
RTVSPost2010Prop47
 90
       50
102
RTVSPost2010PropOp47
 70
     1
102
RTVSPost2010Prop48
 90
       50
102
RTVSPost2010PropOp48
 70
     1
102
RTVSPost2010Prop49
280
     0
102
RTVSPost2010PropOp49
 70
     1
102
RTVSPost2010Prop50
 90
       50
102
RTVSPost2010PropOp50
 70
     1
102
RTVSPost2010Prop51ColorIndex
 90
      256
102
RTVSPost2010Prop51ColorRGB
 90
-16777216
102
RTVSPost2010PropOp51
 70
     0
102
RTVSPost2010Prop52
140
1.0
102
RTVSPost2010PropOp52
 70
     0
102
RTVSPost2010Prop53
 90
        2
102
RTVSPost2010PropOp53
 70
     1
102
RTVSPost2010Prop54
  1
strokes_ogs.tif
102
RTVSPost2010PropOp54
 70
     1
102
RTVSPost2010Prop55
280
     0
102
RTVSPost2010PropOp55
 70
     1
102
RTVSPost2010Prop56
140
1.0
102
RTVSPost2010PropOp56
 70
     1
102
RTVSPost2010Prop57
140
1.0
102
RTVSPost2010PropOp57
 70
     1
102
RTVSPropertyOp0
 70
     1
102
RTVSPropertyOp1
 70
     1
102
RTVSPropertyOp2
 70
     1
102
RTVSPropertyOp3
 70
     1
102
RTVSPropertyOp4
 70
     1
102
RTVSPropertyOp5
 70
     1
102
RTVSPropertyOp6
 70
     1
102
RTVSPropertyOp7
 70
     1
102
RTVSPropertyOp8
 70
     1
102
RTVSPropertyOp9
 70
     1
102
RTVSPropertyOp10
 70
     1
102
RTVSPropertyOp11
 70
     1
102
RTVSPropertyOp12
 70
     1
102
RTVSPropertyOp13
 70
     1
102
RTVSPropertyOp14
 70
     1
102
RTVSPropertyOp15
 70
     1
102
RTVSPropertyOp16
 70
     1
102
RTVSPropertyOp17
 70
     1
102
RTVSPropertyOp18
 70
     1
102
RTVSPropertyOp19
 70
     1
102
RTVSPropertyOp20
 70
     1
102
RTVSPropertyOp21
 70
     1
102
RTVSPropertyOp22
 70
     1
102
RTVSPropertyOp23
 70
     1
102
RTVSPropertyOp24
 70
     1
102
RTVSPropertyOp25
 70
     1
102
RTVSPropertyOp26
 70
     1
102
RTVSPropertyOp27
 70
     1
102
RTVSPropertyOp28
 70
     1
102
RTVSPropertyOp29
 70
     1
102
RTVSPropertyOp30
 70
     1
102
RTVSPropertyOp31
 70
     1
102
RTVSPropertyOp32
 70
     1
102
RTVSPropertyOp33
 70
     1
102
RTVSPropertyOp34
 70
     1
102
RTVSPropertyOp35
 70
     1
102
RTVSPropertyOp36
 70
     1
102
RTVSPropertyOp37
 70
     1
102
RTVSPropertyOp38
 70
     1
102
RTVSPropertyOp39
 70
     1
102
RTVSPropertyOp40
 70
     1
102
RTVSPropertyOp41
 70
     1
102
RTVSPropertyOp42
 70
     1
102
RTVSPropertyOp43
 70
     1
102
RTVSPropertyOp44
 70
     1
102
RTVSPropertyOp45
 70
     1
102
RTVSPropertyOp46
 70
     1
102
RTVSPropertyOp47
 70
     1
102
RTVSPropertyOp48
 70
     1
102
RTVSPropertyOp49
 70
     1
102
RTVSPropertyOp50
 70
     1
102
RTVSPropertyOp51
 70
     0
102
RTVSPropertyOp52
 70
     0
102
RTVSPropertyOp53
 70
     1
102
RTVSPropertyOp54
 70
     1
102
RTVSPropertyOp55
 70
     1
102
RTVSPropertyOp56
 70
     1
102
RTVSPropertyOp57
 70
     1
102
RTVSPropertyOp58
 70
     1
102
RTVSPropertyOp59
 70
     1
102
RTVSPropertyOp60
 70
     1
102
RTVSPropertyOp61
 70
     1
102
RTVSPropertyOp62
 70
     1
  0
XRECORD
  5
573
102
{ACAD_REACTORS
330
572
102
}
330
572
100
AcDbXrecord
280
     1
102
RTVSPost2010Prop28
280
     0
102
RTVSPost2010PropOp28
 70
     1
102
RTVSPost2010Prop29
280
     1
102
RTVSPost2010PropOp29
 70
     1
102
RTVSPost2010Prop30
280
     1
102
RTVSPost2010PropOp30
 70
     1
102
RTVSPost2010Prop31
280
     0
102
RTVSPost2010PropOp31
 70
     1
102
RTVSPost2010Prop32
280
     0
102
RTVSPost2010PropOp32
 70
     1
102
RTVSPost2010Prop33
280
     0
102
RTVSPost2010PropOp33
 70
     1
102
RTVSPost2010Prop34
280
     0
102
RTVSPost2010PropOp34
 70
     1
102
RTVSPost2010Prop35
280
     0
102
RTVSPost2010PropOp35
 70
     1
102
RTVSPost2010Prop36
280
     0
102
RTVSPost2010PropOp36
 70
     1
102
RTVSPost2010Prop37
 90
       50
102
RTVSPost2010PropOp37
 70
     0
102
RTVSPost2010Prop38
140
0.0
102
RTVSPost2010PropOp38
 70
     0
102
RTVSPost2010Prop39
140
1.0
102
RTVSPost2010PropOp39
 70
     0
102
RTVSPost2010Prop40
 90
        0
102
RTVSPost2010PropOp40
 70
     0
102
RTVSPost2010Prop41ColorIndex
 90
       18
102
RTVSPost2010Prop41ColorRGB
 90
        0
102
RTVSPost2010PropOp41
 70
     0
102
RTVSPost2010Prop42
 90
       50
102
RTVSPost2010PropOp42
 70
     0
102
RTVSPost2010Prop43
 90
        3
102
RTVSPost2010PropOp43
 70
     0
102
RTVSPost2010Prop44ColorIndex
 90
        5
102
RTVSPost2010Prop44ColorRGB
 90
      255
102
RTVSPost2010PropOp44
 70
     0
102
RTVSPost2010Prop45
280
     0
102
RTVSPost2010PropOp45
 70
     1
102
RTVSPost2010Prop46
 90
       50
102
RTVSPost2010PropOp46
 70
     0
102
RTVSPost2010Prop47
 90
       50
102
RTVSPost2010PropOp47
 70
     0
102
RTVSPost2010Prop48
 90
       50
102
RTVSPost2010PropOp48
 70
     0
102
RTVSPost2010Prop49
280
     0
102
RTVSPost2010PropOp49
 70
     1
102
RTVSPost2010Prop50
 90
       50
102
RTVSPost2010PropOp50
 70
     0
102
RTVSPost2010Prop51ColorIndex
 90
      256
102
RTVSPost2010Prop51ColorRGB
 90
-16777216
102
RTVSPost2010PropOp51
 70
     0
102
RTVSPost2010Prop52
140
1.0
102
RTVSPost2010PropOp52
 70
     0
102
RTVSPost2010Prop53
 90
        2
102
RTVSPost2010PropOp53
 70
     0
102
RTVSPost2010Prop54
  1
strokes_ogs.tif
102
RTVSPost2010PropOp54
 70
     0
102
RTVSPost2010Prop55
280
     0
102
RTVSPost2010PropOp55
 70
     1
102
RTVSPost2010Prop56
140
1.0
102
RTVSPost2010PropOp56
 70
     0
102
RTVSPost2010Prop57
140
1.0
102
RTVSPost2010PropOp57
 70
     0
102
RTVSPropertyOp0
 70
     0
102
RTVSPropertyOp1
 70
     0
102
RTVSPropertyOp2
 70
     0
102
RTVSPropertyOp3
 70
     0
102
RTVSPropertyOp4
 70
     0
102
RTVSPropertyOp5
 70
     0
102
RTVSPropertyOp6
 70
     0
102
RTVSPropertyOp7
 70
     0
102
RTVSPropertyOp8
 70
     0
102
RTVSPropertyOp9
 70
     0
102
RTVSPropertyOp10
 70
     0
102
RTVSPropertyOp11
 70
     0
102
RTVSPropertyOp12
 70
     0
102
RTVSPropertyOp13
 70
     0
102
RTVSPropertyOp14
 70
     2
102
RTVSPropertyOp15
 70
     0
102
RTVSPropertyOp16
 70
     0
102
RTVSPropertyOp17
 70
     0
102
RTVSPropertyOp18
 70
     0
102
RTVSPropertyOp19
 70
     0
102
RTVSPropertyOp20
 70
     0
102
RTVSPropertyOp21
 70
     0
102
RTVSPropertyOp22
 70
     0
102
RTVSPropertyOp23
 70
     0
102
RTVSPropertyOp24
 70
     0
102
RTVSPropertyOp25
 70
     0
102
RTVSPropertyOp26
 70
     0
102
RTVSPropertyOp27
 70
     0
102
RTVSPropertyOp28
 70
     1
102
RTVSPropertyOp29
 70
     1
102
RTVSPropertyOp30
 70
     1
102
RTVSPropertyOp31
 70
     1
102
RTVSPropertyOp32
 70
     1
102
RTVSPropertyOp33
 70
     1
102
RTVSPropertyOp34
 70
     1
102
RTVSPropertyOp35
 70
     1
102
RTVSPropertyOp36
 70
     1
102
RTVSPropertyOp37
 70
     0
102
RTVSPropertyOp38
 70
     0
102
RTVSPropertyOp39
 70
     0
102
RTVSPropertyOp40
 70
     0
102
RTVSPropertyOp41
 70
     0
102
RTVSPropertyOp42
 70
     0
102
RTVSPropertyOp43
 70
     0
102
RTVSPropertyOp44
 70
     0
102
RTVSPropertyOp45
 70
     1
102
RTVSPropertyOp46
 70
     0
102
RTVSPropertyOp47
 70
     0
102
RTVSPropertyOp48
 70
     0
102
RTVSPropertyOp49
 70
     1
102
RTVSPropertyOp50
 70
     0
102
RTVSPropertyOp51
 70
     0
102
RTVSPropertyOp52
 70
     0
102
RTVSPropertyOp53
 70
     0
102
RTVSPropertyOp54
 70
     0
102
RTVSPropertyOp55
 70
     1
102
RTVSPropertyOp56
 70
     0
102
RTVSPropertyOp57
 70
     0
102
RTVSPropertyOp58
 70
     0
102
RTVSPropertyOp59
 70
     0
102
RTVSPropertyOp60
 70
     0
102
RTVSPropertyOp61
 70
     0
102
RTVSPropertyOp62
 70
     0
  0
XRECORD
  5
561
102
{ACAD_REACTORS
330
560
102
}
330
560
100
AcDbXrecord
280
     1
102
RTVSPost2010Prop28
280
     0
102
RTVSPost2010PropOp28
 70
     1
102
RTVSPost2010Prop29
280
     1
102
RTVSPost2010PropOp29
 70
     1
102
RTVSPost2010Prop30
280
     1
102
RTVSPost2010PropOp30
 70
     1
102
RTVSPost2010Prop31
280
     0
102
RTVSPost2010PropOp31
 70
     1
102
RTVSPost2010Prop32
280
     0
102
RTVSPost2010PropOp32
 70
     1
102
RTVSPost2010Prop33
280
     0
102
RTVSPost2010PropOp33
 70
     1
102
RTVSPost2010Prop34
280
     0
102
RTVSPost2010PropOp34
 70
     1
102
RTVSPost2010Prop35
280
     0
102
RTVSPost2010PropOp35
 70
     1
102
RTVSPost2010Prop36
280
     0
102
RTVSPost2010PropOp36
 70
     1
102
RTVSPost2010Prop37
 90
       50
102
RTVSPost2010PropOp37
 70
     1
102
RTVSPost2010Prop38
140
0.0
102
RTVSPost2010PropOp38
 70
     1
102
RTVSPost2010Prop39
140
1.0
102
RTVSPost2010PropOp39
 70
     1
102
RTVSPost2010Prop40
 90
        0
102
RTVSPost2010PropOp40
 70
     1
102
RTVSPost2010Prop41ColorIndex
 90
       18
102
RTVSPost2010Prop41ColorRGB
 90
        0
102
RTVSPost2010PropOp41
 70
     1
102
RTVSPost2010Prop42
 90
       50
102
RTVSPost2010PropOp42
 70
     1
102
RTVSPost2010Prop43
 90
        3
102
RTVSPost2010PropOp43
 70
     1
102
RTVSPost2010Prop44ColorIndex
 90
        5
102
RTVSPost2010Prop44ColorRGB
 90
      255
102
RTVSPost2010PropOp44
 70
     1
102
RTVSPost2010Prop45
280
     0
102
RTVSPost2010PropOp45
 70
     1
102
RTVSPost2010Prop46
 90
       50
102
RTVSPost2010PropOp46
 70
     1
102
RTVSPost2010Prop47
 90
       50
102
RTVSPost2010PropOp47
 70
     1
102
RTVSPost2010Prop48
 90
       50
102
RTVSPost2010PropOp48
 70
     1
102
RTVSPost2010Prop49
280
     0
102
RTVSPost2010PropOp49
 70
     1
102
RTVSPost2010Prop50
 90
       50
102
RTVSPost2010PropOp50
 70
     1
102
RTVSPost2010Prop51ColorIndex
 90
      256
102
RTVSPost2010Prop51ColorRGB
 90
-16777216
102
RTVSPost2010PropOp51
 70
     0
102
RTVSPost2010Prop52
140
1.0
102
RTVSPost2010PropOp52
 70
     0
102
RTVSPost2010Prop53
 90
        2
102
RTVSPost2010PropOp53
 70
     1
102
RTVSPost2010Prop54
  1
strokes_ogs.tif
102
RTVSPost2010PropOp54
 70
     1
102
RTVSPost2010Prop55
280
     0
102
RTVSPost2010PropOp55
 70
     1
102
RTVSPost2010Prop56
140
1.0
102
RTVSPost2010PropOp56
 70
     1
102
RTVSPost2010Prop57
140
1.0
102
RTVSPost2010PropOp57
 70
     1
102
RTVSPropertyOp0
 70
     1
102
RTVSPropertyOp1
 70
     1
102
RTVSPropertyOp2
 70
     1
102
RTVSPropertyOp3
 70
     1
102
RTVSPropertyOp4
 70
     1
102
RTVSPropertyOp5
 70
     1
102
RTVSPropertyOp6
 70
     1
102
RTVSPropertyOp7
 70
     1
102
RTVSPropertyOp8
 70
     1
102
RTVSPropertyOp9
 70
     1
102
RTVSPropertyOp10
 70
     1
102
RTVSPropertyOp11
 70
     1
102
RTVSPropertyOp12
 70
     1
102
RTVSPropertyOp13
 70
     1
102
RTVSPropertyOp14
 70
     1
102
RTVSPropertyOp15
 70
     1
102
RTVSPropertyOp16
 70
     1
102
RTVSPropertyOp17
 70
     1
102
RTVSPropertyOp18
 70
     1
102
RTVSPropertyOp19
 70
     1
102
RTVSPropertyOp20
 70
     1
102
RTVSPropertyOp21
 70
     1
102
RTVSPropertyOp22
 70
     1
102
RTVSPropertyOp23
 70
     1
102
RTVSPropertyOp24
 70
     1
102
RTVSPropertyOp25
 70
     1
102
RTVSPropertyOp26
 70
     1
102
RTVSPropertyOp27
 70
     1
102
RTVSPropertyOp28
 70
     1
102
RTVSPropertyOp29
 70
     1
102
RTVSPropertyOp30
 70
     1
102
RTVSPropertyOp31
 70
     1
102
RTVSPropertyOp32
 70
     1
102
RTVSPropertyOp33
 70
     1
102
RTVSPropertyOp34
 70
     1
102
RTVSPropertyOp35
 70
     1
102
RTVSPropertyOp36
 70
     1
102
RTVSPropertyOp37
 70
     1
102
RTVSPropertyOp38
 70
     1
102
RTVSPropertyOp39
 70
     1
102
RTVSPropertyOp40
 70
     1
102
RTVSPropertyOp41
 70
     1
102
RTVSPropertyOp42
 70
     1
102
RTVSPropertyOp43
 70
     1
102
RTVSPropertyOp44
 70
     1
102
RTVSPropertyOp45
 70
     1
102
RTVSPropertyOp46
 70
     1
102
RTVSPropertyOp47
 70
     1
102
RTVSPropertyOp48
 70
     1
102
RTVSPropertyOp49
 70
     1
102
RTVSPropertyOp50
 70
     1
102
RTVSPropertyOp51
 70
     0
102
RTVSPropertyOp52
 70
     0
102
RTVSPropertyOp53
 70
     1
102
RTVSPropertyOp54
 70
     1
102
RTVSPropertyOp55
 70
     1
102
RTVSPropertyOp56
 70
     1
102
RTVSPropertyOp57
 70
     1
102
RTVSPropertyOp58
 70
     1
102
RTVSPropertyOp59
 70
     1
102
RTVSPropertyOp60
 70
     1
102
RTVSPropertyOp61
 70
     1
102
RTVSPropertyOp62
 70
     1
  0
XRECORD
  5
545
102
{ACAD_REACTORS
330
544
102
}
330
544
100
AcDbXrecord
280
     1
102
RTVSPost2010Prop28
280
     0
102
RTVSPost2010PropOp28
 70
     1
102
RTVSPost2010Prop29
280
     1
102
RTVSPost2010PropOp29
 70
     1
102
RTVSPost2010Prop30
280
     1
102
RTVSPost2010PropOp30
 70
     1
102
RTVSPost2010Prop31
280
     0
102
RTVSPost2010PropOp31
 70
     1
102
RTVSPost2010Prop32
280
     0
102
RTVSPost2010PropOp32
 70
     1
102
RTVSPost2010Prop33
280
     0
102
RTVSPost2010PropOp33
 70
     1
102
RTVSPost2010Prop34
280
     0
102
RTVSPost2010PropOp34
 70
     1
102
RTVSPost2010Prop35
280
     0
102
RTVSPost2010PropOp35
 70
     1
102
RTVSPost2010Prop36
280
     0
102
RTVSPost2010PropOp36
 70
     1
102
RTVSPost2010Prop37
 90
       50
102
RTVSPost2010PropOp37
 70
     1
102
RTVSPost2010Prop38
140
0.0
102
RTVSPost2010PropOp38
 70
     1
102
RTVSPost2010Prop39
140
1.0
102
RTVSPost2010PropOp39
 70
     1
102
RTVSPost2010Prop40
 90
        0
102
RTVSPost2010PropOp40
 70
     1
102
RTVSPost2010Prop41ColorIndex
 90
       18
102
RTVSPost2010Prop41ColorRGB
 90
        0
102
RTVSPost2010PropOp41
 70
     1
102
RTVSPost2010Prop42
 90
       50
102
RTVSPost2010PropOp42
 70
     1
102
RTVSPost2010Prop43
 90
        3
102
RTVSPost2010PropOp43
 70
     1
102
RTVSPost2010Prop44ColorIndex
 90
        5
102
RTVSPost2010Prop44ColorRGB
 90
      255
102
RTVSPost2010PropOp44
 70
     1
102
RTVSPost2010Prop45
280
     0
102
RTVSPost2010PropOp45
 70
     1
102
RTVSPost2010Prop46
 90
       50
102
RTVSPost2010PropOp46
 70
     1
102
RTVSPost2010Prop47
 90
       50
102
RTVSPost2010PropOp47
 70
     1
102
RTVSPost2010Prop48
 90
       50
102
RTVSPost2010PropOp48
 70
     1
102
RTVSPost2010Prop49
280
     0
102
RTVSPost2010PropOp49
 70
     1
102
RTVSPost2010Prop50
 90
       50
102
RTVSPost2010PropOp50
 70
     1
102
RTVSPost2010Prop51ColorIndex
 90
      256
102
RTVSPost2010Prop51ColorRGB
 90
-16777216
102
RTVSPost2010PropOp51
 70
     0
102
RTVSPost2010Prop52
140
1.0
102
RTVSPost2010PropOp52
 70
     0
102
RTVSPost2010Prop53
 90
        2
102
RTVSPost2010PropOp53
 70
     1
102
RTVSPost2010Prop54
  1
strokes_ogs.tif
102
RTVSPost2010PropOp54
 70
     1
102
RTVSPost2010Prop55
280
     0
102
RTVSPost2010PropOp55
 70
     1
102
RTVSPost2010Prop56
140
1.0
102
RTVSPost2010PropOp56
 70
     1
102
RTVSPost2010Prop57
140
1.0
102
RTVSPost2010PropOp57
 70
     1
102
RTVSPropertyOp0
 70
     1
102
RTVSPropertyOp1
 70
     1
102
RTVSPropertyOp2
 70
     1
102
RTVSPropertyOp3
 70
     1
102
RTVSPropertyOp4
 70
     1
102
RTVSPropertyOp5
 70
     1
102
RTVSPropertyOp6
 70
     1
102
RTVSPropertyOp7
 70
     1
102
RTVSPropertyOp8
 70
     1
102
RTVSPropertyOp9
 70
     1
102
RTVSPropertyOp10
 70
     1
102
RTVSPropertyOp11
 70
     1
102
RTVSPropertyOp12
 70
     1
102
RTVSPropertyOp13
 70
     1
102
RTVSPropertyOp14
 70
     1
102
RTVSPropertyOp15
 70
     1
102
RTVSPropertyOp16
 70
     1
102
RTVSPropertyOp17
 70
     1
102
RTVSPropertyOp18
 70
     1
102
RTVSPropertyOp19
 70
     1
102
RTVSPropertyOp20
 70
     1
102
RTVSPropertyOp21
 70
     1
102
RTVSPropertyOp22
 70
     1
102
RTVSPropertyOp23
 70
     1
102
RTVSPropertyOp24
 70
     1
102
RTVSPropertyOp25
 70
     1
102
RTVSPropertyOp26
 70
     1
102
RTVSPropertyOp27
 70
     1
102
RTVSPropertyOp28
 70
     1
102
RTVSPropertyOp29
 70
     1
102
RTVSPropertyOp30
 70
     1
102
RTVSPropertyOp31
 70
     1
102
RTVSPropertyOp32
 70
     1
102
RTVSPropertyOp33
 70
     1
102
RTVSPropertyOp34
 70
     1
102
RTVSPropertyOp35
 70
     1
102
RTVSPropertyOp36
 70
     1
102
RTVSPropertyOp37
 70
     1
102
RTVSPropertyOp38
 70
     1
102
RTVSPropertyOp39
 70
     1
102
RTVSPropertyOp40
 70
     1
102
RTVSPropertyOp41
 70
     1
102
RTVSPropertyOp42
 70
     1
102
RTVSPropertyOp43
 70
     1
102
RTVSPropertyOp44
 70
     1
102
RTVSPropertyOp45
 70
     1
102
RTVSPropertyOp46
 70
     1
102
RTVSPropertyOp47
 70
     1
102
RTVSPropertyOp48
 70
     1
102
RTVSPropertyOp49
 70
     1
102
RTVSPropertyOp50
 70
     1
102
RTVSPropertyOp51
 70
     0
102
RTVSPropertyOp52
 70
     0
102
RTVSPropertyOp53
 70
     1
102
RTVSPropertyOp54
 70
     1
102
RTVSPropertyOp55
 70
     1
102
RTVSPropertyOp56
 70
     1
102
RTVSPropertyOp57
 70
     1
102
RTVSPropertyOp58
 70
     1
102
RTVSPropertyOp59
 70
     1
102
RTVSPropertyOp60
 70
     1
102
RTVSPropertyOp61
 70
     1
102
RTVSPropertyOp62
 70
     1
  0
XRECORD
  5
547
102
{ACAD_REACTORS
330
546
102
}
330
546
100
AcDbXrecord
280
     1
102
RTVSPost2010Prop28
280
     0
102
RTVSPost2010PropOp28
 70
     1
102
RTVSPost2010Prop29
280
     1
102
RTVSPost2010PropOp29
 70
     1
102
RTVSPost2010Prop30
280
     1
102
RTVSPost2010PropOp30
 70
     1
102
RTVSPost2010Prop31
280
     0
102
RTVSPost2010PropOp31
 70
     1
102
RTVSPost2010Prop32
280
     0
102
RTVSPost2010PropOp32
 70
     1
102
RTVSPost2010Prop33
280
     0
102
RTVSPost2010PropOp33
 70
     1
102
RTVSPost2010Prop34
280
     0
102
RTVSPost2010PropOp34
 70
     1
102
RTVSPost2010Prop35
280
     0
102
RTVSPost2010PropOp35
 70
     1
102
RTVSPost2010Prop36
280
     0
102
RTVSPost2010PropOp36
 70
     1
102
RTVSPost2010Prop37
 90
       50
102
RTVSPost2010PropOp37
 70
     1
102
RTVSPost2010Prop38
140
0.0
102
RTVSPost2010PropOp38
 70
     1
102
RTVSPost2010Prop39
140
1.0
102
RTVSPost2010PropOp39
 70
     1
102
RTVSPost2010Prop40
 90
        0
102
RTVSPost2010PropOp40
 70
     1
102
RTVSPost2010Prop41ColorIndex
 90
       18
102
RTVSPost2010Prop41ColorRGB
 90
        0
102
RTVSPost2010PropOp41
 70
     1
102
RTVSPost2010Prop42
 90
       50
102
RTVSPost2010PropOp42
 70
     1
102
RTVSPost2010Prop43
 90
        3
102
RTVSPost2010PropOp43
 70
     1
102
RTVSPost2010Prop44ColorIndex
 90
        5
102
RTVSPost2010Prop44ColorRGB
 90
      255
102
RTVSPost2010PropOp44
 70
     1
102
RTVSPost2010Prop45
280
     0
102
RTVSPost2010PropOp45
 70
     1
102
RTVSPost2010Prop46
 90
       50
102
RTVSPost2010PropOp46
 70
     1
102
RTVSPost2010Prop47
 90
       50
102
RTVSPost2010PropOp47
 70
     1
102
RTVSPost2010Prop48
 90
       50
102
RTVSPost2010PropOp48
 70
     1
102
RTVSPost2010Prop49
280
     0
102
RTVSPost2010PropOp49
 70
     1
102
RTVSPost2010Prop50
 90
       50
102
RTVSPost2010PropOp50
 70
     1
102
RTVSPost2010Prop51ColorIndex
 90
      256
102
RTVSPost2010Prop51ColorRGB
 90
-16777216
102
RTVSPost2010PropOp51
 70
     0
102
RTVSPost2010Prop52
140
1.0
102
RTVSPost2010PropOp52
 70
     0
102
RTVSPost2010Prop53
 90
        2
102
RTVSPost2010PropOp53
 70
     1
102
RTVSPost2010Prop54
  1
strokes_ogs.tif
102
RTVSPost2010PropOp54
 70
     1
102
RTVSPost2010Prop55
280
     0
102
RTVSPost2010PropOp55
 70
     1
102
RTVSPost2010Prop56
140
1.0
102
RTVSPost2010PropOp56
 70
     1
102
RTVSPost2010Prop57
140
1.0
102
RTVSPost2010PropOp57
 70
     1
102
RTVSPropertyOp0
 70
     1
102
RTVSPropertyOp1
 70
     1
102
RTVSPropertyOp2
 70
     1
102
RTVSPropertyOp3
 70
     1
102
RTVSPropertyOp4
 70
     1
102
RTVSPropertyOp5
 70
     1
102
RTVSPropertyOp6
 70
     1
102
RTVSPropertyOp7
 70
     1
102
RTVSPropertyOp8
 70
     1
102
RTVSPropertyOp9
 70
     1
102
RTVSPropertyOp10
 70
     1
102
RTVSPropertyOp11
 70
     1
102
RTVSPropertyOp12
 70
     1
102
RTVSPropertyOp13
 70
     1
102
RTVSPropertyOp14
 70
     1
102
RTVSPropertyOp15
 70
     1
102
RTVSPropertyOp16
 70
     1
102
RTVSPropertyOp17
 70
     1
102
RTVSPropertyOp18
 70
     1
102
RTVSPropertyOp19
 70
     1
102
RTVSPropertyOp20
 70
     1
102
RTVSPropertyOp21
 70
     1
102
RTVSPropertyOp22
 70
     1
102
RTVSPropertyOp23
 70
     1
102
RTVSPropertyOp24
 70
     1
102
RTVSPropertyOp25
 70
     1
102
RTVSPropertyOp26
 70
     1
102
RTVSPropertyOp27
 70
     1
102
RTVSPropertyOp28
 70
     1
102
RTVSPropertyOp29
 70
     1
102
RTVSPropertyOp30
 70
     1
102
RTVSPropertyOp31
 70
     1
102
RTVSPropertyOp32
 70
     1
102
RTVSPropertyOp33
 70
     1
102
RTVSPropertyOp34
 70
     1
102
RTVSPropertyOp35
 70
     1
102
RTVSPropertyOp36
 70
     1
102
RTVSPropertyOp37
 70
     1
102
RTVSPropertyOp38
 70
     1
102
RTVSPropertyOp39
 70
     1
102
RTVSPropertyOp40
 70
     1
102
RTVSPropertyOp41
 70
     1
102
RTVSPropertyOp42
 70
     1
102
RTVSPropertyOp43
 70
     1
102
RTVSPropertyOp44
 70
     1
102
RTVSPropertyOp45
 70
     1
102
RTVSPropertyOp46
 70
     1
102
RTVSPropertyOp47
 70
     1
102
RTVSPropertyOp48
 70
     1
102
RTVSPropertyOp49
 70
     1
102
RTVSPropertyOp50
 70
     1
102
RTVSPropertyOp51
 70
     0
102
RTVSPropertyOp52
 70
     0
102
RTVSPropertyOp53
 70
     1
102
RTVSPropertyOp54
 70
     1
102
RTVSPropertyOp55
 70
     1
102
RTVSPropertyOp56
 70
     1
102
RTVSPropertyOp57
 70
     1
102
RTVSPropertyOp58
 70
     1
102
RTVSPropertyOp59
 70
     1
102
RTVSPropertyOp60
 70
     1
102
RTVSPropertyOp61
 70
     1
102
RTVSPropertyOp62
 70
     1
  0
XRECORD
  5
549
102
{ACAD_REACTORS
330
548
102
}
330
548
100
AcDbXrecord
280
     1
102
RTVSPost2010Prop28
280
     0
102
RTVSPost2010PropOp28
 70
     1
102
RTVSPost2010Prop29
280
     1
102
RTVSPost2010PropOp29
 70
     1
102
RTVSPost2010Prop30
280
     1
102
RTVSPost2010PropOp30
 70
     1
102
RTVSPost2010Prop31
280
     0
102
RTVSPost2010PropOp31
 70
     1
102
RTVSPost2010Prop32
280
     0
102
RTVSPost2010PropOp32
 70
     1
102
RTVSPost2010Prop33
280
     0
102
RTVSPost2010PropOp33
 70
     1
102
RTVSPost2010Prop34
280
     0
102
RTVSPost2010PropOp34
 70
     1
102
RTVSPost2010Prop35
280
     0
102
RTVSPost2010PropOp35
 70
     1
102
RTVSPost2010Prop36
280
     0
102
RTVSPost2010PropOp36
 70
     1
102
RTVSPost2010Prop37
 90
       50
102
RTVSPost2010PropOp37
 70
     1
102
RTVSPost2010Prop38
140
0.0
102
RTVSPost2010PropOp38
 70
     1
102
RTVSPost2010Prop39
140
1.0
102
RTVSPost2010PropOp39
 70
     1
102
RTVSPost2010Prop40
 90
        0
102
RTVSPost2010PropOp40
 70
     1
102
RTVSPost2010Prop41ColorIndex
 90
       18
102
RTVSPost2010Prop41ColorRGB
 90
        0
102
RTVSPost2010PropOp41
 70
     1
102
RTVSPost2010Prop42
 90
       50
102
RTVSPost2010PropOp42
 70
     1
102
RTVSPost2010Prop43
 90
        3
102
RTVSPost2010PropOp43
 70
     1
102
RTVSPost2010Prop44ColorIndex
 90
        5
102
RTVSPost2010Prop44ColorRGB
 90
      255
102
RTVSPost2010PropOp44
 70
     1
102
RTVSPost2010Prop45
280
     0
102
RTVSPost2010PropOp45
 70
     1
102
RTVSPost2010Prop46
 90
       50
102
RTVSPost2010PropOp46
 70
     1
102
RTVSPost2010Prop47
 90
       50
102
RTVSPost2010PropOp47
 70
     1
102
RTVSPost2010Prop48
 90
       50
102
RTVSPost2010PropOp48
 70
     1
102
RTVSPost2010Prop49
280
     0
102
RTVSPost2010PropOp49
 70
     1
102
RTVSPost2010Prop50
 90
       50
102
RTVSPost2010PropOp50
 70
     1
102
RTVSPost2010Prop51ColorIndex
 90
      256
102
RTVSPost2010Prop51ColorRGB
 90
-16777216
102
RTVSPost2010PropOp51
 70
     0
102
RTVSPost2010Prop52
140
1.0
102
RTVSPost2010PropOp52
 70
     0
102
RTVSPost2010Prop53
 90
        2
102
RTVSPost2010PropOp53
 70
     1
102
RTVSPost2010Prop54
  1
strokes_ogs.tif
102
RTVSPost2010PropOp54
 70
     1
102
RTVSPost2010Prop55
280
     0
102
RTVSPost2010PropOp55
 70
     1
102
RTVSPost2010Prop56
140
1.0
102
RTVSPost2010PropOp56
 70
     1
102
RTVSPost2010Prop57
140
1.0
102
RTVSPost2010PropOp57
 70
     1
102
RTVSPropertyOp0
 70
     1
102
RTVSPropertyOp1
 70
     1
102
RTVSPropertyOp2
 70
     1
102
RTVSPropertyOp3
 70
     1
102
RTVSPropertyOp4
 70
     1
102
RTVSPropertyOp5
 70
     1
102
RTVSPropertyOp6
 70
     1
102
RTVSPropertyOp7
 70
     1
102
RTVSPropertyOp8
 70
     1
102
RTVSPropertyOp9
 70
     1
102
RTVSPropertyOp10
 70
     1
102
RTVSPropertyOp11
 70
     1
102
RTVSPropertyOp12
 70
     1
102
RTVSPropertyOp13
 70
     1
102
RTVSPropertyOp14
 70
     1
102
RTVSPropertyOp15
 70
     1
102
RTVSPropertyOp16
 70
     1
102
RTVSPropertyOp17
 70
     1
102
RTVSPropertyOp18
 70
     1
102
RTVSPropertyOp19
 70
     1
102
RTVSPropertyOp20
 70
     1
102
RTVSPropertyOp21
 70
     1
102
RTVSPropertyOp22
 70
     1
102
RTVSPropertyOp23
 70
     1
102
RTVSPropertyOp24
 70
     1
102
RTVSPropertyOp25
 70
     1
102
RTVSPropertyOp26
 70
     1
102
RTVSPropertyOp27
 70
     1
102
RTVSPropertyOp28
 70
     1
102
RTVSPropertyOp29
 70
     1
102
RTVSPropertyOp30
 70
     1
102
RTVSPropertyOp31
 70
     1
102
RTVSPropertyOp32
 70
     1
102
RTVSPropertyOp33
 70
     1
102
RTVSPropertyOp34
 70
     1
102
RTVSPropertyOp35
 70
     1
102
RTVSPropertyOp36
 70
     1
102
RTVSPropertyOp37
 70
     1
102
RTVSPropertyOp38
 70
     1
102
RTVSPropertyOp39
 70
     1
102
RTVSPropertyOp40
 70
     1
102
RTVSPropertyOp41
 70
     1
102
RTVSPropertyOp42
 70
     1
102
RTVSPropertyOp43
 70
     1
102
RTVSPropertyOp44
 70
     1
102
RTVSPropertyOp45
 70
     1
102
RTVSPropertyOp46
 70
     1
102
RTVSPropertyOp47
 70
     1
102
RTVSPropertyOp48
 70
     1
102
RTVSPropertyOp49
 70
     1
102
RTVSPropertyOp50
 70
     1
102
RTVSPropertyOp51
 70
     0
102
RTVSPropertyOp52
 70
     0
102
RTVSPropertyOp53
 70
     1
102
RTVSPropertyOp54
 70
     1
102
RTVSPropertyOp55
 70
     1
102
RTVSPropertyOp56
 70
     1
102
RTVSPropertyOp57
 70
     1
102
RTVSPropertyOp58
 70
     1
102
RTVSPropertyOp59
 70
     1
102
RTVSPropertyOp60
 70
     1
102
RTVSPropertyOp61
 70
     1
102
RTVSPropertyOp62
 70
     1
  0
XRECORD
  5
54B
102
{ACAD_REACTORS
330
54A
102
}
330
54A
100
AcDbXrecord
280
     1
102
RTVSPost2010Prop28
280
     0
102
RTVSPost2010PropOp28
 70
     1
102
RTVSPost2010Prop29
280
     1
102
RTVSPost2010PropOp29
 70
     1
102
RTVSPost2010Prop30
280
     1
102
RTVSPost2010PropOp30
 70
     1
102
RTVSPost2010Prop31
280
     0
102
RTVSPost2010PropOp31
 70
     1
102
RTVSPost2010Prop32
280
     0
102
RTVSPost2010PropOp32
 70
     1
102
RTVSPost2010Prop33
280
     0
102
RTVSPost2010PropOp33
 70
     1
102
RTVSPost2010Prop34
280
     0
102
RTVSPost2010PropOp34
 70
     1
102
RTVSPost2010Prop35
280
     0
102
RTVSPost2010PropOp35
 70
     1
102
RTVSPost2010Prop36
280
     0
102
RTVSPost2010PropOp36
 70
     1
102
RTVSPost2010Prop37
 90
       50
102
RTVSPost2010PropOp37
 70
     1
102
RTVSPost2010Prop38
140
0.0
102
RTVSPost2010PropOp38
 70
     1
102
RTVSPost2010Prop39
140
1.0
102
RTVSPost2010PropOp39
 70
     1
102
RTVSPost2010Prop40
 90
        0
102
RTVSPost2010PropOp40
 70
     1
102
RTVSPost2010Prop41ColorIndex
 90
       18
102
RTVSPost2010Prop41ColorRGB
 90
        0
102
RTVSPost2010PropOp41
 70
     1
102
RTVSPost2010Prop42
 90
       50
102
RTVSPost2010PropOp42
 70
     1
102
RTVSPost2010Prop43
 90
        3
102
RTVSPost2010PropOp43
 70
     1
102
RTVSPost2010Prop44ColorIndex
 90
        5
102
RTVSPost2010Prop44ColorRGB
 90
      255
102
RTVSPost2010PropOp44
 70
     1
102
RTVSPost2010Prop45
280
     0
102
RTVSPost2010PropOp45
 70
     1
102
RTVSPost2010Prop46
 90
       50
102
RTVSPost2010PropOp46
 70
     1
102
RTVSPost2010Prop47
 90
       50
102
RTVSPost2010PropOp47
 70
     1
102
RTVSPost2010Prop48
 90
       50
102
RTVSPost2010PropOp48
 70
     1
102
RTVSPost2010Prop49
280
     0
102
RTVSPost2010PropOp49
 70
     1
102
RTVSPost2010Prop50
 90
       50
102
RTVSPost2010PropOp50
 70
     1
102
RTVSPost2010Prop51ColorIndex
 90
      256
102
RTVSPost2010Prop51ColorRGB
 90
-16777216
102
RTVSPost2010PropOp51
 70
     0
102
RTVSPost2010Prop52
140
1.0
102
RTVSPost2010PropOp52
 70
     0
102
RTVSPost2010Prop53
 90
        2
102
RTVSPost2010PropOp53
 70
     1
102
RTVSPost2010Prop54
  1
strokes_ogs.tif
102
RTVSPost2010PropOp54
 70
     1
102
RTVSPost2010Prop55
280
     0
102
RTVSPost2010PropOp55
 70
     1
102
RTVSPost2010Prop56
140
1.0
102
RTVSPost2010PropOp56
 70
     1
102
RTVSPost2010Prop57
140
1.0
102
RTVSPost2010PropOp57
 70
     1
102
RTVSPropertyOp0
 70
     1
102
RTVSPropertyOp1
 70
     1
102
RTVSPropertyOp2
 70
     1
102
RTVSPropertyOp3
 70
     1
102
RTVSPropertyOp4
 70
     1
102
RTVSPropertyOp5
 70
     1
102
RTVSPropertyOp6
 70
     1
102
RTVSPropertyOp7
 70
     1
102
RTVSPropertyOp8
 70
     1
102
RTVSPropertyOp9
 70
     1
102
RTVSPropertyOp10
 70
     1
102
RTVSPropertyOp11
 70
     1
102
RTVSPropertyOp12
 70
     1
102
RTVSPropertyOp13
 70
     1
102
RTVSPropertyOp14
 70
     1
102
RTVSPropertyOp15
 70
     1
102
RTVSPropertyOp16
 70
     1
102
RTVSPropertyOp17
 70
     1
102
RTVSPropertyOp18
 70
     1
102
RTVSPropertyOp19
 70
     1
102
RTVSPropertyOp20
 70
     1
102
RTVSPropertyOp21
 70
     1
102
RTVSPropertyOp22
 70
     1
102
RTVSPropertyOp23
 70
     1
102
RTVSPropertyOp24
 70
     1
102
RTVSPropertyOp25
 70
     1
102
RTVSPropertyOp26
 70
     1
102
RTVSPropertyOp27
 70
     1
102
RTVSPropertyOp28
 70
     1
102
RTVSPropertyOp29
 70
     1
102
RTVSPropertyOp30
 70
     1
102
RTVSPropertyOp31
 70
     1
102
RTVSPropertyOp32
 70
     1
102
RTVSPropertyOp33
 70
     1
102
RTVSPropertyOp34
 70
     1
102
RTVSPropertyOp35
 70
     1
102
RTVSPropertyOp36
 70
     1
102
RTVSPropertyOp37
 70
     1
102
RTVSPropertyOp38
 70
     1
102
RTVSPropertyOp39
 70
     1
102
RTVSPropertyOp40
 70
     1
102
RTVSPropertyOp41
 70
     1
102
RTVSPropertyOp42
 70
     1
102
RTVSPropertyOp43
 70
     1
102
RTVSPropertyOp44
 70
     1
102
RTVSPropertyOp45
 70
     1
102
RTVSPropertyOp46
 70
     1
102
RTVSPropertyOp47
 70
     1
102
RTVSPropertyOp48
 70
     1
102
RTVSPropertyOp49
 70
     1
102
RTVSPropertyOp50
 70
     1
102
RTVSPropertyOp51
 70
     0
102
RTVSPropertyOp52
 70
     0
102
RTVSPropertyOp53
 70
     1
102
RTVSPropertyOp54
 70
     1
102
RTVSPropertyOp55
 70
     1
102
RTVSPropertyOp56
 70
     1
102
RTVSPropertyOp57
 70
     1
102
RTVSPropertyOp58
 70
     1
102
RTVSPropertyOp59
 70
     1
102
RTVSPropertyOp60
 70
     1
102
RTVSPropertyOp61
 70
     1
102
RTVSPropertyOp62
 70
     1
  0
XRECORD
  5
553
102
{ACAD_REACTORS
330
552
102
}
330
552
100
AcDbXrecord
280
     1
102
RTVSPost2010Prop28
280
     0
102
RTVSPost2010PropOp28
 70
     1
102
RTVSPost2010Prop29
280
     1
102
RTVSPost2010PropOp29
 70
     1
102
RTVSPost2010Prop30
280
     1
102
RTVSPost2010PropOp30
 70
     1
102
RTVSPost2010Prop31
280
     0
102
RTVSPost2010PropOp31
 70
     1
102
RTVSPost2010Prop32
280
     0
102
RTVSPost2010PropOp32
 70
     1
102
RTVSPost2010Prop33
280
     0
102
RTVSPost2010PropOp33
 70
     1
102
RTVSPost2010Prop34
280
     0
102
RTVSPost2010PropOp34
 70
     1
102
RTVSPost2010Prop35
280
     0
102
RTVSPost2010PropOp35
 70
     1
102
RTVSPost2010Prop36
280
     0
102
RTVSPost2010PropOp36
 70
     1
102
RTVSPost2010Prop37
 90
       50
102
RTVSPost2010PropOp37
 70
     1
102
RTVSPost2010Prop38
140
0.0
102
RTVSPost2010PropOp38
 70
     1
102
RTVSPost2010Prop39
140
1.0
102
RTVSPost2010PropOp39
 70
     1
102
RTVSPost2010Prop40
 90
        0
102
RTVSPost2010PropOp40
 70
     1
102
RTVSPost2010Prop41ColorIndex
 90
       18
102
RTVSPost2010Prop41ColorRGB
 90
        0
102
RTVSPost2010PropOp41
 70
     1
102
RTVSPost2010Prop42
 90
       50
102
RTVSPost2010PropOp42
 70
     1
102
RTVSPost2010Prop43
 90
        3
102
RTVSPost2010PropOp43
 70
     1
102
RTVSPost2010Prop44ColorIndex
 90
        5
102
RTVSPost2010Prop44ColorRGB
 90
      255
102
RTVSPost2010PropOp44
 70
     1
102
RTVSPost2010Prop45
280
     0
102
RTVSPost2010PropOp45
 70
     1
102
RTVSPost2010Prop46
 90
       50
102
RTVSPost2010PropOp46
 70
     1
102
RTVSPost2010Prop47
 90
       50
102
RTVSPost2010PropOp47
 70
     1
102
RTVSPost2010Prop48
 90
       50
102
RTVSPost2010PropOp48
 70
     1
102
RTVSPost2010Prop49
280
     0
102
RTVSPost2010PropOp49
 70
     1
102
RTVSPost2010Prop50
 90
       50
102
RTVSPost2010PropOp50
 70
     1
102
RTVSPost2010Prop51ColorIndex
 90
      256
102
RTVSPost2010Prop51ColorRGB
 90
-16777216
102
RTVSPost2010PropOp51
 70
     0
102
RTVSPost2010Prop52
140
1.0
102
RTVSPost2010PropOp52
 70
     0
102
RTVSPost2010Prop53
 90
        2
102
RTVSPost2010PropOp53
 70
     1
102
RTVSPost2010Prop54
  1
strokes_ogs.tif
102
RTVSPost2010PropOp54
 70
     1
102
RTVSPost2010Prop55
280
     0
102
RTVSPost2010PropOp55
 70
     1
102
RTVSPost2010Prop56
140
1.0
102
RTVSPost2010PropOp56
 70
     1
102
RTVSPost2010Prop57
140
1.0
102
RTVSPost2010PropOp57
 70
     1
102
RTVSPropertyOp0
 70
     1
102
RTVSPropertyOp1
 70
     1
102
RTVSPropertyOp2
 70
     1
102
RTVSPropertyOp3
 70
     1
102
RTVSPropertyOp4
 70
     1
102
RTVSPropertyOp5
 70
     1
102
RTVSPropertyOp6
 70
     1
102
RTVSPropertyOp7
 70
     1
102
RTVSPropertyOp8
 70
     1
102
RTVSPropertyOp9
 70
     1
102
RTVSPropertyOp10
 70
     1
102
RTVSPropertyOp11
 70
     1
102
RTVSPropertyOp12
 70
     1
102
RTVSPropertyOp13
 70
     1
102
RTVSPropertyOp14
 70
     1
102
RTVSPropertyOp15
 70
     1
102
RTVSPropertyOp16
 70
     1
102
RTVSPropertyOp17
 70
     1
102
RTVSPropertyOp18
 70
     1
102
RTVSPropertyOp19
 70
     1
102
RTVSPropertyOp20
 70
     1
102
RTVSPropertyOp21
 70
     1
102
RTVSPropertyOp22
 70
     1
102
RTVSPropertyOp23
 70
     1
102
RTVSPropertyOp24
 70
     1
102
RTVSPropertyOp25
 70
     1
102
RTVSPropertyOp26
 70
     1
102
RTVSPropertyOp27
 70
     1
102
RTVSPropertyOp28
 70
     1
102
RTVSPropertyOp29
 70
     1
102
RTVSPropertyOp30
 70
     1
102
RTVSPropertyOp31
 70
     1
102
RTVSPropertyOp32
 70
     1
102
RTVSPropertyOp33
 70
     1
102
RTVSPropertyOp34
 70
     1
102
RTVSPropertyOp35
 70
     1
102
RTVSPropertyOp36
 70
     1
102
RTVSPropertyOp37
 70
     1
102
RTVSPropertyOp38
 70
     1
102
RTVSPropertyOp39
 70
     1
102
RTVSPropertyOp40
 70
     1
102
RTVSPropertyOp41
 70
     1
102
RTVSPropertyOp42
 70
     1
102
RTVSPropertyOp43
 70
     1
102
RTVSPropertyOp44
 70
     1
102
RTVSPropertyOp45
 70
     1
102
RTVSPropertyOp46
 70
     1
102
RTVSPropertyOp47
 70
     1
102
RTVSPropertyOp48
 70
     1
102
RTVSPropertyOp49
 70
     1
102
RTVSPropertyOp50
 70
     1
102
RTVSPropertyOp51
 70
     0
102
RTVSPropertyOp52
 70
     0
102
RTVSPropertyOp53
 70
     1
102
RTVSPropertyOp54
 70
     1
102
RTVSPropertyOp55
 70
     1
102
RTVSPropertyOp56
 70
     1
102
RTVSPropertyOp57
 70
     1
102
RTVSPropertyOp58
 70
     1
102
RTVSPropertyOp59
 70
     1
102
RTVSPropertyOp60
 70
     1
102
RTVSPropertyOp61
 70
     1
102
RTVSPropertyOp62
 70
     1
  0
XRECORD
  5
56F
102
{ACAD_REACTORS
330
56E
102
}
330
56E
100
AcDbXrecord
280
     1
102
RTVSPost2010Prop28
280
     0
102
RTVSPost2010PropOp28
 70
     1
102
RTVSPost2010Prop29
280
     1
102
RTVSPost2010PropOp29
 70
     1
102
RTVSPost2010Prop30
280
     1
102
RTVSPost2010PropOp30
 70
     1
102
RTVSPost2010Prop31
280
     0
102
RTVSPost2010PropOp31
 70
     1
102
RTVSPost2010Prop32
280
     0
102
RTVSPost2010PropOp32
 70
     1
102
RTVSPost2010Prop33
280
     0
102
RTVSPost2010PropOp33
 70
     1
102
RTVSPost2010Prop34
280
     0
102
RTVSPost2010PropOp34
 70
     1
102
RTVSPost2010Prop35
280
     0
102
RTVSPost2010PropOp35
 70
     1
102
RTVSPost2010Prop36
280
     0
102
RTVSPost2010PropOp36
 70
     1
102
RTVSPost2010Prop37
 90
       50
102
RTVSPost2010PropOp37
 70
     0
102
RTVSPost2010Prop38
140
0.0
102
RTVSPost2010PropOp38
 70
     0
102
RTVSPost2010Prop39
140
1.0
102
RTVSPost2010PropOp39
 70
     0
102
RTVSPost2010Prop40
 90
        0
102
RTVSPost2010PropOp40
 70
     0
102
RTVSPost2010Prop41ColorIndex
 90
       18
102
RTVSPost2010Prop41ColorRGB
 90
        0
102
RTVSPost2010PropOp41
 70
     0
102
RTVSPost2010Prop42
 90
       50
102
RTVSPost2010PropOp42
 70
     0
102
RTVSPost2010Prop43
 90
        3
102
RTVSPost2010PropOp43
 70
     0
102
RTVSPost2010Prop44ColorIndex
 90
        5
102
RTVSPost2010Prop44ColorRGB
 90
      255
102
RTVSPost2010PropOp44
 70
     0
102
RTVSPost2010Prop45
280
     0
102
RTVSPost2010PropOp45
 70
     1
102
RTVSPost2010Prop46
 90
       50
102
RTVSPost2010PropOp46
 70
     0
102
RTVSPost2010Prop47
 90
       50
102
RTVSPost2010PropOp47
 70
     0
102
RTVSPost2010Prop48
 90
       50
102
RTVSPost2010PropOp48
 70
     0
102
RTVSPost2010Prop49
280
     0
102
RTVSPost2010PropOp49
 70
     1
102
RTVSPost2010Prop50
 90
       50
102
RTVSPost2010PropOp50
 70
     0
102
RTVSPost2010Prop51ColorIndex
 90
      256
102
RTVSPost2010Prop51ColorRGB
 90
-16777216
102
RTVSPost2010PropOp51
 70
     0
102
RTVSPost2010Prop52
140
1.0
102
RTVSPost2010PropOp52
 70
     0
102
RTVSPost2010Prop53
 90
        2
102
RTVSPost2010PropOp53
 70
     0
102
RTVSPost2010Prop54
  1
strokes_ogs.tif
102
RTVSPost2010PropOp54
 70
     0
102
RTVSPost2010Prop55
280
     0
102
RTVSPost2010PropOp55
 70
     1
102
RTVSPost2010Prop56
140
1.0
102
RTVSPost2010PropOp56
 70
     0
102
RTVSPost2010Prop57
140
1.0
102
RTVSPost2010PropOp57
 70
     0
102
RTVSPropertyOp0
 70
     0
102
RTVSPropertyOp1
 70
     0
102
RTVSPropertyOp2
 70
     0
102
RTVSPropertyOp3
 70
     0
102
RTVSPropertyOp4
 70
     0
102
RTVSPropertyOp5
 70
     0
102
RTVSPropertyOp6
 70
     0
102
RTVSPropertyOp7
 70
     0
102
RTVSPropertyOp8
 70
     0
102
RTVSPropertyOp9
 70
     0
102
RTVSPropertyOp10
 70
     0
102
RTVSPropertyOp11
 70
     0
102
RTVSPropertyOp12
 70
     0
102
RTVSPropertyOp13
 70
     0
102
RTVSPropertyOp14
 70
     2
102
RTVSPropertyOp15
 70
     0
102
RTVSPropertyOp16
 70
     0
102
RTVSPropertyOp17
 70
     0
102
RTVSPropertyOp18
 70
     0
102
RTVSPropertyOp19
 70
     0
102
RTVSPropertyOp20
 70
     0
102
RTVSPropertyOp21
 70
     0
102
RTVSPropertyOp22
 70
     0
102
RTVSPropertyOp23
 70
     0
102
RTVSPropertyOp24
 70
     0
102
RTVSPropertyOp25
 70
     0
102
RTVSPropertyOp26
 70
     0
102
RTVSPropertyOp27
 70
     0
102
RTVSPropertyOp28
 70
     1
102
RTVSPropertyOp29
 70
     1
102
RTVSPropertyOp30
 70
     1
102
RTVSPropertyOp31
 70
     1
102
RTVSPropertyOp32
 70
     1
102
RTVSPropertyOp33
 70
     1
102
RTVSPropertyOp34
 70
     1
102
RTVSPropertyOp35
 70
     1
102
RTVSPropertyOp36
 70
     1
102
RTVSPropertyOp37
 70
     0
102
RTVSPropertyOp38
 70
     0
102
RTVSPropertyOp39
 70
     0
102
RTVSPropertyOp40
 70
     0
102
RTVSPropertyOp41
 70
     0
102
RTVSPropertyOp42
 70
     0
102
RTVSPropertyOp43
 70
     0
102
RTVSPropertyOp44
 70
     0
102
RTVSPropertyOp45
 70
     1
102
RTVSPropertyOp46
 70
     0
102
RTVSPropertyOp47
 70
     0
102
RTVSPropertyOp48
 70
     0
102
RTVSPropertyOp49
 70
     1
102
RTVSPropertyOp50
 70
     0
102
RTVSPropertyOp51
 70
     0
102
RTVSPropertyOp52
 70
     0
102
RTVSPropertyOp53
 70
     0
102
RTVSPropertyOp54
 70
     0
102
RTVSPropertyOp55
 70
     1
102
RTVSPropertyOp56
 70
     0
102
RTVSPropertyOp57
 70
     0
102
RTVSPropertyOp58
 70
     0
102
RTVSPropertyOp59
 70
     0
102
RTVSPropertyOp60
 70
     0
102
RTVSPropertyOp61
 70
     0
102
RTVSPropertyOp62
 70
     0
  0
XRECORD
  5
55F
102
{ACAD_REACTORS
330
55E
102
}
330
55E
100
AcDbXrecord
280
     1
102
RTVSPost2010Prop28
280
     0
102
RTVSPost2010PropOp28
 70
     1
102
RTVSPost2010Prop29
280
     1
102
RTVSPost2010PropOp29
 70
     1
102
RTVSPost2010Prop30
280
     1
102
RTVSPost2010PropOp30
 70
     1
102
RTVSPost2010Prop31
280
     0
102
RTVSPost2010PropOp31
 70
     1
102
RTVSPost2010Prop32
280
     0
102
RTVSPost2010PropOp32
 70
     1
102
RTVSPost2010Prop33
280
     0
102
RTVSPost2010PropOp33
 70
     1
102
RTVSPost2010Prop34
280
     0
102
RTVSPost2010PropOp34
 70
     1
102
RTVSPost2010Prop35
280
     0
102
RTVSPost2010PropOp35
 70
     1
102
RTVSPost2010Prop36
280
     0
102
RTVSPost2010PropOp36
 70
     1
102
RTVSPost2010Prop37
 90
       50
102
RTVSPost2010PropOp37
 70
     1
102
RTVSPost2010Prop38
140
0.0
102
RTVSPost2010PropOp38
 70
     1
102
RTVSPost2010Prop39
140
1.0
102
RTVSPost2010PropOp39
 70
     1
102
RTVSPost2010Prop40
 90
        0
102
RTVSPost2010PropOp40
 70
     1
102
RTVSPost2010Prop41ColorIndex
 90
       18
102
RTVSPost2010Prop41ColorRGB
 90
        0
102
RTVSPost2010PropOp41
 70
     1
102
RTVSPost2010Prop42
 90
       50
102
RTVSPost2010PropOp42
 70
     1
102
RTVSPost2010Prop43
 90
        3
102
RTVSPost2010PropOp43
 70
     1
102
RTVSPost2010Prop44ColorIndex
 90
        5
102
RTVSPost2010Prop44ColorRGB
 90
      255
102
RTVSPost2010PropOp44
 70
     1
102
RTVSPost2010Prop45
280
     0
102
RTVSPost2010PropOp45
 70
     1
102
RTVSPost2010Prop46
 90
       50
102
RTVSPost2010PropOp46
 70
     1
102
RTVSPost2010Prop47
 90
       50
102
RTVSPost2010PropOp47
 70
     1
102
RTVSPost2010Prop48
 90
       50
102
RTVSPost2010PropOp48
 70
     1
102
RTVSPost2010Prop49
280
     0
102
RTVSPost2010PropOp49
 70
     1
102
RTVSPost2010Prop50
 90
       50
102
RTVSPost2010PropOp50
 70
     1
102
RTVSPost2010Prop51ColorIndex
 90
      256
102
RTVSPost2010Prop51ColorRGB
 90
-16777216
102
RTVSPost2010PropOp51
 70
     0
102
RTVSPost2010Prop52
140
1.0
102
RTVSPost2010PropOp52
 70
     0
102
RTVSPost2010Prop53
 90
        2
102
RTVSPost2010PropOp53
 70
     1
102
RTVSPost2010Prop54
  1
strokes_ogs.tif
102
RTVSPost2010PropOp54
 70
     1
102
RTVSPost2010Prop55
280
     0
102
RTVSPost2010PropOp55
 70
     1
102
RTVSPost2010Prop56
140
1.0
102
RTVSPost2010PropOp56
 70
     1
102
RTVSPost2010Prop57
140
1.0
102
RTVSPost2010PropOp57
 70
     1
102
RTVSPropertyOp0
 70
     1
102
RTVSPropertyOp1
 70
     1
102
RTVSPropertyOp2
 70
     1
102
RTVSPropertyOp3
 70
     1
102
RTVSPropertyOp4
 70
     1
102
RTVSPropertyOp5
 70
     1
102
RTVSPropertyOp6
 70
     1
102
RTVSPropertyOp7
 70
     1
102
RTVSPropertyOp8
 70
     1
102
RTVSPropertyOp9
 70
     1
102
RTVSPropertyOp10
 70
     1
102
RTVSPropertyOp11
 70
     1
102
RTVSPropertyOp12
 70
     1
102
RTVSPropertyOp13
 70
     1
102
RTVSPropertyOp14
 70
     1
102
RTVSPropertyOp15
 70
     1
102
RTVSPropertyOp16
 70
     1
102
RTVSPropertyOp17
 70
     1
102
RTVSPropertyOp18
 70
     1
102
RTVSPropertyOp19
 70
     1
102
RTVSPropertyOp20
 70
     1
102
RTVSPropertyOp21
 70
     1
102
RTVSPropertyOp22
 70
     1
102
RTVSPropertyOp23
 70
     1
102
RTVSPropertyOp24
 70
     1
102
RTVSPropertyOp25
 70
     1
102
RTVSPropertyOp26
 70
     1
102
RTVSPropertyOp27
 70
     1
102
RTVSPropertyOp28
 70
     1
102
RTVSPropertyOp29
 70
     1
102
RTVSPropertyOp30
 70
     1
102
RTVSPropertyOp31
 70
     1
102
RTVSPropertyOp32
 70
     1
102
RTVSPropertyOp33
 70
     1
102
RTVSPropertyOp34
 70
     1
102
RTVSPropertyOp35
 70
     1
102
RTVSPropertyOp36
 70
     1
102
RTVSPropertyOp37
 70
     1
102
RTVSPropertyOp38
 70
     1
102
RTVSPropertyOp39
 70
     1
102
RTVSPropertyOp40
 70
     1
102
RTVSPropertyOp41
 70
     1
102
RTVSPropertyOp42
 70
     1
102
RTVSPropertyOp43
 70
     1
102
RTVSPropertyOp44
 70
     1
102
RTVSPropertyOp45
 70
     1
102
RTVSPropertyOp46
 70
     1
102
RTVSPropertyOp47
 70
     1
102
RTVSPropertyOp48
 70
     1
102
RTVSPropertyOp49
 70
     1
102
RTVSPropertyOp50
 70
     1
102
RTVSPropertyOp51
 70
     0
102
RTVSPropertyOp52
 70
     0
102
RTVSPropertyOp53
 70
     1
102
RTVSPropertyOp54
 70
     1
102
RTVSPropertyOp55
 70
     1
102
RTVSPropertyOp56
 70
     1
102
RTVSPropertyOp57
 70
     1
102
RTVSPropertyOp58
 70
     1
102
RTVSPropertyOp59
 70
     1
102
RTVSPropertyOp60
 70
     1
102
RTVSPropertyOp61
 70
     1
102
RTVSPropertyOp62
 70
     1
  0
XRECORD
  5
571
102
{ACAD_REACTORS
330
570
102
}
330
570
100
AcDbXrecord
280
     1
102
RTVSPost2010Prop28
280
     0
102
RTVSPost2010PropOp28
 70
     1
102
RTVSPost2010Prop29
280
     1
102
RTVSPost2010PropOp29
 70
     1
102
RTVSPost2010Prop30
280
     1
102
RTVSPost2010PropOp30
 70
     1
102
RTVSPost2010Prop31
280
     0
102
RTVSPost2010PropOp31
 70
     1
102
RTVSPost2010Prop32
280
     0
102
RTVSPost2010PropOp32
 70
     1
102
RTVSPost2010Prop33
280
     0
102
RTVSPost2010PropOp33
 70
     1
102
RTVSPost2010Prop34
280
     0
102
RTVSPost2010PropOp34
 70
     1
102
RTVSPost2010Prop35
280
     0
102
RTVSPost2010PropOp35
 70
     1
102
RTVSPost2010Prop36
280
     0
102
RTVSPost2010PropOp36
 70
     1
102
RTVSPost2010Prop37
 90
       50
102
RTVSPost2010PropOp37
 70
     0
102
RTVSPost2010Prop38
140
0.0
102
RTVSPost2010PropOp38
 70
     0
102
RTVSPost2010Prop39
140
1.0
102
RTVSPost2010PropOp39
 70
     0
102
RTVSPost2010Prop40
 90
        0
102
RTVSPost2010PropOp40
 70
     0
102
RTVSPost2010Prop41ColorIndex
 90
       18
102
RTVSPost2010Prop41ColorRGB
 90
        0
102
RTVSPost2010PropOp41
 70
     0
102
RTVSPost2010Prop42
 90
       50
102
RTVSPost2010PropOp42
 70
     0
102
RTVSPost2010Prop43
 90
        3
102
RTVSPost2010PropOp43
 70
     0
102
RTVSPost2010Prop44ColorIndex
 90
        5
102
RTVSPost2010Prop44ColorRGB
 90
      255
102
RTVSPost2010PropOp44
 70
     0
102
RTVSPost2010Prop45
280
     0
102
RTVSPost2010PropOp45
 70
     1
102
RTVSPost2010Prop46
 90
       50
102
RTVSPost2010PropOp46
 70
     0
102
RTVSPost2010Prop47
 90
       50
102
RTVSPost2010PropOp47
 70
     0
102
RTVSPost2010Prop48
 90
       50
102
RTVSPost2010PropOp48
 70
     0
102
RTVSPost2010Prop49
280
     0
102
RTVSPost2010PropOp49
 70
     1
102
RTVSPost2010Prop50
 90
       50
102
RTVSPost2010PropOp50
 70
     0
102
RTVSPost2010Prop51ColorIndex
 90
      256
102
RTVSPost2010Prop51ColorRGB
 90
-16777216
102
RTVSPost2010PropOp51
 70
     0
102
RTVSPost2010Prop52
140
1.0
102
RTVSPost2010PropOp52
 70
     0
102
RTVSPost2010Prop53
 90
        2
102
RTVSPost2010PropOp53
 70
     0
102
RTVSPost2010Prop54
  1
strokes_ogs.tif
102
RTVSPost2010PropOp54
 70
     0
102
RTVSPost2010Prop55
280
     0
102
RTVSPost2010PropOp55
 70
     1
102
RTVSPost2010Prop56
140
1.0
102
RTVSPost2010PropOp56
 70
     0
102
RTVSPost2010Prop57
140
1.0
102
RTVSPost2010PropOp57
 70
     0
102
RTVSPropertyOp0
 70
     0
102
RTVSPropertyOp1
 70
     0
102
RTVSPropertyOp2
 70
     0
102
RTVSPropertyOp3
 70
     0
102
RTVSPropertyOp4
 70
     0
102
RTVSPropertyOp5
 70
     0
102
RTVSPropertyOp6
 70
     0
102
RTVSPropertyOp7
 70
     0
102
RTVSPropertyOp8
 70
     0
102
RTVSPropertyOp9
 70
     0
102
RTVSPropertyOp10
 70
     0
102
RTVSPropertyOp11
 70
     0
102
RTVSPropertyOp12
 70
     0
102
RTVSPropertyOp13
 70
     0
102
RTVSPropertyOp14
 70
     2
102
RTVSPropertyOp15
 70
     0
102
RTVSPropertyOp16
 70
     0
102
RTVSPropertyOp17
 70
     0
102
RTVSPropertyOp18
 70
     0
102
RTVSPropertyOp19
 70
     0
102
RTVSPropertyOp20
 70
     0
102
RTVSPropertyOp21
 70
     0
102
RTVSPropertyOp22
 70
     0
102
RTVSPropertyOp23
 70
     0
102
RTVSPropertyOp24
 70
     0
102
RTVSPropertyOp25
 70
     0
102
RTVSPropertyOp26
 70
     0
102
RTVSPropertyOp27
 70
     0
102
RTVSPropertyOp28
 70
     1
102
RTVSPropertyOp29
 70
     1
102
RTVSPropertyOp30
 70
     1
102
RTVSPropertyOp31
 70
     1
102
RTVSPropertyOp32
 70
     1
102
RTVSPropertyOp33
 70
     1
102
RTVSPropertyOp34
 70
     1
102
RTVSPropertyOp35
 70
     1
102
RTVSPropertyOp36
 70
     1
102
RTVSPropertyOp37
 70
     0
102
RTVSPropertyOp38
 70
     0
102
RTVSPropertyOp39
 70
     0
102
RTVSPropertyOp40
 70
     0
102
RTVSPropertyOp41
 70
     0
102
RTVSPropertyOp42
 70
     0
102
RTVSPropertyOp43
 70
     0
102
RTVSPropertyOp44
 70
     0
102
RTVSPropertyOp45
 70
     1
102
RTVSPropertyOp46
 70
     0
102
RTVSPropertyOp47
 70
     0
102
RTVSPropertyOp48
 70
     0
102
RTVSPropertyOp49
 70
     1
102
RTVSPropertyOp50
 70
     0
102
RTVSPropertyOp51
 70
     0
102
RTVSPropertyOp52
 70
     0
102
RTVSPropertyOp53
 70
     0
102
RTVSPropertyOp54
 70
     0
102
RTVSPropertyOp55
 70
     1
102
RTVSPropertyOp56
 70
     0
102
RTVSPropertyOp57
 70
     0
102
RTVSPropertyOp58
 70
     0
102
RTVSPropertyOp59
 70
     0
102
RTVSPropertyOp60
 70
     0
102
RTVSPropertyOp61
 70
     0
102
RTVSPropertyOp62
 70
     0
  0
XRECORD
  5
557
102
{ACAD_REACTORS
330
556
102
}
330
556
100
AcDbXrecord
280
     1
102
RTVSPost2010Prop28
280
     0
102
RTVSPost2010PropOp28
 70
     1
102
RTVSPost2010Prop29
280
     1
102
RTVSPost2010PropOp29
 70
     1
102
RTVSPost2010Prop30
280
     1
102
RTVSPost2010PropOp30
 70
     1
102
RTVSPost2010Prop31
280
     0
102
RTVSPost2010PropOp31
 70
     1
102
RTVSPost2010Prop32
280
     0
102
RTVSPost2010PropOp32
 70
     1
102
RTVSPost2010Prop33
280
     0
102
RTVSPost2010PropOp33
 70
     1
102
RTVSPost2010Prop34
280
     0
102
RTVSPost2010PropOp34
 70
     1
102
RTVSPost2010Prop35
280
     0
102
RTVSPost2010PropOp35
 70
     1
102
RTVSPost2010Prop36
280
     0
102
RTVSPost2010PropOp36
 70
     1
102
RTVSPost2010Prop37
 90
       50
102
RTVSPost2010PropOp37
 70
     1
102
RTVSPost2010Prop38
140
0.0
102
RTVSPost2010PropOp38
 70
     1
102
RTVSPost2010Prop39
140
1.0
102
RTVSPost2010PropOp39
 70
     1
102
RTVSPost2010Prop40
 90
        0
102
RTVSPost2010PropOp40
 70
     1
102
RTVSPost2010Prop41ColorIndex
 90
       18
102
RTVSPost2010Prop41ColorRGB
 90
        0
102
RTVSPost2010PropOp41
 70
     1
102
RTVSPost2010Prop42
 90
       50
102
RTVSPost2010PropOp42
 70
     1
102
RTVSPost2010Prop43
 90
        3
102
RTVSPost2010PropOp43
 70
     1
102
RTVSPost2010Prop44ColorIndex
 90
        5
102
RTVSPost2010Prop44ColorRGB
 90
      255
102
RTVSPost2010PropOp44
 70
     1
102
RTVSPost2010Prop45
280
     0
102
RTVSPost2010PropOp45
 70
     1
102
RTVSPost2010Prop46
 90
       50
102
RTVSPost2010PropOp46
 70
     1
102
RTVSPost2010Prop47
 90
       50
102
RTVSPost2010PropOp47
 70
     1
102
RTVSPost2010Prop48
 90
       50
102
RTVSPost2010PropOp48
 70
     1
102
RTVSPost2010Prop49
280
     0
102
RTVSPost2010PropOp49
 70
     1
102
RTVSPost2010Prop50
 90
       50
102
RTVSPost2010PropOp50
 70
     1
102
RTVSPost2010Prop51ColorIndex
 90
      256
102
RTVSPost2010Prop51ColorRGB
 90
-16777216
102
RTVSPost2010PropOp51
 70
     0
102
RTVSPost2010Prop52
140
1.0
102
RTVSPost2010PropOp52
 70
     0
102
RTVSPost2010Prop53
 90
        2
102
RTVSPost2010PropOp53
 70
     1
102
RTVSPost2010Prop54
  1
strokes_ogs.tif
102
RTVSPost2010PropOp54
 70
     1
102
RTVSPost2010Prop55
280
     0
102
RTVSPost2010PropOp55
 70
     1
102
RTVSPost2010Prop56
140
1.0
102
RTVSPost2010PropOp56
 70
     1
102
RTVSPost2010Prop57
140
1.0
102
RTVSPost2010PropOp57
 70
     1
102
RTVSPropertyOp0
 70
     1
102
RTVSPropertyOp1
 70
     1
102
RTVSPropertyOp2
 70
     1
102
RTVSPropertyOp3
 70
     1
102
RTVSPropertyOp4
 70
     1
102
RTVSPropertyOp5
 70
     1
102
RTVSPropertyOp6
 70
     1
102
RTVSPropertyOp7
 70
     1
102
RTVSPropertyOp8
 70
     1
102
RTVSPropertyOp9
 70
     1
102
RTVSPropertyOp10
 70
     1
102
RTVSPropertyOp11
 70
     1
102
RTVSPropertyOp12
 70
     1
102
RTVSPropertyOp13
 70
     1
102
RTVSPropertyOp14
 70
     1
102
RTVSPropertyOp15
 70
     1
102
RTVSPropertyOp16
 70
     1
102
RTVSPropertyOp17
 70
     1
102
RTVSPropertyOp18
 70
     1
102
RTVSPropertyOp19
 70
     1
102
RTVSPropertyOp20
 70
     1
102
RTVSPropertyOp21
 70
     1
102
RTVSPropertyOp22
 70
     1
102
RTVSPropertyOp23
 70
     1
102
RTVSPropertyOp24
 70
     1
102
RTVSPropertyOp25
 70
     1
102
RTVSPropertyOp26
 70
     1
102
RTVSPropertyOp27
 70
     1
102
RTVSPropertyOp28
 70
     1
102
RTVSPropertyOp29
 70
     1
102
RTVSPropertyOp30
 70
     1
102
RTVSPropertyOp31
 70
     1
102
RTVSPropertyOp32
 70
     1
102
RTVSPropertyOp33
 70
     1
102
RTVSPropertyOp34
 70
     1
102
RTVSPropertyOp35
 70
     1
102
RTVSPropertyOp36
 70
     1
102
RTVSPropertyOp37
 70
     1
102
RTVSPropertyOp38
 70
     1
102
RTVSPropertyOp39
 70
     1
102
RTVSPropertyOp40
 70
     1
102
RTVSPropertyOp41
 70
     1
102
RTVSPropertyOp42
 70
     1
102
RTVSPropertyOp43
 70
     1
102
RTVSPropertyOp44
 70
     1
102
RTVSPropertyOp45
 70
     1
102
RTVSPropertyOp46
 70
     1
102
RTVSPropertyOp47
 70
     1
102
RTVSPropertyOp48
 70
     1
102
RTVSPropertyOp49
 70
     1
102
RTVSPropertyOp50
 70
     1
102
RTVSPropertyOp51
 70
     0
102
RTVSPropertyOp52
 70
     0
102
RTVSPropertyOp53
 70
     1
102
RTVSPropertyOp54
 70
     1
102
RTVSPropertyOp55
 70
     1
102
RTVSPropertyOp56
 70
     1
102
RTVSPropertyOp57
 70
     1
102
RTVSPropertyOp58
 70
     1
102
RTVSPropertyOp59
 70
     1
102
RTVSPropertyOp60
 70
     1
102
RTVSPropertyOp61
 70
     1
102
RTVSPropertyOp62
 70
     1
  0
XRECORD
  5
56D
102
{ACAD_REACTORS
330
56C
102
}
330
56C
100
AcDbXrecord
280
     1
102
RTVSPost2010Prop28
280
     0
102
RTVSPost2010PropOp28
 70
     1
102
RTVSPost2010Prop29
280
     1
102
RTVSPost2010PropOp29
 70
     1
102
RTVSPost2010Prop30
280
     1
102
RTVSPost2010PropOp30
 70
     1
102
RTVSPost2010Prop31
280
     0
102
RTVSPost2010PropOp31
 70
     1
102
RTVSPost2010Prop32
280
     0
102
RTVSPost2010PropOp32
 70
     1
102
RTVSPost2010Prop33
280
     0
102
RTVSPost2010PropOp33
 70
     1
102
RTVSPost2010Prop34
280
     0
102
RTVSPost2010PropOp34
 70
     1
102
RTVSPost2010Prop35
280
     0
102
RTVSPost2010PropOp35
 70
     1
102
RTVSPost2010Prop36
280
     0
102
RTVSPost2010PropOp36
 70
     1
102
RTVSPost2010Prop37
 90
       50
102
RTVSPost2010PropOp37
 70
     1
102
RTVSPost2010Prop38
140
0.0
102
RTVSPost2010PropOp38
 70
     1
102
RTVSPost2010Prop39
140
1.0
102
RTVSPost2010PropOp39
 70
     1
102
RTVSPost2010Prop40
 90
        0
102
RTVSPost2010PropOp40
 70
     1
102
RTVSPost2010Prop41ColorIndex
 90
       18
102
RTVSPost2010Prop41ColorRGB
 90
        0
102
RTVSPost2010PropOp41
 70
     1
102
RTVSPost2010Prop42
 90
       50
102
RTVSPost2010PropOp42
 70
     1
102
RTVSPost2010Prop43
 90
        3
102
RTVSPost2010PropOp43
 70
     1
102
RTVSPost2010Prop44ColorIndex
 90
        5
102
RTVSPost2010Prop44ColorRGB
 90
      255
102
RTVSPost2010PropOp44
 70
     1
102
RTVSPost2010Prop45
280
     0
102
RTVSPost2010PropOp45
 70
     1
102
RTVSPost2010Prop46
 90
       50
102
RTVSPost2010PropOp46
 70
     1
102
RTVSPost2010Prop47
 90
       50
102
RTVSPost2010PropOp47
 70
     1
102
RTVSPost2010Prop48
 90
       50
102
RTVSPost2010PropOp48
 70
     1
102
RTVSPost2010Prop49
280
     0
102
RTVSPost2010PropOp49
 70
     1
102
RTVSPost2010Prop50
 90
       50
102
RTVSPost2010PropOp50
 70
     1
102
RTVSPost2010Prop51ColorIndex
 90
      256
102
RTVSPost2010Prop51ColorRGB
 90
-16777216
102
RTVSPost2010PropOp51
 70
     0
102
RTVSPost2010Prop52
140
1.0
102
RTVSPost2010PropOp52
 70
     0
102
RTVSPost2010Prop53
 90
        2
102
RTVSPost2010PropOp53
 70
     1
102
RTVSPost2010Prop54
  1
strokes_ogs.tif
102
RTVSPost2010PropOp54
 70
     1
102
RTVSPost2010Prop55
280
     0
102
RTVSPost2010PropOp55
 70
     1
102
RTVSPost2010Prop56
140
1.0
102
RTVSPost2010PropOp56
 70
     1
102
RTVSPost2010Prop57
140
1.0
102
RTVSPost2010PropOp57
 70
     1
102
RTVSPropertyOp0
 70
     1
102
RTVSPropertyOp1
 70
     1
102
RTVSPropertyOp2
 70
     1
102
RTVSPropertyOp3
 70
     1
102
RTVSPropertyOp4
 70
     1
102
RTVSPropertyOp5
 70
     1
102
RTVSPropertyOp6
 70
     1
102
RTVSPropertyOp7
 70
     1
102
RTVSPropertyOp8
 70
     1
102
RTVSPropertyOp9
 70
     1
102
RTVSPropertyOp10
 70
     1
102
RTVSPropertyOp11
 70
     1
102
RTVSPropertyOp12
 70
     1
102
RTVSPropertyOp13
 70
     1
102
RTVSPropertyOp14
 70
     1
102
RTVSPropertyOp15
 70
     1
102
RTVSPropertyOp16
 70
     1
102
RTVSPropertyOp17
 70
     1
102
RTVSPropertyOp18
 70
     1
102
RTVSPropertyOp19
 70
     1
102
RTVSPropertyOp20
 70
     1
102
RTVSPropertyOp21
 70
     1
102
RTVSPropertyOp22
 70
     1
102
RTVSPropertyOp23
 70
     1
102
RTVSPropertyOp24
 70
     1
102
RTVSPropertyOp25
 70
     1
102
RTVSPropertyOp26
 70
     1
102
RTVSPropertyOp27
 70
     1
102
RTVSPropertyOp28
 70
     1
102
RTVSPropertyOp29
 70
     1
102
RTVSPropertyOp30
 70
     1
102
RTVSPropertyOp31
 70
     1
102
RTVSPropertyOp32
 70
     1
102
RTVSPropertyOp33
 70
     1
102
RTVSPropertyOp34
 70
     1
102
RTVSPropertyOp35
 70
     1
102
RTVSPropertyOp36
 70
     1
102
RTVSPropertyOp37
 70
     1
102
RTVSPropertyOp38
 70
     1
102
RTVSPropertyOp39
 70
     1
102
RTVSPropertyOp40
 70
     1
102
RTVSPropertyOp41
 70
     1
102
RTVSPropertyOp42
 70
     1
102
RTVSPropertyOp43
 70
     1
102
RTVSPropertyOp44
 70
     1
102
RTVSPropertyOp45
 70
     1
102
RTVSPropertyOp46
 70
     1
102
RTVSPropertyOp47
 70
     1
102
RTVSPropertyOp48
 70
     1
102
RTVSPropertyOp49
 70
     1
102
RTVSPropertyOp50
 70
     1
102
RTVSPropertyOp51
 70
     0
102
RTVSPropertyOp52
 70
     0
102
RTVSPropertyOp53
 70
     1
102
RTVSPropertyOp54
 70
     1
102
RTVSPropertyOp55
 70
     1
102
RTVSPropertyOp56
 70
     1
102
RTVSPropertyOp57
 70
     1
102
RTVSPropertyOp58
 70
     1
102
RTVSPropertyOp59
 70
     1
102
RTVSPropertyOp60
 70
     1
102
RTVSPropertyOp61
 70
     1
102
RTVSPropertyOp62
 70
     1
  0
XRECORD
  5
56B
102
{ACAD_REACTORS
330
56A
102
}
330
56A
100
AcDbXrecord
280
     1
102
RTVSPost2010Prop28
280
     0
102
RTVSPost2010PropOp28
 70
     1
102
RTVSPost2010Prop29
280
     1
102
RTVSPost2010PropOp29
 70
     1
102
RTVSPost2010Prop30
280
     1
102
RTVSPost2010PropOp30
 70
     1
102
RTVSPost2010Prop31
280
     0
102
RTVSPost2010PropOp31
 70
     1
102
RTVSPost2010Prop32
280
     0
102
RTVSPost2010PropOp32
 70
     1
102
RTVSPost2010Prop33
280
     0
102
RTVSPost2010PropOp33
 70
     1
102
RTVSPost2010Prop34
280
     0
102
RTVSPost2010PropOp34
 70
     1
102
RTVSPost2010Prop35
280
     0
102
RTVSPost2010PropOp35
 70
     1
102
RTVSPost2010Prop36
280
     0
102
RTVSPost2010PropOp36
 70
     1
102
RTVSPost2010Prop37
 90
       50
102
RTVSPost2010PropOp37
 70
     1
102
RTVSPost2010Prop38
140
0.0
102
RTVSPost2010PropOp38
 70
     1
102
RTVSPost2010Prop39
140
1.0
102
RTVSPost2010PropOp39
 70
     1
102
RTVSPost2010Prop40
 90
        0
102
RTVSPost2010PropOp40
 70
     1
102
RTVSPost2010Prop41ColorIndex
 90
       18
102
RTVSPost2010Prop41ColorRGB
 90
        0
102
RTVSPost2010PropOp41
 70
     1
102
RTVSPost2010Prop42
 90
       50
102
RTVSPost2010PropOp42
 70
     1
102
RTVSPost2010Prop43
 90
        3
102
RTVSPost2010PropOp43
 70
     1
102
RTVSPost2010Prop44ColorIndex
 90
        5
102
RTVSPost2010Prop44ColorRGB
 90
      255
102
RTVSPost2010PropOp44
 70
     1
102
RTVSPost2010Prop45
280
     0
102
RTVSPost2010PropOp45
 70
     1
102
RTVSPost2010Prop46
 90
       50
102
RTVSPost2010PropOp46
 70
     1
102
RTVSPost2010Prop47
 90
       50
102
RTVSPost2010PropOp47
 70
     1
102
RTVSPost2010Prop48
 90
       50
102
RTVSPost2010PropOp48
 70
     1
102
RTVSPost2010Prop49
280
     0
102
RTVSPost2010PropOp49
 70
     1
102
RTVSPost2010Prop50
 90
       50
102
RTVSPost2010PropOp50
 70
     1
102
RTVSPost2010Prop51ColorIndex
 90
      256
102
RTVSPost2010Prop51ColorRGB
 90
-16777216
102
RTVSPost2010PropOp51
 70
     0
102
RTVSPost2010Prop52
140
1.0
102
RTVSPost2010PropOp52
 70
     0
102
RTVSPost2010Prop53
 90
        2
102
RTVSPost2010PropOp53
 70
     1
102
RTVSPost2010Prop54
  1
strokes_ogs.tif
102
RTVSPost2010PropOp54
 70
     1
102
RTVSPost2010Prop55
280
     0
102
RTVSPost2010PropOp55
 70
     1
102
RTVSPost2010Prop56
140
1.0
102
RTVSPost2010PropOp56
 70
     1
102
RTVSPost2010Prop57
140
1.0
102
RTVSPost2010PropOp57
 70
     1
102
RTVSPropertyOp0
 70
     1
102
RTVSPropertyOp1
 70
     1
102
RTVSPropertyOp2
 70
     1
102
RTVSPropertyOp3
 70
     1
102
RTVSPropertyOp4
 70
     1
102
RTVSPropertyOp5
 70
     1
102
RTVSPropertyOp6
 70
     1
102
RTVSPropertyOp7
 70
     1
102
RTVSPropertyOp8
 70
     1
102
RTVSPropertyOp9
 70
     1
102
RTVSPropertyOp10
 70
     1
102
RTVSPropertyOp11
 70
     1
102
RTVSPropertyOp12
 70
     1
102
RTVSPropertyOp13
 70
     1
102
RTVSPropertyOp14
 70
     1
102
RTVSPropertyOp15
 70
     1
102
RTVSPropertyOp16
 70
     1
102
RTVSPropertyOp17
 70
     1
102
RTVSPropertyOp18
 70
     1
102
RTVSPropertyOp19
 70
     1
102
RTVSPropertyOp20
 70
     1
102
RTVSPropertyOp21
 70
     1
102
RTVSPropertyOp22
 70
     1
102
RTVSPropertyOp23
 70
     1
102
RTVSPropertyOp24
 70
     1
102
RTVSPropertyOp25
 70
     1
102
RTVSPropertyOp26
 70
     1
102
RTVSPropertyOp27
 70
     1
102
RTVSPropertyOp28
 70
     1
102
RTVSPropertyOp29
 70
     1
102
RTVSPropertyOp30
 70
     1
102
RTVSPropertyOp31
 70
     1
102
RTVSPropertyOp32
 70
     1
102
RTVSPropertyOp33
 70
     1
102
RTVSPropertyOp34
 70
     1
102
RTVSPropertyOp35
 70
     1
102
RTVSPropertyOp36
 70
     1
102
RTVSPropertyOp37
 70
     1
102
RTVSPropertyOp38
 70
     1
102
RTVSPropertyOp39
 70
     1
102
RTVSPropertyOp40
 70
     1
102
RTVSPropertyOp41
 70
     1
102
RTVSPropertyOp42
 70
     1
102
RTVSPropertyOp43
 70
     1
102
RTVSPropertyOp44
 70
     1
102
RTVSPropertyOp45
 70
     1
102
RTVSPropertyOp46
 70
     1
102
RTVSPropertyOp47
 70
     1
102
RTVSPropertyOp48
 70
     1
102
RTVSPropertyOp49
 70
     1
102
RTVSPropertyOp50
 70
     1
102
RTVSPropertyOp51
 70
     0
102
RTVSPropertyOp52
 70
     0
102
RTVSPropertyOp53
 70
     1
102
RTVSPropertyOp54
 70
     1
102
RTVSPropertyOp55
 70
     1
102
RTVSPropertyOp56
 70
     1
102
RTVSPropertyOp57
 70
     1
102
RTVSPropertyOp58
 70
     1
102
RTVSPropertyOp59
 70
     1
102
RTVSPropertyOp60
 70
     1
102
RTVSPropertyOp61
 70
     1
102
RTVSPropertyOp62
 70
     1
  0
XRECORD
  5
565
102
{ACAD_REACTORS
330
564
102
}
330
564
100
AcDbXrecord
280
     1
102
RTVSPost2010Prop28
280
     0
102
RTVSPost2010PropOp28
 70
     1
102
RTVSPost2010Prop29
280
     1
102
RTVSPost2010PropOp29
 70
     1
102
RTVSPost2010Prop30
280
     1
102
RTVSPost2010PropOp30
 70
     1
102
RTVSPost2010Prop31
280
     0
102
RTVSPost2010PropOp31
 70
     1
102
RTVSPost2010Prop32
280
     0
102
RTVSPost2010PropOp32
 70
     1
102
RTVSPost2010Prop33
280
     0
102
RTVSPost2010PropOp33
 70
     1
102
RTVSPost2010Prop34
280
     0
102
RTVSPost2010PropOp34
 70
     1
102
RTVSPost2010Prop35
280
     0
102
RTVSPost2010PropOp35
 70
     1
102
RTVSPost2010Prop36
280
     0
102
RTVSPost2010PropOp36
 70
     1
102
RTVSPost2010Prop37
 90
       50
102
RTVSPost2010PropOp37
 70
     1
102
RTVSPost2010Prop38
140
0.0
102
RTVSPost2010PropOp38
 70
     1
102
RTVSPost2010Prop39
140
1.0
102
RTVSPost2010PropOp39
 70
     1
102
RTVSPost2010Prop40
 90
        0
102
RTVSPost2010PropOp40
 70
     1
102
RTVSPost2010Prop41ColorIndex
 90
       18
102
RTVSPost2010Prop41ColorRGB
 90
        0
102
RTVSPost2010PropOp41
 70
     1
102
RTVSPost2010Prop42
 90
       50
102
RTVSPost2010PropOp42
 70
     1
102
RTVSPost2010Prop43
 90
        3
102
RTVSPost2010PropOp43
 70
     1
102
RTVSPost2010Prop44ColorIndex
 90
        5
102
RTVSPost2010Prop44ColorRGB
 90
      255
102
RTVSPost2010PropOp44
 70
     1
102
RTVSPost2010Prop45
280
     0
102
RTVSPost2010PropOp45
 70
     1
102
RTVSPost2010Prop46
 90
       50
102
RTVSPost2010PropOp46
 70
     1
102
RTVSPost2010Prop47
 90
       50
102
RTVSPost2010PropOp47
 70
     1
102
RTVSPost2010Prop48
 90
       50
102
RTVSPost2010PropOp48
 70
     1
102
RTVSPost2010Prop49
280
     0
102
RTVSPost2010PropOp49
 70
     1
102
RTVSPost2010Prop50
 90
       50
102
RTVSPost2010PropOp50
 70
     1
102
RTVSPost2010Prop51ColorIndex
 90
      256
102
RTVSPost2010Prop51ColorRGB
 90
-16777216
102
RTVSPost2010PropOp51
 70
     0
102
RTVSPost2010Prop52
140
1.0
102
RTVSPost2010PropOp52
 70
     0
102
RTVSPost2010Prop53
 90
        2
102
RTVSPost2010PropOp53
 70
     1
102
RTVSPost2010Prop54
  1
strokes_ogs.tif
102
RTVSPost2010PropOp54
 70
     1
102
RTVSPost2010Prop55
280
     0
102
RTVSPost2010PropOp55
 70
     1
102
RTVSPost2010Prop56
140
1.0
102
RTVSPost2010PropOp56
 70
     1
102
RTVSPost2010Prop57
140
1.0
102
RTVSPost2010PropOp57
 70
     1
102
RTVSPropertyOp0
 70
     1
102
RTVSPropertyOp1
 70
     1
102
RTVSPropertyOp2
 70
     1
102
RTVSPropertyOp3
 70
     1
102
RTVSPropertyOp4
 70
     1
102
RTVSPropertyOp5
 70
     1
102
RTVSPropertyOp6
 70
     1
102
RTVSPropertyOp7
 70
     1
102
RTVSPropertyOp8
 70
     1
102
RTVSPropertyOp9
 70
     1
102
RTVSPropertyOp10
 70
     1
102
RTVSPropertyOp11
 70
     1
102
RTVSPropertyOp12
 70
     1
102
RTVSPropertyOp13
 70
     1
102
RTVSPropertyOp14
 70
     1
102
RTVSPropertyOp15
 70
     1
102
RTVSPropertyOp16
 70
     1
102
RTVSPropertyOp17
 70
     1
102
RTVSPropertyOp18
 70
     1
102
RTVSPropertyOp19
 70
     1
102
RTVSPropertyOp20
 70
     1
102
RTVSPropertyOp21
 70
     1
102
RTVSPropertyOp22
 70
     1
102
RTVSPropertyOp23
 70
     1
102
RTVSPropertyOp24
 70
     1
102
RTVSPropertyOp25
 70
     1
102
RTVSPropertyOp26
 70
     1
102
RTVSPropertyOp27
 70
     1
102
RTVSPropertyOp28
 70
     1
102
RTVSPropertyOp29
 70
     1
102
RTVSPropertyOp30
 70
     1
102
RTVSPropertyOp31
 70
     1
102
RTVSPropertyOp32
 70
     1
102
RTVSPropertyOp33
 70
     1
102
RTVSPropertyOp34
 70
     1
102
RTVSPropertyOp35
 70
     1
102
RTVSPropertyOp36
 70
     1
102
RTVSPropertyOp37
 70
     1
102
RTVSPropertyOp38
 70
     1
102
RTVSPropertyOp39
 70
     1
102
RTVSPropertyOp40
 70
     1
102
RTVSPropertyOp41
 70
     1
102
RTVSPropertyOp42
 70
     1
102
RTVSPropertyOp43
 70
     1
102
RTVSPropertyOp44
 70
     1
102
RTVSPropertyOp45
 70
     1
102
RTVSPropertyOp46
 70
     1
102
RTVSPropertyOp47
 70
     1
102
RTVSPropertyOp48
 70
     1
102
RTVSPropertyOp49
 70
     1
102
RTVSPropertyOp50
 70
     1
102
RTVSPropertyOp51
 70
     0
102
RTVSPropertyOp52
 70
     0
102
RTVSPropertyOp53
 70
     1
102
RTVSPropertyOp54
 70
     1
102
RTVSPropertyOp55
 70
     1
102
RTVSPropertyOp56
 70
     1
102
RTVSPropertyOp57
 70
     1
102
RTVSPropertyOp58
 70
     1
102
RTVSPropertyOp59
 70
     1
102
RTVSPropertyOp60
 70
     1
102
RTVSPropertyOp61
 70
     1
102
RTVSPropertyOp62
 70
     1
  0
XRECORD
  5
567
102
{ACAD_REACTORS
330
566
102
}
330
566
100
AcDbXrecord
280
     1
102
RTVSPost2010Prop28
280
     0
102
RTVSPost2010PropOp28
 70
     1
102
RTVSPost2010Prop29
280
     1
102
RTVSPost2010PropOp29
 70
     1
102
RTVSPost2010Prop30
280
     1
102
RTVSPost2010PropOp30
 70
     1
102
RTVSPost2010Prop31
280
     0
102
RTVSPost2010PropOp31
 70
     1
102
RTVSPost2010Prop32
280
     0
102
RTVSPost2010PropOp32
 70
     1
102
RTVSPost2010Prop33
280
     0
102
RTVSPost2010PropOp33
 70
     1
102
RTVSPost2010Prop34
280
     0
102
RTVSPost2010PropOp34
 70
     1
102
RTVSPost2010Prop35
280
     0
102
RTVSPost2010PropOp35
 70
     1
102
RTVSPost2010Prop36
280
     0
102
RTVSPost2010PropOp36
 70
     1
102
RTVSPost2010Prop37
 90
       50
102
RTVSPost2010PropOp37
 70
     1
102
RTVSPost2010Prop38
140
0.0
102
RTVSPost2010PropOp38
 70
     1
102
RTVSPost2010Prop39
140
1.0
102
RTVSPost2010PropOp39
 70
     1
102
RTVSPost2010Prop40
 90
        0
102
RTVSPost2010PropOp40
 70
     1
102
RTVSPost2010Prop41ColorIndex
 90
       18
102
RTVSPost2010Prop41ColorRGB
 90
        0
102
RTVSPost2010PropOp41
 70
     1
102
RTVSPost2010Prop42
 90
       50
102
RTVSPost2010PropOp42
 70
     1
102
RTVSPost2010Prop43
 90
        3
102
RTVSPost2010PropOp43
 70
     1
102
RTVSPost2010Prop44ColorIndex
 90
        5
102
RTVSPost2010Prop44ColorRGB
 90
      255
102
RTVSPost2010PropOp44
 70
     1
102
RTVSPost2010Prop45
280
     0
102
RTVSPost2010PropOp45
 70
     1
102
RTVSPost2010Prop46
 90
       50
102
RTVSPost2010PropOp46
 70
     1
102
RTVSPost2010Prop47
 90
       50
102
RTVSPost2010PropOp47
 70
     1
102
RTVSPost2010Prop48
 90
       50
102
RTVSPost2010PropOp48
 70
     1
102
RTVSPost2010Prop49
280
     0
102
RTVSPost2010PropOp49
 70
     1
102
RTVSPost2010Prop50
 90
       50
102
RTVSPost2010PropOp50
 70
     1
102
RTVSPost2010Prop51ColorIndex
 90
      256
102
RTVSPost2010Prop51ColorRGB
 90
-16777216
102
RTVSPost2010PropOp51
 70
     0
102
RTVSPost2010Prop52
140
1.0
102
RTVSPost2010PropOp52
 70
     0
102
RTVSPost2010Prop53
 90
        2
102
RTVSPost2010PropOp53
 70
     1
102
RTVSPost2010Prop54
  1
strokes_ogs.tif
102
RTVSPost2010PropOp54
 70
     1
102
RTVSPost2010Prop55
280
     0
102
RTVSPost2010PropOp55
 70
     1
102
RTVSPost2010Prop56
140
1.0
102
RTVSPost2010PropOp56
 70
     1
102
RTVSPost2010Prop57
140
1.0
102
RTVSPost2010PropOp57
 70
     1
102
RTVSPropertyOp0
 70
     1
102
RTVSPropertyOp1
 70
     1
102
RTVSPropertyOp2
 70
     1
102
RTVSPropertyOp3
 70
     1
102
RTVSPropertyOp4
 70
     1
102
RTVSPropertyOp5
 70
     1
102
RTVSPropertyOp6
 70
     1
102
RTVSPropertyOp7
 70
     1
102
RTVSPropertyOp8
 70
     1
102
RTVSPropertyOp9
 70
     1
102
RTVSPropertyOp10
 70
     1
102
RTVSPropertyOp11
 70
     1
102
RTVSPropertyOp12
 70
     1
102
RTVSPropertyOp13
 70
     1
102
RTVSPropertyOp14
 70
     1
102
RTVSPropertyOp15
 70
     1
102
RTVSPropertyOp16
 70
     1
102
RTVSPropertyOp17
 70
     1
102
RTVSPropertyOp18
 70
     1
102
RTVSPropertyOp19
 70
     1
102
RTVSPropertyOp20
 70
     1
102
RTVSPropertyOp21
 70
     1
102
RTVSPropertyOp22
 70
     1
102
RTVSPropertyOp23
 70
     1
102
RTVSPropertyOp24
 70
     1
102
RTVSPropertyOp25
 70
     1
102
RTVSPropertyOp26
 70
     1
102
RTVSPropertyOp27
 70
     1
102
RTVSPropertyOp28
 70
     1
102
RTVSPropertyOp29
 70
     1
102
RTVSPropertyOp30
 70
     1
102
RTVSPropertyOp31
 70
     1
102
RTVSPropertyOp32
 70
     1
102
RTVSPropertyOp33
 70
     1
102
RTVSPropertyOp34
 70
     1
102
RTVSPropertyOp35
 70
     1
102
RTVSPropertyOp36
 70
     1
102
RTVSPropertyOp37
 70
     1
102
RTVSPropertyOp38
 70
     1
102
RTVSPropertyOp39
 70
     1
102
RTVSPropertyOp40
 70
     1
102
RTVSPropertyOp41
 70
     1
102
RTVSPropertyOp42
 70
     1
102
RTVSPropertyOp43
 70
     1
102
RTVSPropertyOp44
 70
     1
102
RTVSPropertyOp45
 70
     1
102
RTVSPropertyOp46
 70
     1
102
RTVSPropertyOp47
 70
     1
102
RTVSPropertyOp48
 70
     1
102
RTVSPropertyOp49
 70
     1
102
RTVSPropertyOp50
 70
     1
102
RTVSPropertyOp51
 70
     0
102
RTVSPropertyOp52
 70
     0
102
RTVSPropertyOp53
 70
     1
102
RTVSPropertyOp54
 70
     1
102
RTVSPropertyOp55
 70
     1
102
RTVSPropertyOp56
 70
     1
102
RTVSPropertyOp57
 70
     1
102
RTVSPropertyOp58
 70
     1
102
RTVSPropertyOp59
 70
     1
102
RTVSPropertyOp60
 70
     1
102
RTVSPropertyOp61
 70
     1
102
RTVSPropertyOp62
 70
     1
  0
XRECORD
  5
55D
102
{ACAD_REACTORS
330
55C
102
}
330
55C
100
AcDbXrecord
280
     1
102
RTVSPost2010Prop28
280
     0
102
RTVSPost2010PropOp28
 70
     1
102
RTVSPost2010Prop29
280
     1
102
RTVSPost2010PropOp29
 70
     1
102
RTVSPost2010Prop30
280
     1
102
RTVSPost2010PropOp30
 70
     1
102
RTVSPost2010Prop31
280
     0
102
RTVSPost2010PropOp31
 70
     1
102
RTVSPost2010Prop32
280
     0
102
RTVSPost2010PropOp32
 70
     1
102
RTVSPost2010Prop33
280
     0
102
RTVSPost2010PropOp33
 70
     1
102
RTVSPost2010Prop34
280
     0
102
RTVSPost2010PropOp34
 70
     1
102
RTVSPost2010Prop35
280
     0
102
RTVSPost2010PropOp35
 70
     1
102
RTVSPost2010Prop36
280
     0
102
RTVSPost2010PropOp36
 70
     1
102
RTVSPost2010Prop37
 90
       50
102
RTVSPost2010PropOp37
 70
     1
102
RTVSPost2010Prop38
140
0.0
102
RTVSPost2010PropOp38
 70
     1
102
RTVSPost2010Prop39
140
1.0
102
RTVSPost2010PropOp39
 70
     1
102
RTVSPost2010Prop40
 90
        0
102
RTVSPost2010PropOp40
 70
     1
102
RTVSPost2010Prop41ColorIndex
 90
       18
102
RTVSPost2010Prop41ColorRGB
 90
        0
102
RTVSPost2010PropOp41
 70
     1
102
RTVSPost2010Prop42
 90
       50
102
RTVSPost2010PropOp42
 70
     1
102
RTVSPost2010Prop43
 90
        3
102
RTVSPost2010PropOp43
 70
     1
102
RTVSPost2010Prop44ColorIndex
 90
        5
102
RTVSPost2010Prop44ColorRGB
 90
      255
102
RTVSPost2010PropOp44
 70
     1
102
RTVSPost2010Prop45
280
     0
102
RTVSPost2010PropOp45
 70
     1
102
RTVSPost2010Prop46
 90
       50
102
RTVSPost2010PropOp46
 70
     1
102
RTVSPost2010Prop47
 90
       50
102
RTVSPost2010PropOp47
 70
     1
102
RTVSPost2010Prop48
 90
       50
102
RTVSPost2010PropOp48
 70
     1
102
RTVSPost2010Prop49
280
     0
102
RTVSPost2010PropOp49
 70
     1
102
RTVSPost2010Prop50
 90
       50
102
RTVSPost2010PropOp50
 70
     1
102
RTVSPost2010Prop51ColorIndex
 90
      256
102
RTVSPost2010Prop51ColorRGB
 90
-16777216
102
RTVSPost2010PropOp51
 70
     0
102
RTVSPost2010Prop52
140
1.0
102
RTVSPost2010PropOp52
 70
     0
102
RTVSPost2010Prop53
 90
        2
102
RTVSPost2010PropOp53
 70
     1
102
RTVSPost2010Prop54
  1
strokes_ogs.tif
102
RTVSPost2010PropOp54
 70
     1
102
RTVSPost2010Prop55
280
     0
102
RTVSPost2010PropOp55
 70
     1
102
RTVSPost2010Prop56
140
1.0
102
RTVSPost2010PropOp56
 70
     1
102
RTVSPost2010Prop57
140
1.0
102
RTVSPost2010PropOp57
 70
     1
102
RTVSPropertyOp0
 70
     1
102
RTVSPropertyOp1
 70
     1
102
RTVSPropertyOp2
 70
     1
102
RTVSPropertyOp3
 70
     1
102
RTVSPropertyOp4
 70
     1
102
RTVSPropertyOp5
 70
     1
102
RTVSPropertyOp6
 70
     1
102
RTVSPropertyOp7
 70
     1
102
RTVSPropertyOp8
 70
     1
102
RTVSPropertyOp9
 70
     1
102
RTVSPropertyOp10
 70
     1
102
RTVSPropertyOp11
 70
     1
102
RTVSPropertyOp12
 70
     1
102
RTVSPropertyOp13
 70
     1
102
RTVSPropertyOp14
 70
     1
102
RTVSPropertyOp15
 70
     1
102
RTVSPropertyOp16
 70
     1
102
RTVSPropertyOp17
 70
     1
102
RTVSPropertyOp18
 70
     1
102
RTVSPropertyOp19
 70
     1
102
RTVSPropertyOp20
 70
     1
102
RTVSPropertyOp21
 70
     1
102
RTVSPropertyOp22
 70
     1
102
RTVSPropertyOp23
 70
     1
102
RTVSPropertyOp24
 70
     1
102
RTVSPropertyOp25
 70
     1
102
RTVSPropertyOp26
 70
     1
102
RTVSPropertyOp27
 70
     1
102
RTVSPropertyOp28
 70
     1
102
RTVSPropertyOp29
 70
     1
102
RTVSPropertyOp30
 70
     1
102
RTVSPropertyOp31
 70
     1
102
RTVSPropertyOp32
 70
     1
102
RTVSPropertyOp33
 70
     1
102
RTVSPropertyOp34
 70
     1
102
RTVSPropertyOp35
 70
     1
102
RTVSPropertyOp36
 70
     1
102
RTVSPropertyOp37
 70
     1
102
RTVSPropertyOp38
 70
     1
102
RTVSPropertyOp39
 70
     1
102
RTVSPropertyOp40
 70
     1
102
RTVSPropertyOp41
 70
     1
102
RTVSPropertyOp42
 70
     1
102
RTVSPropertyOp43
 70
     1
102
RTVSPropertyOp44
 70
     1
102
RTVSPropertyOp45
 70
     1
102
RTVSPropertyOp46
 70
     1
102
RTVSPropertyOp47
 70
     1
102
RTVSPropertyOp48
 70
     1
102
RTVSPropertyOp49
 70
     1
102
RTVSPropertyOp50
 70
     1
102
RTVSPropertyOp51
 70
     0
102
RTVSPropertyOp52
 70
     0
102
RTVSPropertyOp53
 70
     1
102
RTVSPropertyOp54
 70
     1
102
RTVSPropertyOp55
 70
     1
102
RTVSPropertyOp56
 70
     1
102
RTVSPropertyOp57
 70
     1
102
RTVSPropertyOp58
 70
     1
102
RTVSPropertyOp59
 70
     1
102
RTVSPropertyOp60
 70
     1
102
RTVSPropertyOp61
 70
     1
102
RTVSPropertyOp62
 70
     1
  0
XRECORD
  5
551
102
{ACAD_REACTORS
330
550
102
}
330
550
100
AcDbXrecord
280
     1
102
RTVSPost2010Prop28
280
     0
102
RTVSPost2010PropOp28
 70
     1
102
RTVSPost2010Prop29
280
     1
102
RTVSPost2010PropOp29
 70
     1
102
RTVSPost2010Prop30
280
     1
102
RTVSPost2010PropOp30
 70
     1
102
RTVSPost2010Prop31
280
     0
102
RTVSPost2010PropOp31
 70
     1
102
RTVSPost2010Prop32
280
     0
102
RTVSPost2010PropOp32
 70
     1
102
RTVSPost2010Prop33
280
     0
102
RTVSPost2010PropOp33
 70
     1
102
RTVSPost2010Prop34
280
     0
102
RTVSPost2010PropOp34
 70
     1
102
RTVSPost2010Prop35
280
     0
102
RTVSPost2010PropOp35
 70
     1
102
RTVSPost2010Prop36
280
     0
102
RTVSPost2010PropOp36
 70
     1
102
RTVSPost2010Prop37
 90
       50
102
RTVSPost2010PropOp37
 70
     1
102
RTVSPost2010Prop38
140
0.0
102
RTVSPost2010PropOp38
 70
     1
102
RTVSPost2010Prop39
140
1.0
102
RTVSPost2010PropOp39
 70
     1
102
RTVSPost2010Prop40
 90
        0
102
RTVSPost2010PropOp40
 70
     1
102
RTVSPost2010Prop41ColorIndex
 90
       18
102
RTVSPost2010Prop41ColorRGB
 90
        0
102
RTVSPost2010PropOp41
 70
     1
102
RTVSPost2010Prop42
 90
       50
102
RTVSPost2010PropOp42
 70
     1
102
RTVSPost2010Prop43
 90
        3
102
RTVSPost2010PropOp43
 70
     1
102
RTVSPost2010Prop44ColorIndex
 90
        5
102
RTVSPost2010Prop44ColorRGB
 90
      255
102
RTVSPost2010PropOp44
 70
     1
102
RTVSPost2010Prop45
280
     0
102
RTVSPost2010PropOp45
 70
     1
102
RTVSPost2010Prop46
 90
       50
102
RTVSPost2010PropOp46
 70
     1
102
RTVSPost2010Prop47
 90
       50
102
RTVSPost2010PropOp47
 70
     1
102
RTVSPost2010Prop48
 90
       50
102
RTVSPost2010PropOp48
 70
     1
102
RTVSPost2010Prop49
280
     0
102
RTVSPost2010PropOp49
 70
     1
102
RTVSPost2010Prop50
 90
       50
102
RTVSPost2010PropOp50
 70
     1
102
RTVSPost2010Prop51ColorIndex
 90
      256
102
RTVSPost2010Prop51ColorRGB
 90
-16777216
102
RTVSPost2010PropOp51
 70
     0
102
RTVSPost2010Prop52
140
1.0
102
RTVSPost2010PropOp52
 70
     0
102
RTVSPost2010Prop53
 90
        2
102
RTVSPost2010PropOp53
 70
     1
102
RTVSPost2010Prop54
  1
strokes_ogs.tif
102
RTVSPost2010PropOp54
 70
     1
102
RTVSPost2010Prop55
280
     0
102
RTVSPost2010PropOp55
 70
     1
102
RTVSPost2010Prop56
140
1.0
102
RTVSPost2010PropOp56
 70
     1
102
RTVSPost2010Prop57
140
1.0
102
RTVSPost2010PropOp57
 70
     1
102
RTVSPropertyOp0
 70
     1
102
RTVSPropertyOp1
 70
     1
102
RTVSPropertyOp2
 70
     1
102
RTVSPropertyOp3
 70
     1
102
RTVSPropertyOp4
 70
     1
102
RTVSPropertyOp5
 70
     1
102
RTVSPropertyOp6
 70
     1
102
RTVSPropertyOp7
 70
     1
102
RTVSPropertyOp8
 70
     1
102
RTVSPropertyOp9
 70
     1
102
RTVSPropertyOp10
 70
     1
102
RTVSPropertyOp11
 70
     1
102
RTVSPropertyOp12
 70
     1
102
RTVSPropertyOp13
 70
     1
102
RTVSPropertyOp14
 70
     1
102
RTVSPropertyOp15
 70
     1
102
RTVSPropertyOp16
 70
     1
102
RTVSPropertyOp17
 70
     1
102
RTVSPropertyOp18
 70
     1
102
RTVSPropertyOp19
 70
     1
102
RTVSPropertyOp20
 70
     1
102
RTVSPropertyOp21
 70
     1
102
RTVSPropertyOp22
 70
     1
102
RTVSPropertyOp23
 70
     1
102
RTVSPropertyOp24
 70
     1
102
RTVSPropertyOp25
 70
     1
102
RTVSPropertyOp26
 70
     1
102
RTVSPropertyOp27
 70
     1
102
RTVSPropertyOp28
 70
     1
102
RTVSPropertyOp29
 70
     1
102
RTVSPropertyOp30
 70
     1
102
RTVSPropertyOp31
 70
     1
102
RTVSPropertyOp32
 70
     1
102
RTVSPropertyOp33
 70
     1
102
RTVSPropertyOp34
 70
     1
102
RTVSPropertyOp35
 70
     1
102
RTVSPropertyOp36
 70
     1
102
RTVSPropertyOp37
 70
     1
102
RTVSPropertyOp38
 70
     1
102
RTVSPropertyOp39
 70
     1
102
RTVSPropertyOp40
 70
     1
102
RTVSPropertyOp41
 70
     1
102
RTVSPropertyOp42
 70
     1
102
RTVSPropertyOp43
 70
     1
102
RTVSPropertyOp44
 70
     1
102
RTVSPropertyOp45
 70
     1
102
RTVSPropertyOp46
 70
     1
102
RTVSPropertyOp47
 70
     1
102
RTVSPropertyOp48
 70
     1
102
RTVSPropertyOp49
 70
     1
102
RTVSPropertyOp50
 70
     1
102
RTVSPropertyOp51
 70
     0
102
RTVSPropertyOp52
 70
     0
102
RTVSPropertyOp53
 70
     1
102
RTVSPropertyOp54
 70
     1
102
RTVSPropertyOp55
 70
     1
102
RTVSPropertyOp56
 70
     1
102
RTVSPropertyOp57
 70
     1
102
RTVSPropertyOp58
 70
     1
102
RTVSPropertyOp59
 70
     1
102
RTVSPropertyOp60
 70
     1
102
RTVSPropertyOp61
 70
     1
102
RTVSPropertyOp62
 70
     1
  0
XRECORD
  5
569
102
{ACAD_REACTORS
330
568
102
}
330
568
100
AcDbXrecord
280
     1
102
RTVSPost2010Prop28
280
     0
102
RTVSPost2010PropOp28
 70
     1
102
RTVSPost2010Prop29
280
     1
102
RTVSPost2010PropOp29
 70
     1
102
RTVSPost2010Prop30
280
     1
102
RTVSPost2010PropOp30
 70
     1
102
RTVSPost2010Prop31
280
     0
102
RTVSPost2010PropOp31
 70
     1
102
RTVSPost2010Prop32
280
     0
102
RTVSPost2010PropOp32
 70
     1
102
RTVSPost2010Prop33
280
     0
102
RTVSPost2010PropOp33
 70
     1
102
RTVSPost2010Prop34
280
     0
102
RTVSPost2010PropOp34
 70
     1
102
RTVSPost2010Prop35
280
     0
102
RTVSPost2010PropOp35
 70
     1
102
RTVSPost2010Prop36
280
     0
102
RTVSPost2010PropOp36
 70
     1
102
RTVSPost2010Prop37
 90
       50
102
RTVSPost2010PropOp37
 70
     1
102
RTVSPost2010Prop38
140
0.0
102
RTVSPost2010PropOp38
 70
     1
102
RTVSPost2010Prop39
140
1.0
102
RTVSPost2010PropOp39
 70
     1
102
RTVSPost2010Prop40
 90
        0
102
RTVSPost2010PropOp40
 70
     1
102
RTVSPost2010Prop41ColorIndex
 90
       18
102
RTVSPost2010Prop41ColorRGB
 90
        0
102
RTVSPost2010PropOp41
 70
     1
102
RTVSPost2010Prop42
 90
       50
102
RTVSPost2010PropOp42
 70
     1
102
RTVSPost2010Prop43
 90
        3
102
RTVSPost2010PropOp43
 70
     1
102
RTVSPost2010Prop44ColorIndex
 90
        5
102
RTVSPost2010Prop44ColorRGB
 90
      255
102
RTVSPost2010PropOp44
 70
     1
102
RTVSPost2010Prop45
280
     0
102
RTVSPost2010PropOp45
 70
     1
102
RTVSPost2010Prop46
 90
       50
102
RTVSPost2010PropOp46
 70
     1
102
RTVSPost2010Prop47
 90
       50
102
RTVSPost2010PropOp47
 70
     1
102
RTVSPost2010Prop48
 90
       50
102
RTVSPost2010PropOp48
 70
     1
102
RTVSPost2010Prop49
280
     0
102
RTVSPost2010PropOp49
 70
     1
102
RTVSPost2010Prop50
 90
       50
102
RTVSPost2010PropOp50
 70
     1
102
RTVSPost2010Prop51ColorIndex
 90
      256
102
RTVSPost2010Prop51ColorRGB
 90
-16777216
102
RTVSPost2010PropOp51
 70
     0
102
RTVSPost2010Prop52
140
1.0
102
RTVSPost2010PropOp52
 70
     0
102
RTVSPost2010Prop53
 90
        2
102
RTVSPost2010PropOp53
 70
     1
102
RTVSPost2010Prop54
  1
strokes_ogs.tif
102
RTVSPost2010PropOp54
 70
     1
102
RTVSPost2010Prop55
280
     0
102
RTVSPost2010PropOp55
 70
     1
102
RTVSPost2010Prop56
140
1.0
102
RTVSPost2010PropOp56
 70
     1
102
RTVSPost2010Prop57
140
1.0
102
RTVSPost2010PropOp57
 70
     1
102
RTVSPropertyOp0
 70
     1
102
RTVSPropertyOp1
 70
     1
102
RTVSPropertyOp2
 70
     1
102
RTVSPropertyOp3
 70
     1
102
RTVSPropertyOp4
 70
     1
102
RTVSPropertyOp5
 70
     1
102
RTVSPropertyOp6
 70
     1
102
RTVSPropertyOp7
 70
     1
102
RTVSPropertyOp8
 70
     1
102
RTVSPropertyOp9
 70
     1
102
RTVSPropertyOp10
 70
     1
102
RTVSPropertyOp11
 70
     1
102
RTVSPropertyOp12
 70
     1
102
RTVSPropertyOp13
 70
     1
102
RTVSPropertyOp14
 70
     1
102
RTVSPropertyOp15
 70
     1
102
RTVSPropertyOp16
 70
     1
102
RTVSPropertyOp17
 70
     1
102
RTVSPropertyOp18
 70
     1
102
RTVSPropertyOp19
 70
     1
102
RTVSPropertyOp20
 70
     1
102
RTVSPropertyOp21
 70
     1
102
RTVSPropertyOp22
 70
     1
102
RTVSPropertyOp23
 70
     1
102
RTVSPropertyOp24
 70
     1
102
RTVSPropertyOp25
 70
     1
102
RTVSPropertyOp26
 70
     1
102
RTVSPropertyOp27
 70
     1
102
RTVSPropertyOp28
 70
     1
102
RTVSPropertyOp29
 70
     1
102
RTVSPropertyOp30
 70
     1
102
RTVSPropertyOp31
 70
     1
102
RTVSPropertyOp32
 70
     1
102
RTVSPropertyOp33
 70
     1
102
RTVSPropertyOp34
 70
     1
102
RTVSPropertyOp35
 70
     1
102
RTVSPropertyOp36
 70
     1
102
RTVSPropertyOp37
 70
     1
102
RTVSPropertyOp38
 70
     1
102
RTVSPropertyOp39
 70
     1
102
RTVSPropertyOp40
 70
     1
102
RTVSPropertyOp41
 70
     1
102
RTVSPropertyOp42
 70
     1
102
RTVSPropertyOp43
 70
     1
102
RTVSPropertyOp44
 70
     1
102
RTVSPropertyOp45
 70
     1
102
RTVSPropertyOp46
 70
     1
102
RTVSPropertyOp47
 70
     1
102
RTVSPropertyOp48
 70
     1
102
RTVSPropertyOp49
 70
     1
102
RTVSPropertyOp50
 70
     1
102
RTVSPropertyOp51
 70
     0
102
RTVSPropertyOp52
 70
     0
102
RTVSPropertyOp53
 70
     1
102
RTVSPropertyOp54
 70
     1
102
RTVSPropertyOp55
 70
     1
102
RTVSPropertyOp56
 70
     1
102
RTVSPropertyOp57
 70
     1
102
RTVSPropertyOp58
 70
     1
102
RTVSPropertyOp59
 70
     1
102
RTVSPropertyOp60
 70
     1
102
RTVSPropertyOp61
 70
     1
102
RTVSPropertyOp62
 70
     1
  0
ENDSEC
  0
EOF
