  0
SECTION
  2
HEADER
  9
$ACADVER
  1
AC1009
  9
$INSBASE
 10
0.0
 20
0.0
 30
0.0
  9
$EXTMIN
 10
-135.0082391174605
 20
-204.6471312898436
 30
-0.0015258207003583
  9
$EXTMAX
 10
135.00824037474609
 20
196.77813363551249
 30
0.0000000349246037
  9
$LIMMIN
 10
0.0
 20
0.0
  9
$LIMMAX
 10
0.0
 20
0.0
  9
$ORTHOMODE
 70
     0
  9
$REGENMODE
 70
     1
  9
$FILLMODE
 70
     1
  9
$QTEXTMODE
 70
     0
  9
$MIRRTEXT
 70
     1
  9
$DRAGMODE
 70
     2
  9
$LTSCALE
 40
7.6199999999999983
  9
$OSMODE
 70
   231
  9
$ATTMODE
 70
     1
  9
$TEXTSIZE
 40
0.0
  9
$TRACEWID
 40
1.0
  9
$TEXTSTYLE
  7
STANDARD
  9
$CLAYER
  8
DATA
  9
$CELTYPE
  6
BYLAYER
  9
$CECOLOR
 62
   256
  9
$DIMSCALE
 40
1.0
  9
$DIMASZ
 40
0.18
  9
$DIMEXO
 40
0.0625
  9
$DIMDLI
 40
0.38
  9
$DIMRND
 40
0.0
  9
$DIMDLE
 40
0.0
  9
$DIMEXE
 40
0.18
  9
$DIMTP
 40
0.0
  9
$DIMTM
 40
0.0
  9
$DIMTXT
 40
0.18
  9
$DIMCEN
 40
0.09
  9
$DIMTSZ
 40
0.0
  9
$DIMTOL
 70
     0
  9
$DIMLIM
 70
     0
  9
$DIMTIH
 70
     1
  9
$DIMTOH
 70
     1
  9
$DIMSE1
 70
     0
  9
$DIMSE2
 70
     0
  9
$DIMTAD
 70
     0
  9
$DIMZIN
 70
     0
  9
$DIMBLK
  1

  9
$DIMASO
 70
     1
  9
$DIMSHO
 70
     1
  9
$DIMPOST
  1

  9
$DIMAPOST
  1

  9
$DIMALT
 70
     0
  9
$DIMALTD
 70
     2
  9
$DIMALTF
 40
25.399999999999999
  9
$DIMLFAC
 40
1.0
  9
$DIMTOFL
 70
     0
  9
$DIMTVP
 40
0.0
  9
$DIMTIX
 70
     0
  9
$DIMSOXD
 70
     0
  9
$DIMSAH
 70
     0
  9
$DIMBLK1
  1

  9
$DIMBLK2
  1

  9
$DIMSTYLE
  2
STANDARD
  9
$DIMCLRD
 70
     0
  9
$DIMCLRE
 70
     0
  9
$DIMCLRT
 70
     0
  9
$DIMTFAC
 40
1.0
  9
$DIMGAP
 40
0.09
  9
$LUNITS
 70
     2
  9
$LUPREC
 70
     4
  9
$SKETCHINC
 40
0.1
  9
$FILLETRAD
 40
0.0
  9
$AUNITS
 70
     0
  9
$AUPREC
 70
     0
  9
$MENU
  1
acad
  9
$ELEVATION
 40
0.0
  9
$PELEVATION
 40
0.0
  9
$THICKNESS
 40
0.0
  9
$LIMCHECK
 70
     0
  9
$BLIPMODE
 70
     0
  9
$CHAMFERA
 40
0.0
  9
$CHAMFERB
 40
0.0
  9
$SKPOLY
 70
     0
  9
$TDCREATE
 40
2456148.7094560191
  9
$TDUPDATE
 40
2456148.7153338888
  9
$TDINDWG
 40
0.0003340741
  9
$TDUSRTIMER
 40
0.0003338889
  9
$USRTIMER
 70
     1
  9
$ANGBASE
 50
0.0
  9
$ANGDIR
 70
     0
  9
$PDMODE
 70
     1
  9
$PDSIZE
 40
-2.0
  9
$PLINEWID
 40
0.0
  9
$COORDS
 70
     2
  9
$SPLFRAME
 70
     0
  9
$SPLINETYPE
 70
     6
  9
$SPLINESEGS
 70
     8
  9
$ATTDIA
 70
     0
  9
$ATTREQ
 70
     1
  9
$HANDLING
 70
     1
  9
$HANDSEED
  5
211
  9
$SURFTAB1
 70
     6
  9
$SURFTAB2
 70
     6
  9
$SURFTYPE
 70
     6
  9
$SURFU
 70
     6
  9
$SURFV
 70
     6
  9
$UCSNAME
  2

  9
$UCSORG
 10
0.0
 20
0.0
 30
0.0
  9
$UCSXDIR
 10
1.0
 20
0.0
 30
0.0
  9
$UCSYDIR
 10
0.0
 20
1.0
 30
0.0
  9
$PUCSNAME
  2

  9
$PUCSORG
 10
0.0
 20
0.0
 30
0.0
  9
$PUCSXDIR
 10
1.0
 20
0.0
 30
0.0
  9
$PUCSYDIR
 10
0.0
 20
1.0
 30
0.0
  9
$USERI1
 70
     0
  9
$USERI2
 70
     0
  9
$USERI3
 70
     0
  9
$USERI4
 70
     0
  9
$USERI5
 70
     0
  9
$USERR1
 40
0.0
  9
$USERR2
 40
0.0
  9
$USERR3
 40
0.0
  9
$USERR4
 40
0.0
  9
$USERR5
 40
0.0
  9
$WORLDVIEW
 70
     1
  9
$SHADEDGE
 70
     3
  9
$SHADEDIF
 70
    70
  9
$TILEMODE
 70
     1
  9
$MAXACTVP
 70
    64
  9
$PLIMCHECK
 70
     0
  9
$PEXTMIN
 10
1.0000000000000000E+020
 20
1.0000000000000000E+020
 30
1.0000000000000000E+020
  9
$PEXTMAX
 10
-1.0000000000000000E+020
 20
-1.0000000000000000E+020
 30
-1.0000000000000000E+020
  9
$PLIMMIN
 10
0.0
 20
0.0
  9
$PLIMMAX
 10
12.0
 20
9.0
  9
$UNITMODE
 70
     0
  9
$VISRETAIN
 70
     0
  9
$PLINEGEN
 70
     1
  9
$PSLTSCALE
 70
     0
  0
ENDSEC
  0
SECTION
  2
TABLES
  0
TABLE
  2
VPORT
 70
     1
  0
VPORT
  2
*ACTIVE
 70
     0
 10
0.0
 20
0.0
 11
1.0
 21
1.0
 12
0.0000006286427947
 22
-3.5318140672910081
 13
0.0
 23
0.0
 14
1.0
 24
1.0
 15
0.0
 25
0.0
 16
0.0
 26
0.0
 36
1.0
 17
0.0
 27
0.0
 37
0.0
 40
403.77852795808218
 41
2.1881578947368419
 42
50.0
 43
0.0
 44
0.0
 50
0.0
 51
0.0
 71
     0
 72
  2000
 73
     1
 74
     1
 75
     0
 76
     0
 77
     0
 78
     0
  0
ENDTAB
  0
TABLE
  2
LTYPE
 70
    12
  0
LTYPE
  2
CONTINUOUS
 70
     0
  3
Solid line
 72
    65
 73
     0
 40
0.0
  0
LTYPE
  2
PHANTOM2
 70
     0
  3
___ _ _ ___ _ _ ___ _ _ ___ _ _
 72
    65
 73
     6
 40
1.25
 49
0.625
 49
-0.125
 49
0.125
 49
-0.125
 49
0.125
 49
-0.125
  0
ENDTAB
  0
TABLE
  2
LAYER
 70
     5
  0
LAYER
  2
0
 70
     0
 62
     7
  6
CONTINUOUS
  0
LAYER
  2
DATA
 70
     0
 62
     7
  6
CONTINUOUS
  0
LAYER
  2
HIBINO-BASE
 70
     0
 62
     7
  6
CONTINUOUS
  0
LAYER
  2
SPEC
 70
     0
 62
     7
  6
CONTINUOUS
  0
LAYER
  2
DIMNSIONS
 70
     0
 62
     7
  6
CONTINUOUS
  0
ENDTAB
  0
TABLE
  2
STYLE
 70
     3
  0
STYLE
  2
STANDARD
 70
     0
 40
0.0
 41
1.0
 50
0.0
 71
     0
 42
0.0
  3
txt
  4
BIGFONT.SHX
  0
ENDTAB
  0
TABLE
  2
VIEW
 70
     0
  0
ENDTAB
  0
TABLE
  2
UCS
 70
     0
  0
ENDTAB
  0
TABLE
  2
APPID
 70
     4
  0
APPID
  2
ACAD
 70
     0
  0
APPID
  2
ACADANNOTATIVE
 70
     0
  0
APPID
  2
ACAD_NAV_VCDISPLAY
 70
     0
  0
APPID
  2
ACAD_MLEADERVER
 70
     0
  0
ENDTAB
  0
TABLE
  2
DIMSTYLE
 70
     2
  0
DIMSTYLE
  2
STANDARD
 70
     0
  3

  4

  5

  6

  7

 40
1.0
 41
0.18
 42
0.0625
 43
0.38
 44
0.18
 45
0.0
 46
0.0
 47
0.0
 48
0.0
140
0.18
141
0.09
142
0.0
143
25.399999999999999
144
1.0
145
0.0
146
1.0
147
0.09
 71
     0
 72
     0
 73
     1
 74
     1
 75
     0
 76
     0
 77
     0
 78
     0
170
     0
171
     2
172
     0
173
     0
174
     0
175
     0
176
     0
177
     0
178
     0
  0
ENDTAB
  0
ENDSEC
  0
SECTION
  2
BLOCKS
  0
BLOCK
  8
0
  2
$MODEL_SPACE
 70
     0
 10
0.0
 20
0.0
 30
0.0
  3
$MODEL_SPACE
  1

  0
ENDBLK
  5
196
  8
0
  0
BLOCK
 67
     1
  8
0
  2
$PAPER_SPACE
 70
     0
 10
0.0
 20
0.0
 30
0.0
  3
$PAPER_SPACE
  1

  0
ENDBLK
  5
192
 67
     1
  8
0
  0
ENDSEC
  0
SECTION
  2
ENTITIES
  0
LINE
  5
2C
  8
HIBINO-BASE
  6
CONTINUOUS
 62
     7
 10
-134.99999999999989
 20
196.7659075
 30
0.0
 11
134.99999999999989
 21
196.7659075
 31
0.0
  0
LINE
  5
2D
  8
HIBINO-BASE
  6
CONTINUOUS
 62
     7
 10
134.99999999999989
 20
-193.2340925
 30
0.0
 11
-134.99999999999989
 21
-193.2340925
 31
0.0
  0
LINE
  5
2E
  8
HIBINO-BASE
  6
CONTINUOUS
 62
     7
 10
-134.99999999999989
 20
-193.2340925
 30
0.0
 11
-134.99999999999989
 21
196.7659075
 31
0.0
  0
TEXT
  5
2F
  8
HIBINO-BASE
 62
     7
 10
-124.224
 20
-202.84710920000001
 30
0.0
 40
5.4000662695312487
  1
Hibino Corporation
 41
0.7
 11
-124.224
 21
-197.44704293046871
 31
0.0
 73
     3
  0
LINE
  5
30
  8
HIBINO-BASE
  6
CONTINUOUS
 62
     7
 10
134.99999999999989
 20
196.7659075
 30
0.0
 11
134.99999999999989
 21
-193.2340925
 31
0.0
  0
LINE
  5
31
  8
HIBINO-BASE
  6
CONTINUOUS
 62
     7
 10
0.0
 20
-159.48409249999989
 30
0.0
 11
134.99999999999989
 21
-159.48409249999989
 31
0.0
  0
LINE
  5
32
  8
HIBINO-BASE
  6
CONTINUOUS
 62
     7
 10
0.0
 20
-193.2340925
 30
0.0
 11
0.0
 21
-159.48409249999989
 31
0.0
  0
TEXT
  5
33
  8
HIBINO-BASE
 62
     7
 10
1.349999999999999
 20
-163.24713249999999
 30
0.0
 40
2.4432617187500001
  1
NOTE
 41
0.7
 11
1.3500000000000001
 21
-160.80387078125
 31
0.0
 73
     3
  0
LINE
  5
34
  8
HIBINO-BASE
  6
CONTINUOUS
 62
     7
 10
52.5
 20
-193.2340925
 30
0.0
 11
52.5
 21
-159.48409249999989
 31
0.0
  0
TEXT
  5
35
  8
HIBINO-BASE
 62
     7
 10
53.850000000000001
 20
-163.24713249999999
 30
0.0
 40
2.4432617187500001
  1
TITLE
 41
0.7
 11
53.850000000000001
 21
-160.80387078125
 31
0.0
 73
     3
  0
TEXT
  5
36
  8
HIBINO-BASE
 62
     7
 10
75.102584999999976
 20
-202.84710920000001
 30
0.0
 40
5.4000662695312487
  1
ヒビノ株式会社
 41
0.7
 11
75.102584999999976
 21
-197.44704293046871
 31
0.0
 73
     3
  0
LINE
  5
37
  8
HIBINO-BASE
  6
CONTINUOUS
 62
     7
 10
0.0
 20
-178.23409249999989
 30
0.0
 11
134.99999999999989
 21
-178.23409249999989
 31
0.0
  0
TEXT
  5
38
  8
HIBINO-BASE
 62
     7
 10
72.59999999999998
 20
-181.91265249999989
 30
0.0
 40
2.4432617187500001
  1
DRAWN
 41
0.7
 11
72.59999999999998
 21
-179.4693907812499
 31
0.0
 73
     3
  0
TEXT
  5
39
  8
HIBINO-BASE
 62
     7
 10
35.100000000000001
 20
-181.91265249999989
 30
0.0
 40
2.4432617187500001
  1
DATE
 41
0.7
 11
35.100000000000001
 21
-179.4693907812499
 31
0.0
 73
     3
  0
TEXT
  5
3A
  8
HIBINO-BASE
 62
     7
 10
20.100000000000001
 20
-181.91265249999989
 30
0.0
 40
2.4432617187500001
  1
SCALE
 41
0.7
 11
20.100000000000001
 21
-179.4693907812499
 31
0.0
 73
     3
  0
TEXT
  5
3B
  8
HIBINO-BASE
 62
     7
 10
53.850000000000001
 20
-181.91265249999989
 30
0.0
 40
2.4432617187500001
  1
DESIGN
 41
0.7
 11
53.850000000000001
 21
-179.4693907812499
 31
0.0
 73
     3
  0
TEXT
  5
3C
  8
HIBINO-BASE
 62
     7
 10
110.09999999999999
 20
-181.91265249999989
 30
0.0
 40
2.4432617187500001
  1
DRAWING NO.
 41
0.7
 11
110.09999999999999
 21
-179.4693907812499
 31
0.0
 73
     3
  0
TEXT
  5
3D
  8
HIBINO-BASE
 62
     7
 10
91.349999999999994
 20
-181.91265249999989
 30
0.0
 40
2.4432617187500001
  1
CHECK
 41
0.7
 11
91.349999999999994
 21
-179.4693907812499
 31
0.0
 73
     3
  0
LINE
  5
3E
  8
HIBINO-BASE
  6
CONTINUOUS
 62
     7
 10
21.5625
 20
-191.3590925
 30
0.0
 11
27.1875
 21
-185.7340925
 31
0.0
  0
TEXT
  5
3F
  8
HIBINO-BASE
 62
     7
 10
20.625
 20
-187.39750749999999
 30
0.0
 40
2.4432617187500001
  1
1
 41
0.7
 11
20.625
 21
-184.95424578124999
 31
0.0
 73
     3
  0
LINE
  5
40
  8
HIBINO-BASE
  6
CONTINUOUS
 62
     7
 10
18.75
 20
-193.2340925
 30
0.0
 11
18.75
 21
-178.23409249999989
 31
0.0
  0
LINE
  5
41
  8
HIBINO-BASE
  6
CONTINUOUS
 62
     7
 10
33.75
 20
-193.2340925
 30
0.0
 11
33.75
 21
-178.23409249999989
 31
0.0
  0
LINE
  5
42
  8
HIBINO-BASE
  6
CONTINUOUS
 62
     7
 10
71.249999999999986
 20
-178.23409249999989
 30
0.0
 11
71.249999999999986
 21
-193.2340925
 31
0.0
  0
LINE
  5
43
  8
HIBINO-BASE
  6
CONTINUOUS
 62
     7
 10
108.75
 20
-178.23409249999989
 30
0.0
 11
108.75
 21
-193.2340925
 31
0.0
  0
LINE
  5
44
  8
HIBINO-BASE
  6
CONTINUOUS
 62
     7
 10
89.999999999999986
 20
-193.2340925
 30
0.0
 11
89.999999999999986
 21
-178.23409249999989
 31
0.0
  0
TEXT
  5
45
  8
HIBINO-BASE
 62
     7
 10
35.03481
 20
-188.93862250000001
 30
0.0
 40
2.4432617187500001
  1
'12.08.
 41
0.7
 11
35.03481
 21
-186.49536078125001
 31
0.0
 73
     3
  0
TEXT
  5
46
  8
HIBINO-BASE
 62
     7
 10
26.25
 20
-190.21000749999999
 30
0.0
 40
2.4432617187500001
  1
1.5
 41
0.7
 11
26.25
 21
-187.76674578124999
 31
0.0
 73
     3
  0
TEXT
  5
47
  8
HIBINO-BASE
 62
     7
 10
73.508715016551932
 20
-188.93862250000001
 30
0.0
 40
2.4432617187500001
  1
Ootake
 41
0.7
 11
73.508715016551932
 21
-186.49536078125001
 31
0.0
 73
     3
  0
TEXT
  5
48
  8
HIBINO-BASE
 62
     7
 10
5.8250000000000233
 20
-190.27009249999989
 30
0.0
 40
4.8865234374999993
  1
A4
 41
0.7
 11
5.8250000000000233
 21
-185.38356906249999
 31
0.0
 73
     3
  0
TEXT
  5
49
  8
HIBINO-BASE
 62
     7
 10
1.437499999999998
 20
-182.163275
 30
0.0
 40
2.4432617187500001
  1
PAPER SIZE
 41
0.7
 11
1.437499999999998
 21
-179.72001328125
 31
0.0
 73
     3
  0
LINE
  5
4A
  8
SPEC
  6
CONTINUOUS
 62
     7
 10
-123.7499999999999
 20
181.7659075
 30
0.0
 11
97.5
 21
181.7659075
 31
0.0
  0
LINE
  5
4B
  8
SPEC
  6
CONTINUOUS
 62
     7
 10
-123.7499999999999
 20
176.14090749999991
 30
0.0
 11
97.5
 21
176.14090749999991
 31
0.0
  0
LINE
  5
4C
  8
SPEC
  6
CONTINUOUS
 62
     7
 10
-123.7499999999999
 20
170.51590749999991
 30
0.0
 11
97.5
 21
170.51590749999991
 31
0.0
  0
LINE
  5
4D
  8
SPEC
  6
CONTINUOUS
 62
     7
 10
-123.7499999999999
 20
181.7659075
 30
0.0
 11
-123.7499999999999
 21
164.8859075
 31
0.0
  0
TEXT
  5
4E
  8
SPEC
 62
     7
 10
-121.8749999999999
 20
183.8558124999999
 30
0.0
 40
3.664892578124999
  1
仕様
 41
0.7
 11
-121.8749999999999
 21
187.52070507812491
 31
0.0
 73
     3
  0
LINE
  5
4F
  8
SPEC
  6
CONTINUOUS
 62
     7
 10
-74.999999999999986
 20
181.7659075
 30
0.0
 11
-74.999999999999986
 21
164.8859075
 31
0.0
  0
LINE
  5
50
  8
SPEC
  6
CONTINUOUS
 62
     7
 10
97.5
 20
181.7659075
 30
0.0
 11
97.5
 21
164.8859075
 31
0.0
  0
TEXT
  5
51
  8
SPEC
 62
     7
 10
-122.5665644626487
 20
177.658006357228
 30
0.0
 40
2.850466875
  1
寸法
 41
0.7
 11
-122.5665644626487
 21
180.508473232228
 31
0.0
 73
     3
  0
TEXT
  5
52
  8
SPEC
 62
     7
 10
-122.50851795067
 20
172.02253137650129
 30
0.0
 40
2.850466875
  1
重量
 41
0.7
 11
-122.50851795067
 21
174.87299825150129
 31
0.0
 73
     3
  0
TEXT
  5
53
  8
SPEC
 62
     7
 10
-73.692912798777044
 20
177.363761354677
 30
0.0
 40
2.850466875
  1
70(W)\U+00D7114(H)\U+00D717(D)mm
 41
0.7
 11
-73.692912798777044
 21
180.21422822967699
 31
0.0
 73
     3
  0
TEXT
  5
54
  8
SPEC
 62
     7
 10
-73.715533868832338
 20
172.0686060468756
 30
0.0
 40
2.850466875
  1
約110g
 41
0.7
 11
-73.715533868832338
 21
174.9190729218756
 31
0.0
 73
     3
  0
LINE
  5
55
  8
SPEC
  6
CONTINUOUS
 62
     7
 10
-123.7499999999999
 20
164.8859075
 30
0.0
 11
97.5
 21
164.8859075
 31
0.0
  0
TEXT
  5
56
  8
SPEC
 62
     7
 10
-122.50851795067
 20
166.39253137650141
 30
0.0
 40
2.850466875
  1
色
 41
0.7
 11
-122.50851795067
 21
169.24299825150129
 31
0.0
 73
     3
  0
TEXT
  5
57
  8
SPEC
 62
     7
 10
-73.715533868832338
 20
166.39350921105699
 30
0.0
 40
2.850466875
  1
白(-WHT)、黒(-BLK)
 41
0.7
 11
-73.715533868832338
 21
169.24397608605699
 31
0.0
 73
     3
  0
TEXT
  5
58
  8
DIMNSIONS
 62
     7
 10
-30.0
 20
-174.8298575
 30
0.0
 40
3.664892578124999
  1
(単位：mm)
 41
0.7
 11
-30.0
 21
-171.164964921875
 31
0.0
 73
     3
  0
LINE
  5
59
  8
DIMNSIONS
  6
CONTINUOUS
 62
     7
 10
-33.825000000000003
 20
-104.75
 30
0.0
 11
-83.0
 21
-104.75
 31
0.0
  0
LINE
  5
5A
  8
DIMNSIONS
  6
CONTINUOUS
 62
     7
 10
-33.825000000000003
 20
-21.25
 30
0.0
 11
-83.0
 21
-21.25
 31
0.0
  0
LINE
  5
5B
  8
DIMNSIONS
  6
CONTINUOUS
 62
     7
 10
-80.0
 20
-104.75
 30
0.0
 11
-80.0
 21
-21.25
 31
0.0
  0
LINE
  5
5C
  8
DIMNSIONS
  6
CONTINUOUS
 62
     7
 10
-80.0
 20
-104.75
 30
0.0
 11
-81.005059692725368
 21
-100.9990661621093
 31
0.0
  0
LINE
  5
5D
  8
DIMNSIONS
  6
CONTINUOUS
 62
     7
 10
-80.0
 20
-104.75
 30
0.0
 11
-78.994940307274632
 21
-100.9990661621093
 31
0.0
  0
LINE
  5
5E
  8
DIMNSIONS
  6
CONTINUOUS
 62
     7
 10
-80.0
 20
-21.25
 30
0.0
 11
-78.994940307274632
 21
-25.000933837890621
 31
0.0
  0
LINE
  5
5F
  8
DIMNSIONS
  6
CONTINUOUS
 62
     7
 10
-80.0
 20
-21.25
 30
0.0
 11
-81.005059692725368
 21
-25.000933837890621
 31
0.0
  0
TEXT
  5
60
  8
DIMNSIONS
 62
     7
 10
-81.490833355411866
 20
-68.291666666666643
 30
0.0
 40
4.0721029859414672
  1
83.5
 50
90.0
 41
0.7
 11
-85.562936341353335
 21
-68.291666666666643
 31
0.0
 73
     3
  0
LINE
  5
61
  8
DIMNSIONS
  6
CONTINUOUS
 62
     7
 10
-73.0
 20
-120.0
 30
0.0
 11
-93.0
 21
-120.0
 31
0.0
  0
LINE
  5
62
  8
DIMNSIONS
  6
CONTINUOUS
 62
     7
 10
-73.0
 20
-6.0
 30
0.0
 11
-93.0
 21
-6.0
 31
0.0
  0
LINE
  5
63
  8
DIMNSIONS
  6
CONTINUOUS
 62
     7
 10
-90.0
 20
-120.0
 30
0.0
 11
-90.0
 21
-6.0
 31
0.0
  0
LINE
  5
64
  8
DIMNSIONS
  6
CONTINUOUS
 62
     7
 10
-90.0
 20
-120.0
 30
0.0
 11
-91.005059692725368
 21
-116.2490661621093
 31
0.0
  0
LINE
  5
65
  8
DIMNSIONS
  6
CONTINUOUS
 62
     7
 10
-90.0
 20
-120.0
 30
0.0
 11
-88.994940307274632
 21
-116.2490661621093
 31
0.0
  0
LINE
  5
66
  8
DIMNSIONS
  6
CONTINUOUS
 62
     7
 10
-90.0
 20
-6.0
 30
0.0
 11
-88.994940307274632
 21
-9.7509338378906243
 31
0.0
  0
LINE
  5
67
  8
DIMNSIONS
  6
CONTINUOUS
 62
     7
 10
-90.0
 20
-6.0
 30
0.0
 11
-91.005059692725368
 21
-9.7509338378906243
 31
0.0
  0
TEXT
  5
68
  8
DIMNSIONS
 62
     7
 10
-91.490833355411851
 20
-66.968749999999986
 30
0.0
 40
4.0721029859414672
  1
114
 50
90.0
 41
0.7
 11
-95.562936341353321
 21
-66.968749999999986
 31
0.0
 73
     3
  0
LINE
  5
69
  8
DIMNSIONS
  6
CONTINUOUS
 62
     7
 10
-70.0
 20
-123.0
 30
0.0
 11
-70.0
 21
-143.0
 31
0.0
  0
LINE
  5
6A
  8
DIMNSIONS
  6
CONTINUOUS
 62
     7
 10
0.0
 20
-123.0
 30
0.0
 11
0.0
 21
-143.0
 31
0.0
  0
LINE
  5
6B
  8
DIMNSIONS
  6
CONTINUOUS
 62
     7
 10
-70.0
 20
-140.0
 30
0.0
 11
0.0
 21
-140.0
 31
0.0
  0
LINE
  5
6C
  8
DIMNSIONS
  6
CONTINUOUS
 62
     7
 10
-70.0
 20
-140.0
 30
0.0
 11
-66.249066162109372
 21
-138.99494030727459
 31
0.0
  0
LINE
  5
6D
  8
DIMNSIONS
  6
CONTINUOUS
 62
     7
 10
-70.0
 20
-140.0
 30
0.0
 11
-66.249066162109372
 21
-141.00505969272541
 31
0.0
  0
LINE
  5
6E
  8
DIMNSIONS
  6
CONTINUOUS
 62
     7
 10
0.0
 20
-140.0
 30
0.0
 11
-3.750933837890623
 21
-141.00505969272541
 31
0.0
  0
LINE
  5
6F
  8
DIMNSIONS
  6
CONTINUOUS
 62
     7
 10
0.0
 20
-140.0
 30
0.0
 11
-3.750933837890623
 21
-138.99494030727459
 31
0.0
  0
TEXT
  5
70
  8
DIMNSIONS
 62
     7
 10
-37.645833333333343
 20
-138.50916664458811
 30
0.0
 40
4.0721029859414672
  1
70
 41
0.7
 11
-37.645833333333343
 21
-134.43706365864659
 31
0.0
 73
     3
  0
LINE
  5
71
  8
DIMNSIONS
  6
CONTINUOUS
 62
     7
 10
-73.0
 20
30.0
 30
0.0
 11
-83.0
 21
30.0
 31
0.0
  0
LINE
  5
72
  8
DIMNSIONS
  6
CONTINUOUS
 62
     7
 10
-73.0
 20
33.399999999999999
 30
0.0
 11
-83.0
 21
33.399999999999999
 31
0.0
  0
LINE
  5
73
  8
DIMNSIONS
  6
CONTINUOUS
 62
     7
 10
-80.0
 20
33.399999999999999
 30
0.0
 11
-80.0
 21
30.0
 31
0.0
  0
LINE
  5
74
  8
DIMNSIONS
  6
CONTINUOUS
 62
     7
 10
-80.0
 20
30.0
 30
0.0
 11
-80.0
 21
22.5
 31
0.0
  0
LINE
  5
75
  8
DIMNSIONS
  6
CONTINUOUS
 62
     7
 10
-80.0
 20
30.0
 30
0.0
 11
-78.994940307274632
 21
26.249066162109379
 31
0.0
  0
LINE
  5
76
  8
DIMNSIONS
  6
CONTINUOUS
 62
     7
 10
-80.0
 20
30.0
 30
0.0
 11
-81.005059692725368
 21
26.249066162109379
 31
0.0
  0
LINE
  5
77
  8
DIMNSIONS
  6
CONTINUOUS
 62
     7
 10
-80.0
 20
33.399999999999999
 30
0.0
 11
-80.0
 21
43.96875
 31
0.0
  0
LINE
  5
78
  8
DIMNSIONS
  6
CONTINUOUS
 62
     7
 10
-80.0
 20
33.399999999999999
 30
0.0
 11
-81.005059692725368
 21
37.150933837890612
 31
0.0
  0
LINE
  5
79
  8
DIMNSIONS
  6
CONTINUOUS
 62
     7
 10
-80.0
 20
33.399999999999999
 30
0.0
 11
-78.994940307274632
 21
37.150933837890612
 31
0.0
  0
TEXT
  5
7A
  8
DIMNSIONS
 62
     7
 10
-81.490833355411866
 20
36.03125
 30
0.0
 40
4.0721029859414672
  1
3.4
 50
90.0
 41
0.7
 11
-85.562936341353335
 21
36.03125
 31
0.0
 73
     3
  0
LINE
  5
7B
  8
DIMNSIONS
  6
CONTINUOUS
 62
     7
 10
-73.0
 20
33.399999999999999
 30
0.0
 11
-93.0
 21
33.399999999999999
 31
0.0
  0
LINE
  5
7C
  8
DIMNSIONS
  6
CONTINUOUS
 62
     7
 10
-61.999999999999993
 20
50.400000000000013
 30
0.0
 11
-93.0
 21
50.400000000000013
 31
0.0
  0
LINE
  5
7D
  8
DIMNSIONS
  6
CONTINUOUS
 62
     7
 10
-90.0
 20
33.399999999999999
 30
0.0
 11
-90.0
 21
50.400000000000013
 31
0.0
  0
LINE
  5
7E
  8
DIMNSIONS
  6
CONTINUOUS
 62
     7
 10
-90.0
 20
33.399999999999999
 30
0.0
 11
-91.005059692725368
 21
37.150933837890612
 31
0.0
  0
LINE
  5
7F
  8
DIMNSIONS
  6
CONTINUOUS
 62
     7
 10
-90.0
 20
33.399999999999999
 30
0.0
 11
-88.994940307274632
 21
37.150933837890612
 31
0.0
  0
LINE
  5
80
  8
DIMNSIONS
  6
CONTINUOUS
 62
     7
 10
-90.0
 20
50.400000000000013
 30
0.0
 11
-88.994940307274632
 21
46.649066162109378
 31
0.0
  0
LINE
  5
81
  8
DIMNSIONS
  6
CONTINUOUS
 62
     7
 10
-90.0
 20
50.400000000000013
 30
0.0
 11
-91.005059692725368
 21
46.649066162109378
 31
0.0
  0
TEXT
  5
82
  8
DIMNSIONS
 62
     7
 10
-91.490833355411851
 20
39.25416666666667
 30
0.0
 40
4.0721029859414672
  1
17
 50
90.0
 41
0.7
 11
-95.562936341353321
 21
39.25416666666667
 31
0.0
 73
     3
  0
LINE
  5
83
  8
DIMNSIONS
  6
CONTINUOUS
 62
     7
 10
-38.000000000000021
 20
14.251238518715409
 30
0.0
 11
-93.0
 21
14.251238518715409
 31
0.0
  0
LINE
  5
84
  8
DIMNSIONS
  6
CONTINUOUS
 62
     7
 10
-73.0
 20
30.0
 30
0.0
 11
-93.0
 21
30.0
 31
0.0
  0
LINE
  5
85
  8
DIMNSIONS
  6
CONTINUOUS
 62
     7
 10
-90.0
 20
14.251238518715409
 30
0.0
 11
-90.0
 21
30.0
 31
0.0
  0
LINE
  5
86
  8
DIMNSIONS
  6
CONTINUOUS
 62
     7
 10
-90.0
 20
14.251238518715409
 30
0.0
 11
-91.005059692725368
 21
18.002172356606032
 31
0.0
  0
LINE
  5
87
  8
DIMNSIONS
  6
CONTINUOUS
 62
     7
 10
-90.0
 20
14.251238518715409
 30
0.0
 11
-88.994940307274632
 21
18.002172356606032
 31
0.0
  0
LINE
  5
88
  8
DIMNSIONS
  6
CONTINUOUS
 62
     7
 10
-90.0
 20
30.0
 30
0.0
 11
-88.994940307274632
 21
26.249066162109379
 31
0.0
  0
LINE
  5
89
  8
DIMNSIONS
  6
CONTINUOUS
 62
     7
 10
-90.0
 20
30.0
 30
0.0
 11
-91.005059692725368
 21
26.249066162109379
 31
0.0
  0
TEXT
  5
8A
  8
DIMNSIONS
 62
     7
 10
-91.490833355411894
 20
16.833952592691041
 30
0.0
 40
4.0721029859414672
  1
15.7
 50
90.0
 41
0.7
 11
-95.562936341353364
 21
16.833952592691041
 31
0.0
 73
     3
  0
TEXT
  5
8B
  8
DATA
 62
     7
 10
74.999999999999986
 20
-176.5377575
 30
0.0
 40
3.664892578124999
  1
CSR-2SV
 41
0.7
 11
74.999999999999986
 21
-172.87286492187499
 31
0.0
 73
     3
  0
TEXT
  5
8C
  8
DATA
 62
     7
 10
74.999999999999986
 20
-165.6627575
 30
0.0
 40
3.664892578124999
  1
JBL
 41
0.7
 11
74.999999999999986
 21
-161.99786492187499
 31
0.0
 73
     3
  0
TEXT
  5
8D
  8
DATA
 62
     7
 10
72.550938281561372
 20
-170.73173247801091
 30
0.0
 40
2.4432655664062488
  1
リモートコントローラ
 41
0.7
 11
72.550938281561372
 21
-168.28846691160459
 31
0.0
 73
     3
  0
TEXT
  5
8E
  8
DATA
 62
     7
 10
-119.9999999999999
 20
-186.8770925
 30
0.0
 40
2.4432617187500001
  1
仕様および外観は予告なく変更されることがありますので、ご了承ください。
 41
0.7
 11
-119.9999999999999
 21
-184.43383078125001
 31
0.0
 73
     3
  0
POLYLINE
  5
8F
  8
DATA
  6
CONTINUOUS
 62
     7
 66
     1
 10
0.0
 20
0.0
 30
0.0
 70
   129
  0
VERTEX
  5
1C6
  8
DATA
  6
CONTINUOUS
 62
     7
 10
-68.5
 20
-6.0
 30
0.0
  0
VERTEX
  5
1C7
  8
DATA
  6
CONTINUOUS
 62
     7
 10
-1.4999999999999989
 20
-6.0
 30
0.0
  0
VERTEX
  5
1C8
  8
DATA
  6
CONTINUOUS
 62
     7
 10
-1.499999999999992
 20
-6.0
 30
0.0
 42
-0.4142135623730945
  0
VERTEX
  5
1C9
  8
DATA
  6
CONTINUOUS
 62
     7
 10
0.0
 20
-7.4999999999999982
 30
0.0
  0
VERTEX
  5
1CA
  8
DATA
  6
CONTINUOUS
 62
     7
 10
0.0
 20
-118.5
 30
0.0
  0
VERTEX
  5
1CB
  8
DATA
  6
CONTINUOUS
 62
     7
 10
0.0
 20
-118.5
 30
0.0
 42
-0.4142135623730951
  0
VERTEX
  5
1CC
  8
DATA
  6
CONTINUOUS
 62
     7
 10
-1.5
 20
-120.0
 30
0.0
  0
VERTEX
  5
1CD
  8
DATA
  6
CONTINUOUS
 62
     7
 10
-68.5
 20
-120.0
 30
0.0
  0
VERTEX
  5
1CE
  8
DATA
  6
CONTINUOUS
 62
     7
 10
-68.500000000000071
 20
-120.0
 30
0.0
 42
-0.4142135623730895
  0
VERTEX
  5
1CF
  8
DATA
  6
CONTINUOUS
 62
     7
 10
-70.0
 20
-118.5
 30
0.0
  0
VERTEX
  5
1D0
  8
DATA
  6
CONTINUOUS
 62
     7
 10
-70.0
 20
-7.4999999999999876
 30
0.0
  0
VERTEX
  5
1D1
  8
DATA
  6
CONTINUOUS
 62
     7
 10
-70.0
 20
-7.4999999999999876
 30
0.0
 42
-0.4142135623730903
  0
VERTEX
  5
1D2
  8
DATA
  6
CONTINUOUS
 62
     7
 10
-68.5
 20
-6.0
 30
0.0
  0
SEQEND
  5
1D3
  8
DATA
  6
CONTINUOUS
 62
     7
  0
CIRCLE
  5
9E
  8
DATA
  6
CONTINUOUS
 62
     7
 10
-35.0
 20
-21.25
 30
0.0
 40
2.0
  0
CIRCLE
  5
9F
  8
DATA
  6
CONTINUOUS
 62
     7
 10
-35.0
 20
-104.75
 30
0.0
 40
2.0
  0
CIRCLE
  5
A0
  8
DATA
  6
CONTINUOUS
 62
     7
 10
-35.0
 20
-104.75
 30
0.0
 40
4.1749999999999998
  0
CIRCLE
  5
A1
  8
DATA
  6
CONTINUOUS
 62
     7
 10
-35.0
 20
-21.25
 30
0.0
 40
4.1749999999999998
  0
CIRCLE
  5
A2
  8
DATA
  6
CONTINUOUS
 62
     7
 10
-35.0
 20
-46.5
 30
0.0
 40
9.5
  0
CIRCLE
  5
A3
  8
DATA
  6
CONTINUOUS
 62
     7
 10
-35.0
 20
-46.5
 30
0.0
 40
10.0
  0
CIRCLE
  5
A4
  8
DATA
  6
CONTINUOUS
 62
     7
 10
-28.250000000000011
 20
-58.191342951089929
 30
0.0
 40
1.0
  0
CIRCLE
  5
A5
  8
DATA
  6
CONTINUOUS
 62
     7
 10
-23.308657048910081
 20
-53.249999999999993
 30
0.0
 40
0.8999999999999985
  0
CIRCLE
  5
A6
  8
DATA
  6
CONTINUOUS
 62
     7
 10
-21.5
 20
-46.5
 30
0.0
 40
0.8000000000000007
  0
CIRCLE
  5
A7
  8
DATA
  6
CONTINUOUS
 62
     7
 10
-23.308657048910071
 20
-39.750000000000007
 30
0.0
 40
0.6999999999999993
  0
CIRCLE
  5
A8
  8
DATA
  6
CONTINUOUS
 62
     7
 10
-28.250000000000011
 20
-34.808657048910078
 30
0.0
 40
0.6000000000000015
  0
CIRCLE
  5
A9
  8
DATA
  6
CONTINUOUS
 62
     7
 10
-35.0
 20
-33.0
 30
0.0
 40
0.5
  0
CIRCLE
  5
AA
  8
DATA
  6
CONTINUOUS
 62
     7
 10
-41.749999999999993
 20
-34.808657048910057
 30
0.0
 40
0.3999999999999986
  0
CIRCLE
  5
AB
  8
DATA
  6
CONTINUOUS
 62
     7
 10
-46.691342951089929
 20
-39.750000000000007
 30
0.0
 40
0.2999999999999972
  0
CIRCLE
  5
AC
  8
DATA
  6
CONTINUOUS
 62
     7
 10
-48.5
 20
-46.5
 30
0.0
 40
0.2000000000000028
  0
CIRCLE
  5
AD
  8
DATA
  6
CONTINUOUS
 62
     7
 10
-46.691342951089922
 20
-53.249999999999993
 30
0.0
 40
0.1000000000000014
  0
CIRCLE
  5
AE
  8
DATA
  6
CONTINUOUS
 62
     7
 10
-41.749999999999993
 20
-58.191342951089929
 30
0.0
 40
0.1000000000000014
  0
CIRCLE
  5
AF
  8
DATA
  6
CONTINUOUS
 62
     7
 10
-39.107245468373648
 20
-53.682666747211186
 30
0.0
 40
0.8999999999999985
  0
TEXT
  5
B0
  8
DATA
 62
     7
 10
-21.489724028446808
 20
-12.16240318066661
 30
0.0
 40
3.664892578124999
  1
CSR-2SV
 41
0.7
 11
-21.489724028446808
 21
-8.4975106025416114
 31
0.0
 73
     3
  0
LINE
  5
B1
  8
DATA
  6
CONTINUOUS
 62
     7
 10
43.399999999999991
 20
-120.0
 30
0.0
 11
40.0
 21
-120.0
 31
0.0
  0
LINE
  5
B2
  8
DATA
  6
CONTINUOUS
 62
     7
 10
43.399999999999991
 20
-6.0
 30
0.0
 11
40.0
 21
-6.0
 31
0.0
  0
LINE
  5
B3
  8
DATA
  6
CONTINUOUS
 62
     7
 10
43.399999999999991
 20
-120.0
 30
0.0
 11
43.399999999999991
 21
-6.0
 31
0.0
  0
LINE
  5
B4
  8
DATA
  6
CONTINUOUS
 62
     7
 10
40.0
 20
-120.0
 30
0.0
 11
40.0
 21
-6.0
 31
0.0
  0
LINE
  5
B5
  8
DATA
  6
CONTINUOUS
 62
     7
 10
24.75
 20
-37.0
 30
0.0
 11
39.0
 21
-36.5
 31
0.0
  0
ARC
  5
B6
  8
DATA
  6
CONTINUOUS
 62
     7
 10
114.75
 20
-46.5
 30
0.0
 40
90.5
 50
173.9744249916333
 51
186.0255750083667
  0
LINE
  5
B7
  8
DATA
  6
CONTINUOUS
 62
     7
 10
39.0
 20
-56.5
 30
0.0
 11
24.75
 21
-56.0
 31
0.0
  0
LINE
  5
B8
  8
DATA
  6
CONTINUOUS
 62
     7
 10
39.0
 20
-42.049999999999997
 30
0.0
 11
40.0
 21
-42.049999999999997
 31
0.0
  0
LINE
  5
B9
  8
DATA
  6
CONTINUOUS
 62
     7
 10
39.0
 20
-50.950000000000003
 30
0.0
 11
40.0
 21
-50.950000000000003
 31
0.0
  0
LINE
  5
BA
  8
DATA
  6
CONTINUOUS
 62
     7
 10
39.0
 20
-56.5
 30
0.0
 11
39.0
 21
-36.5
 31
0.0
  0
LINE
  5
BB
  8
DATA
  6
CONTINUOUS
 62
     7
 10
60.400000000000013
 20
-97.999999999999972
 30
0.0
 11
60.400000000000013
 21
-30.0
 31
0.0
  0
LINE
  5
BC
  8
DATA
  6
CONTINUOUS
 62
     7
 10
58.79999999999999
 20
-97.999999999999972
 30
0.0
 11
58.79999999999999
 21
-30.0
 31
0.0
  0
LINE
  5
BD
  8
DATA
  6
CONTINUOUS
 62
     7
 10
58.79999999999999
 20
-90.669009811038933
 30
0.0
 11
43.399999999999991
 21
-90.669009811038933
 31
0.0
  0
LINE
  5
BE
  8
DATA
  6
CONTINUOUS
 62
     7
 10
58.79999999999999
 20
-96.069009811038967
 30
0.0
 11
43.399999999999991
 21
-96.069009811038967
 31
0.0
  0
LINE
  5
BF
  8
DATA
  6
CONTINUOUS
 62
     7
 10
60.899999999999991
 20
-96.769009811038956
 30
0.0
 11
60.399999999999999
 21
-96.769009811038956
 31
0.0
  0
LINE
  5
C0
  8
DATA
  6
CONTINUOUS
 62
     7
 10
62.399999999999999
 20
-91.469009811038987
 30
0.0
 11
62.399999999999999
 21
-95.269009811038956
 31
0.0
  0
LINE
  5
C1
  8
DATA
  6
CONTINUOUS
 62
     7
 10
60.399999999999999
 20
-89.96900981103893
 30
0.0
 11
60.899999999999991
 21
-89.96900981103893
 31
0.0
  0
ARC
  5
C2
  8
DATA
  6
CONTINUOUS
 62
     7
 10
60.899999999999991
 20
-91.469009811038987
 30
0.0
 40
1.5
 50
0.0
 51
90.0
  0
ARC
  5
C3
  8
DATA
  6
CONTINUOUS
 62
     7
 10
60.899999999999991
 20
-95.269009811038956
 30
0.0
 40
1.5
 50
270.0
 51
0.0
  0
LINE
  5
C4
  8
DATA
  6
CONTINUOUS
 62
     7
 10
60.400000000000013
 20
-30.84112800430033
 30
0.0
 11
61.400000000000013
 21
-30.84112800430033
 31
0.0
  0
LINE
  5
C5
  8
DATA
  6
CONTINUOUS
 62
     7
 10
60.400000000000013
 20
-42.841128004300323
 30
0.0
 11
61.400000000000013
 21
-42.841128004300323
 31
0.0
  0
LINE
  5
C6
  8
DATA
  6
CONTINUOUS
 62
     7
 10
61.400000000000013
 20
-42.841128004300323
 30
0.0
 11
61.400000000000013
 21
-30.84112800430033
 31
0.0
  0
LINE
  5
C7
  8
DATA
  6
CONTINUOUS
 62
     7
 10
58.79999999999999
 20
-30.84112800430033
 30
0.0
 11
49.899999999999977
 21
-30.84112800430033
 31
0.0
  0
LINE
  5
C8
  8
DATA
  6
CONTINUOUS
 62
     7
 10
58.79999999999999
 20
-44.541128004300312
 30
0.0
 11
49.899999999999977
 21
-44.541128004300312
 31
0.0
  0
LINE
  5
C9
  8
DATA
  6
CONTINUOUS
 62
     7
 10
55.100000000000001
 20
-44.541128004300312
 30
0.0
 11
55.100000000000001
 21
-49.841128004300309
 31
0.0
  0
LINE
  5
CA
  8
DATA
  6
CONTINUOUS
 62
     7
 10
58.79999999999999
 20
-49.841128004300323
 30
0.0
 11
55.09999999999998
 21
-49.841128004300323
 31
0.0
  0
LINE
  5
CB
  8
DATA
  6
CONTINUOUS
 62
     7
 10
49.899999999999999
 20
-44.541128004300312
 30
0.0
 11
49.899999999999999
 21
-30.84112800430033
 31
0.0
  0
LINE
  5
CC
  8
DATA
  6
CONTINUOUS
 62
     7
 10
53.399999999999991
 20
-54.0
 30
0.0
 11
43.399999999999991
 21
-54.0
 31
0.0
  0
LINE
  5
CD
  8
DATA
  6
CONTINUOUS
 62
     7
 10
53.399999999999991
 20
-44.541128004300312
 30
0.0
 11
53.399999999999991
 21
-54.0
 31
0.0
  0
LINE
  5
CE
  8
DATA
  6
CONTINUOUS
 62
     7
 10
43.399999999999991
 20
-39.0
 30
0.0
 11
49.899999999999977
 21
-39.0
 31
0.0
  0
LINE
  5
CF
  8
DATA
  6
CONTINUOUS
 62
     7
 10
-70.0
 20
30.0
 30
0.0
 11
-70.0
 21
33.399999999999999
 31
0.0
  0
LINE
  5
D0
  8
DATA
  6
CONTINUOUS
 62
     7
 10
0.0
 20
30.0
 30
0.0
 11
0.0
 21
33.399999999999999
 31
0.0
  0
LINE
  5
D1
  8
DATA
  6
CONTINUOUS
 62
     7
 10
-70.0
 20
30.0
 30
0.0
 11
0.0
 21
30.0
 31
0.0
  0
LINE
  5
D2
  8
DATA
  6
CONTINUOUS
 62
     7
 10
-70.0
 20
33.399999999999999
 30
0.0
 11
0.0
 21
33.399999999999999
 31
0.0
  0
LINE
  5
D3
  8
DATA
  6
CONTINUOUS
 62
     7
 10
-44.5
 20
14.751238518715409
 30
0.0
 11
-45.0
 21
29.001238518715411
 31
0.0
  0
ARC
  5
D4
  8
DATA
  6
CONTINUOUS
 62
     7
 10
-35.0
 20
104.7512385187154
 30
0.0
 40
90.499999999999986
 50
263.97442499163333
 51
276.02557500836662
  0
LINE
  5
D5
  8
DATA
  6
CONTINUOUS
 62
     7
 10
-25.0
 20
29.001238518715411
 30
0.0
 11
-25.5
 21
14.751238518715409
 31
0.0
  0
LINE
  5
D6
  8
DATA
  6
CONTINUOUS
 62
     7
 10
-39.450000000000003
 20
29.001238518715411
 30
0.0
 11
-39.450000000000003
 21
30.001238518715411
 31
0.0
  0
LINE
  5
D7
  8
DATA
  6
CONTINUOUS
 62
     7
 10
-30.550000000000001
 20
29.001238518715411
 30
0.0
 11
-30.550000000000001
 21
30.001238518715411
 31
0.0
  0
LINE
  5
D8
  8
DATA
  6
CONTINUOUS
 62
     7
 10
-25.0
 20
29.001238518715411
 30
0.0
 11
-45.0
 21
29.001238518715411
 31
0.0
  0
LINE
  5
D9
  8
DATA
  6
CONTINUOUS
 62
     7
 10
-58.999999999999993
 20
50.399999999999999
 30
0.0
 11
-10.999999999999989
 21
50.399999999999999
 31
0.0
  0
LINE
  5
DA
  8
DATA
  6
CONTINUOUS
 62
     7
 10
-58.999999999999993
 20
48.79999999999999
 30
0.0
 11
-58.999999999999993
 21
50.400000000000013
 31
0.0
  0
LINE
  5
DB
  8
DATA
  6
CONTINUOUS
 62
     7
 10
-10.999999999999989
 20
50.400000000000013
 30
0.0
 11
-10.999999999999989
 21
48.79999999999999
 31
0.0
  0
LINE
  5
DC
  8
DATA
  6
CONTINUOUS
 62
     7
 10
-58.999999999999993
 20
48.79999999999999
 30
0.0
 11
-10.999999999999989
 21
48.79999999999999
 31
0.0
  0
LINE
  5
DD
  8
DATA
  6
CONTINUOUS
 62
     7
 10
-37.699999999999989
 20
43.399999999999991
 30
0.0
 11
-37.699999999999989
 21
48.79999999999999
 31
0.0
  0
LINE
  5
DE
  8
DATA
  6
CONTINUOUS
 62
     7
 10
-32.29999999999999
 20
48.79999999999999
 30
0.0
 11
-32.29999999999999
 21
43.399999999999991
 31
0.0
  0
LINE
  5
DF
  8
DATA
  6
CONTINUOUS
 62
     7
 10
-38.399999999999977
 20
50.399999999999999
 30
0.0
 11
-38.399999999999977
 21
50.899999999999991
 31
0.0
  0
LINE
  5
E0
  8
DATA
  6
CONTINUOUS
 62
     7
 10
-31.599999999999991
 20
50.899999999999991
 30
0.0
 11
-31.599999999999991
 21
50.399999999999999
 31
0.0
  0
LINE
  5
E1
  8
DATA
  6
CONTINUOUS
 62
     7
 10
-36.899999999999991
 20
52.399999999999999
 30
0.0
 11
-33.099999999999987
 21
52.399999999999999
 31
0.0
  0
ARC
  5
E2
  8
DATA
  6
CONTINUOUS
 62
     7
 10
-36.899999999999991
 20
50.899999999999991
 30
0.0
 40
1.5
 50
90.0
 51
180.0
  0
ARC
  5
E3
  8
DATA
  6
CONTINUOUS
 62
     7
 10
-33.099999999999987
 20
50.899999999999991
 30
0.0
 40
1.5
 50
0.0
 51
90.0
  0
LINE
  5
E4
  8
DATA
  6
CONTINUOUS
 62
     7
 10
-45.683978366497932
 20
33.398738518715433
 30
0.0
 11
-45.683978366497932
 21
37.398738518715433
 31
0.0
  0
LINE
  5
E5
  8
DATA
  6
CONTINUOUS
 62
     7
 10
-43.683978366497932
 20
39.398738518715419
 30
0.0
 11
-43.683978366497932
 21
33.398738518715433
 31
0.0
  0
LINE
  5
E6
  8
DATA
  6
CONTINUOUS
 62
     7
 10
-47.683978366497939
 20
39.398738518715419
 30
0.0
 11
-43.683978366497932
 21
39.398738518715419
 31
0.0
  0
LINE
  5
E7
  8
DATA
  6
CONTINUOUS
 62
     7
 10
-47.683978366497939
 20
33.398738518715433
 30
0.0
 11
-47.683978366497939
 21
39.398738518715419
 31
0.0
  0
LINE
  5
E8
  8
DATA
  6
CONTINUOUS
 62
     7
 10
-41.383978366497999
 20
33.399999999999999
 30
0.0
 11
-41.383978366497999
 21
33.398738518715433
 31
0.0
  0
LINE
  5
E9
  8
DATA
  6
CONTINUOUS
 62
     7
 10
-49.983978366497929
 20
37.398738518715433
 30
0.0
 11
-42.5
 21
37.398738518715433
 31
0.0
  0
LINE
  5
EA
  8
DATA
  6
CONTINUOUS
 62
     7
 10
-49.983978366497929
 20
33.398738518715433
 30
0.0
 11
-49.983978366497929
 21
37.398738518715433
 31
0.0
  0
LINE
  5
EB
  8
DATA
  6
CONTINUOUS
 62
     7
 10
-42.5
 20
33.399999999999999
 30
0.0
 11
-42.5
 21
43.399999999999991
 31
0.0
  0
LINE
  5
EC
  8
DATA
  6
CONTINUOUS
 62
     7
 10
-27.5
 20
43.399999999999991
 30
0.0
 11
-27.5
 21
33.399999999999999
 31
0.0
  0
LINE
  5
ED
  8
DATA
  6
CONTINUOUS
 62
     7
 10
-42.5
 20
43.399999999999991
 30
0.0
 11
-27.5
 21
43.399999999999991
 31
0.0
  0
LINE
  5
EE
  8
DATA
  6
CONTINUOUS
 62
     7
 10
-26.29999999999999
 20
51.399999999999999
 30
0.0
 11
-12.499999999999989
 21
51.399999999999999
 31
0.0
  0
LINE
  5
EF
  8
DATA
  6
CONTINUOUS
 62
     7
 10
-12.499999999999989
 20
50.399999999999999
 30
0.0
 11
-12.499999999999989
 21
51.399999999999991
 31
0.0
  0
LINE
  5
F0
  8
DATA
  6
CONTINUOUS
 62
     7
 10
-26.29999999999999
 20
50.399999999999999
 30
0.0
 11
-26.29999999999999
 21
51.399999999999991
 31
0.0
  0
LINE
  5
F1
  8
DATA
  6
CONTINUOUS
 62
     7
 10
-12.499999999999989
 20
48.79999999999999
 30
0.0
 11
-12.499999999999989
 21
39.899999999999991
 31
0.0
  0
LINE
  5
F2
  8
DATA
  6
CONTINUOUS
 62
     7
 10
-26.29999999999999
 20
48.79999999999999
 30
0.0
 11
-26.29999999999999
 21
39.899999999999999
 31
0.0
  0
LINE
  5
F3
  8
DATA
  6
CONTINUOUS
 62
     7
 10
-26.29999999999999
 20
39.899999999999999
 30
0.0
 11
-12.499999999999989
 21
39.899999999999999
 31
0.0
  0
CIRCLE
  5
F4
  8
DATA
  6
CONTINUOUS
 62
     7
 10
-35.0
 20
-78.5
 30
0.0
 40
9.5
  0
CIRCLE
  5
F5
  8
DATA
  6
CONTINUOUS
 62
     7
 10
-35.0
 20
-78.5
 30
0.0
 40
10.0
  0
CIRCLE
  5
F6
  8
DATA
  6
CONTINUOUS
 62
     7
 10
-42.953160043490968
 20
-78.5
 30
0.0
 40
0.8999999999999985
  0
LINE
  5
F7
  8
DATA
  6
CONTINUOUS
 62
     7
 10
24.75
 20
-69.0
 30
0.0
 11
39.0
 21
-68.5
 31
0.0
  0
ARC
  5
F8
  8
DATA
  6
CONTINUOUS
 62
     7
 10
114.75
 20
-78.5
 30
0.0
 40
90.5
 50
173.9744249916333
 51
186.0255750083667
  0
LINE
  5
F9
  8
DATA
  6
CONTINUOUS
 62
     7
 10
39.0
 20
-88.499999999999986
 30
0.0
 11
24.75
 21
-88.0
 31
0.0
  0
LINE
  5
FA
  8
DATA
  6
CONTINUOUS
 62
     7
 10
39.0
 20
-74.050000000000026
 30
0.0
 11
40.0
 21
-74.050000000000026
 31
0.0
  0
LINE
  5
FB
  8
DATA
  6
CONTINUOUS
 62
     7
 10
39.0
 20
-82.949999999999989
 30
0.0
 11
40.0
 21
-82.949999999999989
 31
0.0
  0
LINE
  5
FC
  8
DATA
  6
CONTINUOUS
 62
     7
 10
39.0
 20
-88.499999999999986
 30
0.0
 11
39.0
 21
-68.5
 31
0.0
  0
TEXT
  5
FD
  8
DATA
 62
     7
 10
-39.262443863622053
 20
-30.3255454545933
 30
0.0
 40
2.565424804687499
  1
LEVEL
 41
0.7
 11
-39.262443863622053
 21
-27.760120649905801
 31
0.0
 73
     3
  0
LINE
  5
FE
  8
DATA
  6
CONTINUOUS
 62
     7
 10
-45.0
 20
-78.5
 30
0.0
 11
-48.0
 21
-78.5
 31
0.0
  0
TEXT
  5
FF
  8
DATA
 62
     7
 10
-40.221272394219312
 20
-65.051200355394073
 30
0.0
 40
2.565424804687499
  1
SOURCE
 41
0.7
 11
-40.221272394219312
 21
-62.48577555070657
 31
0.0
 73
     3
  0
LINE
  5
100
  8
DATA
  6
CONTINUOUS
 62
     7
 10
-64.5
 20
-76.0
 30
0.0
 11
-50.5
 21
-76.0
 31
0.0
  0
LINE
  5
101
  8
DATA
  6
CONTINUOUS
 62
     7
 10
-50.5
 20
-81.0
 30
0.0
 11
-64.5
 21
-81.0
 31
0.0
  0
ARC
  5
102
  8
DATA
  6
CONTINUOUS
 62
     7
 10
-64.5
 20
-78.5
 30
0.0
 40
2.5
 50
90.0
 51
270.0
  0
ARC
  5
103
  8
DATA
  6
CONTINUOUS
 62
     7
 10
-50.5
 20
-78.5
 30
0.0
 40
2.5
 50
270.0
 51
90.0
  0
LINE
  5
104
  8
DATA
  6
CONTINUOUS
 62
     7
 10
-64.5
 20
-84.199999999999989
 30
0.0
 11
-50.5
 21
-84.199999999999989
 31
0.0
  0
LINE
  5
105
  8
DATA
  6
CONTINUOUS
 62
     7
 10
-50.5
 20
-89.199999999999989
 30
0.0
 11
-64.5
 21
-89.199999999999989
 31
0.0
  0
ARC
  5
106
  8
DATA
  6
CONTINUOUS
 62
     7
 10
-64.5
 20
-86.699999999999989
 30
0.0
 40
2.5
 50
90.0
 51
270.0
  0
ARC
  5
107
  8
DATA
  6
CONTINUOUS
 62
     7
 10
-50.5
 20
-86.699999999999989
 30
0.0
 40
2.5
 50
270.0
 51
90.0
  0
LINE
  5
108
  8
DATA
  6
CONTINUOUS
 62
     7
 10
-48.0
 20
-86.699999999999989
 30
0.0
 11
-46.3125
 21
-86.699999999999989
 31
0.0
  0
LINE
  5
109
  8
DATA
  6
CONTINUOUS
 62
     7
 10
-46.3125
 20
-86.699999999999989
 30
0.0
 11
-43.453936999096157
 21
-83.841436999096118
 31
0.0
  0
TEXT
  5
10A
  8
DATA
 62
     7
 10
-51.649080979960097
 20
-87.882554463655566
 30
0.0
 40
2.565424804687499
  1
1
 41
0.7
 11
-51.649080979960097
 21
-85.317129658968057
 31
0.0
 73
     3
  0
CIRCLE
  5
10B
  8
DATA
  6
CONTINUOUS
 62
     7
 10
-50.81564345472745
 20
-86.682404463655587
 30
0.0
 40
1.6668750000000041
  0
TEXT
  5
10C
  8
DATA
 62
     7
 10
-51.649080979960097
 20
-79.682554463655563
 30
0.0
 40
2.565424804687499
  1
2
 41
0.7
 11
-51.649080979960097
 21
-77.117129658968082
 31
0.0
 73
     3
  0
CIRCLE
  5
10D
  8
DATA
  6
CONTINUOUS
 62
     7
 10
-50.81564345472745
 20
-78.48240446365557
 30
0.0
 40
1.6668750000000041
  0
LINE
  5
10E
  8
DATA
  6
CONTINUOUS
 62
     7
 10
-28.600000000000001
 20
-63.700000000000003
 30
0.0
 11
-11.5
 21
-63.700000000000003
 31
0.0
  0
LINE
  5
10F
  8
DATA
  6
CONTINUOUS
 62
     7
 10
-10.0
 20
-89.199999999999989
 30
0.0
 11
-10.0
 21
-65.200000000000003
 31
0.0
  0
CIRCLE
  5
110
  8
DATA
  6
CONTINUOUS
 62
     7
 10
-25.100000000000001
 20
-90.780124096555554
 30
0.0
 40
1.5
  0
LINE
  5
111
  8
DATA
  6
CONTINUOUS
 62
     7
 10
-22.54285762987039
 20
-90.700000000000003
 30
0.0
 11
-11.5
 21
-90.700000000000003
 31
0.0
  0
TEXT
  5
112
  8
DATA
 62
     7
 10
-37.763301577355108
 20
-92.314554371486665
 30
0.0
 40
2.565424804687499
  1
ACTIVE
 41
0.7
 11
-37.763301577355108
 21
-89.749129566799184
 31
0.0
 73
     3
  0
LINE
  5
113
  8
DATA
  6
CONTINUOUS
 62
     7
 10
58.800000000000018
 20
-30.0
 30
0.0
 11
60.400000000000013
 21
-30.0
 31
0.0
  0
LINE
  5
114
  8
DATA
  6
CONTINUOUS
 62
     7
 10
58.800000000000018
 20
-98.0
 30
0.0
 11
60.400000000000013
 21
-98.0
 31
0.0
  0
LINE
  5
115
  8
DATA
  6
CONTINUOUS
 62
     7
 10
49.899999999999991
 20
-31.186368802673631
 30
0.0
 11
43.399999999999991
 21
-31.186368802673631
 31
0.0
  0
LINE
  5
116
  8
DATA
  6
CONTINUOUS
 62
     7
 10
49.899999999999991
 20
-36.586368802673562
 30
0.0
 11
43.399999999999991
 21
-36.586368802673562
 31
0.0
  0
LINE
  5
117
  8
DATA
  6
CONTINUOUS
 62
     7
 10
62.399999999999999
 20
-31.986368802673571
 30
0.0
 11
62.399999999999999
 21
-35.786368802673572
 31
0.0
  0
LINE
  5
118
  8
DATA
  6
CONTINUOUS
 62
     7
 10
60.399999999999999
 20
-30.48636880267372
 30
0.0
 11
60.899999999999991
 21
-30.48636880267372
 31
0.0
  0
ARC
  5
119
  8
DATA
  6
CONTINUOUS
 62
     7
 10
60.899999999999991
 20
-31.986368802673571
 30
0.0
 40
1.5
 50
0.0
 51
90.0
  0
ARC
  5
11A
  8
DATA
  6
CONTINUOUS
 62
     7
 10
60.899999999999991
 20
-35.786368802673572
 30
0.0
 40
1.4999999999999989
 50
289.47122063449092
 51
0.0
  0
LINE
  5
11B
  8
DATA
  6
CONTINUOUS
 62
     7
 10
43.399999999999991
 20
-82.5
 30
0.0
 11
43.399999999999991
 21
-74.5
 31
0.0
  0
LINE
  5
11C
  8
DATA
  6
CONTINUOUS
 62
     7
 10
55.009655049888742
 20
-82.5
 30
0.0
 11
43.399999999999991
 21
-82.5
 31
0.0
  0
LINE
  5
11D
  8
DATA
  6
CONTINUOUS
 62
     7
 10
43.399999999999991
 20
-74.5
 30
0.0
 11
55.009655049888742
 21
-74.5
 31
0.0
  0
LINE
  5
11E
  8
DATA
  6
CONTINUOUS
 62
     7
 10
55.009655049888742
 20
-86.0
 30
0.0
 11
55.009655049888742
 21
-71.0
 31
0.0
  0
LINE
  5
11F
  8
DATA
  6
CONTINUOUS
 62
     7
 10
58.800000000000018
 20
-86.0
 30
0.0
 11
55.009655049888742
 21
-86.0
 31
0.0
  0
LINE
  5
120
  8
DATA
  6
CONTINUOUS
 62
     7
 10
55.009655049888742
 20
-71.0
 30
0.0
 11
58.800000000000011
 21
-71.0
 31
0.0
  0
ARC
  5
121
  8
DATA
  6
CONTINUOUS
 62
     7
 10
-11.5
 20
-65.200000000000003
 30
0.0
 40
1.5
 50
0.0
 51
90.0
  0
ARC
  5
122
  8
DATA
  6
CONTINUOUS
 62
     7
 10
-11.5
 20
-89.199999999999989
 30
0.0
 40
1.5
 50
270.0
 51
0.0
  0
ENDSEC
  0
EOF
