  0
SECTION
  2
HEADER
  9
$ACADVER
  1
AC1015
  9
$ACADMAINTVER
 70
     6
  9
$DWGCODEPAGE
  3
ANSI_932
  9
$INSBASE
 10
0.0
 20
0.0
 30
0.0
  9
$EXTMIN
 10
0.0
 20
0.0
 30
0.0
  9
$EXTMAX
 10
630.0
 20
445.5
 30
0.0
  9
$LIMMIN
 10
0.0
 20
0.0
  9
$LIMMAX
 10
630.0
 20
445.5
  9
$ORTHOMODE
 70
     0
  9
$REGENMODE
 70
     1
  9
$FILLMODE
 70
     1
  9
$QTEXTMODE
 70
     0
  9
$MIRRTEXT
 70
     1
  9
$LTSCALE
 40
1.5
  9
$ATTMODE
 70
     1
  9
$TEXTSIZE
 40
2.5
  9
$TRACEWID
 40
1.0
  9
$TEXTSTYLE
  7
Standard
  9
$CLAYER
  8
0
  9
$CELTYPE
  6
ByLayer
  9
$CECOLOR
 62
   256
  9
$CELTSCALE
 40
1.0
  9
$DISPSILH
 70
     0
  9
$DIMSCALE
 40
1.0
  9
$DIMASZ
 40
2.5
  9
$DIMEXO
 40
0.625
  9
$DIMDLI
 40
3.75
  9
$DIMRND
 40
0.0
  9
$DIMDLE
 40
0.0
  9
$DIMEXE
 40
1.25
  9
$DIMTP
 40
0.0
  9
$DIMTM
 40
0.0
  9
$DIMTXT
 40
2.5
  9
$DIMCEN
 40
2.5
  9
$DIMTSZ
 40
0.0
  9
$DIMTOL
 70
     0
  9
$DIMLIM
 70
     0
  9
$DIMTIH
 70
     0
  9
$DIMTOH
 70
     0
  9
$DIMSE1
 70
     0
  9
$DIMSE2
 70
     0
  9
$DIMTAD
 70
     1
  9
$DIMZIN
 70
     8
  9
$DIMBLK
  1

  9
$DIMASO
 70
     1
  9
$DIMSHO
 70
     1
  9
$DIMPOST
  1

  9
$DIMAPOST
  1

  9
$DIMALT
 70
     0
  9
$DIMALTD
 70
     3
  9
$DIMALTF
 40
0.03937007874016
  9
$DIMLFAC
 40
1.0
  9
$DIMTOFL
 70
     1
  9
$DIMTVP
 40
0.0
  9
$DIMTIX
 70
     0
  9
$DIMSOXD
 70
     0
  9
$DIMSAH
 70
     0
  9
$DIMBLK1
  1

  9
$DIMBLK2
  1

  9
$DIMSTYLE
  2
ISO-25
  9
$DIMCLRD
 70
     0
  9
$DIMCLRE
 70
     0
  9
$DIMCLRT
 70
     0
  9
$DIMTFAC
 40
1.0
  9
$DIMGAP
 40
0.625
  9
$DIMJUST
 70
     0
  9
$DIMSD1
 70
     0
  9
$DIMSD2
 70
     0
  9
$DIMTOLJ
 70
     0
  9
$DIMTZIN
 70
     8
  9
$DIMALTZ
 70
     0
  9
$DIMALTTZ
 70
     0
  9
$DIMUPT
 70
     0
  9
$DIMDEC
 70
     2
  9
$DIMTDEC
 70
     2
  9
$DIMALTU
 70
     2
  9
$DIMALTTD
 70
     3
  9
$DIMTXSTY
  7
Standard
  9
$DIMAUNIT
 70
     0
  9
$DIMADEC
 70
     0
  9
$DIMALTRND
 40
0.0
  9
$DIMAZIN
 70
     0
  9
$DIMDSEP
 70
    46
  9
$DIMATFIT
 70
     3
  9
$DIMFRAC
 70
     0
  9
$DIMLDRBLK
  1

  9
$DIMLUNIT
 70
     2
  9
$DIMLWD
 70
    -2
  9
$DIMLWE
 70
    -2
  9
$DIMTMOVE
 70
     0
  9
$LUNITS
 70
     2
  9
$LUPREC
 70
     4
  9
$SKETCHINC
 40
1.0
  9
$FILLETRAD
 40
10.0
  9
$AUNITS
 70
     0
  9
$AUPREC
 70
     0
  9
$MENU
  1
.
  9
$ELEVATION
 40
0.0
  9
$PELEVATION
 40
0.0
  9
$THICKNESS
 40
0.0
  9
$LIMCHECK
 70
     0
  9
$CHAMFERA
 40
10.0
  9
$CHAMFERB
 40
10.0
  9
$CHAMFERC
 40
20.0
  9
$CHAMFERD
 40
0.0
  9
$SKPOLY
 70
     0
  9
$TDCREATE
 40
2457770.000000
  9
$TDUCREATE
 40
0.000000000
  9
$TDUPDATE
 40
2457770.000000
  9
$TDUUPDATE
 40
2457770.000000
  9
$TDINDWG
 40
0.0
  9
$TDUSRTIMER
 40
0.0
  9
$USRTIMER
 70
     1
  9
$ANGBASE
 50
0.0
  9
$ANGDIR
 70
     0
  9
$PDMODE
 70
     0
  9
$PDSIZE
 40
0.0
  9
$PLINEWID
 40
0.0
  9
$SPLFRAME
 70
     0
  9
$SPLINETYPE
 70
     6
  9
$SPLINESEGS
 70
     8
  9
$HANDSEED
  5
026F
  9
$SURFTAB1
 70
     6
  9
$SURFTAB2
 70
     6
  9
$SURFTYPE
 70
     6
  9
$SURFU
 70
     6
  9
$SURFV
 70
     6
  9
$UCSBASE
  2

  9
$UCSNAME
  2

  9
$UCSORG
 10
0.0
 20
0.0
 30
0.0
  9
$UCSXDIR
 10
1.0
 20
0.0
 30
0.0
  9
$UCSYDIR
 10
0.0
 20
1.0
 30
0.0
  9
$UCSORTHOREF
  2

  9
$UCSORTHOVIEW
 70
     0
  9
$UCSORGTOP
 10
0.0
 20
0.0
 30
0.0
  9
$UCSORGBOTTOM
 10
0.0
 20
0.0
 30
0.0
  9
$UCSORGLEFT
 10
0.0
 20
0.0
 30
0.0
  9
$UCSORGRIGHT
 10
0.0
 20
0.0
 30
0.0
  9
$UCSORGFRONT
 10
0.0
 20
0.0
 30
0.0
  9
$UCSORGBACK
 10
0.0
 20
0.0
 30
0.0
  9
$PUCSBASE
  2

  9
$PUCSNAME
  2

  9
$PUCSORG
 10
0.0
 20
0.0
 30
0.0
  9
$PUCSXDIR
 10
1.0
 20
0.0
 30
0.0
  9
$PUCSYDIR
 10
0.0
 20
1.0
 30
0.0
  9
$PUCSORTHOREF
  2

  9
$PUCSORTHOVIEW
 70
     0
  9
$PUCSORGTOP
 10
0.0
 20
0.0
 30
0.0
  9
$PUCSORGBOTTOM
 10
0.0
 20
0.0
 30
0.0
  9
$PUCSORGLEFT
 10
0.0
 20
0.0
 30
0.0
  9
$PUCSORGRIGHT
 10
0.0
 20
0.0
 30
0.0
  9
$PUCSORGFRONT
 10
0.0
 20
0.0
 30
0.0
  9
$PUCSORGBACK
 10
0.0
 20
0.0
 30
0.0
  9
$USERI1
 70
     0
  9
$USERI2
 70
     0
  9
$USERI3
 70
     0
  9
$USERI4
 70
     0
  9
$USERI5
 70
     0
  9
$USERR1
 40
0.0
  9
$USERR2
 40
0.0
  9
$USERR3
 40
0.0
  9
$USERR4
 40
0.0
  9
$USERR5
 40
0.0
  9
$WORLDVIEW
 70
     1
  9
$SHADEDGE
 70
     3
  9
$SHADEDIF
 70
    70
  9
$TILEMODE
 70
     1
  9
$MAXACTVP
 70
    64
  9
$PINSBASE
 10
0.0
 20
0.0
 30
0.0
  9
$PLIMCHECK
 70
     0
  9
$PEXTMIN
 10
1.000000E+20
 20
1.000000E+20
 30
1.000000E+20
  9
$PEXTMAX
 10
-1.000000E+20
 20
-1.000000E+20
 30
-1.000000E+20
  9
$PLIMMIN
 10
0.0
 20
0.0
  9
$PLIMMAX
 10
0.0
 20
0.0
  9
$UNITMODE
 70
     0
  9
$VISRETAIN
 70
     0
  9
$PLINEGEN
 70
     0
  9
$PSLTSCALE
 70
     1
  9
$TREEDEPTH
 70
  3020
  9
$CMLSTYLE
  2
STANDARD
  9
$CMLJUST
 70
     0
  9
$CMLSCALE
 40
20.0
  9
$PROXYGRAPHICS
 70
     1
  9
$MEASUREMENT
 70
     1
  9
$CELWEIGHT
370
    -1
  9
$ENDCAPS
280
     0
  9
$JOINSTYLE
280
     0
  9
$LWDISPLAY
290
     0
  9
$INSUNITS
 70
     4
  9
$HYPERLINKBASE
  1

  9
$STYLESHEET
  1

  9
$XEDIT
290
     1
  9
$CEPSNTYPE
380
     0
  9
$PSTYLEMODE
290
     1
  9
$FINGERPRINTGUID
  2
{B52F7ED1-C9FA-482E-BA51-0CC975B949F0}
  9
$VERSIONGUID
  2
{B52F7ED1-C9FA-482E-BA51-0CC975B949F0}
  9
$EXTNAMES
290
     1
  9
$PSVPSCALE
 40
0.0
  0
ENDSEC
  0
SECTION
  2
CLASSES
  0
ENDSEC
  0
SECTION
  2
TABLES
  0
TABLE
  2
VPORT
  5
8
330
0
100
AcDbSymbolTable
 70
     3
  0
VPORT
  5
29
330
8
100
AcDbSymbolTableRecord
100
AcDbViewportTableRecord
  2
*Active
 70
     0
 10
0.0
 20
0.0
 11
1.0
 21
1.0
 12
315.0
 22
222.75
 13
0.0
 23
0.0
 14
10.0
 24
10.0
 15
0.0
 25
0.0
 16
0.0
 26
0.0
 36
1.0
 17
0.0
 27
0.0
 37
0.0
 40
445.5
 41
1.414141414
 42
50.0
 43
0.0
 44
0.0
 50
0.0
 51
0.0
 71
     0
 72
  1000
 73
     1
 74
     3
 75
     0
 76
     0
 77
     0
 78
     0
281
     0
 65
     0
110
0.0
120
0.0
130
0.0
111
1.0
121
0.0
131
0.0
112
0.0
122
1.0
132
0.0
 79
     0
146
0.0
  0
ENDTAB
  0
TABLE
  2
LTYPE
  5
5
330
0
100
AcDbSymbolTable
 70
     6
  0
LTYPE
  5
14
330
5
100
AcDbSymbolTableRecord
100
AcDbLinetypeTableRecord
  2
ByBlock
 70
     0
  3

 72
    65
 73
     0
 40
0.0
  0
LTYPE
  5
15
330
5
100
AcDbSymbolTableRecord
100
AcDbLinetypeTableRecord
  2
ByLayer
 70
     0
  3

 72
    65
 73
     0
 40
0.0
  0
LTYPE
  5
16
330
5
100
AcDbSymbolTableRecord
100
AcDbLinetypeTableRecord
  2
Continuous
 70
     0
  3
Solid line
 72
    65
 73
     0
 40
0.0
  0
LTYPE
  5
AB
330
5
100
AcDbSymbolTableRecord
100
AcDbLinetypeTableRecord
  2
LTYPE1
 70
     0
  3
HIDDEN
 72
    65
 73
     2
 40
2.0
 49
1.2
 74
     0
 49
-0.8
 74
     0
  0
LTYPE
  5
AE
330
5
100
AcDbSymbolTableRecord
100
AcDbLinetypeTableRecord
  2
LTYPE2
 70
     0
  3
CENTER
 72
    65
 73
     4
 40
12.0
 49
8.4
 74
     0
 49
-1.2
 74
     0
 49
1.2
 74
     0
 49
-1.2
 74
     0
  0
LTYPE
  5
253
330
5
100
AcDbSymbolTableRecord
100
AcDbLinetypeTableRecord
  2
LTYPE3
 70
     0
  3
PHANTOM
 72
    65
 73
     6
 40
12.0
 49
9.0
 74
     0
 49
-0.6
 74
     0
 49
0.6
 74
     0
 49
-0.6
 74
     0
 49
0.6
 74
     0
 49
-0.6
 74
     0
  0
ENDTAB
  0
TABLE
  2
LAYER
  5
2
330
0
100
AcDbSymbolTable
 70
   128
  0
LAYER
  5
10
330
2
100
AcDbSymbolTableRecord
100
AcDbLayerTableRecord
  2
0
 70
     0
 62
     7
  6
Continuous
290
     1
370
    -3
390
F
  0
LAYER
  5
2A
330
2
100
AcDbSymbolTableRecord
100
AcDbLayerTableRecord
  2
2
 70
     0
 62
     7
  6
Continuous
290
     1
370
    -3
390
F
  0
LAYER
  5
2B
330
2
100
AcDbSymbolTableRecord
100
AcDbLayerTableRecord
  2
3
 70
     0
 62
     7
  6
Continuous
290
     1
370
    -3
390
F
  0
LAYER
  5
2C
330
2
100
AcDbSymbolTableRecord
100
AcDbLayerTableRecord
  2
4
 70
     0
 62
     7
  6
Continuous
290
     1
370
    -3
390
F
  0
LAYER
  5
2D
330
2
100
AcDbSymbolTableRecord
100
AcDbLayerTableRecord
  2
5
 70
     0
 62
     7
  6
Continuous
290
     1
370
    -3
390
F
  0
LAYER
  5
2E
330
2
100
AcDbSymbolTableRecord
100
AcDbLayerTableRecord
  2
6
 70
     0
 62
     7
  6
Continuous
290
     1
370
    -3
390
F
  0
LAYER
  5
2F
330
2
100
AcDbSymbolTableRecord
100
AcDbLayerTableRecord
  2
7
 70
     0
 62
     7
  6
Continuous
290
     1
370
    -3
390
F
  0
LAYER
  5
30
330
2
100
AcDbSymbolTableRecord
100
AcDbLayerTableRecord
  2
8
 70
     0
 62
     7
  6
Continuous
290
     1
370
    -3
390
F
  0
LAYER
  5
31
330
2
100
AcDbSymbolTableRecord
100
AcDbLayerTableRecord
  2
9
 70
     0
 62
     7
  6
Continuous
290
     1
370
    -3
390
F
  0
LAYER
  5
32
330
2
100
AcDbSymbolTableRecord
100
AcDbLayerTableRecord
  2
10
 70
     0
 62
     7
  6
Continuous
290
     1
370
    -3
390
F
  0
LAYER
  5
33
330
2
100
AcDbSymbolTableRecord
100
AcDbLayerTableRecord
  2
11
 70
     0
 62
     7
  6
Continuous
290
     1
370
    -3
390
F
  0
LAYER
  5
34
330
2
100
AcDbSymbolTableRecord
100
AcDbLayerTableRecord
  2
12
 70
     0
 62
     7
  6
Continuous
290
     1
370
    -3
390
F
  0
LAYER
  5
35
330
2
100
AcDbSymbolTableRecord
100
AcDbLayerTableRecord
  2
13
 70
     0
 62
     7
  6
Continuous
290
     1
370
    -3
390
F
  0
LAYER
  5
36
330
2
100
AcDbSymbolTableRecord
100
AcDbLayerTableRecord
  2
14
 70
     0
 62
     7
  6
Continuous
290
     1
370
    -3
390
F
  0
LAYER
  5
37
330
2
100
AcDbSymbolTableRecord
100
AcDbLayerTableRecord
  2
15
 70
     0
 62
     7
  6
Continuous
290
     1
370
    -3
390
F
  0
LAYER
  5
38
330
2
100
AcDbSymbolTableRecord
100
AcDbLayerTableRecord
  2
16
 70
     0
 62
     7
  6
Continuous
290
     1
370
    -3
390
F
  0
LAYER
  5
39
330
2
100
AcDbSymbolTableRecord
100
AcDbLayerTableRecord
  2
17
 70
     0
 62
     7
  6
Continuous
290
     1
370
    -3
390
F
  0
LAYER
  5
3A
330
2
100
AcDbSymbolTableRecord
100
AcDbLayerTableRecord
  2
18
 70
     0
 62
     7
  6
Continuous
290
     1
370
    -3
390
F
  0
LAYER
  5
3B
330
2
100
AcDbSymbolTableRecord
100
AcDbLayerTableRecord
  2
19
 70
     0
 62
     7
  6
Continuous
290
     1
370
    -3
390
F
  0
LAYER
  5
3C
330
2
100
AcDbSymbolTableRecord
100
AcDbLayerTableRecord
  2
20
 70
     0
 62
     7
  6
Continuous
290
     1
370
    -3
390
F
  0
LAYER
  5
3D
330
2
100
AcDbSymbolTableRecord
100
AcDbLayerTableRecord
  2
21
 70
     0
 62
     7
  6
Continuous
290
     1
370
    -3
390
F
  0
LAYER
  5
3E
330
2
100
AcDbSymbolTableRecord
100
AcDbLayerTableRecord
  2
22
 70
     0
 62
     7
  6
Continuous
290
     1
370
    -3
390
F
  0
LAYER
  5
3F
330
2
100
AcDbSymbolTableRecord
100
AcDbLayerTableRecord
  2
23
 70
     0
 62
     7
  6
Continuous
290
     1
370
    -3
390
F
  0
LAYER
  5
40
330
2
100
AcDbSymbolTableRecord
100
AcDbLayerTableRecord
  2
24
 70
     0
 62
     7
  6
Continuous
290
     1
370
    -3
390
F
  0
LAYER
  5
41
330
2
100
AcDbSymbolTableRecord
100
AcDbLayerTableRecord
  2
25
 70
     0
 62
     7
  6
Continuous
290
     1
370
    -3
390
F
  0
LAYER
  5
42
330
2
100
AcDbSymbolTableRecord
100
AcDbLayerTableRecord
  2
26
 70
     0
 62
     7
  6
Continuous
290
     1
370
    -3
390
F
  0
LAYER
  5
43
330
2
100
AcDbSymbolTableRecord
100
AcDbLayerTableRecord
  2
27
 70
     0
 62
     7
  6
Continuous
290
     1
370
    -3
390
F
  0
LAYER
  5
44
330
2
100
AcDbSymbolTableRecord
100
AcDbLayerTableRecord
  2
28
 70
     0
 62
     7
  6
Continuous
290
     1
370
    -3
390
F
  0
LAYER
  5
45
330
2
100
AcDbSymbolTableRecord
100
AcDbLayerTableRecord
  2
29
 70
     0
 62
     7
  6
Continuous
290
     1
370
    -3
390
F
  0
LAYER
  5
46
330
2
100
AcDbSymbolTableRecord
100
AcDbLayerTableRecord
  2
30
 70
     0
 62
     7
  6
Continuous
290
     1
370
    -3
390
F
  0
LAYER
  5
47
330
2
100
AcDbSymbolTableRecord
100
AcDbLayerTableRecord
  2
31
 70
     0
 62
     7
  6
Continuous
290
     1
370
    -3
390
F
  0
LAYER
  5
48
330
2
100
AcDbSymbolTableRecord
100
AcDbLayerTableRecord
  2
32
 70
     0
 62
     7
  6
Continuous
290
     1
370
    -3
390
F
  0
LAYER
  5
49
330
2
100
AcDbSymbolTableRecord
100
AcDbLayerTableRecord
  2
33
 70
     0
 62
     7
  6
Continuous
290
     1
370
    -3
390
F
  0
LAYER
  5
4A
330
2
100
AcDbSymbolTableRecord
100
AcDbLayerTableRecord
  2
34
 70
     0
 62
     7
  6
Continuous
290
     1
370
    -3
390
F
  0
LAYER
  5
4B
330
2
100
AcDbSymbolTableRecord
100
AcDbLayerTableRecord
  2
35
 70
     0
 62
     7
  6
Continuous
290
     1
370
    -3
390
F
  0
LAYER
  5
4C
330
2
100
AcDbSymbolTableRecord
100
AcDbLayerTableRecord
  2
36
 70
     0
 62
     7
  6
Continuous
290
     1
370
    -3
390
F
  0
LAYER
  5
4D
330
2
100
AcDbSymbolTableRecord
100
AcDbLayerTableRecord
  2
37
 70
     0
 62
     7
  6
Continuous
290
     1
370
    -3
390
F
  0
LAYER
  5
4E
330
2
100
AcDbSymbolTableRecord
100
AcDbLayerTableRecord
  2
38
 70
     0
 62
     7
  6
Continuous
290
     1
370
    -3
390
F
  0
LAYER
  5
4F
330
2
100
AcDbSymbolTableRecord
100
AcDbLayerTableRecord
  2
39
 70
     0
 62
     7
  6
Continuous
290
     1
370
    -3
390
F
  0
LAYER
  5
50
330
2
100
AcDbSymbolTableRecord
100
AcDbLayerTableRecord
  2
40
 70
     0
 62
     7
  6
Continuous
290
     1
370
    -3
390
F
  0
LAYER
  5
51
330
2
100
AcDbSymbolTableRecord
100
AcDbLayerTableRecord
  2
41
 70
     0
 62
     7
  6
Continuous
290
     1
370
    -3
390
F
  0
LAYER
  5
52
330
2
100
AcDbSymbolTableRecord
100
AcDbLayerTableRecord
  2
42
 70
     0
 62
     7
  6
Continuous
290
     1
370
    -3
390
F
  0
LAYER
  5
53
330
2
100
AcDbSymbolTableRecord
100
AcDbLayerTableRecord
  2
43
 70
     0
 62
     7
  6
Continuous
290
     1
370
    -3
390
F
  0
LAYER
  5
54
330
2
100
AcDbSymbolTableRecord
100
AcDbLayerTableRecord
  2
44
 70
     0
 62
     7
  6
Continuous
290
     1
370
    -3
390
F
  0
LAYER
  5
55
330
2
100
AcDbSymbolTableRecord
100
AcDbLayerTableRecord
  2
45
 70
     0
 62
     7
  6
Continuous
290
     1
370
    -3
390
F
  0
LAYER
  5
56
330
2
100
AcDbSymbolTableRecord
100
AcDbLayerTableRecord
  2
46
 70
     0
 62
     7
  6
Continuous
290
     1
370
    -3
390
F
  0
LAYER
  5
57
330
2
100
AcDbSymbolTableRecord
100
AcDbLayerTableRecord
  2
47
 70
     0
 62
     7
  6
Continuous
290
     1
370
    -3
390
F
  0
LAYER
  5
58
330
2
100
AcDbSymbolTableRecord
100
AcDbLayerTableRecord
  2
48
 70
     0
 62
     7
  6
Continuous
290
     1
370
    -3
390
F
  0
LAYER
  5
59
330
2
100
AcDbSymbolTableRecord
100
AcDbLayerTableRecord
  2
49
 70
     0
 62
     7
  6
Continuous
290
     1
370
    -3
390
F
  0
LAYER
  5
5A
330
2
100
AcDbSymbolTableRecord
100
AcDbLayerTableRecord
  2
50
 70
     0
 62
     7
  6
Continuous
290
     1
370
    -3
390
F
  0
LAYER
  5
5B
330
2
100
AcDbSymbolTableRecord
100
AcDbLayerTableRecord
  2
51
 70
     0
 62
     7
  6
Continuous
290
     1
370
    -3
390
F
  0
LAYER
  5
5C
330
2
100
AcDbSymbolTableRecord
100
AcDbLayerTableRecord
  2
52
 70
     0
 62
     7
  6
Continuous
290
     1
370
    -3
390
F
  0
LAYER
  5
5D
330
2
100
AcDbSymbolTableRecord
100
AcDbLayerTableRecord
  2
53
 70
     0
 62
     7
  6
Continuous
290
     1
370
    -3
390
F
  0
LAYER
  5
5E
330
2
100
AcDbSymbolTableRecord
100
AcDbLayerTableRecord
  2
54
 70
     0
 62
     7
  6
Continuous
290
     1
370
    -3
390
F
  0
LAYER
  5
5F
330
2
100
AcDbSymbolTableRecord
100
AcDbLayerTableRecord
  2
55
 70
     0
 62
     7
  6
Continuous
290
     1
370
    -3
390
F
  0
LAYER
  5
60
330
2
100
AcDbSymbolTableRecord
100
AcDbLayerTableRecord
  2
56
 70
     0
 62
     7
  6
Continuous
290
     1
370
    -3
390
F
  0
LAYER
  5
61
330
2
100
AcDbSymbolTableRecord
100
AcDbLayerTableRecord
  2
57
 70
     0
 62
     7
  6
Continuous
290
     1
370
    -3
390
F
  0
LAYER
  5
62
330
2
100
AcDbSymbolTableRecord
100
AcDbLayerTableRecord
  2
58
 70
     0
 62
     7
  6
Continuous
290
     1
370
    -3
390
F
  0
LAYER
  5
63
330
2
100
AcDbSymbolTableRecord
100
AcDbLayerTableRecord
  2
59
 70
     0
 62
     7
  6
Continuous
290
     1
370
    -3
390
F
  0
LAYER
  5
64
330
2
100
AcDbSymbolTableRecord
100
AcDbLayerTableRecord
  2
60
 70
     0
 62
     7
  6
Continuous
290
     1
370
    -3
390
F
  0
LAYER
  5
65
330
2
100
AcDbSymbolTableRecord
100
AcDbLayerTableRecord
  2
61
 70
     0
 62
     7
  6
Continuous
290
     1
370
    -3
390
F
  0
LAYER
  5
66
330
2
100
AcDbSymbolTableRecord
100
AcDbLayerTableRecord
  2
62
 70
     0
 62
     7
  6
Continuous
290
     1
370
    -3
390
F
  0
LAYER
  5
67
330
2
100
AcDbSymbolTableRecord
100
AcDbLayerTableRecord
  2
63
 70
     0
 62
     7
  6
Continuous
290
     1
370
    -3
390
F
  0
LAYER
  5
68
330
2
100
AcDbSymbolTableRecord
100
AcDbLayerTableRecord
  2
64
 70
     0
 62
     7
  6
Continuous
290
     1
370
    -3
390
F
  0
LAYER
  5
69
330
2
100
AcDbSymbolTableRecord
100
AcDbLayerTableRecord
  2
65
 70
     0
 62
     7
  6
Continuous
290
     1
370
    -3
390
F
  0
LAYER
  5
6A
330
2
100
AcDbSymbolTableRecord
100
AcDbLayerTableRecord
  2
66
 70
     0
 62
     7
  6
Continuous
290
     1
370
    -3
390
F
  0
LAYER
  5
6B
330
2
100
AcDbSymbolTableRecord
100
AcDbLayerTableRecord
  2
67
 70
     0
 62
     7
  6
Continuous
290
     1
370
    -3
390
F
  0
LAYER
  5
6C
330
2
100
AcDbSymbolTableRecord
100
AcDbLayerTableRecord
  2
68
 70
     0
 62
     7
  6
Continuous
290
     1
370
    -3
390
F
  0
LAYER
  5
6D
330
2
100
AcDbSymbolTableRecord
100
AcDbLayerTableRecord
  2
69
 70
     0
 62
     7
  6
Continuous
290
     1
370
    -3
390
F
  0
LAYER
  5
6E
330
2
100
AcDbSymbolTableRecord
100
AcDbLayerTableRecord
  2
70
 70
     0
 62
     7
  6
Continuous
290
     1
370
    -3
390
F
  0
LAYER
  5
6F
330
2
100
AcDbSymbolTableRecord
100
AcDbLayerTableRecord
  2
71
 70
     0
 62
     7
  6
Continuous
290
     1
370
    -3
390
F
  0
LAYER
  5
70
330
2
100
AcDbSymbolTableRecord
100
AcDbLayerTableRecord
  2
72
 70
     0
 62
     7
  6
Continuous
290
     1
370
    -3
390
F
  0
LAYER
  5
71
330
2
100
AcDbSymbolTableRecord
100
AcDbLayerTableRecord
  2
73
 70
     0
 62
     7
  6
Continuous
290
     1
370
    -3
390
F
  0
LAYER
  5
72
330
2
100
AcDbSymbolTableRecord
100
AcDbLayerTableRecord
  2
74
 70
     0
 62
     7
  6
Continuous
290
     1
370
    -3
390
F
  0
LAYER
  5
73
330
2
100
AcDbSymbolTableRecord
100
AcDbLayerTableRecord
  2
75
 70
     0
 62
     7
  6
Continuous
290
     1
370
    -3
390
F
  0
LAYER
  5
74
330
2
100
AcDbSymbolTableRecord
100
AcDbLayerTableRecord
  2
76
 70
     0
 62
     7
  6
Continuous
290
     1
370
    -3
390
F
  0
LAYER
  5
75
330
2
100
AcDbSymbolTableRecord
100
AcDbLayerTableRecord
  2
77
 70
     0
 62
     7
  6
Continuous
290
     1
370
    -3
390
F
  0
LAYER
  5
76
330
2
100
AcDbSymbolTableRecord
100
AcDbLayerTableRecord
  2
78
 70
     0
 62
     7
  6
Continuous
290
     1
370
    -3
390
F
  0
LAYER
  5
77
330
2
100
AcDbSymbolTableRecord
100
AcDbLayerTableRecord
  2
79
 70
     0
 62
     7
  6
Continuous
290
     1
370
    -3
390
F
  0
LAYER
  5
78
330
2
100
AcDbSymbolTableRecord
100
AcDbLayerTableRecord
  2
80
 70
     0
 62
     7
  6
Continuous
290
     1
370
    -3
390
F
  0
LAYER
  5
79
330
2
100
AcDbSymbolTableRecord
100
AcDbLayerTableRecord
  2
81
 70
     0
 62
     7
  6
Continuous
290
     1
370
    -3
390
F
  0
LAYER
  5
7A
330
2
100
AcDbSymbolTableRecord
100
AcDbLayerTableRecord
  2
82
 70
     0
 62
     7
  6
Continuous
290
     1
370
    -3
390
F
  0
LAYER
  5
7B
330
2
100
AcDbSymbolTableRecord
100
AcDbLayerTableRecord
  2
83
 70
     0
 62
     7
  6
Continuous
290
     1
370
    -3
390
F
  0
LAYER
  5
7C
330
2
100
AcDbSymbolTableRecord
100
AcDbLayerTableRecord
  2
84
 70
     0
 62
     7
  6
Continuous
290
     1
370
    -3
390
F
  0
LAYER
  5
7D
330
2
100
AcDbSymbolTableRecord
100
AcDbLayerTableRecord
  2
85
 70
     0
 62
     7
  6
Continuous
290
     1
370
    -3
390
F
  0
LAYER
  5
7E
330
2
100
AcDbSymbolTableRecord
100
AcDbLayerTableRecord
  2
86
 70
     0
 62
     7
  6
Continuous
290
     1
370
    -3
390
F
  0
LAYER
  5
7F
330
2
100
AcDbSymbolTableRecord
100
AcDbLayerTableRecord
  2
87
 70
     0
 62
     7
  6
Continuous
290
     1
370
    -3
390
F
  0
LAYER
  5
80
330
2
100
AcDbSymbolTableRecord
100
AcDbLayerTableRecord
  2
88
 70
     0
 62
     7
  6
Continuous
290
     1
370
    -3
390
F
  0
LAYER
  5
81
330
2
100
AcDbSymbolTableRecord
100
AcDbLayerTableRecord
  2
89
 70
     0
 62
     7
  6
Continuous
290
     1
370
    -3
390
F
  0
LAYER
  5
82
330
2
100
AcDbSymbolTableRecord
100
AcDbLayerTableRecord
  2
90
 70
     0
 62
     7
  6
Continuous
290
     1
370
    -3
390
F
  0
LAYER
  5
83
330
2
100
AcDbSymbolTableRecord
100
AcDbLayerTableRecord
  2
91
 70
     0
 62
     7
  6
Continuous
290
     1
370
    -3
390
F
  0
LAYER
  5
84
330
2
100
AcDbSymbolTableRecord
100
AcDbLayerTableRecord
  2
92
 70
     0
 62
     7
  6
Continuous
290
     1
370
    -3
390
F
  0
LAYER
  5
85
330
2
100
AcDbSymbolTableRecord
100
AcDbLayerTableRecord
  2
93
 70
     0
 62
     7
  6
Continuous
290
     1
370
    -3
390
F
  0
LAYER
  5
86
330
2
100
AcDbSymbolTableRecord
100
AcDbLayerTableRecord
  2
94
 70
     0
 62
     7
  6
Continuous
290
     1
370
    -3
390
F
  0
LAYER
  5
87
330
2
100
AcDbSymbolTableRecord
100
AcDbLayerTableRecord
  2
95
 70
     0
 62
     7
  6
Continuous
290
     1
370
    -3
390
F
  0
LAYER
  5
88
330
2
100
AcDbSymbolTableRecord
100
AcDbLayerTableRecord
  2
96
 70
     0
 62
     7
  6
Continuous
290
     1
370
    -3
390
F
  0
LAYER
  5
89
330
2
100
AcDbSymbolTableRecord
100
AcDbLayerTableRecord
  2
97
 70
     0
 62
     7
  6
Continuous
290
     1
370
    -3
390
F
  0
LAYER
  5
8A
330
2
100
AcDbSymbolTableRecord
100
AcDbLayerTableRecord
  2
98
 70
     0
 62
     7
  6
Continuous
290
     1
370
    -3
390
F
  0
LAYER
  5
8B
330
2
100
AcDbSymbolTableRecord
100
AcDbLayerTableRecord
  2
99
 70
     0
 62
     7
  6
Continuous
290
     1
370
    -3
390
F
  0
LAYER
  5
8C
330
2
100
AcDbSymbolTableRecord
100
AcDbLayerTableRecord
  2
100
 70
     0
 62
     7
  6
Continuous
290
     1
370
    -3
390
F
  0
LAYER
  5
8D
330
2
100
AcDbSymbolTableRecord
100
AcDbLayerTableRecord
  2
101
 70
     0
 62
     7
  6
Continuous
290
     1
370
    -3
390
F
  0
LAYER
  5
8E
330
2
100
AcDbSymbolTableRecord
100
AcDbLayerTableRecord
  2
102
 70
     0
 62
     7
  6
Continuous
290
     1
370
    -3
390
F
  0
LAYER
  5
8F
330
2
100
AcDbSymbolTableRecord
100
AcDbLayerTableRecord
  2
103
 70
     0
 62
     7
  6
Continuous
290
     1
370
    -3
390
F
  0
LAYER
  5
90
330
2
100
AcDbSymbolTableRecord
100
AcDbLayerTableRecord
  2
104
 70
     0
 62
     7
  6
Continuous
290
     1
370
    -3
390
F
  0
LAYER
  5
91
330
2
100
AcDbSymbolTableRecord
100
AcDbLayerTableRecord
  2
105
 70
     0
 62
     7
  6
Continuous
290
     1
370
    -3
390
F
  0
LAYER
  5
92
330
2
100
AcDbSymbolTableRecord
100
AcDbLayerTableRecord
  2
106
 70
     0
 62
     7
  6
Continuous
290
     1
370
    -3
390
F
  0
LAYER
  5
93
330
2
100
AcDbSymbolTableRecord
100
AcDbLayerTableRecord
  2
107
 70
     0
 62
     7
  6
Continuous
290
     1
370
    -3
390
F
  0
LAYER
  5
94
330
2
100
AcDbSymbolTableRecord
100
AcDbLayerTableRecord
  2
108
 70
     0
 62
     7
  6
Continuous
290
     1
370
    -3
390
F
  0
LAYER
  5
95
330
2
100
AcDbSymbolTableRecord
100
AcDbLayerTableRecord
  2
109
 70
     0
 62
     7
  6
Continuous
290
     1
370
    -3
390
F
  0
LAYER
  5
96
330
2
100
AcDbSymbolTableRecord
100
AcDbLayerTableRecord
  2
110
 70
     0
 62
     7
  6
Continuous
290
     1
370
    -3
390
F
  0
LAYER
  5
97
330
2
100
AcDbSymbolTableRecord
100
AcDbLayerTableRecord
  2
111
 70
     0
 62
     7
  6
Continuous
290
     1
370
    -3
390
F
  0
LAYER
  5
98
330
2
100
AcDbSymbolTableRecord
100
AcDbLayerTableRecord
  2
112
 70
     0
 62
     7
  6
Continuous
290
     1
370
    -3
390
F
  0
LAYER
  5
99
330
2
100
AcDbSymbolTableRecord
100
AcDbLayerTableRecord
  2
113
 70
     0
 62
     7
  6
Continuous
290
     1
370
    -3
390
F
  0
LAYER
  5
9A
330
2
100
AcDbSymbolTableRecord
100
AcDbLayerTableRecord
  2
114
 70
     0
 62
     7
  6
Continuous
290
     1
370
    -3
390
F
  0
LAYER
  5
9B
330
2
100
AcDbSymbolTableRecord
100
AcDbLayerTableRecord
  2
115
 70
     0
 62
     7
  6
Continuous
290
     1
370
    -3
390
F
  0
LAYER
  5
9C
330
2
100
AcDbSymbolTableRecord
100
AcDbLayerTableRecord
  2
116
 70
     0
 62
     7
  6
Continuous
290
     1
370
    -3
390
F
  0
LAYER
  5
9D
330
2
100
AcDbSymbolTableRecord
100
AcDbLayerTableRecord
  2
117
 70
     0
 62
     7
  6
Continuous
290
     1
370
    -3
390
F
  0
LAYER
  5
9E
330
2
100
AcDbSymbolTableRecord
100
AcDbLayerTableRecord
  2
118
 70
     0
 62
     7
  6
Continuous
290
     1
370
    -3
390
F
  0
LAYER
  5
9F
330
2
100
AcDbSymbolTableRecord
100
AcDbLayerTableRecord
  2
119
 70
     0
 62
     7
  6
Continuous
290
     1
370
    -3
390
F
  0
LAYER
  5
A0
330
2
100
AcDbSymbolTableRecord
100
AcDbLayerTableRecord
  2
120
 70
     0
 62
     7
  6
Continuous
290
     1
370
    -3
390
F
  0
LAYER
  5
A1
330
2
100
AcDbSymbolTableRecord
100
AcDbLayerTableRecord
  2
121
 70
     0
 62
     7
  6
Continuous
290
     1
370
    -3
390
F
  0
LAYER
  5
A2
330
2
100
AcDbSymbolTableRecord
100
AcDbLayerTableRecord
  2
122
 70
     0
 62
     7
  6
Continuous
290
     1
370
    -3
390
F
  0
LAYER
  5
A3
330
2
100
AcDbSymbolTableRecord
100
AcDbLayerTableRecord
  2
123
 70
     0
 62
     7
  6
Continuous
290
     1
370
    -3
390
F
  0
LAYER
  5
A4
330
2
100
AcDbSymbolTableRecord
100
AcDbLayerTableRecord
  2
124
 70
     0
 62
     7
  6
Continuous
290
     1
370
    -3
390
F
  0
LAYER
  5
A5
330
2
100
AcDbSymbolTableRecord
100
AcDbLayerTableRecord
  2
125
 70
     0
 62
     7
  6
Continuous
290
     1
370
    -3
390
F
  0
LAYER
  5
A6
330
2
100
AcDbSymbolTableRecord
100
AcDbLayerTableRecord
  2
126
 70
     0
 62
     7
  6
Continuous
290
     1
370
    -3
390
F
  0
LAYER
  5
A7
330
2
100
AcDbSymbolTableRecord
100
AcDbLayerTableRecord
  2
127
 70
     0
 62
     7
  6
Continuous
290
     1
370
    -3
390
F
  0
LAYER
  5
A8
330
2
100
AcDbSymbolTableRecord
100
AcDbLayerTableRecord
  2
128
 70
     0
 62
     7
  6
Continuous
290
     1
370
    -3
390
F
  0
ENDTAB
  0
TABLE
  2
STYLE
  5
3
330
0
100
AcDbSymbolTable
 70
    11
  0
STYLE
  5
11
330
3
100
AcDbSymbolTableRecord
100
AcDbTextStyleTableRecord
  2
Standard
 70
     0
 40
0.0
 41
1.0
 50
0.0
 71
     0
 42
2.5
  3
txt.shx
  4
extfont.shx
  0
STYLE
  5
C6
330
3
100
AcDbSymbolTableRecord
100
AcDbTextStyleTableRecord
  2
KANJI0
 70
     0
 40
4.5
 41
0.6
 50
0.0
 71
     0
 42
4.5
  3
txt.shx
  4
extfont.shx
  0
STYLE
  5
E1
330
3
100
AcDbSymbolTableRecord
100
AcDbTextStyleTableRecord
  2
KANJI1
 70
     0
 40
4.5
 41
0.666666667
 50
0.0
 71
     0
 42
4.5
  3
txt.shx
  4
extfont.shx
  0
STYLE
  5
E8
330
3
100
AcDbSymbolTableRecord
100
AcDbTextStyleTableRecord
  2
KANJI2
 70
     0
 40
4.5
 41
1.0
 50
0.0
 71
     0
 42
4.5
  3
txt.shx
  4
extfont.shx
  0
STYLE
  5
EB
330
3
100
AcDbSymbolTableRecord
100
AcDbTextStyleTableRecord
  2
KANJI3
 70
     4
 40
3.75
 41
1.0
 50
0.0
 71
     0
 42
3.75
  3
txt.shx
  4
extfont.shx
  0
STYLE
  5
F1
330
3
100
AcDbSymbolTableRecord
100
AcDbTextStyleTableRecord
  2
KANJI4
 70
     4
 40
3.75
 41
1.0
 50
0.0
 71
     0
 42
3.75
  3
txt.shx
  4
extfont.shx
  0
STYLE
  5
FA
330
3
100
AcDbSymbolTableRecord
100
AcDbTextStyleTableRecord
  2
KANJI5
 70
     0
 40
4.5
 41
0.45
 50
0.0
 71
     0
 42
4.5
  3
txt.shx
  4
extfont.shx
  0
STYLE
  5
104
330
3
100
AcDbSymbolTableRecord
100
AcDbTextStyleTableRecord
  2
KANJI6
 70
     4
 40
2.5
 41
1.5
 50
0.0
 71
     0
 42
2.5
  3
txt.shx
  4
extfont.shx
  0
STYLE
  5
10A
330
3
100
AcDbSymbolTableRecord
100
AcDbTextStyleTableRecord
  2
KANJI7
 70
     0
 40
4.5
 41
0.9
 50
0.0
 71
     0
 42
4.5
  3
txt.shx
  4
extfont.shx
  0
STYLE
  5
11A
330
3
100
AcDbSymbolTableRecord
100
AcDbTextStyleTableRecord
  2
KANJI8
 70
     0
 40
4.5
 41
0.333333333
 50
0.0
 71
     0
 42
4.5
  3
txt.shx
  4
extfont.shx
  0
STYLE
  5
1E7
330
3
100
AcDbSymbolTableRecord
100
AcDbTextStyleTableRecord
  2
KANJI9
 70
     0
 40
4.5
 41
0.5
 50
0.0
 71
     0
 42
4.5
  3
txt.shx
  4
extfont.shx
  0
ENDTAB
  0
TABLE
  2
VIEW
  5
6
330
0
100
AcDbSymbolTable
 70
     0
  0
ENDTAB
  0
TABLE
  2
UCS
  5
7
330
0
100
AcDbSymbolTable
 70
     0
  0
ENDTAB
  0
TABLE
  2
APPID
  5
9
330
0
100
AcDbSymbolTable
 70
     1
  0
APPID
  5
12
330
9
100
AcDbSymbolTableRecord
100
AcDbRegAppTableRecord
  2
ACAD
 70
     0
  0
ENDTAB
  0
TABLE
  2
DIMSTYLE
  5
A
330
0
100
AcDbSymbolTable
 70
     1
100
AcDbDimStyleTable
 71
     0
  0
DIMSTYLE
105
27
330
A
100
AcDbSymbolTableRecord
100
AcDbDimStyleTableRecord
  2
ISO-25
 70
    64
  3

  4

 40
1.0
 41
2.5
 42
0.625
 43
3.75
 44
1.25
 45
0.0
 46
0.0
 47
0.0
 48
0.0
 71
     0
 72
     0
 73
     0
 74
     0
 75
     0
 76
     0
 77
     1
 78
     8
 79
     0
140
2.5
141
2.5
142
0.0
143
0.039370079
144
1.0
145
0.0
146
1.0
147
0.625
148
0.0
170
     0
171
     3
172
     1
173
     0
174
     0
175
     0
176
     0
177
     0
178
     0
179
     0
270
     2
271
     2
272
     2
273
     2
274
     3
275
     0
276
     0
277
     2
278
    46
279
     0
280
     0
281
     0
282
     0
283
     1
284
     8
285
     0
286
     0
288
     0
289
     3
340
11
341
0
342
0
343
0
344
0
371
    -2
372
    -2
  0
ENDTAB
  0
TABLE
  2
BLOCK_RECORD
  5
1
330
0
100
AcDbSymbolTable
 70
     3
  0
BLOCK_RECORD
  5
1F
330
1
100
AcDbSymbolTableRecord
100
AcDbBlockTableRecord
  2
*Model_Space
340
22
  0
BLOCK_RECORD
  5
1B
330
1
100
AcDbSymbolTableRecord
100
AcDbBlockTableRecord
  2
*Paper_Space
340
1E
  0
BLOCK_RECORD
  5
23
330
1
100
AcDbSymbolTableRecord
100
AcDbBlockTableRecord
  2
*Paper_Space0
340
26
  0
ENDTAB
  0
ENDSEC
  0
SECTION
  2
BLOCKS
  0
BLOCK
  5
1C
330
1B
100
AcDbEntity
 67
     1
  8
0
100
AcDbBlockBegin
  2
*Paper_Space
 70
     0
 10
0.0
 20
0.0
 30
0.0
  3
*Paper_Space
  1

  0
ENDBLK
  5
1D
330
1B
100
AcDbEntity
  8
0
100
AcDbBlockEnd
  0
BLOCK
  5
20
330
1F
100
AcDbEntity
  8
0
100
AcDbBlockBegin
  2
*Model_Space
 70
     0
 10
0.0
 20
0.0
 30
0.0
  3
*Model_Space
  1

  0
ENDBLK
  5
21
330
1F
100
AcDbEntity
  8
0
100
AcDbBlockEnd
  0
BLOCK
  5
24
330
23
100
AcDbEntity
 67
     1
  8
0
100
AcDbBlockBegin
  2
*Paper_Space0
 70
     0
 10
0.0
 20
0.0
 30
0.0
  3
*Paper_Space0
  1

  0
ENDBLK
  5
25
330
23
100
AcDbEntity
  8
0
100
AcDbBlockEnd
  0
ENDSEC
  0
SECTION
  2
ENTITIES
  0
LINE
  5
A9
330
1F
100
AcDbEntity
  8
0
  6
Continuous
 62
     1
100
AcDbLine
 10
139.765
 20
170.35
 30
0.0
 11
139.765
 21
213.35
 31
0.0
  0
LINE
  5
AA
330
1F
100
AcDbEntity
  8
0
  6
Continuous
 62
     1
100
AcDbLine
 10
239.765
 20
170.35
 30
0.0
 11
239.765
 21
213.35
 31
0.0
  0
LINE
  5
AC
330
1F
100
AcDbEntity
  8
0
  6
LTYPE1
 62
     2
100
AcDbLine
 10
139.765
 20
210.75
 30
0.0
 11
239.765
 21
210.75
 31
0.0
  0
LINE
  5
AD
330
1F
100
AcDbEntity
  8
0
  6
Continuous
 62
     1
100
AcDbLine
 10
139.765
 20
213.35
 30
0.0
 11
239.765
 21
213.35
 31
0.0
  0
LINE
  5
AF
330
1F
100
AcDbEntity
  8
0
  6
LTYPE2
 62
     2
100
AcDbLine
 10
189.765
 20
95.35
 30
0.0
 11
189.765
 21
213.35
 31
0.0
  0
CIRCLE
  5
B0
330
1F
100
AcDbEntity
  8
0
  6
Continuous
 62
     1
100
AcDbCircle
 10
189.765
 20
108.35
 30
0.0
 40
4.6
  0
CIRCLE
  5
B1
330
1F
100
AcDbEntity
  8
0
  6
Continuous
 62
     1
100
AcDbCircle
 10
189.765
 20
168.35
 30
0.0
 40
4.6
  0
CIRCLE
  5
B2
330
1F
100
AcDbEntity
  8
0
  6
Continuous
 62
     1
100
AcDbCircle
 10
189.765
 20
138.35
 30
0.0
 40
4.1
  0
CIRCLE
  5
B3
330
1F
100
AcDbEntity
  8
0
  6
Continuous
 62
     2
100
AcDbCircle
 10
189.765
 20
168.35
 30
0.0
 40
3.0
  0
CIRCLE
  5
B4
330
1F
100
AcDbEntity
  8
0
  6
Continuous
 62
     2
100
AcDbCircle
 10
189.765
 20
108.35
 30
0.0
 40
3.0
  0
LWPOLYLINE
  5
B6
330
1F
100
AcDbEntity
  8
0
  6
LTYPE1
 62
     2
100
AcDbPolyline
 90
     6
 70
   129
 43
0.0
 10
189.765
 20
115.8555535
 10
183.265
 20
112.10277675
 10
183.265
 20
104.59722325
 10
189.765
 20
100.844446501
 10
196.265
 20
104.59722325
 10
196.265
 20
112.10277675
  0
LWPOLYLINE
  5
B8
330
1F
100
AcDbEntity
  8
0
  6
LTYPE1
 62
     2
100
AcDbPolyline
 90
     6
 70
   129
 43
0.0
 10
189.765
 20
175.8555535
 10
183.265
 20
172.10277675
 10
183.265
 20
164.59722325
 10
189.765
 20
160.844446501
 10
196.265
 20
164.59722325
 10
196.265
 20
172.10277675
  0
LINE
  5
B9
330
1F
100
AcDbEntity
  8
0
  6
LTYPE1
 62
     2
100
AcDbLine
 10
189.765
 20
147.010254038
 30
0.0
 11
182.265
 21
142.680127019
 31
0.0
  0
LINE
  5
BA
330
1F
100
AcDbEntity
  8
0
  6
LTYPE1
 62
     2
100
AcDbLine
 10
182.265
 20
134.019872981
 30
0.0
 11
189.765
 21
129.689745962
 31
0.0
  0
LINE
  5
BB
330
1F
100
AcDbEntity
  8
0
  6
LTYPE1
 62
     2
100
AcDbLine
 10
182.265
 20
142.680127019
 30
0.0
 11
182.265
 21
134.019872981
 31
0.0
  0
LWPOLYLINE
  5
BD
330
1F
100
AcDbEntity
  8
0
  6
LTYPE1
 62
     2
100
AcDbPolyline
 90
     4
 70
   128
 43
0.0
 10
189.765
 20
129.689745962
 10
197.265
 20
134.019872981
 10
197.265
 20
142.680127019
 10
189.765
 20
147.010254038
  0
LINE
  5
BE
330
1F
100
AcDbEntity
  8
7
  6
Continuous
 62
     2
100
AcDbLine
 10
239.765
 20
214.85
 30
0.0
 11
239.765
 21
226.35
 31
0.0
  0
LINE
  5
BF
330
1F
100
AcDbEntity
  8
7
  6
Continuous
 62
     2
100
AcDbLine
 10
239.765
 20
223.35
 30
0.0
 11
236.142778151
 21
224.320571419
 31
0.0
  0
LINE
  5
C0
330
1F
100
AcDbEntity
  8
7
  6
Continuous
 62
     2
100
AcDbLine
 10
239.765
 20
223.35
 30
0.0
 11
236.142778151
 21
222.379428581
 31
0.0
  0
LWPOLYLINE
  5
C2
330
1F
100
AcDbEntity
  8
7
  6
Continuous
 62
     2
100
AcDbPolyline
 90
     3
 70
   128
 43
0.0
 10
239.765
 20
223.35
 10
139.765
 20
223.35
 10
143.387221849
 20
222.379428581
  0
LINE
  5
C3
330
1F
100
AcDbEntity
  8
7
  6
Continuous
 62
     2
100
AcDbLine
 10
139.765
 20
223.35
 30
0.0
 11
143.387221849
 21
224.320571419
 31
0.0
  0
LINE
  5
C4
330
1F
100
AcDbEntity
  8
7
  6
Continuous
 62
     2
100
AcDbLine
 10
139.765
 20
214.85
 30
0.0
 11
139.765
 21
226.35
 31
0.0
  0
TEXT
  5
C5
330
1F
100
AcDbEntity
  8
7
  6
Continuous
 62
     2
100
AcDbText
 10
185.265
 20
224.85
 30
0.0
 40
4.5
  1
１００
 41
0.6
  7
KANJI0
 72
     5
 11
194.265
 21
224.85
 31
0.0
100
AcDbText
  0
LINE
  5
C7
330
1F
100
AcDbEntity
  8
7
  6
Continuous
 62
     2
100
AcDbLine
 10
249.765
 20
95.35
 30
0.0
 11
250.735571419
 21
98.972221849
 31
0.0
  0
LINE
  5
C8
330
1F
100
AcDbEntity
  8
7
  6
Continuous
 62
     2
100
AcDbLine
 10
249.765
 20
95.35
 30
0.0
 11
248.794428581
 21
98.972221849
 31
0.0
  0
LWPOLYLINE
  5
CA
330
1F
100
AcDbEntity
  8
7
  6
Continuous
 62
     2
100
AcDbPolyline
 90
     3
 70
   128
 43
0.0
 10
249.765
 20
95.35
 10
249.765
 20
108.35
 10
248.794428581
 20
104.727778151
  0
LINE
  5
CB
330
1F
100
AcDbEntity
  8
7
  6
Continuous
 62
     2
100
AcDbLine
 10
249.765
 20
108.35
 30
0.0
 11
250.735571419
 21
104.727778151
 31
0.0
  0
LINE
  5
CC
330
1F
100
AcDbEntity
  8
7
  6
Continuous
 62
     2
100
AcDbLine
 10
191.265
 20
108.35
 30
0.0
 11
252.765
 21
108.35
 31
0.0
  0
TEXT
  5
CD
330
1F
100
AcDbEntity
  8
7
  6
Continuous
 62
     2
100
AcDbText
 10
248.265
 20
98.925
 30
0.0
 40
4.5
  1
１３
 50
90.0
 41
0.6
  7
KANJI0
 72
     5
 11
248.265
 21
104.775
 31
0.0
100
AcDbText
  0
LINE
  5
CE
330
1F
100
AcDbEntity
  8
7
  6
Continuous
 62
     2
100
AcDbLine
 10
249.765
 20
108.35
 30
0.0
 11
250.735571419
 21
111.972221849
 31
0.0
  0
LINE
  5
CF
330
1F
100
AcDbEntity
  8
7
  6
Continuous
 62
     2
100
AcDbLine
 10
249.765
 20
108.35
 30
0.0
 11
248.794428581
 21
111.972221849
 31
0.0
  0
LWPOLYLINE
  5
D1
330
1F
100
AcDbEntity
  8
7
  6
Continuous
 62
     2
100
AcDbPolyline
 90
     3
 70
   128
 43
0.0
 10
249.765
 20
108.35
 10
249.765
 20
138.35
 10
248.794428581
 20
134.727778151
  0
LINE
  5
D2
330
1F
100
AcDbEntity
  8
7
  6
Continuous
 62
     2
100
AcDbLine
 10
249.765
 20
138.35
 30
0.0
 11
250.735571419
 21
134.727778151
 31
0.0
  0
LINE
  5
D3
330
1F
100
AcDbEntity
  8
7
  6
Continuous
 62
     2
100
AcDbLine
 10
191.265
 20
138.35
 30
0.0
 11
252.765
 21
138.35
 31
0.0
  0
TEXT
  5
D4
330
1F
100
AcDbEntity
  8
7
  6
Continuous
 62
     2
100
AcDbText
 10
248.265
 20
120.425
 30
0.0
 40
4.5
  1
３０
 50
90.0
 41
0.6
  7
KANJI0
 72
     5
 11
248.265
 21
126.275
 31
0.0
100
AcDbText
  0
LINE
  5
D5
330
1F
100
AcDbEntity
  8
7
  6
Continuous
 62
     2
100
AcDbLine
 10
249.765
 20
138.35
 30
0.0
 11
250.735571419
 21
141.972221849
 31
0.0
  0
LINE
  5
D6
330
1F
100
AcDbEntity
  8
7
  6
Continuous
 62
     2
100
AcDbLine
 10
249.765
 20
138.35
 30
0.0
 11
248.794428581
 21
141.972221849
 31
0.0
  0
LWPOLYLINE
  5
D8
330
1F
100
AcDbEntity
  8
7
  6
Continuous
 62
     2
100
AcDbPolyline
 90
     3
 70
   128
 43
0.0
 10
249.765
 20
138.35
 10
249.765
 20
168.35
 10
248.794428581
 20
164.727778151
  0
LINE
  5
D9
330
1F
100
AcDbEntity
  8
7
  6
Continuous
 62
     2
100
AcDbLine
 10
249.765
 20
168.35
 30
0.0
 11
250.735571419
 21
164.727778151
 31
0.0
  0
LINE
  5
DA
330
1F
100
AcDbEntity
  8
7
  6
Continuous
 62
     2
100
AcDbLine
 10
191.265
 20
168.35
 30
0.0
 11
252.765
 21
168.35
 31
0.0
  0
TEXT
  5
DB
330
1F
100
AcDbEntity
  8
7
  6
Continuous
 62
     2
100
AcDbText
 10
248.265
 20
150.425
 30
0.0
 40
4.5
  1
３０
 50
90.0
 41
0.6
  7
KANJI0
 72
     5
 11
248.265
 21
156.275
 31
0.0
100
AcDbText
  0
LINE
  5
DC
330
1F
100
AcDbEntity
  8
7
  6
Continuous
 62
     2
100
AcDbLine
 10
180.125
 20
133.51
 30
0.0
 11
176.576741131
 21
132.296591991
 31
0.0
  0
LINE
  5
DD
330
1F
100
AcDbEntity
  8
7
  6
Continuous
 62
     2
100
AcDbLine
 10
180.125
 20
133.51
 30
0.0
 11
177.658821684
 21
130.685028405
 31
0.0
  0
LWPOLYLINE
  5
DF
330
1F
100
AcDbEntity
  8
7
  6
Continuous
 62
     2
100
AcDbPolyline
 90
     3
 70
   128
 43
0.0
 10
180.125
 20
133.51
 10
150.145
 20
113.38
 10
121.645
 20
113.38
  0
TEXT
  5
E0
330
1F
100
AcDbEntity
  8
7
  6
Continuous
 62
     2
100
AcDbText
 10
121.645
 20
114.88
 30
0.0
 40
4.5
  1
"5/16"ナット溶接
 41
0.666666667
  7
KANJI1
 72
     5
 11
150.145
 21
114.88
 31
0.0
100
AcDbText
  0
LINE
  5
E2
330
1F
100
AcDbEntity
  8
7
  6
Continuous
 62
     2
100
AcDbLine
 10
164.624395933
 20
97.036472063
 30
0.0
 11
161.268583212
 21
95.362846962
 31
0.0
  0
LINE
  5
E3
330
1F
100
AcDbEntity
  8
7
  6
Continuous
 62
     2
100
AcDbLine
 10
164.624395933
 20
97.036472063
 30
0.0
 11
162.554989416
 21
93.909163849
 31
0.0
  0
LINE
  5
E4
330
1F
100
AcDbEntity
  8
7
  6
Continuous
 62
     2
100
AcDbLine
 10
168.3687961
 20
100.35
 30
0.0
 11
157.524051804
 21
90.753172314
 31
0.0
  0
TEXT
  5
E5
330
1F
100
AcDbEntity
  8
7
  6
Continuous
 62
     2
100
AcDbText
 10
156.529993423
 20
91.876492364
 30
0.0
 40
4.5
  1
Ｒ５
 50
41.506544152
 41
0.6
  7
KANJI0
 72
     5
 11
160.910941619
 21
95.75332005
 31
0.0
100
AcDbText
  0
LINE
  5
E6
330
1F
100
AcDbEntity
  8
2
  6
Continuous
 62
     2
100
AcDbLine
 10
333.75
 20
15.0
 30
0.0
 11
611.25
 21
15.0
 31
0.0
  0
TEXT
  5
E7
330
1F
100
AcDbEntity
  8
2
  6
Continuous
 62
     2
100
AcDbText
 10
335.25
 20
17.25
 30
0.0
 40
4.5
  1
オオハシ産業株式会社
 41
1.0
  7
KANJI2
 72
     5
 11
395.25
 21
17.25
 31
0.0
100
AcDbText
  0
LINE
  5
E9
330
1F
100
AcDbEntity
  8
2
  6
Continuous
 62
     2
100
AcDbLine
 10
611.25
 20
24.0
 30
0.0
 11
333.75
 21
24.0
 31
0.0
  0
TEXT
  5
EA
330
1F
100
AcDbEntity
  8
2
  6
Continuous
 62
     2
100
AcDbText
 10
531.375
 20
41.25
 30
0.0
 40
3.75
  1
仕上
 41
1.0
  7
KANJI3
 72
     5
 11
537.0
 21
41.25
 31
0.0
100
AcDbText
  0
LINE
  5
EC
330
1F
100
AcDbEntity
  8
2
  6
Continuous
 62
     2
100
AcDbLine
 10
528.75
 20
51.0
 30
0.0
 11
611.25
 21
51.0
 31
0.0
  0
LINE
  5
ED
330
1F
100
AcDbEntity
  8
2
  6
Continuous
 62
     2
100
AcDbLine
 10
528.75
 20
42.0
 30
0.0
 11
611.25
 21
42.0
 31
0.0
  0
TEXT
  5
EE
330
1F
100
AcDbEntity
  8
2
  6
Continuous
 62
     2
100
AcDbText
 10
531.375
 20
50.25
 30
0.0
 40
3.75
  1
規格
 41
1.0
  7
KANJI3
 72
     5
 11
537.0
 21
50.25
 31
0.0
100
AcDbText
  0
TEXT
  5
EF
330
1F
100
AcDbEntity
  8
2
  6
Continuous
 62
     2
100
AcDbText
 10
531.375
 20
59.25
 30
0.0
 40
3.75
  1
材質
 41
1.0
  7
KANJI3
 72
     5
 11
537.0
 21
59.25
 31
0.0
100
AcDbText
  0
TEXT
  5
F0
330
1F
100
AcDbEntity
  8
2
  6
Continuous
 62
     2
100
AcDbText
 10
531.375
 20
68.25
 30
0.0
 40
3.75
  1
品番
 41
1.0
  7
KANJI4
 72
     5
 11
537.0
 21
68.25
 31
0.0
100
AcDbText
  0
TEXT
  5
F2
330
1F
100
AcDbEntity
  8
2
  6
Continuous
 62
     2
100
AcDbText
 10
531.375
 20
77.25
 30
0.0
 40
3.75
  1
図名
 41
1.0
  7
KANJI3
 72
     5
 11
537.0
 21
77.25
 31
0.0
100
AcDbText
  0
LINE
  5
F3
330
1F
100
AcDbEntity
  8
2
  6
Continuous
 62
     2
100
AcDbLine
 10
528.75
 20
60.0
 30
0.0
 11
611.25
 21
60.0
 31
0.0
  0
LINE
  5
F4
330
1F
100
AcDbEntity
  8
2
  6
Continuous
 62
     2
100
AcDbLine
 10
528.75
 20
69.0
 30
0.0
 11
611.25
 21
69.0
 31
0.0
  0
LINE
  5
F5
330
1F
100
AcDbEntity
  8
2
  6
Continuous
 62
     2
100
AcDbLine
 10
528.75
 20
78.0
 30
0.0
 11
611.25
 21
78.0
 31
0.0
  0
LINE
  5
F6
330
1F
100
AcDbEntity
  8
2
  6
Continuous
 62
     2
100
AcDbLine
 10
398.25
 20
24.0
 30
0.0
 11
398.25
 21
15.0
 31
0.0
  0
TEXT
  5
F7
330
1F
100
AcDbEntity
  8
2
  6
Continuous
 62
     2
100
AcDbText
 10
400.875
 20
23.25
 30
0.0
 40
3.75
  1
作図
 41
1.0
  7
KANJI3
 72
     5
 11
406.5
 21
23.25
 31
0.0
100
AcDbText
  0
LINE
  5
F8
330
1F
100
AcDbEntity
  8
2
  6
Continuous
 62
     2
100
AcDbLine
 10
428.25
 20
15.0
 30
0.0
 11
428.25
 21
24.0
 31
0.0
  0
TEXT
  5
F9
330
1F
100
AcDbEntity
  8
2
  6
Continuous
 62
     2
100
AcDbText
 10
429.75
 20
17.25
 30
0.0
 40
4.5
  1
FD=
 41
0.9
  7
KANJI5
 72
     5
 11
436.725
 21
17.25
 31
0.0
100
AcDbText
  0
LINE
  5
FB
330
1F
100
AcDbEntity
  8
2
  6
Continuous
 62
     2
100
AcDbLine
 10
458.25
 20
15.0
 30
0.0
 11
458.25
 21
24.0
 31
0.0
  0
TEXT
  5
FC
330
1F
100
AcDbEntity
  8
2
  6
Continuous
 62
     2
100
AcDbText
 10
459.75
 20
17.25
 30
0.0
 40
4.5
  1
NO=
 41
0.9
  7
KANJI5
 72
     5
 11
466.725
 21
17.25
 31
0.0
100
AcDbText
  0
LINE
  5
FD
330
1F
100
AcDbEntity
  8
2
  6
Continuous
 62
     2
100
AcDbLine
 10
495.75
 20
24.0
 30
0.0
 11
495.75
 21
15.0
 31
0.0
  0
TEXT
  5
FE
330
1F
100
AcDbEntity
  8
2
  6
Continuous
 62
     2
100
AcDbText
 10
498.375
 20
23.25
 30
0.0
 40
3.75
  1
日付
 41
1.0
  7
KANJI3
 72
     5
 11
504.0
 21
23.25
 31
0.0
100
AcDbText
  0
LINE
  5
FF
330
1F
100
AcDbEntity
  8
2
  6
Continuous
 62
     2
100
AcDbLine
 10
528.75
 20
15.0
 30
0.0
 11
528.75
 21
78.0
 31
0.0
  0
TEXT
  5
100
330
1F
100
AcDbEntity
  8
2
  6
Continuous
 62
     2
100
AcDbText
 10
498.375
 20
32.25
 30
0.0
 40
3.75
  1
尺度
 41
1.0
  7
KANJI3
 72
     5
 11
504.0
 21
32.25
 31
0.0
100
AcDbText
  0
LINE
  5
101
330
1F
100
AcDbEntity
  8
2
  6
Continuous
 62
     2
100
AcDbLine
 10
495.75
 20
33.0
 30
0.0
 11
611.25
 21
33.0
 31
0.0
  0
TEXT
  5
102
330
1F
100
AcDbEntity
  8
2
  6
Continuous
 62
     2
100
AcDbText
 10
531.375
 20
23.25
 30
0.0
 40
3.75
  1
品名
 41
1.0
  7
KANJI3
 72
     5
 11
537.0
 21
23.25
 31
0.0
100
AcDbText
  0
TEXT
  5
103
330
1F
100
AcDbEntity
  8
2
  6
Continuous
 62
     2
100
AcDbText
 10
531.375
 20
32.25
 30
0.0
 40
2.5
  1
その他
 41
1.5
  7
KANJI6
 72
     5
 11
540.75
 21
32.25
 31
0.0
100
AcDbText
  0
LINE
  5
105
330
1F
100
AcDbEntity
  8
2
  6
Continuous
 62
     2
100
AcDbLine
 10
611.25
 20
15.0
 30
0.0
 11
611.25
 21
78.0
 31
0.0
  0
LINE
  5
106
330
1F
100
AcDbEntity
  8
2
  6
Continuous
 62
     2
100
AcDbLine
 10
333.75
 20
15.0
 30
0.0
 11
333.75
 21
24.0
 31
0.0
  0
LWPOLYLINE
  5
108
330
1F
100
AcDbEntity
  8
2
  6
Continuous
 62
     2
100
AcDbPolyline
 90
     5
 70
   128
 43
0.0
 10
611.25
 20
75.0
 10
611.25
 20
430.5
 10
18.75
 20
430.5
 10
18.75
 20
15.0
 10
333.75
 20
15.0
  0
TEXT
  5
109
330
1F
100
AcDbEntity
  8
2
  6
Continuous
 62
     2
100
AcDbText
 10
537.75
 20
43.8
 30
0.0
 40
4.5
  1
－－－
 41
0.9
  7
KANJI7
 72
     5
 11
550.8
 21
43.8
 31
0.0
100
AcDbText
  0
TEXT
  5
10B
330
1F
100
AcDbEntity
  8
2
  6
Continuous
 62
     2
100
AcDbText
 10
537.75
 20
25.8
 30
0.0
 40
4.5
  1
－－－
 41
0.9
  7
KANJI7
 72
     5
 11
550.8
 21
25.8
 31
0.0
100
AcDbText
  0
TEXT
  5
10C
330
1F
100
AcDbEntity
  8
2
  6
Continuous
 62
     2
100
AcDbText
 10
356.25
 20
27.75
 30
0.0
 40
4.5
  1
特記　　寸法指示無い公差は±０．５以内とする．
 41
0.9
  7
KANJI7
 72
     5
 11
459.3
 21
27.75
 31
0.0
100
AcDbText
  0
LINE
  5
10D
330
1F
100
AcDbEntity
  8
2
  6
Continuous
 62
     2
100
AcDbLine
 10
495.75
 20
42.0
 30
0.0
 11
495.75
 21
24.0
 31
0.0
  0
TEXT
  5
10E
330
1F
100
AcDbEntity
  8
2
  6
Continuous
 62
     2
100
AcDbText
 10
498.375
 20
41.25
 30
0.0
 40
3.75
  1
用紙
 41
1.0
  7
KANJI3
 72
     5
 11
504.0
 21
41.25
 31
0.0
100
AcDbText
  0
LINE
  5
10F
330
1F
100
AcDbEntity
  8
2
  6
Continuous
 62
     2
100
AcDbLine
 10
495.75
 20
42.0
 30
0.0
 11
528.75
 21
42.0
 31
0.0
  0
TEXT
  5
110
330
1F
100
AcDbEntity
  8
2
  6
Continuous
 62
     2
100
AcDbText
 10
405.75
 20
16.8
 30
0.0
 40
4.5
  1
大橋　一之
 41
0.9
  7
KANJI7
 72
     5
 11
427.8
 21
16.8
 31
0.0
100
AcDbText
  0
TEXT
  5
111
330
1F
100
AcDbEntity
  8
2
  6
Continuous
 62
     2
100
AcDbText
 10
537.75
 20
70.8
 30
0.0
 40
4.5
  1
アダプター
 41
0.9
  7
KANJI7
 72
     5
 11
559.8
 21
70.8
 31
0.0
100
AcDbText
  0
TEXT
  5
112
330
1F
100
AcDbEntity
  8
2
  6
Continuous
 62
     2
100
AcDbText
 10
537.75
 20
52.8
 30
0.0
 40
4.5
  1
SPCC t=2.6
 41
0.9
  7
KANJI5
 72
     5
 11
562.05
 21
52.8
 31
0.0
100
AcDbText
  0
TEXT
  5
113
330
1F
100
AcDbEntity
  8
2
  6
Continuous
 62
     2
100
AcDbText
 10
537.75
 20
34.8
 30
0.0
 40
4.5
  1
黒色半艶塗装
 41
0.9
  7
KANJI7
 72
     5
 11
564.3
 21
34.8
 31
0.0
100
AcDbText
  0
TEXT
  5
114
330
1F
100
AcDbEntity
  8
2
  6
Continuous
 62
     2
100
AcDbText
 10
507.75
 20
34.8
 30
0.0
 40
4.5
  1
A3
 41
0.9
  7
KANJI5
 72
     5
 11
512.25
 21
34.8
 31
0.0
100
AcDbText
  0
TEXT
  5
115
330
1F
100
AcDbEntity
  8
2
  6
Continuous
 62
     2
100
AcDbText
 10
501.75
 20
16.8
 30
0.0
 40
4.5
  1
2016/10/24
 41
0.9
  7
KANJI5
 72
     5
 11
526.05
 21
16.8
 31
0.0
100
AcDbText
  0
TEXT
  5
116
330
1F
100
AcDbEntity
  8
2
  6
Continuous
 62
     2
100
AcDbText
 10
440.25
 20
16.8
 30
0.0
 40
4.5
  1
ヒビノ
 41
0.9
  7
KANJI7
 72
     5
 11
453.3
 21
16.8
 31
0.0
100
AcDbText
  0
TEXT
  5
117
330
1F
100
AcDbEntity
  8
2
  6
Continuous
 62
     2
100
AcDbText
 10
537.75
 20
61.8
 30
0.0
 40
4.5
  1
C25B-001
 41
0.9
  7
KANJI5
 72
     5
 11
557.1
 21
61.8
 31
0.0
100
AcDbText
  0
TEXT
  5
118
330
1F
100
AcDbEntity
  8
2
  6
Continuous
 62
     2
100
AcDbText
 10
507.75
 20
25.8
 30
0.0
 40
4.5
  1
２／３
 41
0.9
  7
KANJI7
 72
     5
 11
520.8
 21
25.8
 31
0.0
100
AcDbText
  0
TEXT
  5
119
330
1F
100
AcDbEntity
  8
2
  6
Continuous
 62
     2
100
AcDbText
 10
467.25
 20
16.8
 30
0.0
 40
4.5
  1
CTLB-C25B-001
 41
0.666666667
  7
KANJI8
 72
     5
 11
492.15
 21
16.8
 31
0.0
100
AcDbText
  0
LINE
  5
11B
330
1F
100
AcDbEntity
  8
0
  6
Continuous
 62
     1
100
AcDbLine
 10
291.934999999
 20
95.35
 30
0.0
 11
294.535
 21
95.35
 31
0.0
  0
LINE
  5
11C
330
1F
100
AcDbEntity
  8
0
  6
Continuous
 62
     1
100
AcDbLine
 10
458.935
 20
210.75
 30
0.0
 11
458.935
 21
213.35
 31
0.0
  0
LINE
  5
11D
330
1F
100
AcDbEntity
  8
0
  6
Continuous
 62
     1
100
AcDbLine
 10
291.935
 20
95.35
 30
0.0
 11
291.935
 21
208.15
 31
0.0
  0
LINE
  5
11E
330
1F
100
AcDbEntity
  8
0
  6
Continuous
 62
     1
100
AcDbLine
 10
297.135
 20
213.35
 30
0.0
 11
458.935
 21
213.35
 31
0.0
  0
ARC
  5
11F
330
1F
100
AcDbEntity
  8
0
  6
Continuous
 62
     1
100
AcDbCircle
 10
297.135
 20
208.15
 30
0.0
 40
5.2
100
AcDbArc
 50
90.0
 51
180.0
  0
LINE
  5
120
330
1F
100
AcDbEntity
  8
0
  6
Continuous
 62
     1
100
AcDbLine
 10
294.535
 20
95.35
 30
0.0
 11
294.535
 21
208.15
 31
0.0
  0
LINE
  5
121
330
1F
100
AcDbEntity
  8
0
  6
Continuous
 62
     1
100
AcDbLine
 10
297.135
 20
210.75
 30
0.0
 11
458.935
 21
210.75
 31
0.0
  0
ARC
  5
122
330
1F
100
AcDbEntity
  8
0
  6
Continuous
 62
     1
100
AcDbCircle
 10
297.135
 20
208.15
 30
0.0
 40
2.6
100
AcDbArc
 50
90.0
 51
180.0
  0
LWPOLYLINE
  5
125
330
1F
100
AcDbEntity
  8
0
  6
Continuous
 62
     2
100
AcDbPolyline
 90
     4
 70
   128
 43
0.0
 10
300.035
 20
100.844446501
 42
0.53293871
 10
300.035
 20
104.59722325
 42
0.266469355
 10
300.035
 20
112.10277675
 42
0.53293871
 10
300.035
 20
115.8555535
 42
0.0
  0
LINE
  5
127
330
1F
100
AcDbEntity
  8
0
  6
Continuous
 62
     2
100
AcDbLine
 10
301.035
 20
113.979165125
 30
0.0
 11
301.035
 21
102.720834875
 31
0.0
  0
LINE
  5
128
330
1F
100
AcDbEntity
  8
0
  6
Continuous
 62
     2
100
AcDbLine
 10
294.535
 20
104.59722325
 30
0.0
 11
300.035
 21
104.59722325
 31
0.0
  0
LINE
  5
129
330
1F
100
AcDbEntity
  8
0
  6
Continuous
 62
     2
100
AcDbLine
 10
294.535
 20
112.10277675
 30
0.0
 11
300.035
 21
112.10277675
 31
0.0
  0
LINE
  5
12A
330
1F
100
AcDbEntity
  8
0
  6
Continuous
 62
     2
100
AcDbLine
 10
294.535
 20
115.8555535
 30
0.0
 11
300.035
 21
115.8555535
 31
0.0
  0
LINE
  5
12B
330
1F
100
AcDbEntity
  8
0
  6
Continuous
 62
     2
100
AcDbLine
 10
294.535
 20
100.844446501
 30
0.0
 11
300.035
 21
100.844446501
 31
0.0
  0
LWPOLYLINE
  5
12E
330
1F
100
AcDbEntity
  8
0
  6
Continuous
 62
     2
100
AcDbPolyline
 90
     4
 70
   128
 43
0.0
 10
300.035
 20
160.844446501
 42
0.53293871
 10
300.035
 20
164.59722325
 42
0.266469355
 10
300.035
 20
172.10277675
 42
0.53293871
 10
300.035
 20
175.8555535
 42
0.0
  0
LINE
  5
130
330
1F
100
AcDbEntity
  8
0
  6
Continuous
 62
     2
100
AcDbLine
 10
301.035
 20
173.979165125
 30
0.0
 11
301.035
 21
162.720834875
 31
0.0
  0
LINE
  5
131
330
1F
100
AcDbEntity
  8
0
  6
Continuous
 62
     2
100
AcDbLine
 10
294.535
 20
164.59722325
 30
0.0
 11
300.035
 21
164.59722325
 31
0.0
  0
LINE
  5
132
330
1F
100
AcDbEntity
  8
0
  6
Continuous
 62
     2
100
AcDbLine
 10
294.535
 20
172.10277675
 30
0.0
 11
300.035
 21
172.10277675
 31
0.0
  0
LINE
  5
133
330
1F
100
AcDbEntity
  8
0
  6
Continuous
 62
     2
100
AcDbLine
 10
294.535
 20
175.8555535
 30
0.0
 11
300.035
 21
175.8555535
 31
0.0
  0
LINE
  5
134
330
1F
100
AcDbEntity
  8
0
  6
Continuous
 62
     2
100
AcDbLine
 10
294.535
 20
160.844446501
 30
0.0
 11
300.035
 21
160.844446501
 31
0.0
  0
LWPOLYLINE
  5
137
330
1F
100
AcDbEntity
  8
0
  6
Continuous
 62
     2
100
AcDbPolyline
 90
     4
 70
   128
 43
0.0
 10
301.535
 20
129.689745962
 42
0.692820323
 10
301.535
 20
134.019872981
 42
0.346410162
 10
301.535
 20
142.680127019
 42
0.692820323
 10
301.535
 20
147.010254038
 42
0.0
  0
LINE
  5
139
330
1F
100
AcDbEntity
  8
0
  6
Continuous
 62
     2
100
AcDbLine
 10
303.035
 20
144.845190528
 30
0.0
 11
303.035
 21
131.854809472
 31
0.0
  0
LINE
  5
13A
330
1F
100
AcDbEntity
  8
0
  6
Continuous
 62
     2
100
AcDbLine
 10
294.535
 20
129.689745962
 30
0.0
 11
301.535
 21
129.689745962
 31
0.0
  0
LINE
  5
13B
330
1F
100
AcDbEntity
  8
0
  6
Continuous
 62
     2
100
AcDbLine
 10
294.535
 20
134.019872981
 30
0.0
 11
301.535
 21
134.019872981
 31
0.0
  0
LINE
  5
13C
330
1F
100
AcDbEntity
  8
0
  6
Continuous
 62
     2
100
AcDbLine
 10
294.535
 20
142.680127019
 30
0.0
 11
301.535
 21
142.680127019
 31
0.0
  0
LINE
  5
13D
330
1F
100
AcDbEntity
  8
0
  6
Continuous
 62
     2
100
AcDbLine
 10
294.535
 20
147.010254038
 30
0.0
 11
301.535
 21
147.010254038
 31
0.0
  0
LINE
  5
13E
330
1F
100
AcDbEntity
  8
7
  6
Continuous
 62
     2
100
AcDbLine
 10
458.935
 20
214.85
 30
0.0
 11
458.935
 21
226.35
 31
0.0
  0
LINE
  5
13F
330
1F
100
AcDbEntity
  8
7
  6
Continuous
 62
     2
100
AcDbLine
 10
458.935
 20
223.35
 30
0.0
 11
455.312778151
 21
224.320571419
 31
0.0
  0
LINE
  5
140
330
1F
100
AcDbEntity
  8
7
  6
Continuous
 62
     2
100
AcDbLine
 10
458.935
 20
223.35
 30
0.0
 11
455.312778151
 21
222.379428581
 31
0.0
  0
LWPOLYLINE
  5
142
330
1F
100
AcDbEntity
  8
7
  6
Continuous
 62
     2
100
AcDbPolyline
 90
     3
 70
   128
 43
0.0
 10
458.935
 20
223.35
 10
291.935
 20
223.35
 10
295.557221849
 20
222.379428581
  0
LINE
  5
143
330
1F
100
AcDbEntity
  8
7
  6
Continuous
 62
     2
100
AcDbLine
 10
291.935
 20
223.35
 30
0.0
 11
295.557221849
 21
224.320571419
 31
0.0
  0
LINE
  5
144
330
1F
100
AcDbEntity
  8
7
  6
Continuous
 62
     2
100
AcDbLine
 10
291.935
 20
209.65
 30
0.0
 11
291.935
 21
226.35
 31
0.0
  0
TEXT
  5
145
330
1F
100
AcDbEntity
  8
7
  6
Continuous
 62
     2
100
AcDbText
 10
370.935
 20
224.85
 30
0.0
 40
4.5
  1
１６７
 41
0.6
  7
KANJI0
 72
     5
 11
379.935
 21
224.85
 31
0.0
100
AcDbText
  0
LINE
  5
146
330
1F
100
AcDbEntity
  8
7
  6
Continuous
 62
     2
100
AcDbLine
 10
295.635
 20
213.35
 30
0.0
 11
278.935
 21
213.35
 31
0.0
  0
LINE
  5
147
330
1F
100
AcDbEntity
  8
7
  6
Continuous
 62
     2
100
AcDbLine
 10
281.935
 20
213.35
 30
0.0
 11
280.964428581
 21
209.727778151
 31
0.0
  0
LINE
  5
148
330
1F
100
AcDbEntity
  8
7
  6
Continuous
 62
     2
100
AcDbLine
 10
281.935
 20
213.35
 30
0.0
 11
282.905571419
 21
209.727778151
 31
0.0
  0
LWPOLYLINE
  5
14A
330
1F
100
AcDbEntity
  8
7
  6
Continuous
 62
     2
100
AcDbPolyline
 90
     3
 70
   128
 43
0.0
 10
281.935
 20
213.35
 10
281.935
 20
95.35
 10
282.905571419
 20
98.972221849
  0
LINE
  5
14B
330
1F
100
AcDbEntity
  8
7
  6
Continuous
 62
     2
100
AcDbLine
 10
281.935
 20
95.35
 30
0.0
 11
280.964428581
 21
98.972221849
 31
0.0
  0
LINE
  5
14C
330
1F
100
AcDbEntity
  8
7
  6
Continuous
 62
     2
100
AcDbLine
 10
290.434999999
 20
95.35
 30
0.0
 11
278.935
 21
95.35
 31
0.0
  0
TEXT
  5
14D
330
1F
100
AcDbEntity
  8
7
  6
Continuous
 62
     2
100
AcDbText
 10
280.435
 20
149.85
 30
0.0
 40
4.5
  1
１１８
 50
90.0
 41
0.6
  7
KANJI0
 72
     5
 11
280.435
 21
158.85
 31
0.0
100
AcDbText
  0
LINE
  5
14E
330
1F
100
AcDbEntity
  8
0
  6
LTYPE1
 62
     2
100
AcDbLine
 10
294.535
 20
270.15
 30
0.0
 11
294.535
 21
370.15
 31
0.0
  0
ARC
  5
14F
330
1F
100
AcDbEntity
  8
0
  6
Continuous
 62
     1
100
AcDbCircle
 10
453.935
 20
365.15
 30
0.0
 40
5.0
100
AcDbArc
 50
0.0
 51
90.0
  0
LINE
  5
150
330
1F
100
AcDbEntity
  8
0
  6
Continuous
 62
     1
100
AcDbLine
 10
458.935
 20
275.15
 30
0.0
 11
458.935
 21
365.15
 31
0.0
  0
ARC
  5
151
330
1F
100
AcDbEntity
  8
0
  6
Continuous
 62
     1
100
AcDbCircle
 10
453.935
 20
275.15
 30
0.0
 40
5.0
100
AcDbArc
 50
270.0
 51
0.0
  0
LINE
  5
152
330
1F
100
AcDbEntity
  8
0
  6
Continuous
 62
     1
100
AcDbLine
 10
291.935
 20
270.15
 30
0.0
 11
291.935
 21
370.15
 31
0.0
  0
CIRCLE
  5
153
330
1F
100
AcDbEntity
  8
0
  6
Continuous
 62
     1
100
AcDbCircle
 10
416.935
 20
320.15
 30
0.0
 40
4.1
  0
CIRCLE
  5
154
330
1F
100
AcDbEntity
  8
0
  6
Continuous
 62
     1
100
AcDbCircle
 10
440.935
 20
320.15
 30
0.0
 40
4.1
  0
CIRCLE
  5
155
330
1F
100
AcDbEntity
  8
0
  6
Continuous
 62
     1
100
AcDbCircle
 10
400.935
 20
308.15
 30
0.0
 40
4.1
  0
CIRCLE
  5
156
330
1F
100
AcDbEntity
  8
0
  6
Continuous
 62
     1
100
AcDbCircle
 10
400.935
 20
332.15
 30
0.0
 40
4.1
  0
LINE
  5
157
330
1F
100
AcDbEntity
  8
0
  6
Continuous
 62
     1
100
AcDbLine
 10
421.935
 20
370.15
 30
0.0
 11
453.935
 21
370.15
 31
0.0
  0
CIRCLE
  5
158
330
1F
100
AcDbEntity
  8
0
  6
Continuous
 62
     1
100
AcDbCircle
 10
419.435
 20
290.15
 30
0.0
 40
1.2
  0
CIRCLE
  5
159
330
1F
100
AcDbEntity
  8
0
  6
Continuous
 62
     1
100
AcDbCircle
 10
438.435
 20
290.15
 30
0.0
 40
1.2
  0
CIRCLE
  5
15A
330
1F
100
AcDbEntity
  8
0
  6
Continuous
 62
     1
100
AcDbCircle
 10
430.935
 20
310.65
 30
0.0
 40
1.2
  0
CIRCLE
  5
15B
330
1F
100
AcDbEntity
  8
0
  6
Continuous
 62
     1
100
AcDbCircle
 10
430.935
 20
329.65
 30
0.0
 40
1.2
  0
CIRCLE
  5
15C
330
1F
100
AcDbEntity
  8
0
  6
Continuous
 62
     1
100
AcDbCircle
 10
438.435
 20
350.15
 30
0.0
 40
1.2
  0
CIRCLE
  5
15D
330
1F
100
AcDbEntity
  8
0
  6
Continuous
 62
     1
100
AcDbCircle
 10
419.435
 20
350.15
 30
0.0
 40
1.2
  0
CIRCLE
  5
15E
330
1F
100
AcDbEntity
  8
0
  6
Continuous
 62
     1
100
AcDbCircle
 10
352.435
 20
278.15
 30
0.0
 40
5.0
  0
CIRCLE
  5
15F
330
1F
100
AcDbEntity
  8
0
  6
Continuous
 62
     1
100
AcDbCircle
 10
352.435
 20
362.15
 30
0.0
 40
5.0
  0
ARC
  5
160
330
1F
100
AcDbEntity
  8
0
  6
Continuous
 62
     1
100
AcDbCircle
 10
341.735
 20
338.15
 30
0.0
 40
3.0
100
AcDbArc
 50
90.0
 51
180.0
  0
LINE
  5
161
330
1F
100
AcDbEntity
  8
0
  6
Continuous
 62
     1
100
AcDbLine
 10
338.735
 20
302.15
 30
0.0
 11
338.735
 21
338.15
 31
0.0
  0
ARC
  5
162
330
1F
100
AcDbEntity
  8
0
  6
Continuous
 62
     1
100
AcDbCircle
 10
341.735
 20
302.15
 30
0.0
 40
3.0
100
AcDbArc
 50
180.0
 51
270.0
  0
LINE
  5
163
330
1F
100
AcDbEntity
  8
0
  6
Continuous
 62
     1
100
AcDbLine
 10
369.735
 20
299.15
 30
0.0
 11
341.735
 21
299.15
 31
0.0
  0
LINE
  5
164
330
1F
100
AcDbEntity
  8
0
  6
Continuous
 62
     1
100
AcDbLine
 10
369.735
 20
341.15
 30
0.0
 11
341.735
 21
341.15
 31
0.0
  0
ARC
  5
165
330
1F
100
AcDbEntity
  8
0
  6
Continuous
 62
     1
100
AcDbCircle
 10
383.935
 20
305.15
 30
0.0
 40
2.0
100
AcDbArc
 50
270.0
 51
360.0
  0
ARC
  5
166
330
1F
100
AcDbEntity
  8
0
  6
Continuous
 62
     1
100
AcDbCircle
 10
383.935
 20
335.15
 30
0.0
 40
2.0
100
AcDbArc
 50
360.0
 51
90.0
  0
ARC
  5
167
330
1F
100
AcDbEntity
  8
0
  6
Continuous
 62
     1
100
AcDbCircle
 10
379.935
 20
273.15
 30
0.0
 40
3.0
100
AcDbArc
 50
270.0
 51
0.0
  0
LWPOLYLINE
  5
169
330
1F
100
AcDbEntity
  8
0
  6
Continuous
 62
     1
100
AcDbPolyline
 90
     3
 70
   128
 43
0.0
 10
418.935
 20
273.15
 42
0.414213562
 10
421.935
 20
270.15
 42
0.0
 10
453.935
 20
270.15
 42
0.0
  0
ARC
  5
16A
330
1F
100
AcDbEntity
  8
0
  6
Continuous
 62
     1
100
AcDbCircle
 10
408.935
 20
275.15
 30
0.0
 40
10.0
100
AcDbArc
 50
0.0
 51
90.0
  0
LINE
  5
16B
330
1F
100
AcDbEntity
  8
0
  6
Continuous
 62
     1
100
AcDbLine
 10
418.935
 20
273.15
 30
0.0
 11
418.935
 21
275.15
 31
0.0
  0
ARC
  5
16C
330
1F
100
AcDbEntity
  8
0
  6
Continuous
 62
     1
100
AcDbCircle
 10
392.935
 20
275.15
 30
0.0
 40
10.0
100
AcDbArc
 50
90.0
 51
180.0
  0
LINE
  5
16D
330
1F
100
AcDbEntity
  8
0
  6
Continuous
 62
     1
100
AcDbLine
 10
382.935
 20
273.15
 30
0.0
 11
382.935
 21
275.15
 31
0.0
  0
LINE
  5
16E
330
1F
100
AcDbEntity
  8
0
  6
Continuous
 62
     1
100
AcDbLine
 10
392.935
 20
285.15
 30
0.0
 11
408.935
 21
285.15
 31
0.0
  0
ARC
  5
16F
330
1F
100
AcDbEntity
  8
0
  6
Continuous
 62
     1
100
AcDbCircle
 10
379.935
 20
367.15
 30
0.0
 40
3.0
100
AcDbArc
 50
0.0
 51
90.0
  0
ARC
  5
170
330
1F
100
AcDbEntity
  8
0
  6
Continuous
 62
     1
100
AcDbCircle
 10
421.935
 20
367.15
 30
0.0
 40
3.0
100
AcDbArc
 50
90.0
 51
180.0
  0
ARC
  5
171
330
1F
100
AcDbEntity
  8
0
  6
Continuous
 62
     1
100
AcDbCircle
 10
408.935
 20
365.15
 30
0.0
 40
10.0
100
AcDbArc
 50
270.0
 51
0.0
  0
LINE
  5
172
330
1F
100
AcDbEntity
  8
0
  6
Continuous
 62
     1
100
AcDbLine
 10
392.935
 20
355.15
 30
0.0
 11
408.935
 21
355.15
 31
0.0
  0
ARC
  5
173
330
1F
100
AcDbEntity
  8
0
  6
Continuous
 62
     1
100
AcDbCircle
 10
392.935
 20
365.15
 30
0.0
 40
10.0
100
AcDbArc
 50
180.0
 51
270.0
  0
LINE
  5
174
330
1F
100
AcDbEntity
  8
0
  6
Continuous
 62
     1
100
AcDbLine
 10
382.935
 20
367.15
 30
0.0
 11
382.935
 21
365.15
 31
0.0
  0
LINE
  5
175
330
1F
100
AcDbEntity
  8
0
  6
Continuous
 62
     1
100
AcDbLine
 10
418.935
 20
367.15
 30
0.0
 11
418.935
 21
365.15
 31
0.0
  0
ARC
  5
176
330
1F
100
AcDbEntity
  8
0
  6
Continuous
 62
     1
100
AcDbCircle
 10
369.735
 20
338.15
 30
0.0
 40
3.0
100
AcDbArc
 50
11.536959033
 51
90.0
  0
LWPOLYLINE
  5
178
330
1F
100
AcDbEntity
  8
0
  6
Continuous
 62
     1
100
AcDbPolyline
 90
     3
 70
   128
 43
0.0
 10
372.674387691
 20
338.75
 42
0.356393579
 10
374.633976788
 20
337.15
 42
0.0
 10
383.935
 20
337.15
 42
0.0
  0
ARC
  5
179
330
1F
100
AcDbEntity
  8
0
  6
Continuous
 62
     1
100
AcDbCircle
 10
369.735
 20
302.15
 30
0.0
 40
3.0
100
AcDbArc
 50
270.0
 51
348.463141918
  0
ARC
  5
17A
330
1F
100
AcDbEntity
  8
0
  6
Continuous
 62
     1
100
AcDbCircle
 10
374.633979486
 20
301.15
 30
0.0
 40
2.0
100
AcDbArc
 50
90.000054642
 51
168.46288954
  0
LINE
  5
17B
330
1F
100
AcDbEntity
  8
0
  6
Continuous
 62
     1
100
AcDbLine
 10
374.633977578
 20
303.15
 30
0.0
 11
383.935
 21
303.15
 31
0.0
  0
LINE
  5
17C
330
1F
100
AcDbEntity
  8
0
  6
Continuous
 62
     1
100
AcDbLine
 10
385.935
 20
305.15
 30
0.0
 11
385.935
 21
307.750408627
 31
0.0
  0
ARC
  5
17D
330
1F
100
AcDbEntity
  8
0
  6
Continuous
 62
     1
100
AcDbCircle
 10
387.935
 20
307.750403232
 30
0.0
 40
2.0
100
AcDbArc
 50
117.66412304
 51
179.99984545
  0
ARC
  5
17E
330
1F
100
AcDbEntity
  8
0
  6
Continuous
 62
     1
100
AcDbCircle
 10
381.435
 20
320.15
 30
0.0
 40
12.0
100
AcDbArc
 50
297.663984739
 51
62.336015261
  0
ARC
  5
17F
330
1F
100
AcDbEntity
  8
0
  6
Continuous
 62
     1
100
AcDbCircle
 10
387.935
 20
332.549596768
 30
0.0
 40
2.0
100
AcDbArc
 50
179.99984545
 51
242.33587696
  0
LINE
  5
180
330
1F
100
AcDbEntity
  8
0
  6
Continuous
 62
     1
100
AcDbLine
 10
385.935
 20
332.549602162
 30
0.0
 11
385.935
 21
335.15
 31
0.0
  0
LINE
  5
181
330
1F
100
AcDbEntity
  8
0
  6
Continuous
 62
     1
100
AcDbLine
 10
291.935
 20
270.15
 30
0.0
 11
379.935
 21
270.15
 31
0.0
  0
LINE
  5
182
330
1F
100
AcDbEntity
  8
0
  6
Continuous
 62
     1
100
AcDbLine
 10
291.935
 20
370.15
 30
0.0
 11
379.935021579
 21
370.15
 31
0.0
  0
LINE
  5
183
330
1F
100
AcDbEntity
  8
0
  6
LTYPE2
 62
     2
100
AcDbLine
 10
291.935
 20
320.15
 30
0.0
 11
458.935
 21
320.15
 31
0.0
  0
LINE
  5
184
330
1F
100
AcDbEntity
  8
7
  6
Continuous
 62
     2
100
AcDbLine
 10
432.435
 20
329.65
 30
0.0
 11
471.935
 21
329.65
 31
0.0
  0
LINE
  5
185
330
1F
100
AcDbEntity
  8
7
  6
Continuous
 62
     2
100
AcDbLine
 10
468.935
 20
329.65
 30
0.0
 11
467.964428581
 21
326.027778151
 31
0.0
  0
LINE
  5
186
330
1F
100
AcDbEntity
  8
7
  6
Continuous
 62
     2
100
AcDbLine
 10
468.935
 20
329.65
 30
0.0
 11
469.905571419
 21
326.027778151
 31
0.0
  0
LWPOLYLINE
  5
188
330
1F
100
AcDbEntity
  8
7
  6
Continuous
 62
     2
100
AcDbPolyline
 90
     3
 70
   128
 43
0.0
 10
468.935
 20
329.65
 10
468.935
 20
310.65
 10
469.905571419
 20
314.272221849
  0
LINE
  5
189
330
1F
100
AcDbEntity
  8
7
  6
Continuous
 62
     2
100
AcDbLine
 10
468.935
 20
310.65
 30
0.0
 11
467.964428581
 21
314.272221849
 31
0.0
  0
LINE
  5
18A
330
1F
100
AcDbEntity
  8
7
  6
Continuous
 62
     2
100
AcDbLine
 10
432.435
 20
310.65
 30
0.0
 11
471.935
 21
310.65
 31
0.0
  0
TEXT
  5
18B
330
1F
100
AcDbEntity
  8
7
  6
Continuous
 62
     2
100
AcDbText
 10
467.435
 20
317.225
 30
0.0
 40
4.5
  1
１９
 50
90.0
 41
0.6
  7
KANJI0
 72
     5
 11
467.435
 21
323.075
 31
0.0
100
AcDbText
  0
LINE
  5
18C
330
1F
100
AcDbEntity
  8
7
  6
Continuous
 62
     2
100
AcDbLine
 10
402.435
 20
332.15
 30
0.0
 11
481.935
 21
332.15
 31
0.0
  0
LINE
  5
18D
330
1F
100
AcDbEntity
  8
7
  6
Continuous
 62
     2
100
AcDbLine
 10
478.935
 20
332.15
 30
0.0
 11
477.964428581
 21
328.527778151
 31
0.0
  0
LINE
  5
18E
330
1F
100
AcDbEntity
  8
7
  6
Continuous
 62
     2
100
AcDbLine
 10
478.935
 20
332.15
 30
0.0
 11
479.905571419
 21
328.527778151
 31
0.0
  0
LWPOLYLINE
  5
190
330
1F
100
AcDbEntity
  8
7
  6
Continuous
 62
     2
100
AcDbPolyline
 90
     3
 70
   128
 43
0.0
 10
478.935
 20
332.15
 10
478.935
 20
308.15
 10
479.905571419
 20
311.772221849
  0
LINE
  5
191
330
1F
100
AcDbEntity
  8
7
  6
Continuous
 62
     2
100
AcDbLine
 10
478.935
 20
308.15
 30
0.0
 11
477.964428581
 21
311.772221849
 31
0.0
  0
LINE
  5
192
330
1F
100
AcDbEntity
  8
7
  6
Continuous
 62
     2
100
AcDbLine
 10
402.435
 20
308.15
 30
0.0
 11
481.935
 21
308.15
 31
0.0
  0
TEXT
  5
193
330
1F
100
AcDbEntity
  8
7
  6
Continuous
 62
     2
100
AcDbText
 10
477.435
 20
317.225
 30
0.0
 40
4.5
  1
２４
 50
90.0
 41
0.6
  7
KANJI0
 72
     5
 11
477.435
 21
323.075
 31
0.0
100
AcDbText
  0
LINE
  5
194
330
1F
100
AcDbEntity
  8
7
  6
Continuous
 62
     2
100
AcDbLine
 10
385.435
 20
303.15
 30
0.0
 11
491.935
 21
303.15
 31
0.0
  0
LINE
  5
195
330
1F
100
AcDbEntity
  8
7
  6
Continuous
 62
     2
100
AcDbLine
 10
488.935
 20
303.15
 30
0.0
 11
489.905571419
 21
306.772221849
 31
0.0
  0
LINE
  5
196
330
1F
100
AcDbEntity
  8
7
  6
Continuous
 62
     2
100
AcDbLine
 10
488.935
 20
303.15
 30
0.0
 11
487.964428581
 21
306.772221849
 31
0.0
  0
LWPOLYLINE
  5
198
330
1F
100
AcDbEntity
  8
7
  6
Continuous
 62
     2
100
AcDbPolyline
 90
     3
 70
   128
 43
0.0
 10
488.935
 20
303.15
 10
488.935
 20
337.15
 10
487.964428581
 20
333.527778151
  0
LINE
  5
199
330
1F
100
AcDbEntity
  8
7
  6
Continuous
 62
     2
100
AcDbLine
 10
488.935
 20
337.15
 30
0.0
 11
489.905571419
 21
333.527778151
 31
0.0
  0
LINE
  5
19A
330
1F
100
AcDbEntity
  8
7
  6
Continuous
 62
     2
100
AcDbLine
 10
385.435
 20
337.15
 30
0.0
 11
491.935
 21
337.15
 31
0.0
  0
TEXT
  5
19B
330
1F
100
AcDbEntity
  8
7
  6
Continuous
 62
     2
100
AcDbText
 10
487.435
 20
317.225
 30
0.0
 40
4.5
  1
３４
 50
90.0
 41
0.6
  7
KANJI0
 72
     5
 11
487.435
 21
323.075
 31
0.0
100
AcDbText
  0
LINE
  5
19C
330
1F
100
AcDbEntity
  8
7
  6
Continuous
 62
     2
100
AcDbLine
 10
439.935
 20
350.15
 30
0.0
 11
501.935
 21
350.15
 31
0.0
  0
LINE
  5
19D
330
1F
100
AcDbEntity
  8
7
  6
Continuous
 62
     2
100
AcDbLine
 10
498.935
 20
350.15
 30
0.0
 11
497.964428581
 21
346.527778151
 31
0.0
  0
LINE
  5
19E
330
1F
100
AcDbEntity
  8
7
  6
Continuous
 62
     2
100
AcDbLine
 10
498.935
 20
350.15
 30
0.0
 11
499.905571419
 21
346.527778151
 31
0.0
  0
LWPOLYLINE
  5
1A0
330
1F
100
AcDbEntity
  8
7
  6
Continuous
 62
     2
100
AcDbPolyline
 90
     3
 70
   128
 43
0.0
 10
498.935
 20
350.15
 10
498.935
 20
290.15
 10
499.905571419
 20
293.772221849
  0
LINE
  5
1A1
330
1F
100
AcDbEntity
  8
7
  6
Continuous
 62
     2
100
AcDbLine
 10
498.935
 20
290.15
 30
0.0
 11
497.964428581
 21
293.772221849
 31
0.0
  0
LINE
  5
1A2
330
1F
100
AcDbEntity
  8
7
  6
Continuous
 62
     2
100
AcDbLine
 10
439.935
 20
290.15
 30
0.0
 11
501.935
 21
290.15
 31
0.0
  0
TEXT
  5
1A3
330
1F
100
AcDbEntity
  8
7
  6
Continuous
 62
     2
100
AcDbText
 10
497.435
 20
317.225
 30
0.0
 40
4.5
  1
６０
 50
90.0
 41
0.6
  7
KANJI0
 72
     5
 11
497.435
 21
323.075
 31
0.0
100
AcDbText
  0
LINE
  5
1A4
330
1F
100
AcDbEntity
  8
7
  6
Continuous
 62
     2
100
AcDbLine
 10
410.435
 20
285.15
 30
0.0
 11
511.935
 21
285.15
 31
0.0
  0
LINE
  5
1A5
330
1F
100
AcDbEntity
  8
7
  6
Continuous
 62
     2
100
AcDbLine
 10
508.935
 20
285.15
 30
0.0
 11
509.905571419
 21
288.772221849
 31
0.0
  0
LINE
  5
1A6
330
1F
100
AcDbEntity
  8
7
  6
Continuous
 62
     2
100
AcDbLine
 10
508.935
 20
285.15
 30
0.0
 11
507.964428581
 21
288.772221849
 31
0.0
  0
LWPOLYLINE
  5
1A8
330
1F
100
AcDbEntity
  8
7
  6
Continuous
 62
     2
100
AcDbPolyline
 90
     3
 70
   128
 43
0.0
 10
508.935
 20
285.15
 10
508.935
 20
355.15
 10
507.964428581
 20
351.527778151
  0
LINE
  5
1A9
330
1F
100
AcDbEntity
  8
7
  6
Continuous
 62
     2
100
AcDbLine
 10
508.935
 20
355.15
 30
0.0
 11
509.905571419
 21
351.527778151
 31
0.0
  0
LINE
  5
1AA
330
1F
100
AcDbEntity
  8
7
  6
Continuous
 62
     2
100
AcDbLine
 10
410.435
 20
355.15
 30
0.0
 11
511.935
 21
355.15
 31
0.0
  0
TEXT
  5
1AB
330
1F
100
AcDbEntity
  8
7
  6
Continuous
 62
     2
100
AcDbText
 10
507.435
 20
317.225
 30
0.0
 40
4.5
  1
７０
 50
90.0
 41
0.6
  7
KANJI0
 72
     5
 11
507.435
 21
323.075
 31
0.0
100
AcDbText
  0
LINE
  5
1AC
330
1F
100
AcDbEntity
  8
7
  6
Continuous
 62
     2
100
AcDbLine
 10
340.235
 20
341.15
 30
0.0
 11
278.935
 21
341.15
 31
0.0
  0
LINE
  5
1AD
330
1F
100
AcDbEntity
  8
7
  6
Continuous
 62
     2
100
AcDbLine
 10
281.935
 20
341.15
 30
0.0
 11
280.964428581
 21
337.527778151
 31
0.0
  0
LINE
  5
1AE
330
1F
100
AcDbEntity
  8
7
  6
Continuous
 62
     2
100
AcDbLine
 10
281.935
 20
341.15
 30
0.0
 11
282.905571419
 21
337.527778151
 31
0.0
  0
LWPOLYLINE
  5
1B0
330
1F
100
AcDbEntity
  8
7
  6
Continuous
 62
     2
100
AcDbPolyline
 90
     3
 70
   128
 43
0.0
 10
281.935
 20
341.15
 10
281.935
 20
299.15
 10
282.905571419
 20
302.772221849
  0
LINE
  5
1B1
330
1F
100
AcDbEntity
  8
7
  6
Continuous
 62
     2
100
AcDbLine
 10
281.935
 20
299.15
 30
0.0
 11
280.964428581
 21
302.772221849
 31
0.0
  0
LINE
  5
1B2
330
1F
100
AcDbEntity
  8
7
  6
Continuous
 62
     2
100
AcDbLine
 10
340.235
 20
299.15
 30
0.0
 11
278.935
 21
299.15
 31
0.0
  0
TEXT
  5
1B3
330
1F
100
AcDbEntity
  8
7
  6
Continuous
 62
     2
100
AcDbText
 10
280.435
 20
317.225
 30
0.0
 40
4.5
  1
４２
 50
90.0
 41
0.6
  7
KANJI0
 72
     5
 11
280.435
 21
323.075
 31
0.0
100
AcDbText
  0
LINE
  5
1B4
330
1F
100
AcDbEntity
  8
7
  6
Continuous
 62
     2
100
AcDbLine
 10
350.935
 20
362.15
 30
0.0
 11
270.115
 21
362.15
 31
0.0
  0
LINE
  5
1B5
330
1F
100
AcDbEntity
  8
7
  6
Continuous
 62
     2
100
AcDbLine
 10
273.115
 20
362.15
 30
0.0
 11
272.144428581
 21
358.527778151
 31
0.0
  0
LINE
  5
1B6
330
1F
100
AcDbEntity
  8
7
  6
Continuous
 62
     2
100
AcDbLine
 10
273.115
 20
362.15
 30
0.0
 11
274.085571419
 21
358.527778151
 31
0.0
  0
LWPOLYLINE
  5
1B8
330
1F
100
AcDbEntity
  8
7
  6
Continuous
 62
     2
100
AcDbPolyline
 90
     3
 70
   128
 43
0.0
 10
273.115
 20
362.15
 10
273.115
 20
278.15
 10
274.085571419
 20
281.772221849
  0
LINE
  5
1B9
330
1F
100
AcDbEntity
  8
7
  6
Continuous
 62
     2
100
AcDbLine
 10
273.115
 20
278.15
 30
0.0
 11
272.144428581
 21
281.772221849
 31
0.0
  0
LINE
  5
1BA
330
1F
100
AcDbEntity
  8
7
  6
Continuous
 62
     2
100
AcDbLine
 10
350.935
 20
278.15
 30
0.0
 11
270.115
 21
278.15
 31
0.0
  0
TEXT
  5
1BB
330
1F
100
AcDbEntity
  8
7
  6
Continuous
 62
     2
100
AcDbText
 10
271.615
 20
317.225
 30
0.0
 40
4.5
  1
８４
 50
90.0
 41
0.6
  7
KANJI0
 72
     5
 11
271.615
 21
323.075
 31
0.0
100
AcDbText
  0
LINE
  5
1BC
330
1F
100
AcDbEntity
  8
7
  6
Continuous
 62
     2
100
AcDbLine
 10
458.935
 20
273.65
 30
0.0
 11
458.935
 21
255.15
 31
0.0
  0
LINE
  5
1BD
330
1F
100
AcDbEntity
  8
7
  6
Continuous
 62
     2
100
AcDbLine
 10
458.935
 20
258.15
 30
0.0
 11
455.312778151
 21
259.120571419
 31
0.0
  0
LINE
  5
1BE
330
1F
100
AcDbEntity
  8
7
  6
Continuous
 62
     2
100
AcDbLine
 10
458.935
 20
258.15
 30
0.0
 11
455.312778151
 21
257.179428581
 31
0.0
  0
LWPOLYLINE
  5
1C0
330
1F
100
AcDbEntity
  8
7
  6
Continuous
 62
     2
100
AcDbPolyline
 90
     3
 70
   128
 43
0.0
 10
458.935
 20
258.15
 10
440.935
 20
258.15
 10
444.557221849
 20
257.179428581
  0
LINE
  5
1C1
330
1F
100
AcDbEntity
  8
7
  6
Continuous
 62
     2
100
AcDbLine
 10
440.935
 20
258.15
 30
0.0
 11
444.557221849
 21
259.120571419
 31
0.0
  0
LINE
  5
1C2
330
1F
100
AcDbEntity
  8
7
  6
Continuous
 62
     2
100
AcDbLine
 10
440.935
 20
318.65
 30
0.0
 11
440.935
 21
255.15
 31
0.0
  0
TEXT
  5
1C3
330
1F
100
AcDbEntity
  8
7
  6
Continuous
 62
     2
100
AcDbText
 10
447.01
 20
259.65
 30
0.0
 40
4.5
  1
１８
 41
0.6
  7
KANJI0
 72
     5
 11
452.86
 21
259.65
 31
0.0
100
AcDbText
  0
LINE
  5
1C4
330
1F
100
AcDbEntity
  8
7
  6
Continuous
 62
     2
100
AcDbLine
 10
440.935
 20
258.15
 30
0.0
 11
437.312778151
 21
259.120571419
 31
0.0
  0
LINE
  5
1C5
330
1F
100
AcDbEntity
  8
7
  6
Continuous
 62
     2
100
AcDbLine
 10
440.935
 20
258.15
 30
0.0
 11
437.312778151
 21
257.179428581
 31
0.0
  0
LWPOLYLINE
  5
1C7
330
1F
100
AcDbEntity
  8
7
  6
Continuous
 62
     2
100
AcDbPolyline
 90
     3
 70
   128
 43
0.0
 10
440.935
 20
258.15
 10
416.935
 20
258.15
 10
420.557221849
 20
257.179428581
  0
LINE
  5
1C8
330
1F
100
AcDbEntity
  8
7
  6
Continuous
 62
     2
100
AcDbLine
 10
416.935
 20
258.15
 30
0.0
 11
420.557221849
 21
259.120571419
 31
0.0
  0
LINE
  5
1C9
330
1F
100
AcDbEntity
  8
7
  6
Continuous
 62
     2
100
AcDbLine
 10
416.935
 20
318.65
 30
0.0
 11
416.935
 21
255.15
 31
0.0
  0
TEXT
  5
1CA
330
1F
100
AcDbEntity
  8
7
  6
Continuous
 62
     2
100
AcDbText
 10
426.01
 20
259.65
 30
0.0
 40
4.5
  1
２４
 41
0.6
  7
KANJI0
 72
     5
 11
431.86
 21
259.65
 31
0.0
100
AcDbText
  0
LINE
  5
1CB
330
1F
100
AcDbEntity
  8
7
  6
Continuous
 62
     2
100
AcDbLine
 10
416.935
 20
258.15
 30
0.0
 11
413.312778151
 21
259.120571419
 31
0.0
  0
LINE
  5
1CC
330
1F
100
AcDbEntity
  8
7
  6
Continuous
 62
     2
100
AcDbLine
 10
416.935
 20
258.15
 30
0.0
 11
413.312778151
 21
257.179428581
 31
0.0
  0
LWPOLYLINE
  5
1CE
330
1F
100
AcDbEntity
  8
7
  6
Continuous
 62
     2
100
AcDbPolyline
 90
     3
 70
   128
 43
0.0
 10
416.935
 20
258.15
 10
400.935
 20
258.15
 10
404.557221849
 20
257.179428581
  0
LINE
  5
1CF
330
1F
100
AcDbEntity
  8
7
  6
Continuous
 62
     2
100
AcDbLine
 10
400.935
 20
258.15
 30
0.0
 11
404.557221849
 21
259.120571419
 31
0.0
  0
LINE
  5
1D0
330
1F
100
AcDbEntity
  8
7
  6
Continuous
 62
     2
100
AcDbLine
 10
400.935
 20
306.65
 30
0.0
 11
400.935
 21
255.15
 31
0.0
  0
TEXT
  5
1D1
330
1F
100
AcDbEntity
  8
7
  6
Continuous
 62
     2
100
AcDbText
 10
406.01
 20
259.65
 30
0.0
 40
4.5
  1
１６
 41
0.6
  7
KANJI0
 72
     5
 11
411.86
 21
259.65
 31
0.0
100
AcDbText
  0
LINE
  5
1D2
330
1F
100
AcDbEntity
  8
7
  6
Continuous
 62
     2
100
AcDbLine
 10
458.935
 20
366.65
 30
0.0
 11
458.935
 21
383.15
 31
0.0
  0
LINE
  5
1D3
330
1F
100
AcDbEntity
  8
7
  6
Continuous
 62
     2
100
AcDbLine
 10
458.935
 20
380.15
 30
0.0
 11
455.312778151
 21
381.120571419
 31
0.0
  0
LINE
  5
1D4
330
1F
100
AcDbEntity
  8
7
  6
Continuous
 62
     2
100
AcDbLine
 10
458.935
 20
380.15
 30
0.0
 11
455.312778151
 21
379.179428581
 31
0.0
  0
LWPOLYLINE
  5
1D6
330
1F
100
AcDbEntity
  8
7
  6
Continuous
 62
     2
100
AcDbPolyline
 90
     3
 70
   128
 43
0.0
 10
458.935
 20
380.15
 10
438.435
 20
380.15
 10
442.057221849
 20
379.179428581
  0
LINE
  5
1D7
330
1F
100
AcDbEntity
  8
7
  6
Continuous
 62
     2
100
AcDbLine
 10
438.435
 20
380.15
 30
0.0
 11
442.057221849
 21
381.120571419
 31
0.0
  0
LINE
  5
1D8
330
1F
100
AcDbEntity
  8
7
  6
Continuous
 62
     2
100
AcDbLine
 10
438.435
 20
351.65
 30
0.0
 11
438.435
 21
383.15
 31
0.0
  0
TEXT
  5
1D9
330
1F
100
AcDbEntity
  8
7
  6
Continuous
 62
     2
100
AcDbText
 10
442.61
 20
381.65
 30
0.0
 40
4.5
  1
２０．５
 41
0.6
  7
KANJI0
 72
     5
 11
454.76
 21
381.65
 31
0.0
100
AcDbText
  0
LINE
  5
1DA
330
1F
100
AcDbEntity
  8
7
  6
Continuous
 62
     2
100
AcDbLine
 10
438.435
 20
380.15
 30
0.0
 11
434.812778151
 21
381.120571419
 31
0.0
  0
LINE
  5
1DB
330
1F
100
AcDbEntity
  8
7
  6
Continuous
 62
     2
100
AcDbLine
 10
438.435
 20
380.15
 30
0.0
 11
434.812778151
 21
379.179428581
 31
0.0
  0
LWPOLYLINE
  5
1DD
330
1F
100
AcDbEntity
  8
7
  6
Continuous
 62
     2
100
AcDbPolyline
 90
     3
 70
   128
 43
0.0
 10
438.435
 20
380.15
 10
430.935
 20
380.15
 10
434.557221849
 20
379.179428581
  0
LINE
  5
1DE
330
1F
100
AcDbEntity
  8
7
  6
Continuous
 62
     2
100
AcDbLine
 10
430.935
 20
380.15
 30
0.0
 11
434.557221849
 21
381.120571419
 31
0.0
  0
LINE
  5
1DF
330
1F
100
AcDbEntity
  8
7
  6
Continuous
 62
     2
100
AcDbLine
 10
430.935
 20
331.15
 30
0.0
 11
430.935
 21
383.15
 31
0.0
  0
LINE
  5
1E0
330
1F
100
AcDbEntity
  8
7
  6
Continuous
 62
     2
100
AcDbLine
 10
430.935
 20
380.15
 30
0.0
 11
427.312778151
 21
381.120571419
 31
0.0
  0
LINE
  5
1E1
330
1F
100
AcDbEntity
  8
7
  6
Continuous
 62
     2
100
AcDbLine
 10
430.935
 20
380.15
 30
0.0
 11
427.312778151
 21
379.179428581
 31
0.0
  0
LWPOLYLINE
  5
1E3
330
1F
100
AcDbEntity
  8
7
  6
Continuous
 62
     2
100
AcDbPolyline
 90
     3
 70
   128
 43
0.0
 10
430.935
 20
380.15
 10
419.435
 20
380.15
 10
423.057221849
 20
379.179428581
  0
LINE
  5
1E4
330
1F
100
AcDbEntity
  8
7
  6
Continuous
 62
     2
100
AcDbLine
 10
419.435
 20
380.15
 30
0.0
 11
423.057221849
 21
381.120571419
 31
0.0
  0
LINE
  5
1E5
330
1F
100
AcDbEntity
  8
7
  6
Continuous
 62
     2
100
AcDbLine
 10
419.435
 20
351.65
 30
0.0
 11
419.435
 21
383.15
 31
0.0
  0
TEXT
  5
1E6
330
1F
100
AcDbEntity
  8
7
  6
Continuous
 62
     2
100
AcDbText
 10
430.685
 20
381.65
 30
0.0
 40
4.5
  1
７．５
 41
0.5
  7
KANJI9
 72
     5
 11
438.335
 21
381.65
 31
0.0
100
AcDbText
  0
TEXT
  5
1E8
330
1F
100
AcDbEntity
  8
7
  6
Continuous
 62
     2
100
AcDbText
 10
419.61
 20
381.65
 30
0.0
 40
4.5
  1
１１．５
 41
0.5
  7
KANJI9
 72
     5
 11
429.96
 21
381.65
 31
0.0
100
AcDbText
  0
LINE
  5
1E9
330
1F
100
AcDbEntity
  8
7
  6
Continuous
 62
     2
100
AcDbLine
 10
458.935
 20
381.65
 30
0.0
 11
458.935
 21
393.15
 31
0.0
  0
LINE
  5
1EA
330
1F
100
AcDbEntity
  8
7
  6
Continuous
 62
     2
100
AcDbLine
 10
458.935
 20
390.15
 30
0.0
 11
455.312778151
 21
391.120571419
 31
0.0
  0
LINE
  5
1EB
330
1F
100
AcDbEntity
  8
7
  6
Continuous
 62
     2
100
AcDbLine
 10
458.935
 20
390.15
 30
0.0
 11
455.312778151
 21
389.179428581
 31
0.0
  0
LWPOLYLINE
  5
1ED
330
1F
100
AcDbEntity
  8
7
  6
Continuous
 62
     2
100
AcDbPolyline
 90
     3
 70
   128
 43
0.0
 10
458.935
 20
390.15
 10
418.935
 20
390.15
 10
422.557221849
 20
389.179428581
  0
LINE
  5
1EE
330
1F
100
AcDbEntity
  8
7
  6
Continuous
 62
     2
100
AcDbLine
 10
418.935
 20
390.15
 30
0.0
 11
422.557221849
 21
391.120571419
 31
0.0
  0
LINE
  5
1EF
330
1F
100
AcDbEntity
  8
7
  6
Continuous
 62
     2
100
AcDbLine
 10
418.935
 20
368.65
 30
0.0
 11
418.935
 21
393.15
 31
0.0
  0
TEXT
  5
1F0
330
1F
100
AcDbEntity
  8
7
  6
Continuous
 62
     2
100
AcDbText
 10
436.01
 20
391.65
 30
0.0
 40
4.5
  1
４０
 41
0.6
  7
KANJI0
 72
     5
 11
441.86
 21
391.65
 31
0.0
100
AcDbText
  0
LINE
  5
1F1
330
1F
100
AcDbEntity
  8
7
  6
Continuous
 62
     2
100
AcDbLine
 10
418.935
 20
390.15
 30
0.0
 11
415.312778151
 21
391.120571419
 31
0.0
  0
LINE
  5
1F2
330
1F
100
AcDbEntity
  8
7
  6
Continuous
 62
     2
100
AcDbLine
 10
418.935
 20
390.15
 30
0.0
 11
415.312778151
 21
389.179428581
 31
0.0
  0
LWPOLYLINE
  5
1F4
330
1F
100
AcDbEntity
  8
7
  6
Continuous
 62
     2
100
AcDbPolyline
 90
     3
 70
   128
 43
0.0
 10
418.935
 20
390.15
 10
382.935
 20
390.15
 10
386.557221849
 20
389.179428581
  0
LINE
  5
1F5
330
1F
100
AcDbEntity
  8
7
  6
Continuous
 62
     2
100
AcDbLine
 10
382.935
 20
390.15
 30
0.0
 11
386.557221849
 21
391.120571419
 31
0.0
  0
LINE
  5
1F6
330
1F
100
AcDbEntity
  8
7
  6
Continuous
 62
     2
100
AcDbLine
 10
382.935
 20
368.65
 30
0.0
 11
382.935
 21
393.15
 31
0.0
  0
TEXT
  5
1F7
330
1F
100
AcDbEntity
  8
7
  6
Continuous
 62
     2
100
AcDbText
 10
398.01
 20
391.65
 30
0.0
 40
4.5
  1
３６
 41
0.6
  7
KANJI0
 72
     5
 11
403.86
 21
391.65
 31
0.0
100
AcDbText
  0
LINE
  5
1F8
330
1F
100
AcDbEntity
  8
7
  6
Continuous
 62
     2
100
AcDbLine
 10
382.935
 20
390.15
 30
0.0
 11
379.312778151
 21
391.120571419
 31
0.0
  0
LINE
  5
1F9
330
1F
100
AcDbEntity
  8
7
  6
Continuous
 62
     2
100
AcDbLine
 10
382.935
 20
390.15
 30
0.0
 11
379.312778151
 21
389.179428581
 31
0.0
  0
LWPOLYLINE
  5
1FB
330
1F
100
AcDbEntity
  8
7
  6
Continuous
 62
     2
100
AcDbPolyline
 90
     3
 70
   128
 43
0.0
 10
382.935
 20
390.15
 10
352.435
 20
390.15
 10
356.057221849
 20
389.179428581
  0
LINE
  5
1FC
330
1F
100
AcDbEntity
  8
7
  6
Continuous
 62
     2
100
AcDbLine
 10
352.435
 20
390.15
 30
0.0
 11
356.057221849
 21
391.120571419
 31
0.0
  0
LINE
  5
1FD
330
1F
100
AcDbEntity
  8
7
  6
Continuous
 62
     2
100
AcDbLine
 10
352.435
 20
363.65
 30
0.0
 11
352.435
 21
393.15
 31
0.0
  0
TEXT
  5
1FE
330
1F
100
AcDbEntity
  8
7
  6
Continuous
 62
     2
100
AcDbText
 10
361.61
 20
391.65
 30
0.0
 40
4.5
  1
３０．５
 41
0.6
  7
KANJI0
 72
     5
 11
373.76
 21
391.65
 31
0.0
100
AcDbText
  0
LINE
  5
1FF
330
1F
100
AcDbEntity
  8
7
  6
Continuous
 62
     2
100
AcDbLine
 10
400.935
 20
258.15
 30
0.0
 11
397.312778151
 21
259.120571419
 31
0.0
  0
LINE
  5
200
330
1F
100
AcDbEntity
  8
7
  6
Continuous
 62
     2
100
AcDbLine
 10
400.935
 20
258.15
 30
0.0
 11
397.312778151
 21
257.179428581
 31
0.0
  0
LWPOLYLINE
  5
202
330
1F
100
AcDbEntity
  8
7
  6
Continuous
 62
     2
100
AcDbPolyline
 90
     3
 70
   128
 43
0.0
 10
400.935
 20
258.15
 10
393.435
 20
258.15
 10
397.057221849
 20
257.179428581
  0
LINE
  5
203
330
1F
100
AcDbEntity
  8
7
  6
Continuous
 62
     2
100
AcDbLine
 10
393.435
 20
258.15
 30
0.0
 11
397.057221849
 21
259.120571419
 31
0.0
  0
LINE
  5
204
330
1F
100
AcDbEntity
  8
7
  6
Continuous
 62
     2
100
AcDbLine
 10
393.435
 20
318.65
 30
0.0
 11
393.435
 21
255.15
 31
0.0
  0
TEXT
  5
205
330
1F
100
AcDbEntity
  8
7
  6
Continuous
 62
     2
100
AcDbText
 10
393.185
 20
259.65
 30
0.0
 40
4.5
  1
７．５
 41
0.5
  7
KANJI9
 72
     5
 11
400.835
 21
259.65
 31
0.0
100
AcDbText
  0
LINE
  5
206
330
1F
100
AcDbEntity
  8
7
  6
Continuous
 62
     2
100
AcDbLine
 10
393.435
 20
258.15
 30
0.0
 11
389.812778151
 21
259.120571419
 31
0.0
  0
LINE
  5
207
330
1F
100
AcDbEntity
  8
7
  6
Continuous
 62
     2
100
AcDbLine
 10
393.435
 20
258.15
 30
0.0
 11
389.812778151
 21
257.179428581
 31
0.0
  0
LWPOLYLINE
  5
209
330
1F
100
AcDbEntity
  8
7
  6
Continuous
 62
     2
100
AcDbPolyline
 90
     3
 70
   128
 43
0.0
 10
393.435
 20
258.15
 10
385.935
 20
258.15
 10
389.557221849
 20
257.179428581
  0
LINE
  5
20A
330
1F
100
AcDbEntity
  8
7
  6
Continuous
 62
     2
100
AcDbLine
 10
385.935
 20
258.15
 30
0.0
 11
389.557221849
 21
259.120571419
 31
0.0
  0
LINE
  5
20B
330
1F
100
AcDbEntity
  8
7
  6
Continuous
 62
     2
100
AcDbLine
 10
385.935
 20
303.65
 30
0.0
 11
385.935
 21
255.15
 31
0.0
  0
TEXT
  5
20C
330
1F
100
AcDbEntity
  8
7
  6
Continuous
 62
     2
100
AcDbText
 10
385.685
 20
259.65
 30
0.0
 40
4.5
  1
７．５
 41
0.5
  7
KANJI9
 72
     5
 11
393.335
 21
259.65
 31
0.0
100
AcDbText
  0
LINE
  5
20D
330
1F
100
AcDbEntity
  8
7
  6
Continuous
 62
     2
100
AcDbLine
 10
385.935
 20
258.15
 30
0.0
 11
382.312778151
 21
259.120571419
 31
0.0
  0
LINE
  5
20E
330
1F
100
AcDbEntity
  8
7
  6
Continuous
 62
     2
100
AcDbLine
 10
385.935
 20
258.15
 30
0.0
 11
382.312778151
 21
257.179428581
 31
0.0
  0
LWPOLYLINE
  5
210
330
1F
100
AcDbEntity
  8
7
  6
Continuous
 62
     2
100
AcDbPolyline
 90
     3
 70
   128
 43
0.0
 10
385.935
 20
258.15
 10
369.735
 20
258.15
 10
373.357221849
 20
257.179428581
  0
LINE
  5
211
330
1F
100
AcDbEntity
  8
7
  6
Continuous
 62
     2
100
AcDbLine
 10
369.735
 20
258.15
 30
0.0
 11
373.357221849
 21
259.120571419
 31
0.0
  0
LINE
  5
212
330
1F
100
AcDbEntity
  8
7
  6
Continuous
 62
     2
100
AcDbLine
 10
369.735
 20
300.65
 30
0.0
 11
369.735
 21
255.15
 31
0.0
  0
TEXT
  5
213
330
1F
100
AcDbEntity
  8
7
  6
Continuous
 62
     2
100
AcDbText
 10
371.76
 20
259.65
 30
0.0
 40
4.5
  1
１６．２
 41
0.6
  7
KANJI0
 72
     5
 11
383.91
 21
259.65
 31
0.0
100
AcDbText
  0
LINE
  5
214
330
1F
100
AcDbEntity
  8
7
  6
Continuous
 62
     2
100
AcDbLine
 10
369.735
 20
258.15
 30
0.0
 11
366.112778151
 21
259.120571419
 31
0.0
  0
LINE
  5
215
330
1F
100
AcDbEntity
  8
7
  6
Continuous
 62
     2
100
AcDbLine
 10
369.735
 20
258.15
 30
0.0
 11
366.112778151
 21
257.179428581
 31
0.0
  0
LWPOLYLINE
  5
217
330
1F
100
AcDbEntity
  8
7
  6
Continuous
 62
     2
100
AcDbPolyline
 90
     3
 70
   128
 43
0.0
 10
369.735
 20
258.15
 10
338.735
 20
258.15
 10
342.357221849
 20
257.179428581
  0
LINE
  5
218
330
1F
100
AcDbEntity
  8
7
  6
Continuous
 62
     2
100
AcDbLine
 10
338.735
 20
258.15
 30
0.0
 11
342.357221849
 21
259.120571419
 31
0.0
  0
LINE
  5
219
330
1F
100
AcDbEntity
  8
7
  6
Continuous
 62
     2
100
AcDbLine
 10
338.735
 20
300.65
 30
0.0
 11
338.735
 21
255.15
 31
0.0
  0
TEXT
  5
21A
330
1F
100
AcDbEntity
  8
7
  6
Continuous
 62
     2
100
AcDbText
 10
351.31
 20
259.65
 30
0.0
 40
4.5
  1
３１
 41
0.6
  7
KANJI0
 72
     5
 11
357.16
 21
259.65
 31
0.0
100
AcDbText
  0
LINE
  5
21B
330
1F
100
AcDbEntity
  8
7
  6
Continuous
 62
     2
100
AcDbLine
 10
457.921320146
 20
272.13184631
 30
0.0
 11
460.223320589
 21
269.171560182
 31
0.0
  0
LINE
  5
21C
330
1F
100
AcDbEntity
  8
7
  6
Continuous
 62
     2
100
AcDbLine
 10
457.921320146
 20
272.13184631
 30
0.0
 11
461.395054073
 21
270.719163543
 31
0.0
  0
LINE
  5
21D
330
1F
100
AcDbEntity
  8
7
  6
Continuous
 62
     2
100
AcDbLine
 10
453.935
 20
275.15
 30
0.0
 11
468.06899457
 21
264.448760183
 31
0.0
  0
TEXT
  5
21E
330
1F
100
AcDbEntity
  8
7
  6
Continuous
 62
     2
100
AcDbText
 10
464.310446107
 20
269.175896044
 30
0.0
 40
4.5
  1
Ｒ５
 50
322.869624936
 41
0.6
  7
KANJI0
 72
     5
 11
468.974440677
 21
265.644656226
 31
0.0
100
AcDbText
  0
LINE
  5
21F
330
1F
100
AcDbEntity
  8
7
  6
Continuous
 62
     2
100
AcDbLine
 10
415.390727258
 20
282.786987991
 30
0.0
 11
412.311095399
 21
280.647275952
 31
0.0
  0
LINE
  5
220
330
1F
100
AcDbEntity
  8
7
  6
Continuous
 62
     2
100
AcDbLine
 10
415.390727258
 20
282.786987991
 30
0.0
 11
413.793543853
 21
279.394127078
 31
0.0
  0
LINE
  5
221
330
1F
100
AcDbEntity
  8
7
  6
Continuous
 62
     2
100
AcDbLine
 10
415.390727258
 20
282.786987991
 30
0.0
 11
408.935
 21
275.15
 31
0.0
  0
TEXT
  5
222
330
1F
100
AcDbEntity
  8
7
  6
Continuous
 62
     2
100
AcDbText
 10
406.679297269
 20
274.805069897
 30
0.0
 40
4.5
  1
Ｒ１０
 50
49.791369925
 41
0.6
  7
KANJI0
 72
     5
 11
412.489451801
 21
281.678359089
 31
0.0
100
AcDbText
  0
LINE
  5
223
330
1F
100
AcDbEntity
  8
7
  6
Continuous
 62
     2
100
AcDbLine
 10
382.799160868
 20
272.257485282
 30
0.0
 11
385.968619801
 21
270.253232285
 31
0.0
  0
LINE
  5
224
330
1F
100
AcDbEntity
  8
7
  6
Continuous
 62
     2
100
AcDbLine
 10
382.799160868
 20
272.257485282
 30
0.0
 11
386.546119318
 21
272.106480737
 31
0.0
  0
LINE
  5
225
330
1F
100
AcDbEntity
  8
7
  6
Continuous
 62
     2
100
AcDbLine
 10
379.935
 20
273.15
 30
0.0
 11
392.580113693
 21
269.2095963
 31
0.0
  0
TEXT
  5
226
330
1F
100
AcDbEntity
  8
7
  6
Continuous
 62
     2
100
AcDbText
 10
387.441257359
 20
272.382080434
 30
0.0
 40
4.5
  1
Ｒ３
 50
342.692196538
 41
0.6
  7
KANJI0
 72
     5
 11
393.026371052
 21
270.641676734
 31
0.0
100
AcDbText
  0
LINE
  5
227
330
1F
100
AcDbEntity
  8
7
  6
Continuous
 62
     2
100
AcDbLine
 10
393.01702274
 20
323.289546027
 30
0.0
 11
389.267038618
 21
323.278633363
 31
0.0
  0
LINE
  5
228
330
1F
100
AcDbEntity
  8
7
  6
Continuous
 62
     2
100
AcDbLine
 10
393.01702274
 20
323.289546027
 30
0.0
 11
389.774897558
 21
321.405103322
 31
0.0
  0
LINE
  5
229
330
1F
100
AcDbEntity
  8
7
  6
Continuous
 62
     2
100
AcDbLine
 10
393.01702274
 20
323.289546027
 30
0.0
 11
381.435
 21
320.15
 31
0.0
  0
TEXT
  5
22A
330
1F
100
AcDbEntity
  8
7
  6
Continuous
 62
     2
100
AcDbText
 10
381.136039692
 20
321.623093322
 30
0.0
 40
4.5
  1
Ｒ１２
 50
15.16673346
 41
0.6
  7
KANJI0
 72
     5
 11
389.822556747
 21
323.977752843
 31
0.0
100
AcDbText
  0
LINE
  5
22B
330
1F
100
AcDbEntity
  8
7
  6
Continuous
 62
     2
100
AcDbLine
 10
339.6495932
 20
299.993364083
 30
0.0
 11
336.433934781
 21
298.064104917
 31
0.0
  0
LINE
  5
22C
330
1F
100
AcDbEntity
  8
7
  6
Continuous
 62
     2
100
AcDbLine
 10
339.6495932
 20
299.993364083
 30
0.0
 11
337.829380902
 21
296.714747425
 31
0.0
  0
LINE
  5
22D
330
1F
100
AcDbEntity
  8
7
  6
Continuous
 62
     2
100
AcDbLine
 10
341.735
 20
302.15
 30
0.0
 11
331.420495357
 21
291.483193326
 31
0.0
  0
TEXT
  5
22E
330
1F
100
AcDbEntity
  8
7
  6
Continuous
 62
     2
100
AcDbText
 10
330.342177399
 20
292.525896726
 30
0.0
 40
4.5
  1
Ｒ３
 50
45.961976231
 41
0.6
  7
KANJI0
 72
     5
 11
334.408720659
 21
296.731336764
 31
0.0
100
AcDbText
  0
LINE
  5
22F
330
1F
100
AcDbEntity
  8
7
  6
Continuous
 62
     2
100
AcDbLine
 10
371.627058316
 20
299.821885886
 30
0.0
 11
373.158342967
 21
296.398778041
 31
0.0
  0
LINE
  5
230
330
1F
100
AcDbEntity
  8
7
  6
Continuous
 62
     2
100
AcDbLine
 10
371.627058316
 20
299.821885886
 30
0.0
 11
374.664743647
 21
297.623029858
 31
0.0
  0
LINE
  5
231
330
1F
100
AcDbEntity
  8
7
  6
Continuous
 62
     2
100
AcDbLine
 10
369.735
 20
302.15
 30
0.0
 11
377.196552335
 21
292.968810841
 31
0.0
  0
TEXT
  5
232
330
1F
100
AcDbEntity
  8
7
  6
Continuous
 62
     2
100
AcDbText
 10
374.671095675
 20
298.454662522
 30
0.0
 40
4.5
  1
Ｒ３
 50
309.100760312
 41
0.6
  7
KANJI0
 72
     5
 11
378.360609392
 21
293.91484
 31
0.0
100
AcDbText
  0
LINE
  5
233
330
1F
100
AcDbEntity
  8
7
  6
Continuous
 62
     2
100
AcDbLine
 10
373.395884873
 20
302.720707399
 30
0.0
 11
371.915800051
 21
306.166262349
 31
0.0
  0
LINE
  5
234
330
1F
100
AcDbEntity
  8
7
  6
Continuous
 62
     2
100
AcDbLine
 10
373.395884873
 20
302.720707399
 30
0.0
 11
370.391316342
 21
304.964603104
 31
0.0
  0
LINE
  5
235
330
1F
100
AcDbEntity
  8
7
  6
Continuous
 62
     2
100
AcDbLine
 10
374.633979486
 20
301.15
 30
0.0
 11
368.065611878
 21
309.482952504
 31
0.0
  0
TEXT
  5
236
330
1F
100
AcDbEntity
  8
7
  6
Continuous
 62
     2
100
AcDbText
 10
369.243642426
 20
310.411523463
 30
0.0
 40
4.5
  1
Ｒ２
 50
308.246597043
 41
0.6
  7
KANJI0
 72
     5
 11
372.865069167
 21
305.817204322
 31
0.0
100
AcDbText
  0
LINE
  5
237
330
1F
100
AcDbEntity
  8
7
  6
Continuous
 62
     2
100
AcDbLine
 10
384.804247518
 20
303.348775763
 30
0.0
 11
385.50444281
 21
299.664725471
 31
0.0
  0
LINE
  5
238
330
1F
100
AcDbEntity
  8
7
  6
Continuous
 62
     2
100
AcDbLine
 10
384.804247518
 20
303.348775763
 30
0.0
 11
387.252659575
 21
300.508392268
 31
0.0
  0
LINE
  5
239
330
1F
100
AcDbEntity
  8
7
  6
Continuous
 62
     2
100
AcDbLine
 10
383.935
 20
305.15
 30
0.0
 11
389.387548989
 21
293.851419106
 31
0.0
  0
TEXT
  5
23A
330
1F
100
AcDbEntity
  8
7
  6
Continuous
 62
     2
100
AcDbText
 10
388.195918178
 20
299.771935638
 30
0.0
 40
4.5
  1
Ｒ２
 50
295.761355483
 41
0.6
  7
KANJI0
 72
     5
 11
390.738467167
 21
294.503354744
 31
0.0
100
AcDbText
  0
LINE
  5
23B
330
1F
100
AcDbEntity
  8
7
  6
Continuous
 62
     2
100
AcDbLine
 10
386.160004113
 20
308.672026584
 30
0.0
 11
383.392540314
 21
311.202568842
 31
0.0
  0
LINE
  5
23C
330
1F
100
AcDbEntity
  8
7
  6
Continuous
 62
     2
100
AcDbLine
 10
386.160004113
 20
308.672026584
 30
0.0
 11
382.49803903
 21
309.479808565
 31
0.0
  0
LINE
  5
23D
330
1F
100
AcDbEntity
  8
7
  6
Continuous
 62
     2
100
AcDbLine
 10
387.935
 20
307.750403232
 30
0.0
 11
379.123137031
 21
312.325748302
 31
0.0
  0
TEXT
  5
23E
330
1F
100
AcDbEntity
  8
7
  6
Continuous
 62
     2
100
AcDbText
 10
379.814354544
 20
313.656995218
 30
0.0
 40
4.5
  1
Ｒ２
 50
332.560504142
 41
0.6
  7
KANJI0
 72
     5
 11
385.006217513
 21
310.961246915
 31
0.0
100
AcDbText
  0
LINE
  5
23F
330
1F
100
AcDbEntity
  8
7
  6
Continuous
 62
     2
100
AcDbLine
 10
444.785
 20
323.64
 30
0.0
 11
447.859897183
 21
325.786510498
 31
0.0
  0
LINE
  5
240
330
1F
100
AcDbEntity
  8
7
  6
Continuous
 62
     2
100
AcDbLine
 10
444.785
 20
323.64
 30
0.0
 11
446.374683826
 21
327.036381212
 31
0.0
  0
LWPOLYLINE
  5
242
330
1F
100
AcDbEntity
  8
7
  6
Continuous
 62
     2
100
AcDbPolyline
 90
     3
 70
   128
 43
0.0
 10
444.785
 20
323.64
 10
477.075
 20
362.01
 10
489.825
 20
362.01
  0
TEXT
  5
243
330
1F
100
AcDbEntity
  8
7
  6
Continuous
 62
     2
100
AcDbText
 10
477.075
 20
363.51
 30
0.0
 40
4.5
  1
4-φ8.2
 41
0.666666667
  7
KANJI1
 72
     5
 11
489.825
 21
363.51
 31
0.0
100
AcDbText
  0
LINE
  5
244
330
1F
100
AcDbEntity
  8
7
  6
Continuous
 62
     2
100
AcDbLine
 10
439.865
 20
351.78
 30
0.0
 11
443.174086307
 21
353.544213086
 31
0.0
  0
LINE
  5
245
330
1F
100
AcDbEntity
  8
7
  6
Continuous
 62
     2
100
AcDbLine
 10
439.865
 20
351.78
 30
0.0
 11
441.848646262
 21
354.962396504
 31
0.0
  0
LWPOLYLINE
  5
247
330
1F
100
AcDbEntity
  8
7
  6
Continuous
 62
     2
100
AcDbPolyline
 90
     3
 70
   128
 43
0.0
 10
439.865
 20
351.78
 10
473.965
 20
383.65
 10
491.665
 20
383.65
  0
TEXT
  5
248
330
1F
100
AcDbEntity
  8
7
  6
Continuous
 62
     2
100
AcDbText
 10
473.965
 20
385.15
 30
0.0
 40
4.5
  1
6-M3タップ
 41
0.666666667
  7
KANJI1
 72
     5
 11
491.665
 21
385.15
 31
0.0
100
AcDbText
  0
LINE
  5
249
330
1F
100
AcDbEntity
  8
7
  6
Continuous
 62
     2
100
AcDbLine
 10
356.235
 20
357.08
 30
0.0
 11
357.709888811
 21
353.63221767
 31
0.0
  0
LINE
  5
24A
330
1F
100
AcDbEntity
  8
7
  6
Continuous
 62
     2
100
AcDbLine
 10
356.235
 20
357.08
 30
0.0
 11
359.236182343
 21
354.831577321
 31
0.0
  0
LWPOLYLINE
  5
24C
330
1F
100
AcDbEntity
  8
7
  6
Continuous
 62
     2
100
AcDbPolyline
 90
     3
 70
   128
 43
0.0
 10
356.235
 20
357.08
 10
362.875
 20
348.63
 10
373.675
 20
348.63
  0
TEXT
  5
24D
330
1F
100
AcDbEntity
  8
7
  6
Continuous
 62
     2
100
AcDbText
 10
362.875
 20
350.13
 30
0.0
 40
4.5
  1
2-φ10
 41
0.666666667
  7
KANJI1
 72
     5
 11
373.675
 21
350.13
 31
0.0
100
AcDbText
  0
LINE
  5
24E
330
1F
100
AcDbEntity
  8
0
  6
Continuous
 62
     1
100
AcDbLine
 10
215.904621604
 20
98.768864811
 30
0.0
 11
239.765
 21
170.35
 31
0.0
  0
ARC
  5
24F
330
1F
100
AcDbEntity
  8
0
  6
Continuous
 62
     1
100
AcDbCircle
 10
211.1612039
 20
100.35
 30
0.0
 40
5.0
100
AcDbArc
 50
270.0
 51
341.565051177
  0
LINE
  5
250
330
1F
100
AcDbEntity
  8
0
  6
Continuous
 62
     1
100
AcDbLine
 10
163.625378801
 20
98.768863598
 30
0.0
 11
139.765
 21
170.35
 31
0.0
  0
LINE
  5
251
330
1F
100
AcDbEntity
  8
0
  6
Continuous
 62
     1
100
AcDbLine
 10
211.161207714
 20
95.35
 30
0.0
 11
168.368798008
 21
95.35
 31
0.0
  0
ARC
  5
252
330
1F
100
AcDbEntity
  8
0
  6
Continuous
 62
     1
100
AcDbCircle
 10
168.3687961
 20
100.35
 30
0.0
 40
5.0
100
AcDbArc
 50
198.434948823
 51
270.0
  0
LINE
  5
254
330
1F
100
AcDbEntity
  8
0
  6
LTYPE3
 62
     2
100
AcDbLine
 10
164.765
 20
95.35
 30
0.0
 11
163.625378801
 21
98.768863598
 31
0.0
  0
LINE
  5
255
330
1F
100
AcDbEntity
  8
0
  6
LTYPE3
 62
     2
100
AcDbLine
 10
168.368798008
 20
95.35
 30
0.0
 11
164.765
 21
95.35
 31
0.0
  0
LINE
  5
256
330
1F
100
AcDbEntity
  8
0
  6
LTYPE3
 62
     2
100
AcDbLine
 10
214.765
 20
95.35
 30
0.0
 11
215.904621604
 21
98.768864811
 31
0.0
  0
LINE
  5
257
330
1F
100
AcDbEntity
  8
7
  6
Continuous
 62
     2
100
AcDbLine
 10
215.275
 20
95.35
 30
0.0
 11
252.765
 21
95.35
 31
0.0
  0
LINE
  5
258
330
1F
100
AcDbEntity
  8
0
  6
LTYPE3
 62
     2
100
AcDbLine
 10
214.765
 20
95.35
 30
0.0
 11
211.161207714
 21
95.35
 31
0.0
  0
LINE
  5
259
330
1F
100
AcDbEntity
  8
7
  6
Continuous
 62
     2
100
AcDbLine
 10
181.195
 20
108.43
 30
0.0
 11
177.447507368
 21
108.29289066
 31
0.0
  0
LINE
  5
25A
330
1F
100
AcDbEntity
  8
7
  6
Continuous
 62
     2
100
AcDbLine
 10
181.195
 20
108.43
 30
0.0
 11
178.01813085
 21
106.437513512
 31
0.0
  0
LINE
  5
25B
330
1F
100
AcDbEntity
  8
7
  6
Continuous
 62
     2
100
AcDbLine
 10
181.195
 20
108.43
 30
0.0
 11
148.485
 21
98.37
 31
0.0
  0
LINE
  5
25C
330
1F
100
AcDbEntity
  8
7
  6
Continuous
 62
     2
100
AcDbLine
 10
148.485
 20
98.37
 30
0.0
 11
123.885
 21
98.37
 31
0.0
  0
TEXT
  5
25D
330
1F
100
AcDbEntity
  8
7
  6
Continuous
 62
     2
100
AcDbText
 10
123.885
 20
99.87
 30
0.0
 40
4.5
  1
2-M6溶接ナット
 41
0.666666667
  7
KANJI1
 72
     5
 11
148.485
 21
99.87
 31
0.0
100
AcDbText
  0
LINE
  5
25E
330
1F
100
AcDbEntity
  8
7
  6
Continuous
 62
     2
100
AcDbLine
 10
251.265
 20
95.35
 30
0.0
 11
262.765
 21
95.35
 31
0.0
  0
LINE
  5
25F
330
1F
100
AcDbEntity
  8
7
  6
Continuous
 62
     2
100
AcDbLine
 10
259.765
 20
95.35
 30
0.0
 11
260.735571419
 21
98.972221849
 31
0.0
  0
LINE
  5
260
330
1F
100
AcDbEntity
  8
7
  6
Continuous
 62
     2
100
AcDbLine
 10
259.765
 20
95.35
 30
0.0
 11
258.794428581
 21
98.972221849
 31
0.0
  0
LWPOLYLINE
  5
262
330
1F
100
AcDbEntity
  8
7
  6
Continuous
 62
     2
100
AcDbPolyline
 90
     3
 70
   128
 43
0.0
 10
259.765
 20
95.35
 10
259.765
 20
170.35
 10
258.794428581
 20
166.727778151
  0
LINE
  5
263
330
1F
100
AcDbEntity
  8
7
  6
Continuous
 62
     2
100
AcDbLine
 10
259.765
 20
170.35
 30
0.0
 11
260.735571419
 21
166.727778151
 31
0.0
  0
LINE
  5
264
330
1F
100
AcDbEntity
  8
7
  6
Continuous
 62
     2
100
AcDbLine
 10
241.265
 20
170.35
 30
0.0
 11
262.765
 21
170.35
 31
0.0
  0
TEXT
  5
265
330
1F
100
AcDbEntity
  8
7
  6
Continuous
 62
     2
100
AcDbText
 10
258.265
 20
129.925
 30
0.0
 40
4.5
  1
７５
 50
90.0
 41
0.6
  7
KANJI0
 72
     5
 11
258.265
 21
135.775
 31
0.0
100
AcDbText
  0
LINE
  5
266
330
1F
100
AcDbEntity
  8
7
  6
Continuous
 62
     2
100
AcDbLine
 10
214.765
 20
93.85
 30
0.0
 11
214.765
 21
80.35
 31
0.0
  0
LINE
  5
267
330
1F
100
AcDbEntity
  8
7
  6
Continuous
 62
     2
100
AcDbLine
 10
214.765
 20
83.35
 30
0.0
 11
211.142778151
 21
84.320571419
 31
0.0
  0
LINE
  5
268
330
1F
100
AcDbEntity
  8
7
  6
Continuous
 62
     2
100
AcDbLine
 10
214.765
 20
83.35
 30
0.0
 11
211.142778151
 21
82.379428581
 31
0.0
  0
LWPOLYLINE
  5
26A
330
1F
100
AcDbEntity
  8
7
  6
Continuous
 62
     2
100
AcDbPolyline
 90
     3
 70
   128
 43
0.0
 10
214.765
 20
83.35
 10
164.765
 20
83.35
 10
168.387221849
 20
82.379428581
  0
LINE
  5
26B
330
1F
100
AcDbEntity
  8
7
  6
Continuous
 62
     2
100
AcDbLine
 10
164.765
 20
83.35
 30
0.0
 11
168.387221849
 21
84.320571419
 31
0.0
  0
LINE
  5
26C
330
1F
100
AcDbEntity
  8
7
  6
Continuous
 62
     2
100
AcDbLine
 10
164.765
 20
93.85
 30
0.0
 11
164.765
 21
80.35
 31
0.0
  0
TEXT
  5
26D
330
1F
100
AcDbEntity
  8
7
  6
Continuous
 62
     2
100
AcDbText
 10
186.84
 20
84.85
 30
0.0
 40
4.5
  1
５０
 41
0.6
  7
KANJI0
 72
     5
 11
192.69
 21
84.85
 31
0.0
100
AcDbText
  0
TEXT
  5
26E
330
1F
100
AcDbEntity
  8
2
  6
Continuous
 62
     2
100
AcDbText
 10
537.75
 20
16.8
 30
0.0
 40
4.5
  1
ヒビノ（株）　新　CTLB-25-1　アダプター
 41
0.666666667
  7
KANJI1
 72
     5
 11
606.6
 21
16.8
 31
0.0
100
AcDbText
  0
ENDSEC
  0
SECTION
  2
OBJECTS
  0
DICTIONARY
  5
C
330
0
100
AcDbDictionary
280
     0
281
     1
  3
ACAD_GROUP
350
D
  3
ACAD_LAYOUT
350
1A
  3
ACAD_MLINESTYLE
350
17
  3
ACAD_PLOTSETTINGS
350
19
  3
ACAD_PLOTSTYLENAME
350
E
  0
DICTIONARY
  5
D
102
{ACAD_REACTORS
330
C
102
}
330
C
100
AcDbDictionary
280
     0
281
     1
  0
DICTIONARY
  5
1A
102
{ACAD_REACTORS
330
C
102
}
330
C
100
AcDbDictionary
280
     0
281
     1
  3
Model
350
22
  3
ﾚｲｱｳﾄ1
350
1E
  3
ﾚｲｱｳﾄ2
350
26
  0
LAYOUT
  5
22
102
{ACAD_REACTORS
330
1A
102
}
330
1A
100
AcDbPlotSettings
  1

  2

  4

  6

 40
0.0
 41
0.0
 42
0.0
 43
0.0
 44
0.0
 45
0.0
 46
0.0
 47
0.0
 48
0.0
 49
0.0
140
0.0
141
0.0
142
1.0
143
1.0
 70
  1712
 72
     0
 73
     0
 74
     0
  7

 75
     0
147
1.0
148
0.0
149
0.0
100
AcDbLayout
  1
Model
 70
     1
 71
     0
 10
0.0
 20
0.0
 11
0.0
 21
0.0
 12
0.0
 22
0.0
 32
0.0
 14
0.0
 24
0.0
 34
0.0
 15
0.0
 25
0.0
 35
0.0
146
0.0
 13
0.0
 23
0.0
 33
0.0
 16
1.0
 26
0.0
 36
0.0
 17
0.0
 27
1.0
 37
0.0
 76
     0
330
1F
331
0
345
0
346
0
  0
LAYOUT
  5
1E
102
{ACAD_REACTORS
330
1A
102
}
330
1A
100
AcDbPlotSettings
  1

  2

  4

  6

 40
0.0
 41
0.0
 42
0.0
 43
0.0
 44
0.0
 45
0.0
 46
0.0
 47
0.0
 48
0.0
 49
0.0
140
0.0
141
0.0
142
1.0
143
1.0
 70
   688
 72
     0
 73
     0
 74
     5
  7

 75
    16
147
1.0
148
0.0
149
0.0
100
AcDbLayout
  1
ﾚｲｱｳﾄ1
 70
     1
 71
     1
 10
0.0
 20
0.0
 11
0.0
 21
0.0
 12
0.0
 22
0.0
 32
0.0
 14
0.0
 24
0.0
 34
0.0
 15
0.0
 25
0.0
 35
0.0
146
0.0
 13
0.0
 23
0.0
 33
0.0
 16
1.0
 26
0.0
 36
0.0
 17
0.0
 27
1.0
 37
0.0
 76
     0
330
1B
331
0
345
0
346
0
  0
LAYOUT
  5
26
102
{ACAD_REACTORS
330
1A
102
}
330
1A
100
AcDbPlotSettings
  1

  2

  4

  6

 40
0.0
 41
0.0
 42
0.0
 43
0.0
 44
0.0
 45
0.0
 46
0.0
 47
0.0
 48
0.0
 49
0.0
140
0.0
141
0.0
142
1.0
143
1.0
 70
   688
 72
     0
 73
     0
 74
     5
  7

 75
    16
147
1.0
148
0.0
149
0.0
100
AcDbLayout
  1
ﾚｲｱｳﾄ2
 70
     1
 71
     2
 10
0.0
 20
0.0
 11
0.0
 21
0.0
 12
0.0
 22
0.0
 32
0.0
 14
0.0
 24
0.0
 34
0.0
 15
0.0
 25
0.0
 35
0.0
146
0.0
 13
0.0
 23
0.0
 33
0.0
 16
1.0
 26
0.0
 36
0.0
 17
0.0
 27
1.0
 37
0.0
 76
     0
330
23
331
0
345
0
346
0
  0
DICTIONARY
  5
17
102
{ACAD_REACTORS
330
C
102
}
330
C
100
AcDbDictionary
280
     0
281
     1
  3
Standard
350
18
  0
MLINESTYLE
  5
18
102
{ACAD_REACTORS
330
17
102
}
330
17
100
AcDbMlineStyle
  2
STANDARD
 70
     0
  3

 62
   256
 51
90.0
 52
90.0
 71
     2
 49
0.5
 62
   256
  6
ByLayer
 49
-0.5
 62
   256
  6
ByLayer
  0
DICTIONARY
  5
19
102
{ACAD_REACTORS
330
C
102
}
330
C
100
AcDbDictionary
280
     0
281
     1
  0
ACDBDICTIONARYWDFLT
  5
E
330
C
100
AcDbDictionary
281
     0
  3
Normal
350
F
100
AcDbDictionaryWithDefault
340
F
  0
ACDBPLACEHOLDER
  5
F
102
{ACAD_REACTORS
330
E
102
}
330
E
  0
ENDSEC
  0
EOF
